  0
SECTION
  2
HEADER
  9
$ACADVER
  1
AC1018
  9
$ACADMAINTVER
 70
     0
  9
$DWGCODEPAGE
  3
ANSI_1252
  9
$INSBASE
 10
0.0
 20
0.0
 30
0.0
  9
$EXTMIN
 10
-10.43137859355113
 20
-0.0021576644025792
 30
0.0
  9
$EXTMAX
 10
41.97844767930515
 20
61.51311016827538
 30
0.0
  9
$LIMMIN
 10
0.0
 20
0.0
  9
$LIMMAX
 10
12.0
 20
9.0
  9
$ORTHOMODE
 70
     0
  9
$REGENMODE
 70
     1
  9
$FILLMODE
 70
     1
  9
$QTEXTMODE
 70
     0
  9
$MIRRTEXT
 70
     1
  9
$LTSCALE
 40
0.0393700787401575
  9
$ATTMODE
 70
     1
  9
$TEXTSIZE
 40
0.2
  9
$TRACEWID
 40
0.05
  9
$TEXTSTYLE
  7
Standard
  9
$CLAYER
  8
Default
  9
$CELTYPE
  6
ByLayer
  9
$CECOLOR
 62
   256
  9
$CELTSCALE
 40
1.0
  9
$DISPSILH
 70
     0
  9
$DIMSCALE
 40
1.0
  9
$DIMASZ
 40
0.18
  9
$DIMEXO
 40
0.0625
  9
$DIMDLI
 40
0.38
  9
$DIMRND
 40
0.0
  9
$DIMDLE
 40
0.0
  9
$DIMEXE
 40
0.18
  9
$DIMTP
 40
0.0
  9
$DIMTM
 40
0.0
  9
$DIMTXT
 40
0.18
  9
$DIMCEN
 40
0.09
  9
$DIMTSZ
 40
0.0
  9
$DIMTOL
 70
     0
  9
$DIMLIM
 70
     0
  9
$DIMTIH
 70
     1
  9
$DIMTOH
 70
     1
  9
$DIMSE1
 70
     0
  9
$DIMSE2
 70
     0
  9
$DIMTAD
 70
     0
  9
$DIMZIN
 70
     0
  9
$DIMBLK
  1

  9
$DIMASO
 70
     1
  9
$DIMSHO
 70
     1
  9
$DIMPOST
  1

  9
$DIMAPOST
  1

  9
$DIMALT
 70
     0
  9
$DIMALTD
 70
     2
  9
$DIMALTF
 40
25.4
  9
$DIMLFAC
 40
1.0
  9
$DIMTOFL
 70
     0
  9
$DIMTVP
 40
0.0
  9
$DIMTIX
 70
     0
  9
$DIMSOXD
 70
     0
  9
$DIMSAH
 70
     0
  9
$DIMBLK1
  1

  9
$DIMBLK2
  1

  9
$DIMSTYLE
  2
Standard
  9
$DIMCLRD
 70
     0
  9
$DIMCLRE
 70
     0
  9
$DIMCLRT
 70
     0
  9
$DIMTFAC
 40
1.0
  9
$DIMGAP
 40
0.09
  9
$DIMJUST
 70
     0
  9
$DIMSD1
 70
     0
  9
$DIMSD2
 70
     0
  9
$DIMTOLJ
 70
     1
  9
$DIMTZIN
 70
     0
  9
$DIMALTZ
 70
     0
  9
$DIMALTTZ
 70
     0
  9
$DIMUPT
 70
     0
  9
$DIMDEC
 70
     4
  9
$DIMTDEC
 70
     4
  9
$DIMALTU
 70
     2
  9
$DIMALTTD
 70
     2
  9
$DIMTXSTY
  7
Standard
  9
$DIMAUNIT
 70
     0
  9
$DIMADEC
 70
     0
  9
$DIMALTRND
 40
0.0
  9
$DIMAZIN
 70
     0
  9
$DIMDSEP
 70
    46
  9
$DIMATFIT
 70
     3
  9
$DIMFRAC
 70
     0
  9
$DIMLDRBLK
  1

  9
$DIMLUNIT
 70
     2
  9
$DIMLWD
 70
    -2
  9
$DIMLWE
 70
    -2
  9
$DIMTMOVE
 70
     2
  9
$LUNITS
 70
     2
  9
$LUPREC
 70
     3
  9
$SKETCHINC
 40
0.1
  9
$FILLETRAD
 40
0.5
  9
$AUNITS
 70
     0
  9
$AUPREC
 70
     0
  9
$MENU
  1
.
  9
$ELEVATION
 40
0.0
  9
$PELEVATION
 40
0.0
  9
$THICKNESS
 40
0.0
  9
$LIMCHECK
 70
     0
  9
$CHAMFERA
 40
0.5
  9
$CHAMFERB
 40
0.5
  9
$CHAMFERC
 40
1.0
  9
$CHAMFERD
 40
0.0
  9
$SKPOLY
 70
     0
  9
$TDCREATE
 40
2456954.488772419
  9
$TDUCREATE
 40
2456954.655439086
  9
$TDUPDATE
 40
2456954.48877243
  9
$TDUUPDATE
 40
2456954.655439097
  9
$TDINDWG
 40
0.0000000116
  9
$TDUSRTIMER
 40
0.0000000116
  9
$USRTIMER
 70
     1
  9
$ANGBASE
 50
0.0
  9
$ANGDIR
 70
     0
  9
$PDMODE
 70
     0
  9
$PDSIZE
 40
0.0
  9
$PLINEWID
 40
0.0
  9
$SPLFRAME
 70
     0
  9
$SPLINETYPE
 70
     6
  9
$SPLINESEGS
 70
     8
  9
$HANDSEED
  5
14A
  9
$SURFTAB1
 70
     6
  9
$SURFTAB2
 70
     6
  9
$SURFTYPE
 70
     6
  9
$SURFU
 70
     6
  9
$SURFV
 70
     6
  9
$UCSBASE
  2

  9
$UCSNAME
  2

  9
$UCSORG
 10
0.0
 20
0.0
 30
0.0
  9
$UCSXDIR
 10
1.0
 20
0.0
 30
0.0
  9
$UCSYDIR
 10
0.0
 20
1.0
 30
0.0
  9
$UCSORTHOREF
  2

  9
$UCSORTHOVIEW
 70
     0
  9
$UCSORGTOP
 10
0.0
 20
0.0
 30
0.0
  9
$UCSORGBOTTOM
 10
0.0
 20
0.0
 30
0.0
  9
$UCSORGLEFT
 10
0.0
 20
0.0
 30
0.0
  9
$UCSORGRIGHT
 10
0.0
 20
0.0
 30
0.0
  9
$UCSORGFRONT
 10
0.0
 20
0.0
 30
0.0
  9
$UCSORGBACK
 10
0.0
 20
0.0
 30
0.0
  9
$PUCSBASE
  2

  9
$PUCSNAME
  2

  9
$PUCSORG
 10
0.0
 20
0.0
 30
0.0
  9
$PUCSXDIR
 10
1.0
 20
0.0
 30
0.0
  9
$PUCSYDIR
 10
0.0
 20
1.0
 30
0.0
  9
$PUCSORTHOREF
  2

  9
$PUCSORTHOVIEW
 70
     0
  9
$PUCSORGTOP
 10
0.0
 20
0.0
 30
0.0
  9
$PUCSORGBOTTOM
 10
0.0
 20
0.0
 30
0.0
  9
$PUCSORGLEFT
 10
0.0
 20
0.0
 30
0.0
  9
$PUCSORGRIGHT
 10
0.0
 20
0.0
 30
0.0
  9
$PUCSORGFRONT
 10
0.0
 20
0.0
 30
0.0
  9
$PUCSORGBACK
 10
0.0
 20
0.0
 30
0.0
  9
$USERI1
 70
     0
  9
$USERI2
 70
     0
  9
$USERI3
 70
     0
  9
$USERI4
 70
     0
  9
$USERI5
 70
     0
  9
$USERR1
 40
0.0
  9
$USERR2
 40
0.0
  9
$USERR3
 40
0.0
  9
$USERR4
 40
0.0
  9
$USERR5
 40
0.0
  9
$WORLDVIEW
 70
     1
  9
$SHADEDGE
 70
     3
  9
$SHADEDIF
 70
    70
  9
$TILEMODE
 70
     1
  9
$MAXACTVP
 70
    64
  9
$PINSBASE
 10
0.0
 20
0.0
 30
0.0
  9
$PLIMCHECK
 70
     0
  9
$PEXTMIN
 10
1.000000000000000E+20
 20
1.000000000000000E+20
 30
1.000000000000000E+20
  9
$PEXTMAX
 10
-1.000000000000000E+20
 20
-1.000000000000000E+20
 30
-1.000000000000000E+20
  9
$PLIMMIN
 10
0.0
 20
0.0
  9
$PLIMMAX
 10
12.0
 20
9.0
  9
$UNITMODE
 70
     0
  9
$VISRETAIN
 70
     1
  9
$PLINEGEN
 70
     0
  9
$PSLTSCALE
 70
     1
  9
$TREEDEPTH
 70
  3020
  9
$CMLSTYLE
  2
Standard
  9
$CMLJUST
 70
     0
  9
$CMLSCALE
 40
1.0
  9
$PROXYGRAPHICS
 70
     1
  9
$MEASUREMENT
 70
     0
  9
$CELWEIGHT
370
    -1
  9
$ENDCAPS
280
     0
  9
$JOINSTYLE
280
     0
  9
$LWDISPLAY
290
     0
  9
$INSUNITS
 70
     1
  9
$HYPERLINKBASE
  1

  9
$STYLESHEET
  1

  9
$XEDIT
290
     1
  9
$CEPSNTYPE
380
     0
  9
$PSTYLEMODE
290
     1
  9
$FINGERPRINTGUID
  2
{F45B6B41-094A-4966-844B-23042CBFA6F3}
  9
$VERSIONGUID
  2
{FAEB1C32-E019-11D5-929B-00C0DF256EC4}
  9
$EXTNAMES
290
     1
  9
$PSVPSCALE
 40
0.0
  9
$OLESTARTUP
290
     0
  9
$SORTENTS
280
   127
  9
$INDEXCTL
280
     0
  9
$HIDETEXT
280
     1
  9
$XCLIPFRAME
290
     0
  9
$HALOGAP
280
     0
  9
$OBSCOLOR
 70
   257
  9
$OBSLTYPE
280
     0
  9
$INTERSECTIONDISPLAY
280
     0
  9
$INTERSECTIONCOLOR
 70
   257
  9
$DIMASSOC
280
     2
  9
$PROJECTNAME
  1

  0
ENDSEC
  0
SECTION
  2
CLASSES
  0
CLASS
  1
ACDBDICTIONARYWDFLT
  2
AcDbDictionaryWithDefault
  3
ObjectDBX Classes
 90
        0
 91
        4
280
     0
281
     0
  0
CLASS
  1
VISUALSTYLE
  2
AcDbVisualStyle
  3
ObjectDBX Classes
 90
     4095
 91
        4
280
     0
281
     0
  0
ENDSEC
  0
SECTION
  2
TABLES
  0
TABLE
  2
VPORT
  5
8
330
0
100
AcDbSymbolTable
 70
     1
  0
VPORT
  5
29
330
8
100
AcDbSymbolTableRecord
100
AcDbViewportTableRecord
  2
*Active
 70
     0
 10
0.0
 20
0.0
 11
1.0
 21
1.0
 12
15.77353454287701
 22
30.7554762519364
 13
0.0
 23
0.0
 14
0.5
 24
0.5
 15
0.5
 25
0.5
 16
0.0
 26
0.0
 36
1.0
 17
0.0
 27
0.0
 37
0.0
 40
62.74557318933152
 41
0.8519807865489825
 42
50.0
 43
0.0
 44
0.0
 50
0.0
 51
0.0
 71
     0
 72
   100
 73
     1
 74
     3
 75
     0
 76
     0
 77
     0
 78
     0
281
     0
 65
     1
110
0.0
120
0.0
130
0.0
111
1.0
121
0.0
131
0.0
112
0.0
122
1.0
132
0.0
 79
     0
146
0.0
  0
ENDTAB
  0
TABLE
  2
LTYPE
  5
5
330
0
100
AcDbSymbolTable
 70
     1
  0
LTYPE
  5
14
330
5
100
AcDbSymbolTableRecord
100
AcDbLinetypeTableRecord
  2
ByBlock
 70
     0
  3

 72
    65
 73
     0
 40
0.0
  0
LTYPE
  5
15
330
5
100
AcDbSymbolTableRecord
100
AcDbLinetypeTableRecord
  2
ByLayer
 70
     0
  3

 72
    65
 73
     0
 40
0.0
  0
LTYPE
  5
16
330
5
100
AcDbSymbolTableRecord
100
AcDbLinetypeTableRecord
  2
Continuous
 70
     0
  3
Solid line
 72
    65
 73
     0
 40
0.0
  0
ENDTAB
  0
TABLE
  2
LAYER
  5
2
330
0
100
AcDbSymbolTable
 70
     2
  0
LAYER
  5
10
330
2
100
AcDbSymbolTableRecord
100
AcDbLayerTableRecord
  2
0
 70
     0
 62
     7
  6
Continuous
370
    -3
390
F
  0
LAYER
  5
3B
330
2
100
AcDbSymbolTableRecord
100
AcDbLayerTableRecord
  2
Default
 70
     0
 62
     7
  6
Continuous
370
    -3
390
F
  0
ENDTAB
  0
TABLE
  2
STYLE
  5
3
330
0
100
AcDbSymbolTable
 70
     1
  0
STYLE
  5
11
330
3
100
AcDbSymbolTableRecord
100
AcDbTextStyleTableRecord
  2
Standard
 70
     0
 40
0.0
 41
1.0
 50
0.0
 71
     0
 42
0.2
  3
txt
  4

  0
ENDTAB
  0
TABLE
  2
VIEW
  5
6
330
0
100
AcDbSymbolTable
 70
     0
  0
ENDTAB
  0
TABLE
  2
UCS
  5
7
330
0
100
AcDbSymbolTable
 70
     0
  0
ENDTAB
  0
TABLE
  2
APPID
  5
9
330
0
100
AcDbSymbolTable
 70
     1
  0
APPID
  5
12
330
9
100
AcDbSymbolTableRecord
100
AcDbRegAppTableRecord
  2
ACAD
 70
     0
  0
ENDTAB
  0
TABLE
  2
DIMSTYLE
  5
A
330
0
100
AcDbSymbolTable
 70
     1
100
AcDbDimStyleTable
  0
DIMSTYLE
105
27
330
A
100
AcDbSymbolTableRecord
100
AcDbDimStyleTableRecord
  2
Standard
 70
     0
340
11
  0
ENDTAB
  0
TABLE
  2
BLOCK_RECORD
  5
1
330
0
100
AcDbSymbolTable
 70
     1
  0
BLOCK_RECORD
  5
1F
330
1
100
AcDbSymbolTableRecord
100
AcDbBlockTableRecord
  2
*Model_Space
340
22
  0
BLOCK_RECORD
  5
1B
330
1
100
AcDbSymbolTableRecord
100
AcDbBlockTableRecord
  2
*Paper_Space
340
1E
  0
BLOCK_RECORD
  5
23
330
1
100
AcDbSymbolTableRecord
100
AcDbBlockTableRecord
  2
*Paper_Space0
340
26
  0
ENDTAB
  0
ENDSEC
  0
SECTION
  2
BLOCKS
  0
BLOCK
  5
20
330
1F
100
AcDbEntity
  8
0
100
AcDbBlockBegin
  2
*Model_Space
 70
     0
 10
0.0
 20
0.0
 30
0.0
  3
*Model_Space
  1

  0
ENDBLK
  5
21
330
1F
100
AcDbEntity
  8
0
100
AcDbBlockEnd
  0
BLOCK
  5
1C
330
1B
100
AcDbEntity
 67
     1
  8
0
100
AcDbBlockBegin
  2
*Paper_Space
 70
     0
 10
0.0
 20
0.0
 30
0.0
  3
*Paper_Space
  1

  0
ENDBLK
  5
1D
330
1B
100
AcDbEntity
 67
     1
  8
0
100
AcDbBlockEnd
  0
BLOCK
  5
24
330
23
100
AcDbEntity
  8
0
100
AcDbBlockBegin
  2
*Paper_Space0
 70
     0
 10
0.0
 20
0.0
 30
0.0
  3
*Paper_Space0
  1

  0
ENDBLK
  5
25
330
23
100
AcDbEntity
  8
0
100
AcDbBlockEnd
  0
ENDSEC
  0
SECTION
  2
ENTITIES
  0
SPLINE
  5
3C
330
1F
100
AcDbEntity
  8
Default
100
AcDbSpline
210
0.0
220
0.0
230
1.0
 70
    12
 71
     3
 72
    10
 73
     6
 74
     0
 42
0.0000000001
 43
0.0000000001
 40
0.2763952092705486
 40
0.2763952092705486
 40
0.2763952092705486
 40
0.2763952092705486
 40
0.4932085681507576
 40
0.4932085681507576
 40
1.0
 40
1.0
 40
1.0
 40
1.0
 10
38.18955315648736
 20
17.6839153359648
 30
0.0
 41
1.0
 10
38.18024920676959
 20
17.68566011527003
 30
0.0
 41
1.0
 10
38.17503736378109
 20
17.68759828052032
 30
0.0
 41
1.0
 10
38.16416406443432
 20
17.69409684075057
 30
0.0
 41
1.0
 10
38.17024957954897
 20
17.69880539991034
 30
0.0
 41
1.0
 10
38.19548742152989
 20
17.70416701734926
 30
0.0
 41
1.0
  0
SPLINE
  5
3D
330
1F
100
AcDbEntity
  8
Default
100
AcDbSpline
210
0.0
220
0.0
230
1.0
 70
    12
 71
     2
 72
    10
 73
     7
 74
     0
 42
0.0000000001
 43
0.0000000001
 40
-0.1248801932281091
 40
-0.1248801932281091
 40
-0.1248801932281091
 40
-0.0826066040738618
 40
-0.0826066040738618
 40
-0.0409792975273575
 40
-0.0409792975273575
 40
0.0
 40
0.0
 40
0.0
 10
38.19548742152989
 20
17.70416701734926
 30
0.0
 41
1.0
 10
38.21616281027971
 20
17.70855939045694
 30
0.0
 41
0.9999990658197156
 10
38.23685012945015
 20
17.71289522567234
 30
0.0
 41
1.0
 10
38.25722118393621
 20
17.717164751487
 30
0.0
 41
0.9999990495778065
 10
38.27760393384932
 20
17.72137808953781
 30
0.0
 41
1.0
 10
38.29766939182657
 20
17.72552581640145
 30
0.0
 41
0.9999990433293221
 10
38.31774624757486
 20
17.7296180169387
 30
0.0
 41
1.0
  0
SPLINE
  5
3E
330
1F
100
AcDbEntity
  8
Default
100
AcDbSpline
210
0.0
220
0.0
230
1.0
 70
    12
 71
     2
 72
     6
 73
     3
 74
     0
 42
0.0000000001
 43
0.0000000001
 40
0.0
 40
0.0
 40
0.0
 40
0.2374976521079508
 40
0.2374976521079508
 40
0.2374976521079508
 10
38.31774624757486
 20
17.7296180169387
 30
0.0
 41
1.0
 10
38.4355156842077
 20
17.74774726689777
 30
0.0
 41
0.994873878221835
 10
38.55452430002259
 20
17.7418093151702
 30
0.0
 41
1.0
  0
SPLINE
  5
3F
330
1F
100
AcDbEntity
  8
Default
100
AcDbSpline
210
0.0
220
0.0
230
1.0
 70
    12
 71
     2
 72
     6
 73
     3
 74
     0
 42
0.0000000001
 43
0.0000000001
 40
0.0
 40
0.0
 40
0.0
 40
0.4479060698441537
 40
0.4479060698441537
 40
0.4479060698441537
 10
38.55452430002259
 20
17.7418093151702
 30
0.0
 41
1.0
 10
38.77827092629921
 20
17.73219450313504
 30
0.0
 41
0.999999265629242
 10
39.00199842896148
 20
17.72214453133652
 30
0.0
 41
0.9999994769755175
  0
LINE
  5
40
330
1F
100
AcDbEntity
  8
Default
100
AcDbLine
 10
39.00199842896149
 20
17.72214453133653
 30
0.0
 11
39.00235299546262
 21
17.40547256816872
 31
0.0
  0
SPLINE
  5
41
330
1F
100
AcDbEntity
  8
Default
100
AcDbSpline
210
0.0
220
0.0
230
1.0
 70
     8
 71
     3
 72
    11
 73
     7
 74
     0
 42
0.0000000001
 43
0.0000000001
 40
-0.5204527476717682
 40
-0.5204527476717682
 40
-0.5204527476717682
 40
-0.5204527476717682
 40
-0.24135697363644
 40
-0.1171127626665703
 40
-0.0593922039255206
 40
0.0
 40
0.0
 40
0.0
 40
0.0
 10
39.00235299546262
 20
17.40547256816872
 30
0.0
 10
39.00250290980767
 20
17.31288348669361
 30
0.0
 10
39.05172780017188
 20
17.17576137787464
 30
0.0
 10
39.18363011878506
 20
17.08841082145712
 30
0.0
 10
39.26339650053194
 20
17.07267647529197
 30
0.0
 10
39.30253366928969
 20
17.07495952127971
 30
0.0
 10
39.32200314452734
 20
17.07899172879918
 30
0.0
  0
ARC
  5
42
330
1F
100
AcDbEntity
  8
Default
100
AcDbCircle
 10
39.27235312979707
 20
17.31872634753424
 30
0.0
 40
0.2448219993847798
100
AcDbArc
 50
281.7007704361189
 51
296.7755955130899
  0
SPLINE
  5
43
330
1F
100
AcDbEntity
  8
Default
100
AcDbSpline
210
0.0
220
0.0
230
1.0
 70
     8
 71
     3
 72
    13
 73
     9
 74
     0
 42
0.0000000001
 43
0.0000000001
 40
0.0
 40
0.0
 40
0.0
 40
0.0
 40
0.2875411197172827
 40
0.5613142304082114
 40
1.271743823927012
 40
1.51274677989842
 40
1.755978642743967
 40
6.997279619519469
 40
6.997279619519469
 40
6.997279619519469
 40
6.997279619519469
 10
38.19370476401951
 20
17.49593606926155
 30
0.0
 10
38.09981907691059
 20
17.4767178014263
 30
0.0
 10
37.91660012403361
 20
17.43846294817095
 30
0.0
 10
37.49754587771594
 20
17.37379937804316
 30
0.0
 10
37.09131626746887
 20
17.33042770755378
 30
0.0
 10
36.69437858778019
 20
17.29858940675584
 30
0.0
 10
34.79129885490579
 20
17.15462004339025
 30
0.0
 10
32.96840461295923
 20
17.01580871358867
 30
0.0
 10
31.22629772251722
 20
16.88378373483289
 30
0.0
  0
ARC
  5
44
330
1F
100
AcDbEntity
  8
Default
100
AcDbCircle
 10
-515.6653165017003
 20
7233.273124931825
 30
0.0
 40
7237.082669242513
100
AcDbArc
 50
274.3337407852223
 51
274.3338569498912
  0
ARC
  5
45
330
1F
100
AcDbEntity
  8
Default
100
AcDbCircle
 10
33.05146420917683
 20
-17.9353229762167
 30
0.0
 40
34.85791324720446
100
AcDbArc
 50
93.97510524278906
 51
94.00767516222474
  0
SPLINE
  5
46
330
1F
100
AcDbEntity
  8
Default
100
AcDbSpline
210
0.0
220
0.0
230
1.0
 70
     8
 71
     3
 72
    26
 73
    22
 74
     0
 42
0.0000000001
 43
0.0000000001
 40
0.0
 40
0.0
 40
0.0
 40
0.0
 40
1.333732491878348
 40
1.612031461804765
 40
2.392106064337254
 40
2.717969222971324
 40
2.745125979489186
 40
2.803067299916767
 40
3.455124357712558
 40
3.54023324386009
 40
3.595660178871676
 40
3.626930224215666
 40
3.861208913882892
 40
4.061628228790531
 40
4.304356808173827
 40
4.977239982903842
 40
5.866678241057951
 40
6.144397678862488
 40
6.480624495968338
 40
10.93997226665676
 40
22.20463678737137
 40
22.20463678737137
 40
22.20463678737137
 40
22.20463678737137
 10
30.61524103905748
 20
16.83735210947387
 30
0.0
 10
30.17181895992906
 20
16.80628532670107
 30
0.0
 10
29.63636684029581
 20
16.75846884539705
 30
0.0
 10
28.84070988093202
 20
16.70939065076155
 30
0.0
 10
28.37774723530907
 20
16.7135083377617
 30
0.0
 10
28.00473728163371
 20
16.78319512573547
 30
0.0
 10
27.88029683288119
 20
16.84276757624892
 30
0.0
 10
27.67301936204188
 20
16.97465261616183
 30
0.0
 10
27.44737627904226
 20
17.11378103786706
 30
0.0
 10
27.22335413271162
 20
17.25380484949562
 30
0.0
 10
27.17555109688629
 20
17.28529420403024
 30
0.0
 10
27.08364610043162
 20
17.34036616187903
 30
0.0
 10
26.92570805674035
 20
17.37400758286633
 30
0.0
 10
26.70377490890712
 20
17.31464845363689
 30
0.0
 10
26.39749495142104
 20
17.09610746255915
 30
0.0
 10
26.03425844746812
 20
16.60843256648251
 30
0.0
 10
25.765443449119
 20
16.05663578030793
 30
0.0
 10
25.60719274679388
 20
15.57974140165109
 30
0.0
 10
25.03188810092769
 20
13.99005551152774
 30
0.0
 10
23.22655199368893
 20
8.949924265496819
 30
0.0
 10
21.45687069152615
 20
4.016381304407233
 30
0.0
 10
20.18899108359574
 20
0.4820261301066751
 30
0.0
  0
SPLINE
  5
47
330
1F
100
AcDbEntity
  8
Default
100
AcDbSpline
210
0.0
220
0.0
230
1.0
 70
    12
 71
     2
 72
     6
 73
     3
 74
     0
 42
0.0000000001
 43
0.0000000001
 40
0.0
 40
0.0
 40
0.0
 40
1.028939145799932
 40
1.028939145799932
 40
1.028939145799932
 10
25.50199778231897
 20
17.76359224817503
 30
0.0
 41
1.0
 10
25.0055916492594
 20
17.62805189614232
 30
0.0
 41
0.9996847626429552
 10
24.51660420118654
 20
17.46779589540942
 30
0.0
 41
1.0
  0
SPLINE
  5
48
330
1F
100
AcDbEntity
  8
Default
100
AcDbSpline
210
0.0
220
0.0
230
1.0
 70
    12
 71
     2
 72
     8
 73
     5
 74
     0
 42
0.0000000001
 43
0.0000000001
 40
0.0
 40
0.0
 40
0.0
 40
0.2480413906436348
 40
0.2480413906436348
 40
0.4960827812872695
 40
0.4960827812872695
 40
0.4960827812872695
 10
24.51660420118654
 20
17.46779589540942
 30
0.0
 41
1.0
 10
24.3784855503864
 20
17.4206409670174
 30
0.0
 41
0.789163887482902
 10
24.39031451133039
 20
17.27517477138132
 30
0.0
 41
1.0
 10
24.40214347227435
 20
17.12970857574521
 30
0.0
 41
0.789163887482902
 10
24.54606043333078
 20
17.1054547778954
 30
0.0
 41
1.0
  0
SPLINE
  5
49
330
1F
100
AcDbEntity
  8
Default
100
AcDbSpline
210
0.0
220
0.0
230
1.0
 70
    12
 71
     2
 72
     6
 73
     3
 74
     0
 42
0.0000000001
 43
0.0000000001
 40
-1.133989093032674
 40
-1.133989093032674
 40
-1.133989093032674
 40
0.0
 40
0.0
 40
0.0
 10
24.54606043333078
 20
17.1054547778954
 30
0.0
 41
1.0
 10
25.08490344842048
 20
17.28261812975761
 30
0.0
 41
0.9994036212236324
 10
25.63468944835651
 20
17.42216741290991
 30
0.0
 41
1.0
  0
SPLINE
  5
4A
330
1F
100
AcDbEntity
  8
Default
100
AcDbSpline
210
0.0
220
0.0
230
1.0
 70
    12
 71
     2
 72
     6
 73
     3
 74
     0
 42
0.0000000001
 43
0.0000000001
 40
0.0
 40
0.0
 40
0.0
 40
1.585206737772501
 40
1.585206737772501
 40
1.585206737772501
 10
26.11643395945904
 20
16.83138137475692
 30
0.0
 41
1.0
 10
25.33589661514052
 20
16.96916042378557
 30
0.0
 41
0.9999981950748427
 10
24.55484135771238
 20
17.10397250436785
 30
0.0
 41
1.0
  0
SPLINE
  5
4B
330
1F
100
AcDbEntity
  8
Default
100
AcDbSpline
210
0.0
220
0.0
230
1.0
 70
    12
 71
     2
 72
     6
 73
     3
 74
     0
 42
0.0000000001
 43
0.0000000001
 40
0.0
 40
0.0
 40
0.0
 40
0.2694352294370967
 40
0.2694352294370967
 40
0.2694352294370967
 10
41.43608355004088
 20
17.39951233157002
 30
0.0
 41
1.0
 10
41.59979178098042
 20
17.39059364724301
 30
0.0
 41
0.7527987045806618
 10
41.63047224573131
 20
17.55164841088226
 30
0.0
 41
0.9999995315448611
  0
SPLINE
  5
4C
330
1F
100
AcDbEntity
  8
Default
100
AcDbSpline
210
0.0
220
0.0
230
1.0
 70
     8
 71
     3
 72
    39
 73
    35
 74
     0
 42
0.0000000001
 43
0.0000000001
 40
0.0
 40
0.0
 40
0.0
 40
0.0
 40
0.9999994524989402
 40
1.999999470160265
 40
2.999999487821589
 40
3.999999505482914
 40
4.999999523144238
 40
5.999999540805562
 40
6.999999558466887
 40
7.999999576128211
 40
8.999999593789536
 40
9.99999961145086
 40
10.99999962911218
 40
11.99999964677351
 40
12.99999966443483
 40
13.99999968209616
 40
14.99999969975748
 40
15.99999971741881
 40
16.99999973508013
 40
17.99999975274146
 40
18.99999977040278
 40
19.99999978806411
 40
20.99999980572543
 40
21.99999982338676
 40
22.99999984104808
 40
23.9999998587094
 40
24.99999987637073
 40
25.99999989403205
 40
26.99999991169338
 40
27.9999999293547
 40
28.99999994701603
 40
29.99999996467735
 40
30.99999998233868
 40
32.0
 40
32.0
 40
32.0
 40
32.0
 10
41.63047224573134
 20
17.55164841088225
 30
0.0
 10
41.65240764306898
 20
17.71448844637196
 30
0.0
 10
41.52478692770163
 20
18.06936124625335
 30
0.0
 10
41.03023644017176
 20
18.23249672671822
 30
0.0
 10
40.53772784331395
 20
18.27824672531936
 30
0.0
 10
40.03973926373058
 20
18.30803296874063
 30
0.0
 10
39.54198706224381
 20
18.31361076143362
 30
0.0
 10
39.04406635567668
 20
18.30631645043047
 30
0.0
 10
38.54643339545876
 20
18.28998969805674
 30
0.0
 10
38.04900308164474
 20
18.26816751204866
 30
0.0
 10
37.55180420450495
 20
18.24170384884222
 30
0.0
 10
37.0547397334764
 20
18.21286444309591
 30
0.0
 10
36.55772310864288
 20
18.18321506110078
 30
0.0
 10
36.06071917575727
 20
18.15335397546401
 30
0.0
 10
35.5636768057708
 20
18.12413737334286
 30
0.0
 10
35.06655164117061
 20
18.09635694330021
 30
0.0
 10
34.56930553386994
 20
18.07080595289797
 30
0.0
 10
34.07191021442478
 20
18.04833864076834
 30
0.0
 10
33.57436063248605
 20
18.02954842502224
 30
0.0
 10
33.07668949564987
 20
18.01437252432345
 30
0.0
 10
32.57892159586228
 20
18.00271375139732
 30
0.0
 10
32.08107433348104
 20
17.99525063561232
 30
0.0
 10
31.58319735388108
 20
17.99039629390857
 30
0.0
 10
31.08530403782382
 20
17.98727434182648
 30
0.0
 10
30.58740474364694
 20
17.98984546272615
 30
0.0
 10
30.08950639104418
 20
17.99083782867417
 30
0.0
 10
29.59161730296503
 20
17.99466880292043
 30
0.0
 10
29.09377065799802
 20
18.00203793505256
 30
0.0
 10
28.59593882925631
 20
18.01034592285657
 30
0.0
 10
28.09808448827013
 20
18.0170034849092
 30
0.0
 10
27.60018445420164
 20
18.02039906426067
 30
0.0
 10
27.1022875959984
 20
18.01196458641158
 30
0.0
 10
26.60515350255511
 20
17.98107302200934
 30
0.0
 10
26.27568462392051
 20
17.93893205608119
 30
0.0
 10
26.11210092468738
 20
17.91084634233165
 30
0.0
  0
SPLINE
  5
4D
330
1F
100
AcDbEntity
  8
Default
100
AcDbSpline
210
0.0
220
0.0
230
1.0
 70
    12
 71
     2
 72
     6
 73
     3
 74
     0
 42
0.0000000001
 43
0.0000000001
 40
-1.218903147976825
 40
-1.218903147976825
 40
-1.218903147976825
 40
0.0
 40
0.0
 40
0.0
 10
40.21760634364162
 20
17.41870820465031
 30
0.0
 41
1.0
 10
40.82719808487832
 20
17.43152605753978
 30
0.0
 41
0.9993238195853504
 10
41.43608355004088
 20
17.39951233157002
 30
0.0
 41
1.0
  0
SPLINE
  5
4E
330
1F
100
AcDbEntity
  8
Default
100
AcDbSpline
210
0.0
220
0.0
230
1.0
 70
     8
 71
     3
 72
    44
 73
    40
 74
     0
 42
0.0000000001
 43
0.0000000001
 40
0.0
 40
0.0
 40
0.0
 40
0.0
 40
1.0
 40
2.0
 40
3.0
 40
4.0
 40
5.0
 40
6.0
 40
7.0
 40
8.0
 40
9.0
 40
10.0
 40
11.0
 40
12.0
 40
13.0
 40
14.0
 40
15.0
 40
16.0
 40
17.0
 40
18.0
 40
19.0
 40
20.0
 40
21.0
 40
22.0
 40
23.0
 40
24.0
 40
25.0
 40
26.0
 40
27.0
 40
28.0
 40
29.0
 40
30.0
 40
31.0
 40
32.0
 40
33.0
 40
34.0
 40
35.0
 40
36.0
 40
37.0
 40
37.0
 40
37.0
 40
37.0
 10
41.43608355004088
 20
17.39951233157002
 30
0.0
 10
41.46011442961424
 20
17.53993234188519
 30
0.0
 10
41.29107925228644
 20
17.81303865835238
 30
0.0
 10
40.85665775185458
 20
17.86363708334353
 30
0.0
 10
40.4473419653651
 20
17.91162653938117
 30
0.0
 10
40.02875798866685
 20
17.9316918174766
 30
0.0
 10
39.61178401409873
 20
17.93802469219446
 30
0.0
 10
39.1942564001356
 20
17.93428079009381
 30
0.0
 10
38.77701421232814
 20
17.9232245662479
 30
0.0
 10
38.35991903593066
 20
17.9066857492287
 30
0.0
 10
37.94300080532659
 20
17.88650158500457
 30
0.0
 10
37.52612274973151
 20
17.86540790684322
 30
0.0
 10
37.10946105864238
 20
17.84041466384244
 30
0.0
 10
36.69278420669232
 20
17.81573378370075
 30
0.0
 10
36.27613602869448
 20
17.7905526425899
 30
0.0
 10
35.85946749971339
 20
17.76571831884719
 30
0.0
 10
35.44275511265616
 20
17.74162956135359
 30
0.0
 10
35.02596981170839
 20
17.71881896721817
 30
0.0
 10
34.60909812695374
 20
17.69765534823779
 30
0.0
 10
34.19212835943355
 20
17.67849571661506
 30
0.0
 10
33.7750575551394
 20
17.66168317488878
 30
0.0
 10
33.35789246866898
 20
17.64738260692182
 30
0.0
 10
32.94064111248073
 20
17.63586245398423
 30
0.0
 10
32.52332477376686
 20
17.6269948270543
 30
0.0
 10
32.10595918016
 20
17.62098759767531
 30
0.0
 10
31.68857873972911
 20
17.61611127352239
 30
0.0
 10
31.27116973018013
 20
17.61480447493501
 30
0.0
 10
30.85376457803508
 20
17.61358619468595
 30
0.0
 10
30.43635503506584
 20
17.61370576934996
 30
0.0
 10
30.01895301796856
 20
17.61628088983666
 30
0.0
 10
29.6015686476139
 20
17.62073120852318
 30
0.0
 10
29.18419710757391
 20
17.62628181487327
 30
0.0
 10
28.76683157093387
 20
17.63224431603018
 30
0.0
 10
28.34946056946123
 20
17.6377781366333
 30
0.0
 10
27.93207991711634
 20
17.64256480327748
 30
0.0
 10
27.51466354785396
 20
17.64413298211396
 30
0.0
 10
27.09729268374159
 20
17.63559865854583
 30
0.0
 10
26.68050130097251
 20
17.61093442437718
 30
0.0
 10
26.4038791871692
 20
17.57955957610329
 30
0.0
 10
26.26624502727717
 20
17.55913966940275
 30
0.0
  0
SPLINE
  5
4F
330
1F
100
AcDbEntity
  8
Default
100
AcDbSpline
210
0.0
220
0.0
230
1.0
 70
     8
 71
     3
 72
     9
 73
     5
 74
     0
 42
0.0000000001
 43
0.0000000001
 40
6.842029145260939
 40
6.842029145260939
 40
6.842029145260939
 40
6.842029145260939
 40
8.48566559748362
 40
8.786158513822246
 40
8.786158513822246
 40
8.786158513822246
 40
8.786158513822246
 10
6.829110055546096
 20
17.71477068238141
 30
0.0
 10
7.375044677632786
 20
17.76107940216546
 30
0.0
 10
8.020781293114652
 20
17.81585013702015
 30
0.0
 10
8.666756334615627
 20
17.86706230832247
 30
0.0
 10
8.766743832006483
 20
17.87302107521904
 30
0.0
  0
SPLINE
  5
50
330
1F
100
AcDbEntity
  8
Default
100
AcDbSpline
210
0.0
220
0.0
230
1.0
 70
     8
 71
     3
 72
    14
 73
    10
 74
     0
 42
0.0000000001
 43
0.0000000001
 40
-0.7493592323395314
 40
-0.7493592323395314
 40
-0.7493592323395314
 40
-0.7493592323395314
 40
-0.6364571028187693
 40
-0.5728043778354789
 40
-0.5212405140550765
 40
-0.4428105730923869
 40
-0.236033907949051
 40
-0.1386700413601305
 40
0.0
 40
0.0
 40
0.0
 40
0.0
 10
8.766743832006483
 20
17.87302107521904
 30
0.0
 10
8.806413443274522
 20
17.87387477743928
 30
0.0
 10
8.858712334425917
 20
17.87903742486365
 30
0.0
 10
8.943656674042103
 20
17.85529360592007
 30
0.0
 10
8.952796514647076
 20
17.78601106340085
 30
0.0
 10
8.881377074535152
 20
17.69426898814464
 30
0.0
 10
8.797565598846745
 20
17.59794302756845
 30
0.0
 10
8.647710644734218
 20
17.55583413630688
 30
0.0
 10
8.573088542952604
 20
17.55218610067077
 30
0.0
 10
8.525182166007
 20
17.55147877334889
 30
0.0
  0
SPLINE
  5
51
330
1F
100
AcDbEntity
  8
Default
100
AcDbSpline
210
0.0
220
0.0
230
1.0
 70
    12
 71
     2
 72
     6
 73
     3
 74
     0
 42
0.0000000001
 43
0.0000000001
 40
-1.262694154255722
 40
-1.262694154255722
 40
-1.262694154255722
 40
-0.094151593424879
 40
-0.094151593424879
 40
-0.094151593424879
 10
8.525182166007
 20
17.55147877334889
 30
0.0
 41
1.0
 10
7.940549382390667
 20
17.54779543527266
 30
0.0
 41
0.9992797108080521
 10
7.357838953166031
 20
17.50147624250915
 30
0.0
 41
0.999892584637507
  0
SPLINE
  5
52
330
1F
100
AcDbEntity
  8
Default
100
AcDbSpline
210
0.0
220
0.0
230
1.0
 70
     8
 71
     3
 72
    11
 73
     7
 74
     0
 42
0.0000000001
 43
0.0000000001
 40
-6.842029154230282
 40
-6.842029154230282
 40
-6.842029154230282
 40
-6.842029154230282
 40
-3.288364899164057
 40
-1.631728003223911
 40
-0.8285586381605129
 40
0.0
 40
0.0
 40
0.0
 40
0.0
 10
-6.829104875385639
 20
17.71477068313953
 30
0.0
 10
-5.648753618580173
 20
17.61464778675828
 30
0.0
 10
-3.918109826597203
 20
17.46782533182088
 30
0.0
 10
-1.916200514621437
 20
17.36201853861979
 30
0.0
 10
-0.8199129439082924
 20
17.3442147059319
 30
0.0
 10
-0.2762914129133094
 20
17.33510276087459
 30
0.0
 10
0.0000025945489881
 20
17.33696342785478
 30
0.0
  0
SPLINE
  5
53
330
1F
100
AcDbEntity
  8
Default
100
AcDbSpline
210
0.0
220
0.0
230
1.0
 70
     8
 71
     3
 72
    11
 73
     7
 74
     0
 42
0.0000000001
 43
0.0000000001
 40
0.0
 40
0.0
 40
0.0
 40
0.0
 40
0.8285586381605129
 40
1.631728003223911
 40
3.288364899164057
 40
6.842029145260939
 40
6.842029145260939
 40
6.842029145260939
 40
6.842029145260939
 10
0.0000025945489881
 20
17.33696342785478
 30
0.0
 10
0.2762966020112856
 20
17.33510276087459
 30
0.0
 10
0.8199181330062686
 20
17.3442147059319
 30
0.0
 10
1.916205703719413
 20
17.36201853861979
 30
0.0
 10
3.918115012709222
 20
17.46782533166306
 30
0.0
 10
5.64875880171968
 20
17.61464778625279
 30
0.0
 10
6.829110055546096
 20
17.71477068238141
 30
0.0
  0
SPLINE
  5
54
330
1F
100
AcDbEntity
  8
Default
100
AcDbSpline
210
0.0
220
0.0
230
1.0
 70
    12
 71
     2
 72
     6
 73
     3
 74
     0
 42
0.0000000001
 43
0.0000000001
 40
0.094151604616153
 40
0.094151604616153
 40
0.094151604616153
 40
1.262694154255722
 40
1.262694154255722
 40
1.262694154255722
 10
-7.357833775222587
 20
17.50147624339581
 30
0.0
 41
0.9998925846257678
 10
-7.94054419889581
 20
17.54779543530796
 30
0.0
 41
0.9992797108149504
 10
-8.525176976909023
 20
17.55147877334889
 30
0.0
 41
1.0
  0
SPLINE
  5
55
330
1F
100
AcDbEntity
  8
Default
100
AcDbSpline
210
0.0
220
0.0
230
1.0
 70
     8
 71
     3
 72
    14
 73
    10
 74
     0
 42
0.0000000001
 43
0.0000000001
 40
0.0
 40
0.0
 40
0.0
 40
0.0
 40
0.1386700413601305
 40
0.236033907949051
 40
0.4428105730923869
 40
0.5212405140550765
 40
0.5728043778354789
 40
0.6364571028187693
 40
0.7493592323395314
 40
0.7493592323395314
 40
0.7493592323395314
 40
0.7493592323395314
 10
-8.525176976909023
 20
17.55147877334889
 30
0.0
 10
-8.573083353854628
 20
17.55218610067077
 30
0.0
 10
-8.647705455636242
 20
17.55583413630688
 30
0.0
 10
-8.797560409748769
 20
17.59794302756845
 30
0.0
 10
-8.881371885437176
 20
17.69426898814464
 30
0.0
 10
-8.9527913255491
 20
17.78601106340085
 30
0.0
 10
-8.943651484944127
 20
17.85529360592007
 30
0.0
 10
-8.85870714532794
 20
17.87903742486365
 30
0.0
 10
-8.806408254176546
 20
17.87387477743928
 30
0.0
 10
-8.766738642908507
 20
17.87302107521904
 30
0.0
  0
SPLINE
  5
56
330
1F
100
AcDbEntity
  8
Default
100
AcDbSpline
210
0.0
220
0.0
230
1.0
 70
     8
 71
     3
 72
     9
 73
     5
 74
     0
 42
0.0000000001
 43
0.0000000001
 40
-8.786158513822246
 40
-8.786158513822246
 40
-8.786158513822246
 40
-8.786158513822246
 40
-8.48566559748362
 40
-6.842029154230282
 40
-6.842029154230282
 40
-6.842029154230282
 40
-6.842029154230282
 10
-8.766738642908507
 20
17.87302107521904
 30
0.0
 10
-8.666751145517651
 20
17.86706230832247
 30
0.0
 10
-8.02077610699692
 20
17.81585013725642
 30
0.0
 10
-7.37503949449308
 20
17.76107940267083
 30
0.0
 10
-6.829104875385639
 20
17.71477068313953
 30
0.0
  0
ARC
  5
57
330
1F
100
AcDbEntity
  8
Default
100
AcDbCircle
 10
6.929213549523411
 20
18.54519918985906
 30
0.0
 40
2.055172939179263
100
AcDbArc
 50
351.1563507390912
 51
351.7137420215266
  0
SPLINE
  5
58
330
1F
100
AcDbEntity
  8
Default
100
AcDbSpline
210
0.0
220
0.0
230
1.0
 70
     8
 71
     3
 72
    12
 73
     8
 74
     0
 42
0.0000000001
 43
0.0000000001
 40
0.0
 40
0.0
 40
0.0
 40
0.0
 40
0.1373078126426722
 40
0.2781262804715172
 40
0.5867740024392379
 40
0.7110093329034793
 40
4.482733614579535
 40
4.482733614579535
 40
4.482733614579535
 40
4.482733614579535
 10
8.962931271390914
 20
18.2490099974555
 30
0.0
 10
8.969529810549204
 20
18.29431741031463
 30
0.0
 10
8.979816903804874
 20
18.38645563944016
 30
0.0
 10
8.990797896909442
 20
18.58187735730579
 30
0.0
 10
8.985010020483855
 20
18.77321570783691
 30
0.0
 10
8.879893382125033
 20
20.17078190151756
 30
0.0
 10
8.785071533901885
 20
21.46599054387269
 30
0.0
 10
8.690968745977102
 20
22.71969815137565
 30
0.0
  0
SPLINE
  5
59
330
1F
100
AcDbEntity
  8
Default
100
AcDbSpline
210
0.0
220
0.0
230
1.0
 70
     8
 71
     3
 72
    11
 73
     7
 74
     0
 42
0.0000000001
 43
0.0000000001
 40
0.0
 40
0.0
 40
0.0
 40
0.0
 40
3.587743490675677
 40
3.744000086238041
 40
3.880557559667364
 40
4.133108700178371
 40
4.133108700178371
 40
4.133108700178371
 40
4.133108700178371
 10
8.09225707697351
 20
22.34627134278412
 30
0.0
 10
8.178010667283218
 20
21.15345211641744
 30
0.0
 10
8.278056487950494
 20
19.90939167466138
 30
0.0
 10
8.366796485709813
 20
18.61895232017127
 30
0.0
 10
8.356811820894222
 20
18.43675913298276
 30
0.0
 10
8.343612894068883
 20
18.30809361594669
 30
0.0
 10
8.323325256227463
 20
18.22593930089019
 30
0.0
  0
ARC
  5
5A
330
1F
100
AcDbEntity
  8
Default
100
AcDbCircle
 10
7.432349713190888
 20
18.44596169569995
 30
0.0
 40
0.9177403077707407
100
AcDbArc
 50
345.3977662757621
 51
346.1285901723209
  0
SPLINE
  5
5B
330
1F
100
AcDbEntity
  8
Default
100
AcDbSpline
210
0.0
220
0.0
230
1.0
 70
     8
 71
     3
 72
    11
 73
     7
 74
     0
 42
0.0000000001
 43
0.0000000001
 40
0.0
 40
0.0
 40
0.0
 40
0.0
 40
3.587743490675677
 40
3.744000086238041
 40
3.880557559667364
 40
4.133108700178371
 40
4.133108700178371
 40
4.133108700178371
 40
4.133108700178371
 10
-8.092251900446058
 20
22.34627134278412
 30
0.0
 10
-8.178005490755766
 20
21.15345211641744
 30
0.0
 10
-8.278051311423042
 20
19.90939167466138
 30
0.0
 10
-8.36679130918236
 20
18.61895232017127
 30
0.0
 10
-8.35680664436677
 20
18.43675913298276
 30
0.0
 10
-8.343607717541431
 20
18.30809361594669
 30
0.0
 10
-8.32332007970001
 20
18.22593930089019
 30
0.0
  0
ARC
  5
5C
330
1F
100
AcDbEntity
  8
Default
100
AcDbCircle
 10
-7.432344536659969
 20
18.44596169570084
 30
0.0
 40
0.9177403077743327
100
AcDbArc
 50
193.8714098276808
 51
194.6022336534085
  0
ARC
  5
5D
330
1F
100
AcDbEntity
  8
Default
100
AcDbCircle
 10
-6.929208372082797
 20
18.54519918999267
 30
0.0
 40
2.055172940102119
100
AcDbArc
 50
188.2862579784915
 51
188.8436493706998
  0
SPLINE
  5
5E
330
1F
100
AcDbEntity
  8
Default
100
AcDbSpline
210
0.0
220
0.0
230
1.0
 70
     8
 71
     3
 72
    12
 73
     8
 74
     0
 42
0.0000000001
 43
0.0000000001
 40
0.0
 40
0.0
 40
0.0
 40
0.0
 40
0.1373078126426722
 40
0.2781262804715172
 40
0.5867740024392379
 40
0.7110093329034793
 40
4.482733614579535
 40
4.482733614579535
 40
4.482733614579535
 40
4.482733614579535
 10
-8.962926094863462
 20
18.2490099974555
 30
0.0
 10
-8.969524634021752
 20
18.29431741031463
 30
0.0
 10
-8.979811727277422
 20
18.38645563944016
 30
0.0
 10
-8.99079272038199
 20
18.58187735730579
 30
0.0
 10
-8.985004843956403
 20
18.77321570783691
 30
0.0
 10
-8.879888205597581
 20
20.17078190151756
 30
0.0
 10
-8.785066357374433
 20
21.46599054387269
 30
0.0
 10
-8.69096356944965
 20
22.71969815137565
 30
0.0
  0
SPLINE
  5
5F
330
1F
100
AcDbEntity
  8
Default
100
AcDbSpline
210
0.0
220
0.0
230
1.0
 70
     8
 71
     3
 72
    12
 73
     8
 74
     0
 42
0.0000000001
 43
0.0000000001
 40
0.4912498280483762
 40
0.4912498280483762
 40
0.4912498280483762
 40
0.4912498280483762
 40
1.405091144670625
 40
1.806006060758604
 40
2.047345764705131
 40
2.292996185875468
 40
2.513746935622255
 40
2.513746935622255
 40
2.513746935622255
 40
2.513746935622255
 10
4.815897466559477
 20
17.54872931281247
 30
0.0
 10
4.513639240367382
 20
17.51153496680531
 30
0.0
 10
4.078786161866077
 20
17.45941973960494
 30
0.0
 10
3.564963861398553
 20
17.38174768041956
 30
0.0
 10
3.274868477246059
 20
17.33279359616063
 30
0.0
 10
3.045969511289741
 20
17.25095311751497
 30
0.0
 10
2.968770832852499
 20
17.0978158394518
 30
0.0
 10
2.960853996855235
 20
17.02635872692321
 30
0.0
  0
LINE
  5
60
330
1F
100
AcDbEntity
  8
Default
100
AcDbLine
 10
5.307092316386161
 20
17.58770783849812
 30
0.0
 11
5.53259709422872
 21
16.79588660297605
 31
0.0
  0
SPLINE
  5
61
330
1F
100
AcDbEntity
  8
Default
100
AcDbSpline
210
0.0
220
0.0
230
1.0
 70
     8
 71
     3
 72
    14
 73
    10
 74
     0
 42
0.0000000001
 43
0.0000000001
 40
-7.0
 40
-7.0
 40
-7.0
 40
-7.0
 40
-6.0
 40
-5.0
 40
-4.0
 40
-3.0
 40
-2.0
 40
-0.9999999999999997
 40
0.0000000000000003
 40
0.0000000000000003
 40
0.0000000000000003
 40
0.0000000000000003
 10
5.53259709422872
 20
16.79588660297605
 30
0.0
 10
5.539014365780588
 20
16.77336273343329
 30
0.0
 10
5.553742859090619
 20
16.73030188577044
 30
0.0
 10
5.58308269877142
 20
16.66862543042264
 30
0.0
 10
5.620670757773894
 20
16.61152817878971
 30
0.0
 10
5.667970175216055
 20
16.56188334690606
 30
0.0
 10
5.727233092598226
 20
16.52641351724884
 30
0.0
 10
5.795082088601475
 20
16.51342072316132
 30
0.0
 10
5.840619897640011
 20
16.51521838509836
 30
0.0
 10
5.863125669838666
 20
16.51854866749707
 30
0.0
  0
LINE
  5
62
330
1F
100
AcDbEntity
  8
Default
100
AcDbLine
 10
5.863125669838666
 20
16.51854866749707
 30
0.0
 11
6.164490831291459
 21
16.55729335082424
 31
0.0
  0
SPLINE
  5
63
330
1F
100
AcDbEntity
  8
Default
100
AcDbSpline
210
0.0
220
0.0
230
1.0
 70
     8
 71
     3
 72
    11
 73
     7
 74
     0
 42
0.0000000001
 43
0.0000000001
 40
0.0
 40
0.0
 40
0.0
 40
0.0
 40
0.043389342846067
 40
0.0871056934987271
 40
0.1821567820635263
 40
0.4110495498170174
 40
0.4110495498170174
 40
0.4110495498170174
 40
0.4110495498170174
 10
6.164490831291459
 20
16.55729335082424
 30
0.0
 10
6.178673226637898
 20
16.56023935047524
 30
0.0
 10
6.206410947479071
 20
16.56909704405348
 30
0.0
 10
6.260311128598914
 20
16.59771318675126
 30
0.0
 10
6.350943812042715
 20
16.682454866922
 30
0.0
 10
6.395776662120625
 20
16.78408321120898
 30
0.0
 10
6.417611474216017
 20
16.85668983718747
 30
0.0
  0
SPLINE
  5
64
330
1F
100
AcDbEntity
  8
Default
100
AcDbSpline
210
0.0
220
0.0
230
1.0
 70
    24
 71
     2
 72
     6
 73
     3
 74
     0
 42
0.0000000001
 43
0.0000000001
 40
0.0
 40
0.0
 40
0.0
 40
0.2664064654396106
 40
0.2664064654396106
 40
0.2664064654396106
 10
6.417611474216017
 20
16.85668983718747
 30
0.0
 10
6.456447068606764
 20
16.98995788834247
 30
0.0
 10
6.495282662997511
 20
17.12322593949746
 30
0.0
  0
SPLINE
  5
65
330
1F
100
AcDbEntity
  8
Default
100
AcDbSpline
210
0.0
220
0.0
230
1.0
 70
     8
 71
     3
 72
    17
 73
    13
 74
     0
 42
0.0000000001
 43
0.0000000001
 40
-17.90624517892207
 40
-17.90624517892207
 40
-17.90624517892207
 40
-17.90624517892207
 40
-4.373860374967535
 40
-2.878155509950694
 40
-2.234775102833745
 40
-2.12439570927585
 40
-1.53996251971187
 40
-1.028864930252648
 40
-0.5582263861420427
 40
-0.3608880308576272
 40
-0.2608815251693156
 40
0.0
 40
0.0
 40
0.0
 40
0.0
 10
8.760709497613504
 20
0.2680945645773676
 30
0.0
 10
8.430092632162598
 20
4.766737828394554
 30
0.0
 10
8.065290663236908
 20
9.7628495076643
 30
0.0
 10
7.681240982188115
 20
14.97249056570904
 30
0.0
 10
7.631136400156606
 20
15.72074762527932
 30
0.0
 10
7.584428028902437
 20
16.16436539114119
 30
0.0
 10
7.454295010316912
 20
16.55214113116645
 30
0.0
 10
7.113146133049554
 20
16.96186411299092
 30
0.0
 10
6.73693232616597
 20
17.11595000201635
 30
0.0
 10
6.480456935214931
 20
17.12673846301442
 30
0.0
 10
6.2950842350985
 20
17.10703533825088
 30
0.0
 10
6.176114329860809
 20
17.09062549671589
 30
0.0
 10
6.08720122309029
 20
17.07963064853716
 30
0.0
  0
SPLINE
  5
66
330
1F
100
AcDbEntity
  8
Default
100
AcDbSpline
210
0.0
220
0.0
230
1.0
 70
     8
 71
     3
 72
    14
 73
    10
 74
     0
 42
0.0000000001
 43
0.0000000001
 40
0.304867244936291
 40
0.304867244936291
 40
0.304867244936291
 40
0.304867244936291
 40
1.0
 40
2.0
 40
3.0
 40
4.0
 40
5.0
 40
6.0
 40
6.363317414079975
 40
6.363317414079975
 40
6.363317414079975
 40
6.363317414079975
 10
6.08720122309029
 20
17.07963064853716
 30
0.0
 10
6.063558549578602
 20
17.08722081269302
 30
0.0
 10
6.02053500459931
 20
17.12786015542986
 30
0.0
 10
5.979716946445535
 20
17.20757289633723
 30
0.0
 10
5.952805377676782
 20
17.30428028538844
 30
0.0
 10
5.944577953435953
 20
17.40376758928522
 30
0.0
 10
5.939537517295605
 20
17.50330952012088
 30
0.0
 10
5.932763647339868
 20
17.58157442105073
 30
0.0
 10
5.92920049230716
 20
17.62674139396816
 30
0.0
 10
5.928259393980284
 20
17.63877862860784
 30
0.0
  0
LINE
  5
67
330
1F
100
AcDbEntity
  8
Default
100
AcDbLine
 10
5.812907880041678
 20
17.62917829647613
 30
0.0
 11
5.950290804559643
 21
16.85334660839354
 31
0.0
  0
SPLINE
  5
68
330
1F
100
AcDbEntity
  8
Default
100
AcDbSpline
210
0.0
220
0.0
230
1.0
 70
     8
 71
     3
 72
    12
 73
     8
 74
     0
 42
0.0000000001
 43
0.0000000001
 40
0.0
 40
0.0
 40
0.0
 40
0.0
 40
1.0
 40
2.0
 40
3.0
 40
4.0
 40
5.0
 40
5.0
 40
5.0
 40
5.0
 10
5.950290804559643
 20
16.85334660839354
 30
0.0
 10
5.954731735372434
 20
16.82835446483232
 30
0.0
 10
5.966857872424384
 20
16.77872826476559
 30
0.0
 10
5.996943315819919
 20
16.70880114101799
 30
0.0
 10
6.041656559636124
 20
16.64468960316434
 30
0.0
 10
6.112666177024607
 20
16.61192430953263
 30
0.0
 10
6.164718811582873
 20
16.61399294789405
 30
0.0
 10
6.189818381817929
 20
16.61654576961476
 30
0.0
  0
SPLINE
  5
69
330
1F
100
AcDbEntity
  8
Default
100
AcDbSpline
210
0.0
220
0.0
230
1.0
 70
     8
 71
     3
 72
    11
 73
     7
 74
     0
 42
0.0000000001
 43
0.0000000001
 40
0.0
 40
0.0
 40
0.0
 40
0.0
 40
0.0344346937788125
 40
0.0725328207916969
 40
0.155179365456844
 40
0.3634380045074759
 40
0.3634380045074759
 40
0.3634380045074759
 40
0.3634380045074759
 10
6.189818381817929
 20
16.61654576961476
 30
0.0
 10
6.201263967283523
 20
16.61787884193143
 30
0.0
 10
6.224790369773643
 20
16.62360284735733
 30
0.0
 10
6.271915576549588
 20
16.64594569255011
 30
0.0
 10
6.353315135071568
 20
16.72182685919594
 30
0.0
 10
6.392378206242086
 20
16.8136442134777
 30
0.0
 10
6.412038535702607
 20
16.87975369686561
 30
0.0
  0
SPLINE
  5
6A
330
1F
100
AcDbEntity
  8
Default
100
AcDbSpline
210
0.0
220
0.0
230
1.0
 70
    24
 71
     2
 72
     6
 73
     3
 74
     0
 42
0.0000000001
 43
0.0000000001
 40
0.0
 40
0.0
 40
0.0
 40
0.2534606475442227
 40
0.2534606475442227
 40
0.2534606475442227
 10
6.412038535702607
 20
16.87975369686561
 30
0.0
 10
6.447490460542724
 20
17.0014243013209
 30
0.0
 10
6.482942385382842
 20
17.12309490577618
 30
0.0
  0
SPLINE
  5
6B
330
1F
100
AcDbEntity
  8
Default
100
AcDbSpline
210
0.0
220
0.0
230
1.0
 70
     8
 71
     3
 72
     8
 73
     4
 74
     0
 42
0.0000000001
 43
0.0000000001
 40
17.52149159457529
 40
17.52149159457529
 40
17.52149159457529
 40
17.52149159457529
 40
18.09444908610517
 40
18.09444908610517
 40
18.09444908610517
 40
18.09444908610517
 10
7.357838953166009
 20
17.50147624250914
 30
0.0
 10
7.196037066170106
 20
17.60279194406064
 30
0.0
 10
7.016100588060596
 20
17.67575052905536
 30
0.0
 10
6.829110055546181
 20
17.71477068238127
 30
0.0
  0
SPLINE
  5
6C
330
1F
100
AcDbEntity
  8
Default
100
AcDbSpline
210
0.0
220
0.0
230
1.0
 70
     8
 71
     3
 72
    14
 73
    10
 74
     0
 42
0.0000000001
 43
0.0000000001
 40
0.0
 40
0.0
 40
0.0
 40
0.0
 40
15.07353752690674
 40
15.61606607545562
 40
15.71987706518217
 40
15.90764932555116
 40
16.68761530069579
 40
17.43763592182185
 40
17.52149159457529
 40
17.52149159457529
 40
17.52149159457529
 40
17.52149159457529
 10
9.38377202880207
 20
0.3173981616280628
 30
0.0
 10
9.016230818191161
 20
5.328419466548951
 30
0.0
 10
8.635301898726823
 20
10.51989839113422
 30
0.0
 10
8.25185121576368
 20
15.745738245559
 30
0.0
 10
8.229947148893473
 20
16.02298762606603
 30
0.0
 10
8.177051343271842
 20
16.37633748088064
 30
0.0
 10
7.980422702170245
 20
16.92319159726668
 30
0.0
 10
7.613141610591725
 20
17.33315409390408
 30
0.0
 10
7.381519603628561
 20
17.48664809829307
 30
0.0
 10
7.357838953166009
 20
17.50147624250914
 30
0.0
  0
SPLINE
  5
6D
330
1F
100
AcDbEntity
  8
Default
100
AcDbSpline
210
0.0
220
0.0
230
1.0
 70
    12
 71
     2
 72
     6
 73
     3
 74
     0
 42
0.0000000001
 43
0.0000000001
 40
0.3921552795530533
 40
0.3921552795530533
 40
0.3921552795530533
 40
0.6517731304108609
 40
0.6517731304108609
 40
0.6517731304108609
 10
7.678848051879006
 20
17.52374731099217
 30
0.0
 41
0.986632244559333
 10
7.557545091093684
 20
17.47687320548224
 30
0.0
 41
0.9888912067943335
 10
7.429610325016597
 20
17.45354327424697
 30
0.0
 41
1.0
  0
SPLINE
  5
6E
330
1F
100
AcDbEntity
  8
Default
100
AcDbSpline
210
0.0
220
0.0
230
1.0
 70
    12
 71
     2
 72
     6
 73
     3
 74
     0
 42
0.0000000001
 43
0.0000000001
 40
0.0
 40
0.0
 40
0.0
 40
0.7518768929853894
 40
0.7518768929853894
 40
0.7518768929853894
 10
8.170024716723447
 20
17.06472801591728
 30
0.0
 41
1.0
 10
8.509051463195428
 20
17.24683885280446
 30
0.0
 41
0.9603915166718633
 10
8.718587722534933
 20
17.56963607670384
 30
0.0
 41
0.9830181992238656
  0
SPLINE
  5
6F
330
1F
100
AcDbEntity
  8
Default
100
AcDbSpline
210
0.0
220
0.0
230
1.0
 70
    12
 71
     2
 72
     6
 73
     3
 74
     0
 42
0.0000000001
 43
0.0000000001
 40
0.0
 40
0.0
 40
0.0
 40
0.7518768965799659
 40
0.7518768965799659
 40
0.7518768965799659
 10
-8.170019540195995
 20
17.06472801591728
 30
0.0
 41
1.0
 10
-8.50904628835566
 20
17.246838853711
 30
0.0
 41
0.9603915164825029
 10
-8.718582547964814
 20
17.56963607971925
 30
0.0
 41
0.9830181994402131
  0
SPLINE
  5
70
330
1F
100
AcDbEntity
  8
Default
100
AcDbSpline
210
0.0
220
0.0
230
1.0
 70
     8
 71
     3
 72
    12
 73
     8
 74
     0
 42
0.0000000001
 43
0.0000000001
 40
0.4912498062893793
 40
0.4912498062893793
 40
0.4912498062893793
 40
0.4912498062893793
 40
1.405091144670625
 40
1.806006060758604
 40
2.047345764705131
 40
2.292996185875468
 40
2.513746935622255
 40
2.513746935622255
 40
2.513746935622255
 40
2.513746935622255
 10
-4.815892311622775
 20
17.54872931546932
 30
0.0
 10
-4.513634078233423
 20
17.51153496853031
 30
0.0
 10
-4.078780992523434
 20
17.45941974069103
 30
0.0
 10
-3.564958684871101
 20
17.38174768041956
 30
0.0
 10
-3.274863300718607
 20
17.33279359616063
 30
0.0
 10
-3.045964334762289
 20
17.25095311751497
 30
0.0
 10
-2.968765656325047
 20
17.0978158394518
 30
0.0
 10
-2.960848820327783
 20
17.02635872692321
 30
0.0
  0
LINE
  5
71
330
1F
100
AcDbEntity
  8
Default
100
AcDbLine
 10
-5.307087139575941
 20
17.58770783949093
 30
0.0
 11
-5.532591917701268
 21
16.79588660297605
 31
0.0
  0
SPLINE
  5
72
330
1F
100
AcDbEntity
  8
Default
100
AcDbSpline
210
0.0
220
0.0
230
1.0
 70
     8
 71
     3
 72
    14
 73
    10
 74
     0
 42
0.0000000001
 43
0.0000000001
 40
-7.0
 40
-7.0
 40
-7.0
 40
-7.0
 40
-6.0
 40
-5.0
 40
-4.0
 40
-3.0
 40
-2.0
 40
-0.9999999999999997
 40
0.0000000000000003
 40
0.0000000000000003
 40
0.0000000000000003
 40
0.0000000000000003
 10
-5.532591917701268
 20
16.79588660297605
 30
0.0
 10
-5.539009189253136
 20
16.77336273343329
 30
0.0
 10
-5.553737682563167
 20
16.73030188577044
 30
0.0
 10
-5.583077522243968
 20
16.66862543042264
 30
0.0
 10
-5.620665581246442
 20
16.61152817878971
 30
0.0
 10
-5.667964998688603
 20
16.56188334690606
 30
0.0
 10
-5.727227916070774
 20
16.52641351724884
 30
0.0
 10
-5.795076912074023
 20
16.51342072316132
 30
0.0
 10
-5.840614721112559
 20
16.51521838509836
 30
0.0
 10
-5.863120493311214
 20
16.51854866749707
 30
0.0
  0
LINE
  5
73
330
1F
100
AcDbEntity
  8
Default
100
AcDbLine
 10
-5.863120493311214
 20
16.51854866749707
 30
0.0
 11
-6.164485654764007
 21
16.55729335082424
 31
0.0
  0
SPLINE
  5
74
330
1F
100
AcDbEntity
  8
Default
100
AcDbSpline
210
0.0
220
0.0
230
1.0
 70
     8
 71
     3
 72
    11
 73
     7
 74
     0
 42
0.0000000001
 43
0.0000000001
 40
0.0
 40
0.0
 40
0.0
 40
0.0
 40
0.043389342846067
 40
0.0871056934987271
 40
0.1821567820635263
 40
0.4110495498170174
 40
0.4110495498170174
 40
0.4110495498170174
 40
0.4110495498170174
 10
-6.164485654764007
 20
16.55729335082424
 30
0.0
 10
-6.178668050110446
 20
16.56023935047524
 30
0.0
 10
-6.206405770951619
 20
16.56909704405348
 30
0.0
 10
-6.260305952071462
 20
16.59771318675126
 30
0.0
 10
-6.350938635515263
 20
16.682454866922
 30
0.0
 10
-6.395771485593173
 20
16.78408321120898
 30
0.0
 10
-6.417606297688565
 20
16.85668983718747
 30
0.0
  0
SPLINE
  5
75
330
1F
100
AcDbEntity
  8
Default
100
AcDbSpline
210
0.0
220
0.0
230
1.0
 70
    24
 71
     2
 72
     6
 73
     3
 74
     0
 42
0.0000000001
 43
0.0000000001
 40
0.0
 40
0.0
 40
0.0
 40
0.2664064654396106
 40
0.2664064654396106
 40
0.2664064654396106
 10
-6.417606297688565
 20
16.85668983718747
 30
0.0
 10
-6.456441892079312
 20
16.98995788834247
 30
0.0
 10
-6.495277486470059
 20
17.12322593949746
 30
0.0
  0
SPLINE
  5
76
330
1F
100
AcDbEntity
  8
Default
100
AcDbSpline
210
0.0
220
0.0
230
1.0
 70
     8
 71
     3
 72
    17
 73
    13
 74
     0
 42
0.0000000001
 43
0.0000000001
 40
-17.90624517892207
 40
-17.90624517892207
 40
-17.90624517892207
 40
-17.90624517892207
 40
-4.373860374967535
 40
-2.878155509950694
 40
-2.234775102833745
 40
-2.12439570927585
 40
-1.53996251971187
 40
-1.028864930252648
 40
-0.5582263861420427
 40
-0.3608880308576272
 40
-0.2608815251693156
 40
0.0
 40
0.0
 40
0.0
 40
0.0
 10
-8.760704321086052
 20
0.2680945645773676
 30
0.0
 10
-8.430087455635146
 20
4.766737828394554
 30
0.0
 10
-8.065285486709456
 20
9.7628495076643
 30
0.0
 10
-7.681235805660663
 20
14.97249056570904
 30
0.0
 10
-7.631131223629154
 20
15.72074762527932
 30
0.0
 10
-7.584422852374985
 20
16.16436539114119
 30
0.0
 10
-7.45428983378946
 20
16.55214113116645
 30
0.0
 10
-7.113140956522102
 20
16.96186411299092
 30
0.0
 10
-6.736927149638518
 20
17.11595000201635
 30
0.0
 10
-6.480451758687479
 20
17.12673846301442
 30
0.0
 10
-6.295079058571048
 20
17.10703533825088
 30
0.0
 10
-6.176109153333357
 20
17.09062549671589
 30
0.0
 10
-6.087196046562838
 20
17.07963064853716
 30
0.0
  0
SPLINE
  5
77
330
1F
100
AcDbEntity
  8
Default
100
AcDbSpline
210
0.0
220
0.0
230
1.0
 70
     8
 71
     3
 72
    14
 73
    10
 74
     0
 42
0.0000000001
 43
0.0000000001
 40
0.304867244936291
 40
0.304867244936291
 40
0.304867244936291
 40
0.304867244936291
 40
1.0
 40
2.0
 40
3.0
 40
4.0
 40
5.0
 40
6.0
 40
6.363317424561211
 40
6.363317424561211
 40
6.363317424561211
 40
6.363317424561211
 10
-6.087196046562838
 20
17.07963064853716
 30
0.0
 10
-6.06355337305115
 20
17.08722081269302
 30
0.0
 10
-6.020529828071858
 20
17.12786015542986
 30
0.0
 10
-5.979711769918083
 20
17.20757289633723
 30
0.0
 10
-5.95280020114933
 20
17.30428028538844
 30
0.0
 10
-5.944572776908501
 20
17.40376758928522
 30
0.0
 10
-5.939532340768153
 20
17.50330952012088
 30
0.0
 10
-5.932758470782375
 20
17.58157442139785
 30
0.0
 10
-5.929195315724883
 20
17.62674139466266
 30
0.0
 10
-5.928254217371347
 20
17.63877862964961
 30
0.0
  0
LINE
  5
78
330
1F
100
AcDbEntity
  8
Default
100
AcDbLine
 10
-5.812902703332071
 20
17.62917829750475
 30
0.0
 11
-5.950285628032191
 21
16.85334660839354
 31
0.0
  0
SPLINE
  5
79
330
1F
100
AcDbEntity
  8
Default
100
AcDbSpline
210
0.0
220
0.0
230
1.0
 70
     8
 71
     3
 72
    12
 73
     8
 74
     0
 42
0.0000000001
 43
0.0000000001
 40
0.0
 40
0.0
 40
0.0
 40
0.0
 40
1.0
 40
2.0
 40
3.0
 40
4.0
 40
5.0
 40
5.0
 40
5.0
 40
5.0
 10
-5.950285628032191
 20
16.85334660839354
 30
0.0
 10
-5.954726558844982
 20
16.82835446483232
 30
0.0
 10
-5.966852695896932
 20
16.77872826476559
 30
0.0
 10
-5.996938139292467
 20
16.70880114101799
 30
0.0
 10
-6.041651383108672
 20
16.64468960316434
 30
0.0
 10
-6.112661000497155
 20
16.61192430953263
 30
0.0
 10
-6.164713635055421
 20
16.61399294789405
 30
0.0
 10
-6.189813205290477
 20
16.61654576961476
 30
0.0
  0
SPLINE
  5
7A
330
1F
100
AcDbEntity
  8
Default
100
AcDbSpline
210
0.0
220
0.0
230
1.0
 70
     8
 71
     3
 72
    11
 73
     7
 74
     0
 42
0.0000000001
 43
0.0000000001
 40
0.0
 40
0.0
 40
0.0
 40
0.0
 40
0.0344346937788125
 40
0.0725328207916969
 40
0.155179365456844
 40
0.3634380045074759
 40
0.3634380045074759
 40
0.3634380045074759
 40
0.3634380045074759
 10
-6.189813205290477
 20
16.61654576961476
 30
0.0
 10
-6.201258790756071
 20
16.61787884193143
 30
0.0
 10
-6.224785193246191
 20
16.62360284735733
 30
0.0
 10
-6.271910400022136
 20
16.64594569255011
 30
0.0
 10
-6.353309958544116
 20
16.72182685919594
 30
0.0
 10
-6.392373029714634
 20
16.8136442134777
 30
0.0
 10
-6.412033359175155
 20
16.87975369686561
 30
0.0
  0
SPLINE
  5
7B
330
1F
100
AcDbEntity
  8
Default
100
AcDbSpline
210
0.0
220
0.0
230
1.0
 70
    24
 71
     2
 72
     6
 73
     3
 74
     0
 42
0.0000000001
 43
0.0000000001
 40
0.0
 40
0.0
 40
0.0
 40
0.2534606475442227
 40
0.2534606475442227
 40
0.2534606475442227
 10
-6.412033359175155
 20
16.87975369686561
 30
0.0
 10
-6.447485284015272
 20
17.0014243013209
 30
0.0
 10
-6.48293720885539
 20
17.12309490577618
 30
0.0
  0
SPLINE
  5
7C
330
1F
100
AcDbEntity
  8
Default
100
AcDbSpline
210
0.0
220
0.0
230
1.0
 70
     8
 71
     3
 72
     8
 73
     4
 74
     0
 42
0.0000000001
 43
0.0000000001
 40
17.5214915962467
 40
17.5214915962467
 40
17.5214915962467
 40
17.5214915962467
 40
18.09444908981582
 40
18.09444908981582
 40
18.09444908981582
 40
18.09444908981582
 10
-7.357833775222559
 20
17.50147624339581
 30
0.0
 10
-7.196031887544962
 20
17.60279194514246
 30
0.0
 10
-7.016095408657037
 20
17.67575053011419
 30
0.0
 10
-6.829104875385696
 20
17.71477068313939
 30
0.0
  0
SPLINE
  5
7D
330
1F
100
AcDbEntity
  8
Default
100
AcDbSpline
210
0.0
220
0.0
230
1.0
 70
     8
 71
     3
 72
    14
 73
    10
 74
     0
 42
0.0000000001
 43
0.0000000001
 40
0.0
 40
0.0
 40
0.0
 40
0.0
 40
15.07353752690674
 40
15.61606607545562
 40
15.71987706518217
 40
15.90764932555116
 40
16.68761530069579
 40
17.43763592182185
 40
17.5214915962467
 40
17.5214915962467
 40
17.5214915962467
 40
17.5214915962467
 10
-9.383766852274618
 20
0.3173981616280628
 30
0.0
 10
-9.01622564166371
 20
5.328419466548951
 30
0.0
 10
-8.63529672219937
 20
10.51989839113422
 30
0.0
 10
-8.251846039236227
 20
15.745738245559
 30
0.0
 10
-8.22994197236602
 20
16.02298762606603
 30
0.0
 10
-8.17704616674439
 20
16.37633748088064
 30
0.0
 10
-7.980417525642792
 20
16.92319159726668
 30
0.0
 10
-7.613136433683906
 20
17.33315409432866
 30
0.0
 10
-7.3815144261726
 20
17.48664809890839
 30
0.0
 10
-7.357833775222559
 20
17.50147624339581
 30
0.0
  0
SPLINE
  5
7E
330
1F
100
AcDbEntity
  8
Default
100
AcDbSpline
210
0.0
220
0.0
230
1.0
 70
    12
 71
     2
 72
     6
 73
     3
 74
     0
 42
0.0000000001
 43
0.0000000001
 40
0.3921552771209753
 40
0.3921552771209753
 40
0.3921552771209753
 40
0.6517731304108609
 40
0.6517731304108609
 40
0.6517731304108609
 10
-7.678842877629494
 20
17.5237473118724
 30
0.0
 41
0.9866322445170095
 10
-7.557539915778187
 20
17.47687320570324
 30
0.0
 41
0.9888912066902673
 10
-7.429605148489145
 20
17.45354327424697
 30
0.0
 41
1.0
  0
SPLINE
  5
7F
330
1F
100
AcDbEntity
  8
Default
100
AcDbSpline
210
0.0
220
0.0
230
1.0
 70
    12
 71
     2
 72
     6
 73
     3
 74
     0
 42
0.0000000001
 43
0.0000000001
 40
0.0
 40
0.0
 40
0.0
 40
3.777937210821782
 40
3.777937210821782
 40
3.777937210821782
 10
3.775493630323439
 20
17.84946732891592
 30
0.0
 41
1.0
 10
1.889670198813392
 20
17.72884260670453
 30
0.0
 41
0.9994375343946325
 10
0.0000025945489881
 20
17.73490127926647
 30
0.0
 41
1.0
  0
SPLINE
  5
80
330
1F
100
AcDbEntity
  8
Default
100
AcDbSpline
210
0.0
220
0.0
230
1.0
 70
    12
 71
     2
 72
     6
 73
     3
 74
     0
 42
0.0000000001
 43
0.0000000001
 40
-3.777937210821782
 40
-3.777937210821782
 40
-3.777937210821782
 40
0.0
 40
0.0
 40
0.0
 10
0.0000025945489881
 20
17.73490127926647
 30
0.0
 41
1.0
 10
-1.889665009715438
 20
17.72884260670453
 30
0.0
 41
0.9994375343946325
 10
-3.775488441225463
 20
17.84946732891592
 30
0.0
 41
1.0
  0
SPLINE
  5
81
330
1F
100
AcDbEntity
  8
Default
100
AcDbSpline
210
0.0
220
0.0
230
1.0
 70
     8
 71
     3
 72
    14
 73
    10
 74
     0
 42
0.0000000001
 43
0.0000000001
 40
0.0
 40
0.0
 40
0.0
 40
0.0
 40
0.1723253710715995
 40
0.333747023221225
 40
0.5230032489583308
 40
0.6797709703124312
 40
0.9376516572090762
 40
1.070633861201008
 40
1.239856729755524
 40
1.239856729755524
 40
1.239856729755524
 40
1.239856729755524
 10
8.639854226106621
 20
17.55736920804048
 30
0.0
 10
8.697563170991344
 20
17.56391847622177
 30
0.0
 10
8.805783119607497
 20
17.58439621313765
 30
0.0
 10
8.961545838250402
 20
17.67700407218987
 30
0.0
 10
9.068234394754597
 20
17.80260352411555
 30
0.0
 10
9.169528196899847
 20
17.98891176092243
 30
0.0
 10
9.090816857080654
 20
18.1825953162233
 30
0.0
 10
8.907741910147251
 20
18.25183681079798
 30
0.0
 10
8.808821118762381
 20
18.25062749093033
 30
0.0
 10
8.751594538943635
 20
18.24767800135166
 30
0.0
  0
SPLINE
  5
82
330
1F
100
AcDbEntity
  8
Default
100
AcDbSpline
210
0.0
220
0.0
230
1.0
 70
     8
 71
     3
 72
    13
 73
     9
 74
     0
 42
0.0000000001
 43
0.0000000001
 40
0.0
 40
0.0
 40
0.0
 40
0.0
 40
0.2224154402562902
 40
1.030954988014155
 40
2.284801500518514
 40
4.105183741523843
 40
5.548562448875228
 40
8.77100898632133
 40
8.77100898632133
 40
8.77100898632133
 40
8.77100898632133
 10
8.751594538943635
 20
18.24767800135166
 30
0.0
 10
8.677477153966919
 20
18.24480411635044
 30
0.0
 10
8.33502070459025
 20
18.21612894314471
 30
0.0
 10
7.576290634502328
 20
18.15007848530824
 30
0.0
 10
6.285956145493998
 20
18.04916424320604
 30
0.0
 10
4.785813660655009
 20
17.91787928700452
 30
0.0
 10
2.629320781601024
 20
17.7611336961204
 30
0.0
 10
1.074199449141844
 20
17.71056650483241
 30
0.0
 10
0.0000025945489881
 20
17.71168554626574
 30
0.0
  0
SPLINE
  5
83
330
1F
100
AcDbEntity
  8
Default
100
AcDbSpline
210
0.0
220
0.0
230
1.0
 70
     8
 71
     3
 72
    13
 73
     9
 74
     0
 42
0.0000000001
 43
0.0000000001
 40
-8.77100898632133
 40
-8.77100898632133
 40
-8.77100898632133
 40
-8.77100898632133
 40
-5.548562448875228
 40
-4.105183741523843
 40
-2.284801500518514
 40
-1.030954988014155
 40
-0.2224154402562902
 40
0.0
 40
0.0
 40
0.0
 40
0.0
 10
0.0000025945489881
 20
17.71168554626574
 30
0.0
 10
-1.074194260043868
 20
17.71056650483241
 30
0.0
 10
-2.629315592503048
 20
17.7611336961204
 30
0.0
 10
-4.785808471557033
 20
17.91787928700452
 30
0.0
 10
-6.285950956396022
 20
18.04916424320604
 30
0.0
 10
-7.576285445404352
 20
18.15007848530824
 30
0.0
 10
-8.335015515492273
 20
18.21612894314471
 30
0.0
 10
-8.677471964868943
 20
18.24480411635044
 30
0.0
 10
-8.75158934984566
 20
18.24767800135166
 30
0.0
  0
SPLINE
  5
84
330
1F
100
AcDbEntity
  8
Default
100
AcDbSpline
210
0.0
220
0.0
230
1.0
 70
     8
 71
     3
 72
    14
 73
    10
 74
     0
 42
0.0000000001
 43
0.0000000001
 40
-1.239856729755524
 40
-1.239856729755524
 40
-1.239856729755524
 40
-1.239856729755524
 40
-1.070633861201008
 40
-0.9376516572090762
 40
-0.6797709703124312
 40
-0.5230032489583308
 40
-0.333747023221225
 40
-0.1723253710715995
 40
0.0
 40
0.0
 40
0.0
 40
0.0
 10
-8.75158934984566
 20
18.24767800135166
 30
0.0
 10
-8.808815929664405
 20
18.25062749093033
 30
0.0
 10
-8.907736721049275
 20
18.25183681079798
 30
0.0
 10
-9.090811667982678
 20
18.1825953162233
 30
0.0
 10
-9.169523007801871
 20
17.98891176092243
 30
0.0
 10
-9.068229205656621
 20
17.80260352411555
 30
0.0
 10
-8.961540649152425
 20
17.67700407218987
 30
0.0
 10
-8.805777930509521
 20
17.58439621313765
 30
0.0
 10
-8.697557981893368
 20
17.56391847622177
 30
0.0
 10
-8.639849037008645
 20
17.55736920804048
 30
0.0
  0
ARC
  5
85
330
1F
100
AcDbEntity
  8
Default
100
AcDbCircle
 10
33.774229627186
 20
27.21687172935199
 30
0.0
 40
12.86927990781226
100
AcDbArc
 50
236.7186895837633
 51
241.7991312710017
  0
ARC
  5
86
330
1F
100
AcDbEntity
  8
Default
100
AcDbCircle
 10
27.86705484171188
 20
16.17035515862102
 30
0.0
 40
0.3428018781672749
100
AcDbArc
 50
239.4223496356442
 51
351.4123317158752
  0
SPLINE
  5
87
330
1F
100
AcDbEntity
  8
Default
100
AcDbSpline
210
0.0
220
0.0
230
1.0
 70
     8
 71
     3
 72
    11
 73
     7
 74
     0
 42
0.0000000001
 43
0.0000000001
 40
0.0
 40
0.0
 40
0.0
 40
0.0
 40
0.7410408828254953
 40
1.100203758147386
 40
1.449683809914282
 40
1.693771736817889
 40
1.693771736817889
 40
1.693771736817889
 40
1.693771736817889
 10
6.730746297210544
 20
55.50956118574933
 30
0.0
 10
6.967948044196248
 20
55.57849951683043
 30
0.0
 10
7.321357131612785
 20
55.67651402580145
 30
0.0
 10
7.783068176383608
 20
55.81939454033608
 30
0.0
 10
8.080790408509017
 20
55.93041824020409
 30
0.0
 10
8.260515671990731
 20
56.01381986265085
 30
0.0
 10
8.32979509266346
 20
56.0567386934926
 30
0.0
  0
SPLINE
  5
88
330
1F
100
AcDbEntity
  8
Default
100
AcDbSpline
210
0.0
220
0.0
230
1.0
 70
     8
 71
     3
 72
    11
 73
     7
 74
     0
 42
0.0000000001
 43
0.0000000001
 40
0.0
 40
0.0
 40
0.0
 40
0.0
 40
0.1019693152571884
 40
0.2397577634311248
 40
0.5900727970268679
 40
1.693773536155684
 40
1.693773536155684
 40
1.693773536155684
 40
1.693773536155684
 10
-8.329802481752097
 20
56.05670626190178
 30
0.0
 10
-8.30101219598771
 20
56.03859556499469
 30
0.0
 10
-8.23068965194966
 20
56.00053936802485
 30
0.0
 10
-8.051620690813536
 20
55.91890098130037
 30
0.0
 10
-7.553147211577198
 20
55.73574470347577
 30
0.0
 10
-7.083508536133934
 20
55.61358351621121
 30
0.0
 10
-6.730734967915566
 20
55.50955942100572
 30
0.0
  0
SPLINE
  5
89
330
1F
100
AcDbEntity
  8
Default
100
AcDbSpline
210
0.0
220
0.0
230
1.0
 70
     8
 71
     3
 72
    13
 73
     9
 74
     0
 42
0.0000000001
 43
0.0000000001
 40
0.0
 40
0.0
 40
0.0
 40
0.0
 40
0.241826694723852
 40
0.3334432593650916
 40
0.4415046959315846
 40
0.7590491135579212
 40
1.337208144879482
 40
2.064679762861881
 40
2.064679762861881
 40
2.064679762861881
 40
2.064679762861881
 10
9.093269001234887
 20
55.85961202701165
 30
0.0
 10
9.074684974598881
 20
55.7815269526015
 30
0.0
 10
9.043875741466877
 20
55.67372158432282
 30
0.0
 10
9.012052706795316
 20
55.53109567951583
 30
0.0
 10
8.954870615183893
 20
55.36543474161057
 30
0.0
 10
8.729579668044323
 20
55.11166670147904
 30
0.0
 10
8.279498086395392
 20
54.80837979142891
 30
0.0
 10
7.891725547389399
 20
54.60960366492208
 30
0.0
 10
7.668542295049519
 20
54.51440197375683
 30
0.0
  0
SPLINE
  5
8A
330
1F
100
AcDbEntity
  8
Default
100
AcDbSpline
210
0.0
220
0.0
230
1.0
 70
     8
 71
     3
 72
    14
 73
    10
 74
     0
 42
0.0000000001
 43
0.0000000001
 40
0.0
 40
0.0
 40
0.0
 40
0.0
 40
0.365919733332667
 40
0.717573689150211
 40
1.305612602136335
 40
1.623786876013782
 40
1.731897436416424
 40
1.822325443690429
 40
2.064679957212375
 40
2.064679957212375
 40
2.064679957212375
 40
2.064679957212375
 10
-7.668555402995992
 20
54.51437132761936
 30
0.0
 10
-7.780305904161423
 20
54.56304810454154
 30
0.0
 10
-7.998042739566586
 20
54.66291529027235
 30
0.0
 10
-8.377604018956163
 20
54.87584494042477
 30
0.0
 10
-8.727646721476617
 20
55.10895120811088
 30
0.0
 10
-8.95509817016864
 20
55.36597662359239
 30
0.0
 10
-9.01212532968077
 20
55.53127667684444
 30
0.0
 10
-9.043832583757023
 20
55.67386229968032
 30
0.0
 10
-9.07467334059396
 20
55.78129855020359
 30
0.0
 10
-9.093263913946316
 20
55.8596123781868
 30
0.0
  0
SPLINE
  5
8B
330
1F
100
AcDbEntity
  8
Default
100
AcDbSpline
210
0.0
220
0.0
230
1.0
 70
     8
 71
     3
 72
    12
 73
     8
 74
     0
 42
0.0000000001
 43
0.0000000001
 40
0.0
 40
0.0
 40
0.0
 40
0.0
 40
0.4651335185174335
 40
0.793242102531914
 40
1.335459591468316
 40
1.691142280171575
 40
1.967535870825327
 40
1.967535870825327
 40
1.967535870825327
 40
1.967535870825327
 10
-7.285570116030954
 20
55.01858014165268
 30
0.0
 10
-7.434495928785054
 20
55.0619405432073
 30
0.0
 10
-7.688928701400982
 20
55.13329081071009
 30
0.0
 10
-8.112233106407473
 20
55.27266797483205
 30
0.0
 10
-8.493244085195045
 20
55.41964023149559
 30
0.0
 10
-8.830903112459907
 20
55.62602931797537
 30
0.0
 10
-8.951417236477369
 20
55.8075871724333
 30
0.0
 10
-8.97360145000357
 20
55.89752216282935
 30
0.0
  0
SPLINE
  5
8C
330
1F
100
AcDbEntity
  8
Default
100
AcDbSpline
210
0.0
220
0.0
230
1.0
 70
     8
 71
     3
 72
    12
 73
     8
 74
     0
 42
0.0000000001
 43
0.0000000001
 40
0.0
 40
0.0
 40
0.0
 40
0.0
 40
0.129984432170056
 40
0.2746468029965988
 40
0.629171715394806
 40
1.181695205124426
 40
1.967519293427705
 40
1.967519293427705
 40
1.967519293427705
 40
1.967519293427705
 10
8.973593610713522
 20
55.89752656819607
 30
0.0
 10
8.962451618053478
 20
55.85543892573943
 30
0.0
 10
8.927574122599196
 20
55.7706221414289
 30
0.0
 10
8.794168458154104
 20
55.60429640966029
 30
0.0
 10
8.492874454661887
 20
55.41914866760229
 30
0.0
 10
7.966056472010678
 20
55.21529927213521
 30
0.0
 10
7.537491284599923
 20
55.0901112010402
 30
0.0
 10
7.285577586493218
 20
55.01858080225432
 30
0.0
  0
SPLINE
  5
8D
330
1F
100
AcDbEntity
  8
Default
100
AcDbSpline
210
0.0
220
0.0
230
1.0
 70
    12
 71
     2
 72
     6
 73
     3
 74
     0
 42
0.0000000001
 43
0.0000000001
 40
0.0
 40
0.0
 40
0.0
 40
0.2146460381117859
 40
0.2146460381117859
 40
0.2146460381117859
 10
-8.29225022893479
 20
56.15378383466694
 30
0.0
 41
1.0
 10
-8.3309562674941
 20
56.05368351536941
 30
0.0
 41
0.9999999397597106
 10
-8.36973178698861
 20
55.95361009016398
 30
0.0
 41
1.0
  0
SPLINE
  5
8E
330
1F
100
AcDbEntity
  8
Default
100
AcDbSpline
210
0.0
220
0.0
230
1.0
 70
    12
 71
     2
 72
     6
 73
     3
 74
     0
 42
0.0000000001
 43
0.0000000001
 40
0.0
 40
0.0
 40
0.0
 40
0.2116970370606201
 40
0.2116970370606201
 40
0.2116970370606201
 10
8.368701816204464
 20
55.95637319562536
 30
0.0
 41
1.0
 10
8.330408908415269
 20
56.0550523007332
 30
0.0
 41
0.9999997525343159
 10
8.29225488267042
 20
56.15378518730753
 30
0.0
 41
1.0
  0
SPLINE
  5
8F
330
1F
100
AcDbEntity
  8
Default
100
AcDbSpline
210
0.0
220
0.0
230
1.0
 70
    12
 71
     2
 72
     6
 73
     3
 74
     0
 42
0.0000000001
 43
0.0000000001
 40
0.0
 40
0.0
 40
0.0
 40
4.273950401093918
 40
4.273950401093918
 40
4.273950401093918
 10
9.358723456929397
 20
56.90577428232871
 30
0.0
 41
1.0
 10
9.88417607463135
 20
58.97714159780755
 30
0.0
 41
0.9999999997824406
 10
10.40971510727337
 20
61.0484869901195
 30
0.0
 41
1.0
  0
SPLINE
  5
90
330
1F
100
AcDbEntity
  8
Default
100
AcDbSpline
210
0.0
220
0.0
230
1.0
 70
    12
 71
     2
 72
     8
 73
     5
 74
     0
 42
0.0000000001
 43
0.0000000001
 40
-3.141592653589793
 40
-3.141592653589793
 40
-3.141592653589793
 40
-1.570796326794897
 40
-1.570796326794897
 40
0.0
 40
0.0
 40
0.0
 10
10.40971510727337
 20
61.0484869901195
 30
0.0
 41
1.0
 10
10.48344194972561
 20
61.33234390868508
 30
0.0
 41
0.7071067811865475
 10
10.18097288294456
 20
61.41090492930749
 30
0.0
 41
1.0
 10
9.878503816163526
 20
61.48946594992994
 30
0.0
 41
0.7071067811865475
 10
9.804776973711228
 20
61.20560903136436
 30
0.0
 41
1.0
  0
SPLINE
  5
91
330
1F
100
AcDbEntity
  8
Default
100
AcDbSpline
210
0.0
220
0.0
230
1.0
 70
    12
 71
     2
 72
     6
 73
     3
 74
     0
 42
0.0000000001
 43
0.0000000001
 40
0.0
 40
0.0
 40
0.0
 40
3.654049383226059
 40
3.654049383226059
 40
3.654049383226059
 10
9.804776973711228
 20
61.20560903136436
 30
0.0
 41
1.0
 10
9.355403251818302
 20
59.43471025249922
 30
0.0
 41
0.9999999992927662
 10
8.9061627361163
 20
57.66377767728423
 30
0.0
 41
1.0
  0
POLYLINE
  5
92
330
1F
100
AcDbEntity
  8
Default
100
AcDb2dPolyline
 66
     1
 10
0.0
 20
0.0
 30
0.0
  0
VERTEX
  5
93
330
92
100
AcDbEntity
  8
Default
100
AcDbVertex
100
AcDb2dVertex
 10
-9.804772340412228
 20
61.20560903136436
 30
0.0
  0
VERTEX
  5
94
330
92
100
AcDbEntity
  8
Default
100
AcDbVertex
100
AcDb2dVertex
 10
-9.838133373080439
 20
61.30333892488713
 30
0.0
  0
SEQEND
  5
95
330
92
100
AcDbEntity
  8
Default
  0
SPLINE
  5
96
330
1F
100
AcDbEntity
  8
Default
100
AcDbSpline
210
0.0
220
0.0
230
1.0
 70
    12
 71
     2
 72
     8
 73
     5
 74
     0
 42
0.0000000001
 43
0.0000000001
 40
0.0547772198907966
 40
0.0547772198907966
 40
0.0547772198907966
 40
1.570796326794897
 40
1.570796326794897
 40
3.041946464467495
 40
3.041946464467495
 40
3.041946464467495
 10
-9.838133373080453
 20
61.30333892488714
 30
0.0
 41
0.9802846623166819
 10
-9.933597546362586
 20
61.58299763876555
 30
0.0
 41
0.7173206300336504
 10
-10.21356372412174
 20
61.50253741119846
 30
0.0
 41
1.0
 10
-10.48211170149695
 20
61.42535869073573
 30
0.0
 41
0.7256869704680409
 10
-10.4286397797129
 20
61.14702012124544
 30
0.0
 41
0.9651969544960349
  0
POLYLINE
  5
97
330
1F
100
AcDbEntity
  8
Default
100
AcDb2dPolyline
 66
     1
 10
0.0
 20
0.0
 30
0.0
  0
VERTEX
  5
98
330
97
100
AcDbEntity
  8
Default
100
AcDbVertex
100
AcDb2dVertex
 10
-10.42863977971291
 20
61.14702012124545
 30
0.0
  0
VERTEX
  5
99
330
97
100
AcDbEntity
  8
Default
100
AcDbVertex
100
AcDb2dVertex
 10
-10.40971047397437
 20
61.0484869901195
 30
0.0
  0
SEQEND
  5
9A
330
97
100
AcDbEntity
  8
Default
  0
SPLINE
  5
9B
330
1F
100
AcDbEntity
  8
Default
100
AcDbSpline
210
0.0
220
0.0
230
1.0
 70
    12
 71
     2
 72
     6
 73
     3
 74
     0
 42
0.0000000001
 43
0.0000000001
 40
0.0
 40
0.0
 40
0.0
 40
4.273950401093918
 40
4.273950401093918
 40
4.273950401093918
 10
-9.358718823630397
 20
56.90577428232871
 30
0.0
 41
1.0
 10
-9.884171441332347
 20
58.97714159780755
 30
0.0
 41
0.9999999997824406
 10
-10.40971047397437
 20
61.0484869901195
 30
0.0
 41
1.0
  0
SPLINE
  5
9C
330
1F
100
AcDbEntity
  8
Default
100
AcDbSpline
210
0.0
220
0.0
230
1.0
 70
    12
 71
     2
 72
     8
 73
     5
 74
     0
 42
0.0000000001
 43
0.0000000001
 40
-3.141592653589793
 40
-3.141592653589793
 40
-3.141592653589793
 40
-1.570796326794897
 40
-1.570796326794897
 40
0.0
 40
0.0
 40
0.0
 10
-10.40971047397437
 20
61.0484869901195
 30
0.0
 41
1.0
 10
-10.48343731642663
 20
61.33234390868508
 30
0.0
 41
0.7071067811865475
 10
-10.18096824964556
 20
61.41090492930749
 30
0.0
 41
1.0
 10
-9.878499182864537
 20
61.48946594992994
 30
0.0
 41
0.7071067811865475
 10
-9.804772340412228
 20
61.20560903136436
 30
0.0
 41
1.0
  0
SPLINE
  5
9D
330
1F
100
AcDbEntity
  8
Default
100
AcDbSpline
210
0.0
220
0.0
230
1.0
 70
    12
 71
     2
 72
     6
 73
     3
 74
     0
 42
0.0000000001
 43
0.0000000001
 40
0.0
 40
0.0
 40
0.0
 40
3.654049383226059
 40
3.654049383226059
 40
3.654049383226059
 10
-9.804772340412228
 20
61.20560903136436
 30
0.0
 41
1.0
 10
-9.355398618519295
 20
59.43471025249922
 30
0.0
 41
0.9999999992927662
 10
-8.906158102817301
 20
57.66377767728423
 30
0.0
 41
1.0
  0
SPLINE
  5
9E
330
1F
100
AcDbEntity
  8
Default
100
AcDbSpline
210
0.0
220
0.0
230
1.0
 70
    12
 71
     2
 72
     8
 73
     5
 74
     0
 42
0.0000000001
 43
0.0000000001
 40
0.0
 40
0.0
 40
0.0
 40
1.570796326794897
 40
1.570796326794897
 40
3.141592653589793
 40
3.141592653589793
 40
3.141592653589793
 10
-8.84649692306931
 20
39.73708756221586
 30
0.0
 41
1.0
 10
-9.072542609679505
 20
39.50058767175526
 30
0.0
 41
0.7071067811865475
 10
-9.298450050098381
 20
39.71650913531444
 30
0.0
 41
1.0
 10
-9.524357490517293
 20
39.93243059887362
 30
0.0
 41
0.7071067811865475
 10
-9.298311803907097
 20
40.16893048933423
 30
0.0
 41
1.0
  0
SPLINE
  5
9F
330
1F
100
AcDbEntity
  8
Default
100
AcDbSpline
210
0.0
220
0.0
230
1.0
 70
    12
 71
     2
 72
     6
 73
     3
 74
     0
 42
0.0000000001
 43
0.0000000001
 40
0.0
 40
0.0
 40
0.0
 40
1.21074955253441
 40
1.21074955253441
 40
1.21074955253441
 10
-8.009990133454039
 20
40.61239943119369
 30
0.0
 41
1.0
 10
-8.428270905674053
 20
40.17476966039835
 30
0.0
 41
0.9999999980434585
 10
-8.84649692306931
 20
39.73708756221586
 30
0.0
 41
1.0
  0
SPLINE
  5
A0
330
1F
100
AcDbEntity
  8
Default
100
AcDbSpline
210
0.0
220
0.0
230
1.0
 70
    12
 71
     2
 72
    10
 73
     7
 74
     0
 42
0.0000000001
 43
0.0000000001
 40
6.283120353693191
 40
6.283120353693191
 40
6.283120353693191
 40
6.283185307179586
 40
6.283185307179586
 40
7.853981633974483
 40
7.853981633974483
 40
9.42477796076938
 40
9.42477796076938
 40
9.42477796076938
 10
-8.846496923069305
 20
39.73708756221586
 30
0.0
 41
0.9999757783377694
 10
-8.84650319839568
 20
39.73708099626265
 30
0.0
 41
0.999987888668073
 10
-8.84650947411609
 20
39.73707443068358
 30
0.0
 41
1.0
 10
-9.06113962694015
 20
39.51253108771812
 30
0.0
 41
0.7071067811865475
 10
-9.287040791835636
 20
39.72845911704343
 30
0.0
 41
1.0
 10
-9.51294195673114
 20
39.94438714636875
 30
0.0
 41
0.7071067811865475
 10
-9.298311803907097
 20
40.16893048933423
 30
0.0
 41
1.0
  0
SPLINE
  5
A1
330
1F
100
AcDbEntity
  8
Default
100
AcDbSpline
210
0.0
220
0.0
230
1.0
 70
    12
 71
     2
 72
     6
 73
     3
 74
     0
 42
0.0000000001
 43
0.0000000001
 40
0.0
 40
0.0
 40
0.0
 40
1.163316925166758
 40
1.163316925166758
 40
1.163316925166758
 10
-9.298311803907097
 20
40.16893048933423
 30
0.0
 41
1.0
 10
-8.896468177591112
 20
40.58946380277806
 30
0.0
 41
0.9999999985989616
 10
-8.494580031961505
 20
41.00995457096357
 30
0.0
 41
1.0
  0
POLYLINE
  5
A2
330
1F
100
AcDbEntity
  8
Default
100
AcDb2dPolyline
 66
     1
 10
0.0
 20
0.0
 30
0.0
  0
VERTEX
  5
A3
330
A2
100
AcDbEntity
  8
Default
100
AcDbVertex
100
AcDb2dVertex
 10
9.804776973711228
 20
61.20560903136436
 30
0.0
  0
VERTEX
  5
A4
330
A2
100
AcDbEntity
  8
Default
100
AcDbVertex
100
AcDb2dVertex
 10
9.838138006379438
 20
61.30333892488713
 30
0.0
  0
SEQEND
  5
A5
330
A2
100
AcDbEntity
  8
Default
  0
SPLINE
  5
A6
330
1F
100
AcDbEntity
  8
Default
100
AcDbSpline
210
0.0
220
0.0
230
1.0
 70
    12
 71
     2
 72
     8
 73
     5
 74
     0
 42
0.0000000001
 43
0.0000000001
 40
0.0547772198907966
 40
0.0547772198907966
 40
0.0547772198907966
 40
1.570796326794897
 40
1.570796326794897
 40
3.041946464467495
 40
3.041946464467495
 40
3.041946464467495
 10
9.838138006379463
 20
61.30333892488714
 30
0.0
 41
0.9802846623166819
 10
9.93360217966157
 20
61.58299763876555
 30
0.0
 41
0.7173206300336504
 10
10.21356835742074
 20
61.50253741119846
 30
0.0
 41
1.0
 10
10.48211633479593
 20
61.42535869073573
 30
0.0
 41
0.7256869704680409
 10
10.42864441301185
 20
61.14702012124544
 30
0.0
 41
0.9651969544960349
  0
POLYLINE
  5
A7
330
1F
100
AcDbEntity
  8
Default
100
AcDb2dPolyline
 66
     1
 10
0.0
 20
0.0
 30
0.0
  0
VERTEX
  5
A8
330
A7
100
AcDbEntity
  8
Default
100
AcDbVertex
100
AcDb2dVertex
 10
10.42864441301191
 20
61.14702012124545
 30
0.0
  0
VERTEX
  5
A9
330
A7
100
AcDbEntity
  8
Default
100
AcDbVertex
100
AcDb2dVertex
 10
10.40971510727337
 20
61.0484869901195
 30
0.0
  0
SEQEND
  5
AA
330
A7
100
AcDbEntity
  8
Default
  0
SPLINE
  5
AB
330
1F
100
AcDbEntity
  8
Default
100
AcDbSpline
210
0.0
220
0.0
230
1.0
 70
    12
 71
     2
 72
     6
 73
     3
 74
     0
 42
0.0000000001
 43
0.0000000001
 40
0.0
 40
0.0
 40
0.0
 40
1.21074955253441
 40
1.21074955253441
 40
1.21074955253441
 10
8.009994648931979
 20
40.61239943119369
 30
0.0
 41
1.0
 10
8.428275421152037
 20
40.17476966039835
 30
0.0
 41
0.9999999980434585
 10
8.84650143854725
 20
39.73708756221586
 30
0.0
 41
1.0
  0
SPLINE
  5
AC
330
1F
100
AcDbEntity
  8
Default
100
AcDbSpline
210
0.0
220
0.0
230
1.0
 70
    12
 71
     2
 72
    10
 73
     7
 74
     0
 42
0.0000000001
 43
0.0000000001
 40
6.283120353693191
 40
6.283120353693191
 40
6.283120353693191
 40
6.283185307179586
 40
6.283185307179586
 40
7.853981633974483
 40
7.853981633974483
 40
9.42477796076938
 40
9.42477796076938
 40
9.42477796076938
 10
8.84650143854727
 20
39.73708756221586
 30
0.0
 41
0.9999757783377694
 10
8.846507713873686
 20
39.73708099626265
 30
0.0
 41
0.999987888668073
 10
8.84651398959403
 20
39.73707443068358
 30
0.0
 41
1.0
 10
9.061144142418074
 20
39.51253108771812
 30
0.0
 41
0.7071067811865475
 10
9.287045307313576
 20
39.72845911704343
 30
0.0
 41
1.0
 10
9.512946472209064
 20
39.94438714636875
 30
0.0
 41
0.7071067811865475
 10
9.298316319385037
 20
40.16893048933423
 30
0.0
 41
1.0
  0
SPLINE
  5
AD
330
1F
100
AcDbEntity
  8
Default
100
AcDbSpline
210
0.0
220
0.0
230
1.0
 70
    12
 71
     2
 72
     6
 73
     3
 74
     0
 42
0.0000000001
 43
0.0000000001
 40
0.0
 40
0.0
 40
0.0
 40
1.163316925166758
 40
1.163316925166758
 40
1.163316925166758
 10
9.298316319385037
 20
40.16893048933423
 30
0.0
 41
1.0
 10
8.896472693068974
 20
40.58946380277806
 30
0.0
 41
0.9999999985989616
 10
8.494584547439445
 20
41.00995457096357
 30
0.0
 41
1.0
  0
SPLINE
  5
AE
330
1F
100
AcDbEntity
  8
Default
100
AcDbSpline
210
0.0
220
0.0
230
1.0
 70
    12
 71
     2
 72
     8
 73
     5
 74
     0
 42
0.0000000001
 43
0.0000000001
 40
0.0
 40
0.0
 40
0.0
 40
1.570796326794897
 40
1.570796326794897
 40
3.141592653589793
 40
3.141592653589793
 40
3.141592653589793
 10
8.84650143854725
 20
39.73708756221586
 30
0.0
 41
1.0
 10
9.07254712515743
 20
39.50058767175526
 30
0.0
 41
0.7071067811865475
 10
9.298454565576321
 20
39.71650913531444
 30
0.0
 41
1.0
 10
9.524362005995217
 20
39.93243059887362
 30
0.0
 41
0.7071067811865475
 10
9.298316319385037
 20
40.16893048933423
 30
0.0
 41
1.0
  0
SPLINE
  5
AF
330
1F
100
AcDbEntity
  8
Default
100
AcDbSpline
210
0.0
220
0.0
230
1.0
 70
     8
 71
     3
 72
    32
 73
    28
 74
     0
 42
0.0000000001
 43
0.0000000001
 40
0.0
 40
0.0
 40
0.0
 40
0.0
 40
3.291041866247717
 40
5.321677655942721
 40
6.252293441543425
 40
6.808507508404804
 40
7.744687150548834
 40
8.614761098472162
 40
9.448533176809404
 40
9.826131586580717
 40
10.25506031634782
 40
10.90571382113481
 40
11.82502996480377
 40
12.53601570528745
 40
13.67885330155955
 40
15.79822930543286
 40
19.20847620201651
 40
20.398282665259
 40
21.24156156983125
 40
22.7063976347603
 40
24.14888018969998
 40
24.54904522483389
 40
24.79804002638903
 40
25.29361597617704
 40
26.030009820122
 40
28.5902760665256
 40
30.94196313195313
 40
30.94196313195313
 40
30.94196313195313
 40
30.94196313195313
 10
0.0
 20
39.9744439593622
 30
0.0
 10
-1.097005917942681
 20
39.97483775367071
 30
0.0
 10
-2.870975520119202
 20
39.96365439720074
 30
0.0
 10
-4.954698448497084
 20
40.02390375971616
 30
0.0
 10
-6.124110050868126
 20
40.11290247473079
 30
0.0
 10
-6.926770427165593
 20
40.20117709612501
 30
0.0
 10
-7.695536868309659
 20
40.39822152729859
 30
0.0
 10
-8.452421452624833
 20
40.87643556258152
 30
0.0
 10
-8.841888246008637
 20
41.47206017438877
 30
0.0
 10
-9.003582321324814
 20
41.99449187821534
 30
0.0
 10
-9.075833225932172
 20
42.47631221086039
 30
0.0
 10
-9.119125937082686
 20
43.14099401463244
 30
0.0
 10
-9.147757117203696
 20
43.90113154360073
 30
0.0
 10
-9.122345026220614
 20
44.8255658388002
 30
0.0
 10
-9.073696040415143
 20
46.14889293047831
 30
0.0
 10
-8.944376539559016
 20
48.36938152046713
 30
0.0
 10
-8.738496418009959
 20
50.60088476616644
 30
0.0
 10
-8.445326308579922
 20
52.39260969699775
 30
0.0
 10
-8.17415024928465
 20
53.52619224860028
 30
0.0
 10
-7.667352757442814
 20
54.68663540260073
 30
0.0
 10
-6.861921366153183
 20
55.4756869545475
 30
0.0
 10
-6.243768824422887
 20
55.80302955272222
 30
0.0
 10
-5.893868933603244
 20
55.95462450876985
 30
0.0
 10
-5.433566235916146
 20
56.13371245571827
 30
0.0
 10
-4.244871799539055
 20
56.56357689202298
 30
0.0
 10
-2.419049355448351
 20
57.04482029076399
 30
0.0
 10
-0.7841739719449379
 20
57.20832294910298
 30
0.0
 10
0.0000020477138492
 20
57.20872170100216
 30
0.0
  0
SPLINE
  5
B0
330
1F
100
AcDbEntity
  8
Default
100
AcDbSpline
210
0.0
220
0.0
230
1.0
 70
     8
 71
     3
 72
    31
 73
    27
 74
     0
 42
0.0000000001
 43
0.0000000001
 40
0.0
 40
0.0
 40
0.0
 40
0.0
 40
2.364605507932291
 40
4.911953655743885
 40
5.635382817889567
 40
6.137546518342351
 40
6.380058275715212
 40
6.785074279102626
 40
8.23549045527215
 40
9.69747020167121
 40
10.55340259107851
 40
11.73348801649626
 40
15.14373505908171
 40
17.26311115025684
 40
18.40594879722737
 40
19.11693456868773
 40
20.68708250171337
 40
21.1160235528481
 40
21.49350672887176
 40
22.32884434826385
 40
23.19560550745802
 40
24.12696399065039
 40
24.66370108075716
 40
25.60763521064326
 40
27.65092259298961
 40
30.94196547504031
 40
30.94196547504031
 40
30.94196547504031
 40
30.94196547504031
 10
0.0000020477138492
 20
57.20872170100216
 30
0.0
 10
0.7884891314623701
 20
57.20830301060661
 30
0.0
 10
2.42331160023133
 20
57.04396625766682
 30
0.0
 10
4.244702545271025
 20
56.56316948806543
 30
0.0
 10
5.427623365657723
 20
56.13608452706347
 30
0.0
 10
5.883646064764946
 20
55.95829266296346
 30
0.0
 10
6.236037415438091
 20
55.80753936128363
 30
0.0
 10
6.855168506142206
 20
55.47814507103443
 30
0.0
 10
7.667100021399278
 20
54.69252586112273
 30
0.0
 10
8.173976273606968
 20
53.52192574774061
 30
0.0
 10
8.4458702711471
 20
52.39152470470653
 30
0.0
 10
8.738960543450844
 20
50.59658132281574
 30
0.0
 10
8.944001953863847
 20
48.37011082630434
 30
0.0
 10
9.073840691762882
 20
46.14860258311504
 30
0.0
 10
9.123524924529818
 20
44.82557619055851
 30
0.0
 10
9.149653498775763
 20
43.68433717170211
 30
0.0
 10
9.108123509530287
 20
42.7805991729776
 30
0.0
 10
9.007872524263405
 20
41.99434340241122
 30
0.0
 10
8.838090245350372
 20
41.47088908072945
 30
0.0
 10
8.455825048075951
 20
40.87753236523359
 30
0.0
 10
7.694483917974992
 20
40.39822627191083
 30
0.0
 10
6.939347857412258
 20
40.20488960203174
 30
0.0
 10
6.13858215850513
 20
40.11320998286342
 30
0.0
 10
4.967779758690028
 20
40.02483457921375
 30
0.0
 10
2.875192054918898
 20
39.96365956133994
 30
0.0
 10
1.097011248762954
 20
39.97482397836691
 30
0.0
 10
0.0
 20
39.9744439593622
 30
0.0
  0
SPLINE
  5
B1
330
1F
100
AcDbEntity
  8
Default
100
AcDbSpline
210
0.0
220
0.0
230
1.0
 70
     8
 71
     3
 72
    20
 73
    16
 74
     0
 42
0.0000000001
 43
0.0000000001
 40
0.0
 40
0.0
 40
0.0
 40
0.0
 40
1.0
 40
2.0
 40
3.0
 40
4.0
 40
5.0
 40
6.0
 40
7.0
 40
8.0
 40
9.0
 40
10.0
 40
11.0
 40
12.0
 40
13.0
 40
13.0
 40
13.0
 40
13.0
 10
8.83201397066182
 20
55.94608448521885
 30
0.0
 10
8.399083895922615
 20
56.12882800138183
 30
0.0
 10
7.525084176186567
 20
56.47471930967723
 30
0.0
 10
6.194828518296788
 20
56.94251156831811
 30
0.0
 10
4.841125940126062
 20
57.33820208233328
 30
0.0
 10
3.462126579941753
 20
57.63504209293578
 30
0.0
 10
2.068389573823652
 20
57.85064998978015
 30
0.0
 10
0.6624072907775371
 20
57.96776621845248
 30
0.0
 10
-0.7486675276733195
 20
57.96408023863427
 30
0.0
 10
-2.154037173868176
 20
57.83998639427156
 30
0.0
 10
-3.546904250258308
 20
57.61907864151257
 30
0.0
 10
-4.924910944731039
 20
57.31744415361939
 30
0.0
 10
-6.276583759531206
 20
56.91493005978953
 30
0.0
 10
-7.606592862336754
 20
56.44666422424024
 30
0.0
 10
-8.48042658035115
 20
56.1002985542689
 30
0.0
 10
-8.913427772292323
 20
55.91773878791747
 30
0.0
  0
SPLINE
  5
B2
330
1F
100
AcDbEntity
  8
Default
100
AcDbSpline
210
0.0
220
0.0
230
1.0
 70
     8
 71
     3
 72
    25
 73
    21
 74
     0
 42
0.0000000001
 43
0.0000000001
 40
0.0
 40
0.0
 40
0.0
 40
0.0
 40
0.4430768123683047
 40
0.6970062163272017
 40
0.9140911377057149
 40
1.127369746408973
 40
1.220422932664321
 40
1.394929234464112
 40
1.460677396605524
 40
1.530723525553589
 40
2.187743421618526
 40
2.71570677255419
 40
3.350097144573471
 40
4.083145851156742
 40
4.938721050176373
 40
5.767524246950162
 40
6.683540589325395
 40
8.566850412260136
 40
10.5691475506111
 40
12.56762585400623
 40
12.56762585400623
 40
12.56762585400623
 40
12.56762585400623
 10
-8.913427772292323
 20
55.91773878791747
 30
0.0
 10
-9.054144057819371
 20
55.87033084127168
 30
0.0
 10
-9.27324134481131
 20
55.79949238083876
 30
0.0
 10
-9.582274587245479
 20
55.75993445405842
 30
0.0
 10
-9.794488934984429
 20
55.88459539336361
 30
0.0
 10
-9.819084418951206
 20
56.07826290409611
 30
0.0
 10
-9.759947665445964
 20
56.2245226817295
 30
0.0
 10
-9.710400023862405
 20
56.32613222588577
 30
0.0
 10
-9.656824531691313
 20
56.41369805900067
 30
0.0
 10
-9.520926425724554
 20
56.64062893486241
 30
0.0
 10
-9.299542655626396
 20
56.9955073585439
 30
0.0
 10
-9.000946910624123
 20
57.52315490762777
 30
0.0
 10
-8.657443144352953
 20
58.05656062890787
 30
0.0
 10
-8.098821931749455
 20
58.55446687983709
 30
0.0
 10
-7.409804790726241
 20
58.97263909270893
 30
0.0
 10
-6.616532624114711
 20
59.32780495100391
 30
0.0
 10
-5.486488707882131
 20
59.75646076581944
 30
0.0
 10
-3.937886712445163
 20
60.17547276138234
 30
0.0
 10
-1.999363013225661
 20
60.48764488183548
 30
0.0
 10
-0.66646974403983
 20
60.567617435816
 30
0.0
 10
-0.0000248450283493
 20
60.5678465556183
 30
0.0
  0
SPLINE
  5
B3
330
1F
100
AcDbEntity
  8
Default
100
AcDbSpline
210
0.0
220
0.0
230
1.0
 70
     8
 71
     3
 72
    23
 73
    19
 74
     0
 42
0.0000000001
 43
0.0000000001
 40
0.0
 40
0.0
 40
0.0
 40
0.0
 40
1.963983113522533
 40
3.990114129855228
 40
5.898896224294101
 40
6.813264882982092
 40
7.637091780577983
 40
8.492659291587188
 40
9.226982511956274
 40
9.757185947662979
 40
10.4486749112704
 40
11.08331557937748
 40
11.31953176576737
 40
11.46511712644051
 40
11.67755350548516
 40
11.89680613193409
 40
12.17142434901505
 40
12.65389638794514
 40
12.65389638794514
 40
12.65389638794514
 40
12.65389638794514
 10
-0.0000248450283493
 20
60.5678465556183
 30
0.0
 10
0.6549043217379449
 20
60.56767794111678
 30
0.0
 10
1.984280325748273
 20
60.48913228781154
 30
0.0
 10
3.928521514167358
 20
60.17883122201405
 30
0.0
 10
5.491026505945513
 20
59.75422101569166
 30
0.0
 10
6.628741197459135
 20
59.32400808072973
 30
0.0
 10
7.41716202009485
 20
58.96756244634034
 30
0.0
 10
8.106995172512768
 20
58.54923678590714
 30
0.0
 10
8.636381253321815
 20
58.07374919700911
 30
0.0
 10
9.001164288029543
 20
57.52897346120241
 30
0.0
 10
9.300475972456411
 20
56.98919890648838
 30
0.0
 10
9.579848131343283
 20
56.54798617324141
 30
0.0
 10
9.749721025046767
 20
56.25560188169541
 30
0.0
 10
9.824127215932378
 20
56.06952531349586
 30
0.0
 10
9.778556228629611
 20
55.86235856322216
 30
0.0
 10
9.547999811905072
 20
55.75590711529713
 30
0.0
 10
9.2220076730639
 20
55.81359594760627
 30
0.0
 10
8.984443917905878
 20
55.89219781186736
 30
0.0
 10
8.83201397066182
 20
55.94608448521885
 30
0.0
  0
ARC
  5
B4
330
1F
100
AcDbEntity
  8
Default
100
AcDbCircle
 10
30.72474311441749
 20
16.90583548915615
 30
0.0
 40
0.0979711643557846
100
AcDbArc
 50
179.4495823866903
 51
187.7570439109494
  0
LINE
  5
B5
330
1F
100
AcDbEntity
  8
Default
100
AcDbLine
 10
30.62766845367838
 20
16.8926120520986
 30
0.0
 11
30.74043972041278
 21
16.06474616430236
 31
0.0
  0
ARC
  5
B6
330
1F
100
AcDbEntity
  8
Default
100
AcDbCircle
 10
16.77345445995479
 20
14.16217396812782
 30
0.0
 40
14.09597312098413
100
AcDbArc
 50
6.484701052448779
 51
7.757043910952079
  0
SPLINE
  5
B7
330
1F
100
AcDbEntity
  8
Default
100
AcDbSpline
210
0.0
220
0.0
230
1.0
 70
    12
 71
     2
 72
     6
 73
     3
 74
     0
 42
0.0000000001
 43
0.0000000001
 40
-0.0902794868802301
 40
-0.0902794868802301
 40
-0.0902794868802301
 40
0.0
 40
0.0
 40
0.0
 10
30.77924221361894
 20
15.75414369988104
 30
0.0
 41
1.0
 10
30.78713130733038
 20
15.69846443321478
 30
0.0
 41
0.7286960841322505
 10
30.84319256134398
 20
15.70288646153887
 30
0.0
 41
1.0
  0
SPLINE
  5
B8
330
1F
100
AcDbEntity
  8
Default
100
AcDbSpline
210
0.0
220
0.0
230
1.0
 70
    24
 71
     2
 72
     6
 73
     3
 74
     0
 42
0.0000000001
 43
0.0000000001
 40
-0.3350546835978193
 40
-0.3350546835978193
 40
-0.3350546835978193
 40
0.0
 40
0.0
 40
0.0
 10
30.84319256134398
 20
15.70288646153887
 30
0.0
 10
31.01023952611195
 20
15.71556407219781
 30
0.0
 10
31.17728649087991
 20
15.72824168285675
 30
0.0
  0
SPLINE
  5
B9
330
1F
100
AcDbEntity
  8
Default
100
AcDbSpline
210
0.0
220
0.0
230
1.0
 70
    12
 71
     2
 72
     6
 73
     3
 74
     0
 42
0.0000000001
 43
0.0000000001
 40
-0.0902794868786971
 40
-0.0902794868786971
 40
-0.0902794868786971
 40
0.0
 40
0.0
 40
0.0
 10
31.17728649087991
 20
15.72824168285675
 30
0.0
 41
1.0
 10
31.23337300818453
 20
15.73233082852319
 30
0.0
 41
0.728696084185065
 10
31.23276886623069
 20
15.7885629683379
 30
0.0
 41
1.0
  0
ARC
  5
BA
330
1F
100
AcDbEntity
  8
Default
100
AcDbCircle
 10
45.31839633478347
 20
16.32852078325763
 30
0.0
 40
14.09597302866112
100
AcDbArc
 50
180.9229560847984
 51
182.1952989516929
  0
LINE
  5
BB
330
1F
100
AcDbEntity
  8
Default
100
AcDbLine
 10
31.22425213252546
 20
16.1014638945741
 30
0.0
 11
31.21080059205622
 21
16.93644385142777
 31
0.0
  0
ARC
  5
BC
330
1F
100
AcDbEntity
  8
Default
100
AcDbCircle
 10
30.72039779153505
 20
16.24955057446394
 30
0.0
 40
0.6638607224022839
100
AcDbArc
 50
92.94938668216265
 51
98.10719450468505
  0
LINE
  5
BD
330
1F
100
AcDbEntity
  8
Default
100
AcDbLine
 10
30.68623964961853
 20
16.91253193173523
 30
0.0
 11
31.15106424991012
 21
16.93648063630874
 31
0.0
  0
ARC
  5
BE
330
1F
100
AcDbEntity
  8
Default
100
AcDbCircle
 10
31.18057966630812
 20
16.36361075152962
 30
0.0
 40
0.5736297278663384
100
AcDbArc
 50
86.98004929976669
 51
92.94938668215933
  0
SPLINE
  5
BF
330
1F
100
AcDbEntity
  8
Default
100
AcDbSpline
210
0.0
220
0.0
230
1.0
 70
    12
 71
     2
 72
     6
 73
     3
 74
     0
 42
0.0000000001
 43
0.0000000001
 40
0.0
 40
0.0
 40
0.0
 40
0.075605342972967
 40
0.075605342972967
 40
0.075605342972967
 10
38.22734004015484
 20
17.7028746939679
 30
0.0
 41
1.0
 10
38.18100068312771
 20
17.6998990143903
 30
0.0
 41
0.7431202658112454
 10
38.17914140058627
 20
17.65315180996281
 30
0.0
 41
1.0
  0
LINE
  5
C0
330
1F
100
AcDbEntity
  8
Default
100
AcDbLine
 10
38.17914140058627
 20
17.65315180996281
 30
0.0
 11
38.18722047174759
 21
17.53115858496761
 31
0.0
  0
SPLINE
  5
C1
330
1F
100
AcDbEntity
  8
Default
100
AcDbSpline
210
0.0
220
0.0
230
1.0
 70
    12
 71
     2
 72
     6
 73
     3
 74
     0
 42
0.0000000001
 43
0.0000000001
 40
0.0
 40
0.0
 40
0.0
 40
0.1998016154428683
 40
0.1998016154428683
 40
0.1998016154428683
 10
38.18722047174759
 20
17.53115858496761
 30
0.0
 41
1.0
 10
38.20551487324801
 20
17.4314149674321
 30
0.0
 41
0.977901098887919
 10
38.26337042555593
 20
17.34723062843946
 30
0.0
 41
1.0
  0
SPLINE
  5
C2
330
1F
100
AcDbEntity
  8
Default
100
AcDbSpline
210
0.0
220
0.0
230
1.0
 70
    24
 71
     2
 72
     6
 73
     3
 74
     0
 42
0.0000000001
 43
0.0000000001
 40
0.0
 40
0.0
 40
0.0
 40
0.6361931574619321
 40
0.6361931574619321
 40
0.6361931574619321
 10
38.26337042555593
 20
17.34723062843946
 30
0.0
 10
38.43339168649476
 20
17.07725650090784
 30
0.0
 10
38.60341294743358
 20
16.80728237337621
 30
0.0
  0
SPLINE
  5
C3
330
1F
100
AcDbEntity
  8
Default
100
AcDbSpline
210
0.0
220
0.0
230
1.0
 70
    12
 71
     2
 72
     6
 73
     3
 74
     0
 42
0.0000000001
 43
0.0000000001
 40
0.0
 40
0.0
 40
0.0
 40
0.2907252240719517
 40
0.2907252240719517
 40
0.2907252240719517
 10
38.60341294743358
 20
16.80728237337621
 30
0.0
 41
1.0
 10
38.68198354133563
 20
16.68072042203783
 30
0.0
 41
0.9754113680340547
 10
38.80635277624981
 20
16.60085696806749
 30
0.0
 41
1.0
  0
SPLINE
  5
C4
330
1F
100
AcDbEntity
  8
Default
100
AcDbSpline
210
0.0
220
0.0
230
1.0
 70
     8
 71
     5
 72
    12
 73
     6
 74
     0
 42
0.0000000001
 43
0.0000000001
 40
-1.0
 40
-1.0
 40
-1.0
 40
-1.0
 40
-1.0
 40
-1.0
 40
0.0
 40
0.0
 40
0.0
 40
0.0
 40
0.0
 40
0.0
 10
38.80635277624981
 20
16.60085696806749
 30
0.0
 10
38.85020372137694
 20
16.5726981718818
 30
0.0
 10
38.89685879711141
 20
16.54890617378577
 30
0.0
 10
38.95005731242787
 20
16.53100870712402
 30
0.0
 10
39.00169400879594
 20
16.52268379158689
 30
0.0
 10
39.05366261075739
 20
16.51879951541912
 30
0.0
  0
SPLINE
  5
C5
330
1F
100
AcDbEntity
  8
Default
100
AcDbSpline
210
0.0
220
0.0
230
1.0
 70
    12
 71
     2
 72
     6
 73
     3
 74
     0
 42
0.0000000001
 43
0.0000000001
 40
0.0
 40
0.0
 40
0.0
 40
0.1499525141757463
 40
0.1499525141757463
 40
0.1499525141757463
 10
39.05366261075739
 20
16.51879951541912
 30
0.0
 41
1.0
 10
39.12867231237567
 20
16.51319308412505
 30
0.0
 41
0.9951676892377327
 10
39.20333130669474
 20
16.52235397796673
 30
0.0
 41
1.0
  0
POLYLINE
  5
C6
330
1F
100
AcDbEntity
  8
Default
100
AcDb2dPolyline
 66
     1
 10
0.0
 20
0.0
 30
0.0
  0
VERTEX
  5
C7
330
C6
100
AcDbEntity
  8
Default
100
AcDbVertex
100
AcDb2dVertex
 10
39.20333130669474
 20
16.52235397796673
 30
0.0
  0
VERTEX
  5
C8
330
C6
100
AcDbEntity
  8
Default
100
AcDbVertex
100
AcDb2dVertex
 10
39.40016515983126
 20
16.56159957370988
 30
0.0
  0
SEQEND
  5
C9
330
C6
100
AcDbEntity
  8
Default
  0
SPLINE
  5
CA
330
1F
100
AcDbEntity
  8
Default
100
AcDbSpline
210
0.0
220
0.0
230
1.0
 70
    12
 71
     2
 72
     6
 73
     3
 74
     0
 42
0.0000000001
 43
0.0000000001
 40
0.0
 40
0.0
 40
0.0
 40
0.3978595148715727
 40
0.3978595148715727
 40
0.3978595148715727
 10
39.40016515983126
 20
16.56159957370988
 30
0.0
 41
1.0
 10
39.61887430386466
 20
16.61534359367477
 30
0.0
 41
0.8337809289758055
 10
39.65491888939658
 20
16.83839565374436
 30
0.0
 41
1.0
  0
SPLINE
  5
CB
330
1F
100
AcDbEntity
  8
Default
100
AcDbSpline
210
0.0
220
0.0
230
1.0
 70
    24
 71
     2
 72
     6
 73
     3
 74
     0
 42
0.0000000001
 43
0.0000000001
 40
0.0
 40
0.0
 40
0.0
 40
0.216416799163873
 40
0.216416799163873
 40
0.216416799163873
 10
39.65491888939658
 20
16.83839565374436
 30
0.0
 10
39.67616804485871
 20
16.9448696403411
 30
0.0
 10
39.69741720032084
 20
17.05134362693784
 30
0.0
  0
ARC
  5
CC
330
1F
100
AcDbEntity
  8
Default
100
AcDbCircle
 10
39.29128162653615
 20
17.12300059631062
 30
0.0
 40
0.5718625114483471
100
AcDbArc
 50
263.7692355377686
 51
280.9762216425385
  0
ARC
  5
CD
330
1F
100
AcDbEntity
  8
Default
100
AcDbCircle
 10
39.28824261189413
 20
17.09516520289023
 30
0.0
 40
0.5438617125872035
100
AcDbArc
 50
207.3262844611663
 51
263.7692355377685
  0
SPLINE
  5
CE
330
1F
100
AcDbEntity
  8
Default
100
AcDbSpline
210
0.0
220
0.0
230
1.0
 70
    24
 71
     2
 72
     6
 73
     3
 74
     0
 42
0.0000000001
 43
0.0000000001
 40
0.0
 40
0.0
 40
0.0
 40
0.6284193087877382
 40
0.6284193087877382
 40
0.6284193087877382
 10
38.80507220434157
 20
16.84550158983507
 30
0.0
 10
38.65180509905139
 20
17.11979504828839
 30
0.0
 10
38.4985379937612
 20
17.39408850674171
 30
0.0
  0
SPLINE
  5
CF
330
1F
100
AcDbEntity
  8
Default
100
AcDbSpline
210
0.0
220
0.0
230
1.0
 70
     8
 71
     3
 72
    12
 73
     8
 74
     0
 42
0.0000000001
 43
0.0000000001
 40
-5.0
 40
-5.0
 40
-5.0
 40
-5.0
 40
-4.0
 40
-3.0
 40
-2.0
 40
-1.0
 40
0.0
 40
0.0
 40
0.0
 40
0.0
 10
38.4985379937612
 20
17.39408850674171
 30
0.0
 10
38.49056939676382
 20
17.40834537956371
 30
0.0
 10
38.47367105354346
 20
17.43633857270862
 30
0.0
 10
38.44554746914031
 20
17.47645931899008
 30
0.0
 10
38.41423528338993
 20
17.51439480980169
 30
0.0
 10
38.37901236690698
 20
17.54794851621999
 30
0.0
 10
38.35004218806608
 20
17.5660533133096
 30
0.0
 10
38.33321259685329
 20
17.56441316507612
 30
0.0
  0
SPLINE
  5
D0
330
1F
100
AcDbEntity
  8
Default
100
AcDbSpline
210
0.0
220
0.0
230
1.0
 70
    24
 71
     2
 72
     6
 73
     3
 74
     0
 42
0.0000000001
 43
0.0000000001
 40
0.0
 40
0.0
 40
0.0
 40
0.1139966252514848
 40
0.1139966252514848
 40
0.1139966252514848
 10
38.33321259685329
 20
17.56441316507612
 30
0.0
 10
38.27735854218963
 20
17.55304952922268
 30
0.0
 10
38.22150448752598
 20
17.54168589336923
 30
0.0
  0
SPLINE
  5
D1
330
1F
100
AcDbEntity
  8
Default
100
AcDbSpline
210
0.0
220
0.0
230
1.0
 70
     8
 71
     3
 72
    11
 73
     7
 74
     0
 42
0.0000000001
 43
0.0000000001
 40
0.0
 40
0.0
 40
0.0
 40
0.0
 40
0.0020506485636896
 40
0.0278137471228987
 40
0.0718586102863623
 40
0.2157621862684044
 40
0.2157621862684044
 40
0.2157621862684044
 40
0.2157621862684044
 10
38.22150448752598
 20
17.54168589336923
 30
0.0
 10
38.22127480390077
 20
17.54163676833463
 30
0.0
 10
38.21038724839957
 20
17.5390963487223
 30
0.0
 10
38.20203868845061
 20
17.51485544498027
 30
0.0
 10
38.2078989364216
 20
17.44355938707361
 30
0.0
 10
38.23820906861687
 20
17.38794286310977
 30
0.0
 10
38.26337042555593
 20
17.34723062843946
 30
0.0
  0
POLYLINE
  5
D2
330
1F
100
AcDbEntity
  8
Default
100
AcDb2dPolyline
 66
     1
 10
0.0
 20
0.0
 30
0.0
  0
VERTEX
  5
D3
330
D2
100
AcDbEntity
  8
Default
100
AcDbVertex
100
AcDb2dVertex
 10
40.14528522234298
 20
15.89106530113395
 30
0.0
  0
VERTEX
  5
D4
330
D2
100
AcDbEntity
  8
Default
100
AcDbVertex
100
AcDb2dVertex
 10
41.34574968416661
 20
0.2662378076363865
 30
0.0
  0
SEQEND
  5
D5
330
D2
100
AcDbEntity
  8
Default
  0
SPLINE
  5
D6
330
1F
100
AcDbEntity
  8
Default
100
AcDbSpline
210
0.0
220
0.0
230
1.0
 70
    12
 71
     2
 72
     8
 73
     5
 74
     0
 42
0.0000000001
 43
0.0000000001
 40
-0.0950799819146273
 40
-0.0950799819146273
 40
-0.0950799819146273
 40
-0.0475399909573137
 40
-0.0475399909573137
 40
0.0
 40
0.0
 40
0.0
 10
20.09465792634069
 20
0.1874828703766553
 30
0.0
 41
1.0
 10
20.08706170128495
 20
0.163558870753902
 30
0.0
 41
0.9223262384247396
 10
20.09878626113147
 20
0.1413643889194276
 30
0.0
 41
1.0
 10
20.11051082097792
 20
0.1191699070849568
 30
0.0
 41
0.9223262384247396
 10
20.13455423034304
 20
0.1119605524955603
 30
0.0
 41
1.0
  0
ARC
  5
D7
330
1F
100
AcDbEntity
  8
Default
100
AcDbCircle
 10
20.54394672853999
 20
1.619514123281235
 30
0.0
 40
1.562152356964127
100
AcDbArc
 50
254.8071051210574
 51
274.3264029719195
  0
SPLINE
  5
D8
330
1F
100
AcDbEntity
  8
Default
100
AcDbSpline
210
0.0
220
0.0
230
1.0
 70
    12
 71
     2
 72
     6
 73
     3
 74
     0
 42
0.0000000001
 43
0.0000000001
 40
-0.0626321953815391
 40
-0.0626321953815391
 40
-0.0626321953815391
 40
0.0
 40
0.0
 40
0.0
 10
20.66179275373912
 20
0.0618131568844831
 30
0.0
 41
1.0
 10
20.6959793022196
 20
0.0667198711815068
 30
0.0
 41
0.8658102242625448
 10
20.70879564832518
 20
0.0987906868041506
 30
0.0
 41
1.0
  0
SPLINE
  5
D9
330
1F
100
AcDbEntity
  8
Default
100
AcDbSpline
210
0.0
220
0.0
230
1.0
 70
    24
 71
     2
 72
     6
 73
     3
 74
     0
 42
0.0000000001
 43
0.0000000001
 40
0.0
 40
0.0
 40
0.0
 40
0.1791621436966646
 40
0.1791621436966646
 40
0.1791621436966646
 10
20.70879564832518
 20
0.0987906868041506
 30
0.0
 10
20.74197850601632
 20
0.1819992584115724
 30
0.0
 10
20.77516136370747
 20
0.2652078300189942
 30
0.0
  0
ARC
  5
DA
330
1F
100
AcDbEntity
  8
Default
100
AcDbCircle
 10
19.95867972821844
 20
-1.076484063762294
 30
0.0
 40
1.570598420643909
100
AcDbArc
 50
58.6775514564477
 51
81.62916350016623
  0
SPLINE
  5
DB
330
1F
100
AcDbEntity
  8
Default
100
AcDbSpline
210
0.0
220
0.0
230
1.0
 70
    24
 71
     2
 72
     6
 73
     3
 74
     0
 42
0.0000000001
 43
0.0000000001
 40
0.0
 40
0.0
 40
0.0
 40
0.3043501914012435
 40
0.3043501914012435
 40
0.3043501914012435
 10
20.18732661534563
 20
0.4773820823185702
 30
0.0
 10
20.14099227084316
 20
0.3324324763476127
 30
0.0
 10
20.09465792634069
 20
0.1874828703766553
 30
0.0
  0
SPLINE
  5
DC
330
1F
100
AcDbEntity
  8
Default
100
AcDbSpline
210
0.0
220
0.0
230
1.0
 70
    12
 71
     2
 72
     6
 73
     3
 74
     0
 42
0.0000000001
 43
0.0000000001
 40
0.0
 40
0.0
 40
0.0
 40
0.0771003706955799
 40
0.0771003706955799
 40
0.0771003706955799
 10
41.36827421489852
 20
0.0652893091092324
 30
0.0
 41
1.0
 10
41.37366133636067
 20
0.0208267722193086
 30
0.0
 41
0.8040496154182818
 10
41.41773358248298
 20
0.0129506919137441
 30
0.0
 41
1.0
  0
ARC
  5
DD
330
1F
100
AcDbEntity
  8
Default
100
AcDbCircle
 10
41.64296353270976
 20
1.684220120275981
 30
0.0
 40
1.68637778467856
100
AcDbArc
 50
262.3247315131545
 51
279.793598324645
  0
SPLINE
  5
DE
330
1F
100
AcDbEntity
  8
Default
100
AcDbSpline
210
0.0
220
0.0
230
1.0
 70
    12
 71
     2
 72
     6
 73
     3
 74
     0
 42
0.0000000001
 43
0.0000000001
 40
0.0
 40
0.0
 40
0.0
 40
0.0855034082648413
 40
0.0855034082648413
 40
0.0855034082648413
 10
41.92981537897305
 20
0.0224180710075643
 30
0.0
 41
1.0
 10
41.98043878058275
 20
0.0325440045003296
 30
0.0
 41
0.7610186280100805
 10
41.97844767930161
 20
0.0843634773761863
 30
0.0
 41
1.0
  0
SPLINE
  5
DF
330
1F
100
AcDbEntity
  8
Default
100
AcDbSpline
210
0.0
220
0.0
230
1.0
 70
    24
 71
     2
 72
     6
 73
     3
 74
     0
 42
0.0000000001
 43
0.0000000001
 40
0.0
 40
0.0
 40
0.0
 40
0.2300681636784336
 40
0.2300681636784336
 40
0.2300681636784336
 10
41.97844767930161
 20
0.0843634773761863
 30
0.0
 10
41.9736591211755
 20
0.1994137061527965
 30
0.0
 10
41.96887056304939
 20
0.3144639349294067
 30
0.0
  0
ARC
  5
E0
330
1F
100
AcDbEntity
  8
Default
100
AcDbCircle
 10
41.79340166630078
 20
-1.468062803030804
 30
0.0
 40
1.791142346456375
100
AcDbArc
 50
84.37801354298296
 51
104.4730982747003
  0
SPLINE
  5
E1
330
1F
100
AcDbEntity
  8
Default
100
AcDbSpline
210
0.0
220
0.0
230
1.0
 70
    24
 71
     2
 72
     6
 73
     3
 74
     0
 42
0.0000000001
 43
0.0000000001
 40
0.0
 40
0.0
 40
0.0
 40
0.2021897559235226
 40
0.2021897559235226
 40
0.2021897559235226
 10
41.34574968416661
 20
0.2662378076363865
 30
0.0
 10
41.35701194953256
 20
0.1657635583728094
 30
0.0
 10
41.36827421489852
 20
0.0652893091092324
 30
0.0
  0
SPLINE
  5
E2
330
1F
100
AcDbEntity
  8
Default
100
AcDbSpline
210
0.0
220
0.0
230
1.0
 70
     8
 71
     3
 72
    14
 73
    10
 74
     0
 42
0.0000000001
 43
0.0000000001
 40
0.0
 40
0.0
 40
0.0
 40
0.0
 40
0.1762632628465002
 40
0.2409776516219818
 40
0.3206233793155049
 40
0.4583845697236367
 40
0.633252475572114
 40
1.126993947823871
 40
1.730652273456374
 40
1.730652273456374
 40
1.730652273456374
 40
1.730652273456374
 10
39.26124415525845
 20
17.07526355004354
 30
0.0
 10
39.3187038638568
 20
17.08823356372076
 30
0.0
 10
39.39762919264081
 20
17.10142257742331
 30
0.0
 10
39.50212334032
 20
17.12620686032216
 30
0.0
 10
39.59764905397822
 20
17.1184387075629
 30
0.0
 10
39.712375367569
 20
17.04975253832413
 30
0.0
 10
39.89216570676933
 20
16.84701271559038
 30
0.0
 10
40.06252732895081
 20
16.4524169194693
 30
0.0
 10
40.12918549309035
 20
16.09202191552831
 30
0.0
 10
40.14528522234298
 20
15.89106530113395
 30
0.0
  0
SPLINE
  5
E3
330
1F
100
AcDbEntity
  8
Default
100
AcDbSpline
210
0.0
220
0.0
230
1.0
 70
    12
 71
     2
 72
    10
 73
     7
 74
     0
 42
0.0000000001
 43
0.0000000001
 40
0.0
 40
0.0
 40
0.0
 40
0.4788205097622018
 40
0.4788205097622018
 40
0.9696943618856155
 40
0.9696943618856155
 40
0.9820271681433114
 40
0.9820271681433114
 40
0.9820271681433114
 10
22.42474018760367
 20
25.4221088293622
 30
0.0
 41
1.0
 10
22.12737301934761
 20
25.3776432821618
 30
0.0
 41
0.7206112449415953
 10
22.07147372888443
 20
25.67307463962101
 30
0.0
 41
1.0
 10
22.01337568763684
 20
25.98012653686836
 30
0.0
 41
0.7071067811865192
 10
22.32042758488421
 20
26.03822457811593
 30
0.0
 41
1.0
 10
22.32648726988917
 20
26.03937114595193
 30
0.0
 41
0.999805320735976
 10
22.33258747410525
 20
26.04027773774793
 30
0.0
 41
1.0
  0
SPLINE
  5
E4
330
1F
100
AcDbEntity
  8
Default
100
AcDbSpline
210
0.0
220
0.0
230
1.0
 70
     8
 71
     3
 72
    21
 73
    17
 74
     0
 42
0.0000000001
 43
0.0000000001
 40
0.0
 40
0.0
 40
0.0
 40
0.0
 40
0.0665349446744058
 40
0.1649910259523991
 40
0.4349479459839425
 40
1.16407390492166
 40
1.344557613164416
 40
1.716814666684118
 40
2.500530244391534
 40
6.849166235313318
 40
7.142536959937101
 40
7.897127356275973
 40
8.73353383978226
 40
9.026799509077534
 40
9.143648345529225
 40
9.324979678413737
 40
9.324979678413737
 40
9.324979678413737
 40
9.324979678413737
 10
23.6561197610659
 20
25.60701506752208
 30
0.0
 10
23.67692737092239
 20
25.599036178421
 30
0.0
 10
23.72043382822301
 20
25.56423078136848
 30
0.0
 10
23.81243493791197
 20
25.45160712232922
 30
0.0
 10
23.98419301388248
 20
25.12652919025919
 30
0.0
 10
24.09061270512717
 20
24.74552483650392
 30
0.0
 10
24.18334061394177
 20
24.32915874459802
 30
0.0
 10
24.26609299166324
 20
23.89109407222941
 30
0.0
 10
24.61366930192759
 20
22.08970258437708
 30
0.0
 10
24.95552835622965
 20
20.31348033686182
 30
0.0
 10
25.29489269014778
 20
18.54696628662654
 30
0.0
 10
25.4326491857077
 20
17.93506365274121
 30
0.0
 10
25.64271282513232
 20
17.33725139016492
 30
0.0
 10
25.89187503051647
 20
16.99950697956936
 30
0.0
 10
26.04505388113995
 20
16.87425158444138
 30
0.0
 10
26.1306586636353
 20
16.82330702755137
 30
0.0
 10
26.18113366696815
 20
16.79011950232618
 30
0.0
  0
SPLINE
  5
E5
330
1F
100
AcDbEntity
  8
Default
100
AcDbSpline
210
0.0
220
0.0
230
1.0
 70
     8
 71
     3
 72
     9
 73
     5
 74
     0
 42
0.0000000001
 43
0.0000000001
 40
0.0
 40
0.0
 40
0.0
 40
0.0
 40
0.00003152313445
 40
1.245118352931257
 40
1.245118352931257
 40
1.245118352931257
 40
1.245118352931257
 10
22.42470666206515
 20
25.42210381791273
 30
0.0
 10
22.42465563467829
 20
25.42209528291127
 30
0.0
 10
22.83513068829859
 20
25.48346075468066
 30
0.0
 10
23.24562249921945
 20
25.54475585285397
 30
0.0
 10
23.65608339640045
 20
25.60615067055053
 30
0.0
  0
SPLINE
  5
E6
330
1F
100
AcDbEntity
  8
Default
100
AcDbSpline
210
0.0
220
0.0
230
1.0
 70
    12
 71
     2
 72
     8
 73
     5
 74
     0
 42
0.0000000001
 43
0.0000000001
 40
0.0
 40
0.0
 40
0.0
 40
0.1690256349283122
 40
0.1690256349283122
 40
0.3380512698566244
 40
0.3380512698566244
 40
0.3380512698566244
 10
21.22994810962547
 20
30.91949509126758
 30
0.0
 41
1.0
 10
21.13800127519534
 20
30.93829058738042
 30
0.0
 41
0.8572559322646445
 10
21.0782145084799
 20
30.86595087794252
 30
0.0
 41
1.0
 10
21.01842774176447
 20
30.79361116850463
 30
0.0
 41
0.8572559322646445
 10
21.05420186370947
 20
30.70684883085221
 30
0.0
 41
1.0
  0
SPLINE
  5
E7
330
1F
100
AcDbEntity
  8
Default
100
AcDbSpline
210
0.0
220
0.0
230
1.0
 70
    12
 71
     2
 72
     8
 73
     5
 74
     0
 42
0.0000000001
 43
0.0000000001
 40
0.0
 40
0.0
 40
0.0
 40
0.1466454949755766
 40
0.1466454949755766
 40
0.2932909899511532
 40
0.2932909899511532
 40
0.2932909899511532
 10
23.33385192269759
 20
21.64676194480339
 30
0.0
 41
1.0
 10
23.33155838785918
 20
21.56756956235605
 30
0.0
 41
0.8918969760408813
 10
23.39408753754265
 20
21.51891980203186
 30
0.0
 41
1.0
 10
23.45661668722614
 20
21.47027004170767
 30
0.0
 41
0.8918969760408813
 10
23.53281472865132
 20
21.49196225742438
 30
0.0
 41
1.0
  0
SPLINE
  5
E8
330
1F
100
AcDbEntity
  8
Default
100
AcDbSpline
210
0.0
220
0.0
230
1.0
 70
     8
 71
     3
 72
    11
 73
     7
 74
     0
 42
0.0000000001
 43
0.0000000001
 40
0.0
 40
0.0
 40
0.0
 40
0.0
 40
0.4305319194939327
 40
0.6761607843529747
 40
0.936694035910168
 40
1.187533833707546
 40
1.187533833707546
 40
1.187533833707546
 40
1.187533833707546
 10
23.53279797407396
 20
21.49198935763903
 30
0.0
 10
23.67271301504803
 20
21.52400373816947
 30
0.0
 10
23.89710671654268
 20
21.55067232116494
 30
0.0
 10
24.19996117699526
 20
21.62849913093586
 30
0.0
 10
24.43833154480643
 20
21.71181675175166
 30
0.0
 10
24.59080140238422
 20
21.78942903842479
 30
0.0
 10
24.66316590746112
 20
21.83107213096186
 30
0.0
  0
SPLINE
  5
E9
330
1F
100
AcDbEntity
  8
Default
100
AcDbSpline
210
0.0
220
0.0
230
1.0
 70
    24
 71
     2
 72
     6
 73
     3
 74
     0
 42
0.0000000001
 43
0.0000000001
 40
0.0
 40
0.0
 40
0.0
 40
0.030852161272526
 40
0.030852161272526
 40
0.030852161272526
 10
22.36310060985181
 20
26.04483806163162
 30
0.0
 10
22.34784397139916
 20
26.04255794169577
 30
0.0
 10
22.3325873329465
 20
26.04027782175991
 30
0.0
  0
SPLINE
  5
EA
330
1F
100
AcDbEntity
  8
Default
100
AcDbSpline
210
0.0
220
0.0
230
1.0
 70
     8
 71
     3
 72
    25
 73
    21
 74
     0
 42
0.0000000001
 43
0.0000000001
 40
0.0
 40
0.0
 40
0.0
 40
0.0
 40
0.225676332051864
 40
0.2874627964663117
 40
0.4552122300980705
 40
0.7945999475505603
 40
1.24450300310216
 40
1.853065854363438
 40
7.166752973368984
 40
7.678788638541813
 40
8.236178505445821
 40
8.700477794391604
 40
9.239205473178972
 40
9.664488948235604
 40
9.873357892228968
 40
9.904072052146596
 40
9.934526712173962
 40
9.986623583265825
 40
10.04347866325304
 40
11.1086234205342
 40
11.1086234205342
 40
11.1086234205342
 40
11.1086234205342
 10
26.62048003778921
 20
17.25193510623571
 30
0.0
 10
26.55654821693105
 20
17.29192089398781
 30
0.0
 10
26.47601381752986
 20
17.34297603783588
 30
0.0
 10
26.34857576869433
 20
17.42680486963798
 30
0.0
 10
26.24233554854931
 20
17.58861417170822
 30
0.0
 10
26.11372175645357
 20
17.87874822941893
 30
0.0
 10
25.97917739452924
 20
18.32742377318208
 30
0.0
 10
25.56450910435603
 20
20.4095018462736
 30
0.0
 10
25.17100313985543
 20
22.5190602233767
 30
0.0
 10
24.76553062561106
 20
24.60734660181764
 30
0.0
 10
24.64398156381606
 20
25.10438993891732
 30
0.0
 10
24.45852194943512
 20
25.59114079964164
 30
0.0
 10
24.21098479255312
 20
26.00527975505389
 30
0.0
 10
23.87123193091122
 20
26.22612556712707
 30
0.0
 10
23.6427846684868
 20
26.23579877101689
 30
0.0
 10
23.5546462792343
 20
26.22300228656141
 30
0.0
 10
23.51708591305652
 20
26.21725157077452
 30
0.0
 10
23.47122063129535
 20
26.21046457671126
 30
0.0
 10
23.08414004663979
 20
26.15260358081615
 30
0.0
 10
22.71424901550432
 20
26.09731718631834
 30
0.0
 10
22.36310060984846
 20
26.04483806163428
 30
0.0
  0
SPLINE
  5
EB
330
1F
100
AcDbEntity
  8
Default
100
AcDbSpline
210
0.0
220
0.0
230
1.0
 70
     8
 71
     3
 72
    13
 73
     9
 74
     0
 42
0.0000000001
 43
0.0000000001
 40
0.0
 40
0.0
 40
0.0
 40
0.0
 40
5.854934555442714
 40
6.269726524622611
 40
6.632081989806712
 40
6.892421959202045
 40
6.982855724869562
 40
7.341876405429634
 40
7.341876405429634
 40
7.341876405429634
 40
7.341876405429634
 10
31.22175216376695
 20
16.2566449172167
 30
0.0
 10
33.16720116034833
 20
16.41152196087305
 30
0.0
 10
35.25274707236576
 20
16.55012584885219
 30
0.0
 10
37.45555766641837
 20
16.73596361059359
 30
0.0
 10
37.79761918890381
 20
16.79085833754849
 30
0.0
 10
38.03260207025761
 20
16.82440174852823
 30
0.0
 10
38.26438727336898
 20
16.87351224703026
 30
0.0
 10
38.41127131344274
 20
16.90169339613482
 30
0.0
 10
38.52851316006593
 20
16.9262145859431
 30
0.0
  0
SPLINE
  5
EC
330
1F
100
AcDbEntity
  8
Default
100
AcDbSpline
210
0.0
220
0.0
230
1.0
 70
     8
 71
     3
 72
    23
 73
    19
 74
     0
 42
0.0000000001
 43
0.0000000001
 40
0.0
 40
0.0
 40
0.0
 40
0.0
 40
1.0178716147505
 40
2.176358818916439
 40
2.61588123659808
 40
3.158358901046834
 40
3.384019779601684
 40
4.109109792526405
 40
5.363423240323053
 40
5.959758848723831
 40
7.667141295717129
 40
8.1611567166983
 40
8.73390112518842
 40
9.059333254106061
 40
9.24373858722212
 40
9.72786522749654
 40
10.19703624309155
 40
11.00102805315352
 40
11.00102805315352
 40
11.00102805315352
 40
11.00102805315352
 10
25.21348589124909
 20
22.27845422736105
 30
0.0
 10
25.44278277559715
 20
22.52999914831423
 30
0.0
 10
25.78620956708164
 20
23.18732541190782
 30
0.0
 10
25.85842731541652
 20
24.07147079710462
 30
0.0
 10
25.77931361474515
 20
24.77899451220344
 30
0.0
 10
25.72314531774811
 20
25.17868126018033
 30
0.0
 10
25.63559810247341
 20
25.66804776280323
 30
0.0
 10
25.47644069777107
 20
26.38657729794619
 30
0.0
 10
25.20736125690195
 20
27.2034298888216
 30
0.0
 10
24.73809738650425
 20
28.29298853429746
 30
0.0
 10
24.28832533459274
 20
29.11316162909051
 30
0.0
 10
23.75390700088627
 20
29.86871208371133
 30
0.0
 10
23.42275004845084
 20
30.19819415833152
 30
0.0
 10
23.1312687081932
 20
30.41065381901083
 30
0.0
 10
22.8456097265244
 20
30.58015697787437
 30
0.0
 10
22.49109262674153
 20
30.71826306059836
 30
0.0
 10
21.92074959249487
 20
30.85810620576055
 30
0.0
 10
21.49436852265711
 20
30.87741520747051
 30
0.0
 10
21.22993755409391
 20
30.91944034989494
 30
0.0
  0
SPLINE
  5
ED
330
1F
100
AcDbEntity
  8
Default
100
AcDbSpline
210
0.0
220
0.0
230
1.0
 70
    12
 71
     3
 72
    12
 73
     8
 74
     0
 42
0.0000000001
 43
0.0000000001
 40
-1.0
 40
-1.0
 40
-1.0
 40
-1.0
 40
-0.875
 40
-0.875
 40
-0.75
 40
-0.75
 40
-0.6329199333998808
 40
-0.6329199333998808
 40
-0.6329199333998808
 40
-0.6329199333998808
 10
23.33385192269759
 20
21.64676194480339
 30
0.0
 41
1.0
 10
23.34467674310918
 20
22.02602164275854
 30
0.0
 41
1.0
 10
23.32430127169528
 20
22.45615282049572
 30
0.0
 41
1.0
 10
23.22826631217276
 20
23.35712122773931
 30
0.0
 41
1.0
 10
23.15316821745836
 20
23.82717604909877
 30
0.0
 41
1.0
 10
22.982039513811
 20
24.70536280196904
 30
0.0
 41
1.0
 10
22.89219477530384
 20
25.10261902541289
 30
0.0
 41
1.0
 10
22.79870890825055
 20
25.47799896701824
 30
0.0
 41
1.0
  0
SPLINE
  5
EE
330
1F
100
AcDbEntity
  8
Default
100
AcDbSpline
210
0.0
220
0.0
230
1.0
 70
    12
 71
     2
 72
     6
 73
     3
 74
     0
 42
0.0000000001
 43
0.0000000001
 40
0.0
 40
0.0
 40
0.0
 40
4.887933103701366
 40
4.887933103701366
 40
4.887933103701366
 10
22.6396173773266
 20
26.08616393880277
 30
0.0
 41
1.0
 10
21.98315359247103
 20
28.44325341731671
 30
0.0
 41
0.9982657130694296
 10
21.05420186370947
 20
30.70684883085221
 30
0.0
 41
1.0
  0
SPLINE
  5
EF
330
1F
100
AcDbEntity
  8
Default
100
AcDbSpline
210
0.0
220
0.0
230
1.0
 70
     8
 71
     3
 72
    20
 73
    16
 74
     0
 42
0.0000000001
 43
0.0000000001
 40
0.0
 40
0.0
 40
0.0
 40
0.0
 40
1.016023921203492
 40
1.527494508839443
 40
2.164610804987852
 40
3.988000207643519
 40
5.804062866727969
 40
7.268374888272469
 40
7.793056219858554
 40
8.239581996564139
 40
8.709131721423118
 40
9.168116820596085
 40
9.553899249817224
 40
10.19568979129581
 40
10.33789683585716
 40
10.33789683585716
 40
10.33789683585716
 40
10.33789683585716
 10
25.14973404551029
 20
22.60927953638063
 30
0.0
 10
25.34135293301182
 20
22.89078878286215
 30
0.0
 10
25.50948241843611
 20
23.38098822094432
 30
0.0
 10
25.56205168858503
 20
24.10392856412992
 30
0.0
 10
25.46236482779227
 20
25.08960921502167
 30
0.0
 10
25.18710474481924
 20
26.49472384970311
 30
0.0
 10
24.53661369754656
 20
28.07417243307856
 30
0.0
 10
23.89847528451372
 20
29.17282222606582
 30
0.0
 10
23.40373847200357
 20
29.8188613572276
 30
0.0
 10
23.038524977154
 20
30.13530622646564
 30
0.0
 10
22.64932730735154
 20
30.37922519204429
 30
0.0
 10
22.23341941746844
 20
30.52630040928513
 30
0.0
 10
21.74977047812718
 20
30.6333096958854
 30
0.0
 10
21.35894911266718
 20
30.65995308266682
 30
0.0
 10
21.10084722496646
 20
30.69774652399755
 30
0.0
 10
21.05420186370947
 20
30.70684883085221
 30
0.0
  0
SPLINE
  5
F0
330
1F
100
AcDbEntity
  8
Default
100
AcDbSpline
210
0.0
220
0.0
230
1.0
 70
     8
 71
     3
 72
    13
 73
     9
 74
     0
 42
0.0000000001
 43
0.0000000001
 40
0.0
 40
0.0
 40
0.0
 40
0.0
 40
0.734006315383499
 40
0.8464207759456737
 40
1.390178656380674
 40
2.243775488709772
 40
2.540509272088552
 40
3.942572981713949
 40
3.942572981713949
 40
3.942572981713949
 40
3.942572981713949
 10
26.92736618153134
 20
16.70218955637051
 30
0.0
 10
27.13824552885671
 20
16.57704781835091
 30
0.0
 10
27.3685338211165
 20
16.41547049151532
 30
0.0
 10
27.77435804197796
 20
16.1874894586078
 30
0.0
 10
28.27644667249984
 20
16.09284980085162
 30
0.0
 10
28.83917490435516
 20
16.08304358769179
 30
0.0
 10
29.69003487066715
 20
16.13532146880178
 30
0.0
 10
30.25265431645937
 20
16.18598412125125
 30
0.0
 10
30.71949919963731
 20
16.21847275907014
 30
0.0
  0
SPLINE
  5
F1
330
1F
100
AcDbEntity
  8
Default
100
AcDbSpline
210
0.0
220
0.0
230
1.0
 70
     8
 71
     3
 72
    11
 73
     7
 74
     0
 42
0.0000000001
 43
0.0000000001
 40
0.0
 40
0.0
 40
0.0
 40
0.0
 40
0.1200553089436328
 40
0.5147636855652583
 40
0.7898292835510572
 40
1.365398434204968
 40
1.365398434204968
 40
1.365398434204968
 40
1.365398434204968
 10
23.33385192269759
 20
21.64676194480339
 30
0.0
 10
23.37193289941001
 20
21.65943104994511
 30
0.0
 10
23.5400607167976
 20
21.6939971912829
 30
0.0
 10
23.80096514934695
 20
21.73073574922384
 30
0.0
 10
24.20301775591889
 20
21.83795333797096
 30
0.0
 10
24.4594484294467
 20
21.96490214315429
 30
0.0
 10
24.61593033255298
 20
22.07633110672937
 30
0.0
  0
SPLINE
  5
F2
330
1F
100
AcDbEntity
  8
Default
100
AcDbSpline
210
0.0
220
0.0
230
1.0
 70
     8
 71
     3
 72
    16
 73
    12
 74
     0
 42
0.0000000001
 43
0.0000000001
 40
0.0
 40
0.0
 40
0.0
 40
0.0
 40
16.41289929611962
 40
16.54796027589672
 40
16.76083098654895
 40
16.95520840927917
 40
17.11286499139569
 40
17.27992562849579
 40
17.42526353136803
 40
17.5519356848284
 40
17.63972565849193
 40
17.63972565849193
 40
17.63972565849193
 40
17.63972565849193
 10
20.7772837055158
 20
0.2709887137317537
 30
0.0
 10
22.62612987285274
 20
5.420074665012081
 30
0.0
 10
24.48513840888728
 20
10.61339597974886
 30
0.0
 10
26.3741790811618
 20
15.87126547965106
 30
0.0
 10
26.45962525807465
 20
16.03186694489902
 30
0.0
 10
26.54165712813864
 20
16.20042471717893
 30
0.0
 10
26.63542030828273
 20
16.34688698413409
 30
0.0
 10
26.72262003045057
 20
16.47654680325191
 30
0.0
 10
26.81467827500853
 20
16.59098141679823
 30
0.0
 10
26.89679460267809
 20
16.67811043032977
 30
0.0
 10
26.95239554041501
 20
16.72385345461188
 30
0.0
 10
26.97797891679676
 20
16.73808199153672
 30
0.0
  0
SPLINE
  5
F3
330
1F
100
AcDbEntity
  8
Default
100
AcDbSpline
210
0.0
220
0.0
230
1.0
 70
     8
 71
     3
 72
    18
 73
    14
 74
     0
 42
0.0000000001
 43
0.0000000001
 40
0.0
 40
0.0
 40
0.0
 40
0.0
 40
15.14894129379804
 40
15.65034509407024
 40
15.74087703470757
 40
15.98006877737321
 40
16.77973116841668
 40
17.43760275705001
 40
17.97044114771119
 40
18.1744362055793
 40
18.28360470267897
 40
18.32375178724491
 40
18.60375583992228
 40
18.60375583992228
 40
18.60375583992228
 40
18.60375583992228
 10
41.96883267493598
 20
0.3149707399409607
 30
0.0
 10
41.58253591818567
 20
5.349869149154927
 30
0.0
 10
41.18276587097313
 20
10.55118153520412
 30
0.0
 10
40.78149516530277
 20
15.78289274492194
 30
0.0
 10
40.75854339752777
 20
16.05884899519198
 30
0.0
 10
40.70630207381458
 20
16.43247508009348
 30
0.0
 10
40.5510141145466
 20
16.97914208143249
 30
0.0
 10
40.1684309295797
 20
17.5405506767338
 30
0.0
 10
39.73370487257756
 20
17.75305759677825
 30
0.0
 10
39.44702671857442
 20
17.749593746847
 30
0.0
 10
39.33210401471325
 20
17.72761543271726
 30
0.0
 10
39.19144334998168
 20
17.69914670969774
 30
0.0
 10
39.08737064378204
 20
17.67734938234955
 30
0.0
 10
38.99567596758425
 20
17.65906655884216
 30
0.0
  0
SPLINE
  5
F4
330
1F
100
AcDbEntity
  8
Default
100
AcDbSpline
210
0.0
220
0.0
230
1.0
 70
    12
 71
     2
 72
     6
 73
     3
 74
     0
 42
0.0000000001
 43
0.0000000001
 40
0.0
 40
0.0
 40
0.0
 40
0.0394383425927629
 40
0.0394383425927629
 40
0.0394383425927629
 10
23.56374304923264
 20
21.49918938938976
 30
0.0
 41
1.0
 10
23.58300756159917
 20
21.50340270786463
 30
0.0
 41
0.999946436197294
 10
23.60235515848518
 20
21.50721636542991
 30
0.0
 41
1.0
  0
SPLINE
  5
F5
330
1F
100
AcDbEntity
  8
Default
100
AcDbSpline
210
0.0
220
0.0
230
1.0
 70
    12
 71
     2
 72
     6
 73
     3
 74
     0
 42
0.0000000001
 43
0.0000000001
 40
0.0
 40
0.0
 40
0.0
 40
2.237596064649673
 40
2.237596064649673
 40
2.237596064649673
 10
2.232364495306456
 20
16.55970639268183
 30
0.0
 41
1.0
 10
1.120047177880663
 20
16.42835230282256
 30
0.0
 41
0.9983291216645981
 10
0.000002588263726
 20
16.42620838934191
 30
0.0
 41
1.0
  0
SPLINE
  5
F6
330
1F
100
AcDbEntity
  8
Default
100
AcDbSpline
210
0.0
220
0.0
230
1.0
 70
    12
 71
     2
 72
     6
 73
     3
 74
     0
 42
0.0000000001
 43
0.0000000001
 40
-2.237596064649673
 40
-2.237596064649673
 40
-2.237596064649673
 40
0.0
 40
0.0
 40
0.0
 10
0.000002588263726
 20
16.42620838934191
 30
0.0
 41
1.0
 10
-1.120042001353208
 20
16.42835230282256
 30
0.0
 41
0.9983291216645981
 10
-2.232359318779004
 20
16.55970639268183
 30
0.0
 41
1.0
  0
SPLINE
  5
F7
330
1F
100
AcDbEntity
  8
Default
100
AcDbSpline
210
0.0
220
0.0
230
1.0
 70
    12
 71
     2
 72
     6
 73
     3
 74
     0
 42
0.0000000001
 43
0.0000000001
 40
-2.169258451074326
 40
-2.169258451074326
 40
-2.169258451074326
 40
0.0
 40
0.0
 40
0.0
 10
-2.165610212022102
 20
16.76222126280948
 30
0.0
 41
1.0
 10
-1.085583515476367
 20
16.65248539871748
 30
0.0
 41
0.9986768174115286
 10
0.000002588263726
 20
16.65426547470156
 30
0.0
 41
1.0
  0
SPLINE
  5
F8
330
1F
100
AcDbEntity
  8
Default
100
AcDbSpline
210
0.0
220
0.0
230
1.0
 70
    12
 71
     2
 72
     6
 73
     3
 74
     0
 42
0.0000000001
 43
0.0000000001
 40
0.0
 40
0.0
 40
0.0
 40
2.169258451074326
 40
2.169258451074326
 40
2.169258451074326
 10
0.000002588263726
 20
16.65426547470156
 30
0.0
 41
1.0
 10
1.085588692003861
 20
16.65248539871748
 30
0.0
 41
0.9986768174115286
 10
2.165615388549554
 20
16.76222126280948
 30
0.0
 41
1.0
  0
SPLINE
  5
F9
330
1F
100
AcDbEntity
  8
Default
100
AcDbSpline
210
0.0
220
0.0
230
1.0
 70
    12
 71
     2
 72
     6
 73
     3
 74
     0
 42
0.0000000001
 43
0.0000000001
 40
-2.748284039546211
 40
-2.748284039546211
 40
-2.748284039546211
 40
0.0
 40
0.0
 40
0.0
 10
-2.73942597052411
 20
15.99381968835657
 30
0.0
 41
1.0
 10
-1.376231602894438
 20
15.80478410895135
 30
0.0
 41
0.9977161890770233
 10
0.000002588263726
 20
15.80120838937017
 30
0.0
 41
1.0
  0
SPLINE
  5
FA
330
1F
100
AcDbEntity
  8
Default
100
AcDbSpline
210
0.0
220
0.0
230
1.0
 70
    12
 71
     2
 72
     6
 73
     3
 74
     0
 42
0.0000000001
 43
0.0000000001
 40
0.0
 40
0.0
 40
0.0
 40
2.748284039546211
 40
2.748284039546211
 40
2.748284039546211
 10
0.000002588263726
 20
15.80120838937017
 30
0.0
 41
1.0
 10
1.376236779421902
 20
15.80478410895135
 30
0.0
 41
0.9977161890770233
 10
2.739431147051562
 20
15.99381968835657
 30
0.0
 41
1.0
  0
SPLINE
  5
FB
330
1F
100
AcDbEntity
  8
Default
100
AcDbSpline
210
0.0
220
0.0
230
1.0
 70
    12
 71
     2
 72
     6
 73
     3
 74
     0
 42
0.0000000001
 43
0.0000000001
 40
0.0
 40
0.0
 40
0.0
 40
0.0736943626177064
 40
0.0736943626177064
 40
0.0736943626177064
 10
8.781924320147596
 20
0.0730599744244671
 30
0.0
 41
1.0
 10
8.78789178013083
 20
0.0312923429479113
 30
0.0
 41
0.8203839743037172
 10
8.829143790952855
 20
0.0224369930986228
 30
0.0
 41
1.0
  0
SPLINE
  5
FC
330
1F
100
AcDbEntity
  8
Default
100
AcDbSpline
210
0.0
220
0.0
230
1.0
 70
    12
 71
     2
 72
     6
 73
     3
 74
     0
 42
0.0000000001
 43
0.0000000001
 40
0.0
 40
0.0
 40
0.0
 40
0.087805145337338
 40
0.087805145337338
 40
0.087805145337338
 10
9.341987498058131
 20
0.0123988868920293
 30
0.0
 41
1.0
 10
9.395022491782763
 20
0.0206038501108075
 30
0.0
 41
0.7481728658079281
 10
9.393215370817188
 20
0.0742393448377356
 30
0.0
 41
1.0
  0
SPLINE
  5
FD
330
1F
100
AcDbEntity
  8
Default
100
AcDbSpline
210
0.0
220
0.0
230
1.0
 70
    24
 71
     2
 72
     6
 73
     3
 74
     0
 42
0.0000000001
 43
0.0000000001
 40
0.0
 40
0.0
 40
0.0
 40
0.0342481899204006
 40
0.0342481899204006
 40
0.0342481899204006
 10
2.16418971944222
 20
16.7672908664106
 30
0.0
 10
2.165683468423424
 20
16.75023204634041
 30
0.0
 10
2.167177217404628
 20
16.73317322627022
 30
0.0
  0
SPLINE
  5
FE
330
1F
100
AcDbEntity
  8
Default
100
AcDbSpline
210
0.0
220
0.0
230
1.0
 70
    12
 71
     2
 72
     6
 73
     3
 74
     0
 42
0.0000000001
 43
0.0000000001
 40
0.0
 40
0.0
 40
0.0
 40
0.039938064346221
 40
0.039938064346221
 40
0.039938064346221
 10
9.203044874248121
 20
0.3215951473465708
 30
0.0
 41
1.0
 10
9.223000029353662
 20
0.3223490535418529
 30
0.0
 41
0.9999730226390744
 10
9.242964106231796
 20
0.3228097315648171
 30
0.0
 41
1.0
  0
SPLINE
  5
FF
330
1F
100
AcDbEntity
  8
Default
100
AcDbSpline
210
0.0
220
0.0
230
1.0
 70
    12
 71
     2
 72
     8
 73
     5
 74
     0
 42
0.0000000001
 43
0.0000000001
 40
0.0
 40
0.0
 40
0.0
 40
0.0566914603222361
 40
0.0566914603222361
 40
0.1716138446307484
 40
0.1716138446307484
 40
0.1716138446307484
 10
9.015905621223169
 20
0.3097537283477436
 30
0.0
 41
1.0
 10
9.044145138203323
 20
0.3122106469416067
 30
0.0
 41
0.9999754047794314
 10
9.072416339567553
 20
0.3142712152294251
 30
0.0
 41
1.0
 10
9.129727963076986
 20
0.3184735884984671
 30
0.0
 41
0.99988791196177
 10
9.18713971476302
 20
0.320958120390145
 30
0.0
 41
1.0
  0
SPLINE
  5
100
330
1F
100
AcDbEntity
  8
Default
100
AcDbSpline
210
0.0
220
0.0
230
1.0
 70
    12
 71
     2
 72
     6
 73
     3
 74
     0
 42
0.0000000001
 43
0.0000000001
 40
0.0
 40
0.0
 40
0.0
 40
0.0100305442270566
 40
0.0100305442270566
 40
0.0100305442270566
 10
8.811553155959928
 20
0.2844182606981889
 30
0.0
 41
1.0
 10
8.816480312144973
 20
0.2853546156305362
 30
0.0
 41
0.9999798957634295
 10
8.821418946690414
 20
0.2862284104911055
 30
0.0
 41
1.0
  0
SPLINE
  5
101
330
1F
100
AcDbEntity
  8
Default
100
AcDbSpline
210
0.0
220
0.0
230
1.0
 70
    12
 71
     2
 72
     6
 73
     3
 74
     0
 42
0.0000000001
 43
0.0000000001
 40
0.0
 40
0.0
 40
0.0
 40
0.0070224917865416
 40
0.0070224917865416
 40
0.0070224917865416
 10
8.78263562612284
 20
0.2780261162579905
 30
0.0
 41
1.0
 10
8.786029188792803
 20
0.2789283099677228
 30
0.0
 41
0.9999164634581956
 10
8.789444938054771
 20
0.2797424832071869
 30
0.0
 41
1.0
  0
SPLINE
  5
102
330
1F
100
AcDbEntity
  8
Default
100
AcDbSpline
210
0.0
220
0.0
230
1.0
 70
    12
 71
     2
 72
     6
 73
     3
 74
     0
 42
0.0000000001
 43
0.0000000001
 40
0.0
 40
0.0
 40
0.0
 40
0.0946354481923141
 40
0.0946354481923141
 40
0.0946354481923141
 10
2.984394173851854
 20
16.8619586374073
 30
0.0
 41
1.0
 10
2.981561611564447
 20
16.81468224847108
 30
0.0
 41
0.9986245915477411
 10
2.983695224211374
 20
16.76736916299747
 30
0.0
 41
1.0
  0
SPLINE
  5
103
330
1F
100
AcDbEntity
  8
Default
100
AcDbSpline
210
0.0
220
0.0
230
1.0
 70
    12
 71
     2
 72
     6
 73
     3
 74
     0
 42
0.0000000001
 43
0.0000000001
 40
1.227185181501445
 40
1.227185181501445
 40
1.227185181501445
 40
1.472621556370215
 40
1.472621556370215
 40
1.472621556370215
 10
9.292798949383776
 20
0.3233373001006105
 30
0.0
 41
0.8535533905940124
 10
9.384083835439597
 20
0.3229889685765686
 30
0.0
 41
0.8535537194775102
 10
9.384083835439583
 20
0.3130820206691283
 30
0.0
 41
1.0
  0
SPLINE
  5
104
330
1F
100
AcDbEntity
  8
Default
100
AcDbSpline
210
0.0
220
0.0
230
1.0
 70
    24
 71
     2
 72
     6
 73
     3
 74
     0
 42
0.0000000001
 43
0.0000000001
 40
0.0
 40
0.0
 40
0.0
 40
5.968783170901183
 40
5.968783170901183
 40
5.968783170901183
 10
-2.984388997049336
 20
16.86195863740731
 30
0.0
 10
0.0000025884012587
 20
16.86195863740731
 30
0.0
 10
2.984394173851854
 20
16.8619586374073
 30
0.0
  0
SPLINE
  5
105
330
1F
100
AcDbEntity
  8
Default
100
AcDbSpline
210
0.0
220
0.0
230
1.0
 70
    24
 71
     2
 72
     6
 73
     3
 74
     0
 42
0.0000000001
 43
0.0000000001
 40
0.0
 40
0.0
 40
0.0
 40
5.968714025165912
 40
5.968714025165912
 40
5.968714025165912
 10
-2.984354424181731
 20
17.11125001451825
 30
0.0
 10
0.0000025884012302
 20
17.11125001451825
 30
0.0
 10
2.984359600984192
 20
17.11125001451825
 30
0.0
  0
SPLINE
  5
106
330
1F
100
AcDbEntity
  8
Default
100
AcDbSpline
210
0.0
220
0.0
230
1.0
 70
    12
 71
     2
 72
     6
 73
     3
 74
     0
 42
0.0000000001
 43
0.0000000001
 40
0.0
 40
0.0
 40
0.0
 40
0.1681425763085652
 40
0.1681425763085652
 40
0.1681425763085652
 10
2.960794570142014
 20
17.02636664519
 30
0.0
 41
1.0
 10
2.949761811218501
 20
16.94088518910322
 30
0.0
 41
0.9635236063237247
 10
2.984394173851854
 20
16.8619586374073
 30
0.0
 41
1.0
  0
SPLINE
  5
107
330
1F
100
AcDbEntity
  8
Default
100
AcDbSpline
210
0.0
220
0.0
230
1.0
 70
    12
 71
     2
 72
     8
 73
     5
 74
     0
 42
0.0000000001
 43
0.0000000001
 40
0.0
 40
0.0
 40
0.0
 40
0.0157281795497573
 40
0.0157281795497573
 40
0.0314563590995147
 40
0.0314563590995147
 40
0.0314563590995147
 10
2.167177217404628
 20
16.73317322627024
 30
0.0
 41
1.0
 10
2.16791149903381
 20
16.72490939965763
 30
0.0
 41
0.9236420745565544
 10
2.174280719957096
 20
16.71959310163886
 30
0.0
 41
1.0
 10
2.180649940880449
 20
16.71427680362011
 30
0.0
 41
0.9236420745565544
 10
2.188911920932242
 20
16.7150315786978
 30
0.0
 41
1.0
  0
SPLINE
  5
108
330
1F
100
AcDbEntity
  8
Default
100
AcDbSpline
210
0.0
220
0.0
230
1.0
 70
    12
 71
     2
 72
     6
 73
     3
 74
     0
 42
0.0000000001
 43
0.0000000001
 40
0.0
 40
0.0
 40
0.0
 40
0.0247437132115748
 40
0.0247437132115748
 40
0.0247437132115748
 10
8.760755602348468
 20
0.2677833140579082
 30
0.0
 41
1.0
 10
8.769662307974919
 20
0.2772481348649159
 30
0.0
 41
0.929428217816864
 10
8.782635626089188
 20
0.2780261163095048
 30
0.0
 41
1.0
  0
SPLINE
  5
109
330
1F
100
AcDbEntity
  8
Default
100
AcDbSpline
210
0.0
220
0.0
230
1.0
 70
    12
 71
     2
 72
     6
 73
     3
 74
     0
 42
0.0000000001
 43
0.0000000001
 40
0.0
 40
0.0
 40
0.0
 40
0.1740253277019014
 40
0.1740253277019014
 40
0.1740253277019014
 10
2.360488821036427
 20
16.74216756118648
 30
0.0
 41
1.0
 10
2.273279017849676
 20
16.73758658063533
 30
0.0
 41
0.9945576532693988
 10
2.188911920932242
 20
16.7150315786978
 30
0.0
 41
1.0
  0
SPLINE
  5
10A
330
1F
100
AcDbEntity
  8
Default
100
AcDbSpline
210
0.0
220
0.0
230
1.0
 70
    12
 71
     2
 72
     6
 73
     3
 74
     0
 42
0.0000000001
 43
0.0000000001
 40
0.0
 40
0.0
 40
0.0
 40
0.0159179282250791
 40
0.0159179282250791
 40
0.0159179282250791
 10
9.187139714698617
 20
0.3209581204283154
 30
0.0
 41
1.0
 10
9.195091492549047
 20
0.3212966561762952
 30
0.0
 41
0.9999968305897696
 10
9.203044874246928
 20
0.3215951473862333
 30
0.0
 41
1.0
  0
SPLINE
  5
10B
330
1F
100
AcDbEntity
  8
Default
100
AcDbSpline
210
0.0
220
0.0
230
1.0
 70
    12
 71
     2
 72
     8
 73
     5
 74
     0
 42
0.0000000001
 43
0.0000000001
 40
0.0
 40
0.0
 40
0.0
 40
0.0865273959107956
 40
0.0865273959107956
 40
0.1959595050328624
 40
0.1959595050328624
 40
0.1959595050328624
 10
8.821418946686151
 20
0.2862284105450925
 30
0.0
 41
1.0
 10
8.864071840900063
 20
0.2935328301136123
 30
0.0
 41
0.999649003387531
 10
8.907051755179566
 20
0.2985677976987233
 30
0.0
 41
1.0
 10
8.96138594034012
 20
0.3050633185050568
 30
0.0
 41
0.9998625323368967
 10
9.015905620486365
 20
0.3097537283329928
 30
0.0
 41
1.0
  0
SPLINE
  5
10C
330
1F
100
AcDbEntity
  8
Default
100
AcDbSpline
210
0.0
220
0.0
230
1.0
 70
    12
 71
     2
 72
     6
 73
     3
 74
     0
 42
0.0000000001
 43
0.0000000001
 40
0.0
 40
0.0
 40
0.0
 40
0.022599255445238
 40
0.022599255445238
 40
0.022599255445238
 10
8.789444938287488
 20
0.2797424833213285
 30
0.0
 41
1.0
 10
8.800445220377249
 20
0.2823348758861541
 30
0.0
 41
0.9997350652396294
 10
8.811553155084027
 20
0.2844182605869179
 30
0.0
 41
1.0
  0
SPLINE
  5
10D
330
1F
100
AcDbEntity
  8
Default
100
AcDbSpline
210
0.0
220
0.0
230
1.0
 70
    12
 71
     2
 72
     6
 73
     3
 74
     0
 42
0.0000000001
 43
0.0000000001
 40
0.0
 40
0.0
 40
0.0
 40
0.2452582194759985
 40
0.2452582194759985
 40
0.2452582194759985
 10
2.604447409220484
 20
16.76736916299815
 30
0.0
 41
1.0
 10
2.482541537950021
 20
16.75405760854483
 30
0.0
 41
0.999983024413568
 10
2.360488821036427
 20
16.74216756118648
 30
0.0
 41
1.0
  0
SPLINE
  5
10E
330
1F
100
AcDbEntity
  8
Default
100
AcDbSpline
210
0.0
220
0.0
230
1.0
 70
    12
 71
     2
 72
     6
 73
     3
 74
     0
 42
0.0000000001
 43
0.0000000001
 40
0.0
 40
0.0
 40
0.0
 40
0.049839079307476
 40
0.049839079307476
 40
0.049839079307476
 10
9.242964107733428
 20
0.3228097316351892
 30
0.0
 41
1.0
 10
9.267878048919695
 20
0.3234022073947131
 30
0.0
 41
0.9999130070347984
 10
9.29279894938503
 20
0.3233373001308166
 30
0.0
 41
1.0
  0
SPLINE
  5
10F
330
1F
100
AcDbEntity
  8
Default
100
AcDbSpline
210
0.0
220
0.0
230
1.0
 70
     8
 71
     3
 72
    10
 73
     6
 74
     0
 42
0.0000000001
 43
0.0000000001
 40
0.0
 40
0.0
 40
0.0
 40
0.0
 40
0.2154121773343171
 40
0.6159780757571736
 40
2.087205975174507
 40
2.087205975174507
 40
2.087205975174507
 40
2.087205975174507
 10
3.407360569901527
 20
16.7134968730355
 30
0.0
 10
3.476788204263983
 20
16.73183731874505
 30
0.0
 10
3.678958998235601
 20
16.768519149772
 30
0.0
 10
4.367483093711087
 20
16.86823730322686
 30
0.0
 10
4.98760140283855
 20
16.93852719028213
 30
0.0
 10
5.473815541698116
 20
17.00228791294387
 30
0.0
  0
SPLINE
  5
110
330
1F
100
AcDbEntity
  8
Default
100
AcDbSpline
210
0.0
220
0.0
230
1.0
 70
    12
 71
     2
 72
     6
 73
     3
 74
     0
 42
0.0000000001
 43
0.0000000001
 40
0.0
 40
0.0
 40
0.0
 40
0.2592885224651192
 40
0.2592885224651192
 40
0.2592885224651192
 10
3.582177494850555
 20
16.49091598480422
 30
0.0
 41
1.0
 10
3.583012333354426
 20
16.62055878234272
 30
0.0
 41
0.9999858353406036
 10
3.58246709380029
 20
16.75020312129652
 30
0.0
 41
1.0
  0
SPLINE
  5
111
330
1F
100
AcDbEntity
  8
Default
100
AcDbSpline
210
0.0
220
0.0
230
1.0
 70
    24
 71
     2
 72
     6
 73
     3
 74
     0
 42
0.0000000001
 43
0.0000000001
 40
0.0
 40
0.0
 40
0.0
 40
0.1935072007122365
 40
0.1935072007122365
 40
0.1935072007122365
 10
8.760759508303693
 20
0.2674282262325676
 30
0.0
 10
8.771210942687333
 20
0.1712407701834735
 30
0.0
 10
8.781662377070973
 20
0.0750533141343794
 30
0.0
  0
SPLINE
  5
112
330
1F
100
AcDbEntity
  8
Default
100
AcDbSpline
210
0.0
220
0.0
230
1.0
 70
    24
 71
     2
 72
     6
 73
     3
 74
     0
 42
0.0000000001
 43
0.0000000001
 40
0.0
 40
0.0
 40
0.0
 40
0.2378022079818448
 40
0.2378022079818448
 40
0.2378022079818448
 10
9.393188627949428
 20
0.0749799155485817
 30
0.0
 10
9.388645952596931
 20
0.1937942102731682
 30
0.0
 10
9.384103277244435
 20
0.3126085049977547
 30
0.0
  0
SPLINE
  5
113
330
1F
100
AcDbEntity
  8
Default
100
AcDbSpline
210
0.0
220
0.0
230
1.0
 70
     8
 71
     3
 72
     8
 73
     4
 74
     0
 42
0.0000000001
 43
0.0000000001
 40
0.0
 40
0.0
 40
0.0
 40
0.0
 40
1.0
 40
1.0
 40
1.0
 40
1.0
 10
9.341987498058131
 20
0.0123988868920293
 30
0.0
 10
9.236134504849645
 20
-0.0039774686965472
 30
0.0
 10
8.96811298021322
 20
-0.0073947839383948
 30
0.0
 10
8.829143790952855
 20
0.0224369930986228
 30
0.0
  0
SPLINE
  5
114
330
1F
100
AcDbEntity
  8
Default
100
AcDbSpline
210
0.0
220
0.0
230
1.0
 70
     8
 71
     3
 72
    10
 73
     6
 74
     0
 42
0.0000000001
 43
0.0000000001
 40
0.0
 40
0.0
 40
0.0
 40
0.0
 40
0.9206461800289194
 40
1.02420694366023
 40
1.126694174608516
 40
1.126694174608516
 40
1.126694174608516
 40
1.126694174608516
 10
3.808023536232838
 20
16.12978274261414
 30
0.0
 10
6.487714868244439
 20
16.61038217294598
 30
0.0
 10
6.82249834763951
 20
16.67820448429754
 30
0.0
 10
7.193362144687967
 20
16.73723142374637
 30
0.0
 10
7.263039996415671
 20
16.72943219056963
 30
0.0
 10
7.296748247458936
 20
16.72805619448974
 30
0.0
  0
LINE
  5
115
330
1F
100
AcDbEntity
  8
Default
100
AcDbLine
 10
2.206606126218048
 20
16.71955493073132
 30
0.0
 11
2.233909925970067
 21
16.54650430161482
 31
0.0
  0
LINE
  5
116
330
1F
100
AcDbEntity
  8
Default
100
AcDbLine
 10
2.233909925970067
 20
16.54650430161482
 30
0.0
 11
2.828955315718247
 21
15.89757995546047
 31
0.0
  0
SPLINE
  5
117
330
1F
100
AcDbEntity
  8
Default
100
AcDbSpline
210
0.0
220
0.0
230
1.0
 70
    12
 71
     2
 72
     6
 73
     3
 74
     0
 42
0.0000000001
 43
0.0000000001
 40
-0.5902413260903482
 40
-0.5902413260903482
 40
-0.5902413260903482
 40
0.0
 40
0.0
 40
0.0
 10
2.828955315718247
 20
15.89757995546047
 30
0.0
 41
1.0
 10
3.046481694882912
 20
15.66420633374904
 30
0.0
 41
0.8912785162673854
 10
3.363190020305581
 20
15.70263561361682
 30
0.0
 41
1.0
  0
SPLINE
  5
118
330
1F
100
AcDbEntity
  8
Default
100
AcDbSpline
210
0.0
220
0.0
230
1.0
 70
    12
 71
     2
 72
     6
 73
     3
 74
     0
 42
0.0000000001
 43
0.0000000001
 40
0.0
 40
0.0
 40
0.0
 40
0.1768562855986097
 40
0.1768562855986097
 40
0.1768562855986097
 10
3.363190020305581
 20
15.70263561361682
 30
0.0
 41
1.0
 10
3.451187212641654
 20
15.71324628706182
 30
0.0
 41
0.9965097053014877
 10
3.536192693386454
 20
15.73834928475809
 30
0.0
 41
1.0
  0
SPLINE
  5
119
330
1F
100
AcDbEntity
  8
Default
100
AcDbSpline
210
0.0
220
0.0
230
1.0
 70
    12
 71
     2
 72
     6
 73
     3
 74
     0
 42
0.0000000001
 43
0.0000000001
 40
-0.4516084190997445
 40
-0.4516084190997445
 40
-0.4516084190997445
 40
0.0
 40
0.0
 40
0.0
 10
3.536192693386454
 20
15.73834928475809
 30
0.0
 41
1.0
 10
3.783852322981092
 20
15.8109155950368
 30
0.0
 41
0.8225814638961753
 10
3.803458599742271
 20
16.06824176049612
 30
0.0
 41
1.0
  0
SPLINE
  5
11A
330
1F
100
AcDbEntity
  8
Default
100
AcDbSpline
210
0.0
220
0.0
230
1.0
 70
    24
 71
     2
 72
     6
 73
     3
 74
     0
 42
0.0000000001
 43
0.0000000001
 40
-0.7276951967855994
 40
-0.7276951967855994
 40
-0.7276951967855994
 40
0.0
 40
0.0
 40
0.0
 10
3.803458599742271
 20
16.06824176049612
 30
0.0
 10
3.830373842760537
 20
16.43109247986909
 30
0.0
 10
3.857289085778802
 20
16.79394319924205
 30
0.0
  0
SPLINE
  5
11B
330
1F
100
AcDbEntity
  8
Default
100
AcDbSpline
210
0.0
220
0.0
230
1.0
 70
    12
 71
     2
 72
    12
 73
     9
 74
     0
 42
0.0000000001
 43
0.0000000001
 40
-0.8832392966188353
 40
-0.8832392966188353
 40
-0.8832392966188353
 40
-0.7574486392288217
 40
-0.7574486392288217
 40
-0.5049657594858811
 40
-0.5049657594858811
 40
-0.2524828797429405
 40
-0.2524828797429405
 40
-0.0219017892552614
 40
-0.0219017892552614
 40
-0.0219017892552614
 10
3.58220539549368
 20
16.49090927561329
 30
0.0
 41
0.9618248396211013
 10
3.567309887308492
 20
16.4289652551746
 30
0.0
 41
0.9619606703233023
 10
3.529885550262975
 20
16.37740599966297
 30
0.0
 41
1.0
 10
3.451652879947365
 20
16.26962537997533
 30
0.0
 41
0.9236487057183772
 10
3.320096529967145
 20
16.2488903983056
 30
0.0
 41
1.0
 10
3.188540179986858
 20
16.22815541663589
 30
0.0
 41
0.9236487057183772
 10
3.080948489511513
 20
16.30664771451032
 30
0.0
 41
1.0
 10
2.983389468716747
 20
16.37782079197316
 30
0.0
 41
0.9302718476851716
 10
2.956938709239084
 20
16.49565001931962
 30
0.0
 41
0.9879027734576459
  0
ARC
  5
11C
330
1F
100
AcDbEntity
  8
Default
100
AcDbCircle
 10
-16.35461146257688
 20
16.66732868371354
 30
0.0
 40
19.31231326388356
100
AcDbArc
 50
359.4906569541048
 51
0.2968014654809339
  0
SPLINE
  5
11D
330
1F
100
AcDbEntity
  8
Default
100
AcDbSpline
210
0.0
220
0.0
230
1.0
 70
     8
 71
     3
 72
    15
 73
    11
 74
     0
 42
0.0000000001
 43
0.0000000001
 40
0.0
 40
0.0
 40
0.0
 40
0.0
 40
0.1481008985844257
 40
0.2835795947505744
 40
0.4095167464139915
 40
0.5399102056356212
 40
0.8000329001182528
 40
1.110289658690893
 40
5.325350683045592
 40
15.97290079287495
 40
15.97290079287495
 40
15.97290079287495
 40
15.97290079287495
 10
8.198196967923195
 20
16.20970278041374
 30
0.0
 10
8.228054542532789
 20
16.17057459538032
 30
0.0
 10
8.282020052659675
 20
16.0920971624997
 30
0.0
 10
8.341328581798564
 20
15.96950109260902
 30
0.0
 10
8.383839444771866
 20
15.84494378122332
 30
0.0
 10
8.40248901049506
 20
15.67352261789399
 30
0.0
 10
8.421930628594453
 20
15.44085909328318
 30
0.0
 10
8.567825423991394
 20
13.85230858365698
 30
0.0
 10
9.024724068570322
 20
8.81548511348825
 30
0.0
 10
9.474857429249141
 20
3.881680117188196
 30
0.0
 10
9.79613428006212
 20
0.347097341107613
 30
0.0
  0
SPLINE
  5
11E
330
1F
100
AcDbEntity
  8
Default
100
AcDbSpline
210
0.0
220
0.0
230
1.0
 70
    12
 71
     2
 72
     8
 73
     5
 74
     0
 42
0.0000000001
 43
0.0000000001
 40
0.0
 40
0.0
 40
0.0
 40
1.570796326794897
 40
1.570796326794897
 40
3.141592653589793
 40
3.141592653589793
 40
3.141592653589793
 10
9.79613428006212
 20
0.347097341107613
 30
0.0
 41
1.0
 10
9.805194374526081
 20
0.2404672636817918
 30
0.0
 41
0.7071067811865475
 10
10.11657800333251
 20
0.26692476197519
 30
0.0
 41
1.0
 10
10.42796163213896
 20
0.2933822602686084
 30
0.0
 41
0.7071067811865475
 10
10.41890153767497
 20
0.4000123376944344
 30
0.0
 41
1.0
  0
SPLINE
  5
11F
330
1F
100
AcDbEntity
  8
Default
100
AcDbSpline
210
0.0
220
0.0
230
1.0
 70
     8
 71
     3
 72
    12
 73
     8
 74
     0
 42
0.0000000001
 43
0.0000000001
 40
0.0
 40
0.0
 40
0.0
 40
0.0
 40
15.38685223518402
 40
15.5773112496696
 40
16.05478351798368
 40
16.57800700635227
 40
17.65225730794005
 40
17.65225730794005
 40
17.65225730794005
 40
17.65225730794005
 10
10.41890153767497
 20
0.4000123376944344
 30
0.0
 10
9.953422248432787
 20
5.508167409043537
 30
0.0
 10
9.483892215009007
 20
10.67847783403393
 30
0.0
 10
8.998319955574573
 20
16.0086060962565
 30
0.0
 10
8.858061395819675
 20
16.38751560434241
 30
0.0
 10
8.432816194788018
 20
16.93902365755557
 30
0.0
 10
7.9573560774366
 20
17.21881922107735
 30
0.0
 10
7.610020808215609
 20
17.30693282143953
 30
0.0
  0
SPLINE
  5
120
330
1F
100
AcDbEntity
  8
Default
100
AcDbSpline
210
0.0
220
0.0
230
1.0
 70
     8
 71
     3
 72
    20
 73
    16
 74
     0
 42
0.0000000001
 43
0.0000000001
 40
0.0
 40
0.0
 40
0.0
 40
0.0
 40
0.2091202110132331
 40
0.2091202110132331
 40
0.2091202110132331
 40
1.209120211013233
 40
2.209120211013233
 40
3.209120211013233
 40
4.209120211013233
 40
5.209120211013233
 40
6.209120211013233
 40
7.209120211013233
 40
7.209120211013233
 40
7.209120211013233
 40
7.422391775119937
 40
7.422391775119937
 40
7.422391775119937
 40
7.422391775119937
 10
9.798499989087702
 20
0.3274111340080736
 30
0.0
 10
9.807386377853618
 20
0.2582731467759913
 30
0.0
 10
9.81627276661959
 20
0.189135159543909
 30
0.0
 10
9.825159155385506
 20
0.1199971723118409
 30
0.0
 10
9.829433473380277
 20
0.085270320772878
 30
0.0
 10
9.89094373335331
 20
0.0478141732509414
 30
0.0
 10
9.988962768946635
 20
0.0553486610504734
 30
0.0
 10
10.08567030228284
 20
0.057580012326369
 30
0.0
 10
10.18254920442473
 20
0.065778185129048
 30
0.0
 10
10.27856819875166
 20
0.0791183342082036
 30
0.0
 10
10.37547488616735
 20
0.0889263365286297
 30
0.0
 10
10.43258341507959
 20
0.1330111353503725
 30
0.0
 10
10.43138377007858
 20
0.1682184314017974
 30
0.0
 10
10.42756847637338
 20
0.2392064991487501
 30
0.0
 10
10.42375318266829
 20
0.3101945668956887
 30
0.0
 10
10.41897958757511
 20
0.3988897044077788
 30
0.0
  0
SPLINE
  5
121
330
1F
100
AcDbEntity
  8
Default
100
AcDbSpline
210
0.0
220
0.0
230
1.0
 70
    12
 71
     2
 72
     6
 73
     3
 74
     0
 42
0.0000000001
 43
0.0000000001
 40
0.0
 40
0.0
 40
0.0
 40
0.0736943626177064
 40
0.0736943626177064
 40
0.0736943626177064
 10
-8.781919143620144
 20
0.0730599744244671
 30
0.0
 41
1.0
 10
-8.787886603603365
 20
0.0312923429479113
 30
0.0
 41
0.8203839743037172
 10
-8.829138614425403
 20
0.0224369930986228
 30
0.0
 41
1.0
  0
SPLINE
  5
122
330
1F
100
AcDbEntity
  8
Default
100
AcDbSpline
210
0.0
220
0.0
230
1.0
 70
    12
 71
     2
 72
     6
 73
     3
 74
     0
 42
0.0000000001
 43
0.0000000001
 40
0.0
 40
0.0
 40
0.0
 40
0.087805145337338
 40
0.087805145337338
 40
0.087805145337338
 10
-9.34198232153068
 20
0.0123988868920293
 30
0.0
 41
1.0
 10
-9.395017315255286
 20
0.0206038501108075
 30
0.0
 41
0.7481728658079281
 10
-9.393210194289736
 20
0.0742393448377356
 30
0.0
 41
1.0
  0
SPLINE
  5
123
330
1F
100
AcDbEntity
  8
Default
100
AcDbSpline
210
0.0
220
0.0
230
1.0
 70
    24
 71
     2
 72
     6
 73
     3
 74
     0
 42
0.0000000001
 43
0.0000000001
 40
0.0
 40
0.0
 40
0.0
 40
0.0342481899204006
 40
0.0342481899204006
 40
0.0342481899204006
 10
-2.164184542914768
 20
16.7672908664106
 30
0.0
 10
-2.165678291895972
 20
16.75023204634041
 30
0.0
 10
-2.167172040877176
 20
16.73317322627022
 30
0.0
  0
SPLINE
  5
124
330
1F
100
AcDbEntity
  8
Default
100
AcDbSpline
210
0.0
220
0.0
230
1.0
 70
    12
 71
     2
 72
     6
 73
     3
 74
     0
 42
0.0000000001
 43
0.0000000001
 40
0.0
 40
0.0
 40
0.0
 40
0.039938064346221
 40
0.039938064346221
 40
0.039938064346221
 10
-9.20303969772067
 20
0.3215951473465708
 30
0.0
 41
1.0
 10
-9.222994852826218
 20
0.3223490535418529
 30
0.0
 41
0.9999730226390744
 10
-9.242958929704344
 20
0.3228097315648171
 30
0.0
 41
1.0
  0
SPLINE
  5
125
330
1F
100
AcDbEntity
  8
Default
100
AcDbSpline
210
0.0
220
0.0
230
1.0
 70
    12
 71
     2
 72
     8
 73
     5
 74
     0
 42
0.0000000001
 43
0.0000000001
 40
0.0
 40
0.0
 40
0.0
 40
0.0566914603222361
 40
0.0566914603222361
 40
0.1716138446307484
 40
0.1716138446307484
 40
0.1716138446307484
 10
-9.015900444695717
 20
0.3097537283477436
 30
0.0
 41
1.0
 10
-9.044139961675842
 20
0.3122106469416067
 30
0.0
 41
0.9999754047794314
 10
-9.072411163040101
 20
0.3142712152294251
 30
0.0
 41
1.0
 10
-9.129722786549518
 20
0.3184735884984671
 30
0.0
 41
0.99988791196177
 10
-9.187134538235568
 20
0.320958120390145
 30
0.0
 41
1.0
  0
SPLINE
  5
126
330
1F
100
AcDbEntity
  8
Default
100
AcDbSpline
210
0.0
220
0.0
230
1.0
 70
    12
 71
     2
 72
     6
 73
     3
 74
     0
 42
0.0000000001
 43
0.0000000001
 40
0.0
 40
0.0
 40
0.0
 40
0.0100305442270566
 40
0.0100305442270566
 40
0.0100305442270566
 10
-8.811547979432476
 20
0.2844182606981889
 30
0.0
 41
1.0
 10
-8.816475135617546
 20
0.2853546156305362
 30
0.0
 41
0.9999798957634295
 10
-8.821413770162962
 20
0.2862284104911055
 30
0.0
 41
1.0
  0
SPLINE
  5
127
330
1F
100
AcDbEntity
  8
Default
100
AcDbSpline
210
0.0
220
0.0
230
1.0
 70
    12
 71
     2
 72
     6
 73
     3
 74
     0
 42
0.0000000001
 43
0.0000000001
 40
0.0
 40
0.0
 40
0.0
 40
0.0070224917865416
 40
0.0070224917865416
 40
0.0070224917865416
 10
-8.782630449595388
 20
0.2780261162579905
 30
0.0
 41
1.0
 10
-8.78602401226535
 20
0.2789283099677228
 30
0.0
 41
0.9999164634581956
 10
-8.78943976152732
 20
0.2797424832071869
 30
0.0
 41
1.0
  0
SPLINE
  5
128
330
1F
100
AcDbEntity
  8
Default
100
AcDbSpline
210
0.0
220
0.0
230
1.0
 70
    12
 71
     2
 72
     6
 73
     3
 74
     0
 42
0.0000000001
 43
0.0000000001
 40
0.0
 40
0.0
 40
0.0
 40
0.0946354481923141
 40
0.0946354481923141
 40
0.0946354481923141
 10
-2.984388997324402
 20
16.8619586374073
 30
0.0
 41
1.0
 10
-2.981556435036982
 20
16.81468224847108
 30
0.0
 41
0.9986245915477411
 10
-2.983690047683922
 20
16.76736916299747
 30
0.0
 41
1.0
  0
SPLINE
  5
129
330
1F
100
AcDbEntity
  8
Default
100
AcDbSpline
210
0.0
220
0.0
230
1.0
 70
    12
 71
     2
 72
     6
 73
     3
 74
     0
 42
0.0000000001
 43
0.0000000001
 40
1.227185181501445
 40
1.227185181501445
 40
1.227185181501445
 40
1.472621556370215
 40
1.472621556370215
 40
1.472621556370215
 10
-9.292793772856339
 20
0.3233373001006105
 30
0.0
 41
0.8535533905940124
 10
-9.384078658912143
 20
0.3229889685765686
 30
0.0
 41
0.8535537194775102
 10
-9.38407865891213
 20
0.3130820206691283
 30
0.0
 41
1.0
  0
SPLINE
  5
12A
330
1F
100
AcDbEntity
  8
Default
100
AcDbSpline
210
0.0
220
0.0
230
1.0
 70
    24
 71
     2
 72
     6
 73
     3
 74
     0
 42
0.0000000001
 43
0.0000000001
 40
0.0
 40
0.0
 40
0.0
 40
5.967385271620284
 40
5.967385271620284
 40
5.967385271620284
 10
2.983695223936365
 20
16.76736916299748
 30
0.0
 10
0.0000025881262218
 20
16.76736916299748
 30
0.0
 10
-2.983690047683922
 20
16.76736916299747
 30
0.0
  0
SPLINE
  5
12B
330
1F
100
AcDbEntity
  8
Default
100
AcDbSpline
210
0.0
220
0.0
230
1.0
 70
    12
 71
     2
 72
     6
 73
     3
 74
     0
 42
0.0000000001
 43
0.0000000001
 40
0.0
 40
0.0
 40
0.0
 40
0.1681425763085652
 40
0.1681425763085652
 40
0.1681425763085652
 10
-2.960789393614562
 20
17.02636664519
 30
0.0
 41
1.0
 10
-2.949756634691019
 20
16.94088518910322
 30
0.0
 41
0.9635236063237247
 10
-2.984388997324402
 20
16.8619586374073
 30
0.0
 41
1.0
  0
SPLINE
  5
12C
330
1F
100
AcDbEntity
  8
Default
100
AcDbSpline
210
0.0
220
0.0
230
1.0
 70
    12
 71
     2
 72
     8
 73
     5
 74
     0
 42
0.0000000001
 43
0.0000000001
 40
0.0
 40
0.0
 40
0.0
 40
0.0157281795497573
 40
0.0157281795497573
 40
0.0314563590995147
 40
0.0314563590995147
 40
0.0314563590995147
 10
-2.167172040877176
 20
16.73317322627024
 30
0.0
 41
1.0
 10
-2.167906322506317
 20
16.72490939965763
 30
0.0
 41
0.9236420745565544
 10
-2.174275543429644
 20
16.71959310163886
 30
0.0
 41
1.0
 10
-2.180644764352957
 20
16.71427680362011
 30
0.0
 41
0.9236420745565544
 10
-2.18890674440479
 20
16.7150315786978
 30
0.0
 41
1.0
  0
SPLINE
  5
12D
330
1F
100
AcDbEntity
  8
Default
100
AcDbSpline
210
0.0
220
0.0
230
1.0
 70
    12
 71
     2
 72
     6
 73
     3
 74
     0
 42
0.0000000001
 43
0.0000000001
 40
0.0
 40
0.0
 40
0.0
 40
0.0247437132115748
 40
0.0247437132115748
 40
0.0247437132115748
 10
-8.760750425821016
 20
0.2677833140579082
 30
0.0
 41
1.0
 10
-8.76965713144741
 20
0.2772481348649159
 30
0.0
 41
0.929428217816864
 10
-8.782630449561736
 20
0.2780261163095048
 30
0.0
 41
1.0
  0
SPLINE
  5
12E
330
1F
100
AcDbEntity
  8
Default
100
AcDbSpline
210
0.0
220
0.0
230
1.0
 70
    12
 71
     2
 72
     6
 73
     3
 74
     0
 42
0.0000000001
 43
0.0000000001
 40
0.0
 40
0.0
 40
0.0
 40
0.1740253277019014
 40
0.1740253277019014
 40
0.1740253277019014
 10
-2.360483644508975
 20
16.74216756118648
 30
0.0
 41
1.0
 10
-2.273273841322226
 20
16.73758658063533
 30
0.0
 41
0.9945576532693988
 10
-2.18890674440479
 20
16.7150315786978
 30
0.0
 41
1.0
  0
SPLINE
  5
12F
330
1F
100
AcDbEntity
  8
Default
100
AcDbSpline
210
0.0
220
0.0
230
1.0
 70
    12
 71
     2
 72
     6
 73
     3
 74
     0
 42
0.0000000001
 43
0.0000000001
 40
0.0
 40
0.0
 40
0.0
 40
0.0159179282250791
 40
0.0159179282250791
 40
0.0159179282250791
 10
-9.187134538171165
 20
0.3209581204283154
 30
0.0
 41
1.0
 10
-9.19508631602158
 20
0.3212966561762952
 30
0.0
 41
0.9999968305897696
 10
-9.203039697719475
 20
0.3215951473862333
 30
0.0
 41
1.0
  0
SPLINE
  5
130
330
1F
100
AcDbEntity
  8
Default
100
AcDbSpline
210
0.0
220
0.0
230
1.0
 70
    12
 71
     2
 72
     8
 73
     5
 74
     0
 42
0.0000000001
 43
0.0000000001
 40
0.0
 40
0.0
 40
0.0
 40
0.0865273959107956
 40
0.0865273959107956
 40
0.1959595050328624
 40
0.1959595050328624
 40
0.1959595050328624
 10
-8.8214137701587
 20
0.2862284105450925
 30
0.0
 41
1.0
 10
-8.86406666437261
 20
0.2935328301136123
 30
0.0
 41
0.999649003387531
 10
-8.907046578652114
 20
0.2985677976987233
 30
0.0
 41
1.0
 10
-8.961380763812672
 20
0.3050633185050568
 30
0.0
 41
0.9998625323368967
 10
-9.015900443958913
 20
0.3097537283329928
 30
0.0
 41
1.0
  0
SPLINE
  5
131
330
1F
100
AcDbEntity
  8
Default
100
AcDbSpline
210
0.0
220
0.0
230
1.0
 70
    12
 71
     2
 72
     6
 73
     3
 74
     0
 42
0.0000000001
 43
0.0000000001
 40
0.0
 40
0.0
 40
0.0
 40
0.022599255445238
 40
0.022599255445238
 40
0.022599255445238
 10
-8.789439761760036
 20
0.2797424833213285
 30
0.0
 41
1.0
 10
-8.800440043849775
 20
0.2823348758861541
 30
0.0
 41
0.9997350652396294
 10
-8.811547978556575
 20
0.2844182605869179
 30
0.0
 41
1.0
  0
SPLINE
  5
132
330
1F
100
AcDbEntity
  8
Default
100
AcDbSpline
210
0.0
220
0.0
230
1.0
 70
    12
 71
     2
 72
     6
 73
     3
 74
     0
 42
0.0000000001
 43
0.0000000001
 40
0.0
 40
0.0
 40
0.0
 40
0.2452582194759985
 40
0.2452582194759985
 40
0.2452582194759985
 10
-2.604442232693032
 20
16.76736916299815
 30
0.0
 41
1.0
 10
-2.482536361422563
 20
16.75405760854483
 30
0.0
 41
0.999983024413568
 10
-2.360483644508975
 20
16.74216756118648
 30
0.0
 41
1.0
  0
SPLINE
  5
133
330
1F
100
AcDbEntity
  8
Default
100
AcDbSpline
210
0.0
220
0.0
230
1.0
 70
    12
 71
     2
 72
     6
 73
     3
 74
     0
 42
0.0000000001
 43
0.0000000001
 40
0.0
 40
0.0
 40
0.0
 40
0.049839079307476
 40
0.049839079307476
 40
0.049839079307476
 10
-9.242958931205976
 20
0.3228097316351892
 30
0.0
 41
1.0
 10
-9.267872872392262
 20
0.3234022073947131
 30
0.0
 41
0.9999130070347984
 10
-9.292793772857578
 20
0.3233373001308166
 30
0.0
 41
1.0
  0
SPLINE
  5
134
330
1F
100
AcDbEntity
  8
Default
100
AcDbSpline
210
0.0
220
0.0
230
1.0
 70
     8
 71
     3
 72
    10
 73
     6
 74
     0
 42
0.0000000001
 43
0.0000000001
 40
0.0
 40
0.0
 40
0.0
 40
0.0
 40
0.2154121773343171
 40
0.6159780757571736
 40
2.087205975174507
 40
2.087205975174507
 40
2.087205975174507
 40
2.087205975174507
 10
-3.407355393374075
 20
16.7134968730355
 30
0.0
 10
-3.476783027736531
 20
16.73183731874505
 30
0.0
 10
-3.678953821708149
 20
16.768519149772
 30
0.0
 10
-4.367477917183635
 20
16.86823730322686
 30
0.0
 10
-4.987596226311098
 20
16.93852719028213
 30
0.0
 10
-5.473810365170664
 20
17.00228791294387
 30
0.0
  0
SPLINE
  5
135
330
1F
100
AcDbEntity
  8
Default
100
AcDbSpline
210
0.0
220
0.0
230
1.0
 70
    12
 71
     2
 72
     6
 73
     3
 74
     0
 42
0.0000000001
 43
0.0000000001
 40
0.0
 40
0.0
 40
0.0
 40
0.2592885224651192
 40
0.2592885224651192
 40
0.2592885224651192
 10
-3.582172318323103
 20
16.49091598480422
 30
0.0
 41
1.0
 10
-3.583007156827009
 20
16.62055878234272
 30
0.0
 41
0.9999858353406036
 10
-3.582461917272838
 20
16.75020312129652
 30
0.0
 41
1.0
  0
SPLINE
  5
136
330
1F
100
AcDbEntity
  8
Default
100
AcDbSpline
210
0.0
220
0.0
230
1.0
 70
    24
 71
     2
 72
     6
 73
     3
 74
     0
 42
0.0000000001
 43
0.0000000001
 40
0.0
 40
0.0
 40
0.0
 40
0.1935072007122365
 40
0.1935072007122365
 40
0.1935072007122365
 10
-8.76075433177624
 20
0.2674282262325676
 30
0.0
 10
-8.77120576615988
 20
0.1712407701834735
 30
0.0
 10
-8.78165720054352
 20
0.0750533141343794
 30
0.0
  0
SPLINE
  5
137
330
1F
100
AcDbEntity
  8
Default
100
AcDbSpline
210
0.0
220
0.0
230
1.0
 70
    24
 71
     2
 72
     6
 73
     3
 74
     0
 42
0.0000000001
 43
0.0000000001
 40
0.0
 40
0.0
 40
0.0
 40
0.2378022079818448
 40
0.2378022079818448
 40
0.2378022079818448
 10
-9.393183451421976
 20
0.0749799155485817
 30
0.0
 10
-9.38864077606948
 20
0.1937942102731682
 30
0.0
 10
-9.384098100716983
 20
0.3126085049977547
 30
0.0
  0
SPLINE
  5
138
330
1F
100
AcDbEntity
  8
Default
100
AcDbSpline
210
0.0
220
0.0
230
1.0
 70
     8
 71
     3
 72
    29
 73
    25
 74
     0
 42
0.0000000001
 43
0.0000000001
 40
0.0
 40
0.0
 40
0.0
 40
0.0
 40
3.243407217459806
 40
5.118197211247749
 40
6.507318701637272
 40
7.69513005922787
 40
8.780531544773076
 40
9.75734007689415
 40
10.67352014332027
 40
11.14010761180223
 40
11.69495119255392
 40
12.45474041767561
 40
13.34263776818266
 40
15.44456690867611
 40
16.06934339556236
 40
16.46875486556651
 40
17.25353970545244
 40
18.14697933876838
 40
18.78786228992825
 40
19.55263685853744
 40
20.39522456596171
 40
21.6822567557032
 40
23.69090363800757
 40
25.42174980803049
 40
25.42174980803049
 40
25.42174980803049
 40
25.42174980803049
 10
-0.0000032142548321
 20
21.48580515783341
 30
0.0
 10
-1.081204170307444
 20
21.48921485609623
 30
0.0
 10
-2.786954838131976
 20
21.51721712887252
 30
0.0
 10
-4.954944528132103
 20
21.60019767484222
 30
0.0
 10
-6.430013275497913
 20
21.78181361425013
 30
0.0
 10
-7.612551057046971
 20
22.10077281598095
 30
0.0
 10
-8.593092533928484
 20
22.57910670835221
 30
0.0
 10
-9.31797548403307
 20
23.2806598015549
 30
0.0
 10
-9.671634118369752
 20
23.99527056841539
 30
0.0
 10
-9.788944498625881
 20
24.63429804282728
 30
0.0
 10
-9.819142811234997
 20
25.22706163323133
 30
0.0
 10
-9.76624686744401
 20
25.96128482169186
 30
0.0
 10
-9.560166810436215
 20
27.19441938747778
 30
0.0
 10
-9.242077025148035
 20
28.35971578915273
 30
0.0
 10
-8.893983769852127
 20
29.3413962964714
 30
0.0
 10
-8.61591114295777
 20
29.88127651139608
 30
0.0
 10
-8.089972864753008
 20
30.35698561943521
 30
0.0
 10
-7.340888213818687
 20
30.59920690658761
 30
0.0
 10
-6.58978305826048
 20
30.72063061540089
 30
0.0
 10
-5.840162106892933
 20
30.79866766990776
 30
0.0
 10
-4.878815326843096
 20
30.84766912811904
 30
0.0
 10
-3.498532030700687
 20
30.88211865084641
 30
0.0
 10
-1.823626211847852
 20
30.90985238776712
 30
0.0
 10
-0.5771764927308709
 20
30.92216294342009
 30
0.0
 10
0.000002588263726
 20
30.92234814010979
 30
0.0
  0
SPLINE
  5
139
330
1F
100
AcDbEntity
  8
Default
100
AcDbSpline
210
0.0
220
0.0
230
1.0
 70
     8
 71
     3
 72
    29
 73
    25
 74
     0
 42
0.0000000001
 43
0.0000000001
 40
0.0
 40
0.0
 40
0.0
 40
0.0
 40
1.699002760080146
 40
3.731409764514746
 40
5.034491429756217
 40
5.868732765944054
 40
6.639332339352444
 40
7.2771499766887
 40
8.170248888933239
 40
8.95429489275575
 40
9.352140973905975
 40
9.981473091416936
 40
12.08255675978825
 40
12.96917767822325
 40
13.72867034396084
 40
14.28566882196947
 40
14.75082483800845
 40
15.66577824005178
 40
16.63616184534804
 40
17.72828237961166
 40
18.91447630882802
 40
20.30385246612147
 40
22.17465510019322
 40
25.4217628104246
 40
25.4217628104246
 40
25.4217628104246
 40
25.4217628104246
 10
0.000002588263726
 20
30.92234814010979
 30
0.0
 10
0.5665658942703544
 20
30.92218430724638
 30
0.0
 10
1.810325481093741
 20
30.91008803608294
 30
0.0
 10
3.488259744956849
 20
30.88244898873829
 30
0.0
 10
4.877776260613871
 20
30.84755284624116
 30
0.0
 10
5.846010003020695
 20
30.79867026323879
 30
0.0
 10
6.589646033357894
 20
30.71927111781946
 30
0.0
 10
7.34728509524308
 20
30.60062250069524
 30
0.0
 10
8.08808052417595
 20
30.35309253976826
 30
0.0
 10
8.620302794402619
 20
29.88370205448057
 30
0.0
 10
8.891500292571266
 20
29.33720076020478
 30
0.0
 10
9.248737860367669
 20
28.36096686549149
 30
0.0
 10
9.555323091648233
 20
27.18837956053653
 30
0.0
 10
9.769299843553938
 20
25.95991559786381
 30
0.0
 10
9.817889378385757
 20
25.22414074505078
 30
0.0
 10
9.788768096911895
 20
24.63109556147657
 30
0.0
 10
9.670919756120668
 20
23.99331983771413
 30
0.0
 10
9.317487249295311
 20
23.2800479394233
 30
0.0
 10
8.593908843076008
 20
22.58138397788676
 30
0.0
 10
7.613635833254705
 20
22.09917965072387
 30
0.0
 10
6.429282916254863
 20
21.78317484369192
 30
0.0
 10
4.956170243900829
 20
21.59956890447596
 30
0.0
 10
2.788088806986764
 20
21.51719094250814
 30
0.0
 10
1.082430158055615
 20
21.48924123071325
 30
0.0
 10
-0.0000032142548321
 20
21.48580515783341
 30
0.0
  0
SPLINE
  5
13A
330
1F
100
AcDbEntity
  8
Default
100
AcDbSpline
210
0.0
220
0.0
230
1.0
 70
     8
 71
     3
 72
     8
 73
     4
 74
     0
 42
0.0000000001
 43
0.0000000001
 40
0.0
 40
0.0
 40
0.0
 40
0.0
 40
1.0
 40
1.0
 40
1.0
 40
1.0
 10
-9.34198232153068
 20
0.0123988868920293
 30
0.0
 10
-9.236129328322193
 20
-0.0039774686965472
 30
0.0
 10
-8.968107803685768
 20
-0.0073947839383948
 30
0.0
 10
-8.829138614425403
 20
0.0224369930986228
 30
0.0
  0
SPLINE
  5
13B
330
1F
100
AcDbEntity
  8
Default
100
AcDbSpline
210
0.0
220
0.0
230
1.0
 70
     8
 71
     3
 72
    10
 73
     6
 74
     0
 42
0.0000000001
 43
0.0000000001
 40
0.0
 40
0.0
 40
0.0
 40
0.0
 40
0.9206461800289194
 40
1.02420694366023
 40
1.126694174608516
 40
1.126694174608516
 40
1.126694174608516
 40
1.126694174608516
 10
-3.808018359705386
 20
16.12978274261414
 30
0.0
 10
-6.487709691716987
 20
16.61038217294598
 30
0.0
 10
-6.822493171112058
 20
16.67820448429754
 30
0.0
 10
-7.193356968160515
 20
16.73723142374637
 30
0.0
 10
-7.263034819888219
 20
16.72943219056963
 30
0.0
 10
-7.296743070931484
 20
16.72805619448974
 30
0.0
  0
LINE
  5
13C
330
1F
100
AcDbEntity
  8
Default
100
AcDbLine
 10
-2.206600949690596
 20
16.71955493073132
 30
0.0
 11
-2.233904749442615
 21
16.54650430161482
 31
0.0
  0
LINE
  5
13D
330
1F
100
AcDbEntity
  8
Default
100
AcDbLine
 10
-2.233904749442615
 20
16.54650430161482
 30
0.0
 11
-2.828950139190795
 21
15.89757995546047
 31
0.0
  0
SPLINE
  5
13E
330
1F
100
AcDbEntity
  8
Default
100
AcDbSpline
210
0.0
220
0.0
230
1.0
 70
    12
 71
     2
 72
     6
 73
     3
 74
     0
 42
0.0000000001
 43
0.0000000001
 40
-0.5902413260903482
 40
-0.5902413260903482
 40
-0.5902413260903482
 40
0.0
 40
0.0
 40
0.0
 10
-2.828950139190795
 20
15.89757995546047
 30
0.0
 41
1.0
 10
-3.046476518355386
 20
15.66420633374904
 30
0.0
 41
0.8912785162673854
 10
-3.363184843778129
 20
15.70263561361682
 30
0.0
 41
1.0
  0
SPLINE
  5
13F
330
1F
100
AcDbEntity
  8
Default
100
AcDbSpline
210
0.0
220
0.0
230
1.0
 70
    12
 71
     2
 72
     6
 73
     3
 74
     0
 42
0.0000000001
 43
0.0000000001
 40
0.0
 40
0.0
 40
0.0
 40
0.1768562855986097
 40
0.1768562855986097
 40
0.1768562855986097
 10
-3.363184843778129
 20
15.70263561361682
 30
0.0
 41
1.0
 10
-3.451182036114177
 20
15.71324628706182
 30
0.0
 41
0.9965097053014877
 10
-3.536187516859002
 20
15.73834928475809
 30
0.0
 41
1.0
  0
SPLINE
  5
140
330
1F
100
AcDbEntity
  8
Default
100
AcDbSpline
210
0.0
220
0.0
230
1.0
 70
    12
 71
     2
 72
     6
 73
     3
 74
     0
 42
0.0000000001
 43
0.0000000001
 40
-0.4516084190997445
 40
-0.4516084190997445
 40
-0.4516084190997445
 40
0.0
 40
0.0
 40
0.0
 10
-3.536187516859002
 20
15.73834928475809
 30
0.0
 41
1.0
 10
-3.783847146453634
 20
15.8109155950368
 30
0.0
 41
0.8225814638961753
 10
-3.803453423214819
 20
16.06824176049612
 30
0.0
 41
1.0
  0
SPLINE
  5
141
330
1F
100
AcDbEntity
  8
Default
100
AcDbSpline
210
0.0
220
0.0
230
1.0
 70
    24
 71
     2
 72
     6
 73
     3
 74
     0
 42
0.0000000001
 43
0.0000000001
 40
-0.7276951967855994
 40
-0.7276951967855994
 40
-0.7276951967855994
 40
0.0
 40
0.0
 40
0.0
 10
-3.803453423214819
 20
16.06824176049612
 30
0.0
 10
-3.830368666233085
 20
16.43109247986909
 30
0.0
 10
-3.85728390925135
 20
16.79394319924205
 30
0.0
  0
SPLINE
  5
142
330
1F
100
AcDbEntity
  8
Default
100
AcDbSpline
210
0.0
220
0.0
230
1.0
 70
    12
 71
     2
 72
    12
 73
     9
 74
     0
 42
0.0000000001
 43
0.0000000001
 40
-0.8832392966188353
 40
-0.8832392966188353
 40
-0.8832392966188353
 40
-0.7574486392288217
 40
-0.7574486392288217
 40
-0.5049657594858811
 40
-0.5049657594858811
 40
-0.2524828797429405
 40
-0.2524828797429405
 40
-0.0219017892552614
 40
-0.0219017892552614
 40
-0.0219017892552614
 10
-3.58220021896629
 20
16.49090927561329
 30
0.0
 41
0.9618248396211013
 10
-3.567304710781018
 20
16.4289652551746
 30
0.0
 41
0.9619606703233023
 10
-3.529880373735523
 20
16.37740599966297
 30
0.0
 41
1.0
 10
-3.451647703419972
 20
16.26962537997533
 30
0.0
 41
0.9236487057183772
 10
-3.320091353439693
 20
16.2488903983056
 30
0.0
 41
1.0
 10
-3.188535003459465
 20
16.22815541663589
 30
0.0
 41
0.9236487057183772
 10
-3.080943312984061
 20
16.30664771451032
 30
0.0
 41
1.0
 10
-2.983384292189287
 20
16.37782079197316
 30
0.0
 41
0.9302718476851716
 10
-2.956933532711591
 20
16.49565001931962
 30
0.0
 41
0.9879027734576459
  0
ARC
  5
143
330
1F
100
AcDbEntity
  8
Default
100
AcDbCircle
 10
16.35461663910434
 20
16.66732868371354
 30
0.0
 40
19.31231326388356
100
AcDbArc
 50
179.7031985345191
 51
180.5093430458951
  0
SPLINE
  5
144
330
1F
100
AcDbEntity
  8
Default
100
AcDbSpline
210
0.0
220
0.0
230
1.0
 70
     8
 71
     3
 72
    15
 73
    11
 74
     0
 42
0.0000000001
 43
0.0000000001
 40
0.0
 40
0.0
 40
0.0
 40
0.0
 40
0.1481008985844257
 40
0.2835795947505744
 40
0.4095167464139915
 40
0.5399102056356212
 40
0.8000329001182528
 40
1.110289658690893
 40
5.325350683045592
 40
15.97290079287495
 40
15.97290079287495
 40
15.97290079287495
 40
15.97290079287495
 10
-8.198191791395743
 20
16.20970278041374
 30
0.0
 10
-8.228049366005337
 20
16.17057459538032
 30
0.0
 10
-8.282014876132223
 20
16.0920971624997
 30
0.0
 10
-8.341323405271112
 20
15.96950109260902
 30
0.0
 10
-8.383834268244414
 20
15.84494378122332
 30
0.0
 10
-8.402483833967608
 20
15.67352261789399
 30
0.0
 10
-8.421925452067
 20
15.44085909328318
 30
0.0
 10
-8.567820247463942
 20
13.85230858365698
 30
0.0
 10
-9.02471889204287
 20
8.81548511348825
 30
0.0
 10
-9.47485225272169
 20
3.881680117188196
 30
0.0
 10
-9.796129103534668
 20
0.347097341107613
 30
0.0
  0
SPLINE
  5
145
330
1F
100
AcDbEntity
  8
Default
100
AcDbSpline
210
0.0
220
0.0
230
1.0
 70
    12
 71
     2
 72
     8
 73
     5
 74
     0
 42
0.0000000001
 43
0.0000000001
 40
0.0
 40
0.0
 40
0.0
 40
1.570796326794897
 40
1.570796326794897
 40
3.141592653589793
 40
3.141592653589793
 40
3.141592653589793
 10
-9.796129103534668
 20
0.347097341107613
 30
0.0
 41
1.0
 10
-9.805189197998615
 20
0.2404672636817918
 30
0.0
 41
0.7071067811865475
 10
-10.11657282680505
 20
0.26692476197519
 30
0.0
 41
1.0
 10
-10.42795645561149
 20
0.2933822602686084
 30
0.0
 41
0.7071067811865475
 10
-10.41889636114752
 20
0.4000123376944344
 30
0.0
 41
1.0
  0
SPLINE
  5
146
330
1F
100
AcDbEntity
  8
Default
100
AcDbSpline
210
0.0
220
0.0
230
1.0
 70
     8
 71
     3
 72
    12
 73
     8
 74
     0
 42
0.0000000001
 43
0.0000000001
 40
0.0
 40
0.0
 40
0.0
 40
0.0
 40
15.38685223518402
 40
15.5773112496696
 40
16.05478351798368
 40
16.57800700635227
 40
17.65225730794005
 40
17.65225730794005
 40
17.65225730794005
 40
17.65225730794005
 10
-10.41889636114752
 20
0.4000123376944344
 30
0.0
 10
-9.953417071905335
 20
5.508167409043537
 30
0.0
 10
-9.483887038481555
 20
10.67847783403393
 30
0.0
 10
-8.99831477904712
 20
16.0086060962565
 30
0.0
 10
-8.858056219292223
 20
16.38751560434241
 30
0.0
 10
-8.432811018260566
 20
16.93902365755557
 30
0.0
 10
-7.957350900909148
 20
17.21881922107735
 30
0.0
 10
-7.610015631688157
 20
17.30693282143953
 30
0.0
  0
SPLINE
  5
147
330
1F
100
AcDbEntity
  8
Default
100
AcDbSpline
210
0.0
220
0.0
230
1.0
 70
     8
 71
     3
 72
    20
 73
    16
 74
     0
 42
0.0000000001
 43
0.0000000001
 40
0.0
 40
0.0
 40
0.0
 40
0.0
 40
0.2091202110132331
 40
0.2091202110132331
 40
0.2091202110132331
 40
1.209120211013233
 40
2.209120211013233
 40
3.209120211013233
 40
4.209120211013233
 40
5.209120211013233
 40
6.209120211013233
 40
7.209120211013233
 40
7.209120211013233
 40
7.209120211013233
 40
7.422391775119937
 40
7.422391775119937
 40
7.422391775119937
 40
7.422391775119937
 10
-9.79849481256025
 20
0.3274111340080736
 30
0.0
 10
-9.807381201326166
 20
0.2582731467759913
 30
0.0
 10
-9.816267590092139
 20
0.189135159543909
 30
0.0
 10
-9.825153978858054
 20
0.1199971723118409
 30
0.0
 10
-9.829428296852825
 20
0.085270320772878
 30
0.0
 10
-9.890938556825859
 20
0.0478141732509414
 30
0.0
 10
-9.988957592419183
 20
0.0553486610504734
 30
0.0
 10
-10.08566512575538
 20
0.057580012326369
 30
0.0
 10
-10.18254402789728
 20
0.065778185129048
 30
0.0
 10
-10.2785630222242
 20
0.0791183342082036
 30
0.0
 10
-10.3754697096399
 20
0.0889263365286297
 30
0.0
 10
-10.43257823855214
 20
0.1330111353503725
 30
0.0
 10
-10.43137859355113
 20
0.1682184314017974
 30
0.0
 10
-10.42756329984593
 20
0.2392064991487501
 30
0.0
 10
-10.42374800614084
 20
0.3101945668956887
 30
0.0
 10
-10.41897441104766
 20
0.3988897044077788
 30
0.0
  0
ENDSEC
  0
SECTION
  2
OBJECTS
  0
DICTIONARY
  5
C
330
0
100
AcDbDictionary
281
     1
  3
ACAD_GROUP
350
D
  3
ACAD_LAYOUT
350
1A
  3
ACAD_MLEADERSTYLE
350
149
  3
ACAD_MLINESTYLE
350
17
  3
ACAD_PLOTSETTINGS
350
19
  3
ACAD_PLOTSTYLENAME
350
E
  3
ACAD_TABLESTYLE
350
148
  3
ACAD_VISUALSTYLE
350
2A
  0
DICTIONARY
  5
D
102
{ACAD_REACTORS
330
C
102
}
330
C
100
AcDbDictionary
281
     1
  0
DICTIONARY
  5
1A
102
{ACAD_REACTORS
330
C
102
}
330
C
100
AcDbDictionary
281
     1
  3
Layout1
350
1E
  3
Layout2
350
26
  3
Model
350
22
  0
DICTIONARY
  5
149
102
{ACAD_REACTORS
330
C
102
}
330
C
100
AcDbDictionary
281
     1
  0
DICTIONARY
  5
17
102
{ACAD_REACTORS
330
C
102
}
330
C
100
AcDbDictionary
281
     1
  3
Standard
350
18
  0
DICTIONARY
  5
19
102
{ACAD_REACTORS
330
C
102
}
330
C
100
AcDbDictionary
281
     1
  0
ACDBDICTIONARYWDFLT
  5
E
102
{ACAD_REACTORS
330
C
102
}
330
C
100
AcDbDictionary
281
     1
  3
Normal
350
F
100
AcDbDictionaryWithDefault
340
F
  0
DICTIONARY
  5
148
102
{ACAD_REACTORS
330
C
102
}
330
C
100
AcDbDictionary
281
     1
  0
DICTIONARY
  5
2A
102
{ACAD_REACTORS
330
C
102
}
330
C
100
AcDbDictionary
281
     1
  3
2dWireframe
350
2F
  3
3D Hidden
350
31
  3
3dWireframe
350
30
  3
Basic
350
32
  3
Brighten
350
36
  3
ColorChange
350
3A
  3
Conceptual
350
34
  3
Dim
350
35
  3
Facepattern
350
39
  3
Flat
350
2B
  3
FlatWithEdges
350
2C
  3
Gouraud
350
2D
  3
GouraudWithEdges
350
2E
  3
Linepattern
350
38
  3
Realistic
350
33
  3
Thicken
350
37
  0
LAYOUT
  5
1E
102
{ACAD_REACTORS
330
1A
102
}
330
1A
100
AcDbPlotSettings
  1

  2
none_device
  4

  6

 40
0.0
 41
0.0
 42
0.0
 43
0.0
 44
0.0
 45
0.0
 46
0.0
 47
0.0
 48
0.0
 49
0.0
140
0.0
141
0.0
142
1.0
143
1.0
 70
   688
 72
     0
 73
     0
 74
     5
  7

 75
    16
 76
     0
 77
     2
 78
   300
147
1.0
148
0.0
149
0.0
100
AcDbLayout
  1
Layout1
 70
     1
 71
     1
 10
0.0
 20
0.0
 11
12.0
 21
9.0
 12
0.0
 22
0.0
 32
0.0
 14
1.000000000000000E+20
 24
1.000000000000000E+20
 34
1.000000000000000E+20
 15
-1.000000000000000E+20
 25
-1.000000000000000E+20
 35
-1.000000000000000E+20
146
0.0
 13
0.0
 23
0.0
 33
0.0
 16
1.0
 26
0.0
 36
0.0
 17
0.0
 27
1.0
 37
0.0
 76
     0
330
1B
  0
LAYOUT
  5
26
102
{ACAD_REACTORS
330
1A
102
}
330
1A
100
AcDbPlotSettings
  1

  2
none_device
  4

  6

 40
0.0
 41
0.0
 42
0.0
 43
0.0
 44
0.0
 45
0.0
 46
0.0
 47
0.0
 48
0.0
 49
0.0
140
0.0
141
0.0
142
1.0
143
1.0
 70
   688
 72
     0
 73
     0
 74
     5
  7

 75
    16
 76
     0
 77
     2
 78
   300
147
1.0
148
0.0
149
0.0
100
AcDbLayout
  1
Layout2
 70
     1
 71
     2
 10
0.0
 20
0.0
 11
0.0
 21
0.0
 12
0.0
 22
0.0
 32
0.0
 14
0.0
 24
0.0
 34
0.0
 15
0.0
 25
0.0
 35
0.0
146
0.0
 13
0.0
 23
0.0
 33
0.0
 16
1.0
 26
0.0
 36
0.0
 17
0.0
 27
1.0
 37
0.0
 76
     0
330
23
  0
LAYOUT
  5
22
102
{ACAD_REACTORS
330
1A
102
}
330
1A
100
AcDbPlotSettings
  1

  2
none_device
  4

  6

 40
0.0
 41
0.0
 42
0.0
 43
0.0
 44
0.0
 45
0.0
 46
0.0
 47
0.0
 48
0.0
 49
0.0
140
0.0
141
0.0
142
1.0
143
1.0
 70
  1712
 72
     0
 73
     0
 74
     0
  7

 75
     0
 76
     0
 77
     2
 78
   300
147
1.0
148
0.0
149
0.0
100
AcDbLayout
  1
Model
 70
     1
 71
     0
 10
0.0
 20
0.0
 11
12.0
 21
9.0
 12
0.0
 22
0.0
 32
0.0
 14
-10.43137859355113
 24
-0.0021576644025792
 34
0.0
 15
41.97844767930515
 25
61.51311016827538
 35
0.0
146
0.0
 13
0.0
 23
0.0
 33
0.0
 16
1.0
 26
0.0
 36
0.0
 17
0.0
 27
1.0
 37
0.0
 76
     0
330
1F
331
29
  0
MLINESTYLE
  5
18
102
{ACAD_REACTORS
330
17
102
}
330
17
100
AcDbMlineStyle
  2
Standard
 70
     0
  3

 62
   256
 51
90.0
 52
90.0
 71
     2
 49
0.5
 62
   256
  6
BYLAYER
 49
-0.5
 62
   256
  6
BYLAYER
  0
ACDBPLACEHOLDER
  5
F
102
{ACAD_REACTORS
330
E
102
}
330
E
  0
VISUALSTYLE
  5
2F
102
{ACAD_REACTORS
330
2A
102
}
330
2A
100
AcDbVisualStyle
  2
2dWireframe
 70
     4
 71
     0
 72
     2
 73
     0
 90
        0
 40
-0.6
 41
-30.0
 62
     5
 63
     7
421
 16777215
 74
     1
 91
        4
 64
     7
 65
   257
 75
     1
175
     1
 42
1.0
 92
        0
 66
   257
 43
1.0
 76
     1
 77
     6
 78
     2
 67
     7
 79
     5
170
     0
171
     0
290
     0
174
     0
 93
        1
 44
0.0
173
     0
291
     0
 45
0.0
1001
ACAD
1000
AcDbSavedByObjectVersion
1070
     0
  0
VISUALSTYLE
  5
31
102
{ACAD_REACTORS
330
2A
102
}
330
2A
100
AcDbVisualStyle
  2
3D Hidden
 70
     6
 71
     1
 72
     2
 73
     2
 90
        0
 40
-0.6
 41
-30.0
 62
     5
 63
     7
421
 16777215
 74
     2
 91
        2
 64
     7
 65
   257
 75
     2
175
     1
 42
40.0
 92
        0
 66
   257
 43
1.0
 76
     1
 77
     6
 78
     2
 67
     7
 79
     3
170
     0
171
     0
290
     0
174
     0
 93
        1
 44
0.0
173
     0
291
     0
 45
0.0
1001
ACAD
1000
AcDbSavedByObjectVersion
1070
     0
  0
VISUALSTYLE
  5
30
102
{ACAD_REACTORS
330
2A
102
}
330
2A
100
AcDbVisualStyle
  2
3dWireframe
 70
     5
 71
     0
 72
     2
 73
     0
 90
        0
 40
-0.6
 41
-30.0
 62
     5
 63
     7
421
 16777215
 74
     1
 91
        4
 64
     7
 65
   257
 75
     1
175
     1
 42
1.0
 92
        0
 66
   257
 43
1.0
 76
     1
 77
     6
 78
     2
 67
     7
 79
     5
170
     0
171
     0
290
     0
174
     0
 93
        1
 44
0.0
173
     0
291
     0
 45
0.0
1001
ACAD
1000
AcDbSavedByObjectVersion
1070
     0
  0
VISUALSTYLE
  5
32
102
{ACAD_REACTORS
330
2A
102
}
330
2A
100
AcDbVisualStyle
  2
Basic
 70
     7
 71
     1
 72
     0
 73
     1
 90
        0
 40
-0.6
 41
-30.0
 62
     5
 63
     7
421
 16777215
 74
     0
 91
        4
 64
     7
 65
   257
 75
     1
175
     1
 42
1.0
 92
        8
 66
     7
 43
1.0
 76
     1
 77
     6
 78
     2
 67
     7
 79
     5
170
     0
171
     0
290
     0
174
     0
 93
        1
 44
0.0
173
     0
291
     1
 45
0.0
1001
ACAD
1000
AcDbSavedByObjectVersion
1070
     0
  0
VISUALSTYLE
  5
36
102
{ACAD_REACTORS
330
2A
102
}
330
2A
100
AcDbVisualStyle
  2
Brighten
 70
    12
 71
     2
 72
     2
 73
     0
 90
        0
 40
-0.6
 41
-30.0
 62
     5
 63
     7
421
 16777215
 74
     1
 91
        4
 64
     7
 65
   257
 75
     1
175
     1
 42
1.0
 92
        8
 66
     7
 43
1.0
 76
     1
 77
     6
 78
     2
 67
     7
 79
     5
170
     0
171
     0
290
     0
174
     0
 93
        1
 44
50.0
173
     0
291
     1
 45
0.0
1001
ACAD
1000
AcDbSavedByObjectVersion
1070
     0
  0
VISUALSTYLE
  5
3A
102
{ACAD_REACTORS
330
2A
102
}
330
2A
100
AcDbVisualStyle
  2
ColorChange
 70
    16
 71
     2
 72
     2
 73
     3
 90
        0
 40
-0.6
 41
-30.0
 62
     5
 63
     8
421
  8421504
 74
     1
 91
        4
 64
     7
 65
   257
 75
     1
175
     1
 42
1.0
 92
        8
 66
     8
424
  8421504
 43
1.0
 76
     1
 77
     6
 78
     2
 67
     7
 79
     5
170
     0
171
     0
290
     0
174
     0
 93
        1
 44
0.0
173
     0
291
     1
 45
0.0
1001
ACAD
1000
AcDbSavedByObjectVersion
1070
     0
  0
VISUALSTYLE
  5
34
102
{ACAD_REACTORS
330
2A
102
}
330
2A
100
AcDbVisualStyle
  2
Conceptual
 70
     9
 71
     3
 72
     2
 73
     0
 90
        0
 40
-0.6
 41
-30.0
 62
     5
 63
     7
421
 16777215
 74
     2
 91
        2
 64
     7
 65
   257
 75
     1
175
     1
 42
40.0
 92
        8
 66
     7
 43
1.0
 76
     1
 77
     6
 78
     2
 67
     7
 79
     3
170
     0
171
     0
290
     0
174
     0
 93
        1
 44
0.0
173
     0
291
     0
 45
0.0
1001
ACAD
1000
AcDbSavedByObjectVersion
1070
     0
  0
VISUALSTYLE
  5
35
102
{ACAD_REACTORS
330
2A
102
}
330
2A
100
AcDbVisualStyle
  2
Dim
 70
    11
 71
     2
 72
     2
 73
     0
 90
        0
 40
-0.6
 41
-30.0
 62
     5
 63
     7
421
 16777215
 74
     1
 91
        4
 64
     7
 65
   257
 75
     1
175
     1
 42
1.0
 92
        8
 66
     7
 43
1.0
 76
     1
 77
     6
 78
     2
 67
     7
 79
     5
170
     0
171
     0
290
     0
174
     0
 93
        1
 44
-50.0
173
     0
291
     1
 45
0.0
1001
ACAD
1000
AcDbSavedByObjectVersion
1070
     0
  0
VISUALSTYLE
  5
39
102
{ACAD_REACTORS
330
2A
102
}
330
2A
100
AcDbVisualStyle
  2
Facepattern
 70
    15
 71
     2
 72
     2
 73
     0
 90
        0
 40
-0.6
 41
-30.0
 62
     5
 63
     7
421
 16777215
 74
     1
 91
        4
 64
     7
 65
   257
 75
     1
175
     1
 42
1.0
 92
        8
 66
     7
 43
1.0
 76
     1
 77
     6
 78
     2
 67
     7
 79
     5
170
     0
171
     0
290
     0
174
     0
 93
        1
 44
0.0
173
     0
291
     1
 45
0.0
1001
ACAD
1000
AcDbSavedByObjectVersion
1070
     0
  0
VISUALSTYLE
  5
2B
102
{ACAD_REACTORS
330
2A
102
}
330
2A
100
AcDbVisualStyle
  2
Flat
 70
     0
 71
     2
 72
     1
 73
     1
 90
        2
 40
-0.6
 41
30.0
 62
     5
 63
     7
421
 16777215
 74
     0
 91
        4
 64
     7
 65
   257
 75
     1
175
     1
 42
1.0
 92
        8
 66
     7
 43
1.0
 76
     1
 77
     6
 78
     2
 67
     7
 79
     5
170
     0
171
     0
290
     0
174
     0
 93
       13
 44
0.0
173
     0
291
     1
 45
0.0
1001
ACAD
1000
AcDbSavedByObjectVersion
1070
     0
  0
VISUALSTYLE
  5
2C
102
{ACAD_REACTORS
330
2A
102
}
330
2A
100
AcDbVisualStyle
  2
FlatWithEdges
 70
     1
 71
     2
 72
     1
 73
     1
 90
        2
 40
-0.6
 41
30.0
 62
     5
 63
     7
421
 16777215
 74
     1
 91
        4
 64
     7
 65
   257
 75
     1
175
     1
 42
1.0
 92
        0
 66
   257
 43
1.0
 76
     1
 77
     6
 78
     2
 67
     7
 79
     5
170
     0
171
     0
290
     0
174
     0
 93
       13
 44
0.0
173
     0
291
     1
 45
0.0
1001
ACAD
1000
AcDbSavedByObjectVersion
1070
     0
  0
VISUALSTYLE
  5
2D
102
{ACAD_REACTORS
330
2A
102
}
330
2A
100
AcDbVisualStyle
  2
Gouraud
 70
     2
 71
     2
 72
     2
 73
     1
 90
        2
 40
-0.6
 41
30.0
 62
     5
 63
     7
421
 16777215
 74
     0
 91
        4
 64
     7
 65
   257
 75
     1
175
     1
 42
1.0
 92
        0
 66
     7
 43
1.0
 76
     1
 77
     6
 78
     2
 67
     7
 79
     5
170
     0
171
     0
290
     0
174
     0
 93
       13
 44
0.0
173
     0
291
     1
 45
0.0
1001
ACAD
1000
AcDbSavedByObjectVersion
1070
     0
  0
VISUALSTYLE
  5
2E
102
{ACAD_REACTORS
330
2A
102
}
330
2A
100
AcDbVisualStyle
  2
GouraudWithEdges
 70
     3
 71
     2
 72
     2
 73
     1
 90
        2
 40
-0.6
 41
30.0
 62
     5
 63
     7
421
 16777215
 74
     1
 91
        4
 64
     7
 65
   257
 75
     1
175
     1
 42
1.0
 92
        0
 66
   257
 43
1.0
 76
     1
 77
     6
 78
     2
 67
     7
 79
     5
170
     0
171
     0
290
     0
174
     0
 93
       13
 44
0.0
173
     0
291
     1
 45
0.0
1001
ACAD
1000
AcDbSavedByObjectVersion
1070
     0
  0
VISUALSTYLE
  5
38
102
{ACAD_REACTORS
330
2A
102
}
330
2A
100
AcDbVisualStyle
  2
Linepattern
 70
    14
 71
     2
 72
     2
 73
     0
 90
        0
 40
-0.6
 41
-30.0
 62
     5
 63
     7
421
 16777215
 74
     1
 91
        4
 64
     7
 65
   257
 75
     7
175
     7
 42
1.0
 92
        8
 66
     7
 43
1.0
 76
     1
 77
     6
 78
     2
 67
     7
 79
     5
170
     0
171
     0
290
     0
174
     0
 93
        1
 44
0.0
173
     0
291
     1
 45
0.0
1001
ACAD
1000
AcDbSavedByObjectVersion
1070
     0
  0
VISUALSTYLE
  5
33
102
{ACAD_REACTORS
330
2A
102
}
330
2A
100
AcDbVisualStyle
  2
Realistic
 70
     8
 71
     2
 72
     2
 73
     0
 90
        0
 40
-0.6
 41
-30.0
 62
     5
 63
     7
421
 16777215
 74
     1
 91
        0
 64
     7
 65
   257
 75
     1
175
     1
 42
1.0
 92
        8
 66
     8
424
  7895160
 43
1.0
 76
     1
 77
     6
 78
     2
 67
     7
 79
     5
170
     0
171
     0
290
     0
174
     0
 93
       13
 44
0.0
173
     0
291
     0
 45
0.0
1001
ACAD
1000
AcDbSavedByObjectVersion
1070
     0
  0
VISUALSTYLE
  5
37
102
{ACAD_REACTORS
330
2A
102
}
330
2A
100
AcDbVisualStyle
  2
Thicken
 70
    13
 71
     2
 72
     2
 73
     0
 90
        0
 40
-0.6
 41
-30.0
 62
     5
 63
     7
421
 16777215
 74
     1
 91
        4
 64
     7
 65
   257
 75
     1
175
     1
 42
1.0
 92
       12
 66
     7
 43
1.0
 76
     1
 77
     6
 78
     2
 67
     7
 79
     5
170
     0
171
     0
290
     0
174
     0
 93
        1
 44
0.0
173
     0
291
     1
 45
0.0
1001
ACAD
1000
AcDbSavedByObjectVersion
1070
     0
  0
ENDSEC
  0
EOF
