  0
SECTION
  2
HEADER
  9
$ACADVER
  1
AC1018
  9
$ACADMAINTVER
 70
     0
  9
$DWGCODEPAGE
  3
ANSI_1252
  9
$INSBASE
 10
0.0
 20
0.0
 30
0.0
  9
$EXTMIN
 10
-11.85503039093643
 20
-0.0024689149220385
 30
0.0
  9
$EXTMAX
 10
41.97849119592197
 20
61.51311016827538
 30
0.0
  9
$LIMMIN
 10
0.0
 20
0.0
  9
$LIMMAX
 10
12.0
 20
9.0
  9
$ORTHOMODE
 70
     0
  9
$REGENMODE
 70
     1
  9
$FILLMODE
 70
     1
  9
$QTEXTMODE
 70
     0
  9
$MIRRTEXT
 70
     1
  9
$LTSCALE
 40
0.0393700787401575
  9
$ATTMODE
 70
     1
  9
$TEXTSIZE
 40
0.2
  9
$TRACEWID
 40
0.05
  9
$TEXTSTYLE
  7
Standard
  9
$CLAYER
  8
Default
  9
$CELTYPE
  6
ByLayer
  9
$CECOLOR
 62
   256
  9
$CELTSCALE
 40
1.0
  9
$DISPSILH
 70
     0
  9
$DIMSCALE
 40
1.0
  9
$DIMASZ
 40
0.18
  9
$DIMEXO
 40
0.0625
  9
$DIMDLI
 40
0.38
  9
$DIMRND
 40
0.0
  9
$DIMDLE
 40
0.0
  9
$DIMEXE
 40
0.18
  9
$DIMTP
 40
0.0
  9
$DIMTM
 40
0.0
  9
$DIMTXT
 40
0.18
  9
$DIMCEN
 40
0.09
  9
$DIMTSZ
 40
0.0
  9
$DIMTOL
 70
     0
  9
$DIMLIM
 70
     0
  9
$DIMTIH
 70
     1
  9
$DIMTOH
 70
     1
  9
$DIMSE1
 70
     0
  9
$DIMSE2
 70
     0
  9
$DIMTAD
 70
     0
  9
$DIMZIN
 70
     0
  9
$DIMBLK
  1

  9
$DIMASO
 70
     1
  9
$DIMSHO
 70
     1
  9
$DIMPOST
  1

  9
$DIMAPOST
  1

  9
$DIMALT
 70
     0
  9
$DIMALTD
 70
     2
  9
$DIMALTF
 40
25.4
  9
$DIMLFAC
 40
1.0
  9
$DIMTOFL
 70
     0
  9
$DIMTVP
 40
0.0
  9
$DIMTIX
 70
     0
  9
$DIMSOXD
 70
     0
  9
$DIMSAH
 70
     0
  9
$DIMBLK1
  1

  9
$DIMBLK2
  1

  9
$DIMSTYLE
  2
Standard
  9
$DIMCLRD
 70
     0
  9
$DIMCLRE
 70
     0
  9
$DIMCLRT
 70
     0
  9
$DIMTFAC
 40
1.0
  9
$DIMGAP
 40
0.09
  9
$DIMJUST
 70
     0
  9
$DIMSD1
 70
     0
  9
$DIMSD2
 70
     0
  9
$DIMTOLJ
 70
     1
  9
$DIMTZIN
 70
     0
  9
$DIMALTZ
 70
     0
  9
$DIMALTTZ
 70
     0
  9
$DIMUPT
 70
     0
  9
$DIMDEC
 70
     4
  9
$DIMTDEC
 70
     4
  9
$DIMALTU
 70
     2
  9
$DIMALTTD
 70
     2
  9
$DIMTXSTY
  7
Standard
  9
$DIMAUNIT
 70
     0
  9
$DIMADEC
 70
     0
  9
$DIMALTRND
 40
0.0
  9
$DIMAZIN
 70
     0
  9
$DIMDSEP
 70
    46
  9
$DIMATFIT
 70
     3
  9
$DIMFRAC
 70
     0
  9
$DIMLDRBLK
  1

  9
$DIMLUNIT
 70
     2
  9
$DIMLWD
 70
    -2
  9
$DIMLWE
 70
    -2
  9
$DIMTMOVE
 70
     2
  9
$LUNITS
 70
     2
  9
$LUPREC
 70
     3
  9
$SKETCHINC
 40
0.1
  9
$FILLETRAD
 40
0.5
  9
$AUNITS
 70
     0
  9
$AUPREC
 70
     0
  9
$MENU
  1
.
  9
$ELEVATION
 40
0.0
  9
$PELEVATION
 40
0.0
  9
$THICKNESS
 40
0.0
  9
$LIMCHECK
 70
     0
  9
$CHAMFERA
 40
0.5
  9
$CHAMFERB
 40
0.5
  9
$CHAMFERC
 40
1.0
  9
$CHAMFERD
 40
0.0
  9
$SKPOLY
 70
     0
  9
$TDCREATE
 40
2456954.490964838
  9
$TDUCREATE
 40
2456954.657631505
  9
$TDUPDATE
 40
2456954.490964849
  9
$TDUUPDATE
 40
2456954.657631516
  9
$TDINDWG
 40
0.0000000116
  9
$TDUSRTIMER
 40
0.0000000116
  9
$USRTIMER
 70
     1
  9
$ANGBASE
 50
0.0
  9
$ANGDIR
 70
     0
  9
$PDMODE
 70
     0
  9
$PDSIZE
 40
0.0
  9
$PLINEWID
 40
0.0
  9
$SPLFRAME
 70
     0
  9
$SPLINETYPE
 70
     6
  9
$SPLINESEGS
 70
     8
  9
$HANDSEED
  5
14B
  9
$SURFTAB1
 70
     6
  9
$SURFTAB2
 70
     6
  9
$SURFTYPE
 70
     6
  9
$SURFU
 70
     6
  9
$SURFV
 70
     6
  9
$UCSBASE
  2

  9
$UCSNAME
  2

  9
$UCSORG
 10
0.0
 20
0.0
 30
0.0
  9
$UCSXDIR
 10
1.0
 20
0.0
 30
0.0
  9
$UCSYDIR
 10
0.0
 20
1.0
 30
0.0
  9
$UCSORTHOREF
  2

  9
$UCSORTHOVIEW
 70
     0
  9
$UCSORGTOP
 10
0.0
 20
0.0
 30
0.0
  9
$UCSORGBOTTOM
 10
0.0
 20
0.0
 30
0.0
  9
$UCSORGLEFT
 10
0.0
 20
0.0
 30
0.0
  9
$UCSORGRIGHT
 10
0.0
 20
0.0
 30
0.0
  9
$UCSORGFRONT
 10
0.0
 20
0.0
 30
0.0
  9
$UCSORGBACK
 10
0.0
 20
0.0
 30
0.0
  9
$PUCSBASE
  2

  9
$PUCSNAME
  2

  9
$PUCSORG
 10
0.0
 20
0.0
 30
0.0
  9
$PUCSXDIR
 10
1.0
 20
0.0
 30
0.0
  9
$PUCSYDIR
 10
0.0
 20
1.0
 30
0.0
  9
$PUCSORTHOREF
  2

  9
$PUCSORTHOVIEW
 70
     0
  9
$PUCSORGTOP
 10
0.0
 20
0.0
 30
0.0
  9
$PUCSORGBOTTOM
 10
0.0
 20
0.0
 30
0.0
  9
$PUCSORGLEFT
 10
0.0
 20
0.0
 30
0.0
  9
$PUCSORGRIGHT
 10
0.0
 20
0.0
 30
0.0
  9
$PUCSORGFRONT
 10
0.0
 20
0.0
 30
0.0
  9
$PUCSORGBACK
 10
0.0
 20
0.0
 30
0.0
  9
$USERI1
 70
     0
  9
$USERI2
 70
     0
  9
$USERI3
 70
     0
  9
$USERI4
 70
     0
  9
$USERI5
 70
     0
  9
$USERR1
 40
0.0
  9
$USERR2
 40
0.0
  9
$USERR3
 40
0.0
  9
$USERR4
 40
0.0
  9
$USERR5
 40
0.0
  9
$WORLDVIEW
 70
     1
  9
$SHADEDGE
 70
     3
  9
$SHADEDIF
 70
    70
  9
$TILEMODE
 70
     1
  9
$MAXACTVP
 70
    64
  9
$PINSBASE
 10
0.0
 20
0.0
 30
0.0
  9
$PLIMCHECK
 70
     0
  9
$PEXTMIN
 10
1.000000000000000E+20
 20
1.000000000000000E+20
 30
1.000000000000000E+20
  9
$PEXTMAX
 10
-1.000000000000000E+20
 20
-1.000000000000000E+20
 30
-1.000000000000000E+20
  9
$PLIMMIN
 10
0.0
 20
0.0
  9
$PLIMMAX
 10
12.0
 20
9.0
  9
$UNITMODE
 70
     0
  9
$VISRETAIN
 70
     1
  9
$PLINEGEN
 70
     0
  9
$PSLTSCALE
 70
     1
  9
$TREEDEPTH
 70
  3020
  9
$CMLSTYLE
  2
Standard
  9
$CMLJUST
 70
     0
  9
$CMLSCALE
 40
1.0
  9
$PROXYGRAPHICS
 70
     1
  9
$MEASUREMENT
 70
     0
  9
$CELWEIGHT
370
    -1
  9
$ENDCAPS
280
     0
  9
$JOINSTYLE
280
     0
  9
$LWDISPLAY
290
     0
  9
$INSUNITS
 70
     1
  9
$HYPERLINKBASE
  1

  9
$STYLESHEET
  1

  9
$XEDIT
290
     1
  9
$CEPSNTYPE
380
     0
  9
$PSTYLEMODE
290
     1
  9
$FINGERPRINTGUID
  2
{2BEC552A-EA35-456F-9A62-3EDF0E56F391}
  9
$VERSIONGUID
  2
{FAEB1C32-E019-11D5-929B-00C0DF256EC4}
  9
$EXTNAMES
290
     1
  9
$PSVPSCALE
 40
0.0
  9
$OLESTARTUP
290
     0
  9
$SORTENTS
280
   127
  9
$INDEXCTL
280
     0
  9
$HIDETEXT
280
     1
  9
$XCLIPFRAME
290
     0
  9
$HALOGAP
280
     0
  9
$OBSCOLOR
 70
   257
  9
$OBSLTYPE
280
     0
  9
$INTERSECTIONDISPLAY
280
     0
  9
$INTERSECTIONCOLOR
 70
   257
  9
$DIMASSOC
280
     2
  9
$PROJECTNAME
  1

  0
ENDSEC
  0
SECTION
  2
CLASSES
  0
CLASS
  1
ACDBDICTIONARYWDFLT
  2
AcDbDictionaryWithDefault
  3
ObjectDBX Classes
 90
        0
 91
        4
280
     0
281
     0
  0
CLASS
  1
VISUALSTYLE
  2
AcDbVisualStyle
  3
ObjectDBX Classes
 90
     4095
 91
        4
280
     0
281
     0
  0
ENDSEC
  0
SECTION
  2
TABLES
  0
TABLE
  2
VPORT
  5
8
330
0
100
AcDbSymbolTable
 70
     1
  0
VPORT
  5
29
330
8
100
AcDbSymbolTableRecord
100
AcDbViewportTableRecord
  2
*Active
 70
     0
 10
0.0
 20
0.0
 11
1.0
 21
1.0
 12
15.06173040249277
 22
30.75532062667667
 13
0.0
 23
0.0
 14
0.5
 24
0.5
 15
0.5
 25
0.5
 16
0.0
 26
0.0
 36
1.0
 17
0.0
 27
0.0
 37
0.0
 40
62.74589066486136
 41
0.875120130366499
 42
50.0
 43
0.0
 44
0.0
 50
0.0
 51
0.0
 71
     0
 72
   100
 73
     1
 74
     3
 75
     0
 76
     0
 77
     0
 78
     0
281
     0
 65
     1
110
0.0
120
0.0
130
0.0
111
1.0
121
0.0
131
0.0
112
0.0
122
1.0
132
0.0
 79
     0
146
0.0
  0
ENDTAB
  0
TABLE
  2
LTYPE
  5
5
330
0
100
AcDbSymbolTable
 70
     1
  0
LTYPE
  5
14
330
5
100
AcDbSymbolTableRecord
100
AcDbLinetypeTableRecord
  2
ByBlock
 70
     0
  3

 72
    65
 73
     0
 40
0.0
  0
LTYPE
  5
15
330
5
100
AcDbSymbolTableRecord
100
AcDbLinetypeTableRecord
  2
ByLayer
 70
     0
  3

 72
    65
 73
     0
 40
0.0
  0
LTYPE
  5
16
330
5
100
AcDbSymbolTableRecord
100
AcDbLinetypeTableRecord
  2
Continuous
 70
     0
  3
Solid line
 72
    65
 73
     0
 40
0.0
  0
ENDTAB
  0
TABLE
  2
LAYER
  5
2
330
0
100
AcDbSymbolTable
 70
     2
  0
LAYER
  5
10
330
2
100
AcDbSymbolTableRecord
100
AcDbLayerTableRecord
  2
0
 70
     0
 62
     7
  6
Continuous
370
    -3
390
F
  0
LAYER
  5
3B
330
2
100
AcDbSymbolTableRecord
100
AcDbLayerTableRecord
  2
Default
 70
     0
 62
     7
  6
Continuous
370
    -3
390
F
  0
ENDTAB
  0
TABLE
  2
STYLE
  5
3
330
0
100
AcDbSymbolTable
 70
     1
  0
STYLE
  5
11
330
3
100
AcDbSymbolTableRecord
100
AcDbTextStyleTableRecord
  2
Standard
 70
     0
 40
0.0
 41
1.0
 50
0.0
 71
     0
 42
0.2
  3
txt
  4

  0
ENDTAB
  0
TABLE
  2
VIEW
  5
6
330
0
100
AcDbSymbolTable
 70
     0
  0
ENDTAB
  0
TABLE
  2
UCS
  5
7
330
0
100
AcDbSymbolTable
 70
     0
  0
ENDTAB
  0
TABLE
  2
APPID
  5
9
330
0
100
AcDbSymbolTable
 70
     1
  0
APPID
  5
12
330
9
100
AcDbSymbolTableRecord
100
AcDbRegAppTableRecord
  2
ACAD
 70
     0
  0
ENDTAB
  0
TABLE
  2
DIMSTYLE
  5
A
330
0
100
AcDbSymbolTable
 70
     1
100
AcDbDimStyleTable
  0
DIMSTYLE
105
27
330
A
100
AcDbSymbolTableRecord
100
AcDbDimStyleTableRecord
  2
Standard
 70
     0
340
11
  0
ENDTAB
  0
TABLE
  2
BLOCK_RECORD
  5
1
330
0
100
AcDbSymbolTable
 70
     1
  0
BLOCK_RECORD
  5
1F
330
1
100
AcDbSymbolTableRecord
100
AcDbBlockTableRecord
  2
*Model_Space
340
22
  0
BLOCK_RECORD
  5
1B
330
1
100
AcDbSymbolTableRecord
100
AcDbBlockTableRecord
  2
*Paper_Space
340
1E
  0
BLOCK_RECORD
  5
23
330
1
100
AcDbSymbolTableRecord
100
AcDbBlockTableRecord
  2
*Paper_Space0
340
26
  0
ENDTAB
  0
ENDSEC
  0
SECTION
  2
BLOCKS
  0
BLOCK
  5
20
330
1F
100
AcDbEntity
  8
0
100
AcDbBlockBegin
  2
*Model_Space
 70
     0
 10
0.0
 20
0.0
 30
0.0
  3
*Model_Space
  1

  0
ENDBLK
  5
21
330
1F
100
AcDbEntity
  8
0
100
AcDbBlockEnd
  0
BLOCK
  5
1C
330
1B
100
AcDbEntity
 67
     1
  8
0
100
AcDbBlockBegin
  2
*Paper_Space
 70
     0
 10
0.0
 20
0.0
 30
0.0
  3
*Paper_Space
  1

  0
ENDBLK
  5
1D
330
1B
100
AcDbEntity
 67
     1
  8
0
100
AcDbBlockEnd
  0
BLOCK
  5
24
330
23
100
AcDbEntity
  8
0
100
AcDbBlockBegin
  2
*Paper_Space0
 70
     0
 10
0.0
 20
0.0
 30
0.0
  3
*Paper_Space0
  1

  0
ENDBLK
  5
25
330
23
100
AcDbEntity
  8
0
100
AcDbBlockEnd
  0
ENDSEC
  0
SECTION
  2
ENTITIES
  0
SPLINE
  5
3C
330
1F
100
AcDbEntity
  8
Default
100
AcDbSpline
210
0.0
220
0.0
230
1.0
 70
     8
 71
     3
 72
    16
 73
    12
 74
     0
 42
0.0000000001
 43
0.0000000001
 40
4.563787154012672
 40
4.563787154012672
 40
4.563787154012672
 40
4.563787154012672
 40
5.804062866727969
 40
7.268374888272469
 40
7.793056219858554
 40
8.239581996564139
 40
8.709131721423118
 40
9.168116820596085
 40
9.553899249817224
 40
10.19568979129581
 40
10.33789683585716
 40
10.33789683585716
 40
10.33789683585716
 40
10.33789683585716
 10
24.94655572837326
 20
27.025065851108
 30
0.0
 10
24.80391133140279
 20
27.41297134710553
 30
0.0
 10
24.44009312495641
 20
28.24011056427714
 30
0.0
 10
23.89851880113054
 20
29.17251097554637
 30
0.0
 10
23.40378198862038
 20
29.81855010670814
 30
0.0
 10
23.03856849377081
 20
30.13499497594618
 30
0.0
 10
22.64937082396835
 20
30.37891394152482
 30
0.0
 10
22.23346293408525
 20
30.52598915876567
 30
0.0
 10
21.74981399474399
 20
30.63299844536595
 30
0.0
 10
21.35899262928399
 20
30.65964183214736
 30
0.0
 10
21.10089074158327
 20
30.69743527347809
 30
0.0
 10
21.05424538032628
 20
30.70653758033276
 30
0.0
  0
SPLINE
  5
3D
330
1F
100
AcDbEntity
  8
Default
100
AcDbSpline
210
0.0
220
0.0
230
1.0
 70
     8
 71
     3
 72
    11
 73
     7
 74
     0
 42
0.0000000001
 43
0.0000000001
 40
0.0
 40
0.0
 40
0.0
 40
0.0
 40
1.016023921203492
 40
1.527494508839443
 40
2.164610804987852
 40
3.918341631072515
 40
3.918341631072515
 40
3.918341631072515
 40
3.918341631072515
 10
25.1497775621271
 20
22.60896828586117
 30
0.0
 10
25.34139644962863
 20
22.89047753234269
 30
0.0
 10
25.50952593505292
 20
23.38067697042485
 30
0.0
 10
25.56209520520184
 20
24.10361731361046
 30
0.0
 10
25.46474485188975
 20
25.06619511828907
 30
0.0
 10
25.31294493202753
 20
25.85194446107344
 30
0.0
 10
25.14884791423896
 20
26.41263921002376
 30
0.0
  0
SPLINE
  5
3E
330
1F
100
AcDbEntity
  8
Default
100
AcDbSpline
210
0.0
220
0.0
230
1.0
 70
     8
 71
     3
 72
    17
 73
    13
 74
     0
 42
0.0000000001
 43
0.0000000001
 40
4.981566745771212
 40
4.981566745771212
 40
4.981566745771212
 40
4.981566745771212
 40
5.363423240323053
 40
5.959758848723831
 40
7.667141295717129
 40
8.1611567166983
 40
8.73390112518842
 40
9.059333254106061
 40
9.24373858722212
 40
9.72786522749654
 40
10.19703624309155
 40
11.00102805315352
 40
11.00102805315352
 40
11.00102805315352
 40
11.00102805315352
 10
25.24977276305211
 20
27.04517080980627
 30
0.0
 10
25.20717189975088
 20
27.16509992333485
 30
0.0
 10
25.09233762859105
 20
27.47028687876347
 30
0.0
 10
24.73814090312106
 20
28.292677283778
 30
0.0
 10
24.28836885120955
 20
29.11285037857106
 30
0.0
 10
23.75395051750309
 20
29.86840083319188
 30
0.0
 10
23.42279356506765
 20
30.19788290781207
 30
0.0
 10
23.13131222481002
 20
30.41034256849137
 30
0.0
 10
22.84565324314121
 20
30.57984572735491
 30
0.0
 10
22.49113614335835
 20
30.7179518100789
 30
0.0
 10
21.92079310911168
 20
30.85779495524109
 30
0.0
 10
21.49441203927393
 20
30.87710395695105
 30
0.0
 10
21.22998107071072
 20
30.91912909937548
 30
0.0
  0
SPLINE
  5
3F
330
1F
100
AcDbEntity
  8
Default
100
AcDbSpline
210
0.0
220
0.0
230
1.0
 70
     8
 71
     3
 72
    14
 73
    10
 74
     0
 42
0.0000000001
 43
0.0000000001
 40
0.0
 40
0.0
 40
0.0
 40
0.0
 40
1.0178716147505
 40
2.176358818916439
 40
2.61588123659808
 40
3.158358901046834
 40
3.384019779601684
 40
4.109109792526405
 40
4.336220624716312
 40
4.336220624716312
 40
4.336220624716312
 40
4.336220624716312
 10
25.21352940786591
 20
22.27814297684159
 30
0.0
 10
25.44282629221397
 20
22.52968789779477
 30
0.0
 10
25.78625308369845
 20
23.18701416138836
 30
0.0
 10
25.85847083203333
 20
24.07115954658516
 30
0.0
 10
25.77935713136196
 20
24.77868326168397
 30
0.0
 10
25.72318883436492
 20
25.17837000966087
 30
0.0
 10
25.63564161909022
 20
25.66773651228377
 30
0.0
 10
25.55062577093634
 20
26.05154773343331
 30
0.0
 10
25.46710749563434
 20
26.35783168471765
 30
0.0
 10
25.44636000919837
 20
26.43064277226447
 30
0.0
  0
SPLINE
  5
40
330
1F
100
AcDbEntity
  8
Default
100
AcDbSpline
210
0.0
220
0.0
230
1.0
 70
    12
 71
     2
 72
     6
 73
     3
 74
     0
 42
0.0000000001
 43
0.0000000001
 40
0.6306172721083134
 40
0.6306172721083134
 40
0.6306172721083134
 40
4.887933103701366
 40
4.887933103701366
 40
4.887933103701366
 10
22.46592600270319
 20
26.69181432169242
 30
0.0
 41
0.9996102355982702
 10
21.86316698101997
 20
28.73542200075237
 30
0.0
 41
0.998489462304537
 10
21.05424538032628
 20
30.70653758033276
 30
0.0
 41
1.0
  0
SPLINE
  5
41
330
1F
100
AcDbEntity
  8
Default
100
AcDbSpline
210
0.0
220
0.0
230
1.0
 70
    12
 71
     2
 72
     8
 73
     5
 74
     0
 42
0.0000000001
 43
0.0000000001
 40
0.0
 40
0.0
 40
0.0
 40
0.1690256349283122
 40
0.1690256349283122
 40
0.3380512698566244
 40
0.3380512698566244
 40
0.3380512698566244
 10
21.22999162624228
 20
30.91918384074812
 30
0.0
 41
1.0
 10
21.13804479181218
 20
30.93797933686096
 30
0.0
 41
0.8572559322646445
 10
21.07825802509672
 20
30.86563962742306
 30
0.0
 41
1.0
 10
21.0184712583813
 20
30.79329991798517
 30
0.0
 41
0.8572559322646445
 10
21.05424538032628
 20
30.70653758033275
 30
0.0
 41
1.0
  0
SPLINE
  5
42
330
1F
100
AcDbEntity
  8
Default
100
AcDbSpline
210
0.0
220
0.0
230
1.0
 70
    12
 71
     2
 72
     8
 73
     5
 74
     0
 42
0.0000000001
 43
0.0000000001
 40
0.0
 40
0.0
 40
0.0
 40
0.1466454949755766
 40
0.1466454949755766
 40
0.2932909899511532
 40
0.2932909899511532
 40
0.2932909899511532
 10
23.3338954393144
 20
21.64645069428392
 30
0.0
 41
1.0
 10
23.33160190447599
 20
21.56725831183658
 30
0.0
 41
0.8918969760408813
 10
23.39413105415946
 20
21.5186085515124
 30
0.0
 41
1.0
 10
23.45666020384295
 20
21.46995879118821
 30
0.0
 41
0.8918969760408813
 10
23.53285824526813
 20
21.49165100690492
 30
0.0
 41
1.0
  0
SPLINE
  5
43
330
1F
100
AcDbEntity
  8
Default
100
AcDbSpline
210
0.0
220
0.0
230
1.0
 70
     8
 71
     3
 72
    11
 73
     7
 74
     0
 42
0.0000000001
 43
0.0000000001
 40
0.0
 40
0.0
 40
0.0
 40
0.0
 40
0.4305319194939327
 40
0.6761607843529747
 40
0.936694035910168
 40
1.187533833707546
 40
1.187533833707546
 40
1.187533833707546
 40
1.187533833707546
 10
23.53284149069077
 20
21.49167810711958
 30
0.0
 10
23.67275653166485
 20
21.52369248765001
 30
0.0
 10
23.89715023315949
 20
21.55036107064549
 30
0.0
 10
24.20000469361207
 20
21.62818788041641
 30
0.0
 10
24.43837506142324
 20
21.7115055012322
 30
0.0
 10
24.59084491900103
 20
21.78911778790533
 30
0.0
 10
24.66320942407793
 20
21.8307608804424
 30
0.0
  0
SPLINE
  5
44
330
1F
100
AcDbEntity
  8
Default
100
AcDbSpline
210
0.0
220
0.0
230
1.0
 70
    12
 71
     3
 72
    12
 73
     8
 74
     0
 42
0.0000000001
 43
0.0000000001
 40
-1.0
 40
-1.0
 40
-1.0
 40
-1.0
 40
-0.875
 40
-0.875
 40
-0.75
 40
-0.75
 40
-0.6329199333998808
 40
-0.6329199333998808
 40
-0.6329199333998808
 40
-0.6329199333998808
 10
23.3338954393144
 20
21.64645069428392
 30
0.0
 41
1.0
 10
23.34472025972599
 20
22.02571039223907
 30
0.0
 41
1.0
 10
23.32434478831209
 20
22.45584156997626
 30
0.0
 41
1.0
 10
23.22830982878958
 20
23.35680997721985
 30
0.0
 41
1.0
 10
23.15321173407517
 20
23.82686479857932
 30
0.0
 41
1.0
 10
22.98208303042782
 20
24.70505155144959
 30
0.0
 41
1.0
 10
22.89223829192065
 20
25.10230777489343
 30
0.0
 41
1.0
 10
22.79875242486736
 20
25.47768771649878
 30
0.0
 41
1.0
  0
SPLINE
  5
45
330
1F
100
AcDbEntity
  8
Default
100
AcDbSpline
210
0.0
220
0.0
230
1.0
 70
     8
 71
     3
 72
    11
 73
     7
 74
     0
 42
0.0000000001
 43
0.0000000001
 40
0.0
 40
0.0
 40
0.0
 40
0.0
 40
0.1200553089436328
 40
0.5147636855652583
 40
0.7898292835510572
 40
1.365398434204968
 40
1.365398434204968
 40
1.365398434204968
 40
1.365398434204968
 10
23.3338954393144
 20
21.64645069428392
 30
0.0
 10
23.37197641602683
 20
21.65911979942565
 30
0.0
 10
23.54010423341441
 20
21.69368594076344
 30
0.0
 10
23.80100866596376
 20
21.73042449870438
 30
0.0
 10
24.20306127253571
 20
21.83764208745149
 30
0.0
 10
24.45949194606351
 20
21.96459089263482
 30
0.0
 10
24.61597384916979
 20
22.07601985620991
 30
0.0
  0
SPLINE
  5
46
330
1F
100
AcDbEntity
  8
Default
100
AcDbSpline
210
0.0
220
0.0
230
1.0
 70
    12
 71
     2
 72
     6
 73
     3
 74
     0
 42
0.0000000001
 43
0.0000000001
 40
0.0
 40
0.0
 40
0.0
 40
0.0394383425927629
 40
0.0394383425927629
 40
0.0394383425927629
 10
23.56378656584945
 20
21.4988781388703
 30
0.0
 41
1.0
 10
23.58305107821596
 20
21.50309145734517
 30
0.0
 41
0.999946436197294
 10
23.60239867510199
 20
21.50690511491045
 30
0.0
 41
1.0
  0
SPLINE
  5
47
330
1F
100
AcDbEntity
  8
Default
100
AcDbSpline
210
0.0
220
0.0
230
1.0
 70
    12
 71
     2
 72
     8
 73
     5
 74
     0
 42
0.0000000001
 43
0.0000000001
 40
1.019151000770425
 40
1.019151000770425
 40
1.019151000770425
 40
1.472409993314082
 40
1.472409993314082
 40
1.963213324418776
 40
1.963213324418776
 40
1.963213324418776
 10
35.87165685246373
 20
16.91019406846823
 30
0.0
 41
0.9586176455824371
 10
35.90600404628707
 20
16.60076105861924
 30
0.0
 41
0.7295118495152676
 10
36.21733749663855
 20
16.60076105861924
 30
0.0
 41
1.0
 10
36.56514120291799
 20
16.60076105861923
 30
0.0
 41
0.7071067811865476
 10
36.56514120291794
 20
16.94856476489865
 30
0.0
 41
1.0
  0
POLYLINE
  5
48
330
1F
100
AcDbEntity
  8
Default
100
AcDb2dPolyline
 66
     1
 10
0.0
 20
0.0
 30
0.0
  0
VERTEX
  5
49
330
48
100
AcDbEntity
  8
Default
100
AcDbVertex
100
AcDb2dVertex
 10
36.63036834019081
 20
17.89076985612234
 30
0.0
  0
VERTEX
  5
4A
330
48
100
AcDbEntity
  8
Default
100
AcDbVertex
100
AcDb2dVertex
 10
36.56514120291794
 20
16.94856476489876
 30
0.0
  0
SEQEND
  5
4B
330
48
100
AcDbEntity
  8
Default
  0
POLYLINE
  5
4C
330
1F
100
AcDbEntity
  8
Default
100
AcDb2dPolyline
 66
     1
 10
0.0
 20
0.0
 30
0.0
  0
VERTEX
  5
4D
330
4C
100
AcDbEntity
  8
Default
100
AcDbVertex
100
AcDb2dVertex
 10
35.76762995624466
 20
17.84736977393943
 30
0.0
  0
VERTEX
  5
4E
330
4C
100
AcDbEntity
  8
Default
100
AcDbVertex
100
AcDb2dVertex
 10
35.87165685246373
 20
16.91019406846824
 30
0.0
  0
SEQEND
  5
4F
330
4C
100
AcDbEntity
  8
Default
  0
SPLINE
  5
50
330
1F
100
AcDbEntity
  8
Default
100
AcDbSpline
210
0.0
220
0.0
230
1.0
 70
     8
 71
     3
 72
    14
 73
    10
 74
     0
 42
0.0000000001
 43
0.0000000001
 40
0.0
 40
0.0
 40
0.0
 40
0.0
 40
15.14894129379804
 40
15.65034509407024
 40
15.74087703470757
 40
15.98006877737321
 40
16.77973116841668
 40
17.43760275705001
 40
17.85111753137693
 40
17.85111753137693
 40
17.85111753137693
 40
17.85111753137693
 10
41.96887619155279
 20
0.3146594894215013
 30
0.0
 10
41.58257943480248
 20
5.349557898635467
 30
0.0
 10
41.18280938758994
 20
10.55087028468466
 30
0.0
 10
40.78153868191959
 20
15.78258149440248
 30
0.0
 10
40.75858691414459
 20
16.05853774467252
 30
0.0
 10
40.7063455904314
 20
16.43216382957402
 30
0.0
 10
40.55105763116342
 20
16.97883083091301
 30
0.0
 10
40.19141046051186
 20
17.50658275732622
 30
0.0
 10
39.87029016894729
 20
17.68375144795159
 30
0.0
 10
39.73761509928283
 20
17.71978265246929
 30
0.0
  0
SPLINE
  5
51
330
1F
100
AcDbEntity
  8
Default
100
AcDbSpline
210
0.0
220
0.0
230
1.0
 70
     8
 71
     3
 72
    11
 73
     7
 74
     0
 42
0.0000000001
 43
0.0000000001
 40
0.4123255970113484
 40
0.4123255970113484
 40
0.4123255970113484
 40
0.4123255970113484
 40
0.4583845697236367
 40
0.633252475572114
 40
1.126993947823871
 40
1.730652273456374
 40
1.730652273456374
 40
1.730652273456374
 40
1.730652273456374
 10
39.6597597469991
 20
17.07828488646727
 30
0.0
 10
39.67275580566701
 20
17.07001509204701
 30
0.0
 10
39.73286503322555
 20
17.02638527350302
 30
0.0
 10
39.89220922338615
 20
16.84670146507092
 30
0.0
 10
40.06257084556762
 20
16.45210566894983
 30
0.0
 10
40.12922900970716
 20
16.09171066500885
 30
0.0
 10
40.14532873895979
 20
15.89075405061449
 30
0.0
  0
SPLINE
  5
52
330
1F
100
AcDbEntity
  8
Default
100
AcDbSpline
210
0.0
220
0.0
230
1.0
 70
     8
 71
     3
 72
    10
 73
     6
 74
     0
 42
0.0000000001
 43
0.0000000001
 40
0.2061812561999862
 40
0.2061812561999862
 40
0.2061812561999862
 40
0.2061812561999862
 40
0.2409776516219818
 40
0.3206233793155049
 40
0.4123255970113484
 40
0.4123255970113484
 40
0.4123255970113484
 40
0.4123255970113484
 10
39.46331120243553
 20
17.11643256268069
 30
0.0
 10
39.47469832984206
 20
17.11871185283331
 30
0.0
 10
39.51229703001007
 20
17.1250718239455
 30
0.0
 10
39.58209709399881
 20
17.11939568148181
 30
0.0
 10
39.63388493193105
 20
17.09474983224372
 30
0.0
 10
39.6597597469991
 20
17.07828488646727
 30
0.0
  0
SPLINE
  5
53
330
1F
100
AcDbEntity
  8
Default
100
AcDbSpline
210
0.0
220
0.0
230
1.0
 70
     8
 71
     3
 72
    14
 73
    10
 74
     0
 42
0.0000000001
 43
0.0000000001
 40
10.81393243122426
 40
10.81393243122426
 40
10.81393243122426
 40
10.81393243122426
 40
11.0
 40
12.0
 40
13.0
 40
14.0
 40
15.0
 40
16.0
 40
17.0
 40
17.0
 40
17.0
 40
17.0
 10
36.50565859409625
 20
19.07783684184449
 30
0.0
 10
36.56573402113474
 20
19.0803354622544
 30
0.0
 10
36.94869400802912
 20
19.09600134643005
 30
0.0
 10
37.65474643687236
 20
19.12153747544433
 30
0.0
 10
38.62355350583687
 20
19.14092689985355
 30
0.0
 10
39.59441330580734
 20
19.15912866039787
 30
0.0
 10
40.55717001362251
 20
19.01246895496536
 30
0.0
 10
41.45598343594128
 20
18.60326001785092
 30
0.0
 10
41.83622207184982
 20
18.02570804804965
 30
0.0
 10
41.82744950114198
 20
17.692054590395
 30
0.0
  0
ARC
  5
54
330
1F
100
AcDbEntity
  8
Default
100
AcDbCircle
 10
39.29967021638578
 20
17.75851613005766
 30
0.0
 40
2.528652852547563
100
AcDbArc
 50
355.9277807156346
 51
358.4938999083832
  0
SPLINE
  5
55
330
1F
100
AcDbEntity
  8
Default
100
AcDbSpline
210
0.0
220
0.0
230
1.0
 70
    12
 71
     2
 72
     6
 73
     3
 74
     0
 42
0.0000000001
 43
0.0000000001
 40
0.0
 40
0.0
 40
0.0
 40
0.1499191734217611
 40
0.1499191734217611
 40
0.1499191734217611
 10
41.8219390607232
 20
17.57894685211339
 30
0.0
 41
1.0
 10
41.8084154650608
 20
17.48685028145636
 30
0.0
 41
0.7319642820736633
 10
41.71558736884117
 20
17.49375031904131
 30
0.0
 41
1.0
  0
SPLINE
  5
56
330
1F
100
AcDbEntity
  8
Default
100
AcDbSpline
210
0.0
220
0.0
230
1.0
 70
    12
 71
     2
 72
     6
 73
     3
 74
     0
 42
0.0000000001
 43
0.0000000001
 40
-0.9548776914065253
 40
-0.9548776914065253
 40
-0.9548776914065253
 40
0.0
 40
0.0
 40
0.0
 10
41.71558736884117
 20
17.49375031904131
 30
0.0
 41
1.0
 10
41.23925605587625
 20
17.52852522617853
 30
0.0
 41
0.9994970478535073
 10
40.76167833450751
 20
17.5330345420374
 30
0.0
 41
1.0
  0
ARC
  5
57
330
1F
100
AcDbEntity
  8
Default
100
AcDbCircle
 10
27.80397066295089
 20
13.53474251054163
 30
0.0
 40
5.220496296150263
100
AcDbArc
 50
109.4413019416014
 51
110.6102030851925
  0
SPLINE
  5
58
330
1F
100
AcDbEntity
  8
Default
100
AcDbSpline
210
0.0
220
0.0
230
1.0
 70
     8
 71
     3
 72
    18
 73
    14
 74
     0
 42
0.0000000001
 43
0.0000000001
 40
0.0
 40
0.0
 40
0.0
 40
0.0
 40
1.0
 40
2.0
 40
3.0
 40
4.0
 40
5.0
 40
6.0
 40
7.0
 40
8.0
 40
9.0
 40
10.0
 40
10.16884073426081
 40
10.16884073426081
 40
10.16884073426081
 40
10.16884073426081
 10
26.06637560053517
 20
18.45758162808215
 30
0.0
 10
26.37119723049398
 20
18.56517331379187
 30
0.0
 10
26.99991101098192
 20
18.72340992304791
 30
0.0
 10
27.96604654628155
 20
18.82227506418955
 30
0.0
 10
28.93562586391872
 20
18.8353569278001
 30
0.0
 10
29.90501390782191
 20
18.83190646115513
 30
0.0
 10
30.87436817119539
 20
18.84748712496042
 30
0.0
 10
31.84345243807124
 20
18.8731129186782
 30
0.0
 10
32.81227208722552
 20
18.90767485261367
 30
0.0
 10
33.78079158534194
 20
18.94964255462709
 30
0.0
 10
34.7490773142066
 20
18.99656600530236
 30
0.0
 10
35.44909665603882
 20
19.03065960200302
 30
0.0
 10
35.82639095668739
 20
19.04803367750953
 30
0.0
 10
35.88089269520128
 20
19.05051985185637
 30
0.0
  0
POLYLINE
  5
59
330
1F
100
AcDbEntity
  8
Default
100
AcDb2dPolyline
 66
     1
 10
0.0
 20
0.0
 30
0.0
  0
VERTEX
  5
5A
330
59
100
AcDbEntity
  8
Default
100
AcDbVertex
100
AcDb2dVertex
 10
35.89450575500584
 20
17.85375226508126
 30
0.0
  0
VERTEX
  5
5B
330
59
100
AcDbEntity
  8
Default
100
AcDbVertex
100
AcDb2dVertex
 10
34.44536899577494
 20
17.78085339374876
 30
0.0
  0
VERTEX
  5
5C
330
59
100
AcDbEntity
  8
Default
100
AcDbVertex
100
AcDb2dVertex
 10
33.54159258024575
 20
17.74085171657759
 30
0.0
  0
VERTEX
  5
5D
330
59
100
AcDbEntity
  8
Default
100
AcDbVertex
100
AcDb2dVertex
 10
32.64706314119519
 20
17.70999066794693
 30
0.0
  0
VERTEX
  5
5E
330
59
100
AcDbEntity
  8
Default
100
AcDbVertex
100
AcDb2dVertex
 10
31.56938908274165
 20
17.685206161593
 30
0.0
  0
VERTEX
  5
5F
330
59
100
AcDbEntity
  8
Default
100
AcDbVertex
100
AcDb2dVertex
 10
30.52719244552603
 20
17.67348317866166
 30
0.0
  0
VERTEX
  5
60
330
59
100
AcDbEntity
  8
Default
100
AcDbVertex
100
AcDb2dVertex
 10
29.49871277044983
 20
17.67374982077051
 30
0.0
  0
SEQEND
  5
61
330
59
100
AcDbEntity
  8
Default
  0
LINE
  5
62
330
1F
100
AcDbEntity
  8
Default
100
AcDbLine
 10
29.49871277044983
 20
17.67374982077051
 30
0.0
 11
28.62821048011446
 21
17.68220155754408
 31
0.0
  0
ARC
  5
63
330
1F
100
AcDbEntity
  8
Default
100
AcDbCircle
 10
28.36837652833773
 20
-9.079877786470604
 30
0.0
 40
26.76334068269193
100
AcDbArc
 50
89.4437307782474
 51
91.70523211927903
  0
SPLINE
  5
64
330
1F
100
AcDbEntity
  8
Default
100
AcDbSpline
210
0.0
220
0.0
230
1.0
 70
     8
 71
     5
 72
    12
 73
     6
 74
     0
 42
0.0000000001
 43
0.0000000001
 40
0.0
 40
0.0
 40
0.0
 40
0.0
 40
0.0
 40
0.0
 40
1.0
 40
1.0
 40
1.0
 40
1.0
 40
1.0
 40
1.0
 10
27.57196584317586
 20
17.67161066778916
 30
0.0
 10
27.5375851926083
 20
17.67058713156531
 30
0.0
 10
27.50320618633435
 20
17.6695083634085
 30
0.0
 10
27.43718542593365
 20
17.61021299391471
 30
0.0
 10
27.44683021509695
 20
17.577197015897
 30
0.0
 10
27.45647345052382
 20
17.54418058407354
 30
0.0
  0
SPLINE
  5
65
330
1F
100
AcDbEntity
  8
Default
100
AcDbSpline
210
0.0
220
0.0
230
1.0
 70
    12
 71
     2
 72
     6
 73
     3
 74
     0
 42
0.0000000001
 43
0.0000000001
 40
0.0
 40
0.0
 40
0.0
 40
0.6696562249248778
 40
0.6696562249248778
 40
0.6696562249248778
 10
27.45647345052382
 20
17.54418058407354
 30
0.0
 41
1.0
 10
27.55034591981885
 20
17.22278077940364
 30
0.0
 41
0.9999999328454717
 10
27.64454473854573
 20
16.89936156484964
 30
0.0
 41
1.0
  0
SPLINE
  5
66
330
1F
100
AcDbEntity
  8
Default
100
AcDbSpline
210
0.0
220
0.0
230
1.0
 70
     8
 71
     3
 72
    11
 73
     7
 74
     0
 42
0.0000000001
 43
0.0000000001
 40
0.0
 40
0.0
 40
0.0
 40
0.0
 40
0.1152255024500052
 40
0.1711284474777425
 40
0.2291435419194681
 40
0.4288197426167271
 40
0.4288197426167271
 40
0.4288197426167271
 40
0.4288197426167271
 10
27.64454473854573
 20
16.89936156484964
 30
0.0
 10
27.65561033178514
 20
16.86040823601081
 30
0.0
 10
27.66678970313538
 20
16.8044247622185
 30
0.0
 10
27.67104538247051
 20
16.72781992789204
 30
0.0
 10
27.66670393275487
 20
16.62376122971409
 30
0.0
 10
27.64144303284453
 20
16.53869757205054
 30
0.0
 10
27.6020494901511
 20
16.48455309773482
 30
0.0
  0
SPLINE
  5
67
330
1F
100
AcDbEntity
  8
Default
100
AcDbSpline
210
0.0
220
0.0
230
1.0
 70
    12
 71
     2
 72
     6
 73
     3
 74
     0
 42
0.0000000001
 43
0.0000000001
 40
-0.3207188049165502
 40
-0.3207188049165502
 40
-0.3207188049165502
 40
0.0
 40
0.0
 40
0.0
 10
27.6020494901511
 20
16.48455309773482
 30
0.0
 41
1.0
 10
27.49233608010087
 20
16.32138661077454
 30
0.0
 41
0.7449921237686478
 10
27.31809344544448
 20
16.41248816491036
 30
0.0
 41
1.0
  0
SPLINE
  5
68
330
1F
100
AcDbEntity
  8
Default
100
AcDbSpline
210
0.0
220
0.0
230
1.0
 70
    12
 71
     2
 72
     6
 73
     3
 74
     0
 42
0.0000000001
 43
0.0000000001
 40
-0.2099576760997407
 40
-0.2099576760997407
 40
-0.2099576760997407
 40
0.0
 40
0.0
 40
0.0
 10
27.31809344544448
 20
16.41248816491036
 30
0.0
 41
1.0
 10
27.21404112103515
 20
16.47298510314877
 30
0.0
 41
0.8188763463291373
 10
27.12167872601256
 20
16.39581027735115
 30
0.0
 41
1.0
  0
SPLINE
  5
69
330
1F
100
AcDbEntity
  8
Default
100
AcDbSpline
210
0.0
220
0.0
230
1.0
 70
     8
 71
     5
 72
    12
 73
     6
 74
     0
 42
0.0000000001
 43
0.0000000001
 40
0.0
 40
0.0
 40
0.0
 40
0.0
 40
0.0
 40
0.0
 40
1.0
 40
1.0
 40
1.0
 40
1.0
 40
1.0
 40
1.0
 10
27.12167872601256
 20
16.39581027735115
 30
0.0
 10
27.10979706601557
 20
16.38588237281566
 30
0.0
 10
27.09903438102532
 20
16.37461528532091
 30
0.0
 10
27.08960389065263
 20
16.36223089878982
 30
0.0
 10
27.08034173730226
 20
16.34968536763542
 30
0.0
 10
27.06972894678381
 20
16.33841124637648
 30
0.0
  0
ARC
  5
6A
330
1F
100
AcDbEntity
  8
Default
100
AcDbCircle
 10
26.95209390277952
 20
16.44914591482417
 30
0.0
 40
0.1615554715077975
100
AcDbArc
 50
286.7025676922722
 51
316.7307117338891
  0
SPLINE
  5
6B
330
1F
100
AcDbEntity
  8
Default
100
AcDbSpline
210
0.0
220
0.0
230
1.0
 70
     8
 71
     3
 72
    13
 73
     9
 74
     0
 42
0.0000000001
 43
0.0000000001
 40
-0.9665834343949399
 40
-0.9665834343949399
 40
-0.9665834343949399
 40
-0.9665834343949399
 40
-0.888888887157098
 40
-0.7777777735693449
 40
-0.6666666599815917
 40
-0.5555555463938384
 40
-0.4444444328059852
 40
-0.3380416828485367
 40
-0.3380416828485367
 40
-0.3380416828485367
 40
-0.3380416828485367
 10
26.99852550169985
 20
16.29440653071072
 30
0.0
 10
26.99063387157102
 20
16.29203854270904
 30
0.0
 10
26.97041049409307
 20
16.28779880172927
 30
0.0
 10
26.93191222377155
 20
16.28842206822642
 30
0.0
 10
26.88318912294315
 20
16.30399552050918
 30
0.0
 10
26.83339300583521
 20
16.33569616948265
 30
0.0
 10
26.78718170574334
 20
16.38018984933721
 30
0.0
 10
26.75898852559274
 20
16.41700906415871
 30
0.0
 10
26.74597943775188
 20
16.43641896108758
 30
0.0
  0
SPLINE
  5
6C
330
1F
100
AcDbEntity
  8
Default
100
AcDbSpline
210
0.0
220
0.0
230
1.0
 70
    12
 71
     3
 72
    11
 73
     7
 74
     0
 42
0.0000000001
 43
0.0000000001
 40
-0.9999998306028092
 40
-0.9999998306028092
 40
-0.9999998306028092
 40
-0.9999998306028092
 40
-0.8571428013020568
 40
-0.7142856026039475
 40
-0.5714284039059381
 40
-0.4999998045568834
 40
-0.4999998045568834
 40
-0.4999998045568834
 40
-0.4999998045568834
 10
39.6623894860233
 20
17.0793490878297
 30
0.0
 41
1.0
 10
39.63810464598834
 20
17.06941346404463
 30
0.0
 41
1.0
 10
39.59261507142293
 20
17.0567640560383
 30
0.0
 41
1.0
 10
39.53261566003403
 20
17.05846108727098
 30
0.0
 41
1.0
 10
39.49117141760229
 20
17.07873836754798
 30
0.0
 41
1.0
 10
39.47339659756545
 20
17.09989569859077
 30
0.0
 41
1.0
 10
39.46832248810648
 20
17.10780063499091
 30
0.0
 41
1.0
  0
SPLINE
  5
6D
330
1F
100
AcDbEntity
  8
Default
100
AcDbSpline
210
0.0
220
0.0
230
1.0
 70
     8
 71
     5
 72
    12
 73
     6
 74
     0
 42
0.0000000001
 43
0.0000000001
 40
-1.0
 40
-1.0
 40
-1.0
 40
-1.0
 40
-1.0
 40
-1.0
 40
0.0
 40
0.0
 40
0.0
 40
0.0
 40
0.0
 40
0.0
 10
39.46832248810648
 20
17.10780063499091
 30
0.0
 10
39.44440326835593
 20
17.14506429916659
 30
0.0
 10
39.43881858546098
 20
17.1940967420111
 30
0.0
 10
39.45957570734743
 20
17.25002079415689
 30
0.0
 10
39.48217991678695
 20
17.28809650342897
 30
0.0
 10
39.50477259770156
 20
17.32617905206166
 30
0.0
  0
SPLINE
  5
6E
330
1F
100
AcDbEntity
  8
Default
100
AcDbSpline
210
0.0
220
0.0
230
1.0
 70
    12
 71
     2
 72
     6
 73
     3
 74
     0
 42
0.0000000001
 43
0.0000000001
 40
0.0
 40
0.0
 40
0.0
 40
0.6079819799708772
 40
0.6079819799708772
 40
0.6079819799708772
 10
39.50477259770156
 20
17.32617905206166
 30
0.0
 41
1.0
 10
39.65987632242873
 20
17.58762412634686
 30
0.0
 41
0.9999986178554586
 10
39.81410982608116
 20
17.84958350992248
 30
0.0
 41
1.0
  0
SPLINE
  5
6F
330
1F
100
AcDbEntity
  8
Default
100
AcDbSpline
210
0.0
220
0.0
230
1.0
 70
     8
 71
     5
 72
    12
 73
     6
 74
     0
 42
0.0000000001
 43
0.0000000001
 40
-1.0
 40
-1.0
 40
-1.0
 40
-1.0
 40
-1.0
 40
-1.0
 40
0.0
 40
0.0
 40
0.0
 40
0.0
 40
0.0
 40
0.0
 10
39.81410982608116
 20
17.84958350992248
 30
0.0
 10
39.82945966584919
 20
17.87565459349631
 30
0.0
 10
39.84480411316383
 20
17.90172885197825
 30
0.0
 10
39.82824603550222
 20
17.99427241323243
 30
0.0
 10
39.79799374519934
 20
17.9939288129251
 30
0.0
 10
39.76774159901117
 20
17.99357296095546
 30
0.0
  0
ARC
  5
70
330
1F
100
AcDbEntity
  8
Default
100
AcDbCircle
 10
40.86609110672879
 20
-75.3807307061951
 30
0.0
 40
93.38076331325607
100
AcDbArc
 50
90.67393154774001
 51
91.15875029397773
  0
POLYLINE
  5
71
330
1F
100
AcDbEntity
  8
Default
100
AcDb2dPolyline
 66
     1
 10
0.0
 20
0.0
 30
0.0
  0
VERTEX
  5
72
330
71
100
AcDbEntity
  8
Default
100
AcDbVertex
100
AcDb2dVertex
 10
38.97768655321653
 20
17.98093640193136
 30
0.0
  0
VERTEX
  5
73
330
71
100
AcDbEntity
  8
Default
100
AcDbVertex
100
AcDb2dVertex
 10
38.22499601472617
 20
17.96085141498158
 30
0.0
  0
VERTEX
  5
74
330
71
100
AcDbEntity
  8
Default
100
AcDbVertex
100
AcDb2dVertex
 10
37.26922583901802
 20
17.92290760317081
 30
0.0
  0
VERTEX
  5
75
330
71
100
AcDbEntity
  8
Default
100
AcDbVertex
100
AcDb2dVertex
 10
36.5191942316288
 20
17.88517723901154
 30
0.0
  0
SEQEND
  5
76
330
71
100
AcDbEntity
  8
Default
  0
SPLINE
  5
77
330
1F
100
AcDbEntity
  8
Default
100
AcDbSpline
210
0.0
220
0.0
230
1.0
 70
     8
 71
     3
 72
    15
 73
    11
 74
     0
 42
0.0000000001
 43
0.0000000001
 40
14.38485924692235
 40
14.38485924692235
 40
14.38485924692235
 40
14.38485924692235
 40
15.0
 40
16.0
 40
17.0
 40
18.0
 40
19.0
 40
20.0
 40
21.0
 40
22.0
 40
22.0
 40
22.0
 40
22.0
 10
36.51894724816037
 20
17.90691013197373
 30
0.0
 10
36.66590595002575
 20
17.91682618612511
 30
0.0
 10
37.05176256479166
 20
17.94293972350395
 30
0.0
 10
37.67664207867909
 20
17.98358945829259
 30
0.0
 10
38.39382165517821
 20
18.02371944857559
 30
0.0
 10
39.11180019032059
 20
18.05264737594658
 30
0.0
 10
39.82938430463918
 20
18.06483768700754
 30
0.0
 10
40.55064301615806
 20
18.02856295505781
 30
0.0
 10
41.25406427071704
 20
17.99183921700393
 30
0.0
 10
41.74975751113124
 20
17.77900837538617
 30
0.0
 10
41.71558736884117
 20
17.49375031904131
 30
0.0
  0
SPLINE
  5
78
330
1F
100
AcDbEntity
  8
Default
100
AcDbSpline
210
0.0
220
0.0
230
1.0
 70
     8
 71
     3
 72
    21
 73
    17
 74
     0
 42
0.0000000001
 43
0.0000000001
 40
0.0
 40
0.0
 40
0.0
 40
0.0
 40
1.0
 40
2.0
 40
3.0
 40
4.0
 40
5.0
 40
6.0
 40
7.0
 40
8.0
 40
9.0
 40
10.0
 40
11.0
 40
12.0
 40
13.0
 40
13.5134712697816
 40
13.5134712697816
 40
13.5134712697816
 40
13.5134712697816
 10
26.1928305938458
 20
17.70429386236898
 30
0.0
 10
26.43040572204157
 20
17.73439864358998
 30
0.0
 10
26.90862460204954
 20
17.76818776606718
 30
0.0
 10
27.62711513833082
 20
17.76460823822686
 30
0.0
 10
28.34533486149326
 20
17.75359565417386
 30
0.0
 10
29.06361390024449
 20
17.74359305174821
 30
0.0
 10
29.7818916936466
 20
17.73437771906842
 30
0.0
 10
30.5002065517717
 20
17.72810389956121
 30
0.0
 10
31.21854615604974
 20
17.72607933830847
 30
0.0
 10
31.93688422375817
 20
17.72840636397409
 30
0.0
 10
32.65519908127212
 20
17.73474165027273
 30
0.0
 10
33.37344546864145
 20
17.74690669491333
 30
0.0
 10
34.0914735040557
 20
17.76868238599855
 30
0.0
 10
34.80912101717772
 20
17.80055354363117
 30
0.0
 10
35.41000383820818
 20
17.8346656930843
 30
0.0
 10
35.77167885492739
 20
17.8575057288165
 30
0.0
 10
35.89437184949571
 20
17.86543327477855
 30
0.0
  0
SPLINE
  5
79
330
1F
100
AcDbEntity
  8
Default
100
AcDbSpline
210
0.0
220
0.0
230
1.0
 70
     8
 71
     3
 72
    20
 73
    16
 74
     0
 42
0.0000000001
 43
0.0000000001
 40
3.072659344090658
 40
3.072659344090658
 40
3.072659344090658
 40
3.072659344090658
 40
3.455124357712558
 40
3.54023324386009
 40
3.595660178871676
 40
3.626930224215666
 40
3.861208913882892
 40
4.061628228790531
 40
4.304356808173827
 40
4.977239982903842
 40
5.866678241057951
 40
6.144397678862488
 40
6.480624495968338
 40
10.93997226665676
 40
22.20463678737137
 40
22.20463678737137
 40
22.20463678737137
 40
22.20463678737137
 10
27.61187652297363
 20
17.01149652738479
 30
0.0
 10
27.50371783748258
 20
17.07899289501299
 30
0.0
 10
27.37122104347102
 20
17.16109739871314
 30
0.0
 10
27.22339764932843
 20
17.25349359897616
 30
0.0
 10
27.17559461350311
 20
17.28498295351079
 30
0.0
 10
27.08368961704844
 20
17.34005491135957
 30
0.0
 10
26.92575157335716
 20
17.37369633234687
 30
0.0
 10
26.70381842552393
 20
17.31433720311743
 30
0.0
 10
26.39753846803785
 20
17.09579621203969
 30
0.0
 10
26.03430196408493
 20
16.60812131596305
 30
0.0
 10
25.76548696573582
 20
16.05632452978847
 30
0.0
 10
25.6072362634107
 20
15.57943015113163
 30
0.0
 10
25.0319316175445
 20
13.98974426100827
 30
0.0
 10
23.22659551030574
 20
8.94961301497736
 30
0.0
 10
21.45691420814296
 20
4.016070053887773
 30
0.0
 10
20.18903460021255
 20
0.4817148795872157
 30
0.0
  0
SPLINE
  5
7A
330
1F
100
AcDbEntity
  8
Default
100
AcDbSpline
210
0.0
220
0.0
230
1.0
 70
     8
 71
     3
 72
     8
 73
     4
 74
     0
 42
0.0000000001
 43
0.0000000001
 40
0.0
 40
0.0
 40
0.0
 40
0.0
 40
0.590270014083163
 40
0.590270014083163
 40
0.590270014083163
 40
0.590270014083163
 10
26.92740969814815
 20
16.70187830585104
 30
0.0
 10
27.0969937367413
 20
16.60124236592098
 30
0.0
 10
27.25935027195067
 20
16.49092130600337
 30
0.0
 10
27.42686217634454
 20
16.38760859213492
 30
0.0
  0
ARC
  5
7B
330
1F
100
AcDbEntity
  8
Default
100
AcDbCircle
 10
33.77427314380282
 20
27.21656047883253
 30
0.0
 40
12.86927990781226
100
AcDbArc
 50
236.9010591863401
 51
238.1109002690994
  0
ARC
  5
7C
330
1F
100
AcDbEntity
  8
Default
100
AcDbCircle
 10
33.77427314380282
 20
27.21656047883253
 30
0.0
 40
12.86927990781226
100
AcDbArc
 50
236.7186895837633
 51
236.9010591863401
  0
SPLINE
  5
7D
330
1F
100
AcDbEntity
  8
Default
100
AcDbSpline
210
0.0
220
0.0
230
1.0
 70
     8
 71
     3
 72
    29
 73
    25
 74
     0
 42
0.0000000001
 43
0.0000000001
 40
0.0
 40
0.0
 40
0.0
 40
0.0
 40
1.0
 40
2.0
 40
3.0
 40
4.0
 40
5.0
 40
6.0
 40
7.0
 40
8.0
 40
9.0
 40
10.0
 40
11.0
 40
12.0
 40
13.0
 40
14.0
 40
15.0
 40
16.0
 40
17.0
 40
18.0
 40
19.0
 40
20.0
 40
21.0
 40
22.0
 40
22.0
 40
22.0
 40
22.0
 10
26.28968227062478
 20
15.43694193423693
 30
0.0
 10
26.46705450682785
 20
15.53196836741672
 30
0.0
 10
26.81372316429434
 20
15.72381141188055
 30
0.0
 10
27.31199013715508
 20
16.09582079304617
 30
0.0
 10
27.93372226246888
 20
16.08642636851838
 30
0.0
 10
28.52910205234042
 20
16.1136319390117
 30
0.0
 10
29.13089724445163
 20
16.14698546188635
 30
0.0
 10
29.73086347904342
 20
16.18069241866755
 30
0.0
 10
30.33124187627828
 20
16.21567780292007
 30
0.0
 10
30.93146603267186
 20
16.25106701821493
 30
0.0
 10
31.53172474603377
 20
16.28646810960632
 30
0.0
 10
32.13200369318207
 20
16.32135877447649
 30
0.0
 10
32.73234245563006
 20
16.35525526062466
 30
0.0
 10
33.33276385336524
 20
16.38764967777693
 30
0.0
 10
33.93328392154442
 20
16.41816923969976
 30
0.0
 10
34.53391275459637
 20
16.44647324562632
 30
0.0
 10
35.13465729994857
 20
16.47219254827588
 30
0.0
 10
35.73552381547051
 20
16.49501924698465
 30
0.0
 10
36.3364961885386
 20
16.51433936393472
 30
0.0
 10
36.9376202402226
 20
16.53067695161515
 30
0.0
 10
37.53868839117877
 20
16.53985976447235
 30
0.0
 10
38.14046478059072
 20
16.55140419333344
 30
0.0
 10
38.73993698614072
 20
16.52270775759948
 30
0.0
 10
39.14436892371288
 20
16.52972695928476
 30
0.0
 10
39.33761555470375
 20
16.48448259626021
 30
0.0
  0
SPLINE
  5
7E
330
1F
100
AcDbEntity
  8
Default
100
AcDbSpline
210
0.0
220
0.0
230
1.0
 70
    12
 71
     2
 72
     6
 73
     3
 74
     0
 42
0.0000000001
 43
0.0000000001
 40
0.0
 40
0.0
 40
0.0
 40
0.2902472779686798
 40
0.2902472779686798
 40
0.2902472779686798
 10
39.33761555470375
 20
16.48448259626021
 30
0.0
 41
1.0
 10
39.42821544253444
 20
16.36499991991053
 30
0.0
 41
0.9524295801573665
 10
39.43262349539947
 20
16.21511656962588
 30
0.0
 41
1.0
  0
SPLINE
  5
7F
330
1F
100
AcDbEntity
  8
Default
100
AcDbSpline
210
0.0
220
0.0
230
1.0
 70
    24
 71
     2
 72
     6
 73
     3
 74
     0
 42
0.0000000001
 43
0.0000000001
 40
0.0
 40
0.0
 40
0.0
 40
0.4851080627875484
 40
0.4851080627875484
 40
0.4851080627875484
 10
40.42047291242869
 20
17.14374683758818
 30
0.0
 10
40.58513252045418
 20
17.32184701060961
 30
0.0
 10
40.74979212847967
 20
17.49994718363104
 30
0.0
  0
SPLINE
  5
80
330
1F
100
AcDbEntity
  8
Default
100
AcDbSpline
210
0.0
220
0.0
230
1.0
 70
     8
 71
     5
 72
    12
 73
     6
 74
     0
 42
0.0000000001
 43
0.0000000001
 40
0.0
 40
0.0
 40
0.0
 40
0.0
 40
0.0
 40
0.0
 40
1.0
 40
1.0
 40
1.0
 40
1.0
 40
1.0
 40
1.0
 10
40.74979212847967
 20
17.49994718363104
 30
0.0
 10
40.75515461097888
 20
17.50574738607526
 30
0.0
 10
40.76051709347809
 20
17.51154758851948
 30
0.0
 10
40.76377188918525
 20
17.52219193446604
 30
0.0
 10
40.76250964133845
 20
17.52999024166472
 30
0.0
 10
40.76115764513241
 20
17.53777295797764
 30
0.0
  0
ARC
  5
81
330
1F
100
AcDbEntity
  8
Default
100
AcDbCircle
 10
39.91753953082542
 20
17.39122149137174
 30
0.0
 40
0.8562527986238759
100
AcDbArc
 50
9.854947301369847
 51
20.9112243649894
  0
ARC
  5
82
330
1F
100
AcDbEntity
  8
Default
100
AcDbCircle
 10
40.30642832664358
 20
17.53981098183775
 30
0.0
 40
0.4399436200199848
100
AcDbArc
 50
20.91122436498918
 51
61.04152877458782
  0
ARC
  5
83
330
1F
100
AcDbEntity
  8
Default
100
AcDbCircle
 10
40.49216344732105
 20
17.75000089004952
 30
0.0
 40
0.176863678087805
100
AcDbArc
 50
81.12879578554993
 51
124.155460874892
  0
ARC
  5
84
330
1F
100
AcDbEntity
  8
Default
100
AcDbCircle
 10
40.68076679942607
 20
17.4720149011634
 30
0.0
 40
0.5127914001386297
100
AcDbArc
 50
124.1554608748885
 51
145.574854822244
  0
SPLINE
  5
85
330
1F
100
AcDbEntity
  8
Default
100
AcDbSpline
210
0.0
220
0.0
230
1.0
 70
    12
 71
     2
 72
     6
 73
     3
 74
     0
 42
0.0000000001
 43
0.0000000001
 40
-0.2802268561213049
 40
-0.2802268561213049
 40
-0.2802268561213049
 40
0.0
 40
0.0
 40
0.0
 10
40.25778287812005
 20
17.76191078311535
 30
0.0
 41
1.0
 10
40.18090595370286
 20
17.64477084038019
 30
0.0
 41
0.9999979000070748
 10
40.10354954622778
 20
17.5279469818821
 30
0.0
 41
1.0
  0
SPLINE
  5
86
330
1F
100
AcDbEntity
  8
Default
100
AcDbSpline
210
0.0
220
0.0
230
1.0
 70
    24
 71
     2
 72
     6
 73
     3
 74
     0
 42
0.0000000001
 43
0.0000000001
 40
-0.4367422323002912
 40
-0.4367422323002912
 40
-0.4367422323002912
 40
0.0
 40
0.0
 40
0.0
 10
39.96811676294664
 20
16.65446650077415
 30
0.0
 10
39.81987390674567
 20
16.49412311938893
 30
0.0
 10
39.6716310505447
 20
16.33377973800371
 30
0.0
  0
SPLINE
  5
87
330
1F
100
AcDbEntity
  8
Default
100
AcDbSpline
210
0.0
220
0.0
230
1.0
 70
    12
 71
     2
 72
     6
 73
     3
 74
     0
 42
0.0000000001
 43
0.0000000001
 40
0.0
 40
0.0
 40
0.0
 40
0.2728207151404825
 40
0.2728207151404825
 40
0.2728207151404825
 10
39.6716310505447
 20
16.33377973800371
 30
0.0
 41
1.0
 10
39.57471497279841
 20
16.22895273189374
 30
0.0
 41
0.934565310779701
 10
39.43262349539947
 20
16.21511656962588
 30
0.0
 41
1.0
  0
SPLINE
  5
88
330
1F
100
AcDbEntity
  8
Default
100
AcDbSpline
210
0.0
220
0.0
230
1.0
 70
     8
 71
     3
 72
    16
 73
    12
 74
     0
 42
0.0000000001
 43
0.0000000001
 40
0.0
 40
0.0
 40
0.0
 40
0.0
 40
0.3836354827963281
 40
1.14581517223897
 40
1.635572598331663
 40
2.767759658741936
 40
6.690822763683638
 40
10.76062507274415
 40
11.61906274491063
 40
12.27961164238415
 40
13.18664182356075
 40
13.18664182356075
 40
13.18664182356075
 40
13.18664182356075
 10
39.43262349539947
 20
16.21511656962588
 30
0.0
 10
39.30539596733075
 20
16.20111854412288
 30
0.0
 10
38.92357914098426
 20
16.18639690555706
 30
0.0
 10
38.37849467031577
 20
16.18567210999996
 30
0.0
 10
37.58386289195101
 20
16.16262098252692
 30
0.0
 10
35.7400780424127
 20
16.0277261223016
 30
0.0
 10
32.71694443796488
 20
15.69315789696854
 30
0.0
 10
29.77912630689391
 20
15.41218002701548
 30
0.0
 10
27.91896389069919
 20
15.31192232077802
 30
0.0
 10
27.10962629403869
 20
15.29704441340623
 30
0.0
 10
26.58884160255278
 20
15.35866059925951
 30
0.0
 10
26.29561149704418
 20
15.43546673741567
 30
0.0
  0
ARC
  5
89
330
1F
100
AcDbEntity
  8
Default
100
AcDbCircle
 10
26.32100721636291
 20
15.53242239270665
 30
0.0
 40
0.1002264518608673
100
AcDbArc
 50
210.4284332576773
 51
255.32218479192
  0
SPLINE
  5
8A
330
1F
100
AcDbEntity
  8
Default
100
AcDbSpline
210
0.0
220
0.0
230
1.0
 70
    12
 71
     2
 72
     8
 73
     5
 74
     0
 42
0.0000000001
 43
0.0000000001
 40
-0.0366507379431634
 40
-0.0366507379431634
 40
-0.0366507379431634
 40
-0.035329798076913
 40
-0.035329798076913
 40
0.0
 40
0.0
 40
0.0
 10
25.24255362924455
 20
17.09847433857115
 30
0.0
 41
1.0
 10
25.24235514220986
 20
17.0978443496161
 30
0.0
 41
0.9998922934343438
 10
25.24217523083874
 20
17.0972088064744
 30
0.0
 41
1.0
 10
25.23710027849375
 20
17.07928135891245
 30
0.0
 41
0.9239355742691507
 10
25.24618359991095
 20
17.06301354438736
 30
0.0
 41
1.0
  0
SPLINE
  5
8B
330
1F
100
AcDbEntity
  8
Default
100
AcDbSpline
210
0.0
220
0.0
230
1.0
 70
    24
 71
     2
 72
     6
 73
     3
 74
     0
 42
0.0000000001
 43
0.0000000001
 40
0.0
 40
0.0
 40
0.0
 40
1.121213206560706
 40
1.121213206560706
 40
1.121213206560706
 10
25.24618359991095
 20
17.06301354438736
 30
0.0
 10
25.51948735926621
 20
16.57353952182455
 30
0.0
 10
25.79279111862147
 20
16.08406549926174
 30
0.0
  0
SPLINE
  5
8C
330
1F
100
AcDbEntity
  8
Default
100
AcDbSpline
210
0.0
220
0.0
230
1.0
 70
    12
 71
     2
 72
     6
 73
     3
 74
     0
 42
0.0000000001
 43
0.0000000001
 40
0.0140783212356289
 40
0.0140783212356289
 40
0.0140783212356289
 40
0.5155214019379943
 40
0.5155214019379943
 40
0.5155214019379943
 10
25.71618684782491
 20
17.26307048314688
 30
0.0
 41
0.999991444577431
 10
25.47793343735771
 20
17.18490686982528
 30
0.0
 41
0.9998433583321787
 10
25.24255362700788
 20
17.09847433586729
 30
0.0
 41
1.0
  0
SPLINE
  5
8D
330
1F
100
AcDbEntity
  8
Default
100
AcDbSpline
210
0.0
220
0.0
230
1.0
 70
    12
 71
     2
 72
     6
 73
     3
 74
     0
 42
0.0000000001
 43
0.0000000001
 40
-0.9498278138794916
 40
-0.9498278138794916
 40
-0.9498278138794916
 40
0.0
 40
0.0
 40
0.0
 10
25.24255362700788
 20
17.09847433586729
 30
0.0
 41
1.0
 10
24.77520582248753
 20
17.18297724466026
 30
0.0
 41
0.9999617842354052
 10
24.30044619841883
 20
17.26027498073087
 30
0.0
 41
1.0
  0
SPLINE
  5
8E
330
1F
100
AcDbEntity
  8
Default
100
AcDbSpline
210
0.0
220
0.0
230
1.0
 70
    12
 71
     2
 72
     8
 73
     5
 74
     0
 42
0.0000000001
 43
0.0000000001
 40
0.0
 40
0.0
 40
0.0
 40
0.078609932070983
 40
0.078609932070983
 40
0.157219864141966
 40
0.157219864141966
 40
0.157219864141966
 10
24.30044619841883
 20
17.26027498073087
 30
0.0
 41
1.0
 10
24.25953316831978
 20
17.267002357149
 30
0.0
 41
0.9237452735763237
 10
24.23538389381426
 20
17.30070615762045
 30
0.0
 41
1.0
 10
24.21123461930884
 20
17.3344099580919
 30
0.0
 41
0.9237452735763237
 10
24.21801937977031
 20
17.37531351112632
 30
0.0
 41
1.0
  0
SPLINE
  5
8F
330
1F
100
AcDbEntity
  8
Default
100
AcDbSpline
210
0.0
220
0.0
230
1.0
 70
    12
 71
     3
 72
    18
 73
    14
 74
     0
 42
0.0000000001
 43
0.0000000001
 40
-1.0
 40
-1.0
 40
-1.0
 40
-1.0
 40
-0.9261952889690555
 40
-0.8523905779375902
 40
-0.7785858669061252
 40
-0.7047811558746601
 40
-0.630976444843195
 40
-0.5925058527700497
 40
-0.5925058527700497
 40
-0.5925058527700497
 40
-0.4774490413905986
 40
-0.3425944813895554
 40
0.1299319075506775
 40
0.1299319075506775
 40
0.1299319075506775
 40
0.1299319075506775
 10
24.21801937977031
 20
17.37531351112632
 30
0.0
 41
1.0
 10
24.23178307178412
 20
17.45829160879092
 30
0.0
 41
1.0
 10
24.25621506469335
 20
17.54604340958146
 30
0.0
 41
1.0
 10
24.31748257326657
 20
17.66305755680743
 30
0.0
 41
1.0
 10
24.40088849926605
 20
17.7660897111015
 30
0.0
 41
1.0
 10
24.50395174092981
 20
17.85577143348769
 30
0.0
 41
1.0
 10
24.60500292170968
 20
17.92045225713068
 30
0.0
 41
1.0
 10
24.67164218107155
 20
17.95481672780848
 30
0.0
 41
1.0
 10
24.69508268560929
 20
17.96605909530658
 30
0.0
 41
1.0
 10
24.72968116775291
 20
17.98261517633598
 30
0.0
 41
1.0
 10
24.80613038299308
 20
18.01577981675862
 30
0.0
 41
1.0
 10
25.03160236215092
 20
18.10053901597182
 30
0.0
 41
1.0
 10
25.22501513158912
 20
18.16070163434793
 30
0.0
 41
1.0
 10
25.37405530620234
 20
18.21162255713008
 30
0.0
 41
1.0
  0
SPLINE
  5
90
330
1F
100
AcDbEntity
  8
Default
100
AcDbSpline
210
0.0
220
0.0
230
1.0
 70
    12
 71
     2
 72
    10
 73
     7
 74
     0
 42
0.0000000001
 43
0.0000000001
 40
0.0
 40
0.0
 40
0.0
 40
0.0031302355222113
 40
0.0031302355222113
 40
0.0063224148406272
 40
0.0063224148406272
 40
0.009567157387133
 40
0.009567157387133
 40
0.009567157387133
 10
28.62821048011446
 20
17.68220155754406
 30
0.0
 41
1.0
 10
28.62664544858723
 20
17.6822179905243
 30
0.0
 41
0.9999999638889818
 10
28.62508040845361
 20
17.6822335823241
 30
0.0
 41
1.0
 10
28.62348439805278
 20
17.68224949209603
 30
0.0
 41
0.9999999646320399
 10
28.62188837941497
 20
17.68226455290869
 30
0.0
 41
1.0
 10
28.62026608028074
 20
17.68227985648654
 30
0.0
 41
0.9999999623331074
 10
28.61864377299017
 20
17.6822942695172
 30
0.0
 41
1.0
  0
SPLINE
  5
91
330
1F
100
AcDbEntity
  8
Default
100
AcDbSpline
210
0.0
220
0.0
230
1.0
 70
    12
 71
     3
 72
    12
 73
     8
 74
     0
 42
0.0000000001
 43
0.0000000001
 40
-1.0
 40
-1.0
 40
-1.0
 40
-1.0
 40
-0.9376968437737838
 40
-0.9376968437737838
 40
-0.8753936875475677
 40
-0.8753936875475677
 40
-0.751951690753105
 40
-0.751951690753105
 40
-0.751951690753105
 40
-0.751951690753105
 10
24.30044619841883
 20
17.26027498073087
 30
0.0
 41
1.0
 10
24.30045447522471
 20
17.26027357395508
 30
0.0
 41
1.0
 10
24.33478607998993
 20
17.27274690709288
 30
0.0
 41
1.0
 10
24.48527454418456
 20
17.3212271530678
 30
0.0
 41
1.0
 10
24.60014188480781
 20
17.35637799328362
 30
0.0
 41
1.0
 10
24.95836249260597
 20
17.45663933618226
 30
0.0
 41
1.0
 10
25.23525696090002
 20
17.5223863617949
 30
0.0
 41
1.0
 10
25.56169288752113
 20
17.59569345287677
 30
0.0
 41
1.0
  0
SPLINE
  5
92
330
1F
100
AcDbEntity
  8
Default
100
AcDbSpline
210
0.0
220
0.0
230
1.0
 70
    12
 71
     2
 72
     6
 73
     3
 74
     0
 42
0.0000000001
 43
0.0000000001
 40
0.3513254019723509
 40
0.3513254019723509
 40
0.3513254019723509
 40
4.273950401093918
 40
4.273950401093918
 40
4.273950401093918
 10
-9.445061943537745
 20
57.24631339474809
 30
0.0
 41
0.9999999999671727
 10
-9.927328054479489
 20
59.14740942602959
 30
0.0
 41
0.9999999998003243
 10
-10.40966695735756
 20
61.04848699011947
 30
0.0
 41
1.0
  0
SPLINE
  5
93
330
1F
100
AcDbEntity
  8
Default
100
AcDbSpline
210
0.0
220
0.0
230
1.0
 70
    12
 71
     2
 72
     8
 73
     5
 74
     0
 42
0.0000000001
 43
0.0000000001
 40
-3.141592653589793
 40
-3.141592653589793
 40
-3.141592653589793
 40
-1.570796326794897
 40
-1.570796326794897
 40
0.0
 40
0.0
 40
0.0
 10
-10.40966695735756
 20
61.04848699011947
 30
0.0
 41
1.0
 10
-10.48339379980978
 20
61.33234390868508
 30
0.0
 41
0.7071067811865475
 10
-10.18092473302875
 20
61.41090492930752
 30
0.0
 41
1.0
 10
-9.878455666247687
 20
61.48946594992994
 30
0.0
 41
0.7071067811865475
 10
-9.804728823795415
 20
61.20560903136433
 30
0.0
 41
1.0
  0
SPLINE
  5
94
330
1F
100
AcDbEntity
  8
Default
100
AcDbSpline
210
0.0
220
0.0
230
1.0
 70
    12
 71
     2
 72
     6
 73
     3
 74
     0
 42
0.0000000001
 43
0.0000000001
 40
0.0
 40
0.0
 40
0.0
 40
3.387889160777968
 40
3.387889160777968
 40
3.387889160777968
 10
-9.804728823795415
 20
61.20560903136433
 30
0.0
 41
1.0
 10
-9.388087393482536
 20
59.56370216360712
 30
0.0
 41
0.999999999344281
 10
-8.971560470600345
 20
57.9217662433138
 30
0.0
 41
0.9999999999044751
  0
SPLINE
  5
95
330
1F
100
AcDbEntity
  8
Default
100
AcDbSpline
210
0.0
220
0.0
230
1.0
 70
     8
 71
     3
 72
    11
 73
     7
 74
     0
 42
0.0000000001
 43
0.0000000001
 40
0.367199661816152
 40
0.367199661816152
 40
0.367199661816152
 40
0.367199661816152
 40
0.4415046959315846
 40
0.7590491135579212
 40
1.337208144879482
 40
1.877946066593944
 40
1.877946066593944
 40
1.877946066593944
 40
1.877946066593944
 10
9.001891545663113
 20
55.50403615308218
 30
0.0
 10
8.994198578833675
 20
55.48030885426166
 30
0.0
 10
8.947337644527664
 20
55.35690057567639
 30
0.0
 10
8.729623184661136
 20
55.11166670147904
 30
0.0
 10
8.331319996529771
 20
54.84327059704635
 30
0.0
 10
8.00216240537037
 20
54.66738645170598
 30
0.0
 10
7.839028765294586
 20
54.59076193345534
 30
0.0
  0
SPLINE
  5
96
330
1F
100
AcDbEntity
  8
Default
100
AcDbSpline
210
0.0
220
0.0
230
1.0
 70
    12
 71
     2
 72
     6
 73
     3
 74
     0
 42
0.0000000001
 43
0.0000000001
 40
0.3511619944637618
 40
0.3511619944637618
 40
0.3511619944637618
 40
4.273950401093918
 40
4.273950401093918
 40
4.273950401093918
 10
9.44511342988311
 20
57.24615500419782
 30
0.0
 41
0.9999999999671866
 10
9.927399627886112
 20
59.14733023152374
 30
0.0
 41
0.999999999800316
 10
10.40975862389018
 20
61.04848699011947
 30
0.0
 41
1.0
  0
SPLINE
  5
97
330
1F
100
AcDbEntity
  8
Default
100
AcDbSpline
210
0.0
220
0.0
230
1.0
 70
    12
 71
     2
 72
     8
 73
     5
 74
     0
 42
0.0000000001
 43
0.0000000001
 40
-3.141592653589793
 40
-3.141592653589793
 40
-3.141592653589793
 40
-1.570796326794897
 40
-1.570796326794897
 40
0.0
 40
0.0
 40
0.0
 10
10.40975862389018
 20
61.04848699011947
 30
0.0
 41
1.0
 10
10.48348546634247
 20
61.33234390868508
 30
0.0
 41
0.7071067811865475
 10
10.18101639956137
 20
61.41090492930752
 30
0.0
 41
1.0
 10
9.878547332780377
 20
61.48946594992994
 30
0.0
 41
0.7071067811865475
 10
9.80482049032804
 20
61.20560903136433
 30
0.0
 41
1.0
  0
SPLINE
  5
98
330
1F
100
AcDbEntity
  8
Default
100
AcDbSpline
210
0.0
220
0.0
230
1.0
 70
    12
 71
     2
 72
     6
 73
     3
 74
     0
 42
0.0000000001
 43
0.0000000001
 40
0.0
 40
0.0
 40
0.0
 40
3.388291814754154
 40
3.388291814754154
 40
3.388291814754154
 10
9.80482049032804
 20
61.20560903136433
 30
0.0
 41
1.0
 10
9.38812954176929
 20
59.56350702135249
 30
0.0
 41
0.999999999344203
 10
8.971553127861466
 20
57.92137595189877
 30
0.0
 41
0.9999999999046083
  0
SPLINE
  5
99
330
1F
100
AcDbEntity
  8
Default
100
AcDbSpline
210
0.0
220
0.0
230
1.0
 70
     8
 71
     3
 72
    28
 73
    24
 74
     0
 42
0.0000000001
 43
0.0000000001
 40
0.1900663064005831
 40
0.1900663064005831
 40
0.1900663064005831
 40
0.1900663064005831
 40
0.5871082137682805
 40
0.9154150821564446
 40
0.9778838870726413
 40
2.068746581379242
 40
2.140191876140482
 40
2.39528381715555
 40
2.668436731071679
 40
3.041639905824278
 40
3.577229340837432
 40
4.29628868326478
 40
4.672593611706117
 40
5.170751610783014
 40
11.59320049948239
 40
11.80940767275145
 40
11.8481453897627
 40
12.64686870551461
 40
13.31107621200096
 40
13.94370914049376
 40
14.35343583880153
 40
14.54755158745126
 40
15.65565149524929
 40
15.65565149524929
 40
15.65565149524929
 40
15.65565149524929
 10
-9.302826690003087
 20
45.08403263657068
 30
0.0
 10
-9.435171316310345
 20
45.08492202923655
 30
0.0
 10
-9.676946488078954
 20
45.08707145826014
 30
0.0
 10
-9.939582089649662
 20
45.09033413661783
 30
0.0
 10
-10.43264208895104
 20
45.11859573813277
 30
0.0
 10
-10.83976007349924
 20
45.15164504885962
 30
0.0
 10
-11.31137281237056
 20
45.17676167183501
 30
0.0
 10
-11.51010653873709
 20
45.23240862207707
 30
0.0
 10
-11.69383591781846
 20
45.49162778163522
 30
0.0
 10
-11.7898195283733
 20
45.8699089067504
 30
0.0
 10
-11.85039924408113
 20
46.41430486712676
 30
0.0
 10
-11.85821893090105
 20
46.95525612325675
 30
0.0
 10
-11.84954725203227
 20
47.48796298172775
 30
0.0
 10
-11.78190092074809
 20
49.91802724699909
 30
0.0
 10
-11.72394976044288
 20
52.2976990080214
 30
0.0
 10
-11.66425162909076
 20
54.52215290563571
 30
0.0
 10
-11.65274137959847
 20
54.87283959435885
 30
0.0
 10
-11.59303341691611
 20
55.37352682780511
 30
0.0
 10
-11.32716661804369
 20
56.02753393551072
 30
0.0
 10
-10.94466892301716
 20
56.46141304871904
 30
0.0
 10
-10.59660486272981
 20
56.68490376665369
 30
0.0
 10
-10.08253802023796
 20
56.93291125629975
 30
0.0
 10
-9.693026545794282
 20
57.12445630805401
 30
0.0
 10
-9.361527529098566
 20
57.28736553367131
 30
0.0
  0
SPLINE
  5
9A
330
1F
100
AcDbEntity
  8
Default
100
AcDbSpline
210
0.0
220
0.0
230
1.0
 70
     8
 71
     3
 72
    10
 73
     6
 74
     0
 42
0.0000000001
 43
0.0000000001
 40
0.0
 40
0.0
 40
0.0
 40
0.0
 40
1.123495812533734
 40
1.450478734032534
 40
1.843812184329861
 40
1.843812184329861
 40
1.843812184329861
 40
1.843812184329861
 10
-11.11947624643238
 20
45.79335966104637
 30
0.0
 10
-10.74559483489855
 20
45.77323487913358
 30
0.0
 10
-10.2638867112141
 20
45.72513072241475
 30
0.0
 10
-9.649459989909218
 20
45.71010721098663
 30
0.0
 10
-9.409300954757839
 20
45.70999292667446
 30
0.0
 10
-9.278185813035748
 20
45.70937851785509
 30
0.0
  0
SPLINE
  5
9B
330
1F
100
AcDbEntity
  8
Default
100
AcDbSpline
210
0.0
220
0.0
230
1.0
 70
     8
 71
     3
 72
    12
 73
     8
 74
     0
 42
0.0000000001
 43
0.0000000001
 40
0.1867402765915483
 40
0.1867402765915483
 40
0.1867402765915483
 40
0.1867402765915483
 40
0.365919733332667
 40
0.717573689150211
 40
1.305612602136335
 40
1.623786876013782
 40
1.697626498414134
 40
1.697626498414134
 40
1.697626498414134
 40
1.697626498414134
 10
-7.838820379746835
 20
54.59094686422502
 30
0.0
 10
-7.892971247468296
 20
54.61618884430226
 30
0.0
 10
-8.052287438443926
 20
54.69337037449791
 30
0.0
 10
-8.37756050233935
 20
54.87584494042474
 30
0.0
 10
-8.727603204859804
 20
55.10895120811088
 30
0.0
 10
-8.947369755591325
 20
55.3572925105538
 30
0.0
 10
-8.994223311253279
 20
55.48060435004425
 30
0.0
 10
-9.00186575012961
 20
55.50416655229316
 30
0.0
  0
SPLINE
  5
9C
330
1F
100
AcDbEntity
  8
Default
100
AcDbSpline
210
0.0
220
0.0
230
1.0
 70
     8
 71
     3
 72
    10
 73
     6
 74
     0
 42
0.0000000001
 43
0.0000000001
 40
0.4706816478133203
 40
0.4706816478133203
 40
0.4706816478133203
 40
0.4706816478133203
 40
0.629171715394806
 40
1.181695205124426
 40
1.762615134760281
 40
1.762615134760281
 40
1.762615134760281
 40
1.762615134760281
 10
8.683599469650659
 20
55.54099889023426
 30
0.0
 10
8.639401786594533
 20
55.51216460188763
 30
0.0
 10
8.431912383403983
 20
55.39554288226863
 30
0.0
 10
8.02986568634907
 20
55.23997306718422
 30
0.0
 10
7.668480444410051
 20
55.12928754303913
 30
0.0
 10
7.482555638705634
 20
55.07512329310135
 30
0.0
  0
SPLINE
  5
9D
330
1F
100
AcDbEntity
  8
Default
100
AcDbSpline
210
0.0
220
0.0
230
1.0
 70
     8
 71
     3
 72
    30
 73
    26
 74
     0
 42
0.0000000001
 43
0.0000000001
 40
0.3564495644872132
 40
0.3564495644872132
 40
0.3564495644872132
 40
0.3564495644872132
 40
1.463178567941903
 40
1.657085569866523
 40
2.065933459010143
 40
2.707689231000544
 40
3.364036194858314
 40
4.163033489543351
 40
4.201321283595033
 40
4.41752845686409
 40
10.83997734556349
 40
11.32845729316029
 40
11.70652853067966
 40
12.43890090770558
 40
12.96970659238362
 40
13.3422939720215
 40
13.61441553296895
 40
13.87035974071808
 40
13.94198957812409
 40
14.0587463275045
 40
14.91571435690441
 40
15.03282527240539
 40
15.09552528859832
 40
15.42173825568788
 40
15.82032611812052
 40
15.82032611812052
 40
15.82032611812052
 40
15.82032611812052
 10
9.362502106133547
 20
57.28675531926642
 30
0.0
 10
9.693586982096747
 20
57.12404357446003
 30
0.0
 10
10.08261156139946
 20
56.93271852280819
 30
0.0
 10
10.59574988894215
 20
56.68484721969634
 30
0.0
 10
10.94682731375838
 20
56.46028914830632
 30
0.0
 10
11.32760002603021
 20
56.02512956074628
 30
0.0
 10
11.59386266829711
 20
55.37095078479254
 30
0.0
 10
11.65192268627291
 20
54.87242964753088
 30
0.0
 10
11.66411212743262
 20
54.52205271027432
 30
0.0
 10
11.72121322683773
 20
52.29688176363126
 30
0.0
 10
11.78454690203438
 20
49.92228432524124
 30
0.0
 10
11.84801223037442
 20
47.49333951692631
 30
0.0
 10
11.86005549184742
 20
46.96052313354323
 30
0.0
 10
11.84795852418253
 20
46.4131899030254
 30
0.0
 10
11.79159786449625
 20
45.87048443056801
 30
0.0
 10
11.69171802533862
 20
45.48860616410579
 30
0.0
 10
11.51195477768201
 20
45.2378438628128
 30
0.0
 10
11.31087378290218
 20
45.17120534788356
 30
0.0
 10
11.16383240315247
 20
45.17253218719159
 30
0.0
 10
10.81558295246722
 20
45.14165503857259
 30
0.0
 10
10.45336377864248
 20
45.12592767588146
 30
0.0
 10
10.10829870253255
 20
45.09916961022125
 30
0.0
 10
9.939890588130993
 20
45.09095359649854
 30
0.0
 10
9.67736818447338
 20
45.08721186944006
 30
0.0
 10
9.43577805745997
 20
45.08495452515889
 30
0.0
 10
9.302918569979681
 20
45.08404216505593
 30
0.0
  0
SPLINE
  5
9E
330
1F
100
AcDbEntity
  8
Default
100
AcDbSpline
210
0.0
220
0.0
230
1.0
 70
     8
 71
     3
 72
    10
 73
     6
 74
     0
 42
0.0000000001
 43
0.0000000001
 40
0.1906184654935614
 40
0.1906184654935614
 40
0.1906184654935614
 40
0.1906184654935614
 40
0.5797167408312294
 40
0.9121186536164402
 40
2.034123885355988
 40
2.034123885355988
 40
2.034123885355988
 40
2.034123885355988
 10
9.278273106241215
 20
45.7094918671359
 30
0.0
 10
9.407976922569844
 20
45.71009887028369
 30
0.0
 10
9.648542339443111
 20
45.71000449861037
 30
0.0
 10
10.26285218567401
 20
45.72518484405947
 30
0.0
 10
10.74587982874354
 20
45.77323633828665
 30
0.0
 10
11.11926176728201
 20
45.79336217889396
 30
0.0
  0
SPLINE
  5
9F
330
1F
100
AcDbEntity
  8
Default
100
AcDbSpline
210
0.0
220
0.0
230
1.0
 70
     8
 71
     3
 72
    23
 73
    19
 74
     0
 42
0.0000000001
 43
0.0000000001
 40
0.3410995240392273
 40
0.3410995240392273
 40
0.3410995240392273
 40
0.3410995240392273
 40
0.6016112212411064
 40
0.7651517285122535
 40
1.162814379304571
 40
1.635503041923933
 40
1.967138085488069
 40
2.185282072618011
 40
2.50111650642436
 40
2.559039485083851
 40
6.265759787386938
 40
9.402176134657699
 40
9.699976590420055
 40
10.00176886240196
 40
10.88662058575995
 40
11.20286428711352
 40
11.32404580566024
 40
11.40304351153683
 40
11.40304351153683
 40
11.40304351153683
 40
11.40304351153683
 10
-9.93709068978842
 20
56.3097816677532
 30
0.0
 10
-10.01530198840049
 20
56.27207480271591
 30
0.0
 10
-10.14249157392464
 20
56.21043734889418
 30
0.0
 10
-10.38678707310868
 20
56.08622898777088
 30
0.0
 10
-10.65785715211669
 20
55.86577754592949
 30
0.0
 10
-10.86955863466986
 20
55.5190041895263
 30
0.0
 10
-10.96556410098927
 20
55.19030381766697
 30
0.0
 10
-11.01663785135108
 20
54.90651308723136
 30
0.0
 10
-11.03332527961487
 20
54.7093876501898
 30
0.0
 10
-11.07041820245192
 20
53.34981823310913
 30
0.0
 10
-11.12872965033336
 20
51.05009640466108
 30
0.0
 10
-11.19238228442808
 20
48.67070534290632
 30
0.0
 10
-11.22481415574538
 20
47.42576539205663
 30
0.0
 10
-11.23542076293748
 20
46.93116231614185
 30
0.0
 10
-11.22527398811437
 20
46.42961994312009
 30
0.0
 10
-11.17135362013954
 20
45.99163748539303
 30
0.0
 10
-11.13083225696951
 20
45.82412787082734
 30
0.0
 10
-11.10883537141996
 20
45.76089929675733
 30
0.0
 10
-11.0960068546735
 20
45.73782967135243
 30
0.0
  0
SPLINE
  5
A0
330
1F
100
AcDbEntity
  8
Default
100
AcDbSpline
210
0.0
220
0.0
230
1.0
 70
     8
 71
     3
 72
     8
 73
     4
 74
     0
 42
0.0000000001
 43
0.0000000001
 40
0.7320595036638385
 40
0.7320595036638385
 40
0.7320595036638385
 40
0.7320595036638385
 40
1.458824323608478
 40
1.458824323608478
 40
1.458824323608478
 40
1.458824323608478
 10
-7.653411868845836
 20
55.78043729444187
 30
0.0
 10
-7.42283484470741
 20
55.70625035561239
 30
0.0
 10
-7.189349087028518
 20
55.64126021504605
 30
0.0
 10
-6.956370126635306
 20
55.57481583479448
 30
0.0
  0
SPLINE
  5
A1
330
1F
100
AcDbEntity
  8
Default
100
AcDbSpline
210
0.0
220
0.0
230
1.0
 70
    12
 71
     2
 72
     6
 73
     3
 74
     0
 42
0.0000000001
 43
0.0000000001
 40
0.1915219795070785
 40
0.1915219795070785
 40
0.1915219795070785
 40
1.21074955253441
 40
1.21074955253441
 40
1.21074955253441
 10
8.142367980258783
 20
40.47394550837361
 30
0.0
 41
0.999999999478925
 10
8.494475868983187
 20
40.10553507608543
 30
0.0
 41
0.9999999983529533
 10
8.846544955164063
 20
39.73708756221588
 30
0.0
 41
1.0
  0
SPLINE
  5
A2
330
1F
100
AcDbEntity
  8
Default
100
AcDbSpline
210
0.0
220
0.0
230
1.0
 70
    12
 71
     2
 72
    10
 73
     7
 74
     0
 42
0.0000000001
 43
0.0000000001
 40
6.283120353693191
 40
6.283120353693191
 40
6.283120353693191
 40
6.283185307179586
 40
6.283185307179586
 40
7.853981633974483
 40
7.853981633974483
 40
9.42477796076938
 40
9.42477796076938
 40
9.42477796076938
 10
8.846544955164072
 20
39.73708756221586
 30
0.0
 41
0.9999757783377694
 10
8.846551230490453
 20
39.73708099626266
 30
0.0
 41
0.999987888668073
 10
8.846557506210843
 20
39.73707443068358
 30
0.0
 41
1.0
 10
9.061187659034927
 20
39.51253108771811
 30
0.0
 41
0.7071067811865475
 10
9.28708882393039
 20
39.72845911704343
 30
0.0
 41
1.0
 10
9.512989988825915
 20
39.94438714636875
 30
0.0
 41
0.7071067811865475
 10
9.29835983600185
 20
40.16893048933422
 30
0.0
 41
1.0
  0
SPLINE
  5
A3
330
1F
100
AcDbEntity
  8
Default
100
AcDbSpline
210
0.0
220
0.0
230
1.0
 70
    12
 71
     2
 72
     6
 73
     3
 74
     0
 42
0.0000000001
 43
0.0000000001
 40
0.0
 40
0.0
 40
0.0
 40
0.9758995232253262
 40
0.9758995232253262
 40
0.9758995232253262
 10
9.29835983600185
 20
40.16893048933422
 30
0.0
 41
1.0
 10
8.961255651612708
 20
40.52171333906259
 30
0.0
 41
0.9999999988246774
 10
8.624120136810774
 20
40.87446624812834
 30
0.0
 41
0.9999999996212968
  0
SPLINE
  5
A4
330
1F
100
AcDbEntity
  8
Default
100
AcDbSpline
210
0.0
220
0.0
230
1.0
 70
     8
 71
     3
 72
    11
 73
     7
 74
     0
 42
0.0000000001
 43
0.0000000001
 40
0.2047216840103696
 40
0.2047216840103696
 40
0.2047216840103696
 40
0.2047216840103696
 40
0.4651335185174335
 40
0.793242102531914
 40
1.335459591468316
 40
1.49712949800635
 40
1.49712949800635
 40
1.49712949800635
 40
1.49712949800635
 10
-7.482213174839558
 20
55.07541366047032
 30
0.0
 10
-7.565581971080576
 20
55.09953083118186
 30
0.0
 10
-7.753776396166074
 20
55.1546568841832
 30
0.0
 10
-8.11218958979066
 20
55.27266797483205
 30
0.0
 10
-8.43290654593983
 20
55.39638224402582
 30
0.0
 10
-8.638837163367214
 20
55.51159615257798
 30
0.0
 10
-8.683945864586804
 20
55.54104129267701
 30
0.0
  0
SPLINE
  5
A5
330
1F
100
AcDbEntity
  8
Default
100
AcDbSpline
210
0.0
220
0.0
230
1.0
 70
     8
 71
     3
 72
     9
 73
     5
 74
     0
 42
0.0000000001
 43
0.0000000001
 40
0.2351694018514209
 40
0.2351694018514209
 40
0.2351694018514209
 40
0.2351694018514209
 40
0.7410408828254953
 40
0.9619378587215621
 40
0.9619378587215621
 40
0.9619378587215621
 40
0.9619378587215621
 10
6.956800252884364
 20
55.57455593535485
 30
0.0
 10
7.118937228688367
 20
55.62087701480431
 30
0.0
 10
7.351966677795019
 20
55.68709454809697
 30
0.0
 10
7.583685191560619
 20
55.75785954264834
 30
0.0
 10
7.653814056759074
 20
55.78029099182949
 30
0.0
  0
SPLINE
  5
A6
330
1F
100
AcDbEntity
  8
Default
100
AcDbSpline
210
0.0
220
0.0
230
1.0
 70
    12
 71
     2
 72
     6
 73
     3
 74
     0
 42
0.0000000001
 43
0.0000000001
 40
0.1915216192638169
 40
0.1915216192638169
 40
0.1915216192638169
 40
1.21074955253441
 40
1.21074955253441
 40
1.21074955253441
 10
-8.142276182644052
 20
40.47394576880097
 30
0.0
 41
0.9999999994789258
 10
-8.494384195833737
 20
40.10553520631223
 30
0.0
 41
0.9999999983529527
 10
-8.846453406452497
 20
39.73708756221588
 30
0.0
 41
1.0
  0
SPLINE
  5
A7
330
1F
100
AcDbEntity
  8
Default
100
AcDbSpline
210
0.0
220
0.0
230
1.0
 70
    12
 71
     2
 72
    10
 73
     7
 74
     0
 42
0.0000000001
 43
0.0000000001
 40
6.283120353693191
 40
6.283120353693191
 40
6.283120353693191
 40
6.283185307179586
 40
6.283185307179586
 40
7.853981633974483
 40
7.853981633974483
 40
9.42477796076938
 40
9.42477796076938
 40
9.42477796076938
 10
-8.84645340645251
 20
39.73708756221586
 30
0.0
 41
0.9999757783377694
 10
-8.846459681778912
 20
39.73708099626266
 30
0.0
 41
0.999987888668073
 10
-8.846465957499277
 20
39.73707443068358
 30
0.0
 41
1.0
 10
-9.0610961103233
 20
39.51253108771811
 30
0.0
 41
0.7071067811865475
 10
-9.286997275218823
 20
39.72845911704343
 30
0.0
 41
1.0
 10
-9.512898440114288
 20
39.94438714636875
 30
0.0
 41
0.7071067811865475
 10
-9.298268287290284
 20
40.16893048933422
 30
0.0
 41
1.0
  0
SPLINE
  5
A8
330
1F
100
AcDbEntity
  8
Default
100
AcDbSpline
210
0.0
220
0.0
230
1.0
 70
    12
 71
     2
 72
     6
 73
     3
 74
     0
 42
0.0000000001
 43
0.0000000001
 40
0.0
 40
0.0
 40
0.0
 40
0.9759000131838009
 40
0.9759000131838009
 40
0.9759000131838009
 10
-9.298268287290284
 20
40.16893048933422
 30
0.0
 41
1.0
 10
-8.961163933655172
 20
40.52171351618015
 30
0.0
 41
0.9999999988246768
 10
-8.624028249575838
 20
40.87446660233339
 30
0.0
 41
0.9999999996212976
  0
SPLINE
  5
A9
330
1F
100
AcDbEntity
  8
Default
100
AcDbSpline
210
0.0
220
0.0
230
1.0
 70
     8
 71
     3
 72
    23
 73
    19
 74
     0
 42
0.0000000001
 43
0.0000000001
 40
0.0
 40
0.0
 40
0.0
 40
0.0
 40
0.0814541214124737
 40
0.2012973732027084
 40
0.517258268836158
 40
1.405403047486077
 40
1.703201372210841
 40
2.032239949731685
 40
5.137306540924704
 40
8.84399984142866
 40
8.919479311977021
 40
9.217775219545464
 40
9.447532639739466
 40
9.763435440203228
 40
10.23236429377954
 40
10.63805615788362
 40
10.80143020480002
 40
11.06142110356115
 40
11.06142110356115
 40
11.06142110356115
 40
11.06142110356115
 10
11.09575526925909
 20
45.73782967135243
 30
0.0
 10
11.10892707837803
 20
45.76164836841349
 30
0.0
 10
11.1309197742986
 20
45.82527092128794
 30
0.0
 10
11.17104037683222
 20
45.99309021003467
 30
0.0
 10
11.2261964674278
 20
46.43157689067425
 30
0.0
 10
11.23420773889106
 20
46.93289119495398
 30
0.0
 10
11.22482327424143
 20
47.43760420235355
 30
0.0
 10
11.19047757868375
 20
48.68120460407866
 30
0.0
 10
11.13020268195612
 20
51.06058679255455
 30
0.0
 10
11.06878533032645
 20
53.35560439532222
 30
0.0
 10
11.03298206757273
 20
54.71525455215624
 30
0.0
 10
11.01386331686231
 20
54.91582873985323
 30
0.0
 10
10.96570240668379
 20
55.19311899437977
 30
0.0
 10
10.86729560653683
 20
55.51796623729521
 30
0.0
 10
10.66141315787209
 20
55.86329309976003
 30
0.0
 10
10.38870360549777
 20
56.08505541197653
 30
0.0
 10
10.14228961038688
 20
56.21034031699653
 30
0.0
 10
10.01533589957069
 20
56.27190009661027
 30
0.0
 10
9.937293558903633
 20
56.30954362123506
 30
0.0
  0
SPLINE
  5
AA
330
1F
100
AcDbEntity
  8
Default
100
AcDbSpline
210
0.0
220
0.0
230
1.0
 70
    11
 71
     3
 72
    68
 73
    64
 74
     0
 42
0.0000000001
 43
0.0000000001
 40
-6.77394744848656
 40
-6.77394744848656
 40
-6.77394744848656
 40
-6.77394744848656
 40
-4.564301612044764
 40
-2.976319700504901
 40
-1.339986336680283
 40
-0.6766240644506467
 40
0.0
 40
0.0
 40
0.0
 40
0.6766240644512352
 40
1.339986336681168
 40
2.976319700505841
 40
4.564301612044863
 40
6.773947448485717
 40
6.773947448485717
 40
6.773947448485717
 40
7.880212550170685
 40
8.29159366747303
 40
9.047383395322335
 40
9.625090665583897
 40
10.05717264341607
 40
10.05717264341607
 40
10.05717264341607
 40
10.30325585565925
 40
10.58046908260174
 40
10.78359903922054
 40
11.47384165956548
 40
11.97840507999347
 40
12.07269359424015
 40
12.58739702162705
 40
13.47105659867495
 40
13.99648116455272
 40
14.5222912199697
 40
15.24574999827771
 40
18.15331676411529
 40
19.39940300984037
 40
20.1373233622245
 40
22.0959123023386
 40
22.0959123023386
 40
22.0959123023386
 40
24.05450410976468
 40
24.76675145350705
 40
26.03856770285565
 40
28.89571451314518
 40
29.67294339373327
 40
30.17085167017073
 40
30.72071548015717
 40
31.60556652924214
 40
32.12080399297396
 40
32.21526614168332
 40
32.71798690915775
 40
33.40822934216448
 40
33.61135926492121
 40
33.88930536467138
 40
34.13465631669315
 40
34.13465631669315
 40
34.13465631669315
 40
34.34295298318301
 40
34.56895918311234
 40
35.14396587569816
 40
35.90342492105904
 40
36.30758948154118
 40
37.41370621403677
 40
37.41370621403677
 40
37.41370621403677
 40
37.41370621403677
 10
6.789030507039655
 20
56.01416877607144
 30
0.0
 10
6.076000110121953
 20
56.1984393261223
 30
0.0
 10
4.721185091306097
 20
56.56955895888063
 30
0.0
 10
2.945619783401014
 20
56.932258665113
 30
0.0
 10
1.661850050038993
 20
57.11393699056867
 30
0.0
 10
0.672116986808021
 20
57.1894818065739
 30
0.0
 10
0.2256586497065598
 20
57.20222174259717
 30
0.0
 10
0.000046104736299
 20
57.20212278062351
 30
0.0
 10
-0.2255664402341608
 20
57.2022217425971
 30
0.0
 10
-0.6720247773358494
 20
57.18948180657362
 30
0.0
 10
-1.661757840567162
 20
57.11393699056845
 30
0.0
 10
-2.945527573929013
 20
56.93225866511258
 30
0.0
 10
-4.721092881833556
 20
56.56955895888036
 30
0.0
 10
-6.075822898020846
 20
56.19870323530966
 30
0.0
 10
-6.788794744177352
 20
56.01420627291631
 30
0.0
 10
-7.145951499109259
 20
55.92178419939626
 30
0.0
 10
-7.631734863096369
 20
55.78231281348578
 30
0.0
 10
-8.36689506965996
 20
55.59470378124133
 30
0.0
 10
-8.93790450549568
 20
55.4862558887646
 30
0.0
 10
-9.535111044218752
 20
55.4962480601359
 30
0.0
 10
-9.866649363157052
 20
55.707413168532
 30
0.0
 10
-9.942913209197542
 20
55.8334052970373
 30
0.0
 10
-9.985188212909264
 20
55.90324596173939
 30
0.0
 10
-10.02868165552061
 20
56.08154347152007
 30
0.0
 10
-9.942372500003557
 20
56.3155050128214
 30
0.0
 10
-9.746422106604683
 20
56.64997750046222
 30
0.0
 10
-9.49902979914853
 20
57.04716914223915
 30
0.0
 10
-9.285695446833756
 20
57.41892061293084
 30
0.0
 10
-9.095413029921843
 20
57.73766956077453
 30
0.0
 10
-8.827144917393127
 20
58.1592383182176
 30
0.0
 10
-8.353451219837837
 20
58.60106081978267
 30
0.0
 10
-7.81601903734844
 20
58.9571582117392
 30
0.0
 10
-7.294860564107864
 20
59.23888454459845
 30
0.0
 10
-6.027228308176774
 20
59.80058620553319
 30
0.0
 10
-4.461690557909634
 20
60.26306121889402
 30
0.0
 10
-2.855613387245711
 20
60.5467681032206
 30
0.0
 10
-1.551375691855526
 20
60.71005585905579
 30
0.0
 10
-0.6528845962408809
 20
60.76251275267596
 30
0.0
 10
0.0000454433638879
 20
60.7626518552818
 30
0.0
 10
0.6529664537206941
 20
60.76251708624567
 30
0.0
 10
1.542923901739329
 20
60.71056226168183
 30
0.0
 10
2.847291401982147
 20
60.54828964427711
 30
0.0
 10
4.436721641177684
 20
60.26733011010792
 30
0.0
 10
6.012694867380219
 20
59.80688328190519
 30
0.0
 10
7.273379199308096
 20
59.24855506882678
 30
0.0
 10
7.810456044698981
 20
58.96222967349771
 30
0.0
 10
8.346860790873592
 20
58.60452908919357
 30
0.0
 10
8.829239576580107
 20
58.1608082889277
 30
0.0
 10
9.095090619095572
 20
57.73459834523825
 30
0.0
 10
9.287548786084358
 20
57.41948924140475
 30
0.0
 10
9.498342366341262
 20
57.04456466662252
 30
0.0
 10
9.746910355673322
 20
56.65094236209313
 30
0.0
 10
9.94259291978392
 20
56.31503740175285
 30
0.0
 10
10.02882359420968
 20
56.08130908697939
 30
0.0
 10
9.985134096347053
 20
55.9029813037989
 30
0.0
 10
9.943005682260747
 20
55.83340575268492
 30
0.0
 10
9.907104020386612
 20
55.77411375309328
 30
0.0
 10
9.774082679718077
 20
55.63225487672554
 30
0.0
 10
9.459544750932082
 20
55.49533863504302
 30
0.0
 10
8.93278970234877
 20
55.48616432805257
 30
0.0
 10
8.363264493182385
 20
55.59591469540752
 30
0.0
 10
7.629752589162194
 20
55.78266061089484
 30
0.0
 10
7.146072849399786
 20
55.92189726969169
 30
0.0
 10
6.789030507039655
 20
56.01416877607144
 30
0.0
  0
SPLINE
  5
AB
330
1F
100
AcDbEntity
  8
Default
100
AcDbSpline
210
0.0
220
0.0
230
1.0
 70
     8
 71
     3
 72
    34
 73
    30
 74
     0
 42
0.0000000001
 43
0.0000000001
 40
-27.0
 40
-27.0
 40
-27.0
 40
-27.0
 40
-26.0
 40
-25.0
 40
-24.0
 40
-23.0
 40
-22.0
 40
-21.0
 40
-20.0
 40
-19.0
 40
-18.0
 40
-17.0
 40
-16.0
 40
-15.0
 40
-14.0
 40
-13.0
 40
-12.0
 40
-11.0
 40
-10.0
 40
-9.0
 40
-8.0
 40
-7.0
 40
-6.0
 40
-5.0
 40
-4.0
 40
-3.0
 40
-2.0
 40
-1.0
 40
0.0
 40
0.0
 40
0.0
 40
0.0
 10
-5.01483490805623
 20
56.47624467568328
 30
0.0
 10
-5.322582582600944
 20
56.36845459477964
 30
0.0
 10
-5.937568297067116
 20
56.15312434526529
 30
0.0
 10
-6.825708414681316
 20
55.73038132611912
 30
0.0
 10
-7.552143781296763
 20
55.05796267546062
 30
0.0
 10
-8.081259246367523
 20
54.22840588567988
 30
0.0
 10
-8.428175418212078
 20
53.30959159912835
 30
0.0
 10
-8.639396222077238
 20
52.35359552411865
 30
0.0
 10
-8.79854202256712
 20
51.3885451522419
 30
0.0
 10
-8.924335894980658
 20
50.41852325219272
 30
0.0
 10
-9.026992151194264
 20
49.44587768042196
 30
0.0
 10
-9.112864784057507
 20
48.47161249558089
 30
0.0
 10
-9.183225415242873
 20
47.49611017205721
 30
0.0
 10
-9.241137337988334
 20
46.51980720178501
 30
0.0
 10
-9.287049560730452
 20
45.54282602989662
 30
0.0
 10
-9.32217997897834
 20
44.56556882801393
 30
0.0
 10
-9.331441477757096
 20
43.58684096523125
 30
0.0
 10
-9.278614039334087
 20
42.61170668455365
 30
0.0
 10
-9.153234167803703
 20
41.63300215989157
 30
0.0
 10
-8.63095280328423
 20
40.77368482699666
 30
0.0
 10
-7.795189831613413
 20
40.22917677672874
 30
0.0
 10
-6.840531560207069
 20
39.98566877563159
 30
0.0
 10
-5.865224063302179
 20
39.90335619768122
 30
0.0
 10
-4.889427359215489
 20
39.83955995333033
 30
0.0
 10
-3.911824996198419
 20
39.80649396685396
 30
0.0
 10
-2.933978610763404
 20
39.78906923859182
 30
0.0
 10
-1.95597083573935
 20
39.78302826374927
 30
0.0
 10
-0.9779627782253613
 20
39.78266644057002
 30
0.0
 10
-0.3259565174899706
 20
39.78358708210096
 30
0.0
 10
0.0000461047349631
 20
39.78359821681867
 30
0.0
  0
SPLINE
  5
AC
330
1F
100
AcDbEntity
  8
Default
100
AcDbSpline
210
0.0
220
0.0
230
1.0
 70
     8
 71
     3
 72
    34
 73
    30
 74
     0
 42
0.0000000001
 43
0.0000000001
 40
0.0
 40
0.0
 40
0.0
 40
0.0
 40
1.0
 40
2.0
 40
3.0
 40
4.0
 40
5.0
 40
6.0
 40
7.0
 40
8.0
 40
9.0
 40
10.0
 40
11.0
 40
12.0
 40
13.0
 40
14.0
 40
15.0
 40
16.0
 40
17.0
 40
18.0
 40
19.0
 40
20.0
 40
21.0
 40
22.0
 40
23.0
 40
24.0
 40
25.0
 40
26.0
 40
27.0
 40
27.0
 40
27.0
 40
27.0
 10
0.0000461047349631
 20
39.78359821681867
 30
0.0
 10
0.3260487269598968
 20
39.78358708210096
 30
0.0
 10
0.9780549876952875
 20
39.78266644057002
 30
0.0
 10
1.956063045209277
 20
39.78302826374927
 30
0.0
 10
2.93407082023333
 20
39.78906923859182
 30
0.0
 10
3.911917205668345
 20
39.80649396685396
 30
0.0
 10
4.889519568685415
 20
39.83955995333033
 30
0.0
 10
5.865316272772105
 20
39.90335619768122
 30
0.0
 10
6.840623769676995
 20
39.98566877563159
 30
0.0
 10
7.79528204108334
 20
40.22917677672874
 30
0.0
 10
8.631045012754157
 20
40.77368482699666
 30
0.0
 10
9.153326377273629
 20
41.63300215989157
 30
0.0
 10
9.278706248804014
 20
42.61170668455365
 30
0.0
 10
9.331533687227022
 20
43.58684096523125
 30
0.0
 10
9.322272188448267
 20
44.56556882801393
 30
0.0
 10
9.287141770200378
 20
45.54282602989662
 30
0.0
 10
9.24122954745826
 20
46.51980720178501
 30
0.0
 10
9.1833176247128
 20
47.49611017205721
 30
0.0
 10
9.112956993527433
 20
48.47161249558089
 30
0.0
 10
9.02708436066419
 20
49.44587768042196
 30
0.0
 10
8.924428104450584
 20
50.41852325219272
 30
0.0
 10
8.798634232037045
 20
51.3885451522419
 30
0.0
 10
8.639488431547164
 20
52.35359552411865
 30
0.0
 10
8.428267627682004
 20
53.30959159912835
 30
0.0
 10
8.08135145583745
 20
54.22840588567988
 30
0.0
 10
7.55223599076669
 20
55.05796267546062
 30
0.0
 10
6.825800624151242
 20
55.73038132611912
 30
0.0
 10
5.937660506537043
 20
56.15312434526529
 30
0.0
 10
5.32267479207087
 20
56.36845459477964
 30
0.0
 10
5.014927117526156
 20
56.47624467568328
 30
0.0
  0
POLYLINE
  5
AD
330
1F
100
AcDbEntity
  8
Default
100
AcDb2dPolyline
 66
     1
 10
0.0
 20
0.0
 30
0.0
  0
VERTEX
  5
AE
330
AD
100
AcDbEntity
  8
Default
100
AcDbVertex
100
AcDb2dVertex
 10
-9.804728823795415
 20
61.20560903136433
 30
0.0
  0
VERTEX
  5
AF
330
AD
100
AcDbEntity
  8
Default
100
AcDbVertex
100
AcDb2dVertex
 10
-9.838089856463625
 20
61.30333892488713
 30
0.0
  0
SEQEND
  5
B0
330
AD
100
AcDbEntity
  8
Default
  0
SPLINE
  5
B1
330
1F
100
AcDbEntity
  8
Default
100
AcDbSpline
210
0.0
220
0.0
230
1.0
 70
    12
 71
     2
 72
     8
 73
     5
 74
     0
 42
0.0000000001
 43
0.0000000001
 40
0.0547772198907966
 40
0.0547772198907966
 40
0.0547772198907966
 40
1.570796326794897
 40
1.570796326794897
 40
3.041946464467495
 40
3.041946464467495
 40
3.041946464467495
 10
-9.838089856463613
 20
61.30333892488715
 30
0.0
 41
0.9802846623166819
 10
-9.933554029745714
 20
61.58299763876555
 30
0.0
 41
0.7173206300336504
 10
-10.21352020750493
 20
61.50253741119846
 30
0.0
 41
1.0
 10
-10.48206818488014
 20
61.42535869073575
 30
0.0
 41
0.7256869704680409
 10
-10.42859626309608
 20
61.14702012124546
 30
0.0
 41
0.9651969544960349
  0
POLYLINE
  5
B2
330
1F
100
AcDbEntity
  8
Default
100
AcDb2dPolyline
 66
     1
 10
0.0
 20
0.0
 30
0.0
  0
VERTEX
  5
B3
330
B2
100
AcDbEntity
  8
Default
100
AcDbVertex
100
AcDb2dVertex
 10
-10.4285962630961
 20
61.14702012124545
 30
0.0
  0
VERTEX
  5
B4
330
B2
100
AcDbEntity
  8
Default
100
AcDbVertex
100
AcDb2dVertex
 10
-10.40966695735756
 20
61.04848699011947
 30
0.0
  0
SEQEND
  5
B5
330
B2
100
AcDbEntity
  8
Default
  0
SPLINE
  5
B6
330
1F
100
AcDbEntity
  8
Default
100
AcDbSpline
210
0.0
220
0.0
230
1.0
 70
    12
 71
     2
 72
     8
 73
     5
 74
     0
 42
0.0000000001
 43
0.0000000001
 40
0.0
 40
0.0
 40
0.0
 40
1.570796326794897
 40
1.570796326794897
 40
3.141592653589793
 40
3.141592653589793
 40
3.141592653589793
 10
8.846544955164063
 20
39.73708756221588
 30
0.0
 41
1.0
 10
9.072590641774282
 20
39.50058767175526
 30
0.0
 41
0.7071067811865475
 10
9.298498082193134
 20
39.71650913531444
 30
0.0
 41
1.0
 10
9.524405522612067
 20
39.93243059887362
 30
0.0
 41
0.7071067811865475
 10
9.29835983600185
 20
40.16893048933422
 30
0.0
 41
1.0
  0
SPLINE
  5
B7
330
1F
100
AcDbEntity
  8
Default
100
AcDbSpline
210
0.0
220
0.0
230
1.0
 70
    12
 71
     2
 72
     8
 73
     5
 74
     0
 42
0.0000000001
 43
0.0000000001
 40
0.0
 40
0.0
 40
0.0
 40
1.570796326794897
 40
1.570796326794897
 40
3.141592653589793
 40
3.141592653589793
 40
3.141592653589793
 10
-8.846453406452497
 20
39.73708756221588
 30
0.0
 41
1.0
 10
-9.072499093062655
 20
39.50058767175526
 30
0.0
 41
0.7071067811865475
 10
-9.298406533481568
 20
39.71650913531444
 30
0.0
 41
1.0
 10
-9.524313973900442
 20
39.93243059887362
 30
0.0
 41
0.7071067811865475
 10
-9.298268287290284
 20
40.16893048933422
 30
0.0
 41
1.0
  0
POLYLINE
  5
B8
330
1F
100
AcDbEntity
  8
Default
100
AcDb2dPolyline
 66
     1
 10
0.0
 20
0.0
 30
0.0
  0
VERTEX
  5
B9
330
B8
100
AcDbEntity
  8
Default
100
AcDbVertex
100
AcDb2dVertex
 10
9.80482049032804
 20
61.20560903136433
 30
0.0
  0
VERTEX
  5
BA
330
B8
100
AcDbEntity
  8
Default
100
AcDbVertex
100
AcDb2dVertex
 10
9.838181522996251
 20
61.30333892488713
 30
0.0
  0
SEQEND
  5
BB
330
B8
100
AcDbEntity
  8
Default
  0
SPLINE
  5
BC
330
1F
100
AcDbEntity
  8
Default
100
AcDbSpline
210
0.0
220
0.0
230
1.0
 70
    12
 71
     2
 72
     8
 73
     5
 74
     0
 42
0.0000000001
 43
0.0000000001
 40
0.0547772198907966
 40
0.0547772198907966
 40
0.0547772198907966
 40
1.570796326794897
 40
1.570796326794897
 40
3.041946464467495
 40
3.041946464467495
 40
3.041946464467495
 10
9.838181522996296
 20
61.30333892488715
 30
0.0
 41
0.9802846623166819
 10
9.933645696278443
 20
61.58299763876555
 30
0.0
 41
0.7173206300336504
 10
10.21361187403755
 20
61.50253741119846
 30
0.0
 41
1.0
 10
10.48215985141275
 20
61.42535869073575
 30
0.0
 41
0.7256869704680409
 10
10.42868792962867
 20
61.14702012124546
 30
0.0
 41
0.9651969544960349
  0
POLYLINE
  5
BD
330
1F
100
AcDbEntity
  8
Default
100
AcDb2dPolyline
 66
     1
 10
0.0
 20
0.0
 30
0.0
  0
VERTEX
  5
BE
330
BD
100
AcDbEntity
  8
Default
100
AcDbVertex
100
AcDb2dVertex
 10
10.42868792962872
 20
61.14702012124545
 30
0.0
  0
VERTEX
  5
BF
330
BD
100
AcDbEntity
  8
Default
100
AcDbVertex
100
AcDb2dVertex
 10
10.40975862389018
 20
61.04848699011947
 30
0.0
  0
SEQEND
  5
C0
330
BD
100
AcDbEntity
  8
Default
  0
SPLINE
  5
C1
330
1F
100
AcDbEntity
  8
Default
100
AcDbSpline
210
0.0
220
0.0
230
1.0
 70
    12
 71
     2
 72
     6
 73
     3
 74
     0
 42
0.0000000001
 43
0.0000000001
 40
0.6159963332905799
 40
0.6159963332905799
 40
0.6159963332905799
 40
1.007732929697784
 40
1.007732929697784
 40
1.007732929697784
 10
6.942938736415819
 20
16.67458431438194
 30
0.0
 41
0.9999999666545952
 10
7.138797135093999
 20
16.67655363066351
 30
0.0
 41
0.9999999727244623
 10
7.334656099015888
 20
16.67846590440814
 30
0.0
 41
1.0
  0
SPLINE
  5
C2
330
1F
100
AcDbEntity
  8
Default
100
AcDbSpline
210
0.0
220
0.0
230
1.0
 70
    12
 71
     2
 72
     6
 73
     3
 74
     0
 42
0.0000000001
 43
0.0000000001
 40
0.438274976959408
 40
0.438274976959408
 40
0.438274976959408
 40
0.9239206335332605
 40
0.9239206335332605
 40
0.9239206335332605
 10
8.520386048456505
 20
17.32461914685413
 30
0.0
 41
0.9749701698320014
 10
8.69401727751838
 20
17.49803372150085
 30
0.0
 41
0.9728185663448559
 10
8.80336132175649
 20
17.71772509228059
 30
0.0
 41
0.9966315483107306
  0
SPLINE
  5
C3
330
1F
100
AcDbEntity
  8
Default
100
AcDbSpline
210
0.0
220
0.0
230
1.0
 70
     8
 71
     3
 72
    14
 73
    10
 74
     0
 42
0.0000000001
 43
0.0000000001
 40
0.0
 40
0.0
 40
0.0
 40
0.0
 40
15.07353752690674
 40
15.61606607545562
 40
15.71987706518217
 40
15.90764932555116
 40
16.68761530069579
 40
17.43763592182185
 40
17.94708653367299
 40
17.94708653367299
 40
17.94708653367299
 40
17.94708653367299
 10
9.383815545418884
 20
0.3170869111086034
 30
0.0
 10
9.016274334807974
 20
5.328108216029491
 30
0.0
 10
8.635345415343636
 20
10.51958714061476
 30
0.0
 10
8.251894732380492
 20
15.74542699503954
 30
0.0
 10
8.229990665510286
 20
16.02267637554657
 30
0.0
 10
8.177094859888655
 20
16.37602623036116
 30
0.0
 10
7.980466218787058
 20
16.92288034674722
 30
0.0
 10
7.516327474634721
 20
17.44095623658149
 30
0.0
 10
7.134231319143112
 20
17.62782227405835
 30
0.0
 10
6.971845002087321
 20
17.67771179553509
 30
0.0
  0
SPLINE
  5
C4
330
1F
100
AcDbEntity
  8
Default
100
AcDbSpline
210
0.0
220
0.0
230
1.0
 70
     8
 71
     3
 72
    15
 73
    11
 74
     0
 42
0.0000000001
 43
0.0000000001
 40
-17.90624517892207
 40
-17.90624517892207
 40
-17.90624517892207
 40
-17.90624517892207
 40
-4.373860374967535
 40
-2.878155509950694
 40
-2.234775102833745
 40
-2.12439570927585
 40
-1.53996251971187
 40
-1.028864930252648
 40
-0.5582263861420427
 40
-0.3953666329868553
 40
-0.3953666329868553
 40
-0.3953666329868553
 40
-0.3953666329868553
 10
8.760753014230318
 20
0.2677833140579082
 30
0.0
 10
8.430136148779411
 20
4.766426577875094
 30
0.0
 10
8.065334179853721
 20
9.762538257144826
 30
0.0
 10
7.681284498804928
 20
14.97217931518958
 30
0.0
 10
7.631179916773419
 20
15.72043637475986
 30
0.0
 10
7.58447154551925
 20
16.16405414062174
 30
0.0
 10
7.454338526933725
 20
16.55182988064701
 30
0.0
 10
7.113189649666367
 20
16.96155286247148
 30
0.0
 10
6.747977120722112
 20
17.11113295808718
 30
0.0
 10
6.536901007502422
 20
17.12384607488909
 30
0.0
 10
6.482673073571135
 20
17.12267273530775
 30
0.0
  0
SPLINE
  5
C5
330
1F
100
AcDbEntity
  8
Default
100
AcDbSpline
210
0.0
220
0.0
230
1.0
 70
    12
 71
     2
 72
     6
 73
     3
 74
     0
 42
0.0000000001
 43
0.0000000001
 40
0.6160895382280874
 40
0.6160895382280874
 40
0.6160895382280874
 40
1.007732929697784
 40
1.007732929697784
 40
1.007732929697784
 10
-6.942939726882114
 20
16.67458525148799
 30
0.0
 41
0.9999999666574848
 10
-7.138751525582104
 20
16.67655408564617
 30
0.0
 41
0.9999999727309519
 10
-7.33456388925481
 20
16.67846590440814
 30
0.0
 41
1.0
  0
SPLINE
  5
C6
330
1F
100
AcDbEntity
  8
Default
100
AcDbSpline
210
0.0
220
0.0
230
1.0
 70
     8
 71
     3
 72
    15
 73
    11
 74
     0
 42
0.0000000001
 43
0.0000000001
 40
-17.90624517892207
 40
-17.90624517892207
 40
-17.90624517892207
 40
-17.90624517892207
 40
-4.373860374967535
 40
-2.878155509950694
 40
-2.234775102833745
 40
-2.12439570927585
 40
-1.53996251971187
 40
-1.028864930252648
 40
-0.5582263861420427
 40
-0.3954582708672404
 40
-0.3954582708672404
 40
-0.3954582708672404
 40
-0.3954582708672404
 10
-8.76066080446924
 20
0.2677833140579082
 30
0.0
 10
-8.430043939018333
 20
4.766426577875094
 30
0.0
 10
-8.065241970092643
 20
9.762538257144826
 30
0.0
 10
-7.68119228904385
 20
14.97217931518958
 30
0.0
 10
-7.631087707012341
 20
15.72043637475986
 30
0.0
 10
-7.584379335758172
 20
16.16405414062174
 30
0.0
 10
-7.454246317172647
 20
16.55182988064701
 30
0.0
 10
-7.113097439905289
 20
16.96155286247148
 30
0.0
 10
-6.747914150365489
 20
17.1111209825043
 30
0.0
 10
-6.53686986344087
 20
17.12384239542373
 30
0.0
 10
-6.4826724027198
 20
17.12267471173212
 30
0.0
  0
SPLINE
  5
C7
330
1F
100
AcDbEntity
  8
Default
100
AcDbSpline
210
0.0
220
0.0
230
1.0
 70
     8
 71
     3
 72
    14
 73
    10
 74
     0
 42
0.0000000001
 43
0.0000000001
 40
0.0
 40
0.0
 40
0.0
 40
0.0
 40
15.07353752690674
 40
15.61606607545562
 40
15.71987706518217
 40
15.90764932555116
 40
16.68761530069579
 40
17.43763592182185
 40
17.94701549153331
 40
17.94701549153331
 40
17.94701549153331
 40
17.94701549153331
 10
-9.383723335657805
 20
0.3170869111086034
 30
0.0
 10
-9.016182125046896
 20
5.328108216029491
 30
0.0
 10
-8.635253205582558
 20
10.51958714061476
 30
0.0
 10
-8.251802522619414
 20
15.74542699503954
 30
0.0
 10
-8.229898455749208
 20
16.02267637554657
 30
0.0
 10
-8.177002650127577
 20
16.37602623036116
 30
0.0
 10
-7.980374009025979
 20
16.92288034674722
 30
0.0
 10
-7.516251432770048
 20
17.4409381898284
 30
0.0
 10
-7.134182214355747
 20
17.62780119278325
 30
0.0
 10
-6.97182072546974
 20
17.67769092297448
 30
0.0
  0
SPLINE
  5
C8
330
1F
100
AcDbEntity
  8
Default
100
AcDbSpline
210
0.0
220
0.0
230
1.0
 70
    12
 71
     2
 72
     6
 73
     3
 74
     0
 42
0.0000000001
 43
0.0000000001
 40
0.4382749769594052
 40
0.4382749769594052
 40
0.4382749769594052
 40
0.9239208456918933
 40
0.9239208456918933
 40
0.9239208456918933
 10
-8.520293838695395
 20
17.32461914685413
 30
0.0
 41
0.9749701698320014
 10
-8.693925143777365
 20
17.49803379742612
 30
0.0
 41
0.9728185654049085
 10
-8.803269205248592
 20
17.71772527964256
 30
0.0
 41
0.9966315691165624
  0
SPLINE
  5
C9
330
1F
100
AcDbEntity
  8
Default
100
AcDbSpline
210
0.0
220
0.0
230
1.0
 70
     8
 71
     3
 72
    10
 73
     6
 74
     0
 42
0.0000000001
 43
0.0000000001
 40
0.4816078563514228
 40
0.4816078563514228
 40
0.4816078563514228
 40
0.4816078563514228
 40
0.5867740024392379
 40
0.7110093329034793
 40
4.242401966149306
 40
4.242401966149306
 40
4.242401966149306
 40
4.242401966149306
 10
-8.985102012518894
 20
18.72911815890449
 30
0.0
 10
-8.983796538611102
 20
18.76415204203562
 30
0.0
 10
-8.979874217527708
 20
18.84053954161646
 30
0.0
 10
-8.885853063358411
 20
20.09058699946352
 30
0.0
 10
-8.796731280773969
 20
21.30588405559197
 30
0.0
 10
-8.708881695328614
 20
22.47972845307314
 30
0.0
  0
SPLINE
  5
CA
330
1F
100
AcDbEntity
  8
Default
100
AcDbSpline
210
0.0
220
0.0
230
1.0
 70
     8
 71
     3
 72
    10
 73
     6
 74
     0
 42
0.0000000001
 43
0.0000000001
 40
0.1959421103261492
 40
0.1959421103261492
 40
0.1959421103261492
 40
0.1959421103261492
 40
0.9794113377761844
 40
1.223336803563259
 40
1.422213678887331
 40
1.422213678887331
 40
1.422213678887331
 40
1.422213678887331
 10
-9.888194398262073
 20
26.39731539806385
 30
0.0
 10
-10.14917067149995
 20
26.40700624096336
 30
0.0
 10
-10.49153313812849
 20
26.41626291318759
 30
0.0
 10
-10.89977453061442
 20
26.43716865786352
 30
0.0
 10
-11.04689754335234
 20
26.44948296474554
 30
0.0
 10
-11.11283068025642
 20
26.45632000787594
 30
0.0
  0
SPLINE
  5
CB
330
1F
100
AcDbEntity
  8
Default
100
AcDbSpline
210
0.0
220
0.0
230
1.0
 70
     8
 71
     3
 72
    10
 73
     6
 74
     0
 42
0.0000000001
 43
0.0000000001
 40
0.1948884101553237
 40
0.1948884101553237
 40
0.1948884101553237
 40
0.1948884101553237
 40
0.9794113377761844
 40
1.223336803563259
 40
1.422213678887331
 40
1.422213678887331
 40
1.422213678887331
 40
1.422213678887331
 10
9.887233635209583
 20
26.39727628365979
 30
0.0
 10
10.14856062424121
 20
26.40698726228898
 30
0.0
 10
10.49127455770898
 20
26.41624494947768
 30
0.0
 10
10.8998667403755
 20
26.43716865786352
 30
0.0
 10
11.04698975311342
 20
26.44948296474554
 30
0.0
 10
11.1129228900175
 20
26.45632000787594
 30
0.0
  0
SPLINE
  5
CC
330
1F
100
AcDbEntity
  8
Default
100
AcDbSpline
210
0.0
220
0.0
230
1.0
 70
     8
 71
     3
 72
    10
 73
     6
 74
     0
 42
0.0000000001
 43
0.0000000001
 40
0.0
 40
0.0
 40
0.0
 40
0.0
 40
0.1833191887653105
 40
0.4383738403833364
 40
1.353333236263575
 40
1.353333236263575
 40
1.353333236263575
 40
1.353333236263575
 10
11.12122714181186
 20
27.08696586170478
 30
0.0
 10
11.06069160002562
 20
27.07868770224071
 30
0.0
 10
10.91519599534959
 20
27.06432590680152
 30
0.0
 10
10.46472542957019
 20
27.03982876033148
 30
0.0
 10
10.07479217843121
 20
27.03023476092835
 30
0.0
 10
9.770037185322877
 20
27.01838523472357
 30
0.0
  0
SPLINE
  5
CD
330
1F
100
AcDbEntity
  8
Default
100
AcDbSpline
210
0.0
220
0.0
230
1.0
 70
     8
 71
     3
 72
    10
 73
     6
 74
     0
 42
0.0000000001
 43
0.0000000001
 40
0.0
 40
0.0
 40
0.0
 40
0.0
 40
0.1833191887653105
 40
0.4383738403833364
 40
1.356492740612969
 40
1.356492740612969
 40
1.356492740612969
 40
1.356492740612969
 10
-11.12113493205078
 20
27.08696586170478
 30
0.0
 10
-11.06059939026454
 20
27.07868770224071
 30
0.0
 10
-10.91510378558851
 20
27.06432590680152
 30
0.0
 10
-10.46358154704021
 20
27.03977156906569
 30
0.0
 10
-10.07259401470634
 20
27.03018303016066
 30
0.0
 10
-9.766787875447847
 20
27.01826232369679
 30
0.0
  0
SPLINE
  5
CE
330
1F
100
AcDbEntity
  8
Default
100
AcDbSpline
210
0.0
220
0.0
230
1.0
 70
     8
 71
     3
 72
     8
 73
     4
 74
     0
 42
0.0000000001
 43
0.0000000001
 40
0.2206145004156535
 40
0.2206145004156535
 40
0.2206145004156535
 40
0.2206145004156535
 40
3.333017785126557
 40
3.333017785126557
 40
3.333017785126557
 40
3.333017785126557
 10
-8.108136973386536
 20
22.12592393477161
 30
0.0
 10
-8.18353176805033
 20
21.09120874206376
 30
0.0
 10
-8.265458890164183
 20
20.056932618139
 30
0.0
 10
-8.338663384919698
 20
19.0220712780967
 30
0.0
  0
SPLINE
  5
CF
330
1F
100
AcDbEntity
  8
Default
100
AcDbSpline
210
0.0
220
0.0
230
1.0
 70
     8
 71
     3
 72
    10
 73
     6
 74
     0
 42
0.0000000001
 43
0.0000000001
 40
0.4815363654966807
 40
0.4815363654966807
 40
0.4815363654966807
 40
0.4815363654966807
 40
0.5867740024392379
 40
0.7110093329034793
 40
4.242582235513353
 40
4.242582235513353
 40
4.242582235513353
 40
4.242582235513353
 10
8.985196883939778
 20
18.72904671187312
 30
0.0
 10
8.983891192906526
 20
18.76410443110265
 30
0.0
 10
8.979968214584915
 20
18.84051577882631
 30
0.0
 10
8.885940766322989
 20
20.0906469190586
 30
0.0
 10
8.796814700845744
 20
21.30600391506921
 30
0.0
 10
8.708960451526167
 20
22.47990821913454
 30
0.0
  0
SPLINE
  5
D0
330
1F
100
AcDbEntity
  8
Default
100
AcDbSpline
210
0.0
220
0.0
230
1.0
 70
     8
 71
     3
 72
     8
 73
     4
 74
     0
 42
0.0000000001
 43
0.0000000001
 40
0.2169652335417339
 40
0.2169652335417339
 40
0.2169652335417339
 40
0.2169652335417339
 40
3.333043804330225
 40
3.333043804330225
 40
3.333043804330225
 40
3.333043804330225
 10
8.107964010810491
 20
22.12956352136594
 30
0.0
 10
8.1834324782468
 20
21.09362545143939
 30
0.0
 10
8.265466638233391
 20
20.05812869166173
 30
0.0
 10
8.33875743061327
 20
19.02204532426074
 30
0.0
  0
SPLINE
  5
D1
330
1F
100
AcDbEntity
  8
Default
100
AcDbSpline
210
0.0
220
0.0
230
1.0
 70
    12
 71
     2
 72
     8
 73
     5
 74
     0
 42
0.0000000001
 43
0.0000000001
 40
-0.7197245588710082
 40
-0.7197245588710082
 40
-0.7197245588710082
 40
-0.5132722510922169
 40
-0.5132722510922169
 40
0.0
 40
0.0
 40
0.0
 10
7.07792100308987
 20
17.88999386919429
 30
0.0
 41
1.0
 10
7.121078297614214
 20
17.79446947767723
 30
0.0
 41
0.774535528306074
 10
7.036103482458856
 20
17.73309568657159
 30
0.0
 41
1.0
 10
6.835406118170456
 20
17.55996010092712
 30
0.0
 41
0.9999960232399464
 10
6.635066771189486
 20
17.38908257278218
 30
0.0
 41
1.0
  0
SPLINE
  5
D2
330
1F
100
AcDbEntity
  8
Default
100
AcDbSpline
210
0.0
220
0.0
230
1.0
 70
     8
 71
     3
 72
    11
 73
     7
 74
     0
 42
0.0000000001
 43
0.0000000001
 40
-0.3276533835954581
 40
-0.3276533835954581
 40
-0.3276533835954581
 40
-0.3276533835954581
 40
-0.1296041140221814
 40
-0.0544125534116705
 40
-0.0249930322991663
 40
0.0
 40
0.0
 40
0.0
 40
0.0
 10
6.635066771189486
 20
17.38908257278218
 30
0.0
 10
6.58567178393244
 20
17.34576776352903
 30
0.0
 10
6.520521276425995
 20
17.27939921887282
 30
0.0
 10
6.480792490757892
 20
17.18516506907015
 30
0.0
 10
6.477595368923033
 20
17.14159383813591
 30
0.0
 10
6.481853517328432
 20
17.12375524350752
 30
0.0
 10
6.485124804999572
 20
17.11608201658554
 30
0.0
  0
SPLINE
  5
D3
330
1F
100
AcDbEntity
  8
Default
100
AcDbSpline
210
0.0
220
0.0
230
1.0
 70
     8
 71
     3
 72
    14
 73
    10
 74
     0
 42
0.0000000001
 43
0.0000000001
 40
-7.0
 40
-7.0
 40
-7.0
 40
-7.0
 40
-6.0
 40
-5.0
 40
-4.0
 40
-3.0
 40
-2.0
 40
-1.0
 40
0.0
 40
0.0
 40
0.0
 40
0.0
 10
6.485124804999572
 20
17.11608201658554
 30
0.0
 10
6.490851915315915
 20
17.10264834107843
 30
0.0
 10
6.512266637550198
 20
17.07614818415752
 30
0.0
 10
6.552224160227809
 20
17.05670879667205
 30
0.0
 10
6.595499386143189
 20
17.04888523188679
 30
0.0
 10
6.639360277275671
 20
17.04878962762829
 30
0.0
 10
6.68282432493362
 20
17.05424613845857
 30
0.0
 10
6.725558151609818
 20
17.06375618396883
 30
0.0
 10
6.753473506150556
 20
17.07225315864137
 30
0.0
 10
6.767275065420051
 20
17.07695428048144
 30
0.0
  0
SPLINE
  5
D4
330
1F
100
AcDbEntity
  8
Default
100
AcDbSpline
210
0.0
220
0.0
230
1.0
 70
    24
 71
     2
 72
     6
 73
     3
 74
     0
 42
0.0000000001
 43
0.0000000001
 40
0.0
 40
0.0
 40
0.0
 40
1.819638305667419
 40
1.819638305667419
 40
1.819638305667419
 10
5.548380594694322
 20
16.5964642609048
 30
0.0
 10
6.201302600478414
 20
17.23007592843147
 30
0.0
 10
6.854224606262505
 20
17.86368759595814
 30
0.0
  0
SPLINE
  5
D5
330
1F
100
AcDbEntity
  8
Default
100
AcDbSpline
210
0.0
220
0.0
230
1.0
 70
    12
 71
     2
 72
     6
 73
     3
 74
     0
 42
0.0000000001
 43
0.0000000001
 40
-0.4126361651218424
 40
-0.4126361651218424
 40
-0.4126361651218424
 40
0.0
 40
0.0
 40
0.0
 10
-7.154059365899059
 20
16.86667932249613
 30
0.0
 41
1.0
 10
-7.001332050102267
 20
16.7279653512469
 30
0.0
 41
0.9999991609981052
 10
-6.848964620495707
 20
16.58885616677183
 30
0.0
 41
1.0
  0
SPLINE
  5
D6
330
1F
100
AcDbEntity
  8
Default
100
AcDbSpline
210
0.0
220
0.0
230
1.0
 70
     8
 71
     3
 72
    11
 73
     7
 74
     0
 42
0.0000000001
 43
0.0000000001
 40
-0.7748920276035841
 40
-0.7748920276035841
 40
-0.7748920276035841
 40
-0.7748920276035841
 40
-0.6090501360965258
 40
-0.4226617218792124
 40
-0.2239844083068946
 40
0.0
 40
0.0
 40
0.0
 40
0.0
 10
-6.848964620495707
 20
16.58885616677183
 30
0.0
 10
-6.808113876336847
 20
16.55156004830469
 30
0.0
 10
-6.676271763317999
 20
16.44611795847852
 30
0.0
 10
-6.51789433415405
 20
16.35264194967512
 30
0.0
 10
-6.333040450914154
 20
16.26814593452935
 30
0.0
 10
-5.846275787238568
 20
16.11777053300862
 30
0.0
 10
-5.773063289852161
 20
16.10310651666121
 30
0.0
  0
SPLINE
  5
D7
330
1F
100
AcDbEntity
  8
Default
100
AcDbSpline
210
0.0
220
0.0
230
1.0
 70
     8
 71
     3
 72
    12
 73
     8
 74
     0
 42
0.0000000001
 43
0.0000000001
 40
-5.845130248312955
 40
-5.845130248312955
 40
-5.845130248312955
 40
-5.845130248312955
 40
-3.862407020127849
 40
-2.698819057275471
 40
-1.3714727764854
 40
-0.6925507676978004
 40
0.0
 40
0.0
 40
0.0
 40
0.0
 10
-5.773063289852161
 20
16.10310651666121
 30
0.0
 10
-5.125004863518029
 20
15.97330436952661
 30
0.0
 10
-4.109106362046504
 20
15.70884319952703
 30
0.0
 10
-2.638382518975646
 20
15.45670363337356
 30
0.0
 10
-1.586753877485819
 20
15.34861244226872
 30
0.0
 10
-0.6879600289598784
 20
15.30517198938811
 30
0.0
 10
-0.2308821983660607
 20
15.29761513859768
 30
0.0
 10
0.000000018800705
 20
15.29774981159403
 30
0.0
  0
SPLINE
  5
D8
330
1F
100
AcDbEntity
  8
Default
100
AcDbSpline
210
0.0
220
0.0
230
1.0
 70
     8
 71
     3
 72
    12
 73
     8
 74
     0
 42
0.0000000001
 43
0.0000000001
 40
0.0
 40
0.0
 40
0.0
 40
0.0
 40
0.6925507676978004
 40
1.3714727764854
 40
2.698819057275471
 40
3.862407020127849
 40
5.845130248312955
 40
5.845130248312955
 40
5.845130248312955
 40
5.845130248312955
 10
0.000000018800705
 20
15.29774981159403
 30
0.0
 10
0.2308822359674707
 20
15.29761513859768
 30
0.0
 10
0.6879600665612884
 20
15.30517198938811
 30
0.0
 10
1.586753915087229
 20
15.34861244226872
 30
0.0
 10
2.638382556577056
 20
15.45670363337356
 30
0.0
 10
4.109106399647914
 20
15.70884319952703
 30
0.0
 10
5.125004901119439
 20
15.97330436952661
 30
0.0
 10
5.773063327453571
 20
16.10310651666121
 30
0.0
  0
SPLINE
  5
D9
330
1F
100
AcDbEntity
  8
Default
100
AcDbSpline
210
0.0
220
0.0
230
1.0
 70
     8
 71
     3
 72
    11
 73
     7
 74
     0
 42
0.0000000001
 43
0.0000000001
 40
0.0
 40
0.0
 40
0.0
 40
0.0
 40
0.2239844083068946
 40
0.4226617218792124
 40
0.6090501360965258
 40
0.7748920276035841
 40
0.7748920276035841
 40
0.7748920276035841
 40
0.7748920276035841
 10
5.773063327453571
 20
16.10310651666121
 30
0.0
 10
5.846275824839978
 20
16.11777053300862
 30
0.0
 10
6.333040488515564
 20
16.26814593452935
 30
0.0
 10
6.51789437175546
 20
16.35264194967512
 30
0.0
 10
6.676271800919409
 20
16.44611795847852
 30
0.0
 10
6.808113913938257
 20
16.55156004830469
 30
0.0
 10
6.848964658097117
 20
16.58885616677183
 30
0.0
  0
SPLINE
  5
DA
330
1F
100
AcDbEntity
  8
Default
100
AcDbSpline
210
0.0
220
0.0
230
1.0
 70
    12
 71
     2
 72
     6
 73
     3
 74
     0
 42
0.0000000001
 43
0.0000000001
 40
0.0
 40
0.0
 40
0.0
 40
0.4126361651218424
 40
0.4126361651218424
 40
0.4126361651218424
 10
6.848964658097117
 20
16.58885616677183
 30
0.0
 41
1.0
 10
7.001332087703658
 20
16.7279653512469
 30
0.0
 41
0.9999991609981052
 10
7.154059403500469
 20
16.86667932249613
 30
0.0
 41
1.0
  0
SPLINE
  5
DB
330
1F
100
AcDbEntity
  8
Default
100
AcDbSpline
210
0.0
220
0.0
230
1.0
 70
     8
 71
     3
 72
    12
 73
     8
 74
     0
 42
0.0000000001
 43
0.0000000001
 40
0.0
 40
0.0
 40
0.0
 40
0.0
 40
0.0395647070413459
 40
0.1286883826552243
 40
0.3567988672676851
 40
0.7812074938386473
 40
1.316716534183078
 40
1.316716534183078
 40
1.316716534183078
 40
1.316716534183078
 10
-6.861544986340931
 20
16.63957878505632
 30
0.0
 10
-6.849770479768807
 20
16.63344274896311
 30
0.0
 10
-6.807768623879838
 20
16.62415006705783
 30
0.0
 10
-6.689933087257316
 20
16.60739643818805
 30
0.0
 10
-6.442827059474865
 20
16.59532659183487
 30
0.0
 10
-6.046850315716625
 20
16.59449382623146
 30
0.0
 10
-5.726842432122339
 20
16.59220033948045
 30
0.0
 10
-5.548380557092912
 20
16.5964642609048
 30
0.0
  0
ARC
  5
DC
330
1F
100
AcDbEntity
  8
Default
100
AcDbCircle
 10
-8.213387225474605
 20
17.37975887875699
 30
0.0
 40
0.682029309407195
100
AcDbArc
 50
46.5702387746496
 51
56.44636794321764
  0
LINE
  5
DD
330
1F
100
AcDbEntity
  8
Default
100
AcDbLine
 10
-7.744516066474063
 20
17.87506062027214
 30
0.0
 11
-7.346633384748827
 21
17.49840998796048
 31
0.0
  0
SPLINE
  5
DE
330
1F
100
AcDbEntity
  8
Default
100
AcDbSpline
210
0.0
220
0.0
230
1.0
 70
     8
 71
     3
 72
    12
 73
     8
 74
     0
 42
0.0000000001
 43
0.0000000001
 40
0.0
 40
0.0
 40
0.0
 40
0.0
 40
0.0395647070413459
 40
0.1286883826552243
 40
0.3567988672676851
 40
0.7812074938386473
 40
1.316716534183078
 40
1.316716534183078
 40
1.316716534183078
 40
1.316716534183078
 10
6.861545023942341
 20
16.63957878505632
 30
0.0
 10
6.849770517370217
 20
16.63344274896311
 30
0.0
 10
6.807768661481248
 20
16.62415006705783
 30
0.0
 10
6.689933124858726
 20
16.60739643818805
 30
0.0
 10
6.442827097076275
 20
16.59532659183487
 30
0.0
 10
6.046850353318035
 20
16.59449382623146
 30
0.0
 10
5.726842469723749
 20
16.59220033948045
 30
0.0
 10
5.548380594694322
 20
16.5964642609048
 30
0.0
  0
SPLINE
  5
DF
330
1F
100
AcDbEntity
  8
Default
100
AcDbSpline
210
0.0
220
0.0
230
1.0
 70
    12
 71
     3
 72
    10
 73
     6
 74
     0
 42
0.0000000001
 43
0.0000000001
 40
0.0
 40
0.0
 40
0.0
 40
0.0
 40
0.4998751613696471
 40
0.4998751613696471
 40
1.0
 40
1.0
 40
1.0
 40
1.0
 10
5.548380594694322
 20
16.5964642609048
 30
0.0
 41
1.0
 10
4.647923145806459
 20
16.51605310077771
 30
0.0
 41
1.0
 10
3.704477131290133
 20
16.44085659679304
 30
0.0
 41
1.0
 10
1.854529163899173
 20
16.34636029890938
 30
0.0
 41
1.0
 10
0.9307165458116913
 20
16.32445559468658
 30
0.0
 41
1.0
 10
0.000000018800705
 20
16.3244556459749
 30
0.0
 41
1.0
  0
SPLINE
  5
E0
330
1F
100
AcDbEntity
  8
Default
100
AcDbSpline
210
0.0
220
0.0
230
1.0
 70
    12
 71
     3
 72
    10
 73
     6
 74
     0
 42
0.0000000001
 43
0.0000000001
 40
-1.0
 40
-1.0
 40
-1.0
 40
-1.0
 40
-0.4998751613696471
 40
-0.4998751613696471
 40
0.0
 40
0.0
 40
0.0
 40
0.0
 10
0.000000018800705
 20
16.3244556459749
 30
0.0
 41
1.0
 10
-0.9307165082102813
 20
16.32445559468658
 30
0.0
 41
1.0
 10
-1.854529126297763
 20
16.34636029890938
 30
0.0
 41
1.0
 10
-3.704477093688723
 20
16.44085659679304
 30
0.0
 41
1.0
 10
-4.647923108205049
 20
16.51605310077771
 30
0.0
 41
1.0
 10
-5.548380557092912
 20
16.5964642609048
 30
0.0
 41
1.0
  0
SPLINE
  5
E1
330
1F
100
AcDbEntity
  8
Default
100
AcDbSpline
210
0.0
220
0.0
230
1.0
 70
    24
 71
     2
 72
     6
 73
     3
 74
     0
 42
0.0000000001
 43
0.0000000001
 40
0.0
 40
0.0
 40
0.0
 40
1.819638305667419
 40
1.819638305667419
 40
1.819638305667419
 10
-5.548380557092912
 20
16.5964642609048
 30
0.0
 10
-6.201302562877004
 20
17.23007592843147
 30
0.0
 10
-6.854224568661095
 20
17.86368759595814
 30
0.0
  0
LINE
  5
E2
330
1F
100
AcDbEntity
  8
Default
100
AcDbLine
 10
-7.619171264862729
 20
17.28797048536808
 30
0.0
 11
-8.162306104287893
 21
17.77781604533399
 31
0.0
  0
ARC
  5
E3
330
1F
100
AcDbEntity
  8
Default
100
AcDbCircle
 10
-7.94615203171449
 20
18.01789501681073
 30
0.0
 40
0.3230487511744931
100
AcDbArc
 50
207.9400178788731
 51
228.0018458197066
  0
SPLINE
  5
E4
330
1F
100
AcDbEntity
  8
Default
100
AcDbSpline
210
0.0
220
0.0
230
1.0
 70
    12
 71
     2
 72
     6
 73
     3
 74
     0
 42
0.0000000001
 43
0.0000000001
 40
0.0
 40
0.0
 40
0.0
 40
0.1201321966869808
 40
0.1201321966869808
 40
0.1201321966869808
 10
-8.231545765567802
 20
17.86653150630484
 30
0.0
 41
1.0
 10
-8.262244024387131
 20
17.92102540959796
 30
0.0
 41
0.9415795465970807
 10
-8.25141651053201
 20
17.9826268181401
 30
0.0
 41
1.0
  0
SPLINE
  5
E5
330
1F
100
AcDbEntity
  8
Default
100
AcDbSpline
210
0.0
220
0.0
230
1.0
 70
    12
 71
     2
 72
     8
 73
     5
 74
     0
 42
0.0000000001
 43
0.0000000001
 40
-0.7197245588710082
 40
-0.7197245588710082
 40
-0.7197245588710082
 40
-0.5132722510922169
 40
-0.5132722510922169
 40
0.0
 40
0.0
 40
0.0
 10
-7.07792096548846
 20
17.88999386919429
 30
0.0
 41
1.0
 10
-7.121078260012885
 20
17.79446947767723
 30
0.0
 41
0.774535528306074
 10
-7.036103444857446
 20
17.73309568657159
 30
0.0
 41
1.0
 10
-6.83540608056907
 20
17.55996010092712
 30
0.0
 41
0.9999960232399464
 10
-6.635066733588076
 20
17.38908257278218
 30
0.0
 41
1.0
  0
SPLINE
  5
E6
330
1F
100
AcDbEntity
  8
Default
100
AcDbSpline
210
0.0
220
0.0
230
1.0
 70
     8
 71
     3
 72
    11
 73
     7
 74
     0
 42
0.0000000001
 43
0.0000000001
 40
-0.3276533835954581
 40
-0.3276533835954581
 40
-0.3276533835954581
 40
-0.3276533835954581
 40
-0.1296041140221814
 40
-0.0544125534116705
 40
-0.0249930322991663
 40
0.0
 40
0.0
 40
0.0
 40
0.0
 10
-6.635066733588076
 20
17.38908257278218
 30
0.0
 10
-6.58567174633103
 20
17.34576776352903
 30
0.0
 10
-6.520521238824585
 20
17.27939921887282
 30
0.0
 10
-6.480792453156482
 20
17.18516506907015
 30
0.0
 10
-6.477595331321623
 20
17.14159383813591
 30
0.0
 10
-6.481853479727022
 20
17.12375524350752
 30
0.0
 10
-6.485124767398162
 20
17.11608201658554
 30
0.0
  0
SPLINE
  5
E7
330
1F
100
AcDbEntity
  8
Default
100
AcDbSpline
210
0.0
220
0.0
230
1.0
 70
     8
 71
     3
 72
    14
 73
    10
 74
     0
 42
0.0000000001
 43
0.0000000001
 40
-7.0
 40
-7.0
 40
-7.0
 40
-7.0
 40
-6.0
 40
-5.0
 40
-4.0
 40
-3.0
 40
-2.0
 40
-1.0
 40
0.0
 40
0.0
 40
0.0
 40
0.0
 10
-6.485124767398162
 20
17.11608201658554
 30
0.0
 10
-6.490851877714505
 20
17.10264834107843
 30
0.0
 10
-6.512266599948788
 20
17.07614818415752
 30
0.0
 10
-6.552224122626399
 20
17.05670879667205
 30
0.0
 10
-6.595499348541779
 20
17.04888523188679
 30
0.0
 10
-6.639360239674261
 20
17.04878962762829
 30
0.0
 10
-6.68282428733221
 20
17.05424613845857
 30
0.0
 10
-6.725558114008408
 20
17.06375618396883
 30
0.0
 10
-6.753473468549146
 20
17.07225315864137
 30
0.0
 10
-6.767275027818641
 20
17.07695428048144
 30
0.0
  0
SPLINE
  5
E8
330
1F
100
AcDbEntity
  8
Default
100
AcDbSpline
210
0.0
220
0.0
230
1.0
 70
     8
 71
     3
 72
    43
 73
    39
 74
     0
 42
0.0000000001
 43
0.0000000001
 40
-3.0
 40
-2.0
 40
-1.0
 40
0.0
 40
1.0
 40
2.0
 40
3.0
 40
4.0
 40
5.0
 40
6.0
 40
7.0
 40
8.0
 40
9.0
 40
10.0
 40
11.0
 40
12.0
 40
13.0
 40
14.0
 40
15.0
 40
16.0
 40
17.0
 40
18.0
 40
19.0
 40
20.0
 40
21.0
 40
22.0
 40
23.0
 40
24.0
 40
25.0
 40
26.0
 40
27.0
 40
28.0
 40
29.0
 40
30.0
 40
31.0
 40
32.0
 40
33.0
 40
34.0
 40
35.0
 40
36.0
 40
37.0
 40
38.0
 40
39.0
 10
7.451678598790494
 20
30.83706911043115
 30
0.0
 10
8.819276149083919
 20
30.16247627295832
 30
0.0
 10
9.319929523410764
 20
28.73719305606787
 30
0.0
 10
9.714996982281065
 20
27.36220345821807
 30
0.0
 10
9.985558623270947
 20
25.9382852335058
 30
0.0
 10
10.06204134322579
 20
24.47813533244973
 30
0.0
 10
9.520415376590591
 20
23.09069713521489
 30
0.0
 10
8.359833220269508
 20
22.15997196108584
 30
0.0
 10
6.979049674572053
 20
21.70342017723194
 30
0.0
 10
5.550080261941389
 20
21.46516179134946
 30
0.0
 10
4.107107831317506
 20
21.36307094901012
 30
0.0
 10
2.661568920537064
 20
21.32191063118636
 30
0.0
 10
1.215812641835896
 20
21.29466318580671
 30
0.0
 10
-0.2301746920197729
 20
21.28406177684634
 30
0.0
 10
-1.67623909704065
 20
21.30180193711221
 30
0.0
 10
-3.121485128119474
 20
21.33673221866969
 30
0.0
 10
-4.568134976004728
 20
21.37973363423032
 30
0.0
 10
-6.00287979827587
 20
21.55796544154969
 30
0.0
 10
-7.433680298069504
 20
21.79855333278724
 30
0.0
 10
-8.76705262824396
 20
22.40213305378298
 30
0.0
 10
-9.786720151577839
 20
23.49672210842796
 30
0.0
 10
-10.0718455385624
 20
24.95279331186335
 30
0.0
 10
-9.919203956907637
 20
26.39566350888529
 30
0.0
 10
-9.587865503370239
 20
27.80514910723863
 30
0.0
 10
-9.214131396336654
 20
29.1970603111386
 30
0.0
 10
-8.448973171524045
 20
30.49637183586197
 30
0.0
 10
-6.981344702698749
 20
30.89114758804274
 30
0.0
 10
-5.555418141817
 20
31.01569340327483
 30
0.0
 10
-4.105671018308385
 20
31.05937948373462
 30
0.0
 10
-2.661038199782467
 20
31.08467351889635
 30
0.0
 10
-1.214845944636153
 20
31.10442804592425
 30
0.0
 10
0.2310865187137381
 20
31.1125492183239
 30
0.0
 10
1.677083000765435
 20
31.09855279185026
 30
0.0
 10
3.122921081810659
 20
31.07708218628651
 30
0.0
 10
4.56872149338642
 20
31.05128094692995
 30
0.0
 10
6.013493460582197
 20
30.98063727124291
 30
0.0
 10
7.451678598790494
 20
30.83706911043115
 30
0.0
 10
8.819276149083919
 20
30.16247627295832
 30
0.0
 10
9.319929523410764
 20
28.73719305606787
 30
0.0
  0
ARC
  5
E9
330
1F
100
AcDbEntity
  8
Default
100
AcDbCircle
 10
8.925349481719792
 20
18.08537549422183
 30
0.0
 40
0.3618081747652595
100
AcDbArc
 50
273.5970149348101
 51
285.4826416163298
  0
ARC
  5
EA
330
1F
100
AcDbEntity
  8
Default
100
AcDbCircle
 10
8.911161022237195
 20
18.13659768209929
 30
0.0
 40
0.4149591381943658
100
AcDbArc
 50
285.4826416163314
 51
359.2179928888003
  0
SPLINE
  5
EB
330
1F
100
AcDbEntity
  8
Default
100
AcDbSpline
210
0.0
220
0.0
230
1.0
 70
     8
 71
     3
 72
    24
 73
    20
 74
     0
 42
0.0000000001
 43
0.0000000001
 40
0.0
 40
0.0
 40
0.0
 40
0.0
 40
1.0
 40
2.0
 40
3.0
 40
4.0
 40
5.0
 40
6.0
 40
7.0
 40
8.0
 40
9.0
 40
10.0
 40
11.0
 40
12.0
 40
13.0
 40
14.0
 40
15.0
 40
16.0
 40
17.0
 40
17.0
 40
17.0
 40
17.0
 10
9.326081510855431
 20
18.13093424711555
 30
0.0
 10
9.328761899960938
 20
18.32730771313641
 30
0.0
 10
9.126199812106904
 20
18.68168066089397
 30
0.0
 10
8.606811509364178
 20
18.95688447884528
 30
0.0
 10
8.04883880817232
 20
19.10309417719611
 30
0.0
 10
7.472529328266234
 20
19.15615376933017
 30
0.0
 10
6.897514060684045
 20
19.10728953025252
 30
0.0
 10
6.324594923015638
 20
19.04946037984939
 30
0.0
 10
5.751309519457891
 20
18.99206278996842
 30
0.0
 10
5.178005271742023
 20
18.9357059304019
 30
0.0
 10
4.604181395581236
 20
18.88457009701982
 30
0.0
 10
4.029794038886479
 20
18.84027208387779
 30
0.0
 10
3.454907589045547
 20
18.80296657555705
 30
0.0
 10
2.879594703103038
 20
18.77295873298204
 30
0.0
 10
2.30396345866086
 20
18.74989126780242
 30
0.0
 10
1.728117912027841
 20
18.73305181843744
 30
0.0
 10
1.152137932505354
 20
18.72181059085947
 30
0.0
 10
0.576083933195946
 20
18.7155153253841
 30
0.0
 10
0.1920278481560729
 20
18.71418548521049
 30
0.0
 10
0.000000000145576
 20
18.71412956507739
 30
0.0
  0
SPLINE
  5
EC
330
1F
100
AcDbEntity
  8
Default
100
AcDbSpline
210
0.0
220
0.0
230
1.0
 70
     8
 71
     3
 72
    24
 73
    20
 74
     0
 42
0.0000000001
 43
0.0000000001
 40
-17.0
 40
-17.0
 40
-17.0
 40
-17.0
 40
-16.0
 40
-15.0
 40
-14.0
 40
-13.0
 40
-12.0
 40
-11.0
 40
-10.0
 40
-9.0
 40
-8.0
 40
-7.0
 40
-6.0
 40
-5.0
 40
-4.0
 40
-3.0
 40
-2.0
 40
-1.0
 40
0.0
 40
0.0
 40
0.0
 40
0.0
 10
0.000000000145576
 20
18.71412956507739
 30
0.0
 10
-0.1920278478649209
 20
18.71418548521049
 30
0.0
 10
-0.576083932904794
 20
18.7155153253841
 30
0.0
 10
-1.152137932214202
 20
18.72181059085947
 30
0.0
 10
-1.728117911736689
 20
18.73305181843744
 30
0.0
 10
-2.303963458369708
 20
18.74989126780242
 30
0.0
 10
-2.879594702811886
 20
18.77295873298204
 30
0.0
 10
-3.454907588754395
 20
18.80296657555705
 30
0.0
 10
-4.029794038595327
 20
18.84027208387779
 30
0.0
 10
-4.604181395290084
 20
18.88457009701982
 30
0.0
 10
-5.178005271450871
 20
18.9357059304019
 30
0.0
 10
-5.751309519166739
 20
18.99206278996842
 30
0.0
 10
-6.324594922724486
 20
19.04946037984939
 30
0.0
 10
-6.897514060392893
 20
19.10728953025252
 30
0.0
 10
-7.472529327975082
 20
19.15615376933017
 30
0.0
 10
-8.048838807881168
 20
19.10309417719611
 30
0.0
 10
-8.606811509073026
 20
18.95688447884528
 30
0.0
 10
-9.126199811815752
 20
18.68168066089397
 30
0.0
 10
-9.328761899669786
 20
18.32730771313641
 30
0.0
 10
-9.32608151056428
 20
18.13093424711555
 30
0.0
  0
ARC
  5
ED
330
1F
100
AcDbEntity
  8
Default
100
AcDbCircle
 10
-8.911161021946043
 20
18.13659768209929
 30
0.0
 40
0.4149591381943658
100
AcDbArc
 50
180.7820071111997
 51
254.5173583836686
  0
ARC
  5
EE
330
1F
100
AcDbEntity
  8
Default
100
AcDbCircle
 10
-8.92534948142864
 20
18.08537549422183
 30
0.0
 40
0.3618081747652595
100
AcDbArc
 50
254.5173583836702
 51
266.4029850651899
  0
SPLINE
  5
EF
330
1F
100
AcDbEntity
  8
Default
100
AcDbSpline
210
0.0
220
0.0
230
1.0
 70
    12
 71
     2
 72
     6
 73
     3
 74
     0
 42
0.0000000001
 43
0.0000000001
 40
0.0
 40
0.0
 40
0.0
 40
0.7428466754755785
 40
0.7428466754755785
 40
0.7428466754755785
 10
8.08412590069429
 20
17.70740196505847
 30
0.0
 41
1.0
 10
8.455409021177578
 20
17.71881878183333
 30
0.0
 41
0.9998575702029041
 10
8.826865964810764
 20
17.71766464873969
 30
0.0
 41
1.0
  0
SPLINE
  5
F0
330
1F
100
AcDbEntity
  8
Default
100
AcDbSpline
210
0.0
220
0.0
230
1.0
 70
     8
 71
     3
 72
    14
 73
    10
 74
     0
 42
0.0000000001
 43
0.0000000001
 40
0.0
 40
0.0
 40
0.0
 40
0.0
 40
0.1289269245795823
 40
0.2170034950380213
 40
0.4154026164565424
 40
0.501002898741086
 40
0.5571587884798888
 40
0.6227638086819226
 40
0.7383868833901501
 40
0.7383868833901501
 40
0.7383868833901501
 40
0.7383868833901501
 10
8.826865964810764
 20
17.71766464873969
 30
0.0
 10
8.870429294663012
 20
17.71805066098515
 30
0.0
 10
8.941033479281174
 20
17.7187282252242
 30
0.0
 10
9.080102723050402
 20
17.75527524589963
 30
0.0
 10
9.166775713442092
 20
17.84730872296313
 30
0.0
 10
9.226832033192352
 20
17.94652438251934
 30
0.0
 10
9.216939723359275
 20
18.01974237129388
 30
0.0
 10
9.133636586508658
 20
18.05376482713008
 30
0.0
 10
9.077864786445787
 20
18.0474181194126
 30
0.0
 10
9.037614216201007
 20
18.04769845129433
 30
0.0
  0
SPLINE
  5
F1
330
1F
100
AcDbEntity
  8
Default
100
AcDbSpline
210
0.0
220
0.0
230
1.0
 70
     8
 71
     3
 72
    12
 73
     8
 74
     0
 42
0.0000000001
 43
0.0000000001
 40
-5.0
 40
-5.0
 40
-5.0
 40
-5.0
 40
-3.999999997627546
 40
-2.999999995255091
 40
-1.999999992882637
 40
-0.9999999905101824
 40
0.0
 40
0.0
 40
0.0
 40
0.0
 10
9.037614216201007
 20
18.04769845129433
 30
0.0
 10
8.418433215748195
 20
17.99802308201126
 30
0.0
 10
7.217345617269416
 20
17.89849817217915
 30
0.0
 10
5.414928318526989
 20
17.76010770805333
 30
0.0
 10
3.613145259783721
 20
17.61203212099624
 30
0.0
 10
1.807412674975836
 20
17.52149464592613
 30
0.0
 10
0.602556058178294
 20
17.49100740663005
 30
0.0
 10
0.000000000145576
 20
17.48415110915675
 30
0.0
  0
SPLINE
  5
F2
330
1F
100
AcDbEntity
  8
Default
100
AcDbSpline
210
0.0
220
0.0
230
1.0
 70
     8
 71
     3
 72
    12
 73
     8
 74
     0
 42
0.0000000001
 43
0.0000000001
 40
0.0
 40
0.0
 40
0.0
 40
0.0
 40
0.9999999905101824
 40
1.999999992882637
 40
2.999999995255091
 40
3.999999997627546
 40
5.0
 40
5.0
 40
5.0
 40
5.0
 10
0.000000000145576
 20
17.48415110915675
 30
0.0
 10
-0.6025560578871421
 20
17.49100740663005
 30
0.0
 10
-1.807412674684684
 20
17.52149464592613
 30
0.0
 10
-3.613145259492569
 20
17.61203212099624
 30
0.0
 10
-5.414928318235837
 20
17.76010770805333
 30
0.0
 10
-7.217345616978264
 20
17.89849817217915
 30
0.0
 10
-8.418433215457043
 20
17.99802308201126
 30
0.0
 10
-9.037614215909855
 20
18.04769845129433
 30
0.0
  0
SPLINE
  5
F3
330
1F
100
AcDbEntity
  8
Default
100
AcDbSpline
210
0.0
220
0.0
230
1.0
 70
     8
 71
     3
 72
    14
 73
    10
 74
     0
 42
0.0000000001
 43
0.0000000001
 40
-0.7383868833901501
 40
-0.7383868833901501
 40
-0.7383868833901501
 40
-0.7383868833901501
 40
-0.6227638086819226
 40
-0.5571587884798888
 40
-0.501002898741086
 40
-0.4154026164565424
 40
-0.2170034950380213
 40
-0.1289269245795823
 40
0.0
 40
0.0
 40
0.0
 40
0.0
 10
-9.037614215909855
 20
18.04769845129433
 30
0.0
 10
-9.077864786154635
 20
18.0474181194126
 30
0.0
 10
-9.133636586217506
 20
18.05376482713008
 30
0.0
 10
-9.216939723068123
 20
18.01974237129388
 30
0.0
 10
-9.2268320329012
 20
17.94652438251934
 30
0.0
 10
-9.16677571315094
 20
17.84730872296313
 30
0.0
 10
-9.08010272275925
 20
17.75527524589963
 30
0.0
 10
-8.941033478990022
 20
17.7187282252242
 30
0.0
 10
-8.87042929437186
 20
17.71805066098515
 30
0.0
 10
-8.826865964519612
 20
17.71766464873969
 30
0.0
  0
SPLINE
  5
F4
330
1F
100
AcDbEntity
  8
Default
100
AcDbSpline
210
0.0
220
0.0
230
1.0
 70
    12
 71
     2
 72
     6
 73
     3
 74
     0
 42
0.0000000001
 43
0.0000000001
 40
-0.7428466754755785
 40
-0.7428466754755785
 40
-0.7428466754755785
 40
0.0
 40
0.0
 40
0.0
 10
-8.826865964519612
 20
17.71766464873969
 30
0.0
 41
1.0
 10
-8.455409020886442
 20
17.71881878183333
 30
0.0
 41
0.9998575702029041
 10
-8.084125900403137
 20
17.70740196505847
 30
0.0
 41
1.0
  0
LINE
  5
F5
330
1F
100
AcDbEntity
  8
Default
100
AcDbLine
 10
7.619171265153881
 20
17.28797048536808
 30
0.0
 11
8.162306104579045
 21
17.77781604533399
 31
0.0
  0
ARC
  5
F6
330
1F
100
AcDbEntity
  8
Default
100
AcDbCircle
 10
7.946152032005642
 20
18.01789501681073
 30
0.0
 40
0.3230487511744931
100
AcDbArc
 50
311.9981541802935
 51
332.0599821211269
  0
SPLINE
  5
F7
330
1F
100
AcDbEntity
  8
Default
100
AcDbSpline
210
0.0
220
0.0
230
1.0
 70
    12
 71
     2
 72
     6
 73
     3
 74
     0
 42
0.0000000001
 43
0.0000000001
 40
0.0
 40
0.0
 40
0.0
 40
0.1201321966869808
 40
0.1201321966869808
 40
0.1201321966869808
 10
8.231545765858954
 20
17.86653150630484
 30
0.0
 41
1.0
 10
8.262244024678276
 20
17.92102540959796
 30
0.0
 41
0.9415795465970807
 10
8.251416510823162
 20
17.9826268181401
 30
0.0
 41
1.0
  0
ARC
  5
F8
330
1F
100
AcDbEntity
  8
Default
100
AcDbCircle
 10
8.213387225765757
 20
17.37975887875699
 30
0.0
 40
0.682029309407195
100
AcDbArc
 50
123.5536320567823
 51
133.4297612253504
  0
LINE
  5
F9
330
1F
100
AcDbEntity
  8
Default
100
AcDbLine
 10
7.744516066765215
 20
17.87506062027214
 30
0.0
 11
7.346633385039979
 21
17.49840998796048
 31
0.0
  0
SPLINE
  5
FA
330
1F
100
AcDbEntity
  8
Default
100
AcDbSpline
210
0.0
220
0.0
230
1.0
 70
    12
 71
     2
 72
     6
 73
     3
 74
     0
 42
0.0000000001
 43
0.0000000001
 40
0.0
 40
0.0
 40
0.0
 40
0.0736943626177064
 40
0.0736943626177064
 40
0.0736943626177064
 10
8.781967836764409
 20
0.0727487239050078
 30
0.0
 41
1.0
 10
8.787935296747644
 20
0.030981092428443
 30
0.0
 41
0.8203839743037172
 10
8.829187307569669
 20
0.0221257425791634
 30
0.0
 41
1.0
  0
SPLINE
  5
FB
330
1F
100
AcDbEntity
  8
Default
100
AcDbSpline
210
0.0
220
0.0
230
1.0
 70
    12
 71
     2
 72
     6
 73
     3
 74
     0
 42
0.0000000001
 43
0.0000000001
 40
1.227185181501445
 40
1.227185181501445
 40
1.227185181501445
 40
1.472621556370215
 40
1.472621556370215
 40
1.472621556370215
 10
9.292842466000554
 20
0.3230260495811528
 30
0.0
 41
0.8535533905940124
 10
9.384127352056407
 20
0.3226777180571058
 30
0.0
 41
0.8535537194775102
 10
9.384127352056396
 20
0.3127707701496689
 30
0.0
 41
1.0
  0
SPLINE
  5
FC
330
1F
100
AcDbEntity
  8
Default
100
AcDbSpline
210
0.0
220
0.0
230
1.0
 70
    12
 71
     2
 72
     6
 73
     3
 74
     0
 42
0.0000000001
 43
0.0000000001
 40
0.0
 40
0.0
 40
0.0
 40
0.0070224917865416
 40
0.0070224917865416
 40
0.0070224917865416
 10
8.782679142739653
 20
0.2777148657385311
 30
0.0
 41
1.0
 10
8.786072705409575
 20
0.2786170594482566
 30
0.0
 41
0.9999164634581956
 10
8.789488454671584
 20
0.2794312326877275
 30
0.0
 41
1.0
  0
SPLINE
  5
FD
330
1F
100
AcDbEntity
  8
Default
100
AcDbSpline
210
0.0
220
0.0
230
1.0
 70
    12
 71
     2
 72
     8
 73
     5
 74
     0
 42
0.0000000001
 43
0.0000000001
 40
0.0
 40
0.0
 40
0.0
 40
0.0566914603222361
 40
0.0566914603222361
 40
0.1716138446307484
 40
0.1716138446307484
 40
0.1716138446307484
 10
9.015949137839982
 20
0.3094424778282843
 30
0.0
 41
1.0
 10
9.044188654820122
 20
0.311899396422139
 30
0.0
 41
0.9999754047794314
 10
9.072459856184366
 20
0.3139599647099658
 30
0.0
 41
1.0
 10
9.129771479693783
 20
0.3181623379790101
 30
0.0
 41
0.99988791196177
 10
9.187183231379834
 20
0.3206468698706857
 30
0.0
 41
1.0
  0
SPLINE
  5
FE
330
1F
100
AcDbEntity
  8
Default
100
AcDbSpline
210
0.0
220
0.0
230
1.0
 70
    12
 71
     2
 72
     8
 73
     5
 74
     0
 42
0.0000000001
 43
0.0000000001
 40
0.0
 40
0.0
 40
0.0
 40
0.0865273959107956
 40
0.0865273959107956
 40
0.1959595050328624
 40
0.1959595050328624
 40
0.1959595050328624
 10
8.821462463302964
 20
0.2859171600256332
 30
0.0
 41
1.0
 10
8.864115357516898
 20
0.2932215795941355
 30
0.0
 41
0.999649003387531
 10
8.90709527179638
 20
0.298256547179264
 30
0.0
 41
1.0
 10
8.961429456956896
 20
0.3047520679856021
 30
0.0
 41
0.9998625323368967
 10
9.015949137103178
 20
0.3094424778135334
 30
0.0
 41
1.0
  0
SPLINE
  5
FF
330
1F
100
AcDbEntity
  8
Default
100
AcDbSpline
210
0.0
220
0.0
230
1.0
 70
    12
 71
     2
 72
     6
 73
     3
 74
     0
 42
0.0000000001
 43
0.0000000001
 40
0.0
 40
0.0
 40
0.0
 40
0.087805145337338
 40
0.087805145337338
 40
0.087805145337338
 10
9.342031014674944
 20
0.0120876363725699
 30
0.0
 41
1.0
 10
9.395066008399573
 20
0.0202925995913497
 30
0.0
 41
0.7481728658079281
 10
9.393258887434001
 20
0.0739280943182763
 30
0.0
 41
1.0
  0
SPLINE
  5
100
330
1F
100
AcDbEntity
  8
Default
100
AcDbSpline
210
0.0
220
0.0
230
1.0
 70
    24
 71
     2
 72
     6
 73
     3
 74
     0
 42
0.0000000001
 43
0.0000000001
 40
0.0
 40
0.0
 40
0.0
 40
0.030852161272526
 40
0.030852161272526
 40
0.030852161272526
 10
22.36314412646863
 20
26.04452681111216
 30
0.0
 10
22.34788748801597
 20
26.04224669117631
 30
0.0
 10
22.33263084956332
 20
26.03996657124046
 30
0.0
  0
SPLINE
  5
101
330
1F
100
AcDbEntity
  8
Default
100
AcDbSpline
210
0.0
220
0.0
230
1.0
 70
     8
 71
     3
 72
    25
 73
    21
 74
     0
 42
0.0000000001
 43
0.0000000001
 40
0.0
 40
0.0
 40
0.0
 40
0.0
 40
0.225676332051864
 40
0.2874627964663117
 40
0.4552122300980705
 40
0.7945999475505603
 40
1.24450300310216
 40
1.853065854363438
 40
7.166752973368984
 40
7.678788638541813
 40
8.236178505445821
 40
8.700477794391604
 40
9.239205473178972
 40
9.664488948235604
 40
9.873357892228968
 40
9.904072052146596
 40
9.934526712173962
 40
9.986623583265825
 40
10.04347866325304
 40
11.1086234205342
 40
11.1086234205342
 40
11.1086234205342
 40
11.1086234205342
 10
26.62052355440602
 20
17.25162385571625
 30
0.0
 10
26.55659173354786
 20
17.29160964346835
 30
0.0
 10
26.47605733414667
 20
17.34266478731642
 30
0.0
 10
26.34861928531114
 20
17.42649361911852
 30
0.0
 10
26.24237906516612
 20
17.58830292118876
 30
0.0
 10
26.11376527307038
 20
17.87843697889947
 30
0.0
 10
25.97922091114606
 20
18.32711252266262
 30
0.0
 10
25.56455262097285
 20
20.40919059575413
 30
0.0
 10
25.17104665647224
 20
22.51874897285722
 30
0.0
 10
24.76557414222788
 20
24.60703535129818
 30
0.0
 10
24.64402508043287
 20
25.10407868839786
 30
0.0
 10
24.45856546605194
 20
25.59082954912218
 30
0.0
 10
24.21102830916993
 20
26.00496850453443
 30
0.0
 10
23.87127544752803
 20
26.22581431660761
 30
0.0
 10
23.64282818510361
 20
26.23548752049743
 30
0.0
 10
23.55468979585112
 20
26.22269103604197
 30
0.0
 10
23.51712942967333
 20
26.21694032025506
 30
0.0
 10
23.47126414791217
 20
26.2101533261918
 30
0.0
 10
23.0841835632566
 20
26.15229233029669
 30
0.0
 10
22.71429253212114
 20
26.09700593579888
 30
0.0
 10
22.36314412646527
 20
26.04452681111482
 30
0.0
  0
SPLINE
  5
102
330
1F
100
AcDbEntity
  8
Default
100
AcDbSpline
210
0.0
220
0.0
230
1.0
 70
     8
 71
     3
 72
    21
 73
    17
 74
     0
 42
0.0000000001
 43
0.0000000001
 40
0.0
 40
0.0
 40
0.0
 40
0.0
 40
0.0665349446744058
 40
0.1649910259523991
 40
0.4349479459839425
 40
1.16407390492166
 40
1.344557613164416
 40
1.716814666684118
 40
2.500530244391534
 40
6.849166235313318
 40
7.142536959937101
 40
7.897127356275973
 40
8.73353383978226
 40
9.026799509077534
 40
9.143648345529225
 40
9.324979678413737
 40
9.324979678413737
 40
9.324979678413737
 40
9.324979678413737
 10
23.65616327768271
 20
25.60670381700263
 30
0.0
 10
23.6769708875392
 20
25.59872492790154
 30
0.0
 10
23.72047734483982
 20
25.56391953084901
 30
0.0
 10
23.81247845452879
 20
25.45129587180975
 30
0.0
 10
23.98423653049929
 20
25.12621793973975
 30
0.0
 10
24.09065622174398
 20
24.74521358598446
 30
0.0
 10
24.18338413055858
 20
24.32884749407856
 30
0.0
 10
24.26613650828006
 20
23.89078282170995
 30
0.0
 10
24.6137128185444
 20
22.08939133385762
 30
0.0
 10
24.95557187284646
 20
20.31316908634236
 30
0.0
 10
25.29493620676459
 20
18.54665503610708
 30
0.0
 10
25.43269270232452
 20
17.93475240222176
 30
0.0
 10
25.64275634174913
 20
17.33694013964546
 30
0.0
 10
25.89191854713329
 20
16.99919572904989
 30
0.0
 10
26.04509739775676
 20
16.87394033392192
 30
0.0
 10
26.13070218025211
 20
16.82299577703191
 30
0.0
 10
26.18117718358496
 20
16.78980825180673
 30
0.0
  0
SPLINE
  5
103
330
1F
100
AcDbEntity
  8
Default
100
AcDbSpline
210
0.0
220
0.0
230
1.0
 70
    12
 71
     2
 72
    10
 73
     7
 74
     0
 42
0.0000000001
 43
0.0000000001
 40
0.0
 40
0.0
 40
0.0
 40
0.4788205097622018
 40
0.4788205097622018
 40
0.9696943618856155
 40
0.9696943618856155
 40
0.9820271681433114
 40
0.9820271681433114
 40
0.9820271681433114
 10
22.42478370422049
 20
25.42179757884274
 30
0.0
 41
1.0
 10
22.12741653596445
 20
25.37733203164235
 30
0.0
 41
0.7206112449415953
 10
22.07151724550124
 20
25.67276338910155
 30
0.0
 41
1.0
 10
22.01341920425362
 20
25.97981528634891
 30
0.0
 41
0.7071067811865192
 10
22.32047110150103
 20
26.03791332759647
 30
0.0
 41
1.0
 10
22.32653078650599
 20
26.03905989543246
 30
0.0
 41
0.999805320735976
 10
22.33263099072207
 20
26.03996648722847
 30
0.0
 41
1.0
  0
SPLINE
  5
104
330
1F
100
AcDbEntity
  8
Default
100
AcDbSpline
210
0.0
220
0.0
230
1.0
 70
    12
 71
     2
 72
     6
 73
     3
 74
     0
 42
0.0000000001
 43
0.0000000001
 40
0.0
 40
0.0
 40
0.0
 40
0.039938064346221
 40
0.039938064346221
 40
0.039938064346221
 10
-9.202996181103856
 20
0.3212838968271114
 30
0.0
 41
1.0
 10
-9.222951336209423
 20
0.3220378030224053
 30
0.0
 41
0.9999730226390744
 10
-9.24291541308753
 20
0.3224984810453577
 30
0.0
 41
1.0
  0
SPLINE
  5
105
330
1F
100
AcDbEntity
  8
Default
100
AcDbSpline
210
0.0
220
0.0
230
1.0
 70
     8
 71
     3
 72
    30
 73
    26
 74
     0
 42
0.0000000001
 43
0.0000000001
 40
0.0
 40
0.0
 40
0.0
 40
0.0
 40
0.3534919975642306
 40
0.4758606687717457
 40
0.7921614084063033
 40
1.486959174912311
 40
2.200515466848197
 40
2.884810661817372
 40
3.234791409544167
 40
3.555658681156235
 40
4.31054240332608
 40
10.37686140766666
 40
11.37523067076425
 40
11.88680996862254
 40
12.0648049917455
 40
12.13589134492643
 40
12.22074620701597
 40
12.35319452039107
 40
12.44808462445711
 40
12.59953636835503
 40
12.84666756430093
 40
13.01086205401493
 40
13.04107161222273
 40
13.06132239926706
 40
13.49124629195292
 40
13.49124629195292
 40
13.49124629195292
 40
13.49124629195292
 10
-8.047256358443406
 20
16.68581132522621
 30
0.0
 10
-8.165063774428887
 20
16.68799502285694
 30
0.0
 10
-8.323710161472349
 20
16.68821822223676
 30
0.0
 10
-8.58761629795265
 20
16.69901137931188
 30
0.0
 10
-8.962190052161105
 20
16.7551016159012
 30
0.0
 10
-9.505561347579885
 20
16.96466474560236
 30
0.0
 10
-10.03426638332658
 20
17.4405825212464
 30
0.0
 10
-10.29416434468564
 20
17.97301799615159
 30
0.0
 10
-10.37887920762489
 20
18.41791338855833
 30
0.0
 10
-10.45488393010325
 20
18.88661157232015
 30
0.0
 10
-10.85981429189937
 20
21.23302714382993
 30
0.0
 10
-11.29668676935364
 20
23.80229425652853
 30
0.0
 10
-11.72147890523925
 20
26.29187897352048
 30
0.0
 10
-11.8081293721186
 20
26.84781074144526
 30
0.0
 10
-11.84398615393079
 20
27.09882815948442
 30
0.0
 10
-11.85598457924468
 20
27.20948667792732
 30
0.0
 10
-11.85738633583691
 20
27.30605907602441
 30
0.0
 10
-11.8223930107138
 20
27.40688930747842
 30
0.0
 10
-11.74133765183774
 20
27.50514963512235
 30
0.0
 10
-11.59139882367336
 20
27.58507724449721
 30
0.0
 10
-11.39161185716415
 20
27.55534206422708
 30
0.0
 10
-11.28604864226125
 20
27.44451535531962
 30
0.0
 10
-11.25438913045241
 20
27.38063038020117
 30
0.0
 10
-11.18822612129591
 20
27.23480408912646
 30
0.0
 10
-11.12625502575725
 20
27.09813383453833
 30
0.0
 10
-11.06692308722626
 20
26.96768725389085
 30
0.0
  0
SPLINE
  5
106
330
1F
100
AcDbEntity
  8
Default
100
AcDbSpline
210
0.0
220
0.0
230
1.0
 70
    12
 71
     2
 72
     6
 73
     3
 74
     0
 42
0.0000000001
 43
0.0000000001
 40
0.0
 40
0.0
 40
0.0
 40
0.0247437132115748
 40
0.0247437132115748
 40
0.0247437132115748
 10
-8.760706909204202
 20
0.2674720635384489
 30
0.0
 41
1.0
 10
-8.769613614830595
 20
0.2769368843454776
 30
0.0
 41
0.929428217816864
 10
-8.782586932944923
 20
0.2777148657900455
 30
0.0
 41
1.0
  0
SPLINE
  5
107
330
1F
100
AcDbEntity
  8
Default
100
AcDbSpline
210
0.0
220
0.0
230
1.0
 70
    12
 71
     2
 72
     6
 73
     3
 74
     0
 42
0.0000000001
 43
0.0000000001
 40
0.0
 40
0.0
 40
0.0
 40
0.022599255445238
 40
0.022599255445238
 40
0.022599255445238
 10
-8.789396245143223
 20
0.2794312328018691
 30
0.0
 41
1.0
 10
-8.80039652723297
 20
0.2820236253666777
 30
0.0
 41
0.9997350652396294
 10
-8.811504461939762
 20
0.2841070100674585
 30
0.0
 41
1.0
  0
SPLINE
  5
108
330
1F
100
AcDbEntity
  8
Default
100
AcDbSpline
210
0.0
220
0.0
230
1.0
 70
    12
 71
     2
 72
     6
 73
     3
 74
     0
 42
0.0000000001
 43
0.0000000001
 40
0.0
 40
0.0
 40
0.0
 40
0.0159179282250791
 40
0.0159179282250791
 40
0.0159179282250791
 10
-9.187091021554352
 20
0.320646869908856
 30
0.0
 41
1.0
 10
-9.195042799404757
 20
0.3209854056568289
 30
0.0
 41
0.9999968305897696
 10
-9.202996181102662
 20
0.3212838968667739
 30
0.0
 41
1.0
  0
SPLINE
  5
109
330
1F
100
AcDbEntity
  8
Default
100
AcDbSpline
210
0.0
220
0.0
230
1.0
 70
    12
 71
     2
 72
     8
 73
     5
 74
     0
 42
0.0000000001
 43
0.0000000001
 40
0.0
 40
0.0
 40
0.0
 40
0.0865273959107956
 40
0.0865273959107956
 40
0.1959595050328624
 40
0.1959595050328624
 40
0.1959595050328624
 10
-8.821370253541886
 20
0.2859171600256332
 30
0.0
 41
1.0
 10
-8.864023147755777
 20
0.2932215795941355
 30
0.0
 41
0.999649003387531
 10
-8.907003062035301
 20
0.298256547179264
 30
0.0
 41
1.0
 10
-8.961337247195901
 20
0.3047520679856021
 30
0.0
 41
0.9998625323368967
 10
-9.0158569273421
 20
0.3094424778135334
 30
0.0
 41
1.0
  0
SPLINE
  5
10A
330
1F
100
AcDbEntity
  8
Default
100
AcDbSpline
210
0.0
220
0.0
230
1.0
 70
    24
 71
     2
 72
     6
 73
     3
 74
     0
 42
0.0000000001
 43
0.0000000001
 40
0.0
 40
0.0
 40
0.0
 40
0.2378022079818448
 40
0.2378022079818448
 40
0.2378022079818448
 10
-9.393139934805163
 20
0.0746686650291224
 30
0.0
 10
-9.388597259452666
 20
0.1934829597537089
 30
0.0
 10
-9.38405458410017
 20
0.3122972544782954
 30
0.0
  0
SPLINE
  5
10B
330
1F
100
AcDbEntity
  8
Default
100
AcDbSpline
210
0.0
220
0.0
230
1.0
 70
     8
 71
     3
 72
     8
 73
     4
 74
     0
 42
0.0000000001
 43
0.0000000001
 40
0.0
 40
0.0
 40
0.0
 40
0.0
 40
1.0
 40
1.0
 40
1.0
 40
1.0
 10
-9.341938804913866
 20
0.0120876363725699
 30
0.0
 10
-9.23608581170538
 20
-0.0042887192160066
 30
0.0
 10
-8.968064287068955
 20
-0.0077060344578541
 30
0.0
 10
-8.82909509780859
 20
0.0221257425791634
 30
0.0
  0
SPLINE
  5
10C
330
1F
100
AcDbEntity
  8
Default
100
AcDbSpline
210
0.0
220
0.0
230
1.0
 70
    12
 71
     2
 72
     6
 73
     3
 74
     0
 42
0.0000000001
 43
0.0000000001
 40
0.0
 40
0.0
 40
0.0
 40
0.0247437132115748
 40
0.0247437132115748
 40
0.0247437132115748
 10
8.76079911896528
 20
0.2674720635384489
 30
0.0
 41
1.0
 10
8.769705824591734
 20
0.2769368843454776
 30
0.0
 41
0.929428217816864
 10
8.782679142706002
 20
0.2777148657900455
 30
0.0
 41
1.0
  0
SPLINE
  5
10D
330
1F
100
AcDbEntity
  8
Default
100
AcDbSpline
210
0.0
220
0.0
230
1.0
 70
    12
 71
     2
 72
     6
 73
     3
 74
     0
 42
0.0000000001
 43
0.0000000001
 40
0.0
 40
0.0
 40
0.0
 40
0.0070224917865416
 40
0.0070224917865416
 40
0.0070224917865416
 10
-8.782586932978575
 20
0.2777148657385311
 30
0.0
 41
1.0
 10
-8.78598049564857
 20
0.2786170594482566
 30
0.0
 41
0.9999164634581956
 10
-8.789396244910506
 20
0.2794312326877275
 30
0.0
 41
1.0
  0
SPLINE
  5
10E
330
1F
100
AcDbEntity
  8
Default
100
AcDbSpline
210
0.0
220
0.0
230
1.0
 70
    12
 71
     2
 72
     6
 73
     3
 74
     0
 42
0.0000000001
 43
0.0000000001
 40
0.0
 40
0.0
 40
0.0
 40
0.039938064346221
 40
0.039938064346221
 40
0.039938064346221
 10
9.203088390864934
 20
0.3212838968271114
 30
0.0
 41
1.0
 10
9.223043545970457
 20
0.3220378030224053
 30
0.0
 41
0.9999730226390744
 10
9.243007622848609
 20
0.3224984810453577
 30
0.0
 41
1.0
  0
SPLINE
  5
10F
330
1F
100
AcDbEntity
  8
Default
100
AcDbSpline
210
0.0
220
0.0
230
1.0
 70
    12
 71
     2
 72
     6
 73
     3
 74
     0
 42
0.0000000001
 43
0.0000000001
 40
1.227185181501445
 40
1.227185181501445
 40
1.227185181501445
 40
1.472621556370215
 40
1.472621556370215
 40
1.472621556370215
 10
-9.292750256239552
 20
0.3230260495811528
 30
0.0
 41
0.8535533905940124
 10
-9.384035142295343
 20
0.3226777180571058
 30
0.0
 41
0.8535537194775102
 10
-9.384035142295318
 20
0.3127707701496689
 30
0.0
 41
1.0
  0
SPLINE
  5
110
330
1F
100
AcDbEntity
  8
Default
100
AcDbSpline
210
0.0
220
0.0
230
1.0
 70
    12
 71
     2
 72
     6
 73
     3
 74
     0
 42
0.0000000001
 43
0.0000000001
 40
0.0
 40
0.0
 40
0.0
 40
0.049839079307476
 40
0.049839079307476
 40
0.049839079307476
 10
-9.242915414589163
 20
0.3224984811157299
 30
0.0
 41
1.0
 10
-9.267829355775456
 20
0.3230909568752464
 30
0.0
 41
0.9999130070347984
 10
-9.292750256240765
 20
0.3230260496113573
 30
0.0
 41
1.0
  0
SPLINE
  5
111
330
1F
100
AcDbEntity
  8
Default
100
AcDbSpline
210
0.0
220
0.0
230
1.0
 70
    12
 71
     2
 72
     8
 73
     5
 74
     0
 42
0.0000000001
 43
0.0000000001
 40
0.0
 40
0.0
 40
0.0
 40
0.0566914603222361
 40
0.0566914603222361
 40
0.1716138446307484
 40
0.1716138446307484
 40
0.1716138446307484
 10
-9.015856928078904
 20
0.3094424778282843
 30
0.0
 41
1.0
 10
-9.044096445059038
 20
0.311899396422139
 30
0.0
 41
0.9999754047794314
 10
-9.072367646423288
 20
0.3139599647099658
 30
0.0
 41
1.0
 10
-9.129679269932716
 20
0.3181623379790101
 30
0.0
 41
0.99988791196177
 10
-9.187091021618755
 20
0.3206468698706857
 30
0.0
 41
1.0
  0
SPLINE
  5
112
330
1F
100
AcDbEntity
  8
Default
100
AcDbSpline
210
0.0
220
0.0
230
1.0
 70
     8
 71
     3
 72
    20
 73
    16
 74
     0
 42
0.0000000001
 43
0.0000000001
 40
0.0
 40
0.0
 40
0.0
 40
0.0
 40
0.2091202110132331
 40
0.2091202110132331
 40
0.2091202110132331
 40
1.209120211013233
 40
2.209120211013233
 40
3.209120211013233
 40
4.209120211013233
 40
5.209120211013233
 40
6.209120211013233
 40
7.209120211013233
 40
7.209120211013233
 40
7.209120211013233
 40
7.422391775119937
 40
7.422391775119937
 40
7.422391775119937
 40
7.422391775119937
 10
9.798543505704515
 20
0.3270998834886143
 30
0.0
 10
9.807429894470431
 20
0.257961896256532
 30
0.0
 10
9.816316283236404
 20
0.1888239090244497
 30
0.0
 10
9.82520267200232
 20
0.1196859217923816
 30
0.0
 10
9.82947698999709
 20
0.0849590702534186
 30
0.0
 10
9.890987249970124
 20
0.047502922731482
 30
0.0
 10
9.989006285563448
 20
0.0550374105310141
 30
0.0
 10
10.08571381889965
 20
0.0572687618069097
 30
0.0
 10
10.18259272104154
 20
0.0654669346095886
 30
0.0
 10
10.27861171536847
 20
0.0788070836887442
 30
0.0
 10
10.37551840278417
 20
0.0886150860091703
 30
0.0
 10
10.4326269316964
 20
0.1326998848309131
 30
0.0
 10
10.4314272866954
 20
0.167907180882338
 30
0.0
 10
10.42761199299019
 20
0.2388952486292908
 30
0.0
 10
10.42379669928511
 20
0.3098833163762293
 30
0.0
 10
10.41902310419192
 20
0.3985784538883195
 30
0.0
  0
POLYLINE
  5
113
330
1F
100
AcDbEntity
  8
Default
100
AcDb2dPolyline
 66
     1
 10
0.0
 20
0.0
 30
0.0
  0
VERTEX
  5
114
330
113
100
AcDbEntity
  8
Default
100
AcDbVertex
100
AcDb2dVertex
 10
7.610760824143597
 20
17.30626543024107
 30
0.0
  0
VERTEX
  5
115
330
113
100
AcDbEntity
  8
Default
100
AcDbVertex
100
AcDb2dVertex
 10
8.014895205931822
 20
17.31031712683093
 30
0.0
  0
SEQEND
  5
116
330
113
100
AcDbEntity
  8
Default
  0
SPLINE
  5
117
330
1F
100
AcDbEntity
  8
Default
100
AcDbSpline
210
0.0
220
0.0
230
1.0
 70
     8
 71
     3
 72
    20
 73
    16
 74
     0
 42
0.0000000001
 43
0.0000000001
 40
0.0
 40
0.0
 40
0.0
 40
0.0
 40
0.2091202110132331
 40
0.2091202110132331
 40
0.2091202110132331
 40
1.209120211013233
 40
2.209120211013233
 40
3.209120211013233
 40
4.209120211013233
 40
5.209120211013233
 40
6.209120211013233
 40
7.209120211013233
 40
7.209120211013233
 40
7.209120211013233
 40
7.422391775119937
 40
7.422391775119937
 40
7.422391775119937
 40
7.422391775119937
 10
-9.798451295943437
 20
0.3270998834886143
 30
0.0
 10
-9.807337684709353
 20
0.257961896256532
 30
0.0
 10
-9.816224073475325
 20
0.1888239090244497
 30
0.0
 10
-9.825110462241241
 20
0.1196859217923816
 30
0.0
 10
-9.829384780236012
 20
0.0849590702534186
 30
0.0
 10
-9.890895040209045
 20
0.047502922731482
 30
0.0
 10
-9.98891407580237
 20
0.0550374105310141
 30
0.0
 10
-10.08562160913857
 20
0.0572687618069097
 30
0.0
 10
-10.18250051128047
 20
0.0654669346095886
 30
0.0
 10
-10.27851950560739
 20
0.0788070836887442
 30
0.0
 10
-10.37542619302309
 20
0.0886150860091703
 30
0.0
 10
-10.43253472193533
 20
0.1326998848309131
 30
0.0
 10
-10.43133507693432
 20
0.167907180882338
 30
0.0
 10
-10.42751978322912
 20
0.2388952486292908
 30
0.0
 10
-10.42370448952403
 20
0.3098833163762293
 30
0.0
 10
-10.41893089443084
 20
0.3985784538883195
 30
0.0
  0
SPLINE
  5
118
330
1F
100
AcDbEntity
  8
Default
100
AcDbSpline
210
0.0
220
0.0
230
1.0
 70
     8
 71
     3
 72
    16
 73
    12
 74
     0
 42
0.0000000001
 43
0.0000000001
 40
0.0
 40
0.0
 40
0.0
 40
0.0
 40
16.41289929611962
 40
16.54796027589672
 40
16.76083098654895
 40
16.95520840927917
 40
17.11286499139569
 40
17.27992562849579
 40
17.42526353136803
 40
17.5519356848284
 40
17.63972565849193
 40
17.63972565849193
 40
17.63972565849193
 40
17.63972565849193
 10
20.77732722213261
 20
0.2706774632122944
 30
0.0
 10
22.62617338946956
 20
5.419763414492621
 30
0.0
 10
24.48518192550409
 20
10.6130847292294
 30
0.0
 10
26.37422259777861
 20
15.8709542291316
 30
0.0
 10
26.45966877469147
 20
16.03155569437956
 30
0.0
 10
26.54170064475545
 20
16.20011346665947
 30
0.0
 10
26.63546382489955
 20
16.34657573361463
 30
0.0
 10
26.72266354706738
 20
16.47623555273245
 30
0.0
 10
26.81472179162535
 20
16.59067016627878
 30
0.0
 10
26.8968381192949
 20
16.67779917981031
 30
0.0
 10
26.95243905703182
 20
16.72354220409244
 30
0.0
 10
26.97802243341357
 20
16.73777074101726
 30
0.0
  0
SPLINE
  5
119
330
1F
100
AcDbEntity
  8
Default
100
AcDbSpline
210
0.0
220
0.0
230
1.0
 70
    12
 71
     2
 72
     6
 73
     3
 74
     0
 42
0.0000000001
 43
0.0000000001
 40
0.0
 40
0.0
 40
0.0
 40
0.0100305442270566
 40
0.0100305442270566
 40
0.0100305442270566
 10
8.81159667257674
 20
0.2841070101787295
 30
0.0
 41
1.0
 10
8.816523828761825
 20
0.2850433651110806
 30
0.0
 41
0.9999798957634295
 10
8.821462463307228
 20
0.2859171599716461
 30
0.0
 41
1.0
  0
SPLINE
  5
11A
330
1F
100
AcDbEntity
  8
Default
100
AcDbSpline
210
0.0
220
0.0
230
1.0
 70
    12
 71
     2
 72
     6
 73
     3
 74
     0
 42
0.0000000001
 43
0.0000000001
 40
0.0
 40
0.0
 40
0.0
 40
0.087805145337338
 40
0.087805145337338
 40
0.087805145337338
 10
-9.341938804913866
 20
0.0120876363725699
 30
0.0
 41
1.0
 10
-9.394973798638476
 20
0.0202925995913497
 30
0.0
 41
0.7481728658079281
 10
-9.393166677672923
 20
0.0739280943182763
 30
0.0
 41
1.0
  0
SPLINE
  5
11B
330
1F
100
AcDbEntity
  8
Default
100
AcDbSpline
210
0.0
220
0.0
230
1.0
 70
    24
 71
     2
 72
     6
 73
     3
 74
     0
 42
0.0000000001
 43
0.0000000001
 40
0.0
 40
0.0
 40
0.0
 40
0.1935072007122365
 40
0.1935072007122365
 40
0.1935072007122365
 10
-8.760710815159428
 20
0.2671169757131082
 30
0.0
 10
-8.771162249543067
 20
0.1709295196640142
 30
0.0
 10
-8.781613683926707
 20
0.0747420636149201
 30
0.0
  0
SPLINE
  5
11C
330
1F
100
AcDbEntity
  8
Default
100
AcDbSpline
210
0.0
220
0.0
230
1.0
 70
     8
 71
     3
 72
    30
 73
    26
 74
     0
 42
0.0000000001
 43
0.0000000001
 40
0.0
 40
0.0
 40
0.0
 40
0.0
 40
0.3534919975642306
 40
0.4758606687717457
 40
0.7921614084063033
 40
1.486959174912311
 40
2.200515466848197
 40
2.884810661817372
 40
3.234791409544167
 40
3.555658681156235
 40
4.31054240332608
 40
10.37686140766666
 40
11.37523067076425
 40
11.88680996862254
 40
12.0648049917455
 40
12.13589134492643
 40
12.22074620701597
 40
12.35319452039107
 40
12.44808462445711
 40
12.59953636835503
 40
12.84666756430093
 40
13.01086205401493
 40
13.04107161222273
 40
13.06132239926706
 40
13.49124629195292
 40
13.49124629195292
 40
13.49124629195292
 40
13.49124629195292
 10
8.047348568204484
 20
16.68581132522621
 30
0.0
 10
8.165155984189965
 20
16.68799502285694
 30
0.0
 10
8.323802371233427
 20
16.68821822223676
 30
0.0
 10
8.587708507713728
 20
16.69901137931188
 30
0.0
 10
8.962282261922184
 20
16.7551016159012
 30
0.0
 10
9.505653557340963
 20
16.96466474560236
 30
0.0
 10
10.03435859308766
 20
17.4405825212464
 30
0.0
 10
10.29425655444672
 20
17.97301799615159
 30
0.0
 10
10.37897141738597
 20
18.41791338855833
 30
0.0
 10
10.45497613986433
 20
18.88661157232015
 30
0.0
 10
10.85990650166045
 20
21.23302714382993
 30
0.0
 10
11.29677897911472
 20
23.80229425652853
 30
0.0
 10
11.72157111500033
 20
26.29187897352048
 30
0.0
 10
11.80822158187968
 20
26.84781074144526
 30
0.0
 10
11.84407836369186
 20
27.09882815948442
 30
0.0
 10
11.85607678900575
 20
27.20948667792732
 30
0.0
 10
11.85747854559798
 20
27.30605907602441
 30
0.0
 10
11.82248522047487
 20
27.40688930747842
 30
0.0
 10
11.74142986159882
 20
27.50514963512235
 30
0.0
 10
11.59149103343444
 20
27.58507724449721
 30
0.0
 10
11.39170406692523
 20
27.55534206422708
 30
0.0
 10
11.28614085202233
 20
27.44451535531962
 30
0.0
 10
11.25448134021349
 20
27.38063038020117
 30
0.0
 10
11.18831833105699
 20
27.23480408912646
 30
0.0
 10
11.12634723551832
 20
27.09813383453833
 30
0.0
 10
11.06701529698734
 20
26.96768725389085
 30
0.0
  0
SPLINE
  5
11D
330
1F
100
AcDbEntity
  8
Default
100
AcDbSpline
210
0.0
220
0.0
230
1.0
 70
    12
 71
     2
 72
     6
 73
     3
 74
     0
 42
0.0000000001
 43
0.0000000001
 40
0.0
 40
0.0
 40
0.0
 40
0.0736943626177064
 40
0.0736943626177064
 40
0.0736943626177064
 10
-8.78187562700333
 20
0.0727487239050078
 30
0.0
 41
1.0
 10
-8.787843086986586
 20
0.030981092428443
 30
0.0
 41
0.8203839743037172
 10
-8.82909509780859
 20
0.0221257425791634
 30
0.0
 41
1.0
  0
SPLINE
  5
11E
330
1F
100
AcDbEntity
  8
Default
100
AcDbSpline
210
0.0
220
0.0
230
1.0
 70
     8
 71
     3
 72
     9
 73
     5
 74
     0
 42
0.0000000001
 43
0.0000000001
 40
0.0
 40
0.0
 40
0.0
 40
0.0
 40
0.00003152313445
 40
1.245118352931257
 40
1.245118352931257
 40
1.245118352931257
 40
1.245118352931257
 10
22.42475017868196
 20
25.42179256739328
 30
0.0
 10
22.4246991512951
 20
25.4217840323918
 30
0.0
 10
22.8351742049154
 20
25.48314950416119
 30
0.0
 10
23.24566601583626
 20
25.54444460233451
 30
0.0
 10
23.65612691301726
 20
25.60583942003107
 30
0.0
  0
LINE
  5
11F
330
1F
100
AcDbEntity
  8
Default
100
AcDbLine
 10
8.014895205931822
 20
17.31031712683093
 30
0.0
 11
8.035765455198401
 21
17.31070398120249
 31
0.0
  0
SPLINE
  5
120
330
1F
100
AcDbEntity
  8
Default
100
AcDbSpline
210
0.0
220
0.0
230
1.0
 70
     8
 71
     3
 72
    25
 73
    21
 74
     0
 42
0.0000000001
 43
0.0000000001
 40
0.0
 40
0.0
 40
0.0
 40
0.0
 40
0.2569404371425227
 40
0.3755143624123486
 40
0.4963764790882619
 40
0.7660246917631095
 40
1.186325858599667
 40
1.61980149343223
 40
1.942655166559482
 40
2.336124716317286
 40
2.701716283884646
 40
3.679848277180691
 40
6.460949456332019
 40
7.87275282658717
 40
8.840530011301157
 40
10.09761166210939
 40
10.89912098527104
 40
11.15231333637175
 40
11.20232242882755
 40
11.20860264864851
 40
11.20860264864851
 40
11.20860264864851
 40
11.20860264864851
 10
8.035765455198401
 20
17.31070398120249
 30
0.0
 10
8.121397557701698
 20
17.31229127193276
 30
0.0
 10
8.246603401473948
 20
17.31379212700714
 30
0.0
 10
8.411952086181657
 20
17.31632988928153
 30
0.0
 10
8.581602795714815
 20
17.32739569028512
 30
0.0
 10
8.84711857748158
 20
17.38025703322626
 30
0.0
 10
9.19505627648141
 20
17.53065163031447
 30
0.0
 10
9.488562750791914
 20
17.79907831485421
 30
0.0
 10
9.681863980320287
 20
18.13503751935312
 30
0.0
 10
9.75990897371733
 20
18.4897780640043
 30
0.0
 10
9.849369161804532
 20
19.06092319044981
 30
0.0
 10
10.08470224532695
 20
20.41626226102285
 30
0.0
 10
10.3755601458262
 20
22.11470102376896
 30
0.0
 10
10.66443646242732
 20
23.81078112584603
 30
0.0
 10
10.8678510606596
 20
25.00568383022739
 30
0.0
 10
11.03877244004079
 20
25.99996353643063
 30
0.0
 10
11.16345549742357
 20
26.76037263887598
 30
0.0
 10
11.21676532936985
 20
27.12477315391167
 30
0.0
 10
11.2295856804449
 20
27.22712753147766
 30
0.0
 10
11.23094246005903
 20
27.24585548505189
 30
0.0
 10
11.2310304638327
 20
27.24794704106549
 30
0.0
  0
SPLINE
  5
121
330
1F
100
AcDbEntity
  8
Default
100
AcDbSpline
210
0.0
220
0.0
230
1.0
 70
    24
 71
     2
 72
     6
 73
     3
 74
     0
 42
0.0000000001
 43
0.0000000001
 40
0.0
 40
0.0
 40
0.0
 40
0.2378022079818448
 40
0.2378022079818448
 40
0.2378022079818448
 10
9.393232144566241
 20
0.0746686650291224
 30
0.0
 10
9.388689469213745
 20
0.1934829597537089
 30
0.0
 10
9.384146793861248
 20
0.3122972544782954
 30
0.0
  0
SPLINE
  5
122
330
1F
100
AcDbEntity
  8
Default
100
AcDbSpline
210
0.0
220
0.0
230
1.0
 70
    24
 71
     2
 72
     6
 73
     3
 74
     0
 42
0.0000000001
 43
0.0000000001
 40
0.0
 40
0.0
 40
0.0
 40
0.1935072007122365
 40
0.1935072007122365
 40
0.1935072007122365
 10
8.760803024920506
 20
0.2671169757131082
 30
0.0
 10
8.771254459304146
 20
0.1709295196640142
 30
0.0
 10
8.781705893687786
 20
0.0747420636149201
 30
0.0
  0
SPLINE
  5
123
330
1F
100
AcDbEntity
  8
Default
100
AcDbSpline
210
0.0
220
0.0
230
1.0
 70
    12
 71
     2
 72
     6
 73
     3
 74
     0
 42
0.0000000001
 43
0.0000000001
 40
0.0
 40
0.0
 40
0.0
 40
0.0100305442270566
 40
0.0100305442270566
 40
0.0100305442270566
 10
-8.811504462815662
 20
0.2841070101787295
 30
0.0
 41
1.0
 10
-8.816431619000701
 20
0.2850433651110806
 30
0.0
 41
0.9999798957634295
 10
-8.82137025354615
 20
0.2859171599716461
 30
0.0
 41
1.0
  0
SPLINE
  5
124
330
1F
100
AcDbEntity
  8
Default
100
AcDbSpline
210
0.0
220
0.0
230
1.0
 70
    12
 71
     2
 72
     6
 73
     3
 74
     0
 42
0.0000000001
 43
0.0000000001
 40
0.0
 40
0.0
 40
0.0
 40
0.049839079307476
 40
0.049839079307476
 40
0.049839079307476
 10
9.243007624350241
 20
0.3224984811157299
 30
0.0
 41
1.0
 10
9.267921565536508
 20
0.3230909568752464
 30
0.0
 41
0.9999130070347984
 10
9.292842466001844
 20
0.3230260496113573
 30
0.0
 41
1.0
  0
SPLINE
  5
125
330
1F
100
AcDbEntity
  8
Default
100
AcDbSpline
210
0.0
220
0.0
230
1.0
 70
    12
 71
     2
 72
     6
 73
     3
 74
     0
 42
0.0000000001
 43
0.0000000001
 40
0.0
 40
0.0
 40
0.0
 40
0.0159179282250791
 40
0.0159179282250791
 40
0.0159179282250791
 10
9.18718323131543
 20
0.320646869908856
 30
0.0
 41
1.0
 10
9.195135009165858
 20
0.3209854056568289
 30
0.0
 41
0.9999968305897696
 10
9.20308839086374
 20
0.3212838968667739
 30
0.0
 41
1.0
  0
SPLINE
  5
126
330
1F
100
AcDbEntity
  8
Default
100
AcDbSpline
210
0.0
220
0.0
230
1.0
 70
     8
 71
     3
 72
    15
 73
    11
 74
     0
 42
0.0000000001
 43
0.0000000001
 40
0.0
 40
0.0
 40
0.0
 40
0.0
 40
0.1481008985844257
 40
0.2835795947505744
 40
0.4095167464139915
 40
0.5399102056356212
 40
0.8000329001182528
 40
1.110289658690893
 40
5.325350683045592
 40
15.97290079287495
 40
15.97290079287495
 40
15.97290079287495
 40
15.97290079287495
 10
-8.19814827477893
 20
16.20939152989428
 30
0.0
 10
-8.228005849388524
 20
16.17026334486084
 30
0.0
 10
-8.28197135951541
 20
16.09178591198024
 30
0.0
 10
-8.341279888654299
 20
15.96918984208956
 30
0.0
 10
-8.3837907516276
 20
15.84463253070386
 30
0.0
 10
-8.402440317350795
 20
15.67321136737453
 30
0.0
 10
-8.421881935450187
 20
15.44054784276372
 30
0.0
 10
-8.567776730847129
 20
13.85199733313752
 30
0.0
 10
-9.024675375426057
 20
8.815173862968805
 30
0.0
 10
-9.474808736104876
 20
3.881368866668737
 30
0.0
 10
-9.796085586917854
 20
0.3467860905881537
 30
0.0
  0
SPLINE
  5
127
330
1F
100
AcDbEntity
  8
Default
100
AcDbSpline
210
0.0
220
0.0
230
1.0
 70
    12
 71
     2
 72
     8
 73
     5
 74
     0
 42
0.0000000001
 43
0.0000000001
 40
0.0
 40
0.0
 40
0.0
 40
1.570796326794897
 40
1.570796326794897
 40
3.141592653589793
 40
3.141592653589793
 40
3.141592653589793
 10
-9.796085586917854
 20
0.3467860905881537
 30
0.0
 41
1.0
 10
-9.805145681381765
 20
0.2401560131623163
 30
0.0
 41
0.7071067811865475
 10
-10.11652931018824
 20
0.2666135114557306
 30
0.0
 41
1.0
 10
-10.42791293899464
 20
0.2930710097491329
 30
0.0
 41
0.7071067811865475
 10
-10.4188528445307
 20
0.3997010871749751
 30
0.0
 41
1.0
  0
SPLINE
  5
128
330
1F
100
AcDbEntity
  8
Default
100
AcDbSpline
210
0.0
220
0.0
230
1.0
 70
     8
 71
     3
 72
    11
 73
     7
 74
     0
 42
0.0000000001
 43
0.0000000001
 40
0.0
 40
0.0
 40
0.0
 40
0.0
 40
15.38685223518402
 40
15.5773112496696
 40
16.05478351798368
 40
16.47824156099147
 40
16.47824156099147
 40
16.47824156099147
 40
16.47824156099147
 10
-10.4188528445307
 20
0.3997010871749751
 30
0.0
 10
-9.953373555288522
 20
5.507856158524078
 30
0.0
 10
-9.483843521864742
 20
10.67816658351447
 30
0.0
 10
-8.998271262430308
 20
16.00829484573704
 30
0.0
 10
-8.869760091023522
 20
16.35546869969922
 30
0.0
 10
-8.69295251449148
 20
16.59962883219227
 30
0.0
 10
-8.5984491506685
 20
16.70436764519038
 30
0.0
  0
POLYLINE
  5
129
330
1F
100
AcDbEntity
  8
Default
100
AcDb2dPolyline
 66
     1
 10
0.0
 20
0.0
 30
0.0
  0
VERTEX
  5
12A
330
129
100
AcDbEntity
  8
Default
100
AcDbVertex
100
AcDb2dVertex
 10
-7.610668614382519
 20
17.30626543024107
 30
0.0
  0
VERTEX
  5
12B
330
129
100
AcDbEntity
  8
Default
100
AcDbVertex
100
AcDb2dVertex
 10
-8.014802996170744
 20
17.31031712683093
 30
0.0
  0
SEQEND
  5
12C
330
129
100
AcDbEntity
  8
Default
  0
LINE
  5
12D
330
1F
100
AcDbEntity
  8
Default
100
AcDbLine
 10
-8.014802996170744
 20
17.31031712683093
 30
0.0
 11
-8.035673245437323
 21
17.31070398120249
 31
0.0
  0
SPLINE
  5
12E
330
1F
100
AcDbEntity
  8
Default
100
AcDbSpline
210
0.0
220
0.0
230
1.0
 70
     8
 71
     3
 72
    25
 73
    21
 74
     0
 42
0.0000000001
 43
0.0000000001
 40
0.0
 40
0.0
 40
0.0
 40
0.0
 40
0.2569404371425227
 40
0.3755143624123486
 40
0.4963764790882619
 40
0.7660246917631095
 40
1.186325858599667
 40
1.61980149343223
 40
1.942655166559482
 40
2.336124716317286
 40
2.701716283884646
 40
3.679848277180691
 40
6.460949456332019
 40
7.87275282658717
 40
8.840530011301157
 40
10.09761166210939
 40
10.89912098527104
 40
11.15231333637175
 40
11.20232242882755
 40
11.20860264864851
 40
11.20860264864851
 40
11.20860264864851
 40
11.20860264864851
 10
-8.035673245437323
 20
17.31070398120249
 30
0.0
 10
-8.12130534794062
 20
17.31229127193276
 30
0.0
 10
-8.24651119171287
 20
17.31379212700714
 30
0.0
 10
-8.411859876420579
 20
17.31632988928153
 30
0.0
 10
-8.581510585953737
 20
17.32739569028512
 30
0.0
 10
-8.847026367720503
 20
17.38025703322626
 30
0.0
 10
-9.194964066720331
 20
17.53065163031447
 30
0.0
 10
-9.488470541030836
 20
17.79907831485421
 30
0.0
 10
-9.681771770559209
 20
18.13503751935312
 30
0.0
 10
-9.759816763956252
 20
18.4897780640043
 30
0.0
 10
-9.849276952043454
 20
19.06092319044981
 30
0.0
 10
-10.08461003556587
 20
20.41626226102285
 30
0.0
 10
-10.37546793606512
 20
22.11470102376896
 30
0.0
 10
-10.66434425266624
 20
23.81078112584603
 30
0.0
 10
-10.86775885089853
 20
25.00568383022739
 30
0.0
 10
-11.03868023027971
 20
25.99996353643063
 30
0.0
 10
-11.16336328766249
 20
26.76037263887598
 30
0.0
 10
-11.21667311960877
 20
27.12477315391167
 30
0.0
 10
-11.22949347068382
 20
27.22712753147766
 30
0.0
 10
-11.23085025029795
 20
27.24585548505189
 30
0.0
 10
-11.23093825407162
 20
27.24794704106549
 30
0.0
  0
SPLINE
  5
12F
330
1F
100
AcDbEntity
  8
Default
100
AcDbSpline
210
0.0
220
0.0
230
1.0
 70
     8
 71
     3
 72
     8
 73
     4
 74
     0
 42
0.0000000001
 43
0.0000000001
 40
0.0
 40
0.0
 40
0.0
 40
0.0
 40
1.0
 40
1.0
 40
1.0
 40
1.0
 10
9.342031014674944
 20
0.0120876363725699
 30
0.0
 10
9.236178021466458
 20
-0.0042887192160066
 30
0.0
 10
8.968156496830034
 20
-0.0077060344578541
 30
0.0
 10
8.829187307569669
 20
0.0221257425791634
 30
0.0
  0
SPLINE
  5
130
330
1F
100
AcDbEntity
  8
Default
100
AcDbSpline
210
0.0
220
0.0
230
1.0
 70
    12
 71
     2
 72
     6
 73
     3
 74
     0
 42
0.0000000001
 43
0.0000000001
 40
0.0
 40
0.0
 40
0.0
 40
0.0771003706955799
 40
0.0771003706955799
 40
0.0771003706955799
 10
41.36831773151533
 20
0.064978058589773
 30
0.0
 41
1.0
 10
41.37370485297746
 20
0.0205155216998471
 30
0.0
 41
0.8040496154182818
 10
41.41777709909979
 20
0.0126394413942847
 30
0.0
 41
1.0
  0
ARC
  5
131
330
1F
100
AcDbEntity
  8
Default
100
AcDbCircle
 10
41.64300704932657
 20
1.683908869756522
 30
0.0
 40
1.68637778467856
100
AcDbArc
 50
262.3247315131545
 51
279.793598324645
  0
SPLINE
  5
132
330
1F
100
AcDbEntity
  8
Default
100
AcDbSpline
210
0.0
220
0.0
230
1.0
 70
    12
 71
     2
 72
     6
 73
     3
 74
     0
 42
0.0000000001
 43
0.0000000001
 40
0.0
 40
0.0
 40
0.0
 40
0.0855034082648413
 40
0.0855034082648413
 40
0.0855034082648413
 10
41.92985889558986
 20
0.022106820488105
 30
0.0
 41
1.0
 10
41.98048229719957
 20
0.0322327539808763
 30
0.0
 41
0.7610186280100805
 10
41.97849119591842
 20
0.084052226856727
 30
0.0
 41
1.0
  0
SPLINE
  5
133
330
1F
100
AcDbEntity
  8
Default
100
AcDbSpline
210
0.0
220
0.0
230
1.0
 70
    24
 71
     2
 72
     6
 73
     3
 74
     0
 42
0.0000000001
 43
0.0000000001
 40
0.0
 40
0.0
 40
0.0
 40
0.2300681636784336
 40
0.2300681636784336
 40
0.2300681636784336
 10
41.97849119591842
 20
0.084052226856727
 30
0.0
 10
41.97370263779231
 20
0.1991024556333372
 30
0.0
 10
41.96891407966621
 20
0.3141526844099474
 30
0.0
  0
ARC
  5
134
330
1F
100
AcDbEntity
  8
Default
100
AcDbCircle
 10
41.79344518291759
 20
-1.468374053550264
 30
0.0
 40
1.791142346456375
100
AcDbArc
 50
84.37801354298273
 51
104.4730982747003
  0
SPLINE
  5
135
330
1F
100
AcDbEntity
  8
Default
100
AcDbSpline
210
0.0
220
0.0
230
1.0
 70
    24
 71
     2
 72
     6
 73
     3
 74
     0
 42
0.0000000001
 43
0.0000000001
 40
0.0
 40
0.0
 40
0.0
 40
0.2021897559235226
 40
0.2021897559235226
 40
0.2021897559235226
 10
41.34579320078342
 20
0.2659265571169271
 30
0.0
 10
41.35705546614938
 20
0.1654523078533501
 30
0.0
 10
41.36831773151533
 20
0.064978058589773
 30
0.0
  0
SPLINE
  5
136
330
1F
100
AcDbEntity
  8
Default
100
AcDbSpline
210
0.0
220
0.0
230
1.0
 70
    12
 71
     2
 72
     8
 73
     5
 74
     0
 42
0.0000000001
 43
0.0000000001
 40
-0.0950799819146273
 40
-0.0950799819146273
 40
-0.0950799819146273
 40
-0.0475399909573137
 40
-0.0475399909573137
 40
0.0
 40
0.0
 40
0.0
 10
20.0947014429575
 20
0.187171619857196
 30
0.0
 41
1.0
 10
20.08710521790173
 20
0.163247620234455
 30
0.0
 41
0.9223262384247396
 10
20.09882977774828
 20
0.1410531383999682
 30
0.0
 41
1.0
 10
20.1105543375947
 20
0.1188586565654944
 30
0.0
 41
0.9223262384247396
 10
20.13459774695986
 20
0.1116493019761009
 30
0.0
 41
1.0
  0
ARC
  5
137
330
1F
100
AcDbEntity
  8
Default
100
AcDbCircle
 10
20.54399024515681
 20
1.619202872761761
 30
0.0
 40
1.562152356964127
100
AcDbArc
 50
254.8071051210574
 51
274.3264029719195
  0
SPLINE
  5
138
330
1F
100
AcDbEntity
  8
Default
100
AcDbSpline
210
0.0
220
0.0
230
1.0
 70
    12
 71
     2
 72
     6
 73
     3
 74
     0
 42
0.0000000001
 43
0.0000000001
 40
-0.0626321953815391
 40
-0.0626321953815391
 40
-0.0626321953815391
 40
0.0
 40
0.0
 40
0.0
 10
20.66183627035593
 20
0.0615019063650237
 30
0.0
 41
1.0
 10
20.69602281883642
 20
0.066408620662051
 30
0.0
 41
0.8658102242625448
 10
20.70883916494199
 20
0.0984794362846912
 30
0.0
 41
1.0
  0
SPLINE
  5
139
330
1F
100
AcDbEntity
  8
Default
100
AcDbSpline
210
0.0
220
0.0
230
1.0
 70
    24
 71
     2
 72
     6
 73
     3
 74
     0
 42
0.0000000001
 43
0.0000000001
 40
0.0
 40
0.0
 40
0.0
 40
0.1791621436966646
 40
0.1791621436966646
 40
0.1791621436966646
 10
20.70883916494199
 20
0.0984794362846912
 30
0.0
 10
20.74202202263314
 20
0.1816880078921059
 30
0.0
 10
20.77520488032428
 20
0.2648965794995206
 30
0.0
  0
ARC
  5
13A
330
1F
100
AcDbEntity
  8
Default
100
AcDbCircle
 10
19.95872324483526
 20
-1.076795314281753
 30
0.0
 40
1.570598420643909
100
AcDbArc
 50
58.6775514564474
 51
81.62916350016583
  0
SPLINE
  5
13B
330
1F
100
AcDbEntity
  8
Default
100
AcDbSpline
210
0.0
220
0.0
230
1.0
 70
    24
 71
     2
 72
     6
 73
     3
 74
     0
 42
0.0000000001
 43
0.0000000001
 40
0.0
 40
0.0
 40
0.0
 40
0.3043501914012435
 40
0.3043501914012435
 40
0.3043501914012435
 10
20.18737013196244
 20
0.4770708317991108
 30
0.0
 10
20.14103578745997
 20
0.3321212258281534
 30
0.0
 10
20.0947014429575
 20
0.187171619857196
 30
0.0
  0
POLYLINE
  5
13C
330
1F
100
AcDbEntity
  8
Default
100
AcDb2dPolyline
 66
     1
 10
0.0
 20
0.0
 30
0.0
  0
VERTEX
  5
13D
330
13C
100
AcDbEntity
  8
Default
100
AcDbVertex
100
AcDb2dVertex
 10
40.14532873895979
 20
15.89075405061449
 30
0.0
  0
VERTEX
  5
13E
330
13C
100
AcDbEntity
  8
Default
100
AcDbVertex
100
AcDb2dVertex
 10
41.34579320078342
 20
0.2659265571169271
 30
0.0
  0
SEQEND
  5
13F
330
13C
100
AcDbEntity
  8
Default
  0
SPLINE
  5
140
330
1F
100
AcDbEntity
  8
Default
100
AcDbSpline
210
0.0
220
0.0
230
1.0
 70
     8
 71
     3
 72
    15
 73
    11
 74
     0
 42
0.0000000001
 43
0.0000000001
 40
0.0
 40
0.0
 40
0.0
 40
0.0
 40
0.1481008985844257
 40
0.2835795947505744
 40
0.4095167464139915
 40
0.5399102056356212
 40
0.8000329001182528
 40
1.110289658690893
 40
5.325350683045592
 40
15.97290079287495
 40
15.97290079287495
 40
15.97290079287495
 40
15.97290079287495
 10
8.198240484540008
 20
16.20939152989428
 30
0.0
 10
8.228098059149602
 20
16.17026334486084
 30
0.0
 10
8.282063569276488
 20
16.09178591198024
 30
0.0
 10
8.341372098415377
 20
15.96918984208956
 30
0.0
 10
8.383882961388679
 20
15.84463253070386
 30
0.0
 10
8.402532527111873
 20
15.67321136737453
 30
0.0
 10
8.421974145211266
 20
15.44054784276372
 30
0.0
 10
8.567868940608207
 20
13.85199733313752
 30
0.0
 10
9.024767585187135
 20
8.815173862968805
 30
0.0
 10
9.474900945865954
 20
3.881368866668737
 30
0.0
 10
9.796177796678933
 20
0.3467860905881537
 30
0.0
  0
SPLINE
  5
141
330
1F
100
AcDbEntity
  8
Default
100
AcDbSpline
210
0.0
220
0.0
230
1.0
 70
    12
 71
     2
 72
     8
 73
     5
 74
     0
 42
0.0000000001
 43
0.0000000001
 40
0.0
 40
0.0
 40
0.0
 40
1.570796326794897
 40
1.570796326794897
 40
3.141592653589793
 40
3.141592653589793
 40
3.141592653589793
 10
9.796177796678933
 20
0.3467860905881537
 30
0.0
 41
1.0
 10
9.805237891142932
 20
0.2401560131623163
 30
0.0
 41
0.7071067811865475
 10
10.11662151994932
 20
0.2666135114557306
 30
0.0
 41
1.0
 10
10.42800514875581
 20
0.2930710097491329
 30
0.0
 41
0.7071067811865475
 10
10.41894505429178
 20
0.3997010871749751
 30
0.0
 41
1.0
  0
SPLINE
  5
142
330
1F
100
AcDbEntity
  8
Default
100
AcDbSpline
210
0.0
220
0.0
230
1.0
 70
     8
 71
     3
 72
    11
 73
     7
 74
     0
 42
0.0000000001
 43
0.0000000001
 40
0.0
 40
0.0
 40
0.0
 40
0.0
 40
15.38685223518402
 40
15.5773112496696
 40
16.05478351798368
 40
16.47824156099147
 40
16.47824156099147
 40
16.47824156099147
 40
16.47824156099147
 10
10.41894505429178
 20
0.3997010871749751
 30
0.0
 10
9.9534657650496
 20
5.507856158524078
 30
0.0
 10
9.48393573162582
 20
10.67816658351447
 30
0.0
 10
8.998363472191386
 20
16.00829484573704
 30
0.0
 10
8.8698523007846
 20
16.35546869969922
 30
0.0
 10
8.693044724252559
 20
16.59962883219227
 30
0.0
 10
8.598541360429579
 20
16.70436764519038
 30
0.0
  0
SPLINE
  5
143
330
1F
100
AcDbEntity
  8
Default
100
AcDbSpline
210
0.0
220
0.0
230
1.0
 70
     8
 71
     3
 72
    24
 73
    20
 74
     0
 42
0.0000000001
 43
0.0000000001
 40
0.0
 40
0.0
 40
0.0
 40
0.0
 40
1.252199625602159
 40
1.505445086656863
 40
1.777430717652725
 40
2.004690815799
 40
2.735361958643393
 40
3.230175176941851
 40
11.42990519948157
 40
11.69691145046897
 40
11.9580365835542
 40
12.49304852154891
 40
12.974863992945
 40
13.62089556540649
 40
14.35700418677953
 40
14.70738315408766
 40
15.20313318991591
 40
16.06999042966602
 40
21.8670845670966
 40
21.8670845670966
 40
21.8670845670966
 40
21.8670845670966
 10
22.2648800679479
 20
26.02984117355201
 30
0.0
 10
22.67770395611078
 20
26.09147792516286
 30
0.0
 10
23.17397957135665
 20
26.16583451672921
 30
0.0
 10
23.75998973849113
 20
26.25313287445385
 30
0.0
 10
24.00801031882736
 20
26.29054489931386
 30
0.0
 10
24.41360857335246
 20
26.35059411946627
 30
0.0
 10
24.89570957487018
 20
26.39870281389418
 30
0.0
 10
28.03217919200242
 20
26.58065783158322
 30
0.0
 10
31.0144384014402
 20
26.75202240460436
 30
0.0
 10
33.91903463515399
 20
26.91836774556356
 30
0.0
 10
34.27198184534731
 20
26.94508754229608
 30
0.0
 10
34.70027450938875
 20
26.94556031615622
 30
0.0
 10
35.23764429422033
 20
26.76548405157826
 30
0.0
 10
35.67785970540001
 20
26.29565260544325
 30
0.0
 10
35.80401968935311
 20
25.71287432497556
 30
0.0
 10
35.81280167185091
 20
25.19082628007931
 30
0.0
 10
35.81727407489331
 20
24.61726176800474
 30
0.0
 10
35.84490311247077
 20
22.23146205811575
 30
0.0
 10
35.86997657936084
 20
20.0102864654839
 30
0.0
 10
35.89193455301501
 20
18.07804651071744
 30
0.0
  0
LINE
  5
144
330
1F
100
AcDbEntity
  8
Default
100
AcDbLine
 10
35.89193455301501
 20
18.07804651071744
 30
0.0
 11
35.90488239171344
 21
16.94856476489865
 31
0.0
  0
ARC
  5
145
330
1F
100
AcDbEntity
  8
Default
100
AcDbCircle
 10
36.21733749663855
 20
16.95130622175013
 30
0.0
 40
0.3124671313585408
100
AcDbArc
 50
180.502695825452
 51
0.7989529479574158
  0
SPLINE
  5
146
330
1F
100
AcDbEntity
  8
Default
100
AcDbSpline
210
0.0
220
0.0
230
1.0
 70
     8
 71
     3
 72
    26
 73
    22
 74
     0
 42
0.0000000001
 43
0.0000000001
 40
0.0
 40
0.0
 40
0.0
 40
0.0
 40
7.174163686276224
 40
7.855940892791357
 40
8.304413832717367
 40
8.704664974530592
 40
9.654652280121095
 40
10.54712046179448
 40
11.22834135743286
 40
11.81670577088101
 40
11.9746941667565
 40
12.04973902068948
 40
12.34708698760069
 40
19.40791760679432
 40
20.77646030197645
 40
21.27453935366349
 40
22.04948015563158
 40
22.28922897843398
 40
22.55242506321534
 40
22.81641657700331
 40
24.06423152410204
 40
24.06423152410204
 40
24.06423152410204
 40
24.06423152410204
 10
36.52977424962833
 20
16.95566323456175
 30
0.0
 10
36.5025093103346
 20
19.34689568331355
 30
0.0
 10
36.47309802965057
 20
21.96537747114539
 30
0.0
 10
36.44129013206202
 20
24.73333862043208
 30
0.0
 10
36.43679207092853
 20
25.24354004272325
 30
0.0
 10
36.42620104982998
 20
25.84269651465793
 30
0.0
 10
36.24184605825536
 20
26.5829254846949
 30
0.0
 10
35.67602507726141
 20
27.24248982551755
 30
0.0
 10
34.99655980923046
 20
27.52338054967598
 30
0.0
 10
34.52168761096343
 20
27.57252578466539
 30
0.0
 10
34.24741539755195
 20
27.56460856371849
 30
0.0
 10
34.07104663104906
 20
27.55460444125335
 30
0.0
 10
31.59736946289442
 20
27.41138840478705
 30
0.0
 10
28.69332673610162
 20
27.24431588076376
 30
0.0
 10
25.72242670246379
 20
27.07294278137276
 30
0.0
 10
24.84340792540809
 20
27.02155980845603
 30
0.0
 10
24.34139783529344
 20
26.97128559568949
 30
0.0
 10
23.91994560934293
 20
26.90932150192472
 30
0.0
 10
23.66715998443729
 20
26.87121796595859
 30
0.0
 10
23.08195548482863
 20
26.78400014080061
 30
0.0
 10
22.58357906467566
 20
26.70935444267216
 30
0.0
 10
22.17220102684158
 20
26.64793145143895
 30
0.0
  0
SPLINE
  5
147
330
1F
100
AcDbEntity
  8
Default
100
AcDbSpline
210
0.0
220
0.0
230
1.0
 70
    12
 71
     2
 72
    10
 73
     7
 74
     0
 42
0.0000000001
 43
0.0000000001
 40
-0.9816898998728285
 40
-0.9816898998728285
 40
-0.9816898998728285
 40
-0.9567218687389515
 40
-0.9567218687389515
 40
-0.4658480025955927
 40
-0.4658480025955927
 40
0.0
 40
0.0
 40
0.0
 10
22.17220102684156
 20
26.64793145143896
 30
0.0
 41
0.9999999999118532
 10
22.15984862882972
 20
26.64607811256211
 30
0.0
 41
0.9992021508172376
 10
22.14768355650426
 20
26.64324480760986
 30
0.0
 41
1.0
 10
21.84332934893957
 20
26.57235922136205
 30
0.0
 41
0.7071067811865318
 10
21.91421493518743
 20
26.26800501379741
 30
0.0
 41
1.0
 10
21.9796395542991
 20
25.9870980035155
 30
0.0
 41
0.7348459531198692
 10
22.2648800679479
 20
26.02984117355202
 30
0.0
 41
0.9999999696521558
  0
SPLINE
  5
148
330
1F
100
AcDbEntity
  8
Default
100
AcDbSpline
210
0.0
220
0.0
230
1.0
 70
    12
 71
     2
 72
     6
 73
     3
 74
     0
 42
0.0000000001
 43
0.0000000001
 40
0.0
 40
0.0
 40
0.0
 40
0.022599255445238
 40
0.022599255445238
 40
0.022599255445238
 10
8.789488454904301
 20
0.2794312328018691
 30
0.0
 41
1.0
 10
8.800488736994048
 20
0.2820236253666777
 30
0.0
 41
0.9997350652396294
 10
8.81159667170084
 20
0.2841070100674585
 30
0.0
 41
1.0
  0
ENDSEC
  0
SECTION
  2
OBJECTS
  0
DICTIONARY
  5
C
330
0
100
AcDbDictionary
281
     1
  3
ACAD_GROUP
350
D
  3
ACAD_LAYOUT
350
1A
  3
ACAD_MLEADERSTYLE
350
14A
  3
ACAD_MLINESTYLE
350
17
  3
ACAD_PLOTSETTINGS
350
19
  3
ACAD_PLOTSTYLENAME
350
E
  3
ACAD_TABLESTYLE
350
149
  3
ACAD_VISUALSTYLE
350
2A
  0
DICTIONARY
  5
D
102
{ACAD_REACTORS
330
C
102
}
330
C
100
AcDbDictionary
281
     1
  0
DICTIONARY
  5
1A
102
{ACAD_REACTORS
330
C
102
}
330
C
100
AcDbDictionary
281
     1
  3
Layout1
350
1E
  3
Layout2
350
26
  3
Model
350
22
  0
DICTIONARY
  5
14A
102
{ACAD_REACTORS
330
C
102
}
330
C
100
AcDbDictionary
281
     1
  0
DICTIONARY
  5
17
102
{ACAD_REACTORS
330
C
102
}
330
C
100
AcDbDictionary
281
     1
  3
Standard
350
18
  0
DICTIONARY
  5
19
102
{ACAD_REACTORS
330
C
102
}
330
C
100
AcDbDictionary
281
     1
  0
ACDBDICTIONARYWDFLT
  5
E
102
{ACAD_REACTORS
330
C
102
}
330
C
100
AcDbDictionary
281
     1
  3
Normal
350
F
100
AcDbDictionaryWithDefault
340
F
  0
DICTIONARY
  5
149
102
{ACAD_REACTORS
330
C
102
}
330
C
100
AcDbDictionary
281
     1
  0
DICTIONARY
  5
2A
102
{ACAD_REACTORS
330
C
102
}
330
C
100
AcDbDictionary
281
     1
  3
2dWireframe
350
2F
  3
3D Hidden
350
31
  3
3dWireframe
350
30
  3
Basic
350
32
  3
Brighten
350
36
  3
ColorChange
350
3A
  3
Conceptual
350
34
  3
Dim
350
35
  3
Facepattern
350
39
  3
Flat
350
2B
  3
FlatWithEdges
350
2C
  3
Gouraud
350
2D
  3
GouraudWithEdges
350
2E
  3
Linepattern
350
38
  3
Realistic
350
33
  3
Thicken
350
37
  0
LAYOUT
  5
1E
102
{ACAD_REACTORS
330
1A
102
}
330
1A
100
AcDbPlotSettings
  1

  2
none_device
  4

  6

 40
0.0
 41
0.0
 42
0.0
 43
0.0
 44
0.0
 45
0.0
 46
0.0
 47
0.0
 48
0.0
 49
0.0
140
0.0
141
0.0
142
1.0
143
1.0
 70
   688
 72
     0
 73
     0
 74
     5
  7

 75
    16
 76
     0
 77
     2
 78
   300
147
1.0
148
0.0
149
0.0
100
AcDbLayout
  1
Layout1
 70
     1
 71
     1
 10
0.0
 20
0.0
 11
12.0
 21
9.0
 12
0.0
 22
0.0
 32
0.0
 14
1.000000000000000E+20
 24
1.000000000000000E+20
 34
1.000000000000000E+20
 15
-1.000000000000000E+20
 25
-1.000000000000000E+20
 35
-1.000000000000000E+20
146
0.0
 13
0.0
 23
0.0
 33
0.0
 16
1.0
 26
0.0
 36
0.0
 17
0.0
 27
1.0
 37
0.0
 76
     0
330
1B
  0
LAYOUT
  5
26
102
{ACAD_REACTORS
330
1A
102
}
330
1A
100
AcDbPlotSettings
  1

  2
none_device
  4

  6

 40
0.0
 41
0.0
 42
0.0
 43
0.0
 44
0.0
 45
0.0
 46
0.0
 47
0.0
 48
0.0
 49
0.0
140
0.0
141
0.0
142
1.0
143
1.0
 70
   688
 72
     0
 73
     0
 74
     5
  7

 75
    16
 76
     0
 77
     2
 78
   300
147
1.0
148
0.0
149
0.0
100
AcDbLayout
  1
Layout2
 70
     1
 71
     2
 10
0.0
 20
0.0
 11
0.0
 21
0.0
 12
0.0
 22
0.0
 32
0.0
 14
0.0
 24
0.0
 34
0.0
 15
0.0
 25
0.0
 35
0.0
146
0.0
 13
0.0
 23
0.0
 33
0.0
 16
1.0
 26
0.0
 36
0.0
 17
0.0
 27
1.0
 37
0.0
 76
     0
330
23
  0
LAYOUT
  5
22
102
{ACAD_REACTORS
330
1A
102
}
330
1A
100
AcDbPlotSettings
  1

  2
none_device
  4

  6

 40
0.0
 41
0.0
 42
0.0
 43
0.0
 44
0.0
 45
0.0
 46
0.0
 47
0.0
 48
0.0
 49
0.0
140
0.0
141
0.0
142
1.0
143
1.0
 70
  1712
 72
     0
 73
     0
 74
     0
  7

 75
     0
 76
     0
 77
     2
 78
   300
147
1.0
148
0.0
149
0.0
100
AcDbLayout
  1
Model
 70
     1
 71
     0
 10
0.0
 20
0.0
 11
12.0
 21
9.0
 12
0.0
 22
0.0
 32
0.0
 14
-11.85503039093643
 24
-0.0024689149220385
 34
0.0
 15
41.97849119592197
 25
61.51311016827538
 35
0.0
146
0.0
 13
0.0
 23
0.0
 33
0.0
 16
1.0
 26
0.0
 36
0.0
 17
0.0
 27
1.0
 37
0.0
 76
     0
330
1F
331
29
  0
MLINESTYLE
  5
18
102
{ACAD_REACTORS
330
17
102
}
330
17
100
AcDbMlineStyle
  2
Standard
 70
     0
  3

 62
   256
 51
90.0
 52
90.0
 71
     2
 49
0.5
 62
   256
  6
BYLAYER
 49
-0.5
 62
   256
  6
BYLAYER
  0
ACDBPLACEHOLDER
  5
F
102
{ACAD_REACTORS
330
E
102
}
330
E
  0
VISUALSTYLE
  5
2F
102
{ACAD_REACTORS
330
2A
102
}
330
2A
100
AcDbVisualStyle
  2
2dWireframe
 70
     4
 71
     0
 72
     2
 73
     0
 90
        0
 40
-0.6
 41
-30.0
 62
     5
 63
     7
421
 16777215
 74
     1
 91
        4
 64
     7
 65
   257
 75
     1
175
     1
 42
1.0
 92
        0
 66
   257
 43
1.0
 76
     1
 77
     6
 78
     2
 67
     7
 79
     5
170
     0
171
     0
290
     0
174
     0
 93
        1
 44
0.0
173
     0
291
     0
 45
0.0
1001
ACAD
1000
AcDbSavedByObjectVersion
1070
     0
  0
VISUALSTYLE
  5
31
102
{ACAD_REACTORS
330
2A
102
}
330
2A
100
AcDbVisualStyle
  2
3D Hidden
 70
     6
 71
     1
 72
     2
 73
     2
 90
        0
 40
-0.6
 41
-30.0
 62
     5
 63
     7
421
 16777215
 74
     2
 91
        2
 64
     7
 65
   257
 75
     2
175
     1
 42
40.0
 92
        0
 66
   257
 43
1.0
 76
     1
 77
     6
 78
     2
 67
     7
 79
     3
170
     0
171
     0
290
     0
174
     0
 93
        1
 44
0.0
173
     0
291
     0
 45
0.0
1001
ACAD
1000
AcDbSavedByObjectVersion
1070
     0
  0
VISUALSTYLE
  5
30
102
{ACAD_REACTORS
330
2A
102
}
330
2A
100
AcDbVisualStyle
  2
3dWireframe
 70
     5
 71
     0
 72
     2
 73
     0
 90
        0
 40
-0.6
 41
-30.0
 62
     5
 63
     7
421
 16777215
 74
     1
 91
        4
 64
     7
 65
   257
 75
     1
175
     1
 42
1.0
 92
        0
 66
   257
 43
1.0
 76
     1
 77
     6
 78
     2
 67
     7
 79
     5
170
     0
171
     0
290
     0
174
     0
 93
        1
 44
0.0
173
     0
291
     0
 45
0.0
1001
ACAD
1000
AcDbSavedByObjectVersion
1070
     0
  0
VISUALSTYLE
  5
32
102
{ACAD_REACTORS
330
2A
102
}
330
2A
100
AcDbVisualStyle
  2
Basic
 70
     7
 71
     1
 72
     0
 73
     1
 90
        0
 40
-0.6
 41
-30.0
 62
     5
 63
     7
421
 16777215
 74
     0
 91
        4
 64
     7
 65
   257
 75
     1
175
     1
 42
1.0
 92
        8
 66
     7
 43
1.0
 76
     1
 77
     6
 78
     2
 67
     7
 79
     5
170
     0
171
     0
290
     0
174
     0
 93
        1
 44
0.0
173
     0
291
     1
 45
0.0
1001
ACAD
1000
AcDbSavedByObjectVersion
1070
     0
  0
VISUALSTYLE
  5
36
102
{ACAD_REACTORS
330
2A
102
}
330
2A
100
AcDbVisualStyle
  2
Brighten
 70
    12
 71
     2
 72
     2
 73
     0
 90
        0
 40
-0.6
 41
-30.0
 62
     5
 63
     7
421
 16777215
 74
     1
 91
        4
 64
     7
 65
   257
 75
     1
175
     1
 42
1.0
 92
        8
 66
     7
 43
1.0
 76
     1
 77
     6
 78
     2
 67
     7
 79
     5
170
     0
171
     0
290
     0
174
     0
 93
        1
 44
50.0
173
     0
291
     1
 45
0.0
1001
ACAD
1000
AcDbSavedByObjectVersion
1070
     0
  0
VISUALSTYLE
  5
3A
102
{ACAD_REACTORS
330
2A
102
}
330
2A
100
AcDbVisualStyle
  2
ColorChange
 70
    16
 71
     2
 72
     2
 73
     3
 90
        0
 40
-0.6
 41
-30.0
 62
     5
 63
     8
421
  8421504
 74
     1
 91
        4
 64
     7
 65
   257
 75
     1
175
     1
 42
1.0
 92
        8
 66
     8
424
  8421504
 43
1.0
 76
     1
 77
     6
 78
     2
 67
     7
 79
     5
170
     0
171
     0
290
     0
174
     0
 93
        1
 44
0.0
173
     0
291
     1
 45
0.0
1001
ACAD
1000
AcDbSavedByObjectVersion
1070
     0
  0
VISUALSTYLE
  5
34
102
{ACAD_REACTORS
330
2A
102
}
330
2A
100
AcDbVisualStyle
  2
Conceptual
 70
     9
 71
     3
 72
     2
 73
     0
 90
        0
 40
-0.6
 41
-30.0
 62
     5
 63
     7
421
 16777215
 74
     2
 91
        2
 64
     7
 65
   257
 75
     1
175
     1
 42
40.0
 92
        8
 66
     7
 43
1.0
 76
     1
 77
     6
 78
     2
 67
     7
 79
     3
170
     0
171
     0
290
     0
174
     0
 93
        1
 44
0.0
173
     0
291
     0
 45
0.0
1001
ACAD
1000
AcDbSavedByObjectVersion
1070
     0
  0
VISUALSTYLE
  5
35
102
{ACAD_REACTORS
330
2A
102
}
330
2A
100
AcDbVisualStyle
  2
Dim
 70
    11
 71
     2
 72
     2
 73
     0
 90
        0
 40
-0.6
 41
-30.0
 62
     5
 63
     7
421
 16777215
 74
     1
 91
        4
 64
     7
 65
   257
 75
     1
175
     1
 42
1.0
 92
        8
 66
     7
 43
1.0
 76
     1
 77
     6
 78
     2
 67
     7
 79
     5
170
     0
171
     0
290
     0
174
     0
 93
        1
 44
-50.0
173
     0
291
     1
 45
0.0
1001
ACAD
1000
AcDbSavedByObjectVersion
1070
     0
  0
VISUALSTYLE
  5
39
102
{ACAD_REACTORS
330
2A
102
}
330
2A
100
AcDbVisualStyle
  2
Facepattern
 70
    15
 71
     2
 72
     2
 73
     0
 90
        0
 40
-0.6
 41
-30.0
 62
     5
 63
     7
421
 16777215
 74
     1
 91
        4
 64
     7
 65
   257
 75
     1
175
     1
 42
1.0
 92
        8
 66
     7
 43
1.0
 76
     1
 77
     6
 78
     2
 67
     7
 79
     5
170
     0
171
     0
290
     0
174
     0
 93
        1
 44
0.0
173
     0
291
     1
 45
0.0
1001
ACAD
1000
AcDbSavedByObjectVersion
1070
     0
  0
VISUALSTYLE
  5
2B
102
{ACAD_REACTORS
330
2A
102
}
330
2A
100
AcDbVisualStyle
  2
Flat
 70
     0
 71
     2
 72
     1
 73
     1
 90
        2
 40
-0.6
 41
30.0
 62
     5
 63
     7
421
 16777215
 74
     0
 91
        4
 64
     7
 65
   257
 75
     1
175
     1
 42
1.0
 92
        8
 66
     7
 43
1.0
 76
     1
 77
     6
 78
     2
 67
     7
 79
     5
170
     0
171
     0
290
     0
174
     0
 93
       13
 44
0.0
173
     0
291
     1
 45
0.0
1001
ACAD
1000
AcDbSavedByObjectVersion
1070
     0
  0
VISUALSTYLE
  5
2C
102
{ACAD_REACTORS
330
2A
102
}
330
2A
100
AcDbVisualStyle
  2
FlatWithEdges
 70
     1
 71
     2
 72
     1
 73
     1
 90
        2
 40
-0.6
 41
30.0
 62
     5
 63
     7
421
 16777215
 74
     1
 91
        4
 64
     7
 65
   257
 75
     1
175
     1
 42
1.0
 92
        0
 66
   257
 43
1.0
 76
     1
 77
     6
 78
     2
 67
     7
 79
     5
170
     0
171
     0
290
     0
174
     0
 93
       13
 44
0.0
173
     0
291
     1
 45
0.0
1001
ACAD
1000
AcDbSavedByObjectVersion
1070
     0
  0
VISUALSTYLE
  5
2D
102
{ACAD_REACTORS
330
2A
102
}
330
2A
100
AcDbVisualStyle
  2
Gouraud
 70
     2
 71
     2
 72
     2
 73
     1
 90
        2
 40
-0.6
 41
30.0
 62
     5
 63
     7
421
 16777215
 74
     0
 91
        4
 64
     7
 65
   257
 75
     1
175
     1
 42
1.0
 92
        0
 66
     7
 43
1.0
 76
     1
 77
     6
 78
     2
 67
     7
 79
     5
170
     0
171
     0
290
     0
174
     0
 93
       13
 44
0.0
173
     0
291
     1
 45
0.0
1001
ACAD
1000
AcDbSavedByObjectVersion
1070
     0
  0
VISUALSTYLE
  5
2E
102
{ACAD_REACTORS
330
2A
102
}
330
2A
100
AcDbVisualStyle
  2
GouraudWithEdges
 70
     3
 71
     2
 72
     2
 73
     1
 90
        2
 40
-0.6
 41
30.0
 62
     5
 63
     7
421
 16777215
 74
     1
 91
        4
 64
     7
 65
   257
 75
     1
175
     1
 42
1.0
 92
        0
 66
   257
 43
1.0
 76
     1
 77
     6
 78
     2
 67
     7
 79
     5
170
     0
171
     0
290
     0
174
     0
 93
       13
 44
0.0
173
     0
291
     1
 45
0.0
1001
ACAD
1000
AcDbSavedByObjectVersion
1070
     0
  0
VISUALSTYLE
  5
38
102
{ACAD_REACTORS
330
2A
102
}
330
2A
100
AcDbVisualStyle
  2
Linepattern
 70
    14
 71
     2
 72
     2
 73
     0
 90
        0
 40
-0.6
 41
-30.0
 62
     5
 63
     7
421
 16777215
 74
     1
 91
        4
 64
     7
 65
   257
 75
     7
175
     7
 42
1.0
 92
        8
 66
     7
 43
1.0
 76
     1
 77
     6
 78
     2
 67
     7
 79
     5
170
     0
171
     0
290
     0
174
     0
 93
        1
 44
0.0
173
     0
291
     1
 45
0.0
1001
ACAD
1000
AcDbSavedByObjectVersion
1070
     0
  0
VISUALSTYLE
  5
33
102
{ACAD_REACTORS
330
2A
102
}
330
2A
100
AcDbVisualStyle
  2
Realistic
 70
     8
 71
     2
 72
     2
 73
     0
 90
        0
 40
-0.6
 41
-30.0
 62
     5
 63
     7
421
 16777215
 74
     1
 91
        0
 64
     7
 65
   257
 75
     1
175
     1
 42
1.0
 92
        8
 66
     8
424
  7895160
 43
1.0
 76
     1
 77
     6
 78
     2
 67
     7
 79
     5
170
     0
171
     0
290
     0
174
     0
 93
       13
 44
0.0
173
     0
291
     0
 45
0.0
1001
ACAD
1000
AcDbSavedByObjectVersion
1070
     0
  0
VISUALSTYLE
  5
37
102
{ACAD_REACTORS
330
2A
102
}
330
2A
100
AcDbVisualStyle
  2
Thicken
 70
    13
 71
     2
 72
     2
 73
     0
 90
        0
 40
-0.6
 41
-30.0
 62
     5
 63
     7
421
 16777215
 74
     1
 91
        4
 64
     7
 65
   257
 75
     1
175
     1
 42
1.0
 92
       12
 66
     7
 43
1.0
 76
     1
 77
     6
 78
     2
 67
     7
 79
     5
170
     0
171
     0
290
     0
174
     0
 93
        1
 44
0.0
173
     0
291
     1
 45
0.0
1001
ACAD
1000
AcDbSavedByObjectVersion
1070
     0
  0
ENDSEC
  0
EOF
