  0
SECTION
  2
HEADER
  9
$ACADVER
  1
AC1018
  9
$ACADMAINTVER
 70
     0
  9
$DWGCODEPAGE
  3
ANSI_1252
  9
$INSBASE
 10
0.0
 20
0.0
 30
0.0
  9
$EXTMIN
 10
-10.43138118166928
 20
-0.0024689149220385
 30
0.0
  9
$EXTMAX
 10
41.97844509118701
 20
61.51279891775591
 30
0.0
  9
$LIMMIN
 10
0.0
 20
0.0
  9
$LIMMAX
 10
12.0
 20
9.0
  9
$ORTHOMODE
 70
     0
  9
$REGENMODE
 70
     1
  9
$FILLMODE
 70
     1
  9
$QTEXTMODE
 70
     0
  9
$MIRRTEXT
 70
     1
  9
$LTSCALE
 40
0.0393700787401575
  9
$ATTMODE
 70
     1
  9
$TEXTSIZE
 40
0.2
  9
$TRACEWID
 40
0.05
  9
$TEXTSTYLE
  7
Standard
  9
$CLAYER
  8
Default
  9
$CELTYPE
  6
ByLayer
  9
$CECOLOR
 62
   256
  9
$CELTSCALE
 40
1.0
  9
$DISPSILH
 70
     0
  9
$DIMSCALE
 40
1.0
  9
$DIMASZ
 40
0.18
  9
$DIMEXO
 40
0.0625
  9
$DIMDLI
 40
0.38
  9
$DIMRND
 40
0.0
  9
$DIMDLE
 40
0.0
  9
$DIMEXE
 40
0.18
  9
$DIMTP
 40
0.0
  9
$DIMTM
 40
0.0
  9
$DIMTXT
 40
0.18
  9
$DIMCEN
 40
0.09
  9
$DIMTSZ
 40
0.0
  9
$DIMTOL
 70
     0
  9
$DIMLIM
 70
     0
  9
$DIMTIH
 70
     1
  9
$DIMTOH
 70
     1
  9
$DIMSE1
 70
     0
  9
$DIMSE2
 70
     0
  9
$DIMTAD
 70
     0
  9
$DIMZIN
 70
     0
  9
$DIMBLK
  1

  9
$DIMASO
 70
     1
  9
$DIMSHO
 70
     1
  9
$DIMPOST
  1

  9
$DIMAPOST
  1

  9
$DIMALT
 70
     0
  9
$DIMALTD
 70
     2
  9
$DIMALTF
 40
25.4
  9
$DIMLFAC
 40
1.0
  9
$DIMTOFL
 70
     0
  9
$DIMTVP
 40
0.0
  9
$DIMTIX
 70
     0
  9
$DIMSOXD
 70
     0
  9
$DIMSAH
 70
     0
  9
$DIMBLK1
  1

  9
$DIMBLK2
  1

  9
$DIMSTYLE
  2
Standard
  9
$DIMCLRD
 70
     0
  9
$DIMCLRE
 70
     0
  9
$DIMCLRT
 70
     0
  9
$DIMTFAC
 40
1.0
  9
$DIMGAP
 40
0.09
  9
$DIMJUST
 70
     0
  9
$DIMSD1
 70
     0
  9
$DIMSD2
 70
     0
  9
$DIMTOLJ
 70
     1
  9
$DIMTZIN
 70
     0
  9
$DIMALTZ
 70
     0
  9
$DIMALTTZ
 70
     0
  9
$DIMUPT
 70
     0
  9
$DIMDEC
 70
     4
  9
$DIMTDEC
 70
     4
  9
$DIMALTU
 70
     2
  9
$DIMALTTD
 70
     2
  9
$DIMTXSTY
  7
Standard
  9
$DIMAUNIT
 70
     0
  9
$DIMADEC
 70
     0
  9
$DIMALTRND
 40
0.0
  9
$DIMAZIN
 70
     0
  9
$DIMDSEP
 70
    46
  9
$DIMATFIT
 70
     3
  9
$DIMFRAC
 70
     0
  9
$DIMLDRBLK
  1

  9
$DIMLUNIT
 70
     2
  9
$DIMLWD
 70
    -2
  9
$DIMLWE
 70
    -2
  9
$DIMTMOVE
 70
     2
  9
$LUNITS
 70
     2
  9
$LUPREC
 70
     3
  9
$SKETCHINC
 40
0.1
  9
$FILLETRAD
 40
0.5
  9
$AUNITS
 70
     0
  9
$AUPREC
 70
     0
  9
$MENU
  1
.
  9
$ELEVATION
 40
0.0
  9
$PELEVATION
 40
0.0
  9
$THICKNESS
 40
0.0
  9
$LIMCHECK
 70
     0
  9
$CHAMFERA
 40
0.5
  9
$CHAMFERB
 40
0.5
  9
$CHAMFERC
 40
1.0
  9
$CHAMFERD
 40
0.0
  9
$SKPOLY
 70
     0
  9
$TDCREATE
 40
2456954.490421609
  9
$TDUCREATE
 40
2456954.657088276
  9
$TDUPDATE
 40
2456954.49042162
  9
$TDUUPDATE
 40
2456954.657088287
  9
$TDINDWG
 40
0.0000000116
  9
$TDUSRTIMER
 40
0.0000000116
  9
$USRTIMER
 70
     1
  9
$ANGBASE
 50
0.0
  9
$ANGDIR
 70
     0
  9
$PDMODE
 70
     0
  9
$PDSIZE
 40
0.0
  9
$PLINEWID
 40
0.0
  9
$SPLFRAME
 70
     0
  9
$SPLINETYPE
 70
     6
  9
$SPLINESEGS
 70
     8
  9
$HANDSEED
  5
121
  9
$SURFTAB1
 70
     6
  9
$SURFTAB2
 70
     6
  9
$SURFTYPE
 70
     6
  9
$SURFU
 70
     6
  9
$SURFV
 70
     6
  9
$UCSBASE
  2

  9
$UCSNAME
  2

  9
$UCSORG
 10
0.0
 20
0.0
 30
0.0
  9
$UCSXDIR
 10
1.0
 20
0.0
 30
0.0
  9
$UCSYDIR
 10
0.0
 20
1.0
 30
0.0
  9
$UCSORTHOREF
  2

  9
$UCSORTHOVIEW
 70
     0
  9
$UCSORGTOP
 10
0.0
 20
0.0
 30
0.0
  9
$UCSORGBOTTOM
 10
0.0
 20
0.0
 30
0.0
  9
$UCSORGLEFT
 10
0.0
 20
0.0
 30
0.0
  9
$UCSORGRIGHT
 10
0.0
 20
0.0
 30
0.0
  9
$UCSORGFRONT
 10
0.0
 20
0.0
 30
0.0
  9
$UCSORGBACK
 10
0.0
 20
0.0
 30
0.0
  9
$PUCSBASE
  2

  9
$PUCSNAME
  2

  9
$PUCSORG
 10
0.0
 20
0.0
 30
0.0
  9
$PUCSXDIR
 10
1.0
 20
0.0
 30
0.0
  9
$PUCSYDIR
 10
0.0
 20
1.0
 30
0.0
  9
$PUCSORTHOREF
  2

  9
$PUCSORTHOVIEW
 70
     0
  9
$PUCSORGTOP
 10
0.0
 20
0.0
 30
0.0
  9
$PUCSORGBOTTOM
 10
0.0
 20
0.0
 30
0.0
  9
$PUCSORGLEFT
 10
0.0
 20
0.0
 30
0.0
  9
$PUCSORGRIGHT
 10
0.0
 20
0.0
 30
0.0
  9
$PUCSORGFRONT
 10
0.0
 20
0.0
 30
0.0
  9
$PUCSORGBACK
 10
0.0
 20
0.0
 30
0.0
  9
$USERI1
 70
     0
  9
$USERI2
 70
     0
  9
$USERI3
 70
     0
  9
$USERI4
 70
     0
  9
$USERI5
 70
     0
  9
$USERR1
 40
0.0
  9
$USERR2
 40
0.0
  9
$USERR3
 40
0.0
  9
$USERR4
 40
0.0
  9
$USERR5
 40
0.0
  9
$WORLDVIEW
 70
     1
  9
$SHADEDGE
 70
     3
  9
$SHADEDIF
 70
    70
  9
$TILEMODE
 70
     1
  9
$MAXACTVP
 70
    64
  9
$PINSBASE
 10
0.0
 20
0.0
 30
0.0
  9
$PLIMCHECK
 70
     0
  9
$PEXTMIN
 10
1.000000000000000E+20
 20
1.000000000000000E+20
 30
1.000000000000000E+20
  9
$PEXTMAX
 10
-1.000000000000000E+20
 20
-1.000000000000000E+20
 30
-1.000000000000000E+20
  9
$PLIMMIN
 10
0.0
 20
0.0
  9
$PLIMMAX
 10
12.0
 20
9.0
  9
$UNITMODE
 70
     0
  9
$VISRETAIN
 70
     1
  9
$PLINEGEN
 70
     0
  9
$PSLTSCALE
 70
     1
  9
$TREEDEPTH
 70
  3020
  9
$CMLSTYLE
  2
Standard
  9
$CMLJUST
 70
     0
  9
$CMLSCALE
 40
1.0
  9
$PROXYGRAPHICS
 70
     1
  9
$MEASUREMENT
 70
     0
  9
$CELWEIGHT
370
    -1
  9
$ENDCAPS
280
     0
  9
$JOINSTYLE
280
     0
  9
$LWDISPLAY
290
     0
  9
$INSUNITS
 70
     1
  9
$HYPERLINKBASE
  1

  9
$STYLESHEET
  1

  9
$XEDIT
290
     1
  9
$CEPSNTYPE
380
     0
  9
$PSTYLEMODE
290
     1
  9
$FINGERPRINTGUID
  2
{A76FC1CE-D0DC-49EA-AA40-51AB618E1CA5}
  9
$VERSIONGUID
  2
{FAEB1C32-E019-11D5-929B-00C0DF256EC4}
  9
$EXTNAMES
290
     1
  9
$PSVPSCALE
 40
0.0
  9
$OLESTARTUP
290
     0
  9
$SORTENTS
280
   127
  9
$INDEXCTL
280
     0
  9
$HIDETEXT
280
     1
  9
$XCLIPFRAME
290
     0
  9
$HALOGAP
280
     0
  9
$OBSCOLOR
 70
   257
  9
$OBSLTYPE
280
     0
  9
$INTERSECTIONDISPLAY
280
     0
  9
$INTERSECTIONCOLOR
 70
   257
  9
$DIMASSOC
280
     2
  9
$PROJECTNAME
  1

  0
ENDSEC
  0
SECTION
  2
CLASSES
  0
CLASS
  1
ACDBDICTIONARYWDFLT
  2
AcDbDictionaryWithDefault
  3
ObjectDBX Classes
 90
        0
 91
        4
280
     0
281
     0
  0
CLASS
  1
VISUALSTYLE
  2
AcDbVisualStyle
  3
ObjectDBX Classes
 90
     4095
 91
        4
280
     0
281
     0
  0
ENDSEC
  0
SECTION
  2
TABLES
  0
TABLE
  2
VPORT
  5
8
330
0
100
AcDbSymbolTable
 70
     1
  0
VPORT
  5
29
330
8
100
AcDbSymbolTableRecord
100
AcDbViewportTableRecord
  2
*Active
 70
     0
 10
0.0
 20
0.0
 11
1.0
 21
1.0
 12
15.77353195475887
 22
30.75516500141693
 13
0.0
 23
0.0
 14
0.5
 24
0.5
 15
0.5
 25
0.5
 16
0.0
 26
0.0
 36
1.0
 17
0.0
 27
0.0
 37
0.0
 40
62.74557318933151
 41
0.8519807865489827
 42
50.0
 43
0.0
 44
0.0
 50
0.0
 51
0.0
 71
     0
 72
   100
 73
     1
 74
     3
 75
     0
 76
     0
 77
     0
 78
     0
281
     0
 65
     1
110
0.0
120
0.0
130
0.0
111
1.0
121
0.0
131
0.0
112
0.0
122
1.0
132
0.0
 79
     0
146
0.0
  0
ENDTAB
  0
TABLE
  2
LTYPE
  5
5
330
0
100
AcDbSymbolTable
 70
     1
  0
LTYPE
  5
14
330
5
100
AcDbSymbolTableRecord
100
AcDbLinetypeTableRecord
  2
ByBlock
 70
     0
  3

 72
    65
 73
     0
 40
0.0
  0
LTYPE
  5
15
330
5
100
AcDbSymbolTableRecord
100
AcDbLinetypeTableRecord
  2
ByLayer
 70
     0
  3

 72
    65
 73
     0
 40
0.0
  0
LTYPE
  5
16
330
5
100
AcDbSymbolTableRecord
100
AcDbLinetypeTableRecord
  2
Continuous
 70
     0
  3
Solid line
 72
    65
 73
     0
 40
0.0
  0
ENDTAB
  0
TABLE
  2
LAYER
  5
2
330
0
100
AcDbSymbolTable
 70
     2
  0
LAYER
  5
10
330
2
100
AcDbSymbolTableRecord
100
AcDbLayerTableRecord
  2
0
 70
     0
 62
     7
  6
Continuous
370
    -3
390
F
  0
LAYER
  5
3B
330
2
100
AcDbSymbolTableRecord
100
AcDbLayerTableRecord
  2
Default
 70
     0
 62
     7
  6
Continuous
370
    -3
390
F
  0
ENDTAB
  0
TABLE
  2
STYLE
  5
3
330
0
100
AcDbSymbolTable
 70
     1
  0
STYLE
  5
11
330
3
100
AcDbSymbolTableRecord
100
AcDbTextStyleTableRecord
  2
Standard
 70
     0
 40
0.0
 41
1.0
 50
0.0
 71
     0
 42
0.2
  3
txt
  4

  0
ENDTAB
  0
TABLE
  2
VIEW
  5
6
330
0
100
AcDbSymbolTable
 70
     0
  0
ENDTAB
  0
TABLE
  2
UCS
  5
7
330
0
100
AcDbSymbolTable
 70
     0
  0
ENDTAB
  0
TABLE
  2
APPID
  5
9
330
0
100
AcDbSymbolTable
 70
     1
  0
APPID
  5
12
330
9
100
AcDbSymbolTableRecord
100
AcDbRegAppTableRecord
  2
ACAD
 70
     0
  0
ENDTAB
  0
TABLE
  2
DIMSTYLE
  5
A
330
0
100
AcDbSymbolTable
 70
     1
100
AcDbDimStyleTable
  0
DIMSTYLE
105
27
330
A
100
AcDbSymbolTableRecord
100
AcDbDimStyleTableRecord
  2
Standard
 70
     0
340
11
  0
ENDTAB
  0
TABLE
  2
BLOCK_RECORD
  5
1
330
0
100
AcDbSymbolTable
 70
     1
  0
BLOCK_RECORD
  5
1F
330
1
100
AcDbSymbolTableRecord
100
AcDbBlockTableRecord
  2
*Model_Space
340
22
  0
BLOCK_RECORD
  5
1B
330
1
100
AcDbSymbolTableRecord
100
AcDbBlockTableRecord
  2
*Paper_Space
340
1E
  0
BLOCK_RECORD
  5
23
330
1
100
AcDbSymbolTableRecord
100
AcDbBlockTableRecord
  2
*Paper_Space0
340
26
  0
ENDTAB
  0
ENDSEC
  0
SECTION
  2
BLOCKS
  0
BLOCK
  5
20
330
1F
100
AcDbEntity
  8
0
100
AcDbBlockBegin
  2
*Model_Space
 70
     0
 10
0.0
 20
0.0
 30
0.0
  3
*Model_Space
  1

  0
ENDBLK
  5
21
330
1F
100
AcDbEntity
  8
0
100
AcDbBlockEnd
  0
BLOCK
  5
1C
330
1B
100
AcDbEntity
 67
     1
  8
0
100
AcDbBlockBegin
  2
*Paper_Space
 70
     0
 10
0.0
 20
0.0
 30
0.0
  3
*Paper_Space
  1

  0
ENDBLK
  5
1D
330
1B
100
AcDbEntity
 67
     1
  8
0
100
AcDbBlockEnd
  0
BLOCK
  5
24
330
23
100
AcDbEntity
  8
0
100
AcDbBlockBegin
  2
*Paper_Space0
 70
     0
 10
0.0
 20
0.0
 30
0.0
  3
*Paper_Space0
  1

  0
ENDBLK
  5
25
330
23
100
AcDbEntity
  8
0
100
AcDbBlockEnd
  0
ENDSEC
  0
SECTION
  2
ENTITIES
  0
SPLINE
  5
3C
330
1F
100
AcDbEntity
  8
Default
100
AcDbSpline
210
0.0
220
0.0
230
1.0
 70
    12
 71
     2
 72
     8
 73
     5
 74
     0
 42
0.0000000001
 43
0.0000000001
 40
0.0
 40
0.0
 40
0.0
 40
0.1690256349283122
 40
0.1690256349283122
 40
0.3380512698566244
 40
0.3380512698566244
 40
0.3380512698566244
 10
21.22991199596879
 20
30.91917882929866
 30
0.0
 41
1.0
 10
21.13796516153867
 20
30.93797432541151
 30
0.0
 41
0.8572559322646445
 10
21.07817839482323
 20
30.8656346159736
 30
0.0
 41
1.0
 10
21.01839162810779
 20
30.7932949065357
 30
0.0
 41
0.8572559322646445
 10
21.05416575005279
 20
30.70653256888329
 30
0.0
 41
1.0
  0
SPLINE
  5
3D
330
1F
100
AcDbEntity
  8
Default
100
AcDbSpline
210
0.0
220
0.0
230
1.0
 70
    12
 71
     2
 72
     8
 73
     5
 74
     0
 42
0.0000000001
 43
0.0000000001
 40
0.0
 40
0.0
 40
0.0
 40
0.1466454949755766
 40
0.1466454949755766
 40
0.2932909899511532
 40
0.2932909899511532
 40
0.2932909899511532
 10
23.33381580904091
 20
21.64644568283447
 30
0.0
 41
1.0
 10
23.3315222742025
 20
21.56725330038713
 30
0.0
 41
0.8918969760408813
 10
23.39405142388597
 20
21.51860354006294
 30
0.0
 41
1.0
 10
23.45658057356945
 20
21.46995377973876
 30
0.0
 41
0.8918969760408813
 10
23.53277861499464
 20
21.49164599545546
 30
0.0
 41
1.0
  0
SPLINE
  5
3E
330
1F
100
AcDbEntity
  8
Default
100
AcDbSpline
210
0.0
220
0.0
230
1.0
 70
     8
 71
     3
 72
    11
 73
     7
 74
     0
 42
0.0000000001
 43
0.0000000001
 40
0.0
 40
0.0
 40
0.0
 40
0.0
 40
0.4305319194939327
 40
0.6761607843529747
 40
0.936694035910168
 40
1.187533833707546
 40
1.187533833707546
 40
1.187533833707546
 40
1.187533833707546
 10
23.53276186041728
 20
21.49167309567011
 30
0.0
 10
23.67267690139136
 20
21.52368747620055
 30
0.0
 10
23.897070602886
 20
21.55035605919602
 30
0.0
 10
24.19992506333858
 20
21.62818286896695
 30
0.0
 10
24.43829543114975
 20
21.71150048978274
 30
0.0
 10
24.59076528872754
 20
21.78911277645587
 30
0.0
 10
24.66312979380444
 20
21.83075586899294
 30
0.0
  0
SPLINE
  5
3F
330
1F
100
AcDbEntity
  8
Default
100
AcDbSpline
210
0.0
220
0.0
230
1.0
 70
     8
 71
     3
 72
    23
 73
    19
 74
     0
 42
0.0000000001
 43
0.0000000001
 40
0.0
 40
0.0
 40
0.0
 40
0.0
 40
1.0178716147505
 40
2.176358818916439
 40
2.61588123659808
 40
3.158358901046834
 40
3.384019779601684
 40
4.109109792526405
 40
5.363423240323053
 40
5.959758848723831
 40
7.667141295717129
 40
8.1611567166983
 40
8.73390112518842
 40
9.059333254106061
 40
9.24373858722212
 40
9.72786522749654
 40
10.19703624309155
 40
11.00102805315352
 40
11.00102805315352
 40
11.00102805315352
 40
11.00102805315352
 10
25.21344977759242
 20
22.27813796539213
 30
0.0
 10
25.44274666194048
 20
22.52968288634531
 30
0.0
 10
25.78617345342496
 20
23.1870091499389
 30
0.0
 10
25.85839120175984
 20
24.0711545351357
 30
0.0
 10
25.77927750108847
 20
24.77867825023452
 30
0.0
 10
25.72310920409143
 20
25.17836499821141
 30
0.0
 10
25.63556198881673
 20
25.66773150083431
 30
0.0
 10
25.47640458411439
 20
26.38626103597727
 30
0.0
 10
25.20732514324527
 20
27.20311362685268
 30
0.0
 10
24.73806127284757
 20
28.29267227232855
 30
0.0
 10
24.28828922093606
 20
29.11284536712159
 30
0.0
 10
23.7538708872296
 20
29.86839582174241
 30
0.0
 10
23.42271393479416
 20
30.1978778963626
 30
0.0
 10
23.13123259453653
 20
30.41033755704191
 30
0.0
 10
22.84557361286772
 20
30.57984071590545
 30
0.0
 10
22.49105651308486
 20
30.71794679862944
 30
0.0
 10
21.92071347883819
 20
30.85778994379163
 30
0.0
 10
21.49433240900044
 20
30.87709894550159
 30
0.0
 10
21.22990144043723
 20
30.91912408792602
 30
0.0
  0
SPLINE
  5
40
330
1F
100
AcDbEntity
  8
Default
100
AcDbSpline
210
0.0
220
0.0
230
1.0
 70
    12
 71
     3
 72
    12
 73
     8
 74
     0
 42
0.0000000001
 43
0.0000000001
 40
-1.0
 40
-1.0
 40
-1.0
 40
-1.0
 40
-0.875
 40
-0.875
 40
-0.75
 40
-0.75
 40
-0.6329199333998808
 40
-0.6329199333998808
 40
-0.6329199333998808
 40
-0.6329199333998808
 10
23.33381580904091
 20
21.64644568283447
 30
0.0
 41
1.0
 10
23.3446406294525
 20
22.02570538078962
 30
0.0
 41
1.0
 10
23.3242651580386
 20
22.4558365585268
 30
0.0
 41
1.0
 10
23.22823019851609
 20
23.35680496577039
 30
0.0
 41
1.0
 10
23.15313210380168
 20
23.82685978712985
 30
0.0
 41
1.0
 10
22.98200340015433
 20
24.70504654000013
 30
0.0
 41
1.0
 10
22.89215866164716
 20
25.10230276344397
 30
0.0
 41
1.0
 10
22.79867279459387
 20
25.47768270504932
 30
0.0
 41
1.0
  0
SPLINE
  5
41
330
1F
100
AcDbEntity
  8
Default
100
AcDbSpline
210
0.0
220
0.0
230
1.0
 70
    12
 71
     2
 72
     6
 73
     3
 74
     0
 42
0.0000000001
 43
0.0000000001
 40
0.0
 40
0.0
 40
0.0
 40
4.887933103701366
 40
4.887933103701366
 40
4.887933103701366
 10
22.63958126366992
 20
26.08584767683385
 30
0.0
 41
1.0
 10
21.98311747881435
 20
28.44293715534779
 30
0.0
 41
0.9982657130694296
 10
21.05416575005279
 20
30.70653256888329
 30
0.0
 41
1.0
  0
SPLINE
  5
42
330
1F
100
AcDbEntity
  8
Default
100
AcDbSpline
210
0.0
220
0.0
230
1.0
 70
     8
 71
     3
 72
    20
 73
    16
 74
     0
 42
0.0000000001
 43
0.0000000001
 40
0.0
 40
0.0
 40
0.0
 40
0.0
 40
1.016023921203492
 40
1.527494508839443
 40
2.164610804987852
 40
3.988000207643519
 40
5.804062866727969
 40
7.268374888272469
 40
7.793056219858554
 40
8.239581996564139
 40
8.709131721423118
 40
9.168116820596085
 40
9.553899249817224
 40
10.19568979129581
 40
10.33789683585716
 40
10.33789683585716
 40
10.33789683585716
 40
10.33789683585716
 10
25.14969793185361
 20
22.60896327441171
 30
0.0
 10
25.34131681935514
 20
22.89047252089323
 30
0.0
 10
25.50944630477943
 20
23.3806719589754
 30
0.0
 10
25.56201557492835
 20
24.103612302161
 30
0.0
 10
25.46232871413559
 20
25.08929295305275
 30
0.0
 10
25.18706863116256
 20
26.49440758773419
 30
0.0
 10
24.53657758388988
 20
28.07385617110964
 30
0.0
 10
23.89843917085705
 20
29.1725059640969
 30
0.0
 10
23.40370235834689
 20
29.81854509525868
 30
0.0
 10
23.03848886349732
 20
30.13498996449673
 30
0.0
 10
22.64929119369486
 20
30.37890893007537
 30
0.0
 10
22.23338330381176
 20
30.52598414731621
 30
0.0
 10
21.7497343644705
 20
30.63299343391648
 30
0.0
 10
21.3589129990105
 20
30.6596368206979
 30
0.0
 10
21.10081111130978
 20
30.69743026202863
 30
0.0
 10
21.05416575005279
 20
30.70653256888329
 30
0.0
  0
SPLINE
  5
43
330
1F
100
AcDbEntity
  8
Default
100
AcDbSpline
210
0.0
220
0.0
230
1.0
 70
     8
 71
     3
 72
    11
 73
     7
 74
     0
 42
0.0000000001
 43
0.0000000001
 40
0.0
 40
0.0
 40
0.0
 40
0.0
 40
0.1200553089436328
 40
0.5147636855652583
 40
0.7898292835510572
 40
1.365398434204968
 40
1.365398434204968
 40
1.365398434204968
 40
1.365398434204968
 10
23.33381580904091
 20
21.64644568283447
 30
0.0
 10
23.37189678575334
 20
21.65911478797619
 30
0.0
 10
23.54002460314092
 20
21.69368092931398
 30
0.0
 10
23.80092903569027
 20
21.73041948725492
 30
0.0
 10
24.20298164226222
 20
21.83763707600204
 30
0.0
 10
24.45941231579002
 20
21.96458588118537
 30
0.0
 10
24.6158942188963
 20
22.07601484476045
 30
0.0
  0
SPLINE
  5
44
330
1F
100
AcDbEntity
  8
Default
100
AcDbSpline
210
0.0
220
0.0
230
1.0
 70
    12
 71
     2
 72
     6
 73
     3
 74
     0
 42
0.0000000001
 43
0.0000000001
 40
0.0
 40
0.0
 40
0.0
 40
0.0394383425927629
 40
0.0394383425927629
 40
0.0394383425927629
 10
23.56370693557596
 20
21.49887312742084
 30
0.0
 41
1.0
 10
23.58297144794247
 20
21.50308644589571
 30
0.0
 41
0.999946436197294
 10
23.6023190448285
 20
21.50690010346099
 30
0.0
 41
1.0
  0
SPLINE
  5
45
330
1F
100
AcDbEntity
  8
Default
100
AcDbSpline
210
0.0
220
0.0
230
1.0
 70
     8
 71
     3
 72
    14
 73
    10
 74
     0
 42
0.0000000001
 43
0.0000000001
 40
0.0
 40
0.0
 40
0.0
 40
0.0
 40
15.14894129379804
 40
15.65034509407024
 40
15.74087703470757
 40
15.98006877737321
 40
16.77973116841668
 40
17.43760275705001
 40
17.85141917712259
 40
17.85141917712259
 40
17.85141917712259
 40
17.85141917712259
 10
41.96883008681783
 20
0.3146594894215156
 30
0.0
 10
41.58253333006752
 20
5.349557898635481
 30
0.0
 10
41.18276328285498
 20
10.55087028468466
 30
0.0
 10
40.78149257718462
 20
15.78258149440248
 30
0.0
 10
40.75854080940962
 20
16.05853774467252
 30
0.0
 10
40.70629948569643
 20
16.43216382957402
 30
0.0
 10
40.55101152642845
 20
16.97883083091303
 30
0.0
 10
40.19130637437007
 20
17.50666784015641
 30
0.0
 10
39.87006323409497
 20
17.68385120071018
 30
0.0
 10
39.73727863400205
 20
17.71986145164171
 30
0.0
  0
SPLINE
  5
46
330
1F
100
AcDbEntity
  8
Default
100
AcDbSpline
210
0.0
220
0.0
230
1.0
 70
     8
 71
     3
 72
    11
 73
     7
 74
     0
 42
0.0000000001
 43
0.0000000001
 40
0.4117299141795924
 40
0.4117299141795924
 40
0.4117299141795924
 40
0.4117299141795924
 40
0.4583845697236367
 40
0.633252475572114
 40
1.126993947823871
 40
1.730652273456374
 40
1.730652273456374
 40
1.730652273456374
 40
1.730652273456374
 10
39.65920917333318
 20
17.07860533213727
 30
0.0
 10
39.67238547828362
 20
17.07025028266324
 30
0.0
 10
39.73268611360055
 20
17.02653504165733
 30
0.0
 10
39.89216311865118
 20
16.84670146507094
 30
0.0
 10
40.06252474083266
 20
16.45210566894984
 30
0.0
 10
40.1291829049722
 20
16.09171066500886
 30
0.0
 10
40.14528263422483
 20
15.8907540506145
 30
0.0
  0
SPLINE
  5
47
330
1F
100
AcDbEntity
  8
Default
100
AcDbSpline
210
0.0
220
0.0
230
1.0
 70
     8
 71
     3
 72
    10
 73
     6
 74
     0
 42
0.0000000001
 43
0.0000000001
 40
0.2063916363212472
 40
0.2063916363212472
 40
0.2063916363212472
 40
0.2063916363212472
 40
0.2409776516219818
 40
0.3206233793155049
 40
0.4117299141795924
 40
0.4117299141795924
 40
0.4117299141795924
 40
0.4117299141795924
 10
39.4634716434432
 20
17.11647386665493
 30
0.0
 10
39.47479046514479
 20
17.11873520389103
 30
0.0
 10
39.51232215956594
 20
17.12506603117168
 30
0.0
 10
39.5818492922412
 20
17.11941208348733
 30
0.0
 10
39.63347867607945
 20
17.09492095160377
 30
0.0
 10
39.65920917333318
 20
17.07860533213727
 30
0.0
  0
SPLINE
  5
48
330
1F
100
AcDbEntity
  8
Default
100
AcDbSpline
210
0.0
220
0.0
230
1.0
 70
     8
 71
     3
 72
    20
 73
    16
 74
     0
 42
0.0000000001
 43
0.0000000001
 40
3.072501162359114
 40
3.072501162359114
 40
3.072501162359114
 40
3.072501162359114
 40
3.455124357712558
 40
3.54023324386009
 40
3.595660178871676
 40
3.626930224215666
 40
3.861208913882892
 40
4.061628228790531
 40
4.304356808173827
 40
4.977239982903842
 40
5.866678241057951
 40
6.144397678862488
 40
6.480624495968338
 40
10.93997226665676
 40
22.20463678737137
 40
22.20463678737137
 40
22.20463678737137
 40
22.20463678737137
 10
27.61196461650334
 20
17.01141278078869
 30
0.0
 10
27.5037613809568
 20
17.07893734264277
 30
0.0
 10
27.3712196479581
 20
17.16106945345958
 30
0.0
 10
27.22335154459347
 20
17.25349359897618
 30
0.0
 10
27.17554850876814
 20
17.28498295351079
 30
0.0
 10
27.08364351231347
 20
17.34005491135957
 30
0.0
 10
26.9257054686222
 20
17.37369633234687
 30
0.0
 10
26.70377232078897
 20
17.31433720311745
 30
0.0
 10
26.39749236330289
 20
17.09579621203969
 30
0.0
 10
26.03425585934997
 20
16.60812131596305
 30
0.0
 10
25.76544086100085
 20
16.05632452978847
 30
0.0
 10
25.60719015867573
 20
15.57943015113163
 30
0.0
 10
25.03188551280954
 20
13.98974426100828
 30
0.0
 10
23.22654940557078
 20
8.94961301497736
 30
0.0
 10
21.456868103408
 20
4.016070053887788
 30
0.0
 10
20.18898849547759
 20
0.4817148795872157
 30
0.0
  0
SPLINE
  5
49
330
1F
100
AcDbEntity
  8
Default
100
AcDbSpline
210
0.0
220
0.0
230
1.0
 70
     8
 71
     3
 72
     8
 73
     4
 74
     0
 42
0.0000000001
 43
0.0000000001
 40
0.0
 40
0.0
 40
0.0
 40
0.0
 40
0.5893480572179314
 40
0.5893480572179314
 40
0.5893480572179314
 40
0.5893480572179314
 10
26.92736359341319
 20
16.70187830585105
 30
0.0
 10
27.09668275463684
 20
16.60139955160466
 30
0.0
 10
27.25879697246557
 20
16.49126590858432
 30
0.0
 10
27.42603118673318
 20
16.38809274316699
 30
0.0
  0
ARC
  5
4A
330
1F
100
AcDbEntity
  8
Default
100
AcDbCircle
 10
33.77422703906785
 20
27.21656047883253
 30
0.0
 40
12.86927990781226
100
AcDbArc
 50
236.903938440609
 51
238.1072950008243
  0
ARC
  5
4B
330
1F
100
AcDbEntity
  8
Default
100
AcDbCircle
 10
33.77422703906785
 20
27.21656047883253
 30
0.0
 40
12.86927990781226
100
AcDbArc
 50
236.7186895837634
 51
236.903938440609
  0
SPLINE
  5
4C
330
1F
100
AcDbEntity
  8
Default
100
AcDbSpline
210
0.0
220
0.0
230
1.0
 70
    12
 71
     3
 72
    11
 73
     7
 74
     0
 42
0.0000000001
 43
0.0000000001
 40
-0.9999998306028092
 40
-0.9999998306028092
 40
-0.9999998306028092
 40
-0.9999998306028092
 40
-0.8571428013020568
 40
-0.7142856026039475
 40
-0.5714284039059381
 40
-0.4999998045568834
 40
-0.4999998045568834
 40
-0.4999998045568834
 40
-0.4999998045568834
 10
39.66230549317487
 20
17.07985589284125
 30
0.0
 41
1.0
 10
39.6380206531399
 20
17.06992026905618
 30
0.0
 41
1.0
 10
39.5925310785745
 20
17.05727086104986
 30
0.0
 41
1.0
 10
39.53253166718565
 20
17.05896789228254
 30
0.0
 41
1.0
 10
39.49108742475386
 20
17.07924517255954
 30
0.0
 41
1.0
 10
39.47331260471702
 20
17.10040250360233
 30
0.0
 41
1.0
 10
39.46823849525805
 20
17.10830744000246
 30
0.0
 41
1.0
  0
SPLINE
  5
4D
330
1F
100
AcDbEntity
  8
Default
100
AcDbSpline
210
0.0
220
0.0
230
1.0
 70
     8
 71
     5
 72
    12
 73
     6
 74
     0
 42
0.0000000001
 43
0.0000000001
 40
-1.0
 40
-1.0
 40
-1.0
 40
-1.0
 40
-1.0
 40
-1.0
 40
0.0
 40
0.0
 40
0.0
 40
0.0
 40
0.0
 40
0.0
 10
39.46823849525805
 20
17.10830744000246
 30
0.0
 10
39.44431927550755
 20
17.14557110417815
 30
0.0
 10
39.43873459261255
 20
17.19460354702265
 30
0.0
 10
39.45949171449905
 20
17.25052759916844
 30
0.0
 10
39.48209592393852
 20
17.28860330844053
 30
0.0
 10
39.50468860485319
 20
17.32668585707322
 30
0.0
  0
SPLINE
  5
4E
330
1F
100
AcDbEntity
  8
Default
100
AcDbSpline
210
0.0
220
0.0
230
1.0
 70
    12
 71
     2
 72
     6
 73
     3
 74
     0
 42
0.0000000001
 43
0.0000000001
 40
0.0
 40
0.0
 40
0.0
 40
0.6079819799708772
 40
0.6079819799708772
 40
0.6079819799708772
 10
39.50468860485319
 20
17.32668585707322
 30
0.0
 41
1.0
 10
39.65979232958034
 20
17.58813093135841
 30
0.0
 41
0.9999986178554586
 10
39.81402583323279
 20
17.85009031493404
 30
0.0
 41
1.0
  0
SPLINE
  5
4F
330
1F
100
AcDbEntity
  8
Default
100
AcDbSpline
210
0.0
220
0.0
230
1.0
 70
     8
 71
     5
 72
    12
 73
     6
 74
     0
 42
0.0000000001
 43
0.0000000001
 40
-1.0
 40
-1.0
 40
-1.0
 40
-1.0
 40
-1.0
 40
-1.0
 40
0.0
 40
0.0
 40
0.0
 40
0.0
 40
0.0
 40
0.0
 10
39.81402583323279
 20
17.85009031493404
 30
0.0
 10
39.82937567300081
 20
17.87616139850786
 30
0.0
 10
39.84472012031546
 20
17.9022356569898
 30
0.0
 10
39.82816204265379
 20
17.99477921824399
 30
0.0
 10
39.79790975235096
 20
17.99443561793666
 30
0.0
 10
39.7676576061628
 20
17.99407976596702
 30
0.0
  0
ARC
  5
50
330
1F
100
AcDbEntity
  8
Default
100
AcDbCircle
 10
40.86600711388036
 20
-75.38022390118354
 30
0.0
 40
93.38076331325607
100
AcDbArc
 50
90.67393154774001
 51
91.15875029397773
  0
POLYLINE
  5
51
330
1F
100
AcDbEntity
  8
Default
100
AcDb2dPolyline
 66
     1
 10
0.0
 20
0.0
 30
0.0
  0
VERTEX
  5
52
330
51
100
AcDbEntity
  8
Default
100
AcDbVertex
100
AcDb2dVertex
 10
38.97760256036815
 20
17.98144320694291
 30
0.0
  0
VERTEX
  5
53
330
51
100
AcDbEntity
  8
Default
100
AcDbVertex
100
AcDb2dVertex
 10
38.22491202187774
 20
17.96135821999313
 30
0.0
  0
VERTEX
  5
54
330
51
100
AcDbEntity
  8
Default
100
AcDbVertex
100
AcDb2dVertex
 10
37.26914184616959
 20
17.92341440818237
 30
0.0
  0
VERTEX
  5
55
330
51
100
AcDbEntity
  8
Default
100
AcDbVertex
100
AcDb2dVertex
 10
34.44528500292654
 20
17.78136019876031
 30
0.0
  0
VERTEX
  5
56
330
51
100
AcDbEntity
  8
Default
100
AcDbVertex
100
AcDb2dVertex
 10
33.54150858739735
 20
17.74135852158915
 30
0.0
  0
VERTEX
  5
57
330
51
100
AcDbEntity
  8
Default
100
AcDbVertex
100
AcDb2dVertex
 10
32.64697914834679
 20
17.71049747295848
 30
0.0
  0
VERTEX
  5
58
330
51
100
AcDbEntity
  8
Default
100
AcDbVertex
100
AcDb2dVertex
 10
31.56930508989325
 20
17.68571296660456
 30
0.0
  0
VERTEX
  5
59
330
51
100
AcDbEntity
  8
Default
100
AcDbVertex
100
AcDb2dVertex
 10
30.52710845267762
 20
17.67398998367321
 30
0.0
  0
VERTEX
  5
5A
330
51
100
AcDbEntity
  8
Default
100
AcDbVertex
100
AcDb2dVertex
 10
29.49862877760143
 20
17.67425662578206
 30
0.0
  0
SEQEND
  5
5B
330
51
100
AcDbEntity
  8
Default
  0
LINE
  5
5C
330
1F
100
AcDbEntity
  8
Default
100
AcDbLine
 10
29.49862877760143
 20
17.67425662578206
 30
0.0
 11
28.62812648726606
 21
17.68270836255563
 31
0.0
  0
ARC
  5
5D
330
1F
100
AcDbEntity
  8
Default
100
AcDbCircle
 10
28.36829253548933
 20
-9.079370981459043
 30
0.0
 40
26.76334068269193
100
AcDbArc
 50
89.4437307782474
 51
91.70523211927905
  0
SPLINE
  5
5E
330
1F
100
AcDbEntity
  8
Default
100
AcDbSpline
210
0.0
220
0.0
230
1.0
 70
     8
 71
     5
 72
    12
 73
     6
 74
     0
 42
0.0000000001
 43
0.0000000001
 40
0.0
 40
0.0
 40
0.0
 40
0.0
 40
0.0
 40
0.0
 40
1.0
 40
1.0
 40
1.0
 40
1.0
 40
1.0
 40
1.0
 10
27.57188185032746
 20
17.67211747280072
 30
0.0
 10
27.5375011997599
 20
17.67109393657687
 30
0.0
 10
27.50312219348595
 20
17.67001516842005
 30
0.0
 10
27.43710143308525
 20
17.61071979892627
 30
0.0
 10
27.44674622224855
 20
17.57770382090855
 30
0.0
 10
27.45638945767541
 20
17.5446873890851
 30
0.0
  0
SPLINE
  5
5F
330
1F
100
AcDbEntity
  8
Default
100
AcDbSpline
210
0.0
220
0.0
230
1.0
 70
    12
 71
     2
 72
     6
 73
     3
 74
     0
 42
0.0000000001
 43
0.0000000001
 40
0.0
 40
0.0
 40
0.0
 40
0.6696562249248778
 40
0.6696562249248778
 40
0.6696562249248778
 10
27.45638945767541
 20
17.5446873890851
 30
0.0
 41
1.0
 10
27.55026192697043
 20
17.22328758441519
 30
0.0
 41
0.9999999328454717
 10
27.64446074569733
 20
16.8998683698612
 30
0.0
 41
1.0
  0
SPLINE
  5
60
330
1F
100
AcDbEntity
  8
Default
100
AcDbSpline
210
0.0
220
0.0
230
1.0
 70
     8
 71
     3
 72
    11
 73
     7
 74
     0
 42
0.0000000001
 43
0.0000000001
 40
0.0
 40
0.0
 40
0.0
 40
0.0
 40
0.1152255024500052
 40
0.1711284474777425
 40
0.2291435419194681
 40
0.4288197426167271
 40
0.4288197426167271
 40
0.4288197426167271
 40
0.4288197426167271
 10
27.64446074569733
 20
16.8998683698612
 30
0.0
 10
27.65552633893674
 20
16.86091504102237
 30
0.0
 10
27.66670571028698
 20
16.80493156723006
 30
0.0
 10
27.67096138962211
 20
16.7283267329036
 30
0.0
 10
27.66661993990647
 20
16.62426803472565
 30
0.0
 10
27.64135903999613
 20
16.53920437706209
 30
0.0
 10
27.6019654973027
 20
16.48505990274637
 30
0.0
  0
SPLINE
  5
61
330
1F
100
AcDbEntity
  8
Default
100
AcDbSpline
210
0.0
220
0.0
230
1.0
 70
    12
 71
     2
 72
     6
 73
     3
 74
     0
 42
0.0000000001
 43
0.0000000001
 40
-0.3207188049165502
 40
-0.3207188049165502
 40
-0.3207188049165502
 40
0.0
 40
0.0
 40
0.0
 10
27.6019654973027
 20
16.48505990274637
 30
0.0
 41
1.0
 10
27.49225208725247
 20
16.3218934157861
 30
0.0
 41
0.7449921237686478
 10
27.31800945259607
 20
16.41299496992191
 30
0.0
 41
1.0
  0
SPLINE
  5
62
330
1F
100
AcDbEntity
  8
Default
100
AcDbSpline
210
0.0
220
0.0
230
1.0
 70
    12
 71
     2
 72
     6
 73
     3
 74
     0
 42
0.0000000001
 43
0.0000000001
 40
-0.2099576760997407
 40
-0.2099576760997407
 40
-0.2099576760997407
 40
0.0
 40
0.0
 40
0.0
 10
27.31800945259607
 20
16.41299496992191
 30
0.0
 41
1.0
 10
27.21395712818675
 20
16.47349190816033
 30
0.0
 41
0.8188763463291373
 10
27.12159473316416
 20
16.3963170823627
 30
0.0
 41
1.0
  0
SPLINE
  5
63
330
1F
100
AcDbEntity
  8
Default
100
AcDbSpline
210
0.0
220
0.0
230
1.0
 70
     8
 71
     5
 72
    12
 73
     6
 74
     0
 42
0.0000000001
 43
0.0000000001
 40
0.0
 40
0.0
 40
0.0
 40
0.0
 40
0.0
 40
0.0
 40
1.0
 40
1.0
 40
1.0
 40
1.0
 40
1.0
 40
1.0
 10
27.12159473316416
 20
16.3963170823627
 30
0.0
 10
27.10971307316717
 20
16.38638917782721
 30
0.0
 10
27.09895038817692
 20
16.37512209033247
 30
0.0
 10
27.08951989780422
 20
16.36273770380137
 30
0.0
 10
27.08025774445386
 20
16.35019217264697
 30
0.0
 10
27.06964495393541
 20
16.33891805138803
 30
0.0
  0
ARC
  5
64
330
1F
100
AcDbEntity
  8
Default
100
AcDbCircle
 10
26.95200990993112
 20
16.44965271983573
 30
0.0
 40
0.1615554715077975
100
AcDbArc
 50
286.7025676922722
 51
316.7307117338891
  0
SPLINE
  5
65
330
1F
100
AcDbEntity
  8
Default
100
AcDbSpline
210
0.0
220
0.0
230
1.0
 70
     8
 71
     3
 72
    13
 73
     9
 74
     0
 42
0.0000000001
 43
0.0000000001
 40
-0.9665834343949399
 40
-0.9665834343949399
 40
-0.9665834343949399
 40
-0.9665834343949399
 40
-0.888888887157098
 40
-0.7777777735693449
 40
-0.6666666599815917
 40
-0.5555555463938384
 40
-0.4444444328059852
 40
-0.3380416828485367
 40
-0.3380416828485367
 40
-0.3380416828485367
 40
-0.3380416828485367
 10
26.99844150885144
 20
16.29491333572227
 30
0.0
 10
26.99054987872262
 20
16.29254534772059
 30
0.0
 10
26.97032650124467
 20
16.28830560674082
 30
0.0
 10
26.93182823092314
 20
16.28892887323798
 30
0.0
 10
26.88310513009475
 20
16.30450232552073
 30
0.0
 10
26.8333090129868
 20
16.3362029744942
 30
0.0
 10
26.78709771289493
 20
16.38069665434877
 30
0.0
 10
26.75890453274434
 20
16.41751586917026
 30
0.0
 10
26.74589544490348
 20
16.43692576609914
 30
0.0
  0
SPLINE
  5
66
330
1F
100
AcDbEntity
  8
Default
100
AcDbSpline
210
0.0
220
0.0
230
1.0
 70
     8
 71
     3
 72
    29
 73
    25
 74
     0
 42
0.0000000001
 43
0.0000000001
 40
0.0
 40
0.0
 40
0.0
 40
0.0
 40
1.0
 40
2.0
 40
3.0
 40
4.0
 40
5.0
 40
6.0
 40
7.0
 40
8.0
 40
9.0
 40
10.0
 40
11.0
 40
12.0
 40
13.0
 40
14.0
 40
15.0
 40
16.0
 40
17.0
 40
18.0
 40
19.0
 40
20.0
 40
21.0
 40
22.0
 40
22.0
 40
22.0
 40
22.0
 10
26.28959827777638
 20
15.43744873924848
 30
0.0
 10
26.46697051397945
 20
15.53247517242828
 30
0.0
 10
26.81363917144594
 20
15.7243182168921
 30
0.0
 10
27.31190614430668
 20
16.09632759805771
 30
0.0
 10
27.93363826962047
 20
16.08693317352993
 30
0.0
 10
28.52901805949202
 20
16.11413874402325
 30
0.0
 10
29.13081325160323
 20
16.1474922668979
 30
0.0
 10
29.73077948619502
 20
16.1811992236791
 30
0.0
 10
30.33115788342988
 20
16.21618460793162
 30
0.0
 10
30.93138203982346
 20
16.25157382322648
 30
0.0
 10
31.53164075318537
 20
16.28697491461787
 30
0.0
 10
32.13191970033367
 20
16.32186557948805
 30
0.0
 10
32.73225846278166
 20
16.35576206563621
 30
0.0
 10
33.33267986051683
 20
16.38815648278849
 30
0.0
 10
33.93319992869601
 20
16.4186760447113
 30
0.0
 10
34.53382876174797
 20
16.44698005063788
 30
0.0
 10
35.13457330710017
 20
16.47269935328744
 30
0.0
 10
35.73543982262211
 20
16.49552605199621
 30
0.0
 10
36.3364121956902
 20
16.51484616894626
 30
0.0
 10
36.93753624737423
 20
16.5311837566267
 30
0.0
 10
37.53860439833039
 20
16.54036656948391
 30
0.0
 10
38.14038078774234
 20
16.55191099834499
 30
0.0
 10
38.73985299329235
 20
16.52321456261103
 30
0.0
 10
39.14428493086444
 20
16.53023376429631
 30
0.0
 10
39.33753156185537
 20
16.48498940127176
 30
0.0
  0
SPLINE
  5
67
330
1F
100
AcDbEntity
  8
Default
100
AcDbSpline
210
0.0
220
0.0
230
1.0
 70
    12
 71
     2
 72
     6
 73
     3
 74
     0
 42
0.0000000001
 43
0.0000000001
 40
0.0
 40
0.0
 40
0.0
 40
0.2902472779686798
 40
0.2902472779686798
 40
0.2902472779686798
 10
39.33753156185537
 20
16.48498940127176
 30
0.0
 41
1.0
 10
39.42813144968605
 20
16.36550672492209
 30
0.0
 41
0.9524295801573665
 10
39.43253950255104
 20
16.21562337463743
 30
0.0
 41
1.0
  0
SPLINE
  5
68
330
1F
100
AcDbEntity
  8
Default
100
AcDbSpline
210
0.0
220
0.0
230
1.0
 70
    24
 71
     2
 72
     6
 73
     3
 74
     0
 42
0.0000000001
 43
0.0000000001
 40
0.0
 40
0.0
 40
0.0
 40
0.4851080627875484
 40
0.4851080627875484
 40
0.4851080627875484
 10
40.42038891958026
 20
17.14425364259974
 30
0.0
 10
40.58504852760575
 20
17.32235381562116
 30
0.0
 10
40.74970813563124
 20
17.50045398864259
 30
0.0
  0
SPLINE
  5
69
330
1F
100
AcDbEntity
  8
Default
100
AcDbSpline
210
0.0
220
0.0
230
1.0
 70
     8
 71
     5
 72
    12
 73
     6
 74
     0
 42
0.0000000001
 43
0.0000000001
 40
0.0
 40
0.0
 40
0.0
 40
0.0
 40
0.0
 40
0.0
 40
1.0
 40
1.0
 40
1.0
 40
1.0
 40
1.0
 40
1.0
 10
40.74970813563124
 20
17.50045398864259
 30
0.0
 10
40.75507061813045
 20
17.50625419108681
 30
0.0
 10
40.76043310062965
 20
17.51205439353103
 30
0.0
 10
40.76368789633688
 20
17.52269873947759
 30
0.0
 10
40.76242564849002
 20
17.53049704667627
 30
0.0
 10
40.76107365228404
 20
17.53827976298919
 30
0.0
  0
ARC
  5
6A
330
1F
100
AcDbEntity
  8
Default
100
AcDbCircle
 10
39.91745553797705
 20
17.39172829638329
 30
0.0
 40
0.8562527986238759
100
AcDbArc
 50
9.854947301369847
 51
20.9112243649894
  0
ARC
  5
6B
330
1F
100
AcDbEntity
  8
Default
100
AcDbCircle
 10
40.30634433379521
 20
17.5403177868493
 30
0.0
 40
0.4399436200199848
100
AcDbArc
 50
20.91122436498918
 51
61.04152877458863
  0
ARC
  5
6C
330
1F
100
AcDbEntity
  8
Default
100
AcDbCircle
 10
40.49207945447262
 20
17.75050769506107
 30
0.0
 40
0.176863678087805
100
AcDbArc
 50
81.12879578554556
 51
124.1554608748895
  0
ARC
  5
6D
330
1F
100
AcDbEntity
  8
Default
100
AcDbCircle
 10
40.68068280657764
 20
17.47252170617496
 30
0.0
 40
0.5127914001386297
100
AcDbArc
 50
124.1554608748848
 51
145.5748548222401
  0
SPLINE
  5
6E
330
1F
100
AcDbEntity
  8
Default
100
AcDbSpline
210
0.0
220
0.0
230
1.0
 70
    12
 71
     2
 72
     6
 73
     3
 74
     0
 42
0.0000000001
 43
0.0000000001
 40
-0.2802268561213049
 40
-0.2802268561213049
 40
-0.2802268561213049
 40
0.0
 40
0.0
 40
0.0
 10
40.25769888527162
 20
17.76241758812691
 30
0.0
 41
1.0
 10
40.18082196085449
 20
17.64527764539175
 30
0.0
 41
0.9999979000070748
 10
40.10346555337941
 20
17.52845378689365
 30
0.0
 41
1.0
  0
SPLINE
  5
6F
330
1F
100
AcDbEntity
  8
Default
100
AcDbSpline
210
0.0
220
0.0
230
1.0
 70
    24
 71
     2
 72
     6
 73
     3
 74
     0
 42
0.0000000001
 43
0.0000000001
 40
-0.4367422323002912
 40
-0.4367422323002912
 40
-0.4367422323002912
 40
0.0
 40
0.0
 40
0.0
 10
39.9680327700982
 20
16.6549733057857
 30
0.0
 10
39.81978991389724
 20
16.49462992440048
 30
0.0
 10
39.67154705769627
 20
16.33428654301527
 30
0.0
  0
SPLINE
  5
70
330
1F
100
AcDbEntity
  8
Default
100
AcDbSpline
210
0.0
220
0.0
230
1.0
 70
    12
 71
     2
 72
     6
 73
     3
 74
     0
 42
0.0000000001
 43
0.0000000001
 40
0.0
 40
0.0
 40
0.0
 40
0.2728207151404825
 40
0.2728207151404825
 40
0.2728207151404825
 10
39.67154705769627
 20
16.33428654301527
 30
0.0
 41
1.0
 10
39.57463097995
 20
16.22945953690528
 30
0.0
 41
0.934565310779701
 10
39.43253950255104
 20
16.21562337463743
 30
0.0
 41
1.0
  0
SPLINE
  5
71
330
1F
100
AcDbEntity
  8
Default
100
AcDbSpline
210
0.0
220
0.0
230
1.0
 70
     8
 71
     3
 72
    16
 73
    12
 74
     0
 42
0.0000000001
 43
0.0000000001
 40
0.0
 40
0.0
 40
0.0
 40
0.0
 40
0.3836354827963281
 40
1.14581517223897
 40
1.635572598331663
 40
2.767759658741936
 40
6.690822763683638
 40
10.76062507274415
 40
11.61906274491063
 40
12.27961164238415
 40
13.18664182356075
 40
13.18664182356075
 40
13.18664182356075
 40
13.18664182356075
 10
39.43253950255104
 20
16.21562337463743
 30
0.0
 10
39.30531197448232
 20
16.20162534913443
 30
0.0
 10
38.92349514813588
 20
16.18690371056861
 30
0.0
 10
38.37841067746734
 20
16.18617891501151
 30
0.0
 10
37.58377889910258
 20
16.16312778753847
 30
0.0
 10
35.7399940495643
 20
16.02823292731316
 30
0.0
 10
32.71686044511648
 20
15.6936647019801
 30
0.0
 10
29.77904231404551
 20
15.41268683202703
 30
0.0
 10
27.91887989785079
 20
15.31242912578958
 30
0.0
 10
27.10954230119029
 20
15.29755121841778
 30
0.0
 10
26.58875760970437
 20
15.35916740427106
 30
0.0
 10
26.29552750419577
 20
15.43597354242722
 30
0.0
  0
ARC
  5
72
330
1F
100
AcDbEntity
  8
Default
100
AcDbCircle
 10
26.32092322351451
 20
15.5329291977182
 30
0.0
 40
0.1002264518608673
100
AcDbArc
 50
210.4284332576773
 51
255.32218479192
  0
SPLINE
  5
73
330
1F
100
AcDbEntity
  8
Default
100
AcDbSpline
210
0.0
220
0.0
230
1.0
 70
    12
 71
     2
 72
     8
 73
     5
 74
     0
 42
0.0000000001
 43
0.0000000001
 40
-0.0366507379431634
 40
-0.0366507379431634
 40
-0.0366507379431634
 40
-0.035329798076913
 40
-0.035329798076913
 40
0.0
 40
0.0
 40
0.0
 10
25.24246963639615
 20
17.09898114358271
 30
0.0
 41
1.0
 10
25.24227114936145
 20
17.09835115462765
 30
0.0
 41
0.9998922934343438
 10
25.24209123799034
 20
17.09771561148595
 30
0.0
 41
1.0
 10
25.23701628564534
 20
17.079788163924
 30
0.0
 41
0.9239355742691507
 10
25.24609960706255
 20
17.06352034939891
 30
0.0
 41
1.0
  0
SPLINE
  5
74
330
1F
100
AcDbEntity
  8
Default
100
AcDbSpline
210
0.0
220
0.0
230
1.0
 70
    24
 71
     2
 72
     6
 73
     3
 74
     0
 42
0.0000000001
 43
0.0000000001
 40
0.0
 40
0.0
 40
0.0
 40
1.121213206560706
 40
1.121213206560706
 40
1.121213206560706
 10
25.24609960706255
 20
17.06352034939891
 30
0.0
 10
25.51940336641781
 20
16.5740463268361
 30
0.0
 10
25.79270712577306
 20
16.08457230427329
 30
0.0
  0
SPLINE
  5
75
330
1F
100
AcDbEntity
  8
Default
100
AcDbSpline
210
0.0
220
0.0
230
1.0
 70
    12
 71
     2
 72
     6
 73
     3
 74
     0
 42
0.0000000001
 43
0.0000000001
 40
0.0140783212356289
 40
0.0140783212356289
 40
0.0140783212356289
 40
0.5155214019379943
 40
0.5155214019379943
 40
0.5155214019379943
 10
25.7161028549765
 20
17.26357728815843
 30
0.0
 41
0.999991444577431
 10
25.47784944450931
 20
17.18541367483683
 30
0.0
 41
0.9998433583321787
 10
25.24246963415948
 20
17.09898114087885
 30
0.0
 41
1.0
  0
SPLINE
  5
76
330
1F
100
AcDbEntity
  8
Default
100
AcDbSpline
210
0.0
220
0.0
230
1.0
 70
     8
 71
     3
 72
    29
 73
    25
 74
     0
 42
0.0000000001
 43
0.0000000001
 40
0.0
 40
0.0
 40
0.0
 40
0.0
 40
1.0
 40
2.0
 40
3.0
 40
4.0
 40
5.0
 40
6.0
 40
7.0
 40
8.0
 40
9.0
 40
10.0
 40
11.0
 40
12.0
 40
13.0
 40
14.0
 40
15.0
 40
16.0
 40
17.0
 40
18.0
 40
19.0
 40
20.0
 40
21.0
 40
22.0
 40
22.0
 40
22.0
 40
22.0
 10
26.1927466009974
 20
17.70480066738054
 30
0.0
 10
26.43032172919317
 20
17.73490544860152
 30
0.0
 10
26.90854060920114
 20
17.76869457107873
 30
0.0
 10
27.62703114548242
 20
17.76511504323841
 30
0.0
 10
28.34525086864485
 20
17.75410245918542
 30
0.0
 10
29.06352990739609
 20
17.74409985675976
 30
0.0
 10
29.7818077007982
 20
17.73488452407997
 30
0.0
 10
30.50012255892329
 20
17.72861070457276
 30
0.0
 10
31.21846216320134
 20
17.72658614332002
 30
0.0
 10
31.93680023090977
 20
17.72891316898564
 30
0.0
 10
32.65511508842371
 20
17.73524845528428
 30
0.0
 10
33.37336147579305
 20
17.74741349992487
 30
0.0
 10
34.0913895112073
 20
17.7691891910101
 30
0.0
 10
34.80903702432931
 20
17.80106034864272
 30
0.0
 10
35.52623179984312
 20
17.84177553388862
 30
0.0
 10
36.24305231681996
 20
17.88851434463477
 30
0.0
 10
36.9597176865305
 20
17.93746427830585
 30
0.0
 10
37.67655808583072
 20
17.98409626330414
 30
0.0
 10
38.39373766232978
 20
18.02422625358714
 30
0.0
 10
39.11171619747222
 20
18.05315418095813
 30
0.0
 10
39.8293003117908
 20
18.06534449201909
 30
0.0
 10
40.55055902330963
 20
18.02906976006936
 30
0.0
 10
41.25398027786861
 20
17.99234602201548
 30
0.0
 10
41.7496735182828
 20
17.77951518039772
 30
0.0
 10
41.7155033759928
 20
17.49425712405287
 30
0.0
  0
ARC
  5
77
330
1F
100
AcDbEntity
  8
Default
100
AcDbCircle
 10
27.80388667010249
 20
13.53524931555319
 30
0.0
 40
5.220496296150263
100
AcDbArc
 50
109.4413019416015
 51
110.6102030851926
  0
SPLINE
  5
78
330
1F
100
AcDbEntity
  8
Default
100
AcDbSpline
210
0.0
220
0.0
230
1.0
 70
     8
 71
     3
 72
    24
 73
    20
 74
     0
 42
0.0000000001
 43
0.0000000001
 40
0.0
 40
0.0
 40
0.0
 40
0.0
 40
1.0
 40
2.0
 40
3.0
 40
4.0
 40
5.0
 40
6.0
 40
7.0
 40
8.0
 40
9.0
 40
10.0
 40
11.0
 40
12.0
 40
13.0
 40
14.0
 40
15.0
 40
16.0
 40
17.0
 40
17.0
 40
17.0
 40
17.0
 10
26.06629160768676
 20
18.45808843309371
 30
0.0
 10
26.37111323764557
 20
18.56568011880341
 30
0.0
 10
26.99982701813352
 20
18.72391672805946
 30
0.0
 10
27.96596255343314
 20
18.82278186920111
 30
0.0
 10
28.93554187107031
 20
18.83586373281165
 30
0.0
 10
29.90492991497351
 20
18.83241326616668
 30
0.0
 10
30.87428417834698
 20
18.84799392997198
 30
0.0
 10
31.84336844522284
 20
18.87361972368976
 30
0.0
 10
32.81218809437712
 20
18.90818165762522
 30
0.0
 10
33.78070759249354
 20
18.95014935963864
 30
0.0
 10
34.7489933213582
 20
18.99707281031391
 30
0.0
 10
35.71727927814717
 20
19.04423200853731
 30
0.0
 10
36.6857274866677
 20
19.08700035585947
 30
0.0
 10
37.65466244402393
 20
19.12204428045588
 30
0.0
 10
38.62346951298849
 20
19.14143370486511
 30
0.0
 10
39.59432931295891
 20
19.15963546540942
 30
0.0
 10
40.55708602077408
 20
19.01297575997691
 30
0.0
 10
41.45589944309285
 20
18.60376682286247
 30
0.0
 10
41.83613807900144
 20
18.02621485306121
 30
0.0
 10
41.82736550829355
 20
17.69256139540656
 30
0.0
  0
ARC
  5
79
330
1F
100
AcDbEntity
  8
Default
100
AcDbCircle
 10
39.29958622353735
 20
17.75902293506921
 30
0.0
 40
2.528652852547563
100
AcDbArc
 50
355.9277807156346
 51
358.4938999083832
  0
SPLINE
  5
7A
330
1F
100
AcDbEntity
  8
Default
100
AcDbSpline
210
0.0
220
0.0
230
1.0
 70
    12
 71
     2
 72
     6
 73
     3
 74
     0
 42
0.0000000001
 43
0.0000000001
 40
0.0
 40
0.0
 40
0.0
 40
0.1499191734217611
 40
0.1499191734217611
 40
0.1499191734217611
 10
41.82185506787482
 20
17.57945365712494
 30
0.0
 41
1.0
 10
41.8083314722124
 20
17.48735708646791
 30
0.0
 41
0.7319642820736633
 10
41.7155033759928
 20
17.49425712405287
 30
0.0
 41
1.0
  0
SPLINE
  5
7B
330
1F
100
AcDbEntity
  8
Default
100
AcDbSpline
210
0.0
220
0.0
230
1.0
 70
    12
 71
     2
 72
     6
 73
     3
 74
     0
 42
0.0000000001
 43
0.0000000001
 40
-0.9548776914065253
 40
-0.9548776914065253
 40
-0.9548776914065253
 40
0.0
 40
0.0
 40
0.0
 10
41.7155033759928
 20
17.49425712405287
 30
0.0
 41
1.0
 10
41.23917206302787
 20
17.52903203119008
 30
0.0
 41
0.9994970478535073
 10
40.76159434165908
 20
17.53354134704895
 30
0.0
 41
1.0
  0
SPLINE
  5
7C
330
1F
100
AcDbEntity
  8
Default
100
AcDbSpline
210
0.0
220
0.0
230
1.0
 70
    12
 71
     2
 72
     6
 73
     3
 74
     0
 42
0.0000000001
 43
0.0000000001
 40
-0.9498278138794916
 40
-0.9498278138794916
 40
-0.9498278138794916
 40
0.0
 40
0.0
 40
0.0
 10
25.24246963415948
 20
17.09898114087885
 30
0.0
 41
1.0
 10
24.77512182963914
 20
17.18348404967182
 30
0.0
 41
0.9999617842354052
 10
24.30036220557042
 20
17.26078178574242
 30
0.0
 41
1.0
  0
SPLINE
  5
7D
330
1F
100
AcDbEntity
  8
Default
100
AcDbSpline
210
0.0
220
0.0
230
1.0
 70
    12
 71
     2
 72
     8
 73
     5
 74
     0
 42
0.0000000001
 43
0.0000000001
 40
0.0
 40
0.0
 40
0.0
 40
0.078609932070983
 40
0.078609932070983
 40
0.157219864141966
 40
0.157219864141966
 40
0.157219864141966
 10
24.30036220557042
 20
17.26078178574242
 30
0.0
 41
1.0
 10
24.25944917547139
 20
17.26750916216056
 30
0.0
 41
0.9237452735763237
 10
24.23529990096586
 20
17.30121296263201
 30
0.0
 41
1.0
 10
24.21115062646045
 20
17.33491676310347
 30
0.0
 41
0.9237452735763237
 10
24.21793538692191
 20
17.37582031613788
 30
0.0
 41
1.0
  0
SPLINE
  5
7E
330
1F
100
AcDbEntity
  8
Default
100
AcDbSpline
210
0.0
220
0.0
230
1.0
 70
    12
 71
     3
 72
    18
 73
    14
 74
     0
 42
0.0000000001
 43
0.0000000001
 40
-1.0
 40
-1.0
 40
-1.0
 40
-1.0
 40
-0.9261952889690555
 40
-0.8523905779375902
 40
-0.7785858669061252
 40
-0.7047811558746601
 40
-0.630976444843195
 40
-0.5925058527700497
 40
-0.5925058527700497
 40
-0.5925058527700497
 40
-0.4774490413905986
 40
-0.3425944813895554
 40
0.1299319075506775
 40
0.1299319075506775
 40
0.1299319075506775
 40
0.1299319075506775
 10
24.21793538692191
 20
17.37582031613788
 30
0.0
 41
1.0
 10
24.23169907893572
 20
17.45879841380247
 30
0.0
 41
1.0
 10
24.25613107184495
 20
17.54655021459301
 30
0.0
 41
1.0
 10
24.31739858041817
 20
17.66356436181898
 30
0.0
 41
1.0
 10
24.40080450641764
 20
17.76659651611305
 30
0.0
 41
1.0
 10
24.5038677480814
 20
17.85627823849924
 30
0.0
 41
1.0
 10
24.60491892886128
 20
17.92095906214223
 30
0.0
 41
1.0
 10
24.67155818822314
 20
17.95532353282003
 30
0.0
 41
1.0
 10
24.69499869276089
 20
17.96656590031813
 30
0.0
 41
1.0
 10
24.72959717490451
 20
17.98312198134754
 30
0.0
 41
1.0
 10
24.80604639014467
 20
18.01628662177018
 30
0.0
 41
1.0
 10
25.03151836930252
 20
18.10104582098337
 30
0.0
 41
1.0
 10
25.22493113874071
 20
18.16120843935948
 30
0.0
 41
1.0
 10
25.37397131335393
 20
18.21212936214164
 30
0.0
 41
1.0
  0
SPLINE
  5
7F
330
1F
100
AcDbEntity
  8
Default
100
AcDbSpline
210
0.0
220
0.0
230
1.0
 70
    12
 71
     2
 72
    10
 73
     7
 74
     0
 42
0.0000000001
 43
0.0000000001
 40
0.0
 40
0.0
 40
0.0
 40
0.0031302355222113
 40
0.0031302355222113
 40
0.0063224148406272
 40
0.0063224148406272
 40
0.009567157387133
 40
0.009567157387133
 40
0.009567157387133
 10
28.62812648726606
 20
17.68270836255562
 30
0.0
 41
1.0
 10
28.62656145573884
 20
17.68272479553586
 30
0.0
 41
0.9999999638889818
 10
28.62499641560521
 20
17.68274038733566
 30
0.0
 41
1.0
 10
28.62340040520439
 20
17.68275629710759
 30
0.0
 41
0.9999999646320399
 10
28.62180438656657
 20
17.68277135792025
 30
0.0
 41
1.0
 10
28.62018208743232
 20
17.68278666149809
 30
0.0
 41
0.9999999623331074
 10
28.61855978014177
 20
17.68280107452875
 30
0.0
 41
1.0
  0
SPLINE
  5
80
330
1F
100
AcDbEntity
  8
Default
100
AcDbSpline
210
0.0
220
0.0
230
1.0
 70
    12
 71
     3
 72
    12
 73
     8
 74
     0
 42
0.0000000001
 43
0.0000000001
 40
-1.0
 40
-1.0
 40
-1.0
 40
-1.0
 40
-0.9376968437737838
 40
-0.9376968437737838
 40
-0.8753936875475677
 40
-0.8753936875475677
 40
-0.751951690753105
 40
-0.751951690753105
 40
-0.751951690753105
 40
-0.751951690753105
 10
24.30036220557042
 20
17.26078178574242
 30
0.0
 41
1.0
 10
24.30037048237631
 20
17.26078037896663
 30
0.0
 41
1.0
 10
24.33470208714152
 20
17.27325371210443
 30
0.0
 41
1.0
 10
24.48519055133616
 20
17.32173395807935
 30
0.0
 41
1.0
 10
24.60005789195941
 20
17.35688479829517
 30
0.0
 41
1.0
 10
24.95827849975757
 20
17.45714614119382
 30
0.0
 41
1.0
 10
25.23517296805161
 20
17.52289316680645
 30
0.0
 41
1.0
 10
25.56160889467273
 20
17.59620025788833
 30
0.0
 41
1.0
  0
SPLINE
  5
81
330
1F
100
AcDbEntity
  8
Default
100
AcDbSpline
210
0.0
220
0.0
230
1.0
 70
     8
 71
     3
 72
    25
 73
    21
 74
     0
 42
0.0000000001
 43
0.0000000001
 40
0.0
 40
0.0
 40
0.0
 40
0.0
 40
0.225676332051864
 40
0.2874627964663117
 40
0.4552122300980705
 40
0.7945999475505603
 40
1.24450300310216
 40
1.853065854363438
 40
7.166752973368984
 40
7.678788638541813
 40
8.236178505445821
 40
8.700477794391604
 40
9.239205473178972
 40
9.664488948235604
 40
9.873357892228968
 40
9.904072052146596
 40
9.934526712173962
 40
9.986623583265825
 40
10.04347866325304
 40
11.1086234205342
 40
11.1086234205342
 40
11.1086234205342
 40
11.1086234205342
 10
26.62047744967106
 20
17.25162385571625
 30
0.0
 10
26.5565456288129
 20
17.29160964346835
 30
0.0
 10
26.47601122941171
 20
17.34266478731644
 30
0.0
 10
26.34857318057618
 20
17.42649361911853
 30
0.0
 10
26.24233296043116
 20
17.58830292118876
 30
0.0
 10
26.11371916833542
 20
17.87843697889949
 30
0.0
 10
25.97917480641109
 20
18.32711252266262
 30
0.0
 10
25.56450651623788
 20
20.40919059575414
 30
0.0
 10
25.17100055173728
 20
22.51874897285724
 30
0.0
 10
24.76552803749291
 20
24.60703535129819
 30
0.0
 10
24.64397897569791
 20
25.10407868839786
 30
0.0
 10
24.45851936131697
 20
25.59082954912218
 30
0.0
 10
24.21098220443497
 20
26.00496850453445
 30
0.0
 10
23.87122934279307
 20
26.22581431660763
 30
0.0
 10
23.64278208036865
 20
26.23548752049743
 30
0.0
 10
23.55464369111615
 20
26.22269103604197
 30
0.0
 10
23.51708332493837
 20
26.21694032025508
 30
0.0
 10
23.4712180431772
 20
26.2101533261918
 30
0.0
 10
23.08413745852164
 20
26.15229233029669
 30
0.0
 10
22.71424642738617
 20
26.09700593579888
 30
0.0
 10
22.36309802173031
 20
26.04452681111482
 30
0.0
  0
SPLINE
  5
82
330
1F
100
AcDbEntity
  8
Default
100
AcDbSpline
210
0.0
220
0.0
230
1.0
 70
     8
 71
     3
 72
     9
 73
     5
 74
     0
 42
0.0000000001
 43
0.0000000001
 40
0.0
 40
0.0
 40
0.0
 40
0.0
 40
0.00003152313445
 40
1.245118352931257
 40
1.245118352931257
 40
1.245118352931257
 40
1.245118352931257
 10
22.424704073947
 20
25.42179256739328
 30
0.0
 10
22.42465304656014
 20
25.42178403239181
 30
0.0
 10
22.83512810018044
 20
25.4831495041612
 30
0.0
 10
23.2456199111013
 20
25.54444460233451
 30
0.0
 10
23.6560808082823
 20
25.60583942003109
 30
0.0
  0
SPLINE
  5
83
330
1F
100
AcDbEntity
  8
Default
100
AcDbSpline
210
0.0
220
0.0
230
1.0
 70
     8
 71
     3
 72
    16
 73
    12
 74
     0
 42
0.0000000001
 43
0.0000000001
 40
0.0
 40
0.0
 40
0.0
 40
0.0
 40
16.41289929611962
 40
16.54796027589672
 40
16.76083098654895
 40
16.95520840927917
 40
17.11286499139569
 40
17.27992562849579
 40
17.42526353136803
 40
17.5519356848284
 40
17.63972565849193
 40
17.63972565849193
 40
17.63972565849193
 40
17.63972565849193
 10
20.77728111739765
 20
0.2706774632122944
 30
0.0
 10
22.62612728473459
 20
5.419763414492635
 30
0.0
 10
24.48513582076913
 20
10.6130847292294
 30
0.0
 10
26.37417649304365
 20
15.8709542291316
 30
0.0
 10
26.4596226699565
 20
16.03155569437956
 30
0.0
 10
26.54165454002049
 20
16.20011346665947
 30
0.0
 10
26.63541772016458
 20
16.34657573361463
 30
0.0
 10
26.72261744233242
 20
16.47623555273245
 30
0.0
 10
26.81467568689038
 20
16.59067016627878
 30
0.0
 10
26.89679201455994
 20
16.67779917981031
 30
0.0
 10
26.95239295229686
 20
16.72354220409244
 30
0.0
 10
26.97797632867861
 20
16.73777074101727
 30
0.0
  0
POLYLINE
  5
84
330
1F
100
AcDbEntity
  8
Default
100
AcDb2dPolyline
 66
     1
 10
0.0
 20
0.0
 30
0.0
  0
VERTEX
  5
85
330
84
100
AcDbEntity
  8
Default
100
AcDbVertex
100
AcDb2dVertex
 10
-9.804774928530378
 20
61.20529778084492
 30
0.0
  0
VERTEX
  5
86
330
84
100
AcDbEntity
  8
Default
100
AcDbVertex
100
AcDb2dVertex
 10
-9.838135961198589
 20
61.30302767436768
 30
0.0
  0
SEQEND
  5
87
330
84
100
AcDbEntity
  8
Default
  0
SPLINE
  5
88
330
1F
100
AcDbEntity
  8
Default
100
AcDbSpline
210
0.0
220
0.0
230
1.0
 70
    12
 71
     2
 72
     8
 73
     5
 74
     0
 42
0.0000000001
 43
0.0000000001
 40
0.0547772198907966
 40
0.0547772198907966
 40
0.0547772198907966
 40
1.570796326794897
 40
1.570796326794897
 40
3.041946464467495
 40
3.041946464467495
 40
3.041946464467495
 10
-9.838135961198589
 20
61.3030276743677
 30
0.0
 41
0.9802846623166819
 10
-9.933600134480727
 20
61.5826863882461
 30
0.0
 41
0.7173206300336504
 10
-10.21356631223989
 20
61.50222616067899
 30
0.0
 41
1.0
 10
-10.4821142896151
 20
61.42504744021629
 30
0.0
 41
0.7256869704680409
 10
-10.42864236783105
 20
61.14670887072599
 30
0.0
 41
0.9651969544960349
  0
POLYLINE
  5
89
330
1F
100
AcDbEntity
  8
Default
100
AcDb2dPolyline
 66
     1
 10
0.0
 20
0.0
 30
0.0
  0
VERTEX
  5
8A
330
89
100
AcDbEntity
  8
Default
100
AcDbVertex
100
AcDb2dVertex
 10
-10.42864236783106
 20
61.146708870726
 30
0.0
  0
VERTEX
  5
8B
330
89
100
AcDbEntity
  8
Default
100
AcDbVertex
100
AcDb2dVertex
 10
-10.40971306209252
 20
61.04817573960005
 30
0.0
  0
SEQEND
  5
8C
330
89
100
AcDbEntity
  8
Default
  0
SPLINE
  5
8D
330
1F
100
AcDbEntity
  8
Default
100
AcDbSpline
210
0.0
220
0.0
230
1.0
 70
     8
 71
     3
 72
    34
 73
    30
 74
     0
 42
0.0000000001
 43
0.0000000001
 40
-27.0
 40
-27.0
 40
-27.0
 40
-27.0
 40
-26.0
 40
-25.0
 40
-24.0
 40
-23.0
 40
-22.0
 40
-21.0
 40
-20.0
 40
-19.0
 40
-18.0
 40
-17.0
 40
-16.0
 40
-15.0
 40
-14.0
 40
-13.0
 40
-12.0
 40
-11.0
 40
-10.0
 40
-9.0
 40
-8.0
 40
-7.0
 40
-6.0
 40
-5.0
 40
-4.0
 40
-3.0
 40
-2.0
 40
-1.0
 40
0.0
 40
0.0
 40
0.0
 40
0.0
 10
-5.014881012791193
 20
56.47593342516384
 30
0.0
 10
-5.322628687335907
 20
56.36814334426018
 30
0.0
 10
-5.93761440180208
 20
56.15281309474585
 30
0.0
 10
-6.825754519416279
 20
55.73007007559968
 30
0.0
 10
-7.552189886031726
 20
55.05765142494118
 30
0.0
 10
-8.081305351102486
 20
54.22809463516043
 30
0.0
 10
-8.428221522947041
 20
53.30928034860891
 30
0.0
 10
-8.639442326812201
 20
52.3532842735992
 30
0.0
 10
-8.798588127302082
 20
51.38823390172246
 30
0.0
 10
-8.92438199971562
 20
50.41821200167328
 30
0.0
 10
-9.027038255929227
 20
49.44556642990251
 30
0.0
 10
-9.11291088879247
 20
48.47130124506145
 30
0.0
 10
-9.183271519977836
 20
47.49579892153776
 30
0.0
 10
-9.241183442723298
 20
46.51949595126557
 30
0.0
 10
-9.287095665465415
 20
45.54251477937717
 30
0.0
 10
-9.322226083713304
 20
44.56525757749449
 30
0.0
 10
-9.33148758249206
 20
43.58652971471182
 30
0.0
 10
-9.27866014406905
 20
42.61139543403421
 30
0.0
 10
-9.153280272538666
 20
41.63269090937213
 30
0.0
 10
-8.630998908019194
 20
40.77337357647721
 30
0.0
 10
-7.795235936348377
 20
40.22886552620929
 30
0.0
 10
-6.840577664942032
 20
39.98535752511214
 30
0.0
 10
-5.865270168037142
 20
39.90304494716177
 30
0.0
 10
-4.889473463950452
 20
39.83924870281089
 30
0.0
 10
-3.911871100933382
 20
39.80618271633452
 30
0.0
 10
-2.934024715498367
 20
39.78875798807238
 30
0.0
 10
-1.956016940474314
 20
39.78271701322981
 30
0.0
 10
-0.9780088829603244
 20
39.78235519005057
 30
0.0
 10
-0.3260026222249337
 20
39.78327583158152
 30
0.0
 10
0.0
 20
39.78328696629923
 30
0.0
  0
SPLINE
  5
8E
330
1F
100
AcDbEntity
  8
Default
100
AcDbSpline
210
0.0
220
0.0
230
1.0
 70
     8
 71
     3
 72
    34
 73
    30
 74
     0
 42
0.0000000001
 43
0.0000000001
 40
0.0
 40
0.0
 40
0.0
 40
0.0
 40
1.0
 40
2.0
 40
3.0
 40
4.0
 40
5.0
 40
6.0
 40
7.0
 40
8.0
 40
9.0
 40
10.0
 40
11.0
 40
12.0
 40
13.0
 40
14.0
 40
15.0
 40
16.0
 40
17.0
 40
18.0
 40
19.0
 40
20.0
 40
21.0
 40
22.0
 40
23.0
 40
24.0
 40
25.0
 40
26.0
 40
27.0
 40
27.0
 40
27.0
 40
27.0
 10
0.0
 20
39.78328696629923
 30
0.0
 10
0.3260026222249337
 20
39.78327583158152
 30
0.0
 10
0.9780088829603244
 20
39.78235519005057
 30
0.0
 10
1.956016940474314
 20
39.78271701322981
 30
0.0
 10
2.934024715498367
 20
39.78875798807238
 30
0.0
 10
3.911871100933382
 20
39.80618271633452
 30
0.0
 10
4.889473463950452
 20
39.83924870281089
 30
0.0
 10
5.865270168037142
 20
39.90304494716177
 30
0.0
 10
6.840577664942032
 20
39.98535752511214
 30
0.0
 10
7.795235936348377
 20
40.22886552620929
 30
0.0
 10
8.630998908019194
 20
40.77337357647721
 30
0.0
 10
9.153280272538666
 20
41.63269090937213
 30
0.0
 10
9.27866014406905
 20
42.61139543403421
 30
0.0
 10
9.33148758249206
 20
43.58652971471182
 30
0.0
 10
9.322226083713304
 20
44.56525757749449
 30
0.0
 10
9.287095665465415
 20
45.54251477937717
 30
0.0
 10
9.241183442723298
 20
46.51949595126557
 30
0.0
 10
9.183271519977836
 20
47.49579892153776
 30
0.0
 10
9.11291088879247
 20
48.47130124506145
 30
0.0
 10
9.027038255929227
 20
49.44556642990251
 30
0.0
 10
8.92438199971562
 20
50.41821200167328
 30
0.0
 10
8.798588127302082
 20
51.38823390172246
 30
0.0
 10
8.639442326812201
 20
52.3532842735992
 30
0.0
 10
8.428221522947041
 20
53.30928034860891
 30
0.0
 10
8.081305351102486
 20
54.22809463516043
 30
0.0
 10
7.552189886031726
 20
55.05765142494118
 30
0.0
 10
6.825754519416279
 20
55.73007007559968
 30
0.0
 10
5.93761440180208
 20
56.15281309474585
 30
0.0
 10
5.322628687335907
 20
56.36814334426018
 30
0.0
 10
5.014881012791193
 20
56.47593342516384
 30
0.0
  0
SPLINE
  5
8F
330
1F
100
AcDbEntity
  8
Default
100
AcDbSpline
210
0.0
220
0.0
230
1.0
 70
    11
 71
     3
 72
    68
 73
    64
 74
     0
 42
0.0000000001
 43
0.0000000001
 40
-6.77394744848656
 40
-6.77394744848656
 40
-6.77394744848656
 40
-6.77394744848656
 40
-4.564301612044764
 40
-2.976319700504901
 40
-1.339986336680283
 40
-0.6766240644506467
 40
0.0
 40
0.0
 40
0.0
 40
0.6766240644512352
 40
1.339986336681168
 40
2.976319700505841
 40
4.564301612044863
 40
6.773947448485717
 40
6.773947448485717
 40
6.773947448485717
 40
7.880212550170685
 40
8.29159366747303
 40
9.047383395322335
 40
9.625090665583897
 40
10.05717264341607
 40
10.05717264341607
 40
10.05717264341607
 40
10.30325585565925
 40
10.58046908260174
 40
10.78359903922054
 40
11.47384165956548
 40
11.97840507999347
 40
12.07269359424015
 40
12.58739702162705
 40
13.47105659867495
 40
13.99648116455272
 40
14.5222912199697
 40
15.24574999827771
 40
18.15331676411529
 40
19.39940300984037
 40
20.1373233622245
 40
22.0959123023386
 40
22.0959123023386
 40
22.0959123023386
 40
24.05450410976468
 40
24.76675145350705
 40
26.03856770285565
 40
28.89571451314518
 40
29.67294339373327
 40
30.17085167017073
 40
30.72071548015717
 40
31.60556652924214
 40
32.12080399297396
 40
32.21526614168332
 40
32.71798690915775
 40
33.40822934216448
 40
33.61135926492121
 40
33.88930536467138
 40
34.13465631669315
 40
34.13465631669315
 40
34.13465631669315
 40
34.34295298318301
 40
34.56895918311234
 40
35.14396587569816
 40
35.90342492105904
 40
36.30758948154118
 40
37.41370621403677
 40
37.41370621403677
 40
37.41370621403677
 40
37.41370621403677
 10
6.788984402304692
 20
56.013857525552
 30
0.0
 10
6.07595400538699
 20
56.19812807560285
 30
0.0
 10
4.721138986571134
 20
56.56924770836119
 30
0.0
 10
2.945573678666051
 20
56.93194741459357
 30
0.0
 10
1.66180394530403
 20
57.11362574004923
 30
0.0
 10
0.6720708820730579
 20
57.18917055605445
 30
0.0
 10
0.2256125449715967
 20
57.20191049207773
 30
0.0
 10
0.0000000000013358
 20
57.20181153010407
 30
0.0
 10
-0.225612544969124
 20
57.20191049207764
 30
0.0
 10
-0.6720708820708126
 20
57.18917055605417
 30
0.0
 10
-1.661803945302125
 20
57.113625740049
 30
0.0
 10
-2.945573678663976
 20
56.93194741459314
 30
0.0
 10
-4.721138986568519
 20
56.5692477083609
 30
0.0
 10
-6.075869002755809
 20
56.19839198479022
 30
0.0
 10
-6.788840848912315
 20
56.01389502239687
 30
0.0
 10
-7.145997603844222
 20
55.92147294887681
 30
0.0
 10
-7.631780967831332
 20
55.78200156296634
 30
0.0
 10
-8.366941174394924
 20
55.59439253072188
 30
0.0
 10
-8.937950610230644
 20
55.48594463824514
 30
0.0
 10
-9.535157148953715
 20
55.49593680961647
 30
0.0
 10
-9.866695467892015
 20
55.70710191801255
 30
0.0
 10
-9.942959313932505
 20
55.83309404651786
 30
0.0
 10
-9.985234317644228
 20
55.90293471121996
 30
0.0
 10
-10.02872776025558
 20
56.08123222100062
 30
0.0
 10
-9.94241860473852
 20
56.31519376230196
 30
0.0
 10
-9.746468211339646
 20
56.64966624994278
 30
0.0
 10
-9.499075903883494
 20
57.0468578917197
 30
0.0
 10
-9.28574155156872
 20
57.41860936241139
 30
0.0
 10
-9.095459134656807
 20
57.73735831025508
 30
0.0
 10
-8.82719102212809
 20
58.15892706769816
 30
0.0
 10
-8.3534973245728
 20
58.60074956926323
 30
0.0
 10
-7.816065142083403
 20
58.95684696121975
 30
0.0
 10
-7.294906668842827
 20
59.238573294079
 30
0.0
 10
-6.027274412911737
 20
59.80027495501375
 30
0.0
 10
-4.461736662644597
 20
60.26274996837458
 30
0.0
 10
-2.855659491980674
 20
60.54645685270114
 30
0.0
 10
-1.551421796590489
 20
60.70974460853634
 30
0.0
 10
-0.652930700975844
 20
60.7622015021565
 30
0.0
 10
-0.0000006613710752
 20
60.76234060476236
 30
0.0
 10
0.6529203489857309
 20
60.76220583572623
 30
0.0
 10
1.542877797004365
 20
60.7102510111624
 30
0.0
 10
2.847245297247184
 20
60.54797839375766
 30
0.0
 10
4.436675536442721
 20
60.26701885958849
 30
0.0
 10
6.012648762645256
 20
59.80657203138574
 30
0.0
 10
7.273333094573132
 20
59.24824381830732
 30
0.0
 10
7.810409939964046
 20
58.96191842297827
 30
0.0
 10
8.346814686138629
 20
58.60421783867412
 30
0.0
 10
8.829193471845173
 20
58.16049703840824
 30
0.0
 10
9.095044514360609
 20
57.73428709471881
 30
0.0
 10
9.287502681349366
 20
57.41917799088529
 30
0.0
 10
9.49829626160627
 20
57.04425341610309
 30
0.0
 10
9.746864250938387
 20
56.65063111157369
 30
0.0
 10
9.942546815048956
 20
56.3147261512334
 30
0.0
 10
10.02877748947472
 20
56.08099783645994
 30
0.0
 10
9.985087991612062
 20
55.90267005327945
 30
0.0
 10
9.942959577525784
 20
55.83309450216547
 30
0.0
 10
9.907057915651649
 20
55.77380250257383
 30
0.0
 10
9.774036574983114
 20
55.63194362620609
 30
0.0
 10
9.459498646197119
 20
55.49502738452358
 30
0.0
 10
8.93274359761378
 20
55.48585307753312
 30
0.0
 10
8.363218388447422
 20
55.59560344488807
 30
0.0
 10
7.62970648442726
 20
55.78234936037541
 30
0.0
 10
7.146026744664823
 20
55.92158601917225
 30
0.0
 10
6.788984402304692
 20
56.013857525552
 30
0.0
  0
SPLINE
  5
90
330
1F
100
AcDbEntity
  8
Default
100
AcDbSpline
210
0.0
220
0.0
230
1.0
 70
    12
 71
     2
 72
     8
 73
     5
 74
     0
 42
0.0000000001
 43
0.0000000001
 40
0.0
 40
0.0
 40
0.0
 40
0.0865273959107956
 40
0.0865273959107956
 40
0.1959595050328624
 40
0.1959595050328624
 40
0.1959595050328624
 10
8.821416358568001
 20
0.2859171600256332
 30
0.0
 41
1.0
 10
8.86406925278191
 20
0.2932215795941532
 30
0.0
 41
0.999649003387531
 10
8.907049167061416
 20
0.2982565471792782
 30
0.0
 41
1.0
 10
8.96138335222198
 20
0.3047520679856099
 30
0.0
 41
0.9998625323368967
 10
9.015903032368215
 20
0.3094424778135334
 30
0.0
 41
1.0
  0
POLYLINE
  5
91
330
1F
100
AcDbEntity
  8
Default
100
AcDb2dPolyline
 66
     1
 10
0.0
 20
0.0
 30
0.0
  0
VERTEX
  5
92
330
91
100
AcDbEntity
  8
Default
100
AcDbVertex
100
AcDb2dVertex
 10
40.14528263422483
 20
15.8907540506145
 30
0.0
  0
VERTEX
  5
93
330
91
100
AcDbEntity
  8
Default
100
AcDbVertex
100
AcDb2dVertex
 10
41.34574709604846
 20
0.2659265571169414
 30
0.0
  0
SEQEND
  5
94
330
91
100
AcDbEntity
  8
Default
  0
SPLINE
  5
95
330
1F
100
AcDbEntity
  8
Default
100
AcDbSpline
210
0.0
220
0.0
230
1.0
 70
    12
 71
     2
 72
     8
 73
     5
 74
     0
 42
0.0000000001
 43
0.0000000001
 40
-0.0950799819146273
 40
-0.0950799819146273
 40
-0.0950799819146273
 40
-0.0475399909573137
 40
-0.0475399909573137
 40
0.0
 40
0.0
 40
0.0
 10
20.09465533822254
 20
0.1871716198572102
 30
0.0
 41
1.0
 10
20.0870591131668
 20
0.1632476202344512
 30
0.0
 41
0.9223262384247396
 10
20.09878367301332
 20
0.1410531383999825
 30
0.0
 41
1.0
 10
20.11050823285978
 20
0.118858656565506
 30
0.0
 41
0.9223262384247396
 10
20.13455164222489
 20
0.1116493019761151
 30
0.0
 41
1.0
  0
ARC
  5
96
330
1F
100
AcDbEntity
  8
Default
100
AcDbCircle
 10
20.54394414042184
 20
1.619202872761775
 30
0.0
 40
1.562152356964127
100
AcDbArc
 50
254.8071051210574
 51
274.3264029719195
  0
SPLINE
  5
97
330
1F
100
AcDbEntity
  8
Default
100
AcDbSpline
210
0.0
220
0.0
230
1.0
 70
    12
 71
     2
 72
     6
 73
     3
 74
     0
 42
0.0000000001
 43
0.0000000001
 40
-0.0626321953815391
 40
-0.0626321953815391
 40
-0.0626321953815391
 40
0.0
 40
0.0
 40
0.0
 10
20.66179016562097
 20
0.0615019063650379
 30
0.0
 41
1.0
 10
20.69597671410146
 20
0.0664086206620528
 30
0.0
 41
0.8658102242625448
 10
20.70879306020703
 20
0.0984794362847055
 30
0.0
 41
1.0
  0
SPLINE
  5
98
330
1F
100
AcDbEntity
  8
Default
100
AcDbSpline
210
0.0
220
0.0
230
1.0
 70
    24
 71
     2
 72
     6
 73
     3
 74
     0
 42
0.0000000001
 43
0.0000000001
 40
0.0
 40
0.0
 40
0.0
 40
0.1791621436966646
 40
0.1791621436966646
 40
0.1791621436966646
 10
20.70879306020703
 20
0.0984794362847055
 30
0.0
 10
20.74197591789817
 20
0.1816880078921201
 30
0.0
 10
20.77515877558932
 20
0.2648965794995348
 30
0.0
  0
ARC
  5
99
330
1F
100
AcDbEntity
  8
Default
100
AcDbCircle
 10
19.95867714010029
 20
-1.076795314281739
 30
0.0
 40
1.570598420643909
100
AcDbArc
 50
58.6775514564474
 51
81.62916350016583
  0
SPLINE
  5
9A
330
1F
100
AcDbEntity
  8
Default
100
AcDbSpline
210
0.0
220
0.0
230
1.0
 70
    24
 71
     2
 72
     6
 73
     3
 74
     0
 42
0.0000000001
 43
0.0000000001
 40
0.0
 40
0.0
 40
0.0
 40
0.3043501914012435
 40
0.3043501914012435
 40
0.3043501914012435
 10
20.18732402722748
 20
0.4770708317991108
 30
0.0
 10
20.14098968272501
 20
0.3321212258281605
 30
0.0
 10
20.09465533822254
 20
0.1871716198572102
 30
0.0
  0
SPLINE
  5
9B
330
1F
100
AcDbEntity
  8
Default
100
AcDbSpline
210
0.0
220
0.0
230
1.0
 70
    12
 71
     2
 72
     6
 73
     3
 74
     0
 42
0.0000000001
 43
0.0000000001
 40
0.0
 40
0.0
 40
0.0
 40
0.022599255445238
 40
0.022599255445238
 40
0.022599255445238
 10
8.789442350169338
 20
0.2794312328018691
 30
0.0
 41
1.0
 10
8.80044263225908
 20
0.282023625366698
 30
0.0
 41
0.9997350652396294
 10
8.811550566965877
 20
0.2841070100674727
 30
0.0
 41
1.0
  0
SPLINE
  5
9C
330
1F
100
AcDbEntity
  8
Default
100
AcDbSpline
210
0.0
220
0.0
230
1.0
 70
    12
 71
     2
 72
     6
 73
     3
 74
     0
 42
0.0000000001
 43
0.0000000001
 40
0.0
 40
0.0
 40
0.0
 40
0.0247437132115748
 40
0.0247437132115748
 40
0.0247437132115748
 10
8.760753014230318
 20
0.2674720635384631
 30
0.0
 41
1.0
 10
8.769659719856795
 20
0.27693688434547
 30
0.0
 41
0.929428217816864
 10
8.782633037971038
 20
0.2777148657900597
 30
0.0
 41
1.0
  0
SPLINE
  5
9D
330
1F
100
AcDbEntity
  8
Default
100
AcDbSpline
210
0.0
220
0.0
230
1.0
 70
    12
 71
     2
 72
     6
 73
     3
 74
     0
 42
0.0000000001
 43
0.0000000001
 40
0.0
 40
0.0
 40
0.0
 40
0.0771003706955799
 40
0.0771003706955799
 40
0.0771003706955799
 10
41.36827162678037
 20
0.0649780585897872
 30
0.0
 41
1.0
 10
41.3736587482425
 20
0.0205155216998598
 30
0.0
 41
0.8040496154182818
 10
41.41773099436483
 20
0.012639441394299
 30
0.0
 41
1.0
  0
ARC
  5
9E
330
1F
100
AcDbEntity
  8
Default
100
AcDbCircle
 10
41.64296094459161
 20
1.683908869756522
 30
0.0
 40
1.68637778467856
100
AcDbArc
 50
262.3247315131545
 51
279.793598324645
  0
SPLINE
  5
9F
330
1F
100
AcDbEntity
  8
Default
100
AcDbSpline
210
0.0
220
0.0
230
1.0
 70
    12
 71
     2
 72
     6
 73
     3
 74
     0
 42
0.0000000001
 43
0.0000000001
 40
0.0
 40
0.0
 40
0.0
 40
0.0855034082648413
 40
0.0855034082648413
 40
0.0855034082648413
 10
41.9298127908549
 20
0.022106820488105
 30
0.0
 41
1.0
 10
41.9804361924646
 20
0.0322327539808728
 30
0.0
 41
0.7610186280100805
 10
41.97844509118346
 20
0.0840522268567412
 30
0.0
 41
1.0
  0
SPLINE
  5
A0
330
1F
100
AcDbEntity
  8
Default
100
AcDbSpline
210
0.0
220
0.0
230
1.0
 70
    24
 71
     2
 72
     6
 73
     3
 74
     0
 42
0.0000000001
 43
0.0000000001
 40
0.0
 40
0.0
 40
0.0
 40
0.2300681636784336
 40
0.2300681636784336
 40
0.2300681636784336
 10
41.97844509118346
 20
0.0840522268567412
 30
0.0
 10
41.97365653305735
 20
0.1991024556333514
 30
0.0
 10
41.96886797493124
 20
0.3141526844099616
 30
0.0
  0
ARC
  5
A1
330
1F
100
AcDbEntity
  8
Default
100
AcDbCircle
 10
41.79339907818263
 20
-1.468374053550249
 30
0.0
 40
1.791142346456375
100
AcDbArc
 50
84.37801354298273
 51
104.4730982747003
  0
SPLINE
  5
A2
330
1F
100
AcDbEntity
  8
Default
100
AcDbSpline
210
0.0
220
0.0
230
1.0
 70
    24
 71
     2
 72
     6
 73
     3
 74
     0
 42
0.0000000001
 43
0.0000000001
 40
0.0
 40
0.0
 40
0.0
 40
0.2021897559235226
 40
0.2021897559235226
 40
0.2021897559235226
 10
41.34574709604846
 20
0.2659265571169414
 30
0.0
 10
41.35700936141441
 20
0.1654523078533643
 30
0.0
 10
41.36827162678037
 20
0.0649780585897872
 30
0.0
  0
SPLINE
  5
A3
330
1F
100
AcDbEntity
  8
Default
100
AcDbSpline
210
0.0
220
0.0
230
1.0
 70
     8
 71
     3
 72
     8
 73
     4
 74
     0
 42
0.0000000001
 43
0.0000000001
 40
0.0
 40
0.0
 40
0.0
 40
0.0
 40
1.0
 40
1.0
 40
1.0
 40
1.0
 10
9.341984909939981
 20
0.0120876363725841
 30
0.0
 10
9.236131916731495
 20
-0.0042887192159924
 30
0.0
 10
8.96811039209507
 20
-0.0077060344578541
 30
0.0
 10
8.829141202834705
 20
0.0221257425791777
 30
0.0
  0
SPLINE
  5
A4
330
1F
100
AcDbEntity
  8
Default
100
AcDbSpline
210
0.0
220
0.0
230
1.0
 70
    24
 71
     2
 72
     6
 73
     3
 74
     0
 42
0.0000000001
 43
0.0000000001
 40
0.0
 40
0.0
 40
0.0
 40
0.1935072007122365
 40
0.1935072007122365
 40
0.1935072007122365
 10
8.760756920185543
 20
0.2671169757131224
 30
0.0
 10
8.771208354569183
 20
0.1709295196640284
 30
0.0
 10
8.781659788952823
 20
0.0747420636149343
 30
0.0
  0
SPLINE
  5
A5
330
1F
100
AcDbEntity
  8
Default
100
AcDbSpline
210
0.0
220
0.0
230
1.0
 70
    24
 71
     2
 72
     6
 73
     3
 74
     0
 42
0.0000000001
 43
0.0000000001
 40
0.0
 40
0.0
 40
0.0
 40
0.2378022079818448
 40
0.2378022079818448
 40
0.2378022079818448
 10
9.393186039831278
 20
0.0746686650291366
 30
0.0
 10
9.388643364478781
 20
0.1934829597537231
 30
0.0
 10
9.384100689126285
 20
0.3122972544783096
 30
0.0
  0
SPLINE
  5
A6
330
1F
100
AcDbEntity
  8
Default
100
AcDbSpline
210
0.0
220
0.0
230
1.0
 70
    12
 71
     2
 72
     6
 73
     3
 74
     0
 42
0.0000000001
 43
0.0000000001
 40
0.0
 40
0.0
 40
0.0
 40
0.049839079307476
 40
0.049839079307476
 40
0.049839079307476
 10
9.242961519615278
 20
0.3224984811157441
 30
0.0
 41
1.0
 10
9.267875460801545
 20
0.3230909568752576
 30
0.0
 41
0.9999130070347984
 10
9.29279636126688
 20
0.3230260496113573
 30
0.0
 41
1.0
  0
SPLINE
  5
A7
330
1F
100
AcDbEntity
  8
Default
100
AcDbSpline
210
0.0
220
0.0
230
1.0
 70
    12
 71
     2
 72
     6
 73
     3
 74
     0
 42
0.0000000001
 43
0.0000000001
 40
0.0
 40
0.0
 40
0.0
 40
0.0159179282250791
 40
0.0159179282250791
 40
0.0159179282250791
 10
9.187137126580467
 20
0.320646869908856
 30
0.0
 41
1.0
 10
9.195088904430857
 20
0.3209854056568444
 30
0.0
 41
0.9999968305897696
 10
9.203042286128778
 20
0.3212838968667882
 30
0.0
 41
1.0
  0
SPLINE
  5
A8
330
1F
100
AcDbEntity
  8
Default
100
AcDbSpline
210
0.0
220
0.0
230
1.0
 70
     8
 71
     3
 72
    43
 73
    39
 74
     0
 42
0.0000000001
 43
0.0000000001
 40
-3.0
 40
-2.0
 40
-1.0
 40
0.0
 40
1.0
 40
2.0
 40
3.0
 40
4.0
 40
5.0
 40
6.0
 40
7.0
 40
8.0
 40
9.0
 40
10.0
 40
11.0
 40
12.0
 40
13.0
 40
14.0
 40
15.0
 40
16.0
 40
17.0
 40
18.0
 40
19.0
 40
20.0
 40
21.0
 40
22.0
 40
23.0
 40
24.0
 40
25.0
 40
26.0
 40
27.0
 40
28.0
 40
29.0
 40
30.0
 40
31.0
 40
32.0
 40
33.0
 40
34.0
 40
35.0
 40
36.0
 40
37.0
 40
38.0
 40
39.0
 10
7.451678598790494
 20
30.83738036095062
 30
0.0
 10
8.819276149083919
 20
30.16278752347777
 30
0.0
 10
9.319929523410764
 20
28.73750430658734
 30
0.0
 10
9.714996982281065
 20
27.36251470873754
 30
0.0
 10
9.985558623270947
 20
25.93859648402525
 30
0.0
 10
10.06204134322579
 20
24.47844658296918
 30
0.0
 10
9.520415376590591
 20
23.09100838573434
 30
0.0
 10
8.359833220269508
 20
22.1602832116053
 30
0.0
 10
6.979049674572053
 20
21.70373142775139
 30
0.0
 10
5.550080261941389
 20
21.46547304186892
 30
0.0
 10
4.107107831317506
 20
21.36338219952958
 30
0.0
 10
2.661568920537064
 20
21.32222188170581
 30
0.0
 10
1.215812641835896
 20
21.29497443632616
 30
0.0
 10
-0.2301746920197729
 20
21.2843730273658
 30
0.0
 10
-1.67623909704065
 20
21.30211318763168
 30
0.0
 10
-3.121485128119474
 20
21.33704346918915
 30
0.0
 10
-4.568134976004728
 20
21.38004488474978
 30
0.0
 10
-6.00287979827587
 20
21.55827669206914
 30
0.0
 10
-7.433680298069504
 20
21.79886458330671
 30
0.0
 10
-8.76705262824396
 20
22.40244430430243
 30
0.0
 10
-9.786720151577839
 20
23.49703335894742
 30
0.0
 10
-10.0718455385624
 20
24.9531045623828
 30
0.0
 10
-9.919203956907637
 20
26.39597475940475
 30
0.0
 10
-9.587865503370239
 20
27.80546035775808
 30
0.0
 10
-9.214131396336654
 20
29.19737156165806
 30
0.0
 10
-8.448973171524045
 20
30.49668308638144
 30
0.0
 10
-6.981344702698749
 20
30.8914588385622
 30
0.0
 10
-5.555418141817
 20
31.01600465379428
 30
0.0
 10
-4.105671018308385
 20
31.05969073425408
 30
0.0
 10
-2.661038199782467
 20
31.0849847694158
 30
0.0
 10
-1.214845944636153
 20
31.10473929644371
 30
0.0
 10
0.2310865187137381
 20
31.11286046884337
 30
0.0
 10
1.677083000765435
 20
31.09886404236971
 30
0.0
 10
3.122921081810659
 20
31.07739343680598
 30
0.0
 10
4.56872149338642
 20
31.05159219744941
 30
0.0
 10
6.013493460582197
 20
30.98094852176237
 30
0.0
 10
7.451678598790494
 20
30.83738036095062
 30
0.0
 10
8.819276149083919
 20
30.16278752347777
 30
0.0
 10
9.319929523410764
 20
28.73750430658734
 30
0.0
  0
SPLINE
  5
A9
330
1F
100
AcDbEntity
  8
Default
100
AcDbSpline
210
0.0
220
0.0
230
1.0
 70
    12
 71
     2
 72
     6
 73
     3
 74
     0
 42
0.0000000001
 43
0.0000000001
 40
0.0
 40
0.0
 40
0.0
 40
0.039938064346221
 40
0.039938064346221
 40
0.039938064346221
 10
9.203042286129971
 20
0.3212838968271257
 30
0.0
 41
1.0
 10
9.222997441235501
 20
0.322037803022401
 30
0.0
 41
0.9999730226390744
 10
9.242961518113646
 20
0.3224984810453719
 30
0.0
 41
1.0
  0
SPLINE
  5
AA
330
1F
100
AcDbEntity
  8
Default
100
AcDbSpline
210
0.0
220
0.0
230
1.0
 70
    12
 71
     2
 72
     8
 73
     5
 74
     0
 42
0.0000000001
 43
0.0000000001
 40
0.0
 40
0.0
 40
0.0
 40
0.0566914603222361
 40
0.0566914603222361
 40
0.1716138446307484
 40
0.1716138446307484
 40
0.1716138446307484
 10
9.015903033105019
 20
0.3094424778282985
 30
0.0
 41
1.0
 10
9.044142550085143
 20
0.3118993964221601
 30
0.0
 41
0.9999754047794314
 10
9.072413751449403
 20
0.31395996470998
 30
0.0
 41
1.0
 10
9.129725374958836
 20
0.3181623379790112
 30
0.0
 41
0.99988791196177
 10
9.18713712664487
 20
0.3206468698706857
 30
0.0
 41
1.0
  0
SPLINE
  5
AB
330
1F
100
AcDbEntity
  8
Default
100
AcDbSpline
210
0.0
220
0.0
230
1.0
 70
    12
 71
     2
 72
     6
 73
     3
 74
     0
 42
0.0000000001
 43
0.0000000001
 40
0.0
 40
0.0
 40
0.0
 40
0.0100305442270566
 40
0.0100305442270566
 40
0.0100305442270566
 10
8.811550567841778
 20
0.2841070101787437
 30
0.0
 41
1.0
 10
8.816477724026823
 20
0.2850433651110885
 30
0.0
 41
0.9999798957634295
 10
8.821416358572264
 20
0.2859171599716603
 30
0.0
 41
1.0
  0
SPLINE
  5
AC
330
1F
100
AcDbEntity
  8
Default
100
AcDbSpline
210
0.0
220
0.0
230
1.0
 70
    12
 71
     2
 72
     6
 73
     3
 74
     0
 42
0.0000000001
 43
0.0000000001
 40
0.0
 40
0.0
 40
0.0
 40
0.0100305442270566
 40
0.0100305442270566
 40
0.0100305442270566
 10
-8.811550567550626
 20
0.2841070101787437
 30
0.0
 41
1.0
 10
-8.816477723735703
 20
0.2850433651110885
 30
0.0
 41
0.9999798957634295
 10
-8.821416358281112
 20
0.2859171599716603
 30
0.0
 41
1.0
  0
SPLINE
  5
AD
330
1F
100
AcDbEntity
  8
Default
100
AcDbSpline
210
0.0
220
0.0
230
1.0
 70
    12
 71
     2
 72
     8
 73
     5
 74
     0
 42
0.0000000001
 43
0.0000000001
 40
0.0
 40
0.0
 40
0.0
 40
0.0566914603222361
 40
0.0566914603222361
 40
0.1716138446307484
 40
0.1716138446307484
 40
0.1716138446307484
 10
-9.015903032813867
 20
0.3094424778282985
 30
0.0
 41
1.0
 10
-9.044142549794016
 20
0.3118993964221601
 30
0.0
 41
0.9999754047794314
 10
-9.072413751158251
 20
0.31395996470998
 30
0.0
 41
1.0
 10
-9.129725374667661
 20
0.3181623379790112
 30
0.0
 41
0.99988791196177
 10
-9.187137126353718
 20
0.3206468698706857
 30
0.0
 41
1.0
  0
SPLINE
  5
AE
330
1F
100
AcDbEntity
  8
Default
100
AcDbSpline
210
0.0
220
0.0
230
1.0
 70
    12
 71
     2
 72
     6
 73
     3
 74
     0
 42
0.0000000001
 43
0.0000000001
 40
1.227185181501445
 40
1.227185181501445
 40
1.227185181501445
 40
1.472621556370215
 40
1.472621556370215
 40
1.472621556370215
 10
-9.292796360974467
 20
0.3230260495811681
 30
0.0
 41
0.8535533905940124
 10
-9.384081247030307
 20
0.322677718057123
 30
0.0
 41
0.8535537194775102
 10
-9.38408124703028
 20
0.3127707701496831
 30
0.0
 41
1.0
  0
SPLINE
  5
AF
330
1F
100
AcDbEntity
  8
Default
100
AcDbSpline
210
0.0
220
0.0
230
1.0
 70
    12
 71
     2
 72
     6
 73
     3
 74
     0
 42
0.0000000001
 43
0.0000000001
 40
0.0
 40
0.0
 40
0.0
 40
0.039938064346221
 40
0.039938064346221
 40
0.039938064346221
 10
-9.20304228583882
 20
0.3212838968271257
 30
0.0
 41
1.0
 10
-9.22299744094438
 20
0.322037803022401
 30
0.0
 41
0.9999730226390744
 10
-9.242961517822494
 20
0.3224984810453719
 30
0.0
 41
1.0
  0
SPLINE
  5
B0
330
1F
100
AcDbEntity
  8
Default
100
AcDbSpline
210
0.0
220
0.0
230
1.0
 70
    12
 71
     2
 72
     6
 73
     3
 74
     0
 42
0.0000000001
 43
0.0000000001
 40
0.0
 40
0.0
 40
0.0
 40
0.0070224917865416
 40
0.0070224917865416
 40
0.0070224917865416
 10
-8.782633037713538
 20
0.2777148657385453
 30
0.0
 41
1.0
 10
-8.786026600383481
 20
0.2786170594482765
 30
0.0
 41
0.9999164634581956
 10
-8.78944234964547
 20
0.2794312326877417
 30
0.0
 41
1.0
  0
POLYLINE
  5
B1
330
1F
100
AcDbEntity
  8
Default
100
AcDb2dPolyline
 66
     1
 10
0.0
 20
0.0
 30
0.0
  0
VERTEX
  5
B2
330
B1
100
AcDbEntity
  8
Default
100
AcDbVertex
100
AcDb2dVertex
 10
9.804774385593078
 20
61.20529778084492
 30
0.0
  0
VERTEX
  5
B3
330
B1
100
AcDbEntity
  8
Default
100
AcDbVertex
100
AcDb2dVertex
 10
9.838135418261288
 20
61.30302767436768
 30
0.0
  0
SEQEND
  5
B4
330
B1
100
AcDbEntity
  8
Default
  0
SPLINE
  5
B5
330
1F
100
AcDbEntity
  8
Default
100
AcDbSpline
210
0.0
220
0.0
230
1.0
 70
    12
 71
     2
 72
     8
 73
     5
 74
     0
 42
0.0000000001
 43
0.0000000001
 40
0.0547772198907966
 40
0.0547772198907966
 40
0.0547772198907966
 40
1.570796326794897
 40
1.570796326794897
 40
3.041946464467495
 40
3.041946464467495
 40
3.041946464467495
 10
9.83813541826132
 20
61.3030276743677
 30
0.0
 41
0.9802846623166819
 10
9.933599591543429
 20
61.5826863882461
 30
0.0
 41
0.7173206300336504
 10
10.21356576930259
 20
61.50222616067899
 30
0.0
 41
1.0
 10
10.48211374667779
 20
61.42504744021629
 30
0.0
 41
0.7256869704680409
 10
10.4286418248937
 20
61.14670887072599
 30
0.0
 41
0.9651969544960349
  0
POLYLINE
  5
B6
330
1F
100
AcDbEntity
  8
Default
100
AcDb2dPolyline
 66
     1
 10
0.0
 20
0.0
 30
0.0
  0
VERTEX
  5
B7
330
B6
100
AcDbEntity
  8
Default
100
AcDbVertex
100
AcDb2dVertex
 10
10.42864182489376
 20
61.146708870726
 30
0.0
  0
VERTEX
  5
B8
330
B6
100
AcDbEntity
  8
Default
100
AcDbVertex
100
AcDb2dVertex
 10
10.40971251915522
 20
61.04817573960005
 30
0.0
  0
SEQEND
  5
B9
330
B6
100
AcDbEntity
  8
Default
  0
SPLINE
  5
BA
330
1F
100
AcDbEntity
  8
Default
100
AcDbSpline
210
0.0
220
0.0
230
1.0
 70
    12
 71
     2
 72
     8
 73
     5
 74
     0
 42
0.0000000001
 43
0.0000000001
 40
0.0
 40
0.0
 40
0.0
 40
1.570796326794897
 40
1.570796326794897
 40
3.141592653589793
 40
3.141592653589793
 40
3.141592653589793
 10
8.8464988504291
 20
39.73677631169642
 30
0.0
 41
1.0
 10
9.072544537039272
 20
39.50027642123582
 30
0.0
 41
0.7071067811865475
 10
9.298451977458171
 20
39.71619788479498
 30
0.0
 41
1.0
 10
9.52435941787706
 20
39.93211934835416
 30
0.0
 41
0.7071067811865475
 10
9.298313731266887
 20
40.16861923881477
 30
0.0
 41
1.0
  0
SPLINE
  5
BB
330
1F
100
AcDbEntity
  8
Default
100
AcDbSpline
210
0.0
220
0.0
230
1.0
 70
    12
 71
     2
 72
     6
 73
     3
 74
     0
 42
0.0000000001
 43
0.0000000001
 40
0.0
 40
0.0
 40
0.0
 40
0.9570378084306489
 40
0.9570378084306489
 40
0.9570378084306489
 10
-8.170022128314145
 20
17.06441676539782
 30
0.0
 41
1.0
 10
-8.606468976715426
 20
17.29885756290493
 30
0.0
 41
0.949583746444036
 10
-8.81752900474629
 20
17.74707849457006
 30
0.0
 41
1.0
  0
SPLINE
  5
BC
330
1F
100
AcDbEntity
  8
Default
100
AcDbSpline
210
0.0
220
0.0
230
1.0
 70
    12
 71
     2
 72
     6
 73
     3
 74
     0
 42
0.0000000001
 43
0.0000000001
 40
0.0
 40
0.0
 40
0.0
 40
0.049839079307476
 40
0.049839079307476
 40
0.049839079307476
 10
-9.242961519324126
 20
0.3224984811157441
 30
0.0
 41
1.0
 10
-9.26787546051042
 20
0.3230909568752576
 30
0.0
 41
0.9999130070347984
 10
-9.292796360975728
 20
0.3230260496113573
 30
0.0
 41
1.0
  0
SPLINE
  5
BD
330
1F
100
AcDbEntity
  8
Default
100
AcDbSpline
210
0.0
220
0.0
230
1.0
 70
    12
 71
     2
 72
     6
 73
     3
 74
     0
 42
0.0000000001
 43
0.0000000001
 40
0.0
 40
0.0
 40
0.0
 40
0.0736943626177064
 40
0.0736943626177064
 40
0.0736943626177064
 10
-8.781921731738294
 20
0.072748723905022
 30
0.0
 41
1.0
 10
-8.78788919172151
 20
0.0309810924284574
 30
0.0
 41
0.8203839743037172
 10
-8.829141202543553
 20
0.0221257425791777
 30
0.0
 41
1.0
  0
SPLINE
  5
BE
330
1F
100
AcDbEntity
  8
Default
100
AcDbSpline
210
0.0
220
0.0
230
1.0
 70
    12
 71
     2
 72
     6
 73
     3
 74
     0
 42
0.0000000001
 43
0.0000000001
 40
0.0
 40
0.0
 40
0.0
 40
0.087805145337338
 40
0.087805145337338
 40
0.087805145337338
 10
-9.34198490964883
 20
0.0120876363725841
 30
0.0
 41
1.0
 10
-9.39501990337343
 20
0.0202925995913594
 30
0.0
 41
0.7481728658079281
 10
-9.393212782407886
 20
0.0739280943182905
 30
0.0
 41
1.0
  0
SPLINE
  5
BF
330
1F
100
AcDbEntity
  8
Default
100
AcDbSpline
210
0.0
220
0.0
230
1.0
 70
     8
 71
     3
 72
    10
 73
     6
 74
     0
 42
0.0000000001
 43
0.0000000001
 40
0.8031722356418188
 40
0.8031722356418188
 40
0.8031722356418188
 40
0.8031722356418188
 40
0.9206461800289194
 40
1.02420694366023
 40
1.126694174608516
 40
1.126694174608516
 40
1.126694174608516
 40
1.126694174608516
 10
6.97069718152872
 20
16.70019203444804
 30
0.0
 10
7.014221979031987
 20
16.70773141888532
 30
0.0
 10
7.086868747069218
 20
16.71997102204452
 30
0.0
 10
7.193359556569817
 20
16.73692017322691
 30
0.0
 10
7.263037408297521
 20
16.72912094005017
 30
0.0
 10
7.296745659340786
 20
16.72774494397029
 30
0.0
  0
SPLINE
  5
C0
330
1F
100
AcDbEntity
  8
Default
100
AcDbSpline
210
0.0
220
0.0
230
1.0
 70
     8
 71
     3
 72
    15
 73
    11
 74
     0
 42
0.0000000001
 43
0.0000000001
 40
0.0
 40
0.0
 40
0.0
 40
0.0
 40
0.1481008985844257
 40
0.2835795947505744
 40
0.4095167464139915
 40
0.5399102056356212
 40
0.8000329001182528
 40
1.110289658690893
 40
5.325350683045592
 40
15.97290079287495
 40
15.97290079287495
 40
15.97290079287495
 40
15.97290079287495
 10
-8.198194379513893
 20
16.20939152989428
 30
0.0
 10
-8.228051954123487
 20
16.17026334486086
 30
0.0
 10
-8.282017464250373
 20
16.09178591198025
 30
0.0
 10
-8.341325993389262
 20
15.96918984208958
 30
0.0
 10
-8.383836856362564
 20
15.84463253070388
 30
0.0
 10
-8.402486422085758
 20
15.67321136737453
 30
0.0
 10
-8.42192804018515
 20
15.44054784276372
 30
0.0
 10
-8.567822835582092
 20
13.85199733313752
 30
0.0
 10
-9.02472148016102
 20
8.815173862968805
 30
0.0
 10
-9.47485484083984
 20
3.881368866668751
 30
0.0
 10
-9.796131691652818
 20
0.3467860905881679
 30
0.0
  0
SPLINE
  5
C1
330
1F
100
AcDbEntity
  8
Default
100
AcDbSpline
210
0.0
220
0.0
230
1.0
 70
    12
 71
     2
 72
     8
 73
     5
 74
     0
 42
0.0000000001
 43
0.0000000001
 40
0.0
 40
0.0
 40
0.0
 40
1.570796326794897
 40
1.570796326794897
 40
3.141592653589793
 40
3.141592653589793
 40
3.141592653589793
 10
-9.796131691652818
 20
0.3467860905881679
 30
0.0
 41
1.0
 10
-9.805191786116774
 20
0.2401560131623326
 30
0.0
 41
0.7071067811865475
 10
-10.1165754149232
 20
0.2666135114557449
 30
0.0
 41
1.0
 10
-10.42795904372965
 20
0.2930710097491493
 30
0.0
 41
0.7071067811865475
 10
-10.41889894926567
 20
0.3997010871749893
 30
0.0
 41
1.0
  0
SPLINE
  5
C2
330
1F
100
AcDbEntity
  8
Default
100
AcDbSpline
210
0.0
220
0.0
230
1.0
 70
     8
 71
     3
 72
    12
 73
     8
 74
     0
 42
0.0000000001
 43
0.0000000001
 40
0.0
 40
0.0
 40
0.0
 40
0.0
 40
15.38685223518402
 40
15.5773112496696
 40
16.05478351798368
 40
16.57800700635227
 40
17.65225730794005
 40
17.65225730794005
 40
17.65225730794005
 40
17.65225730794005
 10
-10.41889894926567
 20
0.3997010871749893
 30
0.0
 10
-9.953419660023485
 20
5.507856158524078
 30
0.0
 10
-9.483889626599705
 20
10.67816658351447
 30
0.0
 10
-8.99831736716527
 20
16.00829484573705
 30
0.0
 10
-8.858058807410373
 20
16.38720435382297
 30
0.0
 10
-8.432813606378716
 20
16.93871240703612
 30
0.0
 10
-7.957353489027298
 20
17.21850797055791
 30
0.0
 10
-7.610018219806307
 20
17.30662157092007
 30
0.0
  0
ARC
  5
C3
330
1F
100
AcDbEntity
  8
Default
100
AcDbCircle
 10
8.925349481719792
 20
18.08568674474128
 30
0.0
 40
0.3618081747652595
100
AcDbArc
 50
273.5970149348103
 51
285.4826416163301
  0
ARC
  5
C4
330
1F
100
AcDbEntity
  8
Default
100
AcDbCircle
 10
8.911161022237195
 20
18.13690893261875
 30
0.0
 40
0.4149591381943658
100
AcDbArc
 50
285.4826416163307
 51
359.2179928887994
  0
SPLINE
  5
C5
330
1F
100
AcDbEntity
  8
Default
100
AcDbSpline
210
0.0
220
0.0
230
1.0
 70
     8
 71
     3
 72
    24
 73
    20
 74
     0
 42
0.0000000001
 43
0.0000000001
 40
0.0
 40
0.0
 40
0.0
 40
0.0
 40
1.0
 40
2.0
 40
3.0
 40
4.0
 40
5.0
 40
6.0
 40
7.0
 40
8.0
 40
9.0
 40
10.0
 40
11.0
 40
12.0
 40
13.0
 40
14.0
 40
15.0
 40
16.0
 40
17.0
 40
17.0
 40
17.0
 40
17.0
 10
9.326081510855431
 20
18.13124549763501
 30
0.0
 10
9.328761899960938
 20
18.32761896365588
 30
0.0
 10
9.126199812106904
 20
18.68199191141343
 30
0.0
 10
8.606811509364178
 20
18.95719572936474
 30
0.0
 10
8.04883880817232
 20
19.10340542771556
 30
0.0
 10
7.472529328266234
 20
19.15646501984963
 30
0.0
 10
6.897514060684045
 20
19.10760078077197
 30
0.0
 10
6.324594923015638
 20
19.04977163036885
 30
0.0
 10
5.751309519457891
 20
18.99237404048787
 30
0.0
 10
5.178005271742023
 20
18.93601718092137
 30
0.0
 10
4.604181395581236
 20
18.88488134753928
 30
0.0
 10
4.029794038886479
 20
18.84058333439725
 30
0.0
 10
3.454907589045547
 20
18.80327782607651
 30
0.0
 10
2.879594703103038
 20
18.77326998350151
 30
0.0
 10
2.30396345866086
 20
18.75020251832188
 30
0.0
 10
1.728117912027841
 20
18.73336306895689
 30
0.0
 10
1.152137932505354
 20
18.72212184137894
 30
0.0
 10
0.576083933195946
 20
18.71582657590355
 30
0.0
 10
0.1920278481560729
 20
18.71449673572994
 30
0.0
 10
0.000000000145576
 20
18.71444081559684
 30
0.0
  0
SPLINE
  5
C6
330
1F
100
AcDbEntity
  8
Default
100
AcDbSpline
210
0.0
220
0.0
230
1.0
 70
     8
 71
     3
 72
    24
 73
    20
 74
     0
 42
0.0000000001
 43
0.0000000001
 40
-17.0
 40
-17.0
 40
-17.0
 40
-17.0
 40
-16.0
 40
-15.0
 40
-14.0
 40
-13.0
 40
-12.0
 40
-11.0
 40
-10.0
 40
-9.0
 40
-8.0
 40
-7.0
 40
-6.0
 40
-5.0
 40
-4.0
 40
-3.0
 40
-2.0
 40
-1.0
 40
0.0
 40
0.0
 40
0.0
 40
0.0
 10
0.000000000145576
 20
18.71444081559684
 30
0.0
 10
-0.1920278478649209
 20
18.71449673572994
 30
0.0
 10
-0.576083932904794
 20
18.71582657590355
 30
0.0
 10
-1.152137932214202
 20
18.72212184137894
 30
0.0
 10
-1.728117911736689
 20
18.73336306895689
 30
0.0
 10
-2.303963458369708
 20
18.75020251832188
 30
0.0
 10
-2.879594702811886
 20
18.77326998350151
 30
0.0
 10
-3.454907588754395
 20
18.80327782607651
 30
0.0
 10
-4.029794038595327
 20
18.84058333439725
 30
0.0
 10
-4.604181395290084
 20
18.88488134753928
 30
0.0
 10
-5.178005271450871
 20
18.93601718092137
 30
0.0
 10
-5.751309519166739
 20
18.99237404048787
 30
0.0
 10
-6.324594922724486
 20
19.04977163036885
 30
0.0
 10
-6.897514060392893
 20
19.10760078077197
 30
0.0
 10
-7.472529327975082
 20
19.15646501984963
 30
0.0
 10
-8.048838807881168
 20
19.10340542771556
 30
0.0
 10
-8.606811509073026
 20
18.95719572936474
 30
0.0
 10
-9.126199811815752
 20
18.68199191141343
 30
0.0
 10
-9.328761899669786
 20
18.32761896365588
 30
0.0
 10
-9.32608151056428
 20
18.13124549763501
 30
0.0
  0
ARC
  5
C7
330
1F
100
AcDbEntity
  8
Default
100
AcDbCircle
 10
-8.911161021946043
 20
18.13690893261875
 30
0.0
 40
0.4149591381943658
100
AcDbArc
 50
180.7820071112007
 51
254.5173583836693
  0
ARC
  5
C8
330
1F
100
AcDbEntity
  8
Default
100
AcDbCircle
 10
-8.92534948142864
 20
18.08568674474128
 30
0.0
 40
0.3618081747652595
100
AcDbArc
 50
254.5173583836699
 51
266.4029850651897
  0
SPLINE
  5
C9
330
1F
100
AcDbEntity
  8
Default
100
AcDbSpline
210
0.0
220
0.0
230
1.0
 70
     8
 71
     3
 72
    20
 73
    16
 74
     0
 42
0.0000000001
 43
0.0000000001
 40
0.0
 40
0.0
 40
0.0
 40
0.0
 40
0.2091202110132331
 40
0.2091202110132331
 40
0.2091202110132331
 40
1.209120211013233
 40
2.209120211013233
 40
3.209120211013233
 40
4.209120211013233
 40
5.209120211013233
 40
6.209120211013233
 40
7.209120211013233
 40
7.209120211013233
 40
7.209120211013233
 40
7.422391775119937
 40
7.422391775119937
 40
7.422391775119937
 40
7.422391775119937
 10
-9.7984974006784
 20
0.3270998834886143
 30
0.0
 10
-9.807383789444316
 20
0.2579618962565462
 30
0.0
 10
-9.816270178210289
 20
0.1888239090244639
 30
0.0
 10
-9.825156566976204
 20
0.1196859217923816
 30
0.0
 10
-9.829430884970975
 20
0.0849590702534186
 30
0.0
 10
-9.890941144944009
 20
0.0475029227314963
 30
0.0
 10
-9.988960180537333
 20
0.0550374105310283
 30
0.0
 10
-10.08566771387353
 20
0.0572687618069239
 30
0.0
 10
-10.18254661601543
 20
0.0654669346096028
 30
0.0
 10
-10.27856561034235
 20
0.0788070836887584
 30
0.0
 10
-10.37547229775805
 20
0.0886150860091846
 30
0.0
 10
-10.43258082667029
 20
0.1326998848309273
 30
0.0
 10
-10.43138118166928
 20
0.1679071808823522
 30
0.0
 10
-10.42756588796408
 20
0.2388952486292908
 30
0.0
 10
-10.42375059425899
 20
0.3098833163762436
 30
0.0
 10
-10.41897699916581
 20
0.3985784538883337
 30
0.0
  0
SPLINE
  5
CA
330
1F
100
AcDbEntity
  8
Default
100
AcDbSpline
210
0.0
220
0.0
230
1.0
 70
    24
 71
     2
 72
     6
 73
     3
 74
     0
 42
0.0000000001
 43
0.0000000001
 40
0.0
 40
0.0
 40
0.0
 40
0.1935072007122365
 40
0.1935072007122365
 40
0.1935072007122365
 10
-8.76075691989439
 20
0.2671169757131224
 30
0.0
 10
-8.77120835427803
 20
0.1709295196640284
 30
0.0
 10
-8.78165978866167
 20
0.0747420636149343
 30
0.0
  0
SPLINE
  5
CB
330
1F
100
AcDbEntity
  8
Default
100
AcDbSpline
210
0.0
220
0.0
230
1.0
 70
    24
 71
     2
 72
     6
 73
     3
 74
     0
 42
0.0000000001
 43
0.0000000001
 40
0.0
 40
0.0
 40
0.0
 40
0.2378022079818448
 40
0.2378022079818448
 40
0.2378022079818448
 10
-9.393186039540126
 20
0.0746686650291366
 30
0.0
 10
-9.38864336418763
 20
0.1934829597537231
 30
0.0
 10
-9.384100688835133
 20
0.3122972544783096
 30
0.0
  0
SPLINE
  5
CC
330
1F
100
AcDbEntity
  8
Default
100
AcDbSpline
210
0.0
220
0.0
230
1.0
 70
    12
 71
     2
 72
     6
 73
     3
 74
     0
 42
0.0000000001
 43
0.0000000001
 40
0.0
 40
0.0
 40
0.0
 40
0.0247437132115748
 40
0.0247437132115748
 40
0.0247437132115748
 10
-8.760753013939166
 20
0.2674720635384631
 30
0.0
 41
1.0
 10
-8.769659719565535
 20
0.27693688434547
 30
0.0
 41
0.929428217816864
 10
-8.782633037679886
 20
0.2777148657900597
 30
0.0
 41
1.0
  0
SPLINE
  5
CD
330
1F
100
AcDbEntity
  8
Default
100
AcDbSpline
210
0.0
220
0.0
230
1.0
 70
    12
 71
     2
 72
     6
 73
     3
 74
     0
 42
0.0000000001
 43
0.0000000001
 40
0.0
 40
0.0
 40
0.0
 40
0.0159179282250791
 40
0.0159179282250791
 40
0.0159179282250791
 10
-9.187137126289315
 20
0.320646869908856
 30
0.0
 41
1.0
 10
-9.195088904139757
 20
0.3209854056568444
 30
0.0
 41
0.9999968305897696
 10
-9.203042285837626
 20
0.3212838968667882
 30
0.0
 41
1.0
  0
SPLINE
  5
CE
330
1F
100
AcDbEntity
  8
Default
100
AcDbSpline
210
0.0
220
0.0
230
1.0
 70
    12
 71
     2
 72
     8
 73
     5
 74
     0
 42
0.0000000001
 43
0.0000000001
 40
0.0
 40
0.0
 40
0.0
 40
0.0865273959107956
 40
0.0865273959107956
 40
0.1959595050328624
 40
0.1959595050328624
 40
0.1959595050328624
 10
-8.82141635827685
 20
0.2859171600256332
 30
0.0
 41
1.0
 10
-8.864069252490763
 20
0.2932215795941532
 30
0.0
 41
0.999649003387531
 10
-8.907049166770264
 20
0.2982565471792782
 30
0.0
 41
1.0
 10
-8.961383351930818
 20
0.3047520679856099
 30
0.0
 41
0.9998625323368967
 10
-9.015903032077063
 20
0.3094424778135334
 30
0.0
 41
1.0
  0
SPLINE
  5
CF
330
1F
100
AcDbEntity
  8
Default
100
AcDbSpline
210
0.0
220
0.0
230
1.0
 70
     8
 71
     3
 72
    10
 73
     6
 74
     0
 42
0.0000000001
 43
0.0000000001
 40
0.8031722356418188
 40
0.8031722356418188
 40
0.8031722356418188
 40
0.8031722356418188
 40
0.9206461800289194
 40
1.02420694366023
 40
1.126694174608516
 40
1.126694174608516
 40
1.126694174608516
 40
1.126694174608516
 10
-6.970697181237568
 20
16.70019203444804
 30
0.0
 10
-7.014221978740835
 20
16.70773141888532
 30
0.0
 10
-7.086868746778066
 20
16.71997102204452
 30
0.0
 10
-7.193359556278665
 20
16.73692017322691
 30
0.0
 10
-7.263037408006369
 20
16.72912094005017
 30
0.0
 10
-7.296745659049634
 20
16.72774494397029
 30
0.0
  0
SPLINE
  5
D0
330
1F
100
AcDbEntity
  8
Default
100
AcDbSpline
210
0.0
220
0.0
230
1.0
 70
    12
 71
     2
 72
     6
 73
     3
 74
     0
 42
0.0000000001
 43
0.0000000001
 40
0.1915216192629671
 40
0.1915216192629671
 40
0.1915216192629671
 40
1.21074955253441
 40
1.21074955253441
 40
1.21074955253441
 10
-8.142322287378443
 20
40.47363451828213
 30
0.0
 41
0.9999999994789258
 10
-8.494430300568405
 20
40.10522395579309
 30
0.0
 41
0.9999999983529527
 10
-8.84649951118746
 20
39.73677631169642
 30
0.0
 41
1.0
  0
SPLINE
  5
D1
330
1F
100
AcDbEntity
  8
Default
100
AcDbSpline
210
0.0
220
0.0
230
1.0
 70
    12
 71
     2
 72
    10
 73
     7
 74
     0
 42
0.0000000001
 43
0.0000000001
 40
6.283120353693191
 40
6.283120353693191
 40
6.283120353693191
 40
6.283185307179586
 40
6.283185307179586
 40
7.853981633974483
 40
7.853981633974483
 40
9.42477796076938
 40
9.42477796076938
 40
9.42477796076938
 10
-8.84649951118746
 20
39.73677631169642
 30
0.0
 41
0.9999757783377694
 10
-8.846505786513864
 20
39.73676974574318
 30
0.0
 41
0.999987888668073
 10
-8.84651206223424
 20
39.73676318016413
 30
0.0
 41
1.0
 10
-9.06114221505831
 20
39.51221983719866
 30
0.0
 41
0.7071067811865475
 10
-9.287043379953786
 20
39.72814786652398
 30
0.0
 41
1.0
 10
-9.512944544849297
 20
39.94407589584929
 30
0.0
 41
0.7071067811865475
 10
-9.298314392025247
 20
40.16861923881477
 30
0.0
 41
1.0
  0
SPLINE
  5
D2
330
1F
100
AcDbEntity
  8
Default
100
AcDbSpline
210
0.0
220
0.0
230
1.0
 70
    12
 71
     2
 72
     6
 73
     3
 74
     0
 42
0.0000000001
 43
0.0000000001
 40
0.0
 40
0.0
 40
0.0
 40
0.9759000131838044
 40
0.9759000131838044
 40
0.9759000131838044
 10
-9.298314392025247
 20
40.16861923881477
 30
0.0
 41
1.0
 10
-8.961210038390105
 20
40.5214022656607
 30
0.0
 41
0.9999999988246768
 10
-8.62407435431082
 20
40.87415535181394
 30
0.0
 41
0.9999999996212976
  0
SPLINE
  5
D3
330
1F
100
AcDbEntity
  8
Default
100
AcDbSpline
210
0.0
220
0.0
230
1.0
 70
    12
 71
     2
 72
     6
 73
     3
 74
     0
 42
0.0000000001
 43
0.0000000001
 40
0.278230417475314
 40
0.278230417475314
 40
0.278230417475314
 40
4.273950401093918
 40
4.273950401093918
 40
4.273950401093918
 10
-9.427134785811624
 20
57.17515132493435
 30
0.0
 41
0.9999999999735182
 10
-9.918386158922987
 20
59.11167311317707
 30
0.0
 41
0.9999999997966035
 10
-10.40971306209252
 20
61.04817573960005
 30
0.0
 41
1.0
  0
SPLINE
  5
D4
330
1F
100
AcDbEntity
  8
Default
100
AcDbSpline
210
0.0
220
0.0
230
1.0
 70
    12
 71
     2
 72
     8
 73
     5
 74
     0
 42
0.0000000001
 43
0.0000000001
 40
-3.141592653589793
 40
-3.141592653589793
 40
-3.141592653589793
 40
-1.570796326794897
 40
-1.570796326794897
 40
0.0
 40
0.0
 40
0.0
 10
-10.40971306209252
 20
61.04817573960005
 30
0.0
 41
1.0
 10
-10.48343990454478
 20
61.33203265816563
 30
0.0
 41
0.7071067811865475
 10
-10.18097083776371
 20
61.41059367878805
 30
0.0
 41
1.0
 10
-9.878501770982695
 20
61.48915469941048
 30
0.0
 41
0.7071067811865475
 10
-9.804774928530378
 20
61.20529778084492
 30
0.0
 41
1.0
  0
SPLINE
  5
D5
330
1F
100
AcDbEntity
  8
Default
100
AcDbSpline
210
0.0
220
0.0
230
1.0
 70
    12
 71
     2
 72
     6
 73
     3
 74
     0
 42
0.0000000001
 43
0.0000000001
 40
0.0
 40
0.0
 40
0.0
 40
3.387889160777971
 40
3.387889160777971
 40
3.387889160777971
 10
-9.804774928530378
 20
61.20529778084492
 30
0.0
 41
1.0
 10
-9.38813349821753
 20
59.56339091308765
 30
0.0
 41
0.999999999344281
 10
-8.971606575335313
 20
57.92145499279436
 30
0.0
 41
0.9999999999044751
  0
SPLINE
  5
D6
330
1F
100
AcDbEntity
  8
Default
100
AcDbSpline
210
0.0
220
0.0
230
1.0
 70
    12
 71
     2
 72
     6
 73
     3
 74
     0
 42
0.0000000001
 43
0.0000000001
 40
0.1915219795070678
 40
0.1915219795070678
 40
0.1915219795070678
 40
1.21074955253441
 40
1.21074955253441
 40
1.21074955253441
 10
8.142321875523853
 20
40.47363425785417
 30
0.0
 41
0.999999999478925
 10
8.494429764248206
 20
40.10522382556598
 30
0.0
 41
0.9999999983529533
 10
8.8464988504291
 20
39.73677631169642
 30
0.0
 41
1.0
  0
SPLINE
  5
D7
330
1F
100
AcDbEntity
  8
Default
100
AcDbSpline
210
0.0
220
0.0
230
1.0
 70
    12
 71
     2
 72
    10
 73
     7
 74
     0
 42
0.0000000001
 43
0.0000000001
 40
6.283120353693191
 40
6.283120353693191
 40
6.283120353693191
 40
6.283185307179586
 40
6.283185307179586
 40
7.853981633974483
 40
7.853981633974483
 40
9.42477796076938
 40
9.42477796076938
 40
9.42477796076938
 10
8.846498850429121
 20
39.73677631169642
 30
0.0
 41
0.9999757783377694
 10
8.846505125755503
 20
39.73676974574318
 30
0.0
 41
0.999987888668073
 10
8.84651140147588
 20
39.73676318016413
 30
0.0
 41
1.0
 10
9.061141554299917
 20
39.51221983719866
 30
0.0
 41
0.7071067811865475
 10
9.287042719195426
 20
39.72814786652398
 30
0.0
 41
1.0
 10
9.512943884090905
 20
39.94407589584929
 30
0.0
 41
0.7071067811865475
 10
9.298313731266887
 20
40.16861923881477
 30
0.0
 41
1.0
  0
SPLINE
  5
D8
330
1F
100
AcDbEntity
  8
Default
100
AcDbSpline
210
0.0
220
0.0
230
1.0
 70
    12
 71
     2
 72
     6
 73
     3
 74
     0
 42
0.0000000001
 43
0.0000000001
 40
0.0
 40
0.0
 40
0.0
 40
0.975899523225328
 40
0.975899523225328
 40
0.975899523225328
 10
9.298313731266887
 20
40.16861923881477
 30
0.0
 41
1.0
 10
8.961209546877718
 20
40.52140208854313
 30
0.0
 41
0.9999999988246774
 10
8.624074032075821
 20
40.87415499760888
 30
0.0
 41
0.9999999996212968
  0
ARC
  5
D9
330
1F
100
AcDbEntity
  8
Default
100
AcDbCircle
 10
8.213387225765757
 20
17.38007012927645
 30
0.0
 40
0.682029309407195
100
AcDbArc
 50
123.5536320567819
 51
133.4297612253499
  0
LINE
  5
DA
330
1F
100
AcDbEntity
  8
Default
100
AcDbLine
 10
7.744516066765215
 20
17.87537187079161
 30
0.0
 11
7.346633385039979
 21
17.49872123847993
 31
0.0
  0
LINE
  5
DB
330
1F
100
AcDbEntity
  8
Default
100
AcDbLine
 10
7.619171265153881
 20
17.28828173588755
 30
0.0
 11
8.162306104579045
 21
17.77812729585344
 31
0.0
  0
ARC
  5
DC
330
1F
100
AcDbEntity
  8
Default
100
AcDbCircle
 10
7.946152032005642
 20
18.01820626733019
 30
0.0
 40
0.3230487511744931
100
AcDbArc
 50
311.9981541802935
 51
332.0599821211269
  0
SPLINE
  5
DD
330
1F
100
AcDbEntity
  8
Default
100
AcDbSpline
210
0.0
220
0.0
230
1.0
 70
    12
 71
     2
 72
     6
 73
     3
 74
     0
 42
0.0000000001
 43
0.0000000001
 40
0.0
 40
0.0
 40
0.0
 40
0.1201321966869808
 40
0.1201321966869808
 40
0.1201321966869808
 10
8.231545765858954
 20
17.8668427568243
 30
0.0
 41
1.0
 10
8.262244024678276
 20
17.92133666011742
 30
0.0
 41
0.9415795465970807
 10
8.251416510823162
 20
17.98293806865956
 30
0.0
 41
1.0
  0
SPLINE
  5
DE
330
1F
100
AcDbEntity
  8
Default
100
AcDbSpline
210
0.0
220
0.0
230
1.0
 70
    12
 71
     2
 72
     6
 73
     3
 74
     0
 42
0.0000000001
 43
0.0000000001
 40
0.0
 40
0.0
 40
0.0
 40
0.7428466754755785
 40
0.7428466754755785
 40
0.7428466754755785
 10
8.08412590069429
 20
17.70771321557793
 30
0.0
 41
1.0
 10
8.455409021177578
 20
17.7191300323528
 30
0.0
 41
0.9998575702029041
 10
8.826865964810764
 20
17.71797589925916
 30
0.0
 41
1.0
  0
SPLINE
  5
DF
330
1F
100
AcDbEntity
  8
Default
100
AcDbSpline
210
0.0
220
0.0
230
1.0
 70
     8
 71
     3
 72
    14
 73
    10
 74
     0
 42
0.0000000001
 43
0.0000000001
 40
0.0
 40
0.0
 40
0.0
 40
0.0
 40
0.1289269245795823
 40
0.2170034950380213
 40
0.4154026164565424
 40
0.501002898741086
 40
0.5571587884798888
 40
0.6227638086819226
 40
0.7383868833901501
 40
0.7383868833901501
 40
0.7383868833901501
 40
0.7383868833901501
 10
8.826865964810764
 20
17.71797589925916
 30
0.0
 10
8.870429294663012
 20
17.71836191150462
 30
0.0
 10
8.941033479281174
 20
17.71903947574366
 30
0.0
 10
9.080102723050402
 20
17.75558649641908
 30
0.0
 10
9.166775713442092
 20
17.84761997348258
 30
0.0
 10
9.226832033192352
 20
17.9468356330388
 30
0.0
 10
9.216939723359275
 20
18.02005362181333
 30
0.0
 10
9.133636586508658
 20
18.05407607764954
 30
0.0
 10
9.077864786445787
 20
18.04772936993206
 30
0.0
 10
9.037614216201007
 20
18.04800970181378
 30
0.0
  0
SPLINE
  5
E0
330
1F
100
AcDbEntity
  8
Default
100
AcDbSpline
210
0.0
220
0.0
230
1.0
 70
     8
 71
     3
 72
    12
 73
     8
 74
     0
 42
0.0000000001
 43
0.0000000001
 40
-5.0
 40
-5.0
 40
-5.0
 40
-5.0
 40
-3.999999997627546
 40
-2.999999995255091
 40
-1.999999992882637
 40
-0.9999999905101824
 40
0.0
 40
0.0
 40
0.0
 40
0.0
 10
9.037614216201007
 20
18.04800970181378
 30
0.0
 10
8.418433215748195
 20
17.99833433253072
 30
0.0
 10
7.217345617269416
 20
17.8988094226986
 30
0.0
 10
5.414928318526989
 20
17.76041895857279
 30
0.0
 10
3.613145259783721
 20
17.61234337151569
 30
0.0
 10
1.807412674975836
 20
17.52180589644558
 30
0.0
 10
0.602556058178294
 20
17.49131865714951
 30
0.0
 10
0.000000000145576
 20
17.4844623596762
 30
0.0
  0
SPLINE
  5
E1
330
1F
100
AcDbEntity
  8
Default
100
AcDbSpline
210
0.0
220
0.0
230
1.0
 70
     8
 71
     3
 72
    12
 73
     8
 74
     0
 42
0.0000000001
 43
0.0000000001
 40
0.0
 40
0.0
 40
0.0
 40
0.0
 40
0.9999999905101824
 40
1.999999992882637
 40
2.999999995255091
 40
3.999999997627546
 40
5.0
 40
5.0
 40
5.0
 40
5.0
 10
0.000000000145576
 20
17.4844623596762
 30
0.0
 10
-0.6025560578871421
 20
17.49131865714951
 30
0.0
 10
-1.807412674684684
 20
17.52180589644558
 30
0.0
 10
-3.613145259492569
 20
17.61234337151569
 30
0.0
 10
-5.414928318235837
 20
17.76041895857279
 30
0.0
 10
-7.217345616978264
 20
17.8988094226986
 30
0.0
 10
-8.418433215457043
 20
17.99833433253072
 30
0.0
 10
-9.037614215909855
 20
18.04800970181378
 30
0.0
  0
SPLINE
  5
E2
330
1F
100
AcDbEntity
  8
Default
100
AcDbSpline
210
0.0
220
0.0
230
1.0
 70
     8
 71
     3
 72
    14
 73
    10
 74
     0
 42
0.0000000001
 43
0.0000000001
 40
-0.7383868833901501
 40
-0.7383868833901501
 40
-0.7383868833901501
 40
-0.7383868833901501
 40
-0.6227638086819226
 40
-0.5571587884798888
 40
-0.501002898741086
 40
-0.4154026164565424
 40
-0.2170034950380213
 40
-0.1289269245795823
 40
0.0
 40
0.0
 40
0.0
 40
0.0
 10
-9.037614215909855
 20
18.04800970181378
 30
0.0
 10
-9.077864786154635
 20
18.04772936993206
 30
0.0
 10
-9.133636586217506
 20
18.05407607764954
 30
0.0
 10
-9.216939723068123
 20
18.02005362181333
 30
0.0
 10
-9.2268320329012
 20
17.9468356330388
 30
0.0
 10
-9.16677571315094
 20
17.84761997348258
 30
0.0
 10
-9.08010272275925
 20
17.75558649641908
 30
0.0
 10
-8.941033478990022
 20
17.71903947574366
 30
0.0
 10
-8.87042929437186
 20
17.71836191150462
 30
0.0
 10
-8.826865964519612
 20
17.71797589925916
 30
0.0
  0
SPLINE
  5
E3
330
1F
100
AcDbEntity
  8
Default
100
AcDbSpline
210
0.0
220
0.0
230
1.0
 70
    12
 71
     2
 72
     6
 73
     3
 74
     0
 42
0.0000000001
 43
0.0000000001
 40
-0.7428466754755785
 40
-0.7428466754755785
 40
-0.7428466754755785
 40
0.0
 40
0.0
 40
0.0
 10
-8.826865964519612
 20
17.71797589925916
 30
0.0
 41
1.0
 10
-8.455409020886442
 20
17.7191300323528
 30
0.0
 41
0.9998575702029041
 10
-8.084125900403137
 20
17.70771321557793
 30
0.0
 41
1.0
  0
SPLINE
  5
E4
330
1F
100
AcDbEntity
  8
Default
100
AcDbSpline
210
0.0
220
0.0
230
1.0
 70
    12
 71
     2
 72
     6
 73
     3
 74
     0
 42
0.0000000001
 43
0.0000000001
 40
1.227185181501445
 40
1.227185181501445
 40
1.227185181501445
 40
1.472621556370215
 40
1.472621556370215
 40
1.472621556370215
 10
9.292796361265639
 20
0.3230260495811681
 30
0.0
 41
0.8535533905940124
 10
9.384081247321442
 20
0.322677718057123
 30
0.0
 41
0.8535537194775102
 10
9.384081247321433
 20
0.3127707701496831
 30
0.0
 41
1.0
  0
SPLINE
  5
E5
330
1F
100
AcDbEntity
  8
Default
100
AcDbSpline
210
0.0
220
0.0
230
1.0
 70
    12
 71
     2
 72
     6
 73
     3
 74
     0
 42
0.0000000001
 43
0.0000000001
 40
0.0
 40
0.0
 40
0.0
 40
0.0070224917865416
 40
0.0070224917865416
 40
0.0070224917865416
 10
8.78263303800469
 20
0.2777148657385453
 30
0.0
 41
1.0
 10
8.786026600674665
 20
0.2786170594482765
 30
0.0
 41
0.9999164634581956
 10
8.789442349936621
 20
0.2794312326877417
 30
0.0
 41
1.0
  0
SPLINE
  5
E6
330
1F
100
AcDbEntity
  8
Default
100
AcDbSpline
210
0.0
220
0.0
230
1.0
 70
    12
 71
     2
 72
     8
 73
     5
 74
     0
 42
0.0000000001
 43
0.0000000001
 40
0.0
 40
0.0
 40
0.0
 40
1.570796326794897
 40
1.570796326794897
 40
3.141592653589793
 40
3.141592653589793
 40
3.141592653589793
 10
-8.84649951118746
 20
39.73677631169642
 30
0.0
 41
1.0
 10
-9.072545197797664
 20
39.50027642123582
 30
0.0
 41
0.7071067811865475
 10
-9.298452638216531
 20
39.71619788479498
 30
0.0
 41
1.0
 10
-9.52436007863545
 20
39.93211934835416
 30
0.0
 41
0.7071067811865475
 10
-9.298314392025247
 20
40.16861923881477
 30
0.0
 41
1.0
  0
SPLINE
  5
E7
330
1F
100
AcDbEntity
  8
Default
100
AcDbSpline
210
0.0
220
0.0
230
1.0
 70
    12
 71
     2
 72
     6
 73
     3
 74
     0
 42
0.0000000001
 43
0.0000000001
 40
0.0
 40
0.0
 40
0.0
 40
0.0736943626177064
 40
0.0736943626177064
 40
0.0736943626177064
 10
8.781921732029446
 20
0.072748723905022
 30
0.0
 41
1.0
 10
8.787889192012685
 20
0.0309810924284574
 30
0.0
 41
0.8203839743037172
 10
8.829141202834705
 20
0.0221257425791777
 30
0.0
 41
1.0
  0
SPLINE
  5
E8
330
1F
100
AcDbEntity
  8
Default
100
AcDbSpline
210
0.0
220
0.0
230
1.0
 70
    12
 71
     2
 72
     6
 73
     3
 74
     0
 42
0.0000000001
 43
0.0000000001
 40
0.0
 40
0.0
 40
0.0
 40
0.087805145337338
 40
0.087805145337338
 40
0.087805145337338
 10
9.341984909939981
 20
0.0120876363725841
 30
0.0
 41
1.0
 10
9.395019903664618
 20
0.0202925995913594
 30
0.0
 41
0.7481728658079281
 10
9.393212782699038
 20
0.0739280943182905
 30
0.0
 41
1.0
  0
SPLINE
  5
E9
330
1F
100
AcDbEntity
  8
Default
100
AcDbSpline
210
0.0
220
0.0
230
1.0
 70
    12
 71
     2
 72
     6
 73
     3
 74
     0
 42
0.0000000001
 43
0.0000000001
 40
0.0
 40
0.0
 40
0.0
 40
0.022599255445238
 40
0.022599255445238
 40
0.022599255445238
 10
-8.789442349878186
 20
0.2794312328018691
 30
0.0
 41
1.0
 10
-8.800442631967938
 20
0.282023625366698
 30
0.0
 41
0.9997350652396294
 10
-8.811550566674725
 20
0.2841070100674727
 30
0.0
 41
1.0
  0
SPLINE
  5
EA
330
1F
100
AcDbEntity
  8
Default
100
AcDbSpline
210
0.0
220
0.0
230
1.0
 70
    12
 71
     2
 72
     6
 73
     3
 74
     0
 42
0.0000000001
 43
0.0000000001
 40
0.2780990585417937
 40
0.2780990585417937
 40
0.2780990585417937
 40
4.273950401093918
 40
4.273950401093918
 40
4.273950401093918
 10
9.42710194318538
 20
57.17502399897663
 30
0.0
 41
0.9999999999735297
 10
9.918369463658134
 20
59.11160945082814
 30
0.0
 41
0.9999999997965968
 10
10.40971251915522
 20
61.04817573960005
 30
0.0
 41
1.0
  0
SPLINE
  5
EB
330
1F
100
AcDbEntity
  8
Default
100
AcDbSpline
210
0.0
220
0.0
230
1.0
 70
    12
 71
     2
 72
     8
 73
     5
 74
     0
 42
0.0000000001
 43
0.0000000001
 40
-3.141592653589793
 40
-3.141592653589793
 40
-3.141592653589793
 40
-1.570796326794897
 40
-1.570796326794897
 40
0.0
 40
0.0
 40
0.0
 10
10.40971251915522
 20
61.04817573960005
 30
0.0
 41
1.0
 10
10.48343936160746
 20
61.33203265816563
 30
0.0
 41
0.7071067811865475
 10
10.18097029482641
 20
61.41059367878805
 30
0.0
 41
1.0
 10
9.87850122804537
 20
61.48915469941048
 30
0.0
 41
0.7071067811865475
 10
9.804774385593078
 20
61.20529778084492
 30
0.0
 41
1.0
  0
SPLINE
  5
EC
330
1F
100
AcDbEntity
  8
Default
100
AcDbSpline
210
0.0
220
0.0
230
1.0
 70
    12
 71
     2
 72
     6
 73
     3
 74
     0
 42
0.0000000001
 43
0.0000000001
 40
0.0
 40
0.0
 40
0.0
 40
3.388291814754142
 40
3.388291814754142
 40
3.388291814754142
 10
9.804774385593078
 20
61.20529778084492
 30
0.0
 41
1.0
 10
9.388083437034297
 20
59.56319577083303
 30
0.0
 41
0.999999999344203
 10
8.971507023126499
 20
57.92106470137933
 30
0.0
 41
0.9999999999046083
  0
SPLINE
  5
ED
330
1F
100
AcDbEntity
  8
Default
100
AcDbSpline
210
0.0
220
0.0
230
1.0
 70
     8
 71
     3
 72
    11
 73
     7
 74
     0
 42
0.0000000001
 43
0.0000000001
 40
0.2047216840103623
 40
0.2047216840103623
 40
0.2047216840103623
 40
0.2047216840103623
 40
0.4651335185174335
 40
0.793242102531914
 40
1.335459591468316
 40
1.497129498006372
 40
1.497129498006372
 40
1.497129498006372
 40
1.497129498006372
 10
-7.482259279574521
 20
55.07510240995089
 30
0.0
 10
-7.565628075815511
 20
55.09921958066241
 30
0.0
 10
-7.753822500901009
 20
55.15434563366372
 30
0.0
 10
-8.112235694525623
 20
55.27235672431259
 30
0.0
 10
-8.432952650674792
 20
55.39607099350636
 30
0.0
 10
-8.638883268102177
 20
55.51128490205852
 30
0.0
 10
-8.683991969321795
 20
55.54073004215756
 30
0.0
  0
SPLINE
  5
EE
330
1F
100
AcDbEntity
  8
Default
100
AcDbSpline
210
0.0
220
0.0
230
1.0
 70
     8
 71
     3
 72
    11
 73
     7
 74
     0
 42
0.0000000001
 43
0.0000000001
 40
0.3671996618161271
 40
0.3671996618161271
 40
0.3671996618161271
 40
0.3671996618161271
 40
0.4415046959315846
 40
0.7590491135579212
 40
1.337208144879482
 40
1.877946066593942
 40
1.877946066593942
 40
1.877946066593942
 40
1.877946066593942
 10
9.001845440928179
 20
55.50372490256274
 30
0.0
 10
8.994152474098712
 20
55.47999760374221
 30
0.0
 10
8.947291539792701
 20
55.35658932515693
 30
0.0
 10
8.729577079926173
 20
55.11135545095958
 30
0.0
 10
8.331273891794808
 20
54.8429593465269
 30
0.0
 10
8.002116300635436
 20
54.66707520118655
 30
0.0
 10
7.838982660559623
 20
54.59045068293591
 30
0.0
  0
SPLINE
  5
EF
330
1F
100
AcDbEntity
  8
Default
100
AcDbSpline
210
0.0
220
0.0
230
1.0
 70
     8
 71
     3
 72
     8
 73
     4
 74
     0
 42
0.0000000001
 43
0.0000000001
 40
0.7320595036638105
 40
0.7320595036638105
 40
0.7320595036638105
 40
0.7320595036638105
 40
1.458824323608448
 40
1.458824323608448
 40
1.458824323608448
 40
1.458824323608448
 10
-7.653457973580828
 20
55.78012604392242
 30
0.0
 10
-7.422880949442401
 20
55.70593910509294
 30
0.0
 10
-7.189395191763538
 20
55.64094896452659
 30
0.0
 10
-6.956416231370326
 20
55.57450458427503
 30
0.0
  0
SPLINE
  5
F0
330
1F
100
AcDbEntity
  8
Default
100
AcDbSpline
210
0.0
220
0.0
230
1.0
 70
     8
 71
     3
 72
     9
 73
     5
 74
     0
 42
0.0000000001
 43
0.0000000001
 40
0.2351694018514154
 40
0.2351694018514154
 40
0.2351694018514154
 40
0.2351694018514154
 40
0.7410408828254953
 40
0.961937858721548
 40
0.961937858721548
 40
0.961937858721548
 40
0.961937858721548
 10
6.956754148149372
 20
55.57424468483541
 30
0.0
 10
7.118891123953404
 20
55.62056576428486
 30
0.0
 10
7.351920573060028
 20
55.68678329757753
 30
0.0
 10
7.583639086825656
 20
55.75754829212892
 30
0.0
 10
7.653767952024083
 20
55.77997974131006
 30
0.0
  0
SPLINE
  5
F1
330
1F
100
AcDbEntity
  8
Default
100
AcDbSpline
210
0.0
220
0.0
230
1.0
 70
     8
 71
     3
 72
    10
 73
     6
 74
     0
 42
0.0000000001
 43
0.0000000001
 40
0.470681647813306
 40
0.470681647813306
 40
0.470681647813306
 40
0.470681647813306
 40
0.629171715394806
 40
1.181695205124426
 40
1.762615134760296
 40
1.762615134760296
 40
1.762615134760296
 40
1.762615134760296
 10
8.683553364915696
 20
55.54068763971482
 30
0.0
 10
8.63935568185957
 20
55.51185335136817
 30
0.0
 10
8.43186627866902
 20
55.39523163174917
 30
0.0
 10
8.029819581614106
 20
55.23966181666479
 30
0.0
 10
7.668434339675088
 20
55.12897629251971
 30
0.0
 10
7.482509533970642
 20
55.07481204258191
 30
0.0
  0
SPLINE
  5
F2
330
1F
100
AcDbEntity
  8
Default
100
AcDbSpline
210
0.0
220
0.0
230
1.0
 70
     8
 71
     3
 72
    12
 73
     8
 74
     0
 42
0.0000000001
 43
0.0000000001
 40
0.1867402765915433
 40
0.1867402765915433
 40
0.1867402765915433
 40
0.1867402765915433
 40
0.365919733332667
 40
0.717573689150211
 40
1.305612602136335
 40
1.623786876013782
 40
1.697626498414131
 40
1.697626498414131
 40
1.697626498414131
 40
1.697626498414131
 10
-7.838866484481798
 20
54.59063561370556
 30
0.0
 10
-7.893017352203259
 20
54.6158775937828
 30
0.0
 10
-8.05233354317889
 20
54.69305912397846
 30
0.0
 10
-8.377606607074313
 20
54.87553368990532
 30
0.0
 10
-8.727649309594767
 20
55.10863995759144
 30
0.0
 10
-8.947415860326288
 20
55.35698126003436
 30
0.0
 10
-8.994269415988242
 20
55.4802930995248
 30
0.0
 10
-9.001911854864602
 20
55.50385530177371
 30
0.0
  0
SPLINE
  5
F3
330
1F
100
AcDbEntity
  8
Default
100
AcDbSpline
210
0.0
220
0.0
230
1.0
 70
     8
 71
     3
 72
     8
 73
     4
 74
     0
 42
0.0000000001
 43
0.0000000001
 40
0.0
 40
0.0
 40
0.0
 40
0.0
 40
1.0
 40
1.0
 40
1.0
 40
1.0
 10
-9.34198490964883
 20
0.0120876363725841
 30
0.0
 10
-9.236131916440343
 20
-0.0042887192159924
 30
0.0
 10
-8.968110391803918
 20
-0.0077060344578541
 30
0.0
 10
-8.829141202543553
 20
0.0221257425791777
 30
0.0
  0
SPLINE
  5
F4
330
1F
100
AcDbEntity
  8
Default
100
AcDbSpline
210
0.0
220
0.0
230
1.0
 70
     8
 71
     3
 72
     8
 73
     4
 74
     0
 42
0.0000000001
 43
0.0000000001
 40
17.52761949927495
 40
17.52761949927495
 40
17.52761949927495
 40
17.52761949927495
 40
17.94732963278293
 40
17.94732963278293
 40
17.94732963278293
 40
17.94732963278293
 10
-7.35263863631809
 20
17.504406034287
 30
0.0
 10
-7.233830227264491
 20
17.57817830410556
 30
0.0
 10
-7.105354311902573
 20
17.6367019930361
 30
0.0
 10
-6.97156642971467
 20
17.67778319667008
 30
0.0
  0
SPLINE
  5
F5
330
1F
100
AcDbEntity
  8
Default
100
AcDbSpline
210
0.0
220
0.0
230
1.0
 70
    24
 71
     2
 72
     6
 73
     3
 74
     0
 42
0.0000000001
 43
0.0000000001
 40
0.0
 40
0.0
 40
0.0
 40
0.030852161272526
 40
0.030852161272526
 40
0.030852161272526
 10
22.36309802173366
 20
26.04452681111218
 30
0.0
 10
22.34784138328101
 20
26.04224669117632
 30
0.0
 10
22.33258474482835
 20
26.03996657124046
 30
0.0
  0
SPLINE
  5
F6
330
1F
100
AcDbEntity
  8
Default
100
AcDbSpline
210
0.0
220
0.0
230
1.0
 70
     8
 71
     3
 72
    20
 73
    16
 74
     0
 42
0.0000000001
 43
0.0000000001
 40
0.0
 40
0.0
 40
0.0
 40
0.0
 40
0.2091202110132331
 40
0.2091202110132331
 40
0.2091202110132331
 40
1.209120211013233
 40
2.209120211013233
 40
3.209120211013233
 40
4.209120211013233
 40
5.209120211013233
 40
6.209120211013233
 40
7.209120211013233
 40
7.209120211013233
 40
7.209120211013233
 40
7.422391775119937
 40
7.422391775119937
 40
7.422391775119937
 40
7.422391775119937
 10
9.798497400969552
 20
0.3270998834886143
 30
0.0
 10
9.807383789735468
 20
0.2579618962565462
 30
0.0
 10
9.81627017850144
 20
0.1888239090244639
 30
0.0
 10
9.825156567267356
 20
0.1196859217923816
 30
0.0
 10
9.829430885262127
 20
0.0849590702534186
 30
0.0
 10
9.89094114523516
 20
0.0475029227314963
 30
0.0
 10
9.988960180828485
 20
0.0550374105310283
 30
0.0
 10
10.08566771416469
 20
0.0572687618069239
 30
0.0
 10
10.18254661630658
 20
0.0654669346096028
 30
0.0
 10
10.27856561063351
 20
0.0788070836887584
 30
0.0
 10
10.3754722980492
 20
0.0886150860091846
 30
0.0
 10
10.43258082696144
 20
0.1326998848309273
 30
0.0
 10
10.43138118196043
 20
0.1679071808823522
 30
0.0
 10
10.42756588825523
 20
0.2388952486292908
 30
0.0
 10
10.42375059455014
 20
0.3098833163762436
 30
0.0
 10
10.41897699945696
 20
0.3985784538883337
 30
0.0
  0
SPLINE
  5
F7
330
1F
100
AcDbEntity
  8
Default
100
AcDbSpline
210
0.0
220
0.0
230
1.0
 70
    12
 71
     2
 72
    10
 73
     7
 74
     0
 42
0.0000000001
 43
0.0000000001
 40
0.0
 40
0.0
 40
0.0
 40
0.4788205097622018
 40
0.4788205097622018
 40
0.9696943618856155
 40
0.9696943618856155
 40
0.9820271681433114
 40
0.9820271681433114
 40
0.9820271681433114
 10
22.42473759948552
 20
25.42179757884276
 30
0.0
 41
1.0
 10
22.12737043122948
 20
25.37733203164236
 30
0.0
 41
0.7206112449415953
 10
22.07147114076628
 20
25.67276338910156
 30
0.0
 41
1.0
 10
22.01337309951869
 20
25.97981528634892
 30
0.0
 41
0.7071067811865192
 10
22.32042499676606
 20
26.03791332759647
 30
0.0
 41
1.0
 10
22.32648468177103
 20
26.03905989543248
 30
0.0
 41
0.999805320735976
 10
22.3325848859871
 20
26.03996648722848
 30
0.0
 41
1.0
  0
SPLINE
  5
F8
330
1F
100
AcDbEntity
  8
Default
100
AcDbSpline
210
0.0
220
0.0
230
1.0
 70
     8
 71
     3
 72
    21
 73
    17
 74
     0
 42
0.0000000001
 43
0.0000000001
 40
0.0
 40
0.0
 40
0.0
 40
0.0
 40
0.0665349446744058
 40
0.1649910259523991
 40
0.4349479459839425
 40
1.16407390492166
 40
1.344557613164416
 40
1.716814666684118
 40
2.500530244391534
 40
6.849166235313318
 40
7.142536959937101
 40
7.897127356275973
 40
8.73353383978226
 40
9.026799509077534
 40
9.143648345529225
 40
9.324979678413737
 40
9.324979678413737
 40
9.324979678413737
 40
9.324979678413737
 10
23.65611717294775
 20
25.60670381700264
 30
0.0
 10
23.67692478280424
 20
25.59872492790154
 30
0.0
 10
23.72043124010486
 20
25.56391953084902
 30
0.0
 10
23.81243234979382
 20
25.45129587180976
 30
0.0
 10
23.98419042576433
 20
25.12621793973975
 30
0.0
 10
24.09061011700902
 20
24.74521358598447
 30
0.0
 10
24.18333802582362
 20
24.32884749407857
 30
0.0
 10
24.26609040354509
 20
23.89078282170996
 30
0.0
 10
24.61366671380944
 20
22.08939133385763
 30
0.0
 10
24.9555257681115
 20
20.31316908634236
 30
0.0
 10
25.29489010202963
 20
18.5466550361071
 30
0.0
 10
25.43264659758955
 20
17.93475240222176
 30
0.0
 10
25.64271023701417
 20
17.33694013964546
 30
0.0
 10
25.89187244239832
 20
16.9991957290499
 30
0.0
 10
26.0450512930218
 20
16.87394033392192
 30
0.0
 10
26.13065607551715
 20
16.82299577703191
 30
0.0
 10
26.18113107885
 20
16.78980825180673
 30
0.0
  0
SPLINE
  5
F9
330
1F
100
AcDbEntity
  8
Default
100
AcDbSpline
210
0.0
220
0.0
230
1.0
 70
     8
 71
     3
 72
    15
 73
    11
 74
     0
 42
0.0000000001
 43
0.0000000001
 40
0.0
 40
0.0
 40
0.0
 40
0.0
 40
0.1481008985844257
 40
0.2835795947505744
 40
0.4095167464139915
 40
0.5399102056356212
 40
0.8000329001182528
 40
1.110289658690893
 40
5.325350683045592
 40
15.97290079287495
 40
15.97290079287495
 40
15.97290079287495
 40
15.97290079287495
 10
8.198194379805045
 20
16.20939152989428
 30
0.0
 10
8.228051954414639
 20
16.17026334486086
 30
0.0
 10
8.282017464541525
 20
16.09178591198025
 30
0.0
 10
8.341325993680414
 20
15.96918984208958
 30
0.0
 10
8.383836856653716
 20
15.84463253070388
 30
0.0
 10
8.40248642237691
 20
15.67321136737453
 30
0.0
 10
8.421928040476303
 20
15.44054784276372
 30
0.0
 10
8.567822835873244
 20
13.85199733313752
 30
0.0
 10
9.024721480452172
 20
8.815173862968805
 30
0.0
 10
9.474854841130991
 20
3.881368866668751
 30
0.0
 10
9.79613169194397
 20
0.3467860905881679
 30
0.0
  0
SPLINE
  5
FA
330
1F
100
AcDbEntity
  8
Default
100
AcDbSpline
210
0.0
220
0.0
230
1.0
 70
    12
 71
     2
 72
     8
 73
     5
 74
     0
 42
0.0000000001
 43
0.0000000001
 40
0.0
 40
0.0
 40
0.0
 40
1.570796326794897
 40
1.570796326794897
 40
3.141592653589793
 40
3.141592653589793
 40
3.141592653589793
 10
9.79613169194397
 20
0.3467860905881679
 30
0.0
 41
1.0
 10
9.805191786407924
 20
0.2401560131623326
 30
0.0
 41
0.7071067811865475
 10
10.11657541521436
 20
0.2666135114557449
 30
0.0
 41
1.0
 10
10.4279590440208
 20
0.2930710097491493
 30
0.0
 41
0.7071067811865475
 10
10.41889894955682
 20
0.3997010871749893
 30
0.0
 41
1.0
  0
SPLINE
  5
FB
330
1F
100
AcDbEntity
  8
Default
100
AcDbSpline
210
0.0
220
0.0
230
1.0
 70
     8
 71
     3
 72
    12
 73
     8
 74
     0
 42
0.0000000001
 43
0.0000000001
 40
0.0
 40
0.0
 40
0.0
 40
0.0
 40
15.38685223518402
 40
15.5773112496696
 40
16.05478351798368
 40
16.57800700635227
 40
17.65225730794005
 40
17.65225730794005
 40
17.65225730794005
 40
17.65225730794005
 10
10.41889894955682
 20
0.3997010871749893
 30
0.0
 10
9.953419660314637
 20
5.507856158524078
 30
0.0
 10
9.483889626890857
 20
10.67816658351447
 30
0.0
 10
8.998317367456423
 20
16.00829484573705
 30
0.0
 10
8.858058807701525
 20
16.38720435382297
 30
0.0
 10
8.432813606669868
 20
16.93871240703612
 30
0.0
 10
7.95735348931845
 20
17.21850797055791
 30
0.0
 10
7.610018220097459
 20
17.30662157092007
 30
0.0
  0
SPLINE
  5
FC
330
1F
100
AcDbEntity
  8
Default
100
AcDbSpline
210
0.0
220
0.0
230
1.0
 70
     8
 71
     3
 72
     9
 73
     5
 74
     0
 42
0.0000000001
 43
0.0000000001
 40
17.18236540360856
 40
17.18236540360856
 40
17.18236540360856
 40
17.18236540360856
 40
17.43763592182185
 40
17.52761949927495
 40
17.52761949927495
 40
17.52761949927495
 40
17.52761949927495
 10
-7.624459816111425
 20
17.29305140477963
 30
0.0
 10
-7.562990849089971
 20
17.35184079327736
 30
0.0
 10
-7.474137491722189
 20
17.42521523661632
 30
0.0
 10
-7.378110515180765
 20
17.48858965954373
 30
0.0
 10
-7.35263863631809
 20
17.504406034287
 30
0.0
  0
SPLINE
  5
FD
330
1F
100
AcDbEntity
  8
Default
100
AcDbSpline
210
0.0
220
0.0
230
1.0
 70
     8
 71
     3
 72
     8
 73
     4
 74
     0
 42
0.0000000001
 43
0.0000000001
 40
0.2202915431320527
 40
0.2202915431320527
 40
0.2202915431320527
 40
0.2202915431320527
 40
3.332712547105833
 40
3.332712547105833
 40
3.332712547105833
 40
3.332712547105833
 10
-8.108159608400229
 20
22.12624603521178
 30
0.0
 10
-8.18355347647443
 20
21.09152486062251
 30
0.0
 10
-8.265481329319783
 20
20.05724286610142
 30
0.0
 10
-8.338687951581875
 20
19.02237574925364
 30
0.0
  0
SPLINE
  5
FE
330
1F
100
AcDbEntity
  8
Default
100
AcDbSpline
210
0.0
220
0.0
230
1.0
 70
     8
 71
     3
 72
    10
 73
     6
 74
     0
 42
0.0000000001
 43
0.0000000001
 40
0.4818925549917943
 40
0.4818925549917943
 40
0.4818925549917943
 40
0.4818925549917943
 40
0.5867740024392379
 40
0.7110093329034793
 40
4.242847314360916
 40
4.242847314360916
 40
4.242847314360916
 40
4.242847314360916
 10
8.985137504445078
 20
18.72940268261331
 30
0.0
 10
8.983832905254104
 20
18.76434164319609
 30
0.0
 10
8.979913204989288
 20
18.84063417237829
 30
0.0
 10
8.885888034525095
 20
20.09073502841261
 30
0.0
 10
8.79675567124633
 20
21.30618016361035
 30
0.0
 10
8.708894563817353
 20
22.48017255789151
 30
0.0
  0
SPLINE
  5
FF
330
1F
100
AcDbEntity
  8
Default
100
AcDbSpline
210
0.0
220
0.0
230
1.0
 70
     8
 71
     3
 72
    13
 73
     9
 74
     0
 42
0.0000000001
 43
0.0000000001
 40
0.0
 40
0.0
 40
0.0
 40
0.0
 40
15.07353752690674
 40
15.61606607545562
 40
15.71987706518217
 40
15.90764932555116
 40
16.68761530069579
 40
17.18236540360856
 40
17.18236540360856
 40
17.18236540360856
 40
17.18236540360856
 10
9.38376944068392
 20
0.3170869111086176
 30
0.0
 10
9.016228230073011
 20
5.328108216029506
 30
0.0
 10
8.635299310608673
 20
10.51958714061476
 30
0.0
 10
8.25184862764553
 20
15.74542699503954
 30
0.0
 10
8.229944560775323
 20
16.02267637554658
 30
0.0
 10
8.177048755153692
 20
16.37602623036118
 30
0.0
 10
8.009640452468972
 20
16.84161414739837
 30
0.0
 10
7.743595304404352
 20
17.17910931615532
 30
0.0
 10
7.624459816402577
 20
17.29305140477963
 30
0.0
  0
SPLINE
  5
100
330
1F
100
AcDbEntity
  8
Default
100
AcDbSpline
210
0.0
220
0.0
230
1.0
 70
     8
 71
     3
 72
     8
 73
     4
 74
     0
 42
0.0000000001
 43
0.0000000001
 40
17.52761949927495
 40
17.52761949927495
 40
17.52761949927495
 40
17.52761949927495
 40
17.9473296040228
 40
17.9473296040228
 40
17.9473296040228
 40
17.9473296040228
 10
7.352638636609242
 20
17.504406034287
 30
0.0
 10
7.233830235696843
 20
17.57817829905039
 30
0.0
 10
7.105354329801031
 20
17.63670198501555
 30
0.0
 10
6.9715664575088
 20
17.67778318822495
 30
0.0
  0
SPLINE
  5
101
330
1F
100
AcDbEntity
  8
Default
100
AcDbSpline
210
0.0
220
0.0
230
1.0
 70
    12
 71
     2
 72
     6
 73
     3
 74
     0
 42
0.0000000001
 43
0.0000000001
 40
0.0
 40
0.0
 40
0.0
 40
0.9242728119356438
 40
0.9242728119356438
 40
0.9242728119356438
 10
8.170022128605297
 20
17.06441676539782
 30
0.0
 41
1.0
 10
8.590762078894663
 20
17.29042048120025
 30
0.0
 41
0.951309789403364
 10
8.80346997641159
 20
17.71803612130237
 30
0.0
 41
0.9966660991541059
  0
SPLINE
  5
102
330
1F
100
AcDbEntity
  8
Default
100
AcDbSpline
210
0.0
220
0.0
230
1.0
 70
     8
 71
     3
 72
     8
 73
     4
 74
     0
 42
0.0000000001
 43
0.0000000001
 40
0.2166847226141214
 40
0.2166847226141214
 40
0.2166847226141214
 40
0.2166847226141214
 40
3.332712547105833
 40
3.332712547105833
 40
3.332712547105833
 40
3.332712547105833
 10
8.107897525109308
 20
22.12984328834244
 30
0.0
 10
8.183363581319895
 20
21.09392200952465
 30
0.0
 10
8.26539649431811
 20
20.05844211901277
 30
0.0
 10
8.338687951873027
 20
19.02237574925364
 30
0.0
  0
SPLINE
  5
103
330
1F
100
AcDbEntity
  8
Default
100
AcDbSpline
210
0.0
220
0.0
230
1.0
 70
     8
 71
     3
 72
    15
 73
    11
 74
     0
 42
0.0000000001
 43
0.0000000001
 40
-17.90624517892207
 40
-17.90624517892207
 40
-17.90624517892207
 40
-17.90624517892207
 40
-4.373860374967535
 40
-2.878155509950694
 40
-2.234775102833745
 40
-2.12439570927585
 40
-1.53996251971187
 40
-1.028864930252648
 40
-0.5582263861420427
 40
-0.3955123279840002
 40
-0.3955123279840002
 40
-0.3955123279840002
 40
-0.3955123279840002
 10
8.760706909495354
 20
0.2677833140579082
 30
0.0
 10
8.430090044044448
 20
4.766426577875109
 30
0.0
 10
8.065288075118758
 20
9.76253825714484
 30
0.0
 10
7.681238394069965
 20
14.97217931518958
 30
0.0
 10
7.631133812038456
 20
15.72043637475986
 30
0.0
 10
7.584425440784287
 20
16.16405414062174
 30
0.0
 10
7.454292422198762
 20
16.55182988064701
 30
0.0
 10
7.113143544931404
 20
16.96155286247148
 30
0.0
 10
6.747977503694273
 20
17.11111391811696
 30
0.0
 10
6.536951990901798
 20
17.12384022353467
 30
0.0
 10
6.482772506511338
 20
17.12267587366658
 30
0.0
  0
SPLINE
  5
104
330
1F
100
AcDbEntity
  8
Default
100
AcDbSpline
210
0.0
220
0.0
230
1.0
 70
     8
 71
     3
 72
     9
 73
     5
 74
     0
 42
0.0000000001
 43
0.0000000001
 40
17.18236540360856
 40
17.18236540360856
 40
17.18236540360856
 40
17.18236540360856
 40
17.43763592182185
 40
17.52761949927495
 40
17.52761949927495
 40
17.52761949927495
 40
17.52761949927495
 10
7.624459816402577
 20
17.29305140477963
 30
0.0
 10
7.562990849381123
 20
17.35184079327736
 30
0.0
 10
7.474137492013341
 20
17.42521523661632
 30
0.0
 10
7.378110515471917
 20
17.48858965954373
 30
0.0
 10
7.352638636609242
 20
17.504406034287
 30
0.0
  0
SPLINE
  5
105
330
1F
100
AcDbEntity
  8
Default
100
AcDbSpline
210
0.0
220
0.0
230
1.0
 70
     8
 71
     3
 72
    12
 73
     8
 74
     0
 42
0.0000000001
 43
0.0000000001
 40
0.0
 40
0.0
 40
0.0
 40
0.0
 40
0.0395647070413459
 40
0.1286883826552243
 40
0.3567988672676851
 40
0.7812074938386473
 40
1.316716534183078
 40
1.316716534183078
 40
1.316716534183078
 40
1.316716534183078
 10
-6.861544986340931
 20
16.63989003557577
 30
0.0
 10
-6.849770479768807
 20
16.63375399948256
 30
0.0
 10
-6.807768623879838
 20
16.6244613175773
 30
0.0
 10
-6.689933087257316
 20
16.60770768870751
 30
0.0
 10
-6.442827059474865
 20
16.59563784235434
 30
0.0
 10
-6.046850315716625
 20
16.59480507675093
 30
0.0
 10
-5.726842432122339
 20
16.5925115899999
 30
0.0
 10
-5.548380557092912
 20
16.59677551142426
 30
0.0
  0
SPLINE
  5
106
330
1F
100
AcDbEntity
  8
Default
100
AcDbSpline
210
0.0
220
0.0
230
1.0
 70
    12
 71
     2
 72
     6
 73
     3
 74
     0
 42
0.0000000001
 43
0.0000000001
 40
-0.4126361651218424
 40
-0.4126361651218424
 40
-0.4126361651218424
 40
0.0
 40
0.0
 40
0.0
 10
-7.154059365899059
 20
16.86699057301558
 30
0.0
 41
1.0
 10
-7.001332050102267
 20
16.72827660176637
 30
0.0
 41
0.9999991609981052
 10
-6.848964620495707
 20
16.58916741729129
 30
0.0
 41
1.0
  0
SPLINE
  5
107
330
1F
100
AcDbEntity
  8
Default
100
AcDbSpline
210
0.0
220
0.0
230
1.0
 70
     8
 71
     3
 72
    11
 73
     7
 74
     0
 42
0.0000000001
 43
0.0000000001
 40
-0.7748920276035841
 40
-0.7748920276035841
 40
-0.7748920276035841
 40
-0.7748920276035841
 40
-0.6090501360965258
 40
-0.4226617218792124
 40
-0.2239844083068946
 40
0.0
 40
0.0
 40
0.0
 40
0.0
 10
-6.848964620495707
 20
16.58916741729129
 30
0.0
 10
-6.808113876336847
 20
16.55187129882415
 30
0.0
 10
-6.676271763317999
 20
16.44642920899798
 30
0.0
 10
-6.51789433415405
 20
16.35295320019458
 30
0.0
 10
-6.333040450914154
 20
16.26845718504882
 30
0.0
 10
-5.846275787238568
 20
16.11808178352808
 30
0.0
 10
-5.773063289852161
 20
16.10341776718067
 30
0.0
  0
SPLINE
  5
108
330
1F
100
AcDbEntity
  8
Default
100
AcDbSpline
210
0.0
220
0.0
230
1.0
 70
     8
 71
     3
 72
    12
 73
     8
 74
     0
 42
0.0000000001
 43
0.0000000001
 40
-5.845130248312955
 40
-5.845130248312955
 40
-5.845130248312955
 40
-5.845130248312955
 40
-3.862407020127849
 40
-2.698819057275471
 40
-1.3714727764854
 40
-0.6925507676978004
 40
0.0
 40
0.0
 40
0.0
 40
0.0
 10
-5.773063289852161
 20
16.10341776718067
 30
0.0
 10
-5.125004863518029
 20
15.97361562004608
 30
0.0
 10
-4.109106362046504
 20
15.7091544500465
 30
0.0
 10
-2.638382518975646
 20
15.45701488389302
 30
0.0
 10
-1.586753877485819
 20
15.34892369278819
 30
0.0
 10
-0.6879600289598784
 20
15.30548323990757
 30
0.0
 10
-0.2308821983660607
 20
15.29792638911714
 30
0.0
 10
0.000000018800705
 20
15.29806106211349
 30
0.0
  0
SPLINE
  5
109
330
1F
100
AcDbEntity
  8
Default
100
AcDbSpline
210
0.0
220
0.0
230
1.0
 70
     8
 71
     3
 72
    12
 73
     8
 74
     0
 42
0.0000000001
 43
0.0000000001
 40
0.0
 40
0.0
 40
0.0
 40
0.0
 40
0.6925507676978004
 40
1.3714727764854
 40
2.698819057275471
 40
3.862407020127849
 40
5.845130248312955
 40
5.845130248312955
 40
5.845130248312955
 40
5.845130248312955
 10
0.000000018800705
 20
15.29806106211349
 30
0.0
 10
0.2308822359674707
 20
15.29792638911714
 30
0.0
 10
0.6879600665612884
 20
15.30548323990757
 30
0.0
 10
1.586753915087229
 20
15.34892369278819
 30
0.0
 10
2.638382556577056
 20
15.45701488389302
 30
0.0
 10
4.109106399647914
 20
15.7091544500465
 30
0.0
 10
5.125004901119439
 20
15.97361562004608
 30
0.0
 10
5.773063327453571
 20
16.10341776718067
 30
0.0
  0
SPLINE
  5
10A
330
1F
100
AcDbEntity
  8
Default
100
AcDbSpline
210
0.0
220
0.0
230
1.0
 70
     8
 71
     3
 72
    11
 73
     7
 74
     0
 42
0.0000000001
 43
0.0000000001
 40
0.0
 40
0.0
 40
0.0
 40
0.0
 40
0.2239844083068946
 40
0.4226617218792124
 40
0.6090501360965258
 40
0.7748920276035841
 40
0.7748920276035841
 40
0.7748920276035841
 40
0.7748920276035841
 10
5.773063327453571
 20
16.10341776718067
 30
0.0
 10
5.846275824839978
 20
16.11808178352808
 30
0.0
 10
6.333040488515564
 20
16.26845718504882
 30
0.0
 10
6.51789437175546
 20
16.35295320019458
 30
0.0
 10
6.676271800919409
 20
16.44642920899798
 30
0.0
 10
6.808113913938257
 20
16.55187129882415
 30
0.0
 10
6.848964658097117
 20
16.58916741729129
 30
0.0
  0
SPLINE
  5
10B
330
1F
100
AcDbEntity
  8
Default
100
AcDbSpline
210
0.0
220
0.0
230
1.0
 70
    12
 71
     2
 72
     6
 73
     3
 74
     0
 42
0.0000000001
 43
0.0000000001
 40
0.0
 40
0.0
 40
0.0
 40
0.4126361651218424
 40
0.4126361651218424
 40
0.4126361651218424
 10
6.848964658097117
 20
16.58916741729129
 30
0.0
 41
1.0
 10
7.001332087703658
 20
16.72827660176637
 30
0.0
 41
0.9999991609981052
 10
7.154059403500469
 20
16.86699057301558
 30
0.0
 41
1.0
  0
SPLINE
  5
10C
330
1F
100
AcDbEntity
  8
Default
100
AcDbSpline
210
0.0
220
0.0
230
1.0
 70
    24
 71
     2
 72
     6
 73
     3
 74
     0
 42
0.0000000001
 43
0.0000000001
 40
0.0
 40
0.0
 40
0.0
 40
1.819638305667419
 40
1.819638305667419
 40
1.819638305667419
 10
5.548380594694322
 20
16.59677551142426
 30
0.0
 10
6.201302600478414
 20
17.23038717895093
 30
0.0
 10
6.854224606262505
 20
17.8639988464776
 30
0.0
  0
SPLINE
  5
10D
330
1F
100
AcDbEntity
  8
Default
100
AcDbSpline
210
0.0
220
0.0
230
1.0
 70
    12
 71
     2
 72
     8
 73
     5
 74
     0
 42
0.0000000001
 43
0.0000000001
 40
-0.7197245588710082
 40
-0.7197245588710082
 40
-0.7197245588710082
 40
-0.5132722510922169
 40
-0.5132722510922169
 40
0.0
 40
0.0
 40
0.0
 10
7.07792100308987
 20
17.89030511971376
 30
0.0
 41
1.0
 10
7.12107829761425
 20
17.79478072819668
 30
0.0
 41
0.774535528306074
 10
7.036103482458856
 20
17.73340693709105
 30
0.0
 41
1.0
 10
6.835406118170456
 20
17.56027135144659
 30
0.0
 41
0.9999960232399464
 10
6.635066771189486
 20
17.38939382330165
 30
0.0
 41
1.0
  0
SPLINE
  5
10E
330
1F
100
AcDbEntity
  8
Default
100
AcDbSpline
210
0.0
220
0.0
230
1.0
 70
     8
 71
     3
 72
    11
 73
     7
 74
     0
 42
0.0000000001
 43
0.0000000001
 40
-0.3276533835954581
 40
-0.3276533835954581
 40
-0.3276533835954581
 40
-0.3276533835954581
 40
-0.1296041140221814
 40
-0.0544125534116705
 40
-0.0249930322991663
 40
0.0
 40
0.0
 40
0.0
 40
0.0
 10
6.635066771189486
 20
17.38939382330165
 30
0.0
 10
6.58567178393244
 20
17.34607901404848
 30
0.0
 10
6.520521276425995
 20
17.27971046939228
 30
0.0
 10
6.480792490757892
 20
17.18547631958961
 30
0.0
 10
6.477595368923033
 20
17.14190508865536
 30
0.0
 10
6.481853517328432
 20
17.12406649402698
 30
0.0
 10
6.485124804999572
 20
17.116393267105
 30
0.0
  0
SPLINE
  5
10F
330
1F
100
AcDbEntity
  8
Default
100
AcDbSpline
210
0.0
220
0.0
230
1.0
 70
     8
 71
     3
 72
    14
 73
    10
 74
     0
 42
0.0000000001
 43
0.0000000001
 40
-7.0
 40
-7.0
 40
-7.0
 40
-7.0
 40
-6.0
 40
-5.0
 40
-4.0
 40
-3.0
 40
-2.0
 40
-1.0
 40
0.0
 40
0.0
 40
0.0
 40
0.0
 10
6.485124804999572
 20
17.116393267105
 30
0.0
 10
6.490851915315915
 20
17.10295959159788
 30
0.0
 10
6.512266637550198
 20
17.07645943467699
 30
0.0
 10
6.552224160227809
 20
17.05702004719151
 30
0.0
 10
6.595499386143189
 20
17.04919648240624
 30
0.0
 10
6.639360277275671
 20
17.04910087814775
 30
0.0
 10
6.68282432493362
 20
17.05455738897803
 30
0.0
 10
6.725558151609818
 20
17.06406743448829
 30
0.0
 10
6.753473506150556
 20
17.07256440916083
 30
0.0
 10
6.767275065420051
 20
17.0772655310009
 30
0.0
  0
SPLINE
  5
110
330
1F
100
AcDbEntity
  8
Default
100
AcDbSpline
210
0.0
220
0.0
230
1.0
 70
     8
 71
     3
 72
    10
 73
     6
 74
     0
 42
0.0000000001
 43
0.0000000001
 40
0.4818925549918158
 40
0.4818925549918158
 40
0.4818925549918158
 40
0.4818925549918158
 40
0.5867740024392379
 40
0.7110093329034793
 40
4.242729688171496
 40
4.242729688171496
 40
4.242729688171496
 40
4.242729688171496
 10
-8.985137504153926
 20
18.72940268261333
 30
0.0
 10
-8.983832904962952
 20
18.7643416431961
 30
0.0
 10
-8.979913204698136
 20
18.84063417237829
 30
0.0
 10
-8.885890974929396
 20
20.09069593073409
 30
0.0
 10
-8.796761406236556
 20
21.30610195501488
 30
0.0
 10
-8.708903342037928
 20
22.4800552601108
 30
0.0
  0
SPLINE
  5
111
330
1F
100
AcDbEntity
  8
Default
100
AcDbSpline
210
0.0
220
0.0
230
1.0
 70
    12
 71
     3
 72
    10
 73
     6
 74
     0
 42
0.0000000001
 43
0.0000000001
 40
0.0
 40
0.0
 40
0.0
 40
0.0
 40
0.4998751613696471
 40
0.4998751613696471
 40
1.0
 40
1.0
 40
1.0
 40
1.0
 10
5.548380594694322
 20
16.59677551142426
 30
0.0
 41
1.0
 10
4.647923145806459
 20
16.51636435129717
 30
0.0
 41
1.0
 10
3.704477131290133
 20
16.4411678473125
 30
0.0
 41
1.0
 10
1.854529163899173
 20
16.34667154942883
 30
0.0
 41
1.0
 10
0.9307165458116913
 20
16.32476684520604
 30
0.0
 41
1.0
 10
0.000000018800705
 20
16.32476689649437
 30
0.0
 41
1.0
  0
SPLINE
  5
112
330
1F
100
AcDbEntity
  8
Default
100
AcDbSpline
210
0.0
220
0.0
230
1.0
 70
    12
 71
     3
 72
    10
 73
     6
 74
     0
 42
0.0000000001
 43
0.0000000001
 40
-1.0
 40
-1.0
 40
-1.0
 40
-1.0
 40
-0.4998751613696471
 40
-0.4998751613696471
 40
0.0
 40
0.0
 40
0.0
 40
0.0
 10
0.000000018800705
 20
16.32476689649437
 30
0.0
 41
1.0
 10
-0.9307165082102813
 20
16.32476684520604
 30
0.0
 41
1.0
 10
-1.854529126297763
 20
16.34667154942883
 30
0.0
 41
1.0
 10
-3.704477093688723
 20
16.4411678473125
 30
0.0
 41
1.0
 10
-4.647923108205049
 20
16.51636435129717
 30
0.0
 41
1.0
 10
-5.548380557092912
 20
16.59677551142426
 30
0.0
 41
1.0
  0
SPLINE
  5
113
330
1F
100
AcDbEntity
  8
Default
100
AcDbSpline
210
0.0
220
0.0
230
1.0
 70
    24
 71
     2
 72
     6
 73
     3
 74
     0
 42
0.0000000001
 43
0.0000000001
 40
0.0
 40
0.0
 40
0.0
 40
1.819638305667419
 40
1.819638305667419
 40
1.819638305667419
 10
-5.548380557092912
 20
16.59677551142426
 30
0.0
 10
-6.201302562877004
 20
17.23038717895093
 30
0.0
 10
-6.854224568661095
 20
17.8639988464776
 30
0.0
  0
SPLINE
  5
114
330
1F
100
AcDbEntity
  8
Default
100
AcDbSpline
210
0.0
220
0.0
230
1.0
 70
     8
 71
     3
 72
    12
 73
     8
 74
     0
 42
0.0000000001
 43
0.0000000001
 40
0.0
 40
0.0
 40
0.0
 40
0.0
 40
0.0395647070413459
 40
0.1286883826552243
 40
0.3567988672676851
 40
0.7812074938386473
 40
1.316716534183078
 40
1.316716534183078
 40
1.316716534183078
 40
1.316716534183078
 10
6.861545023942341
 20
16.63989003557577
 30
0.0
 10
6.849770517370217
 20
16.63375399948256
 30
0.0
 10
6.807768661481248
 20
16.6244613175773
 30
0.0
 10
6.689933124858726
 20
16.60770768870751
 30
0.0
 10
6.442827097076275
 20
16.59563784235434
 30
0.0
 10
6.046850353318035
 20
16.59480507675093
 30
0.0
 10
5.726842469723749
 20
16.5925115899999
 30
0.0
 10
5.548380594694322
 20
16.59677551142426
 30
0.0
  0
ARC
  5
115
330
1F
100
AcDbEntity
  8
Default
100
AcDbCircle
 10
-8.213387225474605
 20
17.38007012927645
 30
0.0
 40
0.682029309407195
100
AcDbArc
 50
46.57023877465009
 51
56.44636794321812
  0
LINE
  5
116
330
1F
100
AcDbEntity
  8
Default
100
AcDbLine
 10
-7.744516066474063
 20
17.87537187079161
 30
0.0
 11
-7.346633384748827
 21
17.49872123847993
 31
0.0
  0
SPLINE
  5
117
330
1F
100
AcDbEntity
  8
Default
100
AcDbSpline
210
0.0
220
0.0
230
1.0
 70
    12
 71
     2
 72
     8
 73
     5
 74
     0
 42
0.0000000001
 43
0.0000000001
 40
-0.7197245588710082
 40
-0.7197245588710082
 40
-0.7197245588710082
 40
-0.5132722510922169
 40
-0.5132722510922169
 40
0.0
 40
0.0
 40
0.0
 10
-7.07792096548846
 20
17.89030511971376
 30
0.0
 41
1.0
 10
-7.121078260012847
 20
17.79478072819668
 30
0.0
 41
0.774535528306074
 10
-7.036103444857446
 20
17.73340693709105
 30
0.0
 41
1.0
 10
-6.83540608056907
 20
17.56027135144659
 30
0.0
 41
0.9999960232399464
 10
-6.635066733588076
 20
17.38939382330165
 30
0.0
 41
1.0
  0
SPLINE
  5
118
330
1F
100
AcDbEntity
  8
Default
100
AcDbSpline
210
0.0
220
0.0
230
1.0
 70
     8
 71
     3
 72
    11
 73
     7
 74
     0
 42
0.0000000001
 43
0.0000000001
 40
-0.3276533835954581
 40
-0.3276533835954581
 40
-0.3276533835954581
 40
-0.3276533835954581
 40
-0.1296041140221814
 40
-0.0544125534116705
 40
-0.0249930322991663
 40
0.0
 40
0.0
 40
0.0
 40
0.0
 10
-6.635066733588076
 20
17.38939382330165
 30
0.0
 10
-6.58567174633103
 20
17.34607901404848
 30
0.0
 10
-6.520521238824585
 20
17.27971046939228
 30
0.0
 10
-6.480792453156482
 20
17.18547631958961
 30
0.0
 10
-6.477595331321623
 20
17.14190508865536
 30
0.0
 10
-6.481853479727022
 20
17.12406649402698
 30
0.0
 10
-6.485124767398162
 20
17.116393267105
 30
0.0
  0
SPLINE
  5
119
330
1F
100
AcDbEntity
  8
Default
100
AcDbSpline
210
0.0
220
0.0
230
1.0
 70
     8
 71
     3
 72
    14
 73
    10
 74
     0
 42
0.0000000001
 43
0.0000000001
 40
-7.0
 40
-7.0
 40
-7.0
 40
-7.0
 40
-6.0
 40
-5.0
 40
-4.0
 40
-3.0
 40
-2.0
 40
-1.0
 40
0.0
 40
0.0
 40
0.0
 40
0.0
 10
-6.485124767398162
 20
17.116393267105
 30
0.0
 10
-6.490851877714505
 20
17.10295959159788
 30
0.0
 10
-6.512266599948788
 20
17.07645943467699
 30
0.0
 10
-6.552224122626399
 20
17.05702004719151
 30
0.0
 10
-6.595499348541779
 20
17.04919648240624
 30
0.0
 10
-6.639360239674261
 20
17.04910087814775
 30
0.0
 10
-6.68282428733221
 20
17.05455738897803
 30
0.0
 10
-6.725558114008408
 20
17.06406743448829
 30
0.0
 10
-6.753473468549146
 20
17.07256440916083
 30
0.0
 10
-6.767275027818641
 20
17.0772655310009
 30
0.0
  0
LINE
  5
11A
330
1F
100
AcDbEntity
  8
Default
100
AcDbLine
 10
-7.619171264862729
 20
17.28828173588755
 30
0.0
 11
-8.162306104287893
 21
17.77812729585344
 31
0.0
  0
ARC
  5
11B
330
1F
100
AcDbEntity
  8
Default
100
AcDbCircle
 10
-7.94615203171449
 20
18.01820626733019
 30
0.0
 40
0.3230487511744931
100
AcDbArc
 50
207.9400178788731
 51
228.0018458197066
  0
SPLINE
  5
11C
330
1F
100
AcDbEntity
  8
Default
100
AcDbSpline
210
0.0
220
0.0
230
1.0
 70
    12
 71
     2
 72
     6
 73
     3
 74
     0
 42
0.0000000001
 43
0.0000000001
 40
0.0
 40
0.0
 40
0.0
 40
0.1201321966869808
 40
0.1201321966869808
 40
0.1201321966869808
 10
-8.231545765567802
 20
17.8668427568243
 30
0.0
 41
1.0
 10
-8.262244024387131
 20
17.92133666011742
 30
0.0
 41
0.9415795465970807
 10
-8.25141651053201
 20
17.98293806865956
 30
0.0
 41
1.0
  0
SPLINE
  5
11D
330
1F
100
AcDbEntity
  8
Default
100
AcDbSpline
210
0.0
220
0.0
230
1.0
 70
     8
 71
     3
 72
    15
 73
    11
 74
     0
 42
0.0000000001
 43
0.0000000001
 40
-17.90624517892207
 40
-17.90624517892207
 40
-17.90624517892207
 40
-17.90624517892207
 40
-4.373860374967535
 40
-2.878155509950694
 40
-2.234775102833745
 40
-2.12439570927585
 40
-1.53996251971187
 40
-1.028864930252648
 40
-0.5582263861420427
 40
-0.3955122908925331
 40
-0.3955122908925331
 40
-0.3955122908925331
 40
-0.3955122908925331
 10
-8.760706909204202
 20
0.2677833140579082
 30
0.0
 10
-8.430090043753296
 20
4.766426577875109
 30
0.0
 10
-8.065288074827606
 20
9.76253825714484
 30
0.0
 10
-7.681238393778813
 20
14.97217931518958
 30
0.0
 10
-7.631133811747304
 20
15.72043637475986
 30
0.0
 10
-7.584425440493135
 20
16.16405414062174
 30
0.0
 10
-7.45429242190761
 20
16.55182988064701
 30
0.0
 10
-7.113143544640252
 20
16.96155286247148
 30
0.0
 10
-6.74797749156815
 20
17.11111392296422
 30
0.0
 10
-6.536951965893763
 20
17.12384022502526
 30
0.0
 10
-6.482772469168765
 20
17.12267587287033
 30
0.0
  0
SPLINE
  5
11E
330
1F
100
AcDbEntity
  8
Default
100
AcDbSpline
210
0.0
220
0.0
230
1.0
 70
     8
 71
     3
 72
    13
 73
     9
 74
     0
 42
0.0000000001
 43
0.0000000001
 40
0.0
 40
0.0
 40
0.0
 40
0.0
 40
15.07353752690674
 40
15.61606607545562
 40
15.71987706518217
 40
15.90764932555116
 40
16.68761530069579
 40
17.18236540360856
 40
17.18236540360856
 40
17.18236540360856
 40
17.18236540360856
 10
-9.383769440392769
 20
0.3170869111086176
 30
0.0
 10
-9.01622822978186
 20
5.328108216029506
 30
0.0
 10
-8.63529931031752
 20
10.51958714061476
 30
0.0
 10
-8.251848627354377
 20
15.74542699503954
 30
0.0
 10
-8.22994456048417
 20
16.02267637554658
 30
0.0
 10
-8.17704875486254
 20
16.37602623036118
 30
0.0
 10
-8.00964045217782
 20
16.84161414739837
 30
0.0
 10
-7.7435953041132
 20
17.17910931615532
 30
0.0
 10
-7.624459816111425
 20
17.29305140477963
 30
0.0
  0
ENDSEC
  0
SECTION
  2
OBJECTS
  0
DICTIONARY
  5
C
330
0
100
AcDbDictionary
281
     1
  3
ACAD_GROUP
350
D
  3
ACAD_LAYOUT
350
1A
  3
ACAD_MLEADERSTYLE
350
120
  3
ACAD_MLINESTYLE
350
17
  3
ACAD_PLOTSETTINGS
350
19
  3
ACAD_PLOTSTYLENAME
350
E
  3
ACAD_TABLESTYLE
350
11F
  3
ACAD_VISUALSTYLE
350
2A
  0
DICTIONARY
  5
D
102
{ACAD_REACTORS
330
C
102
}
330
C
100
AcDbDictionary
281
     1
  0
DICTIONARY
  5
1A
102
{ACAD_REACTORS
330
C
102
}
330
C
100
AcDbDictionary
281
     1
  3
Layout1
350
1E
  3
Layout2
350
26
  3
Model
350
22
  0
DICTIONARY
  5
120
102
{ACAD_REACTORS
330
C
102
}
330
C
100
AcDbDictionary
281
     1
  0
DICTIONARY
  5
17
102
{ACAD_REACTORS
330
C
102
}
330
C
100
AcDbDictionary
281
     1
  3
Standard
350
18
  0
DICTIONARY
  5
19
102
{ACAD_REACTORS
330
C
102
}
330
C
100
AcDbDictionary
281
     1
  0
ACDBDICTIONARYWDFLT
  5
E
102
{ACAD_REACTORS
330
C
102
}
330
C
100
AcDbDictionary
281
     1
  3
Normal
350
F
100
AcDbDictionaryWithDefault
340
F
  0
DICTIONARY
  5
11F
102
{ACAD_REACTORS
330
C
102
}
330
C
100
AcDbDictionary
281
     1
  0
DICTIONARY
  5
2A
102
{ACAD_REACTORS
330
C
102
}
330
C
100
AcDbDictionary
281
     1
  3
2dWireframe
350
2F
  3
3D Hidden
350
31
  3
3dWireframe
350
30
  3
Basic
350
32
  3
Brighten
350
36
  3
ColorChange
350
3A
  3
Conceptual
350
34
  3
Dim
350
35
  3
Facepattern
350
39
  3
Flat
350
2B
  3
FlatWithEdges
350
2C
  3
Gouraud
350
2D
  3
GouraudWithEdges
350
2E
  3
Linepattern
350
38
  3
Realistic
350
33
  3
Thicken
350
37
  0
LAYOUT
  5
1E
102
{ACAD_REACTORS
330
1A
102
}
330
1A
100
AcDbPlotSettings
  1

  2
none_device
  4

  6

 40
0.0
 41
0.0
 42
0.0
 43
0.0
 44
0.0
 45
0.0
 46
0.0
 47
0.0
 48
0.0
 49
0.0
140
0.0
141
0.0
142
1.0
143
1.0
 70
   688
 72
     0
 73
     0
 74
     5
  7

 75
    16
 76
     0
 77
     2
 78
   300
147
1.0
148
0.0
149
0.0
100
AcDbLayout
  1
Layout1
 70
     1
 71
     1
 10
0.0
 20
0.0
 11
12.0
 21
9.0
 12
0.0
 22
0.0
 32
0.0
 14
1.000000000000000E+20
 24
1.000000000000000E+20
 34
1.000000000000000E+20
 15
-1.000000000000000E+20
 25
-1.000000000000000E+20
 35
-1.000000000000000E+20
146
0.0
 13
0.0
 23
0.0
 33
0.0
 16
1.0
 26
0.0
 36
0.0
 17
0.0
 27
1.0
 37
0.0
 76
     0
330
1B
  0
LAYOUT
  5
26
102
{ACAD_REACTORS
330
1A
102
}
330
1A
100
AcDbPlotSettings
  1

  2
none_device
  4

  6

 40
0.0
 41
0.0
 42
0.0
 43
0.0
 44
0.0
 45
0.0
 46
0.0
 47
0.0
 48
0.0
 49
0.0
140
0.0
141
0.0
142
1.0
143
1.0
 70
   688
 72
     0
 73
     0
 74
     5
  7

 75
    16
 76
     0
 77
     2
 78
   300
147
1.0
148
0.0
149
0.0
100
AcDbLayout
  1
Layout2
 70
     1
 71
     2
 10
0.0
 20
0.0
 11
0.0
 21
0.0
 12
0.0
 22
0.0
 32
0.0
 14
0.0
 24
0.0
 34
0.0
 15
0.0
 25
0.0
 35
0.0
146
0.0
 13
0.0
 23
0.0
 33
0.0
 16
1.0
 26
0.0
 36
0.0
 17
0.0
 27
1.0
 37
0.0
 76
     0
330
23
  0
LAYOUT
  5
22
102
{ACAD_REACTORS
330
1A
102
}
330
1A
100
AcDbPlotSettings
  1

  2
none_device
  4

  6

 40
0.0
 41
0.0
 42
0.0
 43
0.0
 44
0.0
 45
0.0
 46
0.0
 47
0.0
 48
0.0
 49
0.0
140
0.0
141
0.0
142
1.0
143
1.0
 70
  1712
 72
     0
 73
     0
 74
     0
  7

 75
     0
 76
     0
 77
     2
 78
   300
147
1.0
148
0.0
149
0.0
100
AcDbLayout
  1
Model
 70
     1
 71
     0
 10
0.0
 20
0.0
 11
12.0
 21
9.0
 12
0.0
 22
0.0
 32
0.0
 14
-10.43138118166928
 24
-0.0024689149220385
 34
0.0
 15
41.97844509118701
 25
61.51279891775591
 35
0.0
146
0.0
 13
0.0
 23
0.0
 33
0.0
 16
1.0
 26
0.0
 36
0.0
 17
0.0
 27
1.0
 37
0.0
 76
     0
330
1F
331
29
  0
MLINESTYLE
  5
18
102
{ACAD_REACTORS
330
17
102
}
330
17
100
AcDbMlineStyle
  2
Standard
 70
     0
  3

 62
   256
 51
90.0
 52
90.0
 71
     2
 49
0.5
 62
   256
  6
BYLAYER
 49
-0.5
 62
   256
  6
BYLAYER
  0
ACDBPLACEHOLDER
  5
F
102
{ACAD_REACTORS
330
E
102
}
330
E
  0
VISUALSTYLE
  5
2F
102
{ACAD_REACTORS
330
2A
102
}
330
2A
100
AcDbVisualStyle
  2
2dWireframe
 70
     4
 71
     0
 72
     2
 73
     0
 90
        0
 40
-0.6
 41
-30.0
 62
     5
 63
     7
421
 16777215
 74
     1
 91
        4
 64
     7
 65
   257
 75
     1
175
     1
 42
1.0
 92
        0
 66
   257
 43
1.0
 76
     1
 77
     6
 78
     2
 67
     7
 79
     5
170
     0
171
     0
290
     0
174
     0
 93
        1
 44
0.0
173
     0
291
     0
 45
0.0
1001
ACAD
1000
AcDbSavedByObjectVersion
1070
     0
  0
VISUALSTYLE
  5
31
102
{ACAD_REACTORS
330
2A
102
}
330
2A
100
AcDbVisualStyle
  2
3D Hidden
 70
     6
 71
     1
 72
     2
 73
     2
 90
        0
 40
-0.6
 41
-30.0
 62
     5
 63
     7
421
 16777215
 74
     2
 91
        2
 64
     7
 65
   257
 75
     2
175
     1
 42
40.0
 92
        0
 66
   257
 43
1.0
 76
     1
 77
     6
 78
     2
 67
     7
 79
     3
170
     0
171
     0
290
     0
174
     0
 93
        1
 44
0.0
173
     0
291
     0
 45
0.0
1001
ACAD
1000
AcDbSavedByObjectVersion
1070
     0
  0
VISUALSTYLE
  5
30
102
{ACAD_REACTORS
330
2A
102
}
330
2A
100
AcDbVisualStyle
  2
3dWireframe
 70
     5
 71
     0
 72
     2
 73
     0
 90
        0
 40
-0.6
 41
-30.0
 62
     5
 63
     7
421
 16777215
 74
     1
 91
        4
 64
     7
 65
   257
 75
     1
175
     1
 42
1.0
 92
        0
 66
   257
 43
1.0
 76
     1
 77
     6
 78
     2
 67
     7
 79
     5
170
     0
171
     0
290
     0
174
     0
 93
        1
 44
0.0
173
     0
291
     0
 45
0.0
1001
ACAD
1000
AcDbSavedByObjectVersion
1070
     0
  0
VISUALSTYLE
  5
32
102
{ACAD_REACTORS
330
2A
102
}
330
2A
100
AcDbVisualStyle
  2
Basic
 70
     7
 71
     1
 72
     0
 73
     1
 90
        0
 40
-0.6
 41
-30.0
 62
     5
 63
     7
421
 16777215
 74
     0
 91
        4
 64
     7
 65
   257
 75
     1
175
     1
 42
1.0
 92
        8
 66
     7
 43
1.0
 76
     1
 77
     6
 78
     2
 67
     7
 79
     5
170
     0
171
     0
290
     0
174
     0
 93
        1
 44
0.0
173
     0
291
     1
 45
0.0
1001
ACAD
1000
AcDbSavedByObjectVersion
1070
     0
  0
VISUALSTYLE
  5
36
102
{ACAD_REACTORS
330
2A
102
}
330
2A
100
AcDbVisualStyle
  2
Brighten
 70
    12
 71
     2
 72
     2
 73
     0
 90
        0
 40
-0.6
 41
-30.0
 62
     5
 63
     7
421
 16777215
 74
     1
 91
        4
 64
     7
 65
   257
 75
     1
175
     1
 42
1.0
 92
        8
 66
     7
 43
1.0
 76
     1
 77
     6
 78
     2
 67
     7
 79
     5
170
     0
171
     0
290
     0
174
     0
 93
        1
 44
50.0
173
     0
291
     1
 45
0.0
1001
ACAD
1000
AcDbSavedByObjectVersion
1070
     0
  0
VISUALSTYLE
  5
3A
102
{ACAD_REACTORS
330
2A
102
}
330
2A
100
AcDbVisualStyle
  2
ColorChange
 70
    16
 71
     2
 72
     2
 73
     3
 90
        0
 40
-0.6
 41
-30.0
 62
     5
 63
     8
421
  8421504
 74
     1
 91
        4
 64
     7
 65
   257
 75
     1
175
     1
 42
1.0
 92
        8
 66
     8
424
  8421504
 43
1.0
 76
     1
 77
     6
 78
     2
 67
     7
 79
     5
170
     0
171
     0
290
     0
174
     0
 93
        1
 44
0.0
173
     0
291
     1
 45
0.0
1001
ACAD
1000
AcDbSavedByObjectVersion
1070
     0
  0
VISUALSTYLE
  5
34
102
{ACAD_REACTORS
330
2A
102
}
330
2A
100
AcDbVisualStyle
  2
Conceptual
 70
     9
 71
     3
 72
     2
 73
     0
 90
        0
 40
-0.6
 41
-30.0
 62
     5
 63
     7
421
 16777215
 74
     2
 91
        2
 64
     7
 65
   257
 75
     1
175
     1
 42
40.0
 92
        8
 66
     7
 43
1.0
 76
     1
 77
     6
 78
     2
 67
     7
 79
     3
170
     0
171
     0
290
     0
174
     0
 93
        1
 44
0.0
173
     0
291
     0
 45
0.0
1001
ACAD
1000
AcDbSavedByObjectVersion
1070
     0
  0
VISUALSTYLE
  5
35
102
{ACAD_REACTORS
330
2A
102
}
330
2A
100
AcDbVisualStyle
  2
Dim
 70
    11
 71
     2
 72
     2
 73
     0
 90
        0
 40
-0.6
 41
-30.0
 62
     5
 63
     7
421
 16777215
 74
     1
 91
        4
 64
     7
 65
   257
 75
     1
175
     1
 42
1.0
 92
        8
 66
     7
 43
1.0
 76
     1
 77
     6
 78
     2
 67
     7
 79
     5
170
     0
171
     0
290
     0
174
     0
 93
        1
 44
-50.0
173
     0
291
     1
 45
0.0
1001
ACAD
1000
AcDbSavedByObjectVersion
1070
     0
  0
VISUALSTYLE
  5
39
102
{ACAD_REACTORS
330
2A
102
}
330
2A
100
AcDbVisualStyle
  2
Facepattern
 70
    15
 71
     2
 72
     2
 73
     0
 90
        0
 40
-0.6
 41
-30.0
 62
     5
 63
     7
421
 16777215
 74
     1
 91
        4
 64
     7
 65
   257
 75
     1
175
     1
 42
1.0
 92
        8
 66
     7
 43
1.0
 76
     1
 77
     6
 78
     2
 67
     7
 79
     5
170
     0
171
     0
290
     0
174
     0
 93
        1
 44
0.0
173
     0
291
     1
 45
0.0
1001
ACAD
1000
AcDbSavedByObjectVersion
1070
     0
  0
VISUALSTYLE
  5
2B
102
{ACAD_REACTORS
330
2A
102
}
330
2A
100
AcDbVisualStyle
  2
Flat
 70
     0
 71
     2
 72
     1
 73
     1
 90
        2
 40
-0.6
 41
30.0
 62
     5
 63
     7
421
 16777215
 74
     0
 91
        4
 64
     7
 65
   257
 75
     1
175
     1
 42
1.0
 92
        8
 66
     7
 43
1.0
 76
     1
 77
     6
 78
     2
 67
     7
 79
     5
170
     0
171
     0
290
     0
174
     0
 93
       13
 44
0.0
173
     0
291
     1
 45
0.0
1001
ACAD
1000
AcDbSavedByObjectVersion
1070
     0
  0
VISUALSTYLE
  5
2C
102
{ACAD_REACTORS
330
2A
102
}
330
2A
100
AcDbVisualStyle
  2
FlatWithEdges
 70
     1
 71
     2
 72
     1
 73
     1
 90
        2
 40
-0.6
 41
30.0
 62
     5
 63
     7
421
 16777215
 74
     1
 91
        4
 64
     7
 65
   257
 75
     1
175
     1
 42
1.0
 92
        0
 66
   257
 43
1.0
 76
     1
 77
     6
 78
     2
 67
     7
 79
     5
170
     0
171
     0
290
     0
174
     0
 93
       13
 44
0.0
173
     0
291
     1
 45
0.0
1001
ACAD
1000
AcDbSavedByObjectVersion
1070
     0
  0
VISUALSTYLE
  5
2D
102
{ACAD_REACTORS
330
2A
102
}
330
2A
100
AcDbVisualStyle
  2
Gouraud
 70
     2
 71
     2
 72
     2
 73
     1
 90
        2
 40
-0.6
 41
30.0
 62
     5
 63
     7
421
 16777215
 74
     0
 91
        4
 64
     7
 65
   257
 75
     1
175
     1
 42
1.0
 92
        0
 66
     7
 43
1.0
 76
     1
 77
     6
 78
     2
 67
     7
 79
     5
170
     0
171
     0
290
     0
174
     0
 93
       13
 44
0.0
173
     0
291
     1
 45
0.0
1001
ACAD
1000
AcDbSavedByObjectVersion
1070
     0
  0
VISUALSTYLE
  5
2E
102
{ACAD_REACTORS
330
2A
102
}
330
2A
100
AcDbVisualStyle
  2
GouraudWithEdges
 70
     3
 71
     2
 72
     2
 73
     1
 90
        2
 40
-0.6
 41
30.0
 62
     5
 63
     7
421
 16777215
 74
     1
 91
        4
 64
     7
 65
   257
 75
     1
175
     1
 42
1.0
 92
        0
 66
   257
 43
1.0
 76
     1
 77
     6
 78
     2
 67
     7
 79
     5
170
     0
171
     0
290
     0
174
     0
 93
       13
 44
0.0
173
     0
291
     1
 45
0.0
1001
ACAD
1000
AcDbSavedByObjectVersion
1070
     0
  0
VISUALSTYLE
  5
38
102
{ACAD_REACTORS
330
2A
102
}
330
2A
100
AcDbVisualStyle
  2
Linepattern
 70
    14
 71
     2
 72
     2
 73
     0
 90
        0
 40
-0.6
 41
-30.0
 62
     5
 63
     7
421
 16777215
 74
     1
 91
        4
 64
     7
 65
   257
 75
     7
175
     7
 42
1.0
 92
        8
 66
     7
 43
1.0
 76
     1
 77
     6
 78
     2
 67
     7
 79
     5
170
     0
171
     0
290
     0
174
     0
 93
        1
 44
0.0
173
     0
291
     1
 45
0.0
1001
ACAD
1000
AcDbSavedByObjectVersion
1070
     0
  0
VISUALSTYLE
  5
33
102
{ACAD_REACTORS
330
2A
102
}
330
2A
100
AcDbVisualStyle
  2
Realistic
 70
     8
 71
     2
 72
     2
 73
     0
 90
        0
 40
-0.6
 41
-30.0
 62
     5
 63
     7
421
 16777215
 74
     1
 91
        0
 64
     7
 65
   257
 75
     1
175
     1
 42
1.0
 92
        8
 66
     8
424
  7895160
 43
1.0
 76
     1
 77
     6
 78
     2
 67
     7
 79
     5
170
     0
171
     0
290
     0
174
     0
 93
       13
 44
0.0
173
     0
291
     0
 45
0.0
1001
ACAD
1000
AcDbSavedByObjectVersion
1070
     0
  0
VISUALSTYLE
  5
37
102
{ACAD_REACTORS
330
2A
102
}
330
2A
100
AcDbVisualStyle
  2
Thicken
 70
    13
 71
     2
 72
     2
 73
     0
 90
        0
 40
-0.6
 41
-30.0
 62
     5
 63
     7
421
 16777215
 74
     1
 91
        4
 64
     7
 65
   257
 75
     1
175
     1
 42
1.0
 92
       12
 66
     7
 43
1.0
 76
     1
 77
     6
 78
     2
 67
     7
 79
     5
170
     0
171
     0
290
     0
174
     0
 93
        1
 44
0.0
173
     0
291
     1
 45
0.0
1001
ACAD
1000
AcDbSavedByObjectVersion
1070
     0
  0
ENDSEC
  0
EOF
