  0
SECTION
  2
HEADER
  9
$ACADVER
  1
AC1018
  9
$ACADMAINTVER
 70
     0
  9
$DWGCODEPAGE
  3
ANSI_1252
  9
$INSBASE
 10
0.0
 20
0.0
 30
0.0
  9
$EXTMIN
 10
-10.11726200957195
 20
-0.0000000000000004
 30
0.0
  9
$EXTMAX
 10
45.68268094607193
 20
64.2739348600854
 30
0.0
  9
$LIMMIN
 10
0.0
 20
0.0
  9
$LIMMAX
 10
12.0
 20
9.0
  9
$ORTHOMODE
 70
     0
  9
$REGENMODE
 70
     1
  9
$FILLMODE
 70
     1
  9
$QTEXTMODE
 70
     0
  9
$MIRRTEXT
 70
     1
  9
$LTSCALE
 40
0.0393700787401575
  9
$ATTMODE
 70
     1
  9
$TEXTSIZE
 40
0.2
  9
$TRACEWID
 40
0.05
  9
$TEXTSTYLE
  7
Standard
  9
$CLAYER
  8
Default
  9
$CELTYPE
  6
ByLayer
  9
$CECOLOR
 62
   256
  9
$CELTSCALE
 40
1.0
  9
$DISPSILH
 70
     0
  9
$DIMSCALE
 40
1.0
  9
$DIMASZ
 40
0.18
  9
$DIMEXO
 40
0.0625
  9
$DIMDLI
 40
0.38
  9
$DIMRND
 40
0.0
  9
$DIMDLE
 40
0.0
  9
$DIMEXE
 40
0.18
  9
$DIMTP
 40
0.0
  9
$DIMTM
 40
0.0
  9
$DIMTXT
 40
0.18
  9
$DIMCEN
 40
0.09
  9
$DIMTSZ
 40
0.0
  9
$DIMTOL
 70
     0
  9
$DIMLIM
 70
     0
  9
$DIMTIH
 70
     1
  9
$DIMTOH
 70
     1
  9
$DIMSE1
 70
     0
  9
$DIMSE2
 70
     0
  9
$DIMTAD
 70
     0
  9
$DIMZIN
 70
     0
  9
$DIMBLK
  1

  9
$DIMASO
 70
     1
  9
$DIMSHO
 70
     1
  9
$DIMPOST
  1

  9
$DIMAPOST
  1

  9
$DIMALT
 70
     0
  9
$DIMALTD
 70
     2
  9
$DIMALTF
 40
25.4
  9
$DIMLFAC
 40
1.0
  9
$DIMTOFL
 70
     0
  9
$DIMTVP
 40
0.0
  9
$DIMTIX
 70
     0
  9
$DIMSOXD
 70
     0
  9
$DIMSAH
 70
     0
  9
$DIMBLK1
  1

  9
$DIMBLK2
  1

  9
$DIMSTYLE
  2
Standard
  9
$DIMCLRD
 70
     0
  9
$DIMCLRE
 70
     0
  9
$DIMCLRT
 70
     0
  9
$DIMTFAC
 40
1.0
  9
$DIMGAP
 40
0.09
  9
$DIMJUST
 70
     0
  9
$DIMSD1
 70
     0
  9
$DIMSD2
 70
     0
  9
$DIMTOLJ
 70
     1
  9
$DIMTZIN
 70
     0
  9
$DIMALTZ
 70
     0
  9
$DIMALTTZ
 70
     0
  9
$DIMUPT
 70
     0
  9
$DIMDEC
 70
     4
  9
$DIMTDEC
 70
     4
  9
$DIMALTU
 70
     2
  9
$DIMALTTD
 70
     2
  9
$DIMTXSTY
  7
Standard
  9
$DIMAUNIT
 70
     0
  9
$DIMADEC
 70
     0
  9
$DIMALTRND
 40
0.0
  9
$DIMAZIN
 70
     0
  9
$DIMDSEP
 70
    46
  9
$DIMATFIT
 70
     3
  9
$DIMFRAC
 70
     0
  9
$DIMLDRBLK
  1

  9
$DIMLUNIT
 70
     2
  9
$DIMLWD
 70
    -2
  9
$DIMLWE
 70
    -2
  9
$DIMTMOVE
 70
     2
  9
$LUNITS
 70
     2
  9
$LUPREC
 70
     4
  9
$SKETCHINC
 40
0.1
  9
$FILLETRAD
 40
0.5
  9
$AUNITS
 70
     0
  9
$AUPREC
 70
     0
  9
$MENU
  1
.
  9
$ELEVATION
 40
0.0
  9
$PELEVATION
 40
0.0
  9
$THICKNESS
 40
0.0
  9
$LIMCHECK
 70
     0
  9
$CHAMFERA
 40
0.5
  9
$CHAMFERB
 40
0.5
  9
$CHAMFERC
 40
1.0
  9
$CHAMFERD
 40
0.0
  9
$SKPOLY
 70
     0
  9
$TDCREATE
 40
2457493.509535764
  9
$TDUCREATE
 40
2457493.67620243
  9
$TDUPDATE
 40
2457493.509535776
  9
$TDUUPDATE
 40
2457493.676202442
  9
$TDINDWG
 40
0.0000000116
  9
$TDUSRTIMER
 40
0.0000000116
  9
$USRTIMER
 70
     1
  9
$ANGBASE
 50
0.0
  9
$ANGDIR
 70
     0
  9
$PDMODE
 70
     0
  9
$PDSIZE
 40
0.0
  9
$PLINEWID
 40
0.0
  9
$SPLFRAME
 70
     0
  9
$SPLINETYPE
 70
     6
  9
$SPLINESEGS
 70
     8
  9
$HANDSEED
  5
142
  9
$SURFTAB1
 70
     6
  9
$SURFTAB2
 70
     6
  9
$SURFTYPE
 70
     6
  9
$SURFU
 70
     6
  9
$SURFV
 70
     6
  9
$UCSBASE
  2

  9
$UCSNAME
  2

  9
$UCSORG
 10
0.0
 20
0.0
 30
0.0
  9
$UCSXDIR
 10
1.0
 20
0.0
 30
0.0
  9
$UCSYDIR
 10
0.0
 20
1.0
 30
0.0
  9
$UCSORTHOREF
  2

  9
$UCSORTHOVIEW
 70
     0
  9
$UCSORGTOP
 10
0.0
 20
0.0
 30
0.0
  9
$UCSORGBOTTOM
 10
0.0
 20
0.0
 30
0.0
  9
$UCSORGLEFT
 10
0.0
 20
0.0
 30
0.0
  9
$UCSORGRIGHT
 10
0.0
 20
0.0
 30
0.0
  9
$UCSORGFRONT
 10
0.0
 20
0.0
 30
0.0
  9
$UCSORGBACK
 10
0.0
 20
0.0
 30
0.0
  9
$PUCSBASE
  2

  9
$PUCSNAME
  2

  9
$PUCSORG
 10
0.0
 20
0.0
 30
0.0
  9
$PUCSXDIR
 10
1.0
 20
0.0
 30
0.0
  9
$PUCSYDIR
 10
0.0
 20
1.0
 30
0.0
  9
$PUCSORTHOREF
  2

  9
$PUCSORTHOVIEW
 70
     0
  9
$PUCSORGTOP
 10
0.0
 20
0.0
 30
0.0
  9
$PUCSORGBOTTOM
 10
0.0
 20
0.0
 30
0.0
  9
$PUCSORGLEFT
 10
0.0
 20
0.0
 30
0.0
  9
$PUCSORGRIGHT
 10
0.0
 20
0.0
 30
0.0
  9
$PUCSORGFRONT
 10
0.0
 20
0.0
 30
0.0
  9
$PUCSORGBACK
 10
0.0
 20
0.0
 30
0.0
  9
$USERI1
 70
     0
  9
$USERI2
 70
     0
  9
$USERI3
 70
     0
  9
$USERI4
 70
     0
  9
$USERI5
 70
     0
  9
$USERR1
 40
0.0
  9
$USERR2
 40
0.0
  9
$USERR3
 40
0.0
  9
$USERR4
 40
0.0
  9
$USERR5
 40
0.0
  9
$WORLDVIEW
 70
     1
  9
$SHADEDGE
 70
     3
  9
$SHADEDIF
 70
    70
  9
$TILEMODE
 70
     1
  9
$MAXACTVP
 70
    64
  9
$PINSBASE
 10
0.0
 20
0.0
 30
0.0
  9
$PLIMCHECK
 70
     0
  9
$PEXTMIN
 10
1.000000000000000E+20
 20
1.000000000000000E+20
 30
1.000000000000000E+20
  9
$PEXTMAX
 10
-1.000000000000000E+20
 20
-1.000000000000000E+20
 30
-1.000000000000000E+20
  9
$PLIMMIN
 10
0.0
 20
0.0
  9
$PLIMMAX
 10
12.0
 20
9.0
  9
$UNITMODE
 70
     0
  9
$VISRETAIN
 70
     1
  9
$PLINEGEN
 70
     0
  9
$PSLTSCALE
 70
     1
  9
$TREEDEPTH
 70
  3020
  9
$CMLSTYLE
  2
Standard
  9
$CMLJUST
 70
     0
  9
$CMLSCALE
 40
1.0
  9
$PROXYGRAPHICS
 70
     1
  9
$MEASUREMENT
 70
     0
  9
$CELWEIGHT
370
    -1
  9
$ENDCAPS
280
     0
  9
$JOINSTYLE
280
     0
  9
$LWDISPLAY
290
     0
  9
$INSUNITS
 70
     1
  9
$HYPERLINKBASE
  1

  9
$STYLESHEET
  1

  9
$XEDIT
290
     1
  9
$CEPSNTYPE
380
     0
  9
$PSTYLEMODE
290
     1
  9
$FINGERPRINTGUID
  2
{729BFD75-AF4C-46CD-B493-CE5CE32A30E9}
  9
$VERSIONGUID
  2
{FAEB1C32-E019-11D5-929B-00C0DF256EC4}
  9
$EXTNAMES
290
     1
  9
$PSVPSCALE
 40
0.0
  9
$OLESTARTUP
290
     0
  9
$SORTENTS
280
   127
  9
$INDEXCTL
280
     0
  9
$HIDETEXT
280
     1
  9
$XCLIPFRAME
290
     0
  9
$HALOGAP
280
     0
  9
$OBSCOLOR
 70
   257
  9
$OBSLTYPE
280
     0
  9
$INTERSECTIONDISPLAY
280
     0
  9
$INTERSECTIONCOLOR
 70
   257
  9
$DIMASSOC
280
     2
  9
$PROJECTNAME
  1

  0
ENDSEC
  0
SECTION
  2
CLASSES
  0
CLASS
  1
ACDBDICTIONARYWDFLT
  2
AcDbDictionaryWithDefault
  3
ObjectDBX Classes
 90
        0
 91
        4
280
     0
281
     0
  0
CLASS
  1
VISUALSTYLE
  2
AcDbVisualStyle
  3
ObjectDBX Classes
 90
     4095
 91
        4
280
     0
281
     0
  0
ENDSEC
  0
SECTION
  2
TABLES
  0
TABLE
  2
VPORT
  5
8
330
0
100
AcDbSymbolTable
 70
     1
  0
VPORT
  5
29
330
8
100
AcDbSymbolTableRecord
100
AcDbViewportTableRecord
  2
*Active
 70
     0
 10
0.0
 20
0.0
 11
1.0
 21
1.0
 12
17.78270946824999
 22
32.1369674300427
 13
0.0
 23
0.0
 14
0.5
 24
0.5
 15
0.5
 25
0.5
 16
0.0
 26
0.0
 36
1.0
 17
0.0
 27
0.0
 37
0.0
 40
65.55941355728712
 41
0.8681581900518752
 42
50.0
 43
0.0
 44
0.0
 50
0.0
 51
0.0
 71
     0
 72
   100
 73
     1
 74
     3
 75
     0
 76
     0
 77
     0
 78
     0
281
     0
 65
     1
110
0.0
120
0.0
130
0.0
111
1.0
121
0.0
131
0.0
112
0.0
122
1.0
132
0.0
 79
     0
146
0.0
  0
ENDTAB
  0
TABLE
  2
LTYPE
  5
5
330
0
100
AcDbSymbolTable
 70
     1
  0
LTYPE
  5
14
330
5
100
AcDbSymbolTableRecord
100
AcDbLinetypeTableRecord
  2
ByBlock
 70
     0
  3

 72
    65
 73
     0
 40
0.0
  0
LTYPE
  5
15
330
5
100
AcDbSymbolTableRecord
100
AcDbLinetypeTableRecord
  2
ByLayer
 70
     0
  3

 72
    65
 73
     0
 40
0.0
  0
LTYPE
  5
16
330
5
100
AcDbSymbolTableRecord
100
AcDbLinetypeTableRecord
  2
Continuous
 70
     0
  3
Solid line
 72
    65
 73
     0
 40
0.0
  0
ENDTAB
  0
TABLE
  2
LAYER
  5
2
330
0
100
AcDbSymbolTable
 70
     3
  0
LAYER
  5
10
330
2
100
AcDbSymbolTableRecord
100
AcDbLayerTableRecord
  2
0
 70
     0
 62
     7
  6
Continuous
370
    -3
390
F
  0
LAYER
  5
3B
330
2
100
AcDbSymbolTableRecord
100
AcDbLayerTableRecord
  2
Default
 70
     0
 62
     7
  6
Continuous
370
    -3
390
F
  0
LAYER
  5
E6
330
2
100
AcDbSymbolTableRecord
100
AcDbLayerTableRecord
  2
Default - Tangent
 70
     0
 62
     7
  6
Continuous
370
    -3
390
F
  0
ENDTAB
  0
TABLE
  2
STYLE
  5
3
330
0
100
AcDbSymbolTable
 70
     1
  0
STYLE
  5
11
330
3
100
AcDbSymbolTableRecord
100
AcDbTextStyleTableRecord
  2
Standard
 70
     0
 40
0.0
 41
1.0
 50
0.0
 71
     0
 42
0.2
  3
txt
  4

  0
ENDTAB
  0
TABLE
  2
VIEW
  5
6
330
0
100
AcDbSymbolTable
 70
     0
  0
ENDTAB
  0
TABLE
  2
UCS
  5
7
330
0
100
AcDbSymbolTable
 70
     0
  0
ENDTAB
  0
TABLE
  2
APPID
  5
9
330
0
100
AcDbSymbolTable
 70
     1
  0
APPID
  5
12
330
9
100
AcDbSymbolTableRecord
100
AcDbRegAppTableRecord
  2
ACAD
 70
     0
  0
ENDTAB
  0
TABLE
  2
DIMSTYLE
  5
A
330
0
100
AcDbSymbolTable
 70
     1
100
AcDbDimStyleTable
  0
DIMSTYLE
105
27
330
A
100
AcDbSymbolTableRecord
100
AcDbDimStyleTableRecord
  2
Standard
 70
     0
340
11
  0
ENDTAB
  0
TABLE
  2
BLOCK_RECORD
  5
1
330
0
100
AcDbSymbolTable
 70
     1
  0
BLOCK_RECORD
  5
1F
330
1
100
AcDbSymbolTableRecord
100
AcDbBlockTableRecord
  2
*Model_Space
340
22
  0
BLOCK_RECORD
  5
1B
330
1
100
AcDbSymbolTableRecord
100
AcDbBlockTableRecord
  2
*Paper_Space
340
1E
  0
BLOCK_RECORD
  5
23
330
1
100
AcDbSymbolTableRecord
100
AcDbBlockTableRecord
  2
*Paper_Space0
340
26
  0
ENDTAB
  0
ENDSEC
  0
SECTION
  2
BLOCKS
  0
BLOCK
  5
20
330
1F
100
AcDbEntity
  8
0
100
AcDbBlockBegin
  2
*Model_Space
 70
     0
 10
0.0
 20
0.0
 30
0.0
  3
*Model_Space
  1

  0
ENDBLK
  5
21
330
1F
100
AcDbEntity
  8
0
100
AcDbBlockEnd
  0
BLOCK
  5
1C
330
1B
100
AcDbEntity
 67
     1
  8
0
100
AcDbBlockBegin
  2
*Paper_Space
 70
     0
 10
0.0
 20
0.0
 30
0.0
  3
*Paper_Space
  1

  0
ENDBLK
  5
1D
330
1B
100
AcDbEntity
 67
     1
  8
0
100
AcDbBlockEnd
  0
BLOCK
  5
24
330
23
100
AcDbEntity
  8
0
100
AcDbBlockBegin
  2
*Paper_Space0
 70
     0
 10
0.0
 20
0.0
 30
0.0
  3
*Paper_Space0
  1

  0
ENDBLK
  5
25
330
23
100
AcDbEntity
  8
0
100
AcDbBlockEnd
  0
ENDSEC
  0
SECTION
  2
ENTITIES
  0
SPLINE
  5
3C
330
1F
100
AcDbEntity
  8
Default
100
AcDbSpline
210
0.0
220
0.0
230
1.0
 70
     8
 71
     3
 72
    13
 73
     9
 74
     0
 42
0.0000000001
 43
0.0000000001
 40
9.79575739661431
 40
9.79575739661431
 40
9.79575739661431
 40
9.79575739661431
 40
10.0
 40
11.0
 40
12.0
 40
13.0
 40
14.0
 40
14.02350821567206
 40
14.02350821567206
 40
14.02350821567206
 40
14.02350821567206
 10
-1.499999957629274
 20
12.19221173403203
 30
0.0
 10
-1.578805882861281
 20
12.19334149726696
 30
0.0
 10
-2.043446385225586
 20
12.20056835483655
 30
0.0
 10
-2.893790453946703
 20
12.22006309951563
 30
0.0
 10
-4.050869653848118
 20
12.26343851148807
 30
0.0
 10
-5.205656338491464
 20
12.33776504525957
 30
0.0
 10
-5.984574250756228
 20
12.41204693912414
 30
0.0
 10
-6.375106043692424
 20
12.46442155074766
 30
0.0
 10
-6.384074163323612
 20
12.46563216948855
 30
0.0
  0
SPLINE
  5
3D
330
1F
100
AcDbEntity
  8
Default
100
AcDbSpline
210
0.0
220
0.0
230
1.0
 70
     8
 71
     3
 72
    13
 73
     9
 74
     0
 42
0.0000000001
 43
0.0000000001
 40
2.976491796289283
 40
2.976491796289283
 40
2.976491796289283
 40
2.976491796289283
 40
3.0
 40
4.0
 40
5.0
 40
6.0
 40
7.0
 40
7.20424263742845
 40
7.20424263742845
 40
7.20424263742845
 40
7.20424263742845
 10
6.384074163230614
 20
12.46563217019947
 30
0.0
 10
6.375106048599223
 20
12.46442155184283
 30
0.0
 10
5.984574280784585
 20
12.41204693112541
 30
0.0
 10
5.205656552042602
 20
12.33776507084144
 30
0.0
 10
4.050869984370962
 20
12.2634385251469
 30
0.0
 10
2.893790610060032
 20
12.22006310401652
 30
0.0
 10
2.043446536511834
 20
12.20056835756576
 30
0.0
 10
1.578805987150638
 20
12.19334149887828
 30
0.0
 10
1.500000042370727
 20
12.192211735316
 30
0.0
  0
POLYLINE
  5
3E
330
1F
100
AcDbEntity
  8
Default
100
AcDb2dPolyline
 66
     1
 10
0.0
 20
0.0
 30
0.0
  0
VERTEX
  5
3F
330
3E
100
AcDbEntity
  8
Default
100
AcDbVertex
100
AcDb2dVertex
 10
-1.499999957629273
 20
12.85453262673984
 30
0.0
  0
VERTEX
  5
40
330
3E
100
AcDbEntity
  8
Default
100
AcDbVertex
100
AcDb2dVertex
 10
1.500000042370726
 20
12.85453262673984
 30
0.0
  0
SEQEND
  5
41
330
3E
100
AcDbEntity
  8
Default
  0
POLYLINE
  5
42
330
1F
100
AcDbEntity
  8
Default
100
AcDb2dPolyline
 66
     1
 10
0.0
 20
0.0
 30
0.0
  0
VERTEX
  5
43
330
42
100
AcDbEntity
  8
Default
100
AcDbVertex
100
AcDb2dVertex
 10
-1.499999957629273
 20
11.95540934334284
 30
0.0
  0
VERTEX
  5
44
330
42
100
AcDbEntity
  8
Default
100
AcDbVertex
100
AcDb2dVertex
 10
1.500000042370727
 20
11.95540934334284
 30
0.0
  0
VERTEX
  5
45
330
42
100
AcDbEntity
  8
Default
100
AcDbVertex
100
AcDb2dVertex
 10
1.500000042370727
 20
13.06275502413226
 30
0.0
  0
VERTEX
  5
46
330
42
100
AcDbEntity
  8
Default
100
AcDbVertex
100
AcDb2dVertex
 10
-1.499999957629273
 20
13.06275502413226
 30
0.0
  0
VERTEX
  5
47
330
42
100
AcDbEntity
  8
Default
100
AcDbVertex
100
AcDb2dVertex
 10
-1.499999957629273
 20
11.95540934334284
 30
0.0
  0
SEQEND
  5
48
330
42
100
AcDbEntity
  8
Default
  0
LINE
  5
49
330
1F
100
AcDbEntity
  8
Default
100
AcDbLine
 10
7.175167965383963
 20
6.418124728940745
 30
0.0
 11
8.000514663947456
 21
0.108771416356557
 31
0.0
  0
SPLINE
  5
4A
330
1F
100
AcDbEntity
  8
Default
100
AcDbSpline
210
0.0
220
0.0
230
1.0
 70
    12
 71
     2
 72
    10
 73
     7
 74
     0
 42
0.0000000001
 43
0.0000000001
 40
-1.11196088567113
 40
-1.11196088567113
 40
-1.11196088567113
 40
-0.9340803425249113
 40
-0.9340803425249113
 40
-0.0251051618871498
 40
-0.0251051618871498
 40
0.0
 40
0.0
 40
0.0
 10
8.000514663947456
 20
0.108771416356557
 30
0.0
 41
1.0
 10
8.014492976979751
 20
0.0019143636922764
 30
0.0
 41
0.7574170515802898
 10
8.124612455308522
 20
0.0000000000015627
 30
0.0
 41
1.0
 10
8.579253196351118
 20
-0.0000000000000003
 30
0.0
 41
1.0
 10
9.033740786670009
 20
-0.0000000000000004
 30
0.0
 41
1.0
 10
9.046335805072362
 20
0.0000000079772521
 30
0.0
 41
0.9949535779999519
 10
9.058677224269076
 20
0.0025147367432828
 30
0.0
 41
1.0
  0
LINE
  5
4B
330
1F
100
AcDbEntity
  8
Default
100
AcDbLine
 10
6.953647450240743
 20
8.111535750583927
 30
0.0
 11
7.124356779864711
 21
6.806550250276444
 31
0.0
  0
SPLINE
  5
4C
330
1F
100
AcDbEntity
  8
Default
100
AcDbSpline
210
0.0
220
0.0
230
1.0
 70
    12
 71
     2
 72
     6
 73
     3
 74
     0
 42
0.0000000001
 43
0.0000000001
 40
0.0
 40
0.0
 40
0.0
 40
0.2766949710960268
 40
0.2766949710960268
 40
0.2766949710960268
 10
6.590060281145878
 20
12.717556412127
 30
0.0
 41
1.0
 10
6.468596295178763
 20
12.69231326200561
 30
0.0
 41
0.955419928134244
 10
6.368078251843616
 20
12.58791273020295
 30
0.0
 41
1.0
  0
LINE
  5
4D
330
1F
100
AcDbEntity
  8
Default
100
AcDbLine
 10
6.368078251843616
 20
12.58791273020295
 30
0.0
 11
6.905003380662214
 21
8.4833947791195
 31
0.0
  0
LINE
  5
4E
330
1F
100
AcDbEntity
  8
Default
100
AcDbLine
 10
-7.175167965383963
 20
6.418124728940744
 30
0.0
 11
-8.000514663947456
 21
0.108771416356557
 31
0.0
  0
SPLINE
  5
4F
330
1F
100
AcDbEntity
  8
Default
100
AcDbSpline
210
0.0
220
0.0
230
1.0
 70
    12
 71
     2
 72
    10
 73
     7
 74
     0
 42
0.0000000001
 43
0.0000000001
 40
-1.11196088567113
 40
-1.11196088567113
 40
-1.11196088567113
 40
-0.9340803425249113
 40
-0.9340803425249113
 40
-0.0251051618871498
 40
-0.0251051618871498
 40
0.0
 40
0.0
 40
0.0
 10
-8.000514663947456
 20
0.108771416356557
 30
0.0
 41
1.0
 10
-8.014492976979751
 20
0.0019143636922764
 30
0.0
 41
0.7574170515802898
 10
-8.124612455308522
 20
0.0000000000015627
 30
0.0
 41
1.0
 10
-8.579253196351118
 20
-0.0000000000000003
 30
0.0
 41
1.0
 10
-9.033740786670009
 20
-0.0000000000000004
 30
0.0
 41
1.0
 10
-9.046335805072362
 20
0.0000000079772521
 30
0.0
 41
0.9949535779999519
 10
-9.058677224269076
 20
0.0025147367432828
 30
0.0
 41
1.0
  0
LINE
  5
50
330
1F
100
AcDbEntity
  8
Default
100
AcDbLine
 10
-6.953647450240743
 20
8.11153575058393
 30
0.0
 11
-7.124356779864711
 21
6.806550250276444
 31
0.0
  0
SPLINE
  5
51
330
1F
100
AcDbEntity
  8
Default
100
AcDbSpline
210
0.0
220
0.0
230
1.0
 70
    12
 71
     2
 72
     6
 73
     3
 74
     0
 42
0.0000000001
 43
0.0000000001
 40
0.0
 40
0.0
 40
0.0
 40
0.2766949710960268
 40
0.2766949710960268
 40
0.2766949710960268
 10
-6.590060281145878
 20
12.717556412127
 30
0.0
 41
1.0
 10
-6.468596295178763
 20
12.69231326200561
 30
0.0
 41
0.955419928134244
 10
-6.368078251843616
 20
12.58791273020295
 30
0.0
 41
1.0
  0
LINE
  5
52
330
1F
100
AcDbEntity
  8
Default
100
AcDbLine
 10
-6.368078251843616
 20
12.58791273020295
 30
0.0
 11
-6.905003380662214
 21
8.483394779119504
 31
0.0
  0
SPLINE
  5
53
330
1F
100
AcDbEntity
  8
Default
100
AcDbSpline
210
0.0
220
0.0
230
1.0
 70
    24
 71
     2
 72
     6
 73
     3
 74
     0
 42
0.0000000001
 43
0.0000000001
 40
1.053142957480607
 40
1.053142957480607
 40
1.053142957480607
 40
5.946969205421087
 40
5.946969205421087
 40
5.946969205421087
 10
-2.797247789168172
 20
7.51941129308234
 30
0.0
 10
-5.166719322679522
 20
7.129057375048515
 30
0.0
 10
-7.536190856190871
 20
6.73870345701469
 30
0.0
  0
SPLINE
  5
54
330
1F
100
AcDbEntity
  8
Default
100
AcDbSpline
210
0.0
220
0.0
230
1.0
 70
     8
 71
     3
 72
    12
 73
     8
 74
     0
 42
0.0000000001
 43
0.0000000001
 40
0.0
 40
0.0
 40
0.0
 40
0.0
 40
1.0
 40
2.0
 40
3.0
 40
4.0
 40
5.0
 40
5.0
 40
5.0
 40
5.0
 10
-7.536190856190871
 20
6.73870345701469
 30
0.0
 10
-7.571539290973505
 20
6.731012473049268
 30
0.0
 10
-7.63369265032886
 20
6.691964445769055
 30
0.0
 10
-7.694598708550834
 20
6.601100583207818
 30
0.0
 10
-7.717701026979689
 20
6.494906126367384
 30
0.0
 10
-7.690264118519813
 20
6.384948658091623
 30
0.0
 10
-7.620691941906876
 20
6.346912854722182
 30
0.0
 10
-7.584352885774897
 20
6.350714365652581
 30
0.0
  0
POLYLINE
  5
55
330
1F
100
AcDbEntity
  8
Default
100
AcDb2dPolyline
 66
     1
 10
0.0
 20
0.0
 30
0.0
  0
VERTEX
  5
56
330
55
100
AcDbEntity
  8
Default
100
AcDbVertex
100
AcDb2dVertex
 10
-7.584352885774897
 20
6.350714365652581
 30
0.0
  0
VERTEX
  5
57
330
55
100
AcDbEntity
  8
Default
100
AcDbVertex
100
AcDb2dVertex
 10
-1.797210313839153
 20
7.304105763365547
 30
0.0
  0
SEQEND
  5
58
330
55
100
AcDbEntity
  8
Default
  0
ARC
  5
59
330
1F
100
AcDbEntity
  8
Default
100
AcDbCircle
 10
-1.634658368995562
 20
6.31740577591872
 30
0.0
 40
1.0
100
AcDbArc
 50
89.99999999999905
 51
99.35505138211808
  0
SPLINE
  5
5A
330
1F
100
AcDbEntity
  8
Default
100
AcDbSpline
210
0.0
220
0.0
230
1.0
 70
    24
 71
     2
 72
     6
 73
     3
 74
     0
 42
0.0000000001
 43
0.0000000001
 40
0.0818200764437058
 40
0.0818200764437058
 40
0.0818200764437058
 40
3.351136814434909
 40
3.351136814434909
 40
3.351136814434909
 10
-1.634658368995545
 20
7.31740577591872
 30
0.0
 10
0.0000000000000564
 20
7.31740577591872
 30
0.0
 10
1.634658368995658
 20
7.317405775918721
 30
0.0
  0
ARC
  5
5B
330
1F
100
AcDbEntity
  8
Default
100
AcDbCircle
 10
1.634658368995658
 20
6.317405775918721
 30
0.0
 40
1.0
100
AcDbArc
 50
80.6449486178939
 51
90.00000000000001
  0
POLYLINE
  5
5C
330
1F
100
AcDbEntity
  8
Default
100
AcDb2dPolyline
 66
     1
 10
0.0
 20
0.0
 30
0.0
  0
VERTEX
  5
5D
330
5C
100
AcDbEntity
  8
Default
100
AcDbVertex
100
AcDb2dVertex
 10
1.797210313839043
 20
7.304105763365581
 30
0.0
  0
VERTEX
  5
5E
330
5C
100
AcDbEntity
  8
Default
100
AcDbVertex
100
AcDb2dVertex
 10
7.584352885774897
 20
6.350714365652581
 30
0.0
  0
SEQEND
  5
5F
330
5C
100
AcDbEntity
  8
Default
  0
SPLINE
  5
60
330
1F
100
AcDbEntity
  8
Default
100
AcDbSpline
210
0.0
220
0.0
230
1.0
 70
     8
 71
     3
 72
    12
 73
     8
 74
     0
 42
0.0000000001
 43
0.0000000001
 40
-5.0
 40
-5.0
 40
-5.0
 40
-5.0
 40
-4.0
 40
-3.0
 40
-2.0
 40
-1.0
 40
0.0
 40
0.0
 40
0.0
 40
0.0
 10
7.584352885774897
 20
6.350714365652581
 30
0.0
 10
7.620691941906876
 20
6.346912854722182
 30
0.0
 10
7.690264118519813
 20
6.384948658091623
 30
0.0
 10
7.717701026979689
 20
6.494906126367384
 30
0.0
 10
7.694598708550834
 20
6.601100583207818
 30
0.0
 10
7.63369265032886
 20
6.691964445769055
 30
0.0
 10
7.571539290973505
 20
6.731012473049268
 30
0.0
 10
7.536190856190871
 20
6.73870345701469
 30
0.0
  0
SPLINE
  5
61
330
1F
100
AcDbEntity
  8
Default
100
AcDbSpline
210
0.0
220
0.0
230
1.0
 70
    24
 71
     2
 72
     6
 73
     3
 74
     0
 42
0.0000000001
 43
0.0000000001
 40
-5.946969205421087
 40
-5.946969205421087
 40
-5.946969205421087
 40
-1.053142957480607
 40
-1.053142957480607
 40
-1.053142957480607
 10
7.536190856190871
 20
6.73870345701469
 30
0.0
 10
5.166719322679522
 20
7.129057375048515
 30
0.0
 10
2.797247789168172
 20
7.51941129308234
 30
0.0
  0
POLYLINE
  5
62
330
1F
100
AcDbEntity
  8
Default
100
AcDb2dPolyline
 66
     1
 10
0.0
 20
0.0
 30
0.0
  0
VERTEX
  5
63
330
62
100
AcDbEntity
  8
Default
100
AcDbVertex
100
AcDb2dVertex
 10
-7.897249671216001
 20
8.245962176999354
 30
0.0
  0
VERTEX
  5
64
330
62
100
AcDbEntity
  8
Default
100
AcDbVertex
100
AcDb2dVertex
 10
-1.786642692811111
 20
7.375439576398498
 30
0.0
  0
SEQEND
  5
65
330
62
100
AcDbEntity
  8
Default
  0
ARC
  5
66
330
1F
100
AcDbEntity
  8
Default
100
AcDbCircle
 10
-1.645605778833827
 20
8.365443914215138
 30
0.0
 40
1.0
100
AcDbArc
 50
261.8921475774727
 51
269.999999999992
  0
POLYLINE
  5
67
330
1F
100
AcDbEntity
  8
Default
100
AcDb2dPolyline
 66
     1
 10
0.0
 20
0.0
 30
0.0
  0
VERTEX
  5
68
330
67
100
AcDbEntity
  8
Default
100
AcDbVertex
100
AcDb2dVertex
 10
-1.645605778833967
 20
7.365443914215138
 30
0.0
  0
VERTEX
  5
69
330
67
100
AcDbEntity
  8
Default
100
AcDbVertex
100
AcDb2dVertex
 10
1.645605778833853
 20
7.365443914215152
 30
0.0
  0
SEQEND
  5
6A
330
67
100
AcDbEntity
  8
Default
  0
ARC
  5
6B
330
1F
100
AcDbEntity
  8
Default
100
AcDbCircle
 10
1.645605778833942
 20
8.365443914215152
 30
0.0
 40
1.0
100
AcDbArc
 50
269.9999999999949
 51
278.1078524225273
  0
POLYLINE
  5
6C
330
1F
100
AcDbEntity
  8
Default
100
AcDb2dPolyline
 66
     1
 10
0.0
 20
0.0
 30
0.0
  0
VERTEX
  5
6D
330
6C
100
AcDbEntity
  8
Default
100
AcDbVertex
100
AcDb2dVertex
 10
1.786642692811225
 20
7.375439576398512
 30
0.0
  0
VERTEX
  5
6E
330
6C
100
AcDbEntity
  8
Default
100
AcDbVertex
100
AcDb2dVertex
 10
7.897249671216001
 20
8.245962176999354
 30
0.0
  0
SEQEND
  5
6F
330
6C
100
AcDbEntity
  8
Default
  0
SPLINE
  5
70
330
1F
100
AcDbEntity
  8
Default
100
AcDbSpline
210
0.0
220
0.0
230
1.0
 70
    24
 71
     2
 72
     6
 73
     3
 74
     0
 42
0.0000000001
 43
0.0000000001
 40
-6.24317590305498
 40
-6.24317590305498
 40
-6.24317590305498
 40
-0.0708726666053962
 40
-0.0708726666053962
 40
-0.0708726666053962
 10
-7.844360453208696
 20
8.617216437847658
 30
0.0
 10
-4.789056964006308
 20
8.181955137547238
 30
0.0
 10
-1.73375347480392
 20
7.746693837246817
 30
0.0
  0
ARC
  5
71
330
1F
100
AcDbEntity
  8
Default
100
AcDbCircle
 10
-1.592716560826638
 20
8.736698175063458
 30
0.0
 40
1.0
100
AcDbArc
 50
261.8921475774728
 51
270.0000000000051
  0
POLYLINE
  5
72
330
1F
100
AcDbEntity
  8
Default
100
AcDb2dPolyline
 66
     1
 10
0.0
 20
0.0
 30
0.0
  0
VERTEX
  5
73
330
72
100
AcDbEntity
  8
Default
100
AcDbVertex
100
AcDb2dVertex
 10
-1.592716560826549
 20
7.736698175063458
 30
0.0
  0
VERTEX
  5
74
330
72
100
AcDbEntity
  8
Default
100
AcDbVertex
100
AcDb2dVertex
 10
1.592716560826663
 20
7.73669817506345
 30
0.0
  0
SEQEND
  5
75
330
72
100
AcDbEntity
  8
Default
  0
ARC
  5
76
330
1F
100
AcDbEntity
  8
Default
100
AcDbCircle
 10
1.592716560826663
 20
8.73669817506345
 30
0.0
 40
1.0
100
AcDbArc
 50
270.0
 51
278.1078524225193
  0
SPLINE
  5
77
330
1F
100
AcDbEntity
  8
Default
100
AcDbSpline
210
0.0
220
0.0
230
1.0
 70
    24
 71
     2
 72
     6
 73
     3
 74
     0
 42
0.0000000001
 43
0.0000000001
 40
0.0708726666052814
 40
0.0708726666052814
 40
0.0708726666052814
 40
6.24317590305498
 40
6.24317590305498
 40
6.24317590305498
 10
1.733753474803808
 20
7.746693837246791
 30
0.0
 10
4.789056964006252
 20
8.181955137547224
 30
0.0
 10
7.844360453208696
 20
8.617216437847658
 30
0.0
  0
LINE
  5
78
330
1F
100
AcDbEntity
  8
Default
100
AcDbLine
 10
-7.393498840092047
 20
6.382156239273448
 30
0.0
 11
-7.445226922059653
 21
5.978206254834359
 31
0.0
  0
SPLINE
  5
79
330
1F
100
AcDbEntity
  8
Default
100
AcDbSpline
210
0.0
220
0.0
230
1.0
 70
    12
 71
     2
 72
     8
 73
     5
 74
     0
 42
0.0000000001
 43
0.0000000001
 40
0.0
 40
0.0
 40
0.0
 40
0.3691371350459142
 40
0.3691371350459142
 40
0.7382742700918284
 40
0.7382742700918284
 40
0.7382742700918284
 10
-7.445226922059653
 20
5.978206254834359
 30
0.0
 41
1.0
 10
-7.474009882719488
 20
5.753437114586603
 30
0.0
 41
0.7071067838207256
 10
-7.661017904345491
 20
5.738195942847669
 30
0.0
 41
1.0
 10
-7.848025925971494
 20
5.722954771108735
 30
0.0
 41
0.7071067838207256
 10
-7.819242967883674
 20
5.947723912803416
 30
0.0
 41
1.0
  0
POLYLINE
  5
7A
330
1F
100
AcDbEntity
  8
Default
100
AcDb2dPolyline
 66
     1
 10
0.0
 20
0.0
 30
0.0
  0
VERTEX
  5
7B
330
7A
100
AcDbEntity
  8
Default
100
AcDbVertex
100
AcDb2dVertex
 10
-7.819242967883674
 20
5.947723912803416
 30
0.0
  0
VERTEX
  5
7C
330
7A
100
AcDbEntity
  8
Default
100
AcDbVertex
100
AcDb2dVertex
 10
-7.604901769743285
 20
7.621536672919192
 30
0.0
  0
SEQEND
  5
7D
330
7A
100
AcDbEntity
  8
Default
  0
SPLINE
  5
7E
330
1F
100
AcDbEntity
  8
Default
100
AcDbSpline
210
0.0
220
0.0
230
1.0
 70
     8
 71
     3
 72
    12
 73
     8
 74
     0
 42
0.0000000001
 43
0.0000000001
 40
0.0
 40
0.0
 40
0.0
 40
0.0
 40
1.0
 40
2.0
 40
3.0
 40
4.0
 40
5.0
 40
5.0
 40
5.0
 40
5.0
 10
-7.604901769743285
 20
7.621536672919192
 30
0.0
 10
-7.600883455451722
 20
7.664126964082418
 30
0.0
 10
-7.564396524878022
 20
7.744356089649487
 30
0.0
 10
-7.467946088697147
 20
7.826428564628411
 30
0.0
 10
-7.337354332114849
 20
7.881098506814711
 30
0.0
 10
-7.231101465922505
 20
7.78249215387347
 30
0.0
 10
-7.226019645391791
 20
7.693958756905952
 30
0.0
 10
-7.230885724062595
 20
7.652019013826462
 30
0.0
  0
POLYLINE
  5
7F
330
1F
100
AcDbEntity
  8
Default
100
AcDb2dPolyline
 66
     1
 10
0.0
 20
0.0
 30
0.0
  0
VERTEX
  5
80
330
7F
100
AcDbEntity
  8
Default
100
AcDbVertex
100
AcDb2dVertex
 10
-7.230885724062595
 20
7.652019013826462
 30
0.0
  0
VERTEX
  5
81
330
7F
100
AcDbEntity
  8
Default
100
AcDbVertex
100
AcDb2dVertex
 10
-7.343781836666204
 20
6.770401501736585
 30
0.0
  0
SEQEND
  5
82
330
7F
100
AcDbEntity
  8
Default
  0
LINE
  5
83
330
1F
100
AcDbEntity
  8
Default
100
AcDbLine
 10
7.393498840092047
 20
6.382156239273448
 30
0.0
 11
7.445226922059653
 21
5.978206254834359
 31
0.0
  0
SPLINE
  5
84
330
1F
100
AcDbEntity
  8
Default
100
AcDbSpline
210
0.0
220
0.0
230
1.0
 70
    12
 71
     2
 72
     8
 73
     5
 74
     0
 42
0.0000000001
 43
0.0000000001
 40
0.0
 40
0.0
 40
0.0
 40
0.3691371350459142
 40
0.3691371350459142
 40
0.7382742700918284
 40
0.7382742700918284
 40
0.7382742700918284
 10
7.445226922059653
 20
5.978206254834359
 30
0.0
 41
1.0
 10
7.474009882719488
 20
5.753437114586603
 30
0.0
 41
0.7071067838207256
 10
7.661017904345491
 20
5.738195942847669
 30
0.0
 41
1.0
 10
7.848025925971494
 20
5.722954771108735
 30
0.0
 41
0.7071067838207256
 10
7.819242967883674
 20
5.947723912803416
 30
0.0
 41
1.0
  0
POLYLINE
  5
85
330
1F
100
AcDbEntity
  8
Default
100
AcDb2dPolyline
 66
     1
 10
0.0
 20
0.0
 30
0.0
  0
VERTEX
  5
86
330
85
100
AcDbEntity
  8
Default
100
AcDbVertex
100
AcDb2dVertex
 10
7.819242967883674
 20
5.947723912803416
 30
0.0
  0
VERTEX
  5
87
330
85
100
AcDbEntity
  8
Default
100
AcDbVertex
100
AcDb2dVertex
 10
7.604901769743285
 20
7.621536672919192
 30
0.0
  0
SEQEND
  5
88
330
85
100
AcDbEntity
  8
Default
  0
SPLINE
  5
89
330
1F
100
AcDbEntity
  8
Default
100
AcDbSpline
210
0.0
220
0.0
230
1.0
 70
     8
 71
     3
 72
    12
 73
     8
 74
     0
 42
0.0000000001
 43
0.0000000001
 40
0.0
 40
0.0
 40
0.0
 40
0.0
 40
1.0
 40
2.0
 40
3.0
 40
4.0
 40
5.0
 40
5.0
 40
5.0
 40
5.0
 10
7.604901769743285
 20
7.621536672919192
 30
0.0
 10
7.600883455451722
 20
7.664126964082418
 30
0.0
 10
7.564396524878022
 20
7.744356089649487
 30
0.0
 10
7.467946088697147
 20
7.826428564628411
 30
0.0
 10
7.337354332114849
 20
7.881098506814711
 30
0.0
 10
7.231101465922505
 20
7.78249215387347
 30
0.0
 10
7.226019645391791
 20
7.693958756905952
 30
0.0
 10
7.230885724062595
 20
7.652019013826462
 30
0.0
  0
POLYLINE
  5
8A
330
1F
100
AcDbEntity
  8
Default
100
AcDb2dPolyline
 66
     1
 10
0.0
 20
0.0
 30
0.0
  0
VERTEX
  5
8B
330
8A
100
AcDbEntity
  8
Default
100
AcDbVertex
100
AcDb2dVertex
 10
7.230885724062595
 20
7.652019013826462
 30
0.0
  0
VERTEX
  5
8C
330
8A
100
AcDbEntity
  8
Default
100
AcDbVertex
100
AcDb2dVertex
 10
7.343781836666204
 20
6.770401501736585
 30
0.0
  0
SEQEND
  5
8D
330
8A
100
AcDbEntity
  8
Default
  0
SPLINE
  5
8E
330
1F
100
AcDbEntity
  8
Default
100
AcDbSpline
210
0.0
220
0.0
230
1.0
 70
     8
 71
     3
 72
     8
 73
     4
 74
     0
 42
0.0000000001
 43
0.0000000001
 40
16.01139177634848
 40
16.01139177634848
 40
16.01139177634848
 40
16.01139177634848
 40
17.0
 40
17.0
 40
17.0
 40
17.0
 10
-8.623357906818631
 20
12.96754015881761
 30
0.0
 10
-8.960354492964854
 20
13.14456199065704
 30
0.0
 10
-9.2512487608064
 20
13.42489953677306
 30
0.0
 10
-9.328918479099997
 20
13.8136046639
 30
0.0
  0
SPLINE
  5
8F
330
1F
100
AcDbEntity
  8
Default
100
AcDbSpline
210
0.0
220
0.0
230
1.0
 70
     8
 71
     3
 72
     8
 73
     4
 74
     0
 42
0.0000000001
 43
0.0000000001
 40
0.0
 40
0.0
 40
0.0
 40
0.0
 40
0.9886080883937197
 40
0.9886080883937197
 40
0.9886080883937197
 40
0.9886080883937197
 10
9.3289184793
 20
13.8136046639
 30
0.0
 10
9.251249073830088
 20
13.42490002761686
 30
0.0
 10
8.960354533150312
 20
13.14456213706375
 30
0.0
 10
8.623357905183743
 20
12.96754017285893
 30
0.0
  0
POLYLINE
  5
90
330
1F
100
AcDbEntity
  8
Default
100
AcDb2dPolyline
 66
     1
 10
0.0
 20
0.0
 30
0.0
  0
VERTEX
  5
91
330
90
100
AcDbEntity
  8
Default
100
AcDbVertex
100
AcDb2dVertex
 10
-7.113244531025387
 20
14.25064364948017
 30
0.0
  0
VERTEX
  5
92
330
90
100
AcDbEntity
  8
Default
100
AcDbVertex
100
AcDb2dVertex
 10
-6.590060281145878
 20
12.717556412127
 30
0.0
  0
SEQEND
  5
93
330
90
100
AcDbEntity
  8
Default
  0
POLYLINE
  5
94
330
1F
100
AcDbEntity
  8
Default
100
AcDb2dPolyline
 66
     1
 10
0.0
 20
0.0
 30
0.0
  0
VERTEX
  5
95
330
94
100
AcDbEntity
  8
Default
100
AcDbVertex
100
AcDb2dVertex
 10
-6.590060281145878
 20
12.717556412127
 30
0.0
  0
VERTEX
  5
96
330
94
100
AcDbEntity
  8
Default
100
AcDbVertex
100
AcDb2dVertex
 10
-6.791910923930661
 20
11.00946570562646
 30
0.0
  0
SEQEND
  5
97
330
94
100
AcDbEntity
  8
Default
  0
SPLINE
  5
98
330
1F
100
AcDbEntity
  8
Default
100
AcDbSpline
210
0.0
220
0.0
230
1.0
 70
     8
 71
     5
 72
    12
 73
     6
 74
     0
 42
0.0000000001
 43
0.0000000001
 40
-1.0
 40
-1.0
 40
-1.0
 40
-1.0
 40
-1.0
 40
-1.0
 40
-0.2317022451376829
 40
-0.2317022451376829
 40
-0.2317022451376829
 40
-0.2317022451376829
 40
-0.2317022451376829
 40
-0.2317022451376829
 10
-6.791910923930661
 20
11.00946570562646
 30
0.0
 10
-6.795140290600859
 20
10.9756714234679
 30
0.0
 10
-6.798369276641143
 20
10.94187710493651
 30
0.0
 10
-6.843957226060244
 20
10.88439820702918
 30
0.0
 10
-6.887576503841164
 20
10.85857767682135
 30
0.0
 10
-6.923005098892535
 20
10.8585776768211
 30
0.0
  0
POLYLINE
  5
99
330
1F
100
AcDbEntity
  8
Default
100
AcDb2dPolyline
 66
     1
 10
0.0
 20
0.0
 30
0.0
  0
VERTEX
  5
9A
330
99
100
AcDbEntity
  8
Default
100
AcDbVertex
100
AcDb2dVertex
 10
-6.923005098892535
 20
10.8585776768211
 30
0.0
  0
VERTEX
  5
9B
330
99
100
AcDbEntity
  8
Default
100
AcDbVertex
100
AcDb2dVertex
 10
-7.556131829980092
 20
10.8585776768211
 30
0.0
  0
SEQEND
  5
9C
330
99
100
AcDbEntity
  8
Default
  0
SPLINE
  5
9D
330
1F
100
AcDbEntity
  8
Default
100
AcDbSpline
210
0.0
220
0.0
230
1.0
 70
     8
 71
     3
 72
    12
 73
     8
 74
     0
 42
0.0000000001
 43
0.0000000001
 40
0.0898478636032666
 40
0.0898478636032666
 40
0.0898478636032666
 40
0.0898478636032666
 40
1.0
 40
2.0
 40
3.0
 40
4.0
 40
5.0
 40
5.0
 40
5.0
 40
5.0
 10
-7.113244531025387
 20
14.25064364948017
 30
0.0
 10
-7.192343968032407
 20
14.27497253419359
 30
0.0
 10
-7.369393763435315
 20
14.29159686639757
 30
0.0
 10
-7.635481834445306
 20
14.31908563851482
 30
0.0
 10
-7.911725900166081
 20
14.33991393310152
 30
0.0
 10
-8.187149209849883
 20
14.3540764376649
 30
0.0
 10
-8.37305671685447
 20
14.36504585393937
 30
0.0
 10
-8.462527287738201
 20
14.34884245752311
 30
0.0
  0
SPLINE
  5
9E
330
1F
100
AcDbEntity
  8
Default
100
AcDbSpline
210
0.0
220
0.0
230
1.0
 70
     8
 71
     2
 72
     6
 73
     3
 74
     0
 42
0.0000000001
 43
0.0000000001
 40
-14.30537820531634
 40
-14.30537820531634
 40
-14.30537820531634
 40
0.0
 40
0.0
 40
0.0
 10
-8.462527287738201
 20
14.34884245752311
 30
0.0
 10
-9.289756682295105
 20
7.24414534486831
 30
0.0
 10
-10.11697550870619
 20
0.1394073325501114
 30
0.0
  0
SPLINE
  5
9F
330
1F
100
AcDbEntity
  8
Default
100
AcDbSpline
210
0.0
220
0.0
230
1.0
 70
    12
 71
     2
 72
     8
 73
     5
 74
     0
 42
0.0000000001
 43
0.0000000001
 40
-0.2107227237993517
 40
-0.2107227237993517
 40
-0.2107227237993517
 40
-0.1053613618996758
 40
-0.1053613618996758
 40
0.0
 40
0.0
 40
0.0
 10
-10.11697550870619
 20
0.1394073325501114
 30
0.0
 41
1.0
 10
-10.12341812814003
 20
0.0836746348151844
 30
0.0
 41
0.9125005237042282
 10
-10.08613574885959
 20
0.0418378107028454
 30
0.0
 41
1.0
 10
-10.04885336957913
 20
0.0000009865905062
 30
0.0
 41
0.9125005237042282
 10
-9.99281502863613
 20
0.0000000000074829
 30
0.0
 41
1.0
  0
LINE
  5
A0
330
1F
100
AcDbEntity
  8
Default
100
AcDbLine
 10
-9.99281502863613
 20
0.0000000000074829
 30
0.0
 11
-9.083623129039069
 21
0.0
 31
0.0
  0
SPLINE
  5
A1
330
1F
100
AcDbEntity
  8
Default
100
AcDbSpline
210
0.0
220
0.0
230
1.0
 70
    12
 71
     2
 72
     6
 73
     3
 74
     0
 42
0.0000000001
 43
0.0000000001
 40
0.0
 40
0.0
 40
0.0
 40
0.180210864739764
 40
0.180210864739764
 40
0.180210864739764
 10
-9.083623129039069
 20
0.0
 30
0.0
 41
1.0
 10
-8.97380131552723
 20
0.0000022237440393
 30
0.0
 41
0.7512335277449608
 10
-8.959669055118027
 20
0.1089109467358247
 30
0.0
 41
1.0
  0
SPLINE
  5
A2
330
1F
100
AcDbEntity
  8
Default
100
AcDbSpline
210
0.0
220
0.0
230
1.0
 70
    24
 71
     2
 72
     6
 73
     3
 74
     0
 42
0.0000000001
 43
0.0000000001
 40
0.0
 40
0.0
 40
0.0
 40
14.26176312238566
 40
14.26176312238566
 40
14.26176312238566
 10
-8.959669055118027
 20
0.1089109467358247
 30
0.0
 10
-8.036456793071707
 20
7.179777298107997
 30
0.0
 10
-7.113244531025387
 20
14.25064364948017
 30
0.0
  0
POLYLINE
  5
A3
330
1F
100
AcDbEntity
  8
Default
100
AcDb2dPolyline
 66
     1
 10
0.0
 20
0.0
 30
0.0
  0
VERTEX
  5
A4
330
A3
100
AcDbEntity
  8
Default
100
AcDbVertex
100
AcDb2dVertex
 10
7.113244531025387
 20
14.25064364948017
 30
0.0
  0
VERTEX
  5
A5
330
A3
100
AcDbEntity
  8
Default
100
AcDbVertex
100
AcDb2dVertex
 10
6.590060281145878
 20
12.717556412127
 30
0.0
  0
SEQEND
  5
A6
330
A3
100
AcDbEntity
  8
Default
  0
POLYLINE
  5
A7
330
1F
100
AcDbEntity
  8
Default
100
AcDb2dPolyline
 66
     1
 10
0.0
 20
0.0
 30
0.0
  0
VERTEX
  5
A8
330
A7
100
AcDbEntity
  8
Default
100
AcDbVertex
100
AcDb2dVertex
 10
6.590060281145878
 20
12.717556412127
 30
0.0
  0
VERTEX
  5
A9
330
A7
100
AcDbEntity
  8
Default
100
AcDbVertex
100
AcDb2dVertex
 10
6.791910923930661
 20
11.00946570562646
 30
0.0
  0
SEQEND
  5
AA
330
A7
100
AcDbEntity
  8
Default
  0
SPLINE
  5
AB
330
1F
100
AcDbEntity
  8
Default
100
AcDbSpline
210
0.0
220
0.0
230
1.0
 70
     8
 71
     5
 72
    12
 73
     6
 74
     0
 42
0.0000000001
 43
0.0000000001
 40
-1.0
 40
-1.0
 40
-1.0
 40
-1.0
 40
-1.0
 40
-1.0
 40
-0.2317022451376829
 40
-0.2317022451376829
 40
-0.2317022451376829
 40
-0.2317022451376829
 40
-0.2317022451376829
 40
-0.2317022451376829
 10
6.791910923930661
 20
11.00946570562646
 30
0.0
 10
6.795140290600859
 20
10.9756714234679
 30
0.0
 10
6.798369276641143
 20
10.94187710493651
 30
0.0
 10
6.843957226060244
 20
10.88439820702918
 30
0.0
 10
6.887576503841164
 20
10.85857767682135
 30
0.0
 10
6.923005098892535
 20
10.8585776768211
 30
0.0
  0
POLYLINE
  5
AC
330
1F
100
AcDbEntity
  8
Default
100
AcDb2dPolyline
 66
     1
 10
0.0
 20
0.0
 30
0.0
  0
VERTEX
  5
AD
330
AC
100
AcDbEntity
  8
Default
100
AcDbVertex
100
AcDb2dVertex
 10
6.923005098892535
 20
10.8585776768211
 30
0.0
  0
VERTEX
  5
AE
330
AC
100
AcDbEntity
  8
Default
100
AcDbVertex
100
AcDb2dVertex
 10
7.556131829980092
 20
10.8585776768211
 30
0.0
  0
SEQEND
  5
AF
330
AC
100
AcDbEntity
  8
Default
  0
SPLINE
  5
B0
330
1F
100
AcDbEntity
  8
Default
100
AcDbSpline
210
0.0
220
0.0
230
1.0
 70
     8
 71
     3
 72
    12
 73
     8
 74
     0
 42
0.0000000001
 43
0.0000000001
 40
0.0898478636032666
 40
0.0898478636032666
 40
0.0898478636032666
 40
0.0898478636032666
 40
1.0
 40
2.0
 40
3.0
 40
4.0
 40
5.0
 40
5.0
 40
5.0
 40
5.0
 10
7.113244531025387
 20
14.25064364948017
 30
0.0
 10
7.192343968032407
 20
14.27497253419359
 30
0.0
 10
7.369393763435315
 20
14.29159686639757
 30
0.0
 10
7.635481834445306
 20
14.31908563851482
 30
0.0
 10
7.911725900166081
 20
14.33991393310152
 30
0.0
 10
8.187149209849883
 20
14.3540764376649
 30
0.0
 10
8.37305671685447
 20
14.36504585393937
 30
0.0
 10
8.462527287738201
 20
14.34884245752311
 30
0.0
  0
SPLINE
  5
B1
330
1F
100
AcDbEntity
  8
Default
100
AcDbSpline
210
0.0
220
0.0
230
1.0
 70
     8
 71
     2
 72
     6
 73
     3
 74
     0
 42
0.0000000001
 43
0.0000000001
 40
-14.30537820531634
 40
-14.30537820531634
 40
-14.30537820531634
 40
0.0
 40
0.0
 40
0.0
 10
8.462527287738201
 20
14.34884245752311
 30
0.0
 10
9.289756682295105
 20
7.24414534486831
 30
0.0
 10
10.11697550870619
 20
0.1394073325501114
 30
0.0
  0
SPLINE
  5
B2
330
1F
100
AcDbEntity
  8
Default
100
AcDbSpline
210
0.0
220
0.0
230
1.0
 70
    12
 71
     2
 72
     8
 73
     5
 74
     0
 42
0.0000000001
 43
0.0000000001
 40
-0.2107227237993517
 40
-0.2107227237993517
 40
-0.2107227237993517
 40
-0.1053613618996758
 40
-0.1053613618996758
 40
0.0
 40
0.0
 40
0.0
 10
10.11697550870619
 20
0.1394073325501114
 30
0.0
 41
1.0
 10
10.12341812814003
 20
0.0836746348151844
 30
0.0
 41
0.9125005237042282
 10
10.08613574885959
 20
0.0418378107028454
 30
0.0
 41
1.0
 10
10.04885336957913
 20
0.0000009865905062
 30
0.0
 41
0.9125005237042282
 10
9.99281502863613
 20
0.0000000000074829
 30
0.0
 41
1.0
  0
LINE
  5
B3
330
1F
100
AcDbEntity
  8
Default
100
AcDbLine
 10
9.99281502863613
 20
0.0000000000074829
 30
0.0
 11
9.083623129039069
 21
0.0
 31
0.0
  0
SPLINE
  5
B4
330
1F
100
AcDbEntity
  8
Default
100
AcDbSpline
210
0.0
220
0.0
230
1.0
 70
    12
 71
     2
 72
     6
 73
     3
 74
     0
 42
0.0000000001
 43
0.0000000001
 40
0.0
 40
0.0
 40
0.0
 40
0.180210864739764
 40
0.180210864739764
 40
0.180210864739764
 10
9.083623129039069
 20
0.0
 30
0.0
 41
1.0
 10
8.97380131552723
 20
0.0000022237440393
 30
0.0
 41
0.7512335277449608
 10
8.959669055118027
 20
0.1089109467358247
 30
0.0
 41
1.0
  0
SPLINE
  5
B5
330
1F
100
AcDbEntity
  8
Default
100
AcDbSpline
210
0.0
220
0.0
230
1.0
 70
    24
 71
     2
 72
     6
 73
     3
 74
     0
 42
0.0000000001
 43
0.0000000001
 40
0.0
 40
0.0
 40
0.0
 40
14.26176312238566
 40
14.26176312238566
 40
14.26176312238566
 10
8.959669055118027
 20
0.1089109467358247
 30
0.0
 10
8.036456793071707
 20
7.179777298107997
 30
0.0
 10
7.113244531025387
 20
14.25064364948017
 30
0.0
  0
ARC
  5
B6
330
1F
100
AcDbEntity
  8
Default
100
AcDbCircle
 10
0.0000000001000018
 20
96.58429030694272
 30
0.0
 40
71.6417578657841
100
AcDbArc
 50
265.1958489342108
 51
274.8041510657893
  0
POLYLINE
  5
B7
330
1F
100
AcDbEntity
  8
Default
  6
Continuous
100
AcDb2dPolyline
 66
     1
 10
0.0
 20
0.0
 30
0.0
  0
VERTEX
  5
B8
330
B7
100
AcDbEntity
  8
Default
  6
Continuous
100
AcDbVertex
100
AcDb2dVertex
 10
-9.328918479099997
 20
13.8136046639
 30
0.0
  0
VERTEX
  5
B9
330
B7
100
AcDbEntity
  8
Default
  6
Continuous
100
AcDbVertex
100
AcDb2dVertex
 10
-9.34946288879999
 20
13.909057369
 30
0.0
  0
VERTEX
  5
BA
330
B7
100
AcDbEntity
  8
Default
  6
Continuous
100
AcDbVertex
100
AcDb2dVertex
 10
-9.382420887199999
 20
14.081945661
 30
0.0
  0
VERTEX
  5
BB
330
B7
100
AcDbEntity
  8
Default
  6
Continuous
100
AcDbVertex
100
AcDb2dVertex
 10
-9.409319507999996
 20
14.2504814042
 30
0.0
  0
VERTEX
  5
BC
330
B7
100
AcDbEntity
  8
Default
  6
Continuous
100
AcDbVertex
100
AcDb2dVertex
 10
-9.430458015400006
 20
14.413534942
 30
0.0
  0
VERTEX
  5
BD
330
B7
100
AcDbEntity
  8
Default
  6
Continuous
100
AcDbVertex
100
AcDb2dVertex
 10
-9.446414612599995
 20
14.5719454682
 30
0.0
  0
VERTEX
  5
BE
330
B7
100
AcDbEntity
  8
Default
  6
Continuous
100
AcDbVertex
100
AcDb2dVertex
 10
-9.457764483600002
 20
14.728528965
 30
0.0
  0
VERTEX
  5
BF
330
B7
100
AcDbEntity
  8
Default
  6
Continuous
100
AcDbVertex
100
AcDb2dVertex
 10
-9.464615989799995
 20
14.8816448602
 30
0.0
  0
VERTEX
  5
C0
330
B7
100
AcDbEntity
  8
Default
  6
Continuous
100
AcDbVertex
100
AcDb2dVertex
 10
-9.4672572196
 20
15.0327188218
 30
0.0
  0
VERTEX
  5
C1
330
B7
100
AcDbEntity
  8
Default
  6
Continuous
100
AcDbVertex
100
AcDb2dVertex
 10
-9.465667455000002
 20
15.1891896394
 30
0.0
  0
VERTEX
  5
C2
330
B7
100
AcDbEntity
  8
Default
  6
Continuous
100
AcDbVertex
100
AcDb2dVertex
 10
-9.459346472999997
 20
15.3512253874
 30
0.0
  0
VERTEX
  5
C3
330
B7
100
AcDbEntity
  8
Default
  6
Continuous
100
AcDbVertex
100
AcDb2dVertex
 10
-9.447758731999997
 20
15.5183877638
 30
0.0
  0
VERTEX
  5
C4
330
B7
100
AcDbEntity
  8
Default
  6
Continuous
100
AcDbVertex
100
AcDb2dVertex
 10
-9.429568324000002
 20
15.6971201152
 30
0.0
  0
VERTEX
  5
C5
330
B7
100
AcDbEntity
  8
Default
  6
Continuous
100
AcDbVertex
100
AcDb2dVertex
 10
-9.403176217999999
 20
15.8893015174
 30
0.0
  0
VERTEX
  5
C6
330
B7
100
AcDbEntity
  8
Default
  6
Continuous
100
AcDbVertex
100
AcDb2dVertex
 10
-9.367411152800003
 20
16.0922792742
 30
0.0
  0
VERTEX
  5
C7
330
B7
100
AcDbEntity
  8
Default
  6
Continuous
100
AcDbVertex
100
AcDb2dVertex
 10
-9.339197433899997
 20
16.2264461179
 30
0.0
  0
SEQEND
  5
C8
330
B7
100
AcDbEntity
  8
Default
  6
Continuous
  0
SPLINE
  5
C9
330
1F
100
AcDbEntity
  8
Default
  6
Continuous
100
AcDbSpline
210
0.0
220
0.0
230
1.0
 70
     8
 71
     3
 72
    31
 73
    27
 74
     0
 42
0.0000000001
 43
0.0000000001
 40
-1.0
 40
-1.0
 40
-1.0
 40
-1.0
 40
-0.8305070163888902
 40
-0.745807485238298
 40
-0.6612323445008507
 40
-0.5768793153868749
 40
-0.4929310684156743
 40
-0.4096864445188289
 40
-0.3277903297644865
 40
-0.2488154599188458
 40
-0.2113020886546339
 40
-0.1758763756110345
 40
-0.1432276447608916
 40
-0.1281791127706435
 40
-0.1141128548841968
 40
-0.0891325122444081
 40
-0.0685331205675749
 40
-0.0599050731558091
 40
-0.0523664965591727
 40
-0.0405086858061029
 40
-0.0316280670676467
 40
-0.0238231865428688
 40
-0.0169592733175272
 40
-0.0108500491719372
 40
-0.0052709430823672
 40
0.0
 40
0.0
 40
0.0
 40
0.0
 10
0.0000000001000018
 20
16.5529789518
 30
0.0
 10
0.5362248996000005
 20
16.5529789518
 30
0.0
 10
1.340421089399996
 20
16.5576821318
 30
0.0
 10
2.4120852904
 20
16.5720757372
 30
0.0
 10
3.214367197800001
 20
16.5860697098
 30
0.0
 10
4.014224654000003
 20
16.6024732868
 30
0.0
 10
4.809847286200011
 20
16.6200043682
 30
0.0
 10
5.59768170320001
 20
16.63814186959999
 30
0.0
 10
6.369809779400001
 20
16.6547917768
 30
0.0
 10
6.9973851548
 20
16.6641013604
 30
0.0
 10
7.4780032396
 20
16.6652628188
 30
0.0
 10
7.812043673600002
 20
16.6616616988
 30
0.0
 10
8.074931792000001
 20
16.6539033264
 30
0.0
 10
8.270091902199994
 20
16.6440332088
 30
0.0
 10
8.440848712000005
 20
16.6324766044
 30
0.0
 10
8.6287396428
 20
16.6143869698
 30
0.0
 10
8.798478032800006
 20
16.5889930866
 30
0.0
 10
8.912267857400003
 20
16.5645511132
 30
0.0
 10
8.997871958800005
 20
16.5416400884
 30
0.0
 10
9.0825229868
 20
16.5107096044
 30
0.0
 10
9.158856697800005
 20
16.4618471846
 30
0.0
 10
9.2185879022
 20
16.4171866712
 30
0.0
 10
9.265669941799999
 20
16.37095961
 30
0.0
 10
9.300988048200004
 20
16.3237644172
 30
0.0
 10
9.325474513222794
 20
16.27571839517877
 30
0.0
 10
9.335544813840045
 20
16.24271685084092
 30
0.0
 10
9.3391974341
 20
16.2264461179
 30
0.0
  0
SPLINE
  5
CA
330
1F
100
AcDbEntity
  8
Default
  6
Continuous
100
AcDbSpline
210
0.0
220
0.0
230
1.0
 70
     8
 71
     3
 72
    24
 73
    20
 74
     0
 42
0.0000000001
 43
0.0000000001
 40
0.0
 40
0.0
 40
0.0
 40
0.0
 40
1.000000033839012
 40
2.000000067678024
 40
3.000000101517036
 40
4.000000135356048
 40
5.00000016919506
 40
6.000000203034072
 40
7.000000236873085
 40
8.000000270712096
 40
9.00000030455111
 40
10.00000033839012
 40
11.00000037222913
 40
12.00000040606815
 40
13.00000043990716
 40
14.00000047374617
 40
15.00000050758518
 40
16.00000054142419
 40
17.0
 40
17.0
 40
17.0
 40
17.0
 10
0.0
 20
30.6769249436
 30
0.0
 10
-0.3175004724572972
 20
30.67701620519938
 30
0.0
 10
-0.9525036317598534
 20
30.66876599228653
 30
0.0
 10
-1.904272747785555
 20
30.62916004351314
 30
0.0
 10
-2.853990920136795
 20
30.55295140285229
 30
0.0
 10
-3.800168969459705
 20
30.44662308946312
 30
0.0
 10
-4.742308178500082
 20
30.28958274456854
 30
0.0
 10
-5.628413891452936
 20
29.91822510582066
 30
0.0
 10
-6.378217080765609
 20
29.31769140582617
 30
0.0
 10
-6.967625583301228
 20
28.56336299699493
 30
0.0
 10
-7.402283651326982
 20
27.7118133613989
 30
0.0
 10
-7.710477298939509
 20
26.80962485317515
 30
0.0
 10
-7.960366494878343
 20
25.89017003546215
 30
0.0
 10
-8.163003546941184
 20
24.95922663445777
 30
0.0
 10
-8.325017011875374
 20
24.02041066875026
 30
0.0
 10
-8.451571382170272
 20
23.07623357642571
 30
0.0
 10
-8.55466421140332
 20
22.12926903152712
 30
0.0
 10
-8.636574844573119
 20
21.18025499607538
 30
0.0
 10
-8.682489318021723
 20
20.54691929048659
 30
0.0
 10
-8.704312173700004
 20
20.23017121609999
 30
0.0
  0
SPLINE
  5
CB
330
1F
100
AcDbEntity
  8
Default
  6
Continuous
100
AcDbSpline
210
0.0
220
0.0
230
1.0
 70
     8
 71
     3
 72
    24
 73
    20
 74
     0
 42
0.0000000001
 43
0.0000000001
 40
-17.0
 40
-17.0
 40
-17.0
 40
-17.0
 40
-16.00000054142419
 40
-15.00000050758518
 40
-14.00000047374617
 40
-13.00000043990716
 40
-12.00000040606815
 40
-11.00000037222913
 40
-10.00000033839012
 40
-9.00000030455111
 40
-8.000000270712096
 40
-7.000000236873085
 40
-6.000000203034072
 40
-5.00000016919506
 40
-4.000000135356048
 40
-3.000000101517036
 40
-2.000000067678024
 40
-1.000000033839012
 40
0.0
 40
0.0
 40
0.0
 40
0.0
 10
8.7043121739
 20
20.23017121609999
 30
0.0
 10
8.682489318221727
 20
20.54691929048659
 30
0.0
 10
8.636574844773115
 20
21.18025499607538
 30
0.0
 10
8.554664211603317
 20
22.12926903152712
 30
0.0
 10
8.451571382370268
 20
23.07623357642571
 30
0.0
 10
8.325017012075385
 20
24.02041066875026
 30
0.0
 10
8.163003547141187
 20
24.95922663445777
 30
0.0
 10
7.960366495078347
 20
25.89017003546215
 30
0.0
 10
7.710477299139512
 20
26.80962485317515
 30
0.0
 10
7.402283651526986
 20
27.7118133613989
 30
0.0
 10
6.967625583501231
 20
28.56336299699493
 30
0.0
 10
6.378217080965612
 20
29.31769140582617
 30
0.0
 10
5.62841389165294
 20
29.91822510582066
 30
0.0
 10
4.742308178700085
 20
30.28958274456854
 30
0.0
 10
3.800168969659708
 20
30.44662308946312
 30
0.0
 10
2.853990920336798
 20
30.55295140285229
 30
0.0
 10
1.904272747985559
 20
30.62916004351314
 30
0.0
 10
0.952503631959857
 20
30.66876599228653
 30
0.0
 10
0.3175004726573007
 20
30.67701620519938
 30
0.0
 10
0.0000000001000018
 20
30.67684035080001
 30
0.0
  0
SPLINE
  5
CC
330
1F
100
AcDbEntity
  8
Default
  6
Continuous
100
AcDbSpline
210
0.0
220
0.0
230
1.0
 70
     8
 71
     3
 72
     9
 73
     5
 74
     0
 42
0.0000000001
 43
0.0000000001
 40
-2.0
 40
-2.0
 40
-2.0
 40
-2.0
 40
-1.000000149942827
 40
0.0
 40
0.0
 40
0.0
 40
0.0
 10
-8.704312173700004
 20
20.23017121609999
 30
0.0
 10
-8.74488688145604
 20
19.62246614157695
 30
0.0
 10
-8.807411493684242
 20
18.40581986974695
 30
0.0
 10
-8.835039841873623
 20
17.18790665069152
 30
0.0
 10
-8.841352771000004
 20
16.5788832886
 30
0.0
  0
SPLINE
  5
CD
330
1F
100
AcDbEntity
  8
Default
  6
Continuous
100
AcDbSpline
210
0.0
220
0.0
230
1.0
 70
     8
 71
     3
 72
    14
 73
    10
 74
     0
 42
0.0000000001
 43
0.0000000001
 40
-7.0
 40
-7.0
 40
-7.0
 40
-7.0
 40
-6.0
 40
-5.0
 40
-4.0
 40
-3.0
 40
-2.0
 40
-1.0
 40
0.0
 40
0.0
 40
0.0
 40
0.0
 10
0.0
 20
14.4050032912
 30
0.0
 10
-0.4644553867586154
 20
14.40501293960333
 30
0.0
 10
-1.393549566490591
 20
14.40957456701938
 30
0.0
 10
-2.786379630050448
 20
14.42874988045286
 30
0.0
 10
-4.181270079076242
 20
14.45631482349717
 30
0.0
 10
-5.567946987020051
 20
14.48706250846888
 30
0.0
 10
-6.98500775106335
 20
14.51714799481664
 30
0.0
 10
-8.289412610396951
 20
14.50953212784197
 30
0.0
 10
-9.437716470216728
 20
14.40642102951298
 30
0.0
 10
-9.328918298600001
 20
13.8136038586
 30
0.0
  0
LINE
  5
CE
330
1F
100
AcDbEntity
  8
Default
  6
Continuous
100
AcDbLine
 10
0.0000000001000018
 20
30.67684035080001
 30
0.0
 11
0.0
 21
30.6769249436
 31
0.0
  0
SPLINE
  5
CF
330
1F
100
AcDbEntity
  8
Default
  6
Continuous
100
AcDbSpline
210
0.0
220
0.0
230
1.0
 70
     8
 71
     3
 72
    14
 73
    10
 74
     0
 42
0.0000000001
 43
0.0000000001
 40
0.0
 40
0.0
 40
0.0
 40
0.0
 40
1.0
 40
2.0
 40
3.0
 40
4.0
 40
5.0
 40
6.0
 40
7.0
 40
7.0
 40
7.0
 40
7.0
 10
-8.368009170600004
 20
16.6371132254
 30
0.0
 10
-8.387334625875525
 20
17.37329269317694
 30
0.0
 10
-8.399743156847137
 20
18.84641566356715
 30
0.0
 10
-8.330716927627066
 20
21.05509506337301
 30
0.0
 10
-8.163859546077248
 20
23.25883289506983
 30
0.0
 10
-7.825917145176433
 20
25.44574956545853
 30
0.0
 10
-7.282018825220987
 20
27.58381226673166
 30
0.0
 10
-6.23220414447681
 20
29.60035189149956
 30
0.0
 10
-4.844501729567213
 20
30.30049901118797
 30
0.0
 10
-4.111847123800004
 20
30.39209981080001
 30
0.0
  0
SPLINE
  5
D0
330
1F
100
AcDbEntity
  8
Default
  6
Continuous
100
AcDbSpline
210
0.0
220
0.0
230
1.0
 70
     8
 71
     3
 72
    14
 73
    10
 74
     0
 42
0.0000000001
 43
0.0000000001
 40
0.0
 40
0.0
 40
0.0
 40
0.0
 40
1.0
 40
2.0
 40
3.0
 40
4.0
 40
5.0
 40
6.0
 40
7.0
 40
7.0
 40
7.0
 40
7.0
 10
9.328918298600001
 20
13.8136038586
 30
0.0
 10
9.43771647021672
 20
14.40642102951298
 30
0.0
 10
8.289412610396951
 20
14.50953212784197
 30
0.0
 10
6.98500775106335
 20
14.51714799481664
 30
0.0
 10
5.567946987020051
 20
14.48706250846888
 30
0.0
 10
4.181270079076242
 20
14.45631482349717
 30
0.0
 10
2.786379630050448
 20
14.42874988045286
 30
0.0
 10
1.393549566490591
 20
14.40957456701938
 30
0.0
 10
0.4644553867586154
 20
14.40501293960333
 30
0.0
 10
0.0
 20
14.4050032912
 30
0.0
  0
SPLINE
  5
D1
330
1F
100
AcDbEntity
  8
Default
  6
Continuous
100
AcDbSpline
210
0.0
220
0.0
230
1.0
 70
     8
 71
     3
 72
     9
 73
     5
 74
     0
 42
0.0000000001
 43
0.0000000001
 40
0.0
 40
0.0
 40
0.0
 40
0.0
 40
1.000000149942827
 40
2.0
 40
2.0
 40
2.0
 40
2.0
 10
8.841352771200008
 20
16.5788832886
 30
0.0
 10
8.835039842073627
 20
17.18790665069152
 30
0.0
 10
8.807411493884246
 20
18.40581986974695
 30
0.0
 10
8.744886881656043
 20
19.62246614157695
 30
0.0
 10
8.7043121739
 20
20.23017121609999
 30
0.0
  0
SPLINE
  5
D2
330
1F
100
AcDbEntity
  8
Default
  6
Continuous
100
AcDbSpline
210
0.0
220
0.0
230
1.0
 70
     8
 71
     3
 72
    31
 73
    27
 74
     0
 42
0.0000000001
 43
0.0000000001
 40
0.0
 40
0.0
 40
0.0
 40
0.0
 40
0.0052709430823672
 40
0.0108500491719372
 40
0.0169592733175272
 40
0.0238231865428688
 40
0.0316280670676467
 40
0.0405086858061029
 40
0.0523664965591727
 40
0.0599050731558091
 40
0.0685331205675749
 40
0.0891325122444081
 40
0.1141128548841968
 40
0.1281791127706435
 40
0.1432276447608916
 40
0.1758763756110345
 40
0.2113020886546339
 40
0.2488154599188458
 40
0.3277903297644865
 40
0.4096864445188289
 40
0.4929310684156743
 40
0.5768793153868749
 40
0.6612323445008507
 40
0.745807485238298
 40
0.8305070163888902
 40
1.0
 40
1.0
 40
1.0
 40
1.0
 10
-9.339197433899997
 20
16.2264461179
 30
0.0
 10
-9.335544813640041
 20
16.24271685084092
 30
0.0
 10
-9.325474513022783
 20
16.27571839517877
 30
0.0
 10
-9.300988047999994
 20
16.3237644172
 30
0.0
 10
-9.265669941599995
 20
16.37095961
 30
0.0
 10
-9.218587901999996
 20
16.4171866712
 30
0.0
 10
-9.158856697600001
 20
16.4618471846
 30
0.0
 10
-9.082522986599997
 20
16.5107096044
 30
0.0
 10
-8.997871958600001
 20
16.5416400884
 30
0.0
 10
-8.912267857199993
 20
16.5645511132
 30
0.0
 10
-8.798478032600002
 20
16.5889930866
 30
0.0
 10
-8.628739642599996
 20
16.6143869698
 30
0.0
 10
-8.440848711800001
 20
16.6324766044
 30
0.0
 10
-8.27009190199999
 20
16.6440332088
 30
0.0
 10
-8.074931791799997
 20
16.6539033264
 30
0.0
 10
-7.812043673399998
 20
16.6616616988
 30
0.0
 10
-7.478003239399996
 20
16.6652628188
 30
0.0
 10
-6.997385154599996
 20
16.6641013604
 30
0.0
 10
-6.369809779199997
 20
16.6547917768
 30
0.0
 10
-5.597681703000006
 20
16.63814186959999
 30
0.0
 10
-4.809847286000007
 20
16.6200043682
 30
0.0
 10
-4.014224653799999
 20
16.6024732868
 30
0.0
 10
-3.214367197599998
 20
16.5860697098
 30
0.0
 10
-2.412085290199997
 20
16.5720757372
 30
0.0
 10
-1.340421089199992
 20
16.5576821318
 30
0.0
 10
-0.536224899399997
 20
16.5529789518
 30
0.0
 10
0.0000000001000018
 20
16.5529789518
 30
0.0
  0
POLYLINE
  5
D3
330
1F
100
AcDbEntity
  8
Default
  6
Continuous
100
AcDb2dPolyline
 66
     1
 10
0.0
 20
0.0
 30
0.0
  0
VERTEX
  5
D4
330
D3
100
AcDbEntity
  8
Default
  6
Continuous
100
AcDbVertex
100
AcDb2dVertex
 10
9.3391974341
 20
16.2264461179
 30
0.0
  0
VERTEX
  5
D5
330
D3
100
AcDbEntity
  8
Default
  6
Continuous
100
AcDbVertex
100
AcDb2dVertex
 10
9.367411153000006
 20
16.0922792742
 30
0.0
  0
VERTEX
  5
D6
330
D3
100
AcDbEntity
  8
Default
  6
Continuous
100
AcDbVertex
100
AcDb2dVertex
 10
9.403176218200002
 20
15.8893015174
 30
0.0
  0
VERTEX
  5
D7
330
D3
100
AcDbEntity
  8
Default
  6
Continuous
100
AcDbVertex
100
AcDb2dVertex
 10
9.429568324200005
 20
15.6971201152
 30
0.0
  0
VERTEX
  5
D8
330
D3
100
AcDbEntity
  8
Default
  6
Continuous
100
AcDbVertex
100
AcDb2dVertex
 10
9.4477587322
 20
15.5183877638
 30
0.0
  0
VERTEX
  5
D9
330
D3
100
AcDbEntity
  8
Default
  6
Continuous
100
AcDbVertex
100
AcDb2dVertex
 10
9.4593464732
 20
15.3512253874
 30
0.0
  0
VERTEX
  5
DA
330
D3
100
AcDbEntity
  8
Default
  6
Continuous
100
AcDbVertex
100
AcDb2dVertex
 10
9.465667455200006
 20
15.1891896394
 30
0.0
  0
VERTEX
  5
DB
330
D3
100
AcDbEntity
  8
Default
  6
Continuous
100
AcDbVertex
100
AcDb2dVertex
 10
9.467257219800004
 20
15.0327188218
 30
0.0
  0
VERTEX
  5
DC
330
D3
100
AcDbEntity
  8
Default
  6
Continuous
100
AcDbVertex
100
AcDb2dVertex
 10
9.464615989999999
 20
14.8816448602
 30
0.0
  0
VERTEX
  5
DD
330
D3
100
AcDbEntity
  8
Default
  6
Continuous
100
AcDbVertex
100
AcDb2dVertex
 10
9.457764483800005
 20
14.728528965
 30
0.0
  0
VERTEX
  5
DE
330
D3
100
AcDbEntity
  8
Default
  6
Continuous
100
AcDbVertex
100
AcDb2dVertex
 10
9.446414612799998
 20
14.5719454682
 30
0.0
  0
VERTEX
  5
DF
330
D3
100
AcDbEntity
  8
Default
  6
Continuous
100
AcDbVertex
100
AcDb2dVertex
 10
9.430458015600003
 20
14.413534942
 30
0.0
  0
VERTEX
  5
E0
330
D3
100
AcDbEntity
  8
Default
  6
Continuous
100
AcDbVertex
100
AcDb2dVertex
 10
9.4093195082
 20
14.2504814042
 30
0.0
  0
VERTEX
  5
E1
330
D3
100
AcDbEntity
  8
Default
  6
Continuous
100
AcDbVertex
100
AcDb2dVertex
 10
9.382420887400002
 20
14.081945661
 30
0.0
  0
VERTEX
  5
E2
330
D3
100
AcDbEntity
  8
Default
  6
Continuous
100
AcDbVertex
100
AcDb2dVertex
 10
9.349462889000002
 20
13.909057369
 30
0.0
  0
VERTEX
  5
E3
330
D3
100
AcDbEntity
  8
Default
  6
Continuous
100
AcDbVertex
100
AcDb2dVertex
 10
9.3289184793
 20
13.8136046639
 30
0.0
  0
SEQEND
  5
E4
330
D3
100
AcDbEntity
  8
Default
  6
Continuous
  0
SPLINE
  5
E5
330
1F
100
AcDbEntity
  8
Default
  6
Continuous
100
AcDbSpline
210
0.0
220
0.0
230
1.0
 70
     8
 71
     3
 72
    14
 73
    10
 74
     0
 42
0.0000000001
 43
0.0000000001
 40
0.0
 40
0.0
 40
0.0
 40
0.0
 40
1.0
 40
2.0
 40
3.0
 40
4.0
 40
5.0
 40
6.0
 40
7.0
 40
7.0
 40
7.0
 40
7.0
 10
8.3680091708
 20
16.6371132254
 30
0.0
 10
8.387334626075535
 20
17.37329269317694
 30
0.0
 10
8.39974315704714
 20
18.84641566356715
 30
0.0
 10
8.33071692782707
 20
21.05509506337301
 30
0.0
 10
8.163859546277251
 20
23.25883289506983
 30
0.0
 10
7.825917145376437
 20
25.44574956545853
 30
0.0
 10
7.282018825420991
 20
27.58381226673166
 30
0.0
 10
6.232204144676814
 20
29.60035189149956
 30
0.0
 10
4.844501729767217
 20
30.30049901118797
 30
0.0
 10
4.111847124000008
 20
30.39209981080001
 30
0.0
  0
ARC
  5
E7
330
1F
100
AcDbEntity
  8
Default - Tangent
100
AcDbCircle
 10
705.6587270225771
 20
359.5072426406492
 30
0.0
 40
775.4850950734009
100
AcDbArc
 50
203.1015018862523
 51
203.103290933172
  0
LINE
  5
E8
330
1F
100
AcDbEntity
  8
Default - Tangent
100
AcDbLine
 10
-7.641158729209096
 20
55.2369587358703
 30
0.0
 11
-7.934463057485622
 21
55.92455116576166
 31
0.0
  0
LINE
  5
E9
330
1F
100
AcDbEntity
  8
Default - Tangent
100
AcDbLine
 10
-6.619085049042327
 20
56.18788678945044
 30
0.0
 11
-6.583512805826729
 21
56.11463936330772
 31
0.0
  0
ARC
  5
EA
330
1F
100
AcDbEntity
  8
Default - Tangent
100
AcDbCircle
 10
-20388.89778195895
 20
-9842.333081071332
 30
0.0
 40
22658.72905175179
100
AcDbArc
 50
25.9029379143811
 51
25.90302001262486
  0
ARC
  5
EB
330
1F
100
AcDbEntity
  8
Default - Tangent
100
AcDbCircle
 10
-704.8861888552924
 20
359.177689149013
 30
0.0
 40
774.6451713816842
100
AcDbArc
 50
336.8967091184536
 51
336.8984981138157
  0
LINE
  5
EC
330
1F
100
AcDbEntity
  8
Default - Tangent
100
AcDbLine
 10
7.641125667370957
 20
55.2369587358703
 30
0.0
 11
7.934426471879324
 21
55.92454290500287
 31
0.0
  0
LINE
  5
ED
330
1F
100
AcDbEntity
  8
Default - Tangent
100
AcDbLine
 10
6.619056781523051
 20
56.18789666151599
 30
0.0
 11
6.58347974398859
 21
56.11463936330772
 31
0.0
  0
ARC
  5
EE
330
1F
100
AcDbEntity
  8
Default - Tangent
100
AcDbCircle
 10
20388.89774889711
 20
-9842.333081071332
 30
0.0
 40
22658.72905175179
100
AcDbArc
 50
154.0969799873751
 51
154.0970620423261
  0
SPLINE
  5
EF
330
1F
100
AcDbEntity
  8
Default - Tangent
100
AcDbSpline
210
0.0
220
0.0
230
1.0
 70
     8
 71
     2
 72
     6
 73
     3
 74
     0
 42
0.0000000001
 43
0.0000000001
 40
-0.9105733317109584
 40
-0.9105733317109584
 40
-0.9105733317109584
 40
0.0
 40
0.0
 40
0.0
 10
-9.258233993831723
 20
40.50931615861454
 30
0.0
 10
-8.860462756801667
 20
40.73082000280959
 30
0.0
 10
-8.462801330342344
 20
40.95252081258295
 30
0.0
  0
SPLINE
  5
F0
330
1F
100
AcDbEntity
  8
Default - Tangent
100
AcDbSpline
210
0.0
220
0.0
230
1.0
 70
    12
 71
     3
 72
    12
 73
     8
 74
     0
 42
0.0000000001
 43
0.0000000001
 40
-1.0
 40
-1.0
 40
-1.0
 40
-1.0
 40
-0.7497699015918617
 40
-0.7497699015918617
 40
-0.4995590992186921
 40
-0.4995590992186921
 40
-0.3364034038787851
 40
-0.3364034038787851
 40
-0.3364034038787851
 40
-0.3364034038787851
 10
-10.11702906678191
 20
41.01348016497345
 30
0.0
 41
1.0
 10
-10.11808423034233
 20
40.86210430298581
 30
0.0
 41
1.0
 10
-10.05651799552341
 20
40.71198020193651
 30
0.0
 41
1.0
 10
-9.843817801569017
 20
40.49812374823904
 30
0.0
 41
1.0
 10
-9.693903568571656
 20
40.43563175454464
 30
0.0
 41
1.0
 10
-9.44347540456846
 20
40.43526757218496
 30
0.0
 41
1.0
 10
-9.344889261806586
 20
40.46157635998649
 30
0.0
 41
1.0
 10
-9.258233993831723
 20
40.50931615861454
 30
0.0
 41
1.0
  0
SPLINE
  5
F1
330
1F
100
AcDbEntity
  8
Default - Tangent
100
AcDbSpline
210
0.0
220
0.0
230
1.0
 70
    12
 71
     2
 72
     6
 73
     3
 74
     0
 42
0.0000000001
 43
0.0000000001
 40
0.0
 40
0.0
 40
0.0
 40
0.5558348131081924
 40
0.5558348131081924
 40
0.5558348131081924
 10
-9.866273892973908
 20
41.48617816008183
 30
0.0
 41
1.0
 10
-10.11361468003548
 20
41.31452747402184
 30
0.0
 41
0.8885556256905404
 10
-10.11702906678191
 20
41.01348016497345
 30
0.0
 41
1.0
  0
SPLINE
  5
F2
330
1F
100
AcDbEntity
  8
Default - Tangent
100
AcDbSpline
210
0.0
220
0.0
230
1.0
 70
     8
 71
     2
 72
     6
 73
     3
 74
     0
 42
0.0000000001
 43
0.0000000001
 40
-0.9576917802574769
 40
-0.9576917802574769
 40
-0.9576917802574769
 40
0.0
 40
0.0
 40
0.0
 10
-9.078673893473436
 20
42.03102708083753
 30
0.0
 10
-9.472511502730569
 20
41.75865725132662
 30
0.0
 10
-9.866273892973908
 20
41.48617816008183
 30
0.0
  0
SPLINE
  5
F3
330
1F
100
AcDbEntity
  8
Default - Tangent
100
AcDbSpline
210
0.0
220
0.0
230
1.0
 70
     8
 71
     2
 72
     6
 73
     3
 74
     0
 42
0.0000000001
 43
0.0000000001
 40
-0.9105733317109584
 40
-0.9105733317109584
 40
-0.9105733317109584
 40
0.0
 40
0.0
 40
0.0
 10
9.258200931993585
 20
40.50931615861454
 30
0.0
 10
8.860429694963528
 20
40.73082000280959
 30
0.0
 10
8.462768268504206
 20
40.95252081258295
 30
0.0
  0
SPLINE
  5
F4
330
1F
100
AcDbEntity
  8
Default - Tangent
100
AcDbSpline
210
0.0
220
0.0
230
1.0
 70
    12
 71
     3
 72
    12
 73
     8
 74
     0
 42
0.0000000001
 43
0.0000000001
 40
-1.0
 40
-1.0
 40
-1.0
 40
-1.0
 40
-0.7497699015918617
 40
-0.7497699015918617
 40
-0.4995590992186921
 40
-0.4995590992186921
 40
-0.3364034038787851
 40
-0.3364034038787851
 40
-0.3364034038787851
 40
-0.3364034038787851
 10
10.11699600494377
 20
41.01348016497345
 30
0.0
 41
1.0
 10
10.11805116850419
 20
40.86210430298581
 30
0.0
 41
1.0
 10
10.05648493368527
 20
40.71198020193651
 30
0.0
 41
1.0
 10
9.843784739730879
 20
40.49812374823904
 30
0.0
 41
1.0
 10
9.693870506733518
 20
40.43563175454464
 30
0.0
 41
1.0
 10
9.443442342730322
 20
40.43526757218496
 30
0.0
 41
1.0
 10
9.344856199968447
 20
40.46157635998649
 30
0.0
 41
1.0
 10
9.258200931993585
 20
40.50931615861454
 30
0.0
 41
1.0
  0
SPLINE
  5
F5
330
1F
100
AcDbEntity
  8
Default - Tangent
100
AcDbSpline
210
0.0
220
0.0
230
1.0
 70
    12
 71
     2
 72
     6
 73
     3
 74
     0
 42
0.0000000001
 43
0.0000000001
 40
0.0
 40
0.0
 40
0.0
 40
0.5558348131081924
 40
0.5558348131081924
 40
0.5558348131081924
 10
9.86624083113577
 20
41.48617816008183
 30
0.0
 41
1.0
 10
10.11358161819734
 20
41.31452747402184
 30
0.0
 41
0.8885556256905404
 10
10.11699600494377
 20
41.01348016497345
 30
0.0
 41
1.0
  0
SPLINE
  5
F6
330
1F
100
AcDbEntity
  8
Default - Tangent
100
AcDbSpline
210
0.0
220
0.0
230
1.0
 70
     8
 71
     2
 72
     6
 73
     3
 74
     0
 42
0.0000000001
 43
0.0000000001
 40
-0.9576917802574769
 40
-0.9576917802574769
 40
-0.9576917802574769
 40
0.0
 40
0.0
 40
0.0
 10
9.078640831635298
 20
42.03102708083753
 30
0.0
 10
9.47247844089243
 20
41.75865725132662
 30
0.0
 10
9.86624083113577
 20
41.48617816008183
 30
0.0
  0
LINE
  5
F7
330
1F
100
AcDbEntity
  8
Default
100
AcDbLine
 10
35.80698943952319
 20
7.689108596594398
 30
0.0
 11
28.75992596428155
 21
6.748356007105342
 31
0.0
  0
LINE
  5
F8
330
1F
100
AcDbEntity
  8
Default
100
AcDbLine
 10
28.61524008284146
 20
6.350714365652581
 30
0.0
 11
35.85660811648447
 21
7.317405775915395
 31
0.0
  0
POLYLINE
  5
F9
330
1F
100
AcDbEntity
  8
Default
100
AcDb2dPolyline
 66
     1
 10
0.0
 20
0.0
 30
0.0
  0
VERTEX
  5
FA
330
F9
100
AcDbEntity
  8
Default
100
AcDbVertex
100
AcDb2dVertex
 10
29.17747139269544
 20
12.5297017344462
 30
0.0
  0
VERTEX
  5
FB
330
F9
100
AcDbEntity
  8
Default
100
AcDbVertex
100
AcDb2dVertex
 10
25.16134057809769
 20
0.1569582027993901
 30
0.0
  0
SEQEND
  5
FC
330
F9
100
AcDbEntity
  8
Default
  0
SPLINE
  5
FD
330
1F
100
AcDbEntity
  8
Default
100
AcDbSpline
210
0.0
220
0.0
230
1.0
 70
     8
 71
     3
 72
     8
 73
     4
 74
     0
 42
0.0000000001
 43
0.0000000001
 40
0.0
 40
0.0
 40
0.0
 40
0.0
 40
1.0
 40
1.0
 40
1.0
 40
1.0
 10
25.16134057809769
 20
0.1569582027993901
 30
0.0
 10
25.12841356466897
 20
0.05551790834088
 30
0.0
 10
25.17441325818099
 20
0.0
 30
0.0
 10
25.28217028836384
 20
0.0
 30
0.0
  0
POLYLINE
  5
FE
330
1F
100
AcDbEntity
  8
Default
100
AcDb2dPolyline
 66
     1
 10
0.0
 20
0.0
 30
0.0
  0
VERTEX
  5
FF
330
FE
100
AcDbEntity
  8
Default
100
AcDbVertex
100
AcDb2dVertex
 10
25.28217028836384
 20
0.0
 30
0.0
  0
VERTEX
  5
100
330
FE
100
AcDbEntity
  8
Default
100
AcDbVertex
100
AcDb2dVertex
 10
26.21735953166898
 20
0.0
 30
0.0
  0
SEQEND
  5
101
330
FE
100
AcDbEntity
  8
Default
  0
SPLINE
  5
102
330
1F
100
AcDbEntity
  8
Default
100
AcDbSpline
210
0.0
220
0.0
230
1.0
 70
    12
 71
     2
 72
     6
 73
     3
 74
     0
 42
0.0000000001
 43
0.0000000001
 40
0.0
 40
0.0
 40
0.0
 40
0.0016010451548092
 40
0.0016010451548092
 40
0.0016010451548092
 10
26.21735953166898
 20
0.0
 30
0.0
 41
1.0
 10
26.21816006506919
 20
0.0000000042223564
 30
0.0
 41
0.9999797187846489
 10
26.21896053308316
 20
0.0000102357586167
 30
0.0
 41
0.9999999999999425
  0
SPLINE
  5
103
330
1F
100
AcDbEntity
  8
Default
100
AcDbSpline
210
0.0
220
0.0
230
1.0
 70
    12
 71
     2
 72
     6
 73
     3
 74
     0
 42
0.0000000001
 43
0.0000000001
 40
0.0
 40
0.0
 40
0.0
 40
0.1607951456562561
 40
0.1607951456562561
 40
0.1607951456562561
 10
26.21896053308316
 20
0.0000102357586167
 30
0.0
 41
1.0
 10
26.31262517140053
 20
0.0012259613735387
 30
0.0
 41
0.800286472176239
 10
26.3377738091917
 20
0.0914594832858867
 30
0.0
 41
0.9999717905399118
  0
SPLINE
  5
104
330
1F
100
AcDbEntity
  8
Default
100
AcDbSpline
210
0.0
220
0.0
230
1.0
 70
    12
 71
     2
 72
     6
 73
     3
 74
     0
 42
0.0000000001
 43
0.0000000001
 40
-0.0000489836486816
 40
-0.0000489836486816
 40
-0.0000489836486816
 40
0.0
 40
0.0
 40
0.0
 10
26.3377738091917
 20
0.0914594832858867
 30
0.0
 41
0.9992355071489254
 10
26.33778000195031
 20
0.0914776812155641
 30
0.0
 41
0.9982318458139088
 10
26.33786009368036
 20
0.0917683780530258
 30
0.0
 41
1.0
  0
POLYLINE
  5
105
330
1F
100
AcDbEntity
  8
Default
100
AcDb2dPolyline
 66
     1
 10
0.0
 20
0.0
 30
0.0
  0
VERTEX
  5
106
330
105
100
AcDbEntity
  8
Default
100
AcDbVertex
100
AcDb2dVertex
 10
26.33786009368036
 20
0.0917683780530258
 30
0.0
  0
VERTEX
  5
107
330
105
100
AcDbEntity
  8
Default
100
AcDbVertex
100
AcDb2dVertex
 10
30.25547115674246
 20
10.8585776768211
 30
0.0
  0
SEQEND
  5
108
330
105
100
AcDbEntity
  8
Default
  0
SPLINE
  5
109
330
1F
100
AcDbEntity
  8
Default
100
AcDbSpline
210
0.0
220
0.0
230
1.0
 70
    12
 71
     2
 72
     6
 73
     3
 74
     0
 42
0.0000000001
 43
0.0000000001
 40
0.0
 40
0.0
 40
0.0
 40
1.350834612567281
 40
1.350834612567281
 40
1.350834612567281
 10
29.14343489545301
 20
12.33655961201416
 30
0.0
 41
1.0
 10
28.47269435618188
 20
12.25719460019991
 30
0.0
 41
0.9999948401703722
 10
27.80247756513635
 20
12.17352185002023
 30
0.0
 41
1.0
  0
LINE
  5
10A
330
1F
100
AcDbEntity
  8
Default
100
AcDbLine
 10
42.73544534592236
 20
8.614027587036919
 30
0.0
 11
36.17918715605224
 21
7.738795386965421
 31
0.0
  0
LINE
  5
10B
330
1F
100
AcDbEntity
  8
Default
100
AcDbLine
 10
36.22880545308266
 20
7.367092515567285
 30
0.0
 11
42.81231142455136
 21
8.245962176999354
 31
0.0
  0
LINE
  5
10C
330
1F
100
AcDbEntity
  8
Default
100
AcDbLine
 10
41.93247986690091
 20
12.4589462241448
 30
0.0
 11
44.51772549725775
 21
0.0797601129630961
 31
0.0
  0
SPLINE
  5
10D
330
1F
100
AcDbEntity
  8
Default
100
AcDbSpline
210
0.0
220
0.0
230
1.0
 70
     8
 71
     3
 72
     8
 73
     4
 74
     0
 42
0.0000000001
 43
0.0000000001
 40
0.0
 40
0.0
 40
0.0
 40
0.0
 40
1.0
 40
1.0
 40
1.0
 40
1.0
 10
44.51772549725775
 20
0.0797601129630961
 30
0.0
 10
44.53021227582358
 20
0.0199687848997374
 30
0.0
 10
44.58311621383744
 20
0.0003964404035151
 30
0.0
 10
44.65118184274253
 20
0.0003964404035151
 30
0.0
  0
LINE
  5
10E
330
1F
100
AcDbEntity
  8
Default
100
AcDbLine
 10
44.65118184274253
 20
0.0003964404035151
 30
0.0
 11
45.55716523470152
 21
0.0003964404035155
 31
0.0
  0
SPLINE
  5
10F
330
1F
100
AcDbEntity
  8
Default
100
AcDbSpline
210
0.0
220
0.0
230
1.0
 70
     8
 71
     3
 72
     8
 73
     4
 74
     0
 42
0.0000000001
 43
0.0000000001
 40
-1.0
 40
-1.0
 40
-1.0
 40
-1.0
 40
0.0
 40
0.0
 40
0.0
 40
0.0
 10
45.55716523470152
 20
0.0003964404035155
 30
0.0
 10
45.65497769032406
 20
0.0003964404035156
 30
0.0
 10
45.6972262557622
 20
0.0533589783443542
 30
0.0
 10
45.67850929463498
 20
0.1496962886595204
 30
0.0
  0
LINE
  5
110
330
1F
100
AcDbEntity
  8
Default
100
AcDbLine
 10
45.67850929463498
 20
0.1496962886595204
 30
0.0
 11
43.00392661566031
 21
14.34884245752311
 31
0.0
  0
SPLINE
  5
111
330
1F
100
AcDbEntity
  8
Default
100
AcDbSpline
210
0.0
220
0.0
230
1.0
 70
     8
 71
     3
 72
     8
 73
     4
 74
     0
 42
0.0000000001
 43
0.0000000001
 40
0.0055257090623358
 40
0.0055257090623358
 40
0.0055257090623358
 40
0.0055257090623358
 40
1.0
 40
1.0
 40
1.0
 40
1.0
 10
43.00392661566031
 20
14.34884245752311
 30
0.0
 10
42.61227103867665
 20
14.37289798766873
 30
0.0
 10
42.21283833356419
 20
14.30020911102023
 30
0.0
 10
41.82483715657914
 20
14.22658749323149
 30
0.0
  0
SPLINE
  5
112
330
1F
100
AcDbEntity
  8
Default
100
AcDbSpline
210
0.0
220
0.0
230
1.0
 70
    12
 71
     3
 72
     8
 73
     4
 74
     0
 42
0.0000000001
 43
0.0000000001
 40
0.0
 40
0.0
 40
0.0
 40
0.0
 40
0.4374333186884251
 40
0.4374333186884251
 40
0.4374333186884251
 40
0.4374333186884251
 10
42.00212220586919
 20
12.50486710199612
 30
0.0
 41
1.0
 10
41.95613351634007
 20
12.48774685549234
 30
0.0
 41
1.0
 10
41.93282641944371
 20
12.47202453798843
 30
0.0
 41
1.0
 10
41.93429438123422
 20
12.45932516170318
 30
0.0
 41
1.0
  0
LINE
  5
113
330
1F
100
AcDbEntity
  8
Default
  6
Continuous
100
AcDbLine
 10
39.42165563250635
 20
13.66044795868155
 30
0.0
 11
39.43205448380606
 21
13.66177541811576
 31
0.0
  0
LINE
  5
114
330
1F
100
AcDbEntity
  8
Default
  6
Continuous
100
AcDbLine
 10
20.1172573426329
 20
30.24834601026931
 30
0.0
 11
25.97432325664213
 21
11.72215701004975
 31
0.0
  0
ARC
  5
115
330
1F
100
AcDbEntity
  8
Default
  6
Continuous
100
AcDbCircle
 10
40.40387212427641
 20
14.87685177254867
 30
0.0
 40
5.019467698933335
100
AcDbArc
 50
354.8080954899568
 51
19.7156531691567
  0
SPLINE
  5
116
330
1F
100
AcDbEntity
  8
Default
  6
Continuous
100
AcDbSpline
210
0.0
220
0.0
230
1.0
 70
     8
 71
     3
 72
    36
 73
    32
 74
     0
 42
0.0000000001
 43
0.0000000001
 40
0.0
 40
0.0
 40
0.0
 40
0.0
 40
0.0268293352558578
 40
0.0595097548675145
 40
0.0970237093252662
 40
0.1380956546169486
 40
0.1815031125309036
 40
0.2263067799581736
 40
0.2718427483924272
 40
0.3176192565289746
 40
0.3634947203664658
 40
0.4094370792045949
 40
0.5014498873820746
 40
0.593563853160519
 40
0.6856946055391234
 40
0.7316409500772907
 40
0.777323086212938
 40
0.822333118342176
 40
0.8643548613429163
 40
0.9006659570891968
 40
0.9292564473618499
 40
0.9502818266623583
 40
0.9653869687064084
 40
0.9762731215102243
 40
0.9843452085872036
 40
0.990262839743637
 40
0.9944180083832629
 40
0.9971389310092109
 40
0.9988199332252418
 40
0.9997248131338712
 40
1.0
 40
1.0
 40
1.0
 40
1.0
 10
28.39690462727413
 20
14.62449470919904
 30
0.0
 10
28.54410004681196
 20
14.65824881078945
 30
0.0
 10
28.87151036274609
 20
14.72913421180117
 30
0.0
 10
29.4075103975343
 20
14.83397001104563
 30
0.0
 10
30.02429466923186
 20
14.94285004141024
 30
0.0
 10
30.70207072368604
 20
15.05309714430122
 30
0.0
 10
31.42127501910573
 20
15.16402487909786
 30
0.0
 10
32.16592326028659
 20
15.27474300274705
 30
0.0
 10
32.92432969529526
 20
15.38352276013081
 30
0.0
 10
33.68904742780416
 20
15.49075493669618
 30
0.0
 10
34.45633068136438
 20
15.59614252358651
 30
0.0
 10
35.4817966833773
 20
15.73436870253551
 30
0.0
 10
36.76578498800796
 20
15.90296045285513
 30
0.0
 10
38.30837371292961
 20
16.09897659447979
 30
0.0
 10
39.59441341386783
 20
16.25686280234574
 30
0.0
 10
40.62148398791497
 20
16.37927418848344
 30
0.0
 10
41.38545975491967
 20
16.46793994684344
 30
0.0
 10
42.12768985561989
 20
16.5524631898529
 30
0.0
 10
42.81878830276492
 20
16.61923267371762
 30
0.0
 10
43.41914005244411
 20
16.66278361084582
 30
0.0
 10
43.90256063810073
 20
16.68144940746945
 30
0.0
 10
44.26695477142365
 20
16.68103933707396
 30
0.0
 10
44.53145285635355
 20
16.66994743006843
 30
0.0
 10
44.72252447255102
 20
16.653386977368
 30
0.0
 10
44.86150226741528
 20
16.63608252002382
 30
0.0
 10
44.96231258427855
 20
16.61950040062026
 30
0.0
 10
45.03273676161808
 20
16.60427097546491
 30
0.0
 10
45.07905437653114
 20
16.59086499728545
 30
0.0
 10
45.10704539919439
 20
16.58039943736469
 30
0.0
 10
45.12183806986472
 20
16.57399045248511
 30
0.0
 10
45.1277304235059
 20
16.5709240737341
 30
0.0
 10
45.1290906732329
 20
16.5701815234338
 30
0.0
  0
SPLINE
  5
117
330
1F
100
AcDbEntity
  8
Default
  6
Continuous
100
AcDbSpline
210
0.0
220
0.0
230
1.0
 70
     8
 71
     3
 72
    17
 73
    13
 74
     0
 42
0.0000000001
 43
0.0000000001
 40
0.0
 40
0.0
 40
0.0
 40
0.0
 40
1.0
 40
2.0
 40
3.0
 40
4.0
 40
5.0
 40
6.0
 40
7.0
 40
8.0
 40
9.0
 40
10.0
 40
10.0
 40
10.0
 40
10.0
 10
28.17867604942931
 20
12.3516470794957
 30
0.0
 10
28.73898374430766
 20
12.50118487216369
 30
0.0
 10
29.8768874991926
 20
12.72757269934952
 30
0.0
 10
31.59468762570681
 20
12.99985758602274
 30
0.0
 10
33.31589668514726
 20
13.2499101538369
 30
0.0
 10
35.03890830239431
 20
13.48706445506822
 30
0.0
 10
36.7631154250555
 20
13.71517499428472
 30
0.0
 10
38.4884139895432
 20
13.93563137580716
 30
0.0
 10
40.21456907767855
 20
14.14639320300628
 30
0.0
 10
41.94244151011175
 20
14.35375316632417
 30
0.0
 10
43.66974592728861
 20
14.52457001431937
 30
0.0
 10
44.83888989200976
 20
14.56451209146615
 30
0.0
 10
45.4027378389728
 20
14.42254264335219
 30
0.0
  0
ARC
  5
118
330
1F
100
AcDbEntity
  8
Default
  6
Continuous
100
AcDbCircle
 10
31.33087378337821
 20
0.540581698645367
 30
0.0
 40
12.22446792235284
100
AcDbArc
 50
104.9431026284023
 51
108.4530385715118
  0
ARC
  5
119
330
1F
100
AcDbEntity
  8
Default
  6
Continuous
100
AcDbCircle
 10
21.40523639949818
 20
28.4647793734085
 30
0.0
 40
2.199999999999999
100
AcDbArc
 50
89.35968398345618
 51
125.8344352746563
  0
SPLINE
  5
11A
330
1F
100
AcDbEntity
  8
Default
  6
Continuous
100
AcDbSpline
210
0.0
220
0.0
230
1.0
 70
     8
 71
     3
 72
    25
 73
    21
 74
     0
 42
0.0000000001
 43
0.0000000001
 40
0.0
 40
0.0
 40
0.0
 40
0.0
 40
1.0
 40
2.0
 40
3.0
 40
4.0
 40
5.0
 40
6.0
 40
7.0
 40
8.0
 40
9.0
 40
10.0
 40
11.0
 40
12.0
 40
13.0
 40
14.0
 40
15.0
 40
16.0
 40
17.0
 40
18.0
 40
18.0
 40
18.0
 40
18.0
 10
28.10847890853395
 20
12.36633589725855
 30
0.0
 10
28.51959402972294
 20
12.45574372749805
 30
0.0
 10
28.77171137821618
 20
13.25693676492122
 30
0.0
 10
28.48756141229704
 20
14.3417869120015
 30
0.0
 10
28.15730489282935
 20
15.41210271510125
 30
0.0
 10
27.810453978545
 20
16.47733309081299
 30
0.0
 10
27.44627965766215
 20
17.53671579875455
 30
0.0
 10
27.07006281270472
 20
18.59187592790576
 30
0.0
 10
26.68400669780379
 20
19.64346854848234
 30
0.0
 10
26.29045063254459
 20
20.69227587477498
 30
0.0
 10
25.88904237995801
 20
21.73810492084783
 30
0.0
 10
25.47925681919067
 20
22.78067922860082
 30
0.0
 10
25.06124230171461
 20
23.81998497279275
 30
0.0
 10
24.63557714275294
 20
24.85616434861585
 30
0.0
 10
24.20132829049558
 20
25.88884072063077
 30
0.0
 10
23.76091515648435
 20
26.91864999308893
 30
0.0
 10
23.30942597535638
 20
27.94462683156527
 30
0.0
 10
22.81178503269074
 20
28.94627847997434
 30
0.0
 10
22.28903893982736
 20
29.94499081197521
 30
0.0
 10
21.76179265767807
 20
30.48487685232886
 30
0.0
 10
21.42982225774976
 20
30.66464199084033
 30
0.0
  0
POLYLINE
  5
11B
330
1F
100
AcDbEntity
  8
Default
100
AcDb2dPolyline
 66
     1
 10
0.0
 20
0.0
 30
0.0
  0
VERTEX
  5
11C
330
11B
100
AcDbEntity
  8
Default
100
AcDbVertex
100
AcDb2dVertex
 10
25.97432734874693
 20
11.72215813306185
 30
0.0
  0
VERTEX
  5
11D
330
11B
100
AcDbEntity
  8
Default
100
AcDbVertex
100
AcDb2dVertex
 10
27.46149627674325
 20
12.13650916029246
 30
0.0
  0
SEQEND
  5
11E
330
11B
100
AcDbEntity
  8
Default
  0
SPLINE
  5
11F
330
1F
100
AcDbEntity
  8
Default
  6
Continuous
100
AcDbSpline
210
0.0
220
0.0
230
1.0
 70
     8
 71
     3
 72
    25
 73
    21
 74
     0
 42
0.0000000001
 43
0.0000000001
 40
0.0
 40
0.0
 40
0.0
 40
0.0
 40
1.0
 40
2.0
 40
3.0
 40
4.0
 40
5.0
 40
6.0
 40
7.0
 40
8.0
 40
9.0
 40
10.0
 40
11.0
 40
12.0
 40
13.0
 40
14.0
 40
15.0
 40
16.0
 40
17.0
 40
18.0
 40
18.0
 40
18.0
 40
18.0
 10
27.30707722648596
 20
12.26336910866338
 30
0.0
 10
27.5228313447858
 20
12.57165648943703
 30
0.0
 10
27.46971396360146
 20
13.35284606864915
 30
0.0
 10
27.16994076130309
 20
14.39681123752917
 30
0.0
 10
26.81916505738676
 20
15.43448914754692
 30
0.0
 10
26.45574416512969
 20
16.46493658217344
 30
0.0
 10
26.07788710921463
 20
17.49094401573463
 30
0.0
 10
25.69563166761212
 20
18.5150936282642
 30
0.0
 10
25.31157811712391
 20
19.53863017093644
 30
0.0
 10
24.92293400670164
 20
20.56041968080862
 30
0.0
 10
24.52808807474064
 20
21.57983573307421
 30
0.0
 10
24.12615736624142
 20
22.59647726476599
 30
0.0
 10
23.71647381537975
 20
23.61002771597308
 30
0.0
 10
23.29883469874543
 20
24.62030215199828
 30
0.0
 10
22.87367790549037
 20
25.62752156119819
 30
0.0
 10
22.44023101292114
 20
26.63088679888877
 30
0.0
 10
22.00114297652349
 20
27.63295727177092
 30
0.0
 10
21.5126199536525
 20
28.60854156513308
 30
0.0
 10
20.98441507235454
 20
29.57589562434831
 30
0.0
 10
20.43962338952834
 20
30.07409211897293
 30
0.0
 10
20.11726058076808
 20
30.24834834872443
 30
0.0
  0
SPLINE
  5
120
330
1F
100
AcDbEntity
  8
Default
  6
Continuous
100
AcDbSpline
210
0.0
220
0.0
230
1.0
 70
     8
 71
     3
 72
     9
 73
     5
 74
     0
 42
0.0000000001
 43
0.0000000001
 40
0.0
 40
0.0
 40
0.0
 40
0.0
 40
1.0
 40
2.0
 40
2.0
 40
2.0
 40
2.0
 10
26.88805370081851
 20
12.00009269798275
 30
0.0
 10
26.96592557626233
 20
12.02341334687846
 30
0.0
 10
27.11904693444919
 20
12.08295529756168
 30
0.0
 10
27.26026896181424
 20
12.1964855774107
 30
0.0
 10
27.30707722648596
 20
12.26336910866338
 30
0.0
  0
POLYLINE
  5
121
330
1F
100
AcDbEntity
  8
Default
100
AcDb2dPolyline
 66
     1
 10
0.0
 20
0.0
 30
0.0
  0
VERTEX
  5
122
330
121
100
AcDbEntity
  8
Default
100
AcDbVertex
100
AcDb2dVertex
 10
28.10847890853395
 20
12.36633589725855
 30
0.0
  0
VERTEX
  5
123
330
121
100
AcDbEntity
  8
Default
100
AcDbVertex
100
AcDb2dVertex
 10
25.97432734874693
 20
11.72215813306185
 30
0.0
  0
SEQEND
  5
124
330
121
100
AcDbEntity
  8
Default
  0
ARC
  5
125
330
1F
100
AcDbEntity
  8
Default
  6
Continuous
100
AcDbCircle
 10
27.26661454469273
 20
12.61572022332478
 30
0.0
 40
0.813
100
AcDbArc
 50
234.7469696094565
 51
277.2613815829565
  0
SPLINE
  5
126
330
1F
100
AcDbEntity
  8
Default
100
AcDbSpline
210
0.0
220
0.0
230
1.0
 70
    24
 71
     2
 72
     6
 73
     3
 74
     0
 42
0.0000000001
 43
0.0000000001
 40
0.0
 40
0.0
 40
0.0
 40
11.78959282321999
 40
11.78959282321999
 40
11.78959282321999
 10
30.25547115674246
 20
10.8585776768211
 30
0.0
 10
36.09886486787679
 20
11.63534963242079
 30
0.0
 10
41.94225857901107
 20
12.41212158802049
 30
0.0
  0
SPLINE
  5
127
330
1F
100
AcDbEntity
  8
Default
100
AcDbSpline
210
0.0
220
0.0
230
1.0
 70
    24
 71
     2
 72
     6
 73
     3
 74
     0
 42
0.0000000001
 43
0.0000000001
 40
0.0
 40
0.0
 40
0.0
 40
2.254967417117567
 40
2.254967417117567
 40
2.254967417117567
 10
45.28226496615689
 20
14.40703387818954
 30
0.0
 10
44.16394907872668
 20
14.26354489259602
 30
0.0
 10
43.04563319129647
 20
14.12005590700249
 30
0.0
  0
POLYLINE
  5
128
330
1F
100
AcDbEntity
  8
Default
100
AcDb2dPolyline
 66
     1
 10
0.0
 20
0.0
 30
0.0
  0
VERTEX
  5
129
330
128
100
AcDbEntity
  8
Default
100
AcDbVertex
100
AcDb2dVertex
 10
41.82483715657937
 20
14.22658749323151
 30
0.0
  0
VERTEX
  5
12A
330
128
100
AcDbEntity
  8
Default
100
AcDbVertex
100
AcDb2dVertex
 10
30.27629690693509
 20
12.717556412127
 30
0.0
  0
SEQEND
  5
12B
330
128
100
AcDbEntity
  8
Default
  0
ARC
  5
12C
330
1F
100
AcDbEntity
  8
Default
100
AcDbCircle
 10
35.83179903208984
 20
7.503257220171483
 30
0.0
 40
0.1874999999985691
100
AcDbArc
 50
277.6033946154094
 51
97.60355127869062
  0
ARC
  5
12D
330
1F
100
AcDbEntity
  8
Default
100
AcDbCircle
 10
36.20399602701334
 20
7.55294391421477
 30
0.0
 40
0.1874999999996224
100
AcDbArc
 50
97.60332881626145
 51
277.6034999495933
  0
ARC
  5
12E
330
1F
100
AcDbEntity
  8
Default
100
AcDbCircle
 10
30.40951825376601
 20
8.630671434053678
 30
0.0
 40
4.089055728557979
100
AcDbArc
 50
91.86702564552976
 51
107.5359120387768
  0
SPLINE
  5
12F
330
1F
100
AcDbEntity
  8
Default
100
AcDbSpline
210
0.0
220
0.0
230
1.0
 70
    12
 71
     2
 72
     6
 73
     3
 74
     0
 42
0.0000000001
 43
0.0000000001
 40
0.0
 40
0.0
 40
0.0
 40
1.653939649378442
 40
1.653939649378442
 40
1.653939649378442
 10
30.01148703423118
 20
11.08495431027059
 30
0.0
 41
1.0
 10
30.14523605469822
 20
11.90103734926373
 30
0.0
 41
0.9999986444320038
 10
30.27629690693509
 20
12.717556412127
 30
0.0
 41
1.0
  0
SPLINE
  5
130
330
1F
100
AcDbEntity
  8
Default
100
AcDbSpline
210
0.0
220
0.0
230
1.0
 70
    12
 71
     3
 72
    10
 73
     6
 74
     0
 42
0.0000000001
 43
0.0000000001
 40
-1.0
 40
-1.0
 40
-1.0
 40
-1.0
 40
-0.4992659508999312
 40
-0.4992659508999312
 40
0.0
 40
0.0
 40
0.0
 40
0.0
 10
30.13063984351531
 20
10.92677138804396
 30
0.0
 41
1.0
 10
30.10200862507529
 20
10.92788505240359
 30
0.0
 41
1.0
 10
30.06881636294288
 20
10.94499546386677
 30
0.0
 41
1.0
 10
30.02011759621761
 20
11.00273677400322
 30
0.0
 41
1.0
 10
30.00461439407524
 20
11.04301995975034
 30
0.0
 41
1.0
 10
30.01148703423118
 20
11.08495431027059
 30
0.0
 41
1.0
  0
SPLINE
  5
131
330
1F
100
AcDbEntity
  8
Default
100
AcDbSpline
210
0.0
220
0.0
230
1.0
 70
     8
 71
     5
 72
    12
 73
     6
 74
     0
 42
0.0000000001
 43
0.0000000001
 40
-1.0
 40
-1.0
 40
-1.0
 40
-1.0
 40
-1.0
 40
-1.0
 40
0.0
 40
0.0
 40
0.0
 40
0.0
 40
0.0
 40
0.0
 10
30.26233527563847
 20
10.89456382554413
 30
0.0
 10
30.26741574700846
 20
10.92119894085513
 30
0.0
 10
30.27249621837845
 20
10.94783405616612
 30
0.0
 10
30.18528802453848
 20
10.93645167681088
 30
0.0
 10
30.15773467409156
 20
10.9257174843407
 30
0.0
 10
30.13063984351531
 20
10.92677138804396
 30
0.0
  0
SPLINE
  5
132
330
1F
100
AcDbEntity
  8
Default
100
AcDbSpline
210
0.0
220
0.0
230
1.0
 70
    12
 71
     3
 72
    10
 73
     6
 74
     0
 42
0.0000000001
 43
0.0000000001
 40
-1.0
 40
-1.0
 40
-1.0
 40
-1.0
 40
-0.500448172180616
 40
-0.500448172180616
 40
0.0
 40
0.0
 40
0.0
 40
0.0
 10
42.08867831786056
 20
12.69039525012059
 30
0.0
 41
1.0
 10
42.09556669264168
 20
12.65031157276394
 30
0.0
 41
1.0
 10
42.08428419704977
 20
12.60644748154158
 30
0.0
 41
1.0
 10
42.04787832605897
 20
12.53738962709338
 30
0.0
 41
1.0
 10
42.02267370870489
 20
12.51251782651521
 30
0.0
 41
1.0
 10
42.00212220586919
 20
12.50486710199612
 30
0.0
 41
1.0
  0
SPLINE
  5
133
330
1F
100
AcDbEntity
  8
Default
100
AcDbSpline
210
0.0
220
0.0
230
1.0
 70
    12
 71
     2
 72
     6
 73
     3
 74
     0
 42
0.0000000001
 43
0.0000000001
 40
0.0
 40
0.0
 40
0.0
 40
1.558684950054495
 40
1.558684950054495
 40
1.558684950054495
 10
41.82483715657914
 20
14.22658749323149
 30
0.0
 41
1.0
 10
41.95668458180663
 20
13.45847880722691
 30
0.0
 41
0.9999999954644307
 10
42.08867831786056
 20
12.69039525012059
 30
0.0
 41
1.0
  0
LINE
  5
134
330
1F
100
AcDbEntity
  8
Default
  6
Continuous
100
AcDbLine
 10
29.08912369650005
 20
12.02836748436183
 30
0.0
 11
27.36937451265655
 21
11.80924059618961
 31
0.0
  0
SPLINE
  5
135
330
1F
100
AcDbEntity
  8
Default
100
AcDbSpline
210
0.0
220
0.0
230
1.0
 70
    12
 71
     2
 72
     6
 73
     3
 74
     0
 42
0.0000000001
 43
0.0000000001
 40
-1.077778516170859
 40
-1.077778516170859
 40
-1.077778516170859
 40
0.0
 40
0.0
 40
0.0
 10
-8.728926908825713
 20
57.17556015374393
 30
0.0
 41
1.0
 10
-8.525496684871435
 20
56.65567786119363
 30
0.0
 41
0.9985225115608722
 10
-8.275292616699403
 20
56.17779425159577
 30
0.0
 41
1.0
  0
SPLINE
  5
136
330
1F
100
AcDbEntity
  8
Default
100
AcDbSpline
210
0.0
220
0.0
230
1.0
 70
     8
 71
     3
 72
    29
 73
    25
 74
     0
 42
0.0000000001
 43
0.0000000001
 40
0.0
 40
0.0
 40
0.0
 40
0.0
 40
2.257939160687559
 40
3.460090082667903
 40
4.549419753990929
 40
5.356617594024712
 40
6.061127480974345
 40
6.725643933770008
 40
7.325610221583585
 40
7.661862715363807
 40
7.964471505277782
 40
8.093862297642254
 40
8.256330354794526
 40
8.628252027004171
 40
9.30472595330115
 40
10.05687033612012
 40
10.91605301242963
 40
11.83943371904452
 40
12.33927648537644
 40
12.58490568803674
 40
12.79161249233287
 40
13.09341337674144
 40
13.22490499687746
 40
13.32294297409648
 40
13.32294297409648
 40
13.32294297409648
 40
13.32294297409648
 10
-0.0000165305264233
 20
64.2739348600854
 30
0.0
 10
0.7525995941426373
 20
64.27383428500258
 30
0.0
 10
1.906077463814469
 20
64.21410319797258
 30
0.0
 10
3.409594873948706
 20
64.01228502637825
 30
0.0
 10
4.425909735405924
 20
63.82597668617692
 30
0.0
 10
5.2659426359386
 20
63.60800498532856
 30
0.0
 10
5.946074035170767
 20
63.35230378233307
 30
0.0
 10
6.530775758101129
 20
63.05156184563977
 30
0.0
 10
6.970158565111973
 20
62.74644656274961
 30
0.0
 10
7.278055841995638
 20
62.47047140430271
 30
0.0
 10
7.454108381003721
 20
62.28431347202826
 30
0.0
 10
7.579591721091958
 20
62.13077458082569
 30
0.0
 10
7.710427303341532
 20
61.95234754214997
 30
0.0
 10
7.936158366884797
 20
61.61746038785948
 30
0.0
 10
8.219426811662927
 20
61.08676064179318
 30
0.0
 10
8.482535148884239
 20
60.36920716992658
 30
0.0
 10
8.680613447181571
 20
59.54673276814906
 30
0.0
 10
8.782084421568214
 20
58.79164932137168
 30
0.0
 10
8.811732867076131
 20
58.23595117754505
 30
0.0
 10
8.815657113632312
 20
57.9185364904972
 30
0.0
 10
8.812155133556502
 20
57.66722385406446
 30
0.0
 10
8.794719735069535
 20
57.45414077500433
 30
0.0
 10
8.759130943206323
 20
57.28049209744071
 30
0.0
 10
8.73949592640431
 20
57.20649705351745
 30
0.0
 10
8.728926909025724
 20
57.17556015374393
 30
0.0
  0
SPLINE
  5
137
330
1F
100
AcDbEntity
  8
Default
100
AcDbSpline
210
0.0
220
0.0
230
1.0
 70
     8
 71
     3
 72
    28
 73
    24
 74
     0
 42
0.0000000001
 43
0.0000000001
 40
0.0
 40
0.0
 40
0.0
 40
0.0
 40
0.1056753563021762
 40
0.254003820800577
 40
0.5729833083799895
 40
0.9705457745969663
 40
1.417102958837682
 40
2.312885158589451
 40
3.143270735001634
 40
3.866481523766936
 40
4.563468508603691
 40
4.912878154510834
 40
5.235693397770641
 40
5.877822823574495
 40
6.187250501844828
 40
6.508807919014306
 40
7.158424290978509
 40
7.819744961790179
 40
8.58344184735344
 40
9.061524614090164
 40
9.648561744110188
 40
10.77546253423588
 40
12.98833298296233
 40
12.98833298296233
 40
12.98833298296233
 40
12.98833298296233
 10
8.272277877378556
 20
56.17204631888458
 30
0.0
 10
8.288496481572736
 20
56.20337453164157
 30
0.0
 10
8.31956018138871
 20
56.28220452647108
 30
0.0
 10
8.377713131777838
 20
56.46433743099276
 30
0.0
 10
8.429368804295407
 20
56.74874143870819
 30
0.0
 10
8.45404838939821
 20
57.13596167054108
 30
0.0
 10
8.459606457480959
 20
57.71606081957178
 30
0.0
 10
8.400842286319488
 20
58.43925586352556
 30
0.0
 10
8.239610662388017
 20
59.24120058277087
 30
0.0
 10
7.992564181414366
 20
59.95168905029045
 30
0.0
 10
7.7146717062801
 20
60.47398358525776
 30
0.0
 10
7.461312301447379
 20
60.85368832888161
 30
0.0
 10
7.191170430667654
 20
61.19929987581111
 30
0.0
 10
6.884369216458438
 20
61.49530853108273
 30
0.0
 10
6.551703079237711
 20
61.75868904442085
 30
0.0
 10
6.198295061997499
 20
61.99884529560849
 30
0.0
 10
5.720767059984979
 20
62.26170657048047
 30
0.0
 10
5.077658019050844
 20
62.51939679966183
 30
0.0
 10
4.465036345202861
 20
62.68726221865582
 30
0.0
 10
3.868389969956397
 20
62.81207209751682
 30
0.0
 10
3.148568065236233
 20
62.93852819687017
 30
0.0
 10
1.850749944898027
 20
63.11155586258464
 30
0.0
 10
0.7376029357311182
 20
63.1731486312439
 30
0.0
 10
-0.0000595401325114
 20
63.17117408255705
 30
0.0
  0
SPLINE
  5
138
330
1F
100
AcDbEntity
  8
Default
100
AcDbSpline
210
0.0
220
0.0
230
1.0
 70
    12
 71
     2
 72
     6
 73
     3
 74
     0
 42
0.0000000001
 43
0.0000000001
 40
-1.077778516170859
 40
-1.077778516170859
 40
-1.077778516170859
 40
0.0
 40
0.0
 40
0.0
 10
8.728926909025724
 20
57.17556015374393
 30
0.0
 41
1.0
 10
8.525496685071436
 20
56.65567786119363
 30
0.0
 41
0.9985225115608722
 10
8.275292616899407
 20
56.17779425159577
 30
0.0
 41
1.0
  0
SPLINE
  5
139
330
1F
100
AcDbEntity
  8
Default
100
AcDbSpline
210
0.0
220
0.0
230
1.0
 70
     8
 71
     3
 72
    28
 73
    24
 74
     0
 42
0.0000000001
 43
0.0000000001
 40
0.0
 40
0.0
 40
0.0
 40
0.0
 40
0.1056753563021762
 40
0.254003820800577
 40
0.5729833083799895
 40
0.9705457745969663
 40
1.417102958837682
 40
2.312885158589451
 40
3.143270735001634
 40
3.866481523766936
 40
4.563468508603691
 40
4.912878154510834
 40
5.235693397770641
 40
5.877822823574495
 40
6.187250501844828
 40
6.508807919014306
 40
7.158424290978509
 40
7.819744961790179
 40
8.58344184735344
 40
9.061524614090164
 40
9.648561744110188
 40
10.77546253423588
 40
12.98833298296233
 40
12.98833298296233
 40
12.98833298296233
 40
12.98833298296233
 10
-8.272277877178553
 20
56.17204631888458
 30
0.0
 10
-8.288496481372732
 20
56.20337453164157
 30
0.0
 10
-8.319560181188706
 20
56.28220452647108
 30
0.0
 10
-8.377713131577835
 20
56.46433743099276
 30
0.0
 10
-8.429368804095404
 20
56.74874143870819
 30
0.0
 10
-8.454048389198206
 20
57.13596167054108
 30
0.0
 10
-8.459606457280955
 20
57.71606081957178
 30
0.0
 10
-8.400842286119484
 20
58.43925586352556
 30
0.0
 10
-8.239610662188014
 20
59.24120058277087
 30
0.0
 10
-7.992564181214362
 20
59.95168905029045
 30
0.0
 10
-7.714671706080097
 20
60.47398358525776
 30
0.0
 10
-7.461312301247375
 20
60.85368832888161
 30
0.0
 10
-7.19117043046765
 20
61.19929987581111
 30
0.0
 10
-6.884369216258435
 20
61.49530853108273
 30
0.0
 10
-6.551703079037708
 20
61.75868904442085
 30
0.0
 10
-6.198295061797495
 20
61.99884529560849
 30
0.0
 10
-5.720767059784976
 20
62.26170657048047
 30
0.0
 10
-5.07765801885084
 20
62.51939679966183
 30
0.0
 10
-4.465036345002858
 20
62.68726221865582
 30
0.0
 10
-3.868389969756393
 20
62.81207209751682
 30
0.0
 10
-3.14856806503623
 20
62.93852819687017
 30
0.0
 10
-1.850749944698023
 20
63.11155586258464
 30
0.0
 10
-0.7376029355311147
 20
63.1731486312439
 30
0.0
 10
0.000059540332515
 20
63.17117408255705
 30
0.0
  0
SPLINE
  5
13A
330
1F
100
AcDbEntity
  8
Default
100
AcDbSpline
210
0.0
220
0.0
230
1.0
 70
     8
 71
     3
 72
    16
 73
    12
 74
     0
 42
0.0000000001
 43
0.0000000001
 40
0.0
 40
0.0
 40
0.0
 40
0.0
 40
0.3929806094830499
 40
1.161485275626432
 40
1.434077379933263
 40
1.997193789902762
 40
2.236176104316814
 40
2.436878414714674
 40
2.615177840443278
 40
2.699855064475192
 40
2.788091875082257
 40
2.788091875082257
 40
2.788091875082257
 40
2.788091875082257
 10
5.674848069238379
 20
56.51310958447013
 30
0.0
 10
5.79956124937695
 20
56.47289768383393
 30
0.0
 10
6.166669843079646
 20
56.35030038658709
 30
0.0
 10
6.615960044832946
 20
56.18620404374182
 30
0.0
 10
7.123092844210774
 20
56.01756938875616
 30
0.0
 10
7.469650017989665
 20
55.9222027362005
 30
0.0
 10
7.804736550148149
 20
55.89771593189128
 30
0.0
 10
8.009497209315498
 20
55.93546596078132
 30
0.0
 10
8.146968654642691
 20
56.01116797719902
 30
0.0
 10
8.228033861498773
 20
56.09701832128272
 30
0.0
 10
8.258580006576764
 20
56.14594404007711
 30
0.0
 10
8.272122715578973
 20
56.17212691850163
 30
0.0
  0
SPLINE
  5
13B
330
1F
100
AcDbEntity
  8
Default
100
AcDbSpline
210
0.0
220
0.0
230
1.0
 70
     8
 71
     3
 72
    16
 73
    12
 74
     0
 42
0.0000000001
 43
0.0000000001
 40
0.0
 40
0.0
 40
0.0
 40
0.0
 40
0.3929806094830499
 40
1.161485275626432
 40
1.434077379933263
 40
1.997193789902762
 40
2.236176104316814
 40
2.436878414714674
 40
2.615177840443278
 40
2.699855064475192
 40
2.788091875082257
 40
2.788091875082257
 40
2.788091875082257
 40
2.788091875082257
 10
-5.674848069038376
 20
56.51310958447013
 30
0.0
 10
-5.799561249176946
 20
56.47289768383393
 30
0.0
 10
-6.166669842879642
 20
56.35030038658709
 30
0.0
 10
-6.615960044632942
 20
56.18620404374182
 30
0.0
 10
-7.12309284401077
 20
56.01756938875616
 30
0.0
 10
-7.469650017789661
 20
55.9222027362005
 30
0.0
 10
-7.804736549948146
 20
55.89771593189128
 30
0.0
 10
-8.009497209115494
 20
55.93546596078132
 30
0.0
 10
-8.146968654442688
 20
56.01116797719902
 30
0.0
 10
-8.22803386129877
 20
56.09701832128272
 30
0.0
 10
-8.25858000637676
 20
56.14594404007711
 30
0.0
 10
-8.27212271537897
 20
56.17212691850163
 30
0.0
  0
SPLINE
  5
13C
330
1F
100
AcDbEntity
  8
Default
100
AcDbSpline
210
0.0
220
0.0
230
1.0
 70
     8
 71
     3
 72
    42
 73
    38
 74
     0
 42
0.0000000001
 43
0.0000000001
 40
0.0
 40
0.0
 40
0.0
 40
0.0
 40
1.516620863392709
 40
2.826776562584004
 40
4.929964676686994
 40
5.854074639093991
 40
6.654182431560953
 40
7.366796927983043
 40
8.013353623941308
 40
8.582775777476089
 40
9.14432336109235
 40
10.27241354955484
 40
10.55940406165225
 40
10.88698182031156
 40
11.38818442491691
 40
11.86763469448308
 40
12.76788888255603
 40
13.84082233621212
 40
15.57751585932661
 40
17.34174065012489
 40
18.98978961022311
 40
19.74149517604984
 40
20.29777565707634
 40
21.1692007953702
 40
21.98338072426363
 40
22.73983168263268
 40
23.48183490032807
 40
24.25285823176282
 40
25.01647725514974
 40
25.80905458703584
 40
26.63793784656495
 40
27.08161107010815
 40
27.58336887320954
 40
28.74750962886867
 40
30.27600043858114
 40
31.09125534884795
 40
31.8189308948828
 40
31.8189308948828
 40
31.8189308948828
 40
31.8189308948828
 10
-0.0000165309190692
 20
39.08096297189042
 30
0.0
 10
0.5055168836953783
 20
39.08062701504146
 30
0.0
 10
1.447809561887652
 20
39.09033076451324
 30
0.0
 10
3.090158894143855
 20
39.15007538594408
 30
0.0
 10
4.530791742575261
 20
39.29182809218067
 30
0.0
 10
5.783842944887695
 20
39.53799339960396
 30
0.0
 10
6.56648579575257
 20
39.75792042069871
 30
0.0
 10
7.234353929702252
 20
40.03055186300604
 30
0.0
 10
7.792220641726033
 20
40.35330584325327
 30
0.0
 10
8.252688593294693
 20
40.72963918400548
 30
0.0
 10
8.749252616653202
 20
41.29942610134572
 30
0.0
 10
9.044883617607532
 20
41.89872541966003
 30
0.0
 10
9.196195432590955
 20
42.45952009227316
 30
0.0
 10
9.264546568522512
 20
42.82549744037985
 30
0.0
 10
9.331828731906363
 20
43.25618445246351
 30
0.0
 10
9.405077077649437
 20
43.87910592986574
 30
0.0
 10
9.458859778727955
 20
44.69517891067181
 30
0.0
 10
9.474598529952061
 20
45.93201067233228
 30
0.0
 10
9.443335054504502
 20
47.45643426079467
 30
0.0
 10
9.35494916047793
 20
49.17073392510174
 30
0.0
 10
9.237050084457692
 20
50.55392096141893
 30
0.0
 10
9.122254643197884
 20
51.53265319707053
 30
0.0
 10
9.016109410256433
 20
52.25145426859871
 30
0.0
 10
8.847809402127382
 20
52.98076036607108
 30
0.0
 10
8.577019578787407
 20
53.74982610495572
 30
0.0
 10
8.227421682313434
 20
54.43905377936848
 30
0.0
 10
7.792069435210138
 20
55.06012350484085
 30
0.0
 10
7.262176124007894
 20
55.60715888980606
 30
0.0
 10
6.635822710088888
 20
56.06910556177639
 30
0.0
 10
5.927018021819961
 20
56.43442100950064
 30
0.0
 10
5.273967461824341
 20
56.65747727307857
 30
0.0
 10
4.697880176328468
 20
56.79210883298085
 30
0.0
 10
4.005419385142304
 20
56.91626515937254
 30
0.0
 10
2.947008244597853
 20
57.03713155647063
 30
0.0
 10
1.77992610941125
 20
57.11267576973142
 30
0.0
 10
0.7568138864120186
 20
57.15116806706131
 30
0.0
 10
0.2425437280077034
 20
57.16039760745115
 30
0.0
 10
-0.0000165309189413
 20
57.16061730110636
 30
0.0
  0
SPLINE
  5
13D
330
1F
100
AcDbEntity
  8
Default
100
AcDbSpline
210
0.0
220
0.0
230
1.0
 70
     8
 71
     3
 72
    42
 73
    38
 74
     0
 42
0.0000000001
 43
0.0000000001
 40
0.0
 40
0.0
 40
0.0
 40
0.0
 40
1.516620863392709
 40
2.826776562584004
 40
4.929964676686994
 40
5.854074639093991
 40
6.654182431560953
 40
7.366796927983043
 40
8.013353623941308
 40
8.582775777476089
 40
9.14432336109235
 40
10.27241354955484
 40
10.55940406165225
 40
10.88698182031156
 40
11.38818442491691
 40
11.86763469448308
 40
12.76788888255603
 40
13.84082233621212
 40
15.57751585932661
 40
17.34174065012489
 40
18.98978961022311
 40
19.74149517604984
 40
20.29777565707634
 40
21.1692007953702
 40
21.98338072426363
 40
22.73983168263268
 40
23.48183490032807
 40
24.25285823176282
 40
25.01647725514974
 40
25.80905458703584
 40
26.63793784656495
 40
27.08161107010815
 40
27.58336887320954
 40
28.74750962886867
 40
30.27600043858114
 40
31.09125534884795
 40
31.8189308948828
 40
31.8189308948828
 40
31.8189308948828
 40
31.8189308948828
 10
0.0000165311190727
 20
39.08096297189042
 30
0.0
 10
-0.5055168834953747
 20
39.08062701504146
 30
0.0
 10
-1.447809561687649
 20
39.09033076451324
 30
0.0
 10
-3.090158893943851
 20
39.15007538594408
 30
0.0
 10
-4.530791742375257
 20
39.29182809218067
 30
0.0
 10
-5.783842944687692
 20
39.53799339960396
 30
0.0
 10
-6.566485795552566
 20
39.75792042069871
 30
0.0
 10
-7.234353929502248
 20
40.03055186300604
 30
0.0
 10
-7.792220641526029
 20
40.35330584325327
 30
0.0
 10
-8.252688593094689
 20
40.72963918400548
 30
0.0
 10
-8.749252616453191
 20
41.29942610134572
 30
0.0
 10
-9.044883617407535
 20
41.89872541966003
 30
0.0
 10
-9.196195432390951
 20
42.45952009227316
 30
0.0
 10
-9.264546568322515
 20
42.82549744037985
 30
0.0
 10
-9.331828731706352
 20
43.25618445246351
 30
0.0
 10
-9.405077077449434
 20
43.87910592986574
 30
0.0
 10
-9.458859778527952
 20
44.69517891067181
 30
0.0
 10
-9.474598529752058
 20
45.93201067233228
 30
0.0
 10
-9.443335054304498
 20
47.45643426079467
 30
0.0
 10
-9.354949160277926
 20
49.17073392510174
 30
0.0
 10
-9.237050084257689
 20
50.55392096141893
 30
0.0
 10
-9.122254642997888
 20
51.53265319707053
 30
0.0
 10
-9.01610941005643
 20
52.25145426859871
 30
0.0
 10
-8.847809401927378
 20
52.98076036607108
 30
0.0
 10
-8.577019578587397
 20
53.74982610495572
 30
0.0
 10
-8.22742168211343
 20
54.43905377936848
 30
0.0
 10
-7.792069435010134
 20
55.06012350484085
 30
0.0
 10
-7.26217612380789
 20
55.60715888980606
 30
0.0
 10
-6.635822709888885
 20
56.06910556177639
 30
0.0
 10
-5.927018021619958
 20
56.43442100950064
 30
0.0
 10
-5.273967461624338
 20
56.65747727307857
 30
0.0
 10
-4.697880176128464
 20
56.79210883298085
 30
0.0
 10
-4.0054193849423
 20
56.91626515937254
 30
0.0
 10
-2.94700824439785
 20
57.03713155647063
 30
0.0
 10
-1.779926109211246
 20
57.11267576973142
 30
0.0
 10
-0.7568138862120151
 20
57.15116806706131
 30
0.0
 10
-0.2425437278076998
 20
57.16039760745115
 30
0.0
 10
0.0000165311189448
 20
57.16061730110636
 30
0.0
  0
SPLINE
  5
13E
330
1F
100
AcDbEntity
  8
Default
100
AcDbSpline
210
0.0
220
0.0
230
1.0
 70
     8
 71
     3
 72
    29
 73
    25
 74
     0
 42
0.0000000001
 43
0.0000000001
 40
0.0
 40
0.0
 40
0.0
 40
0.0
 40
2.257939160687559
 40
3.460090082667903
 40
4.549419753990929
 40
5.356617594024712
 40
6.061127480974345
 40
6.725643933770008
 40
7.325610221583585
 40
7.661862715363807
 40
7.964471505277782
 40
8.093862297642254
 40
8.256330354794526
 40
8.628252027004171
 40
9.30472595330115
 40
10.05687033612012
 40
10.91605301242963
 40
11.83943371904452
 40
12.33927648537644
 40
12.58490568803674
 40
12.79161249233287
 40
13.09341337674144
 40
13.22490499687746
 40
13.32294297409648
 40
13.32294297409648
 40
13.32294297409648
 40
13.32294297409648
 10
0.0000165307264268
 20
64.2739348600854
 30
0.0
 10
-0.7525995939426338
 20
64.27383428500258
 30
0.0
 10
-1.906077463614466
 20
64.21410319797258
 30
0.0
 10
-3.409594873748702
 20
64.01228502637825
 30
0.0
 10
-4.42590973520592
 20
63.82597668617692
 30
0.0
 10
-5.265942635738597
 20
63.60800498532856
 30
0.0
 10
-5.946074034970763
 20
63.35230378233307
 30
0.0
 10
-6.530775757901125
 20
63.05156184563977
 30
0.0
 10
-6.970158564911969
 20
62.74644656274961
 30
0.0
 10
-7.278055841795634
 20
62.47047140430271
 30
0.0
 10
-7.454108380803717
 20
62.28431347202826
 30
0.0
 10
-7.579591720891955
 20
62.13077458082569
 30
0.0
 10
-7.710427303141529
 20
61.95234754214997
 30
0.0
 10
-7.936158366684793
 20
61.61746038785948
 30
0.0
 10
-8.219426811462924
 20
61.08676064179318
 30
0.0
 10
-8.482535148684235
 20
60.36920716992658
 30
0.0
 10
-8.680613446981567
 20
59.54673276814906
 30
0.0
 10
-8.78208442136821
 20
58.79164932137168
 30
0.0
 10
-8.811732866876127
 20
58.23595117754505
 30
0.0
 10
-8.815657113432309
 20
57.9185364904972
 30
0.0
 10
-8.812155133356498
 20
57.66722385406446
 30
0.0
 10
-8.794719734869531
 20
57.45414077500433
 30
0.0
 10
-8.759130943006326
 20
57.28049209744071
 30
0.0
 10
-8.739495926204313
 20
57.20649705351745
 30
0.0
 10
-8.728926908825713
 20
57.17556015374393
 30
0.0
  0
ARC
  5
13F
330
1F
100
AcDbEntity
  8
Default
100
AcDbCircle
 10
0.0000000001000018
 20
-10.48943633326941
 30
0.0
 40
71.6417578657841
100
AcDbArc
 50
85.19584893421082
 51
94.80415106578928
  0
ENDSEC
  0
SECTION
  2
OBJECTS
  0
DICTIONARY
  5
C
330
0
100
AcDbDictionary
281
     1
  3
ACAD_GROUP
350
D
  3
ACAD_LAYOUT
350
1A
  3
ACAD_MLEADERSTYLE
350
141
  3
ACAD_MLINESTYLE
350
17
  3
ACAD_PLOTSETTINGS
350
19
  3
ACAD_PLOTSTYLENAME
350
E
  3
ACAD_TABLESTYLE
350
140
  3
ACAD_VISUALSTYLE
350
2A
  0
DICTIONARY
  5
D
102
{ACAD_REACTORS
330
C
102
}
330
C
100
AcDbDictionary
281
     1
  0
DICTIONARY
  5
1A
102
{ACAD_REACTORS
330
C
102
}
330
C
100
AcDbDictionary
281
     1
  3
Layout1
350
1E
  3
Layout2
350
26
  3
Model
350
22
  0
DICTIONARY
  5
141
102
{ACAD_REACTORS
330
C
102
}
330
C
100
AcDbDictionary
281
     1
  0
DICTIONARY
  5
17
102
{ACAD_REACTORS
330
C
102
}
330
C
100
AcDbDictionary
281
     1
  3
Standard
350
18
  0
DICTIONARY
  5
19
102
{ACAD_REACTORS
330
C
102
}
330
C
100
AcDbDictionary
281
     1
  0
ACDBDICTIONARYWDFLT
  5
E
102
{ACAD_REACTORS
330
C
102
}
330
C
100
AcDbDictionary
281
     1
  3
Normal
350
F
100
AcDbDictionaryWithDefault
340
F
  0
DICTIONARY
  5
140
102
{ACAD_REACTORS
330
C
102
}
330
C
100
AcDbDictionary
281
     1
  0
DICTIONARY
  5
2A
102
{ACAD_REACTORS
330
C
102
}
330
C
100
AcDbDictionary
281
     1
  3
2dWireframe
350
2F
  3
3D Hidden
350
31
  3
3dWireframe
350
30
  3
Basic
350
32
  3
Brighten
350
36
  3
ColorChange
350
3A
  3
Conceptual
350
34
  3
Dim
350
35
  3
Facepattern
350
39
  3
Flat
350
2B
  3
FlatWithEdges
350
2C
  3
Gouraud
350
2D
  3
GouraudWithEdges
350
2E
  3
Linepattern
350
38
  3
Realistic
350
33
  3
Thicken
350
37
  0
LAYOUT
  5
1E
102
{ACAD_REACTORS
330
1A
102
}
330
1A
100
AcDbPlotSettings
  1

  2
none_device
  4

  6

 40
0.0
 41
0.0
 42
0.0
 43
0.0
 44
0.0
 45
0.0
 46
0.0
 47
0.0
 48
0.0
 49
0.0
140
0.0
141
0.0
142
1.0
143
1.0
 70
   688
 72
     0
 73
     0
 74
     5
  7

 75
    16
 76
     0
 77
     2
 78
   300
147
1.0
148
0.0
149
0.0
100
AcDbLayout
  1
Layout1
 70
     1
 71
     1
 10
0.0
 20
0.0
 11
12.0
 21
9.0
 12
0.0
 22
0.0
 32
0.0
 14
1.000000000000000E+20
 24
1.000000000000000E+20
 34
1.000000000000000E+20
 15
-1.000000000000000E+20
 25
-1.000000000000000E+20
 35
-1.000000000000000E+20
146
0.0
 13
0.0
 23
0.0
 33
0.0
 16
1.0
 26
0.0
 36
0.0
 17
0.0
 27
1.0
 37
0.0
 76
     0
330
1B
  0
LAYOUT
  5
26
102
{ACAD_REACTORS
330
1A
102
}
330
1A
100
AcDbPlotSettings
  1

  2
none_device
  4

  6

 40
0.0
 41
0.0
 42
0.0
 43
0.0
 44
0.0
 45
0.0
 46
0.0
 47
0.0
 48
0.0
 49
0.0
140
0.0
141
0.0
142
1.0
143
1.0
 70
   688
 72
     0
 73
     0
 74
     5
  7

 75
    16
 76
     0
 77
     2
 78
   300
147
1.0
148
0.0
149
0.0
100
AcDbLayout
  1
Layout2
 70
     1
 71
     2
 10
0.0
 20
0.0
 11
0.0
 21
0.0
 12
0.0
 22
0.0
 32
0.0
 14
0.0
 24
0.0
 34
0.0
 15
0.0
 25
0.0
 35
0.0
146
0.0
 13
0.0
 23
0.0
 33
0.0
 16
1.0
 26
0.0
 36
0.0
 17
0.0
 27
1.0
 37
0.0
 76
     0
330
23
  0
LAYOUT
  5
22
102
{ACAD_REACTORS
330
1A
102
}
330
1A
100
AcDbPlotSettings
  1

  2
none_device
  4

  6

 40
0.0
 41
0.0
 42
0.0
 43
0.0
 44
0.0
 45
0.0
 46
0.0
 47
0.0
 48
0.0
 49
0.0
140
0.0
141
0.0
142
1.0
143
1.0
 70
  1712
 72
     0
 73
     0
 74
     0
  7

 75
     0
 76
     0
 77
     2
 78
   300
147
1.0
148
0.0
149
0.0
100
AcDbLayout
  1
Model
 70
     1
 71
     0
 10
0.0
 20
0.0
 11
12.0
 21
9.0
 12
0.0
 22
0.0
 32
0.0
 14
-10.11726200957195
 24
-0.0000000000000004
 34
0.0
 15
45.68268094607193
 25
64.2739348600854
 35
0.0
146
0.0
 13
0.0
 23
0.0
 33
0.0
 16
1.0
 26
0.0
 36
0.0
 17
0.0
 27
1.0
 37
0.0
 76
     0
330
1F
331
29
  0
MLINESTYLE
  5
18
102
{ACAD_REACTORS
330
17
102
}
330
17
100
AcDbMlineStyle
  2
Standard
 70
     0
  3

 62
   256
 51
90.0
 52
90.0
 71
     2
 49
0.5
 62
   256
  6
BYLAYER
 49
-0.5
 62
   256
  6
BYLAYER
  0
ACDBPLACEHOLDER
  5
F
102
{ACAD_REACTORS
330
E
102
}
330
E
  0
VISUALSTYLE
  5
2F
102
{ACAD_REACTORS
330
2A
102
}
330
2A
100
AcDbVisualStyle
  2
2dWireframe
 70
     4
 71
     0
 72
     2
 73
     0
 90
        0
 40
-0.6
 41
-30.0
 62
     5
 63
     7
421
 16777215
 74
     1
 91
        4
 64
     7
 65
   257
 75
     1
175
     1
 42
1.0
 92
        0
 66
   257
 43
1.0
 76
     1
 77
     6
 78
     2
 67
     7
 79
     5
170
     0
171
     0
290
     0
174
     0
 93
        1
 44
0.0
173
     0
291
     0
 45
0.0
1001
ACAD
1000
AcDbSavedByObjectVersion
1070
     0
  0
VISUALSTYLE
  5
31
102
{ACAD_REACTORS
330
2A
102
}
330
2A
100
AcDbVisualStyle
  2
3D Hidden
 70
     6
 71
     1
 72
     2
 73
     2
 90
        0
 40
-0.6
 41
-30.0
 62
     5
 63
     7
421
 16777215
 74
     2
 91
        2
 64
     7
 65
   257
 75
     2
175
     1
 42
40.0
 92
        0
 66
   257
 43
1.0
 76
     1
 77
     6
 78
     2
 67
     7
 79
     3
170
     0
171
     0
290
     0
174
     0
 93
        1
 44
0.0
173
     0
291
     0
 45
0.0
1001
ACAD
1000
AcDbSavedByObjectVersion
1070
     0
  0
VISUALSTYLE
  5
30
102
{ACAD_REACTORS
330
2A
102
}
330
2A
100
AcDbVisualStyle
  2
3dWireframe
 70
     5
 71
     0
 72
     2
 73
     0
 90
        0
 40
-0.6
 41
-30.0
 62
     5
 63
     7
421
 16777215
 74
     1
 91
        4
 64
     7
 65
   257
 75
     1
175
     1
 42
1.0
 92
        0
 66
   257
 43
1.0
 76
     1
 77
     6
 78
     2
 67
     7
 79
     5
170
     0
171
     0
290
     0
174
     0
 93
        1
 44
0.0
173
     0
291
     0
 45
0.0
1001
ACAD
1000
AcDbSavedByObjectVersion
1070
     0
  0
VISUALSTYLE
  5
32
102
{ACAD_REACTORS
330
2A
102
}
330
2A
100
AcDbVisualStyle
  2
Basic
 70
     7
 71
     1
 72
     0
 73
     1
 90
        0
 40
-0.6
 41
-30.0
 62
     5
 63
     7
421
 16777215
 74
     0
 91
        4
 64
     7
 65
   257
 75
     1
175
     1
 42
1.0
 92
        8
 66
     7
 43
1.0
 76
     1
 77
     6
 78
     2
 67
     7
 79
     5
170
     0
171
     0
290
     0
174
     0
 93
        1
 44
0.0
173
     0
291
     1
 45
0.0
1001
ACAD
1000
AcDbSavedByObjectVersion
1070
     0
  0
VISUALSTYLE
  5
36
102
{ACAD_REACTORS
330
2A
102
}
330
2A
100
AcDbVisualStyle
  2
Brighten
 70
    12
 71
     2
 72
     2
 73
     0
 90
        0
 40
-0.6
 41
-30.0
 62
     5
 63
     7
421
 16777215
 74
     1
 91
        4
 64
     7
 65
   257
 75
     1
175
     1
 42
1.0
 92
        8
 66
     7
 43
1.0
 76
     1
 77
     6
 78
     2
 67
     7
 79
     5
170
     0
171
     0
290
     0
174
     0
 93
        1
 44
50.0
173
     0
291
     1
 45
0.0
1001
ACAD
1000
AcDbSavedByObjectVersion
1070
     0
  0
VISUALSTYLE
  5
3A
102
{ACAD_REACTORS
330
2A
102
}
330
2A
100
AcDbVisualStyle
  2
ColorChange
 70
    16
 71
     2
 72
     2
 73
     3
 90
        0
 40
-0.6
 41
-30.0
 62
     5
 63
     8
421
  8421504
 74
     1
 91
        4
 64
     7
 65
   257
 75
     1
175
     1
 42
1.0
 92
        8
 66
     8
424
  8421504
 43
1.0
 76
     1
 77
     6
 78
     2
 67
     7
 79
     5
170
     0
171
     0
290
     0
174
     0
 93
        1
 44
0.0
173
     0
291
     1
 45
0.0
1001
ACAD
1000
AcDbSavedByObjectVersion
1070
     0
  0
VISUALSTYLE
  5
34
102
{ACAD_REACTORS
330
2A
102
}
330
2A
100
AcDbVisualStyle
  2
Conceptual
 70
     9
 71
     3
 72
     2
 73
     0
 90
        0
 40
-0.6
 41
-30.0
 62
     5
 63
     7
421
 16777215
 74
     2
 91
        2
 64
     7
 65
   257
 75
     1
175
     1
 42
40.0
 92
        8
 66
     7
 43
1.0
 76
     1
 77
     6
 78
     2
 67
     7
 79
     3
170
     0
171
     0
290
     0
174
     0
 93
        1
 44
0.0
173
     0
291
     0
 45
0.0
1001
ACAD
1000
AcDbSavedByObjectVersion
1070
     0
  0
VISUALSTYLE
  5
35
102
{ACAD_REACTORS
330
2A
102
}
330
2A
100
AcDbVisualStyle
  2
Dim
 70
    11
 71
     2
 72
     2
 73
     0
 90
        0
 40
-0.6
 41
-30.0
 62
     5
 63
     7
421
 16777215
 74
     1
 91
        4
 64
     7
 65
   257
 75
     1
175
     1
 42
1.0
 92
        8
 66
     7
 43
1.0
 76
     1
 77
     6
 78
     2
 67
     7
 79
     5
170
     0
171
     0
290
     0
174
     0
 93
        1
 44
-50.0
173
     0
291
     1
 45
0.0
1001
ACAD
1000
AcDbSavedByObjectVersion
1070
     0
  0
VISUALSTYLE
  5
39
102
{ACAD_REACTORS
330
2A
102
}
330
2A
100
AcDbVisualStyle
  2
Facepattern
 70
    15
 71
     2
 72
     2
 73
     0
 90
        0
 40
-0.6
 41
-30.0
 62
     5
 63
     7
421
 16777215
 74
     1
 91
        4
 64
     7
 65
   257
 75
     1
175
     1
 42
1.0
 92
        8
 66
     7
 43
1.0
 76
     1
 77
     6
 78
     2
 67
     7
 79
     5
170
     0
171
     0
290
     0
174
     0
 93
        1
 44
0.0
173
     0
291
     1
 45
0.0
1001
ACAD
1000
AcDbSavedByObjectVersion
1070
     0
  0
VISUALSTYLE
  5
2B
102
{ACAD_REACTORS
330
2A
102
}
330
2A
100
AcDbVisualStyle
  2
Flat
 70
     0
 71
     2
 72
     1
 73
     1
 90
        2
 40
-0.6
 41
30.0
 62
     5
 63
     7
421
 16777215
 74
     0
 91
        4
 64
     7
 65
   257
 75
     1
175
     1
 42
1.0
 92
        8
 66
     7
 43
1.0
 76
     1
 77
     6
 78
     2
 67
     7
 79
     5
170
     0
171
     0
290
     0
174
     0
 93
       13
 44
0.0
173
     0
291
     1
 45
0.0
1001
ACAD
1000
AcDbSavedByObjectVersion
1070
     0
  0
VISUALSTYLE
  5
2C
102
{ACAD_REACTORS
330
2A
102
}
330
2A
100
AcDbVisualStyle
  2
FlatWithEdges
 70
     1
 71
     2
 72
     1
 73
     1
 90
        2
 40
-0.6
 41
30.0
 62
     5
 63
     7
421
 16777215
 74
     1
 91
        4
 64
     7
 65
   257
 75
     1
175
     1
 42
1.0
 92
        0
 66
   257
 43
1.0
 76
     1
 77
     6
 78
     2
 67
     7
 79
     5
170
     0
171
     0
290
     0
174
     0
 93
       13
 44
0.0
173
     0
291
     1
 45
0.0
1001
ACAD
1000
AcDbSavedByObjectVersion
1070
     0
  0
VISUALSTYLE
  5
2D
102
{ACAD_REACTORS
330
2A
102
}
330
2A
100
AcDbVisualStyle
  2
Gouraud
 70
     2
 71
     2
 72
     2
 73
     1
 90
        2
 40
-0.6
 41
30.0
 62
     5
 63
     7
421
 16777215
 74
     0
 91
        4
 64
     7
 65
   257
 75
     1
175
     1
 42
1.0
 92
        0
 66
     7
 43
1.0
 76
     1
 77
     6
 78
     2
 67
     7
 79
     5
170
     0
171
     0
290
     0
174
     0
 93
       13
 44
0.0
173
     0
291
     1
 45
0.0
1001
ACAD
1000
AcDbSavedByObjectVersion
1070
     0
  0
VISUALSTYLE
  5
2E
102
{ACAD_REACTORS
330
2A
102
}
330
2A
100
AcDbVisualStyle
  2
GouraudWithEdges
 70
     3
 71
     2
 72
     2
 73
     1
 90
        2
 40
-0.6
 41
30.0
 62
     5
 63
     7
421
 16777215
 74
     1
 91
        4
 64
     7
 65
   257
 75
     1
175
     1
 42
1.0
 92
        0
 66
   257
 43
1.0
 76
     1
 77
     6
 78
     2
 67
     7
 79
     5
170
     0
171
     0
290
     0
174
     0
 93
       13
 44
0.0
173
     0
291
     1
 45
0.0
1001
ACAD
1000
AcDbSavedByObjectVersion
1070
     0
  0
VISUALSTYLE
  5
38
102
{ACAD_REACTORS
330
2A
102
}
330
2A
100
AcDbVisualStyle
  2
Linepattern
 70
    14
 71
     2
 72
     2
 73
     0
 90
        0
 40
-0.6
 41
-30.0
 62
     5
 63
     7
421
 16777215
 74
     1
 91
        4
 64
     7
 65
   257
 75
     7
175
     7
 42
1.0
 92
        8
 66
     7
 43
1.0
 76
     1
 77
     6
 78
     2
 67
     7
 79
     5
170
     0
171
     0
290
     0
174
     0
 93
        1
 44
0.0
173
     0
291
     1
 45
0.0
1001
ACAD
1000
AcDbSavedByObjectVersion
1070
     0
  0
VISUALSTYLE
  5
33
102
{ACAD_REACTORS
330
2A
102
}
330
2A
100
AcDbVisualStyle
  2
Realistic
 70
     8
 71
     2
 72
     2
 73
     0
 90
        0
 40
-0.6
 41
-30.0
 62
     5
 63
     7
421
 16777215
 74
     1
 91
        0
 64
     7
 65
   257
 75
     1
175
     1
 42
1.0
 92
        8
 66
     8
424
  7895160
 43
1.0
 76
     1
 77
     6
 78
     2
 67
     7
 79
     5
170
     0
171
     0
290
     0
174
     0
 93
       13
 44
0.0
173
     0
291
     0
 45
0.0
1001
ACAD
1000
AcDbSavedByObjectVersion
1070
     0
  0
VISUALSTYLE
  5
37
102
{ACAD_REACTORS
330
2A
102
}
330
2A
100
AcDbVisualStyle
  2
Thicken
 70
    13
 71
     2
 72
     2
 73
     0
 90
        0
 40
-0.6
 41
-30.0
 62
     5
 63
     7
421
 16777215
 74
     1
 91
        4
 64
     7
 65
   257
 75
     1
175
     1
 42
1.0
 92
       12
 66
     7
 43
1.0
 76
     1
 77
     6
 78
     2
 67
     7
 79
     5
170
     0
171
     0
290
     0
174
     0
 93
        1
 44
0.0
173
     0
291
     1
 45
0.0
1001
ACAD
1000
AcDbSavedByObjectVersion
1070
     0
  0
ENDSEC
  0
EOF
