  0
SECTION
  2
HEADER
  9
$ACADVER
  1
AC1018
  9
$ACADMAINTVER
 70
     0
  9
$DWGCODEPAGE
  3
ANSI_1252
  9
$INSBASE
 10
0.0
 20
0.0
 30
0.0
  9
$EXTMIN
 10
-9.805507237554544
 20
-0.0021638777999981
 30
0.0
  9
$EXTMAX
 10
45.43867045267852
 20
64.2739348600854
 30
0.0
  9
$LIMMIN
 10
0.0
 20
0.0
  9
$LIMMAX
 10
12.0
 20
9.0
  9
$ORTHOMODE
 70
     0
  9
$REGENMODE
 70
     1
  9
$FILLMODE
 70
     1
  9
$QTEXTMODE
 70
     0
  9
$MIRRTEXT
 70
     1
  9
$LTSCALE
 40
0.0393700787401575
  9
$ATTMODE
 70
     1
  9
$TEXTSIZE
 40
0.2
  9
$TRACEWID
 40
0.05
  9
$TEXTSTYLE
  7
Standard
  9
$CLAYER
  8
Default
  9
$CELTYPE
  6
ByLayer
  9
$CECOLOR
 62
   256
  9
$CELTSCALE
 40
1.0
  9
$DISPSILH
 70
     0
  9
$DIMSCALE
 40
1.0
  9
$DIMASZ
 40
0.18
  9
$DIMEXO
 40
0.0625
  9
$DIMDLI
 40
0.38
  9
$DIMRND
 40
0.0
  9
$DIMDLE
 40
0.0
  9
$DIMEXE
 40
0.18
  9
$DIMTP
 40
0.0
  9
$DIMTM
 40
0.0
  9
$DIMTXT
 40
0.18
  9
$DIMCEN
 40
0.09
  9
$DIMTSZ
 40
0.0
  9
$DIMTOL
 70
     0
  9
$DIMLIM
 70
     0
  9
$DIMTIH
 70
     1
  9
$DIMTOH
 70
     1
  9
$DIMSE1
 70
     0
  9
$DIMSE2
 70
     0
  9
$DIMTAD
 70
     0
  9
$DIMZIN
 70
     0
  9
$DIMBLK
  1

  9
$DIMASO
 70
     1
  9
$DIMSHO
 70
     1
  9
$DIMPOST
  1

  9
$DIMAPOST
  1

  9
$DIMALT
 70
     0
  9
$DIMALTD
 70
     2
  9
$DIMALTF
 40
25.4
  9
$DIMLFAC
 40
1.0
  9
$DIMTOFL
 70
     0
  9
$DIMTVP
 40
0.0
  9
$DIMTIX
 70
     0
  9
$DIMSOXD
 70
     0
  9
$DIMSAH
 70
     0
  9
$DIMBLK1
  1

  9
$DIMBLK2
  1

  9
$DIMSTYLE
  2
Standard
  9
$DIMCLRD
 70
     0
  9
$DIMCLRE
 70
     0
  9
$DIMCLRT
 70
     0
  9
$DIMTFAC
 40
1.0
  9
$DIMGAP
 40
0.09
  9
$DIMJUST
 70
     0
  9
$DIMSD1
 70
     0
  9
$DIMSD2
 70
     0
  9
$DIMTOLJ
 70
     1
  9
$DIMTZIN
 70
     0
  9
$DIMALTZ
 70
     0
  9
$DIMALTTZ
 70
     0
  9
$DIMUPT
 70
     0
  9
$DIMDEC
 70
     4
  9
$DIMTDEC
 70
     4
  9
$DIMALTU
 70
     2
  9
$DIMALTTD
 70
     2
  9
$DIMTXSTY
  7
Standard
  9
$DIMAUNIT
 70
     0
  9
$DIMADEC
 70
     0
  9
$DIMALTRND
 40
0.0
  9
$DIMAZIN
 70
     0
  9
$DIMDSEP
 70
    46
  9
$DIMATFIT
 70
     3
  9
$DIMFRAC
 70
     0
  9
$DIMLDRBLK
  1

  9
$DIMLUNIT
 70
     2
  9
$DIMLWD
 70
    -2
  9
$DIMLWE
 70
    -2
  9
$DIMTMOVE
 70
     2
  9
$LUNITS
 70
     2
  9
$LUPREC
 70
     4
  9
$SKETCHINC
 40
0.1
  9
$FILLETRAD
 40
0.5
  9
$AUNITS
 70
     0
  9
$AUPREC
 70
     0
  9
$MENU
  1
.
  9
$ELEVATION
 40
0.0
  9
$PELEVATION
 40
0.0
  9
$THICKNESS
 40
0.0
  9
$LIMCHECK
 70
     0
  9
$CHAMFERA
 40
0.5
  9
$CHAMFERB
 40
0.5
  9
$CHAMFERC
 40
1.0
  9
$CHAMFERD
 40
0.0
  9
$SKPOLY
 70
     0
  9
$TDCREATE
 40
2457212.412369884
  9
$TDUCREATE
 40
2457212.579036551
  9
$TDUPDATE
 40
2457212.412369896
  9
$TDUUPDATE
 40
2457212.579036563
  9
$TDINDWG
 40
0.0000000116
  9
$TDUSRTIMER
 40
0.0000000116
  9
$USRTIMER
 70
     1
  9
$ANGBASE
 50
0.0
  9
$ANGDIR
 70
     0
  9
$PDMODE
 70
     0
  9
$PDSIZE
 40
0.0
  9
$PLINEWID
 40
0.0
  9
$SPLFRAME
 70
     0
  9
$SPLINETYPE
 70
     6
  9
$SPLINESEGS
 70
     8
  9
$HANDSEED
  5
116
  9
$SURFTAB1
 70
     6
  9
$SURFTAB2
 70
     6
  9
$SURFTYPE
 70
     6
  9
$SURFU
 70
     6
  9
$SURFV
 70
     6
  9
$UCSBASE
  2

  9
$UCSNAME
  2

  9
$UCSORG
 10
0.0
 20
0.0
 30
0.0
  9
$UCSXDIR
 10
1.0
 20
0.0
 30
0.0
  9
$UCSYDIR
 10
0.0
 20
1.0
 30
0.0
  9
$UCSORTHOREF
  2

  9
$UCSORTHOVIEW
 70
     0
  9
$UCSORGTOP
 10
0.0
 20
0.0
 30
0.0
  9
$UCSORGBOTTOM
 10
0.0
 20
0.0
 30
0.0
  9
$UCSORGLEFT
 10
0.0
 20
0.0
 30
0.0
  9
$UCSORGRIGHT
 10
0.0
 20
0.0
 30
0.0
  9
$UCSORGFRONT
 10
0.0
 20
0.0
 30
0.0
  9
$UCSORGBACK
 10
0.0
 20
0.0
 30
0.0
  9
$PUCSBASE
  2

  9
$PUCSNAME
  2

  9
$PUCSORG
 10
0.0
 20
0.0
 30
0.0
  9
$PUCSXDIR
 10
1.0
 20
0.0
 30
0.0
  9
$PUCSYDIR
 10
0.0
 20
1.0
 30
0.0
  9
$PUCSORTHOREF
  2

  9
$PUCSORTHOVIEW
 70
     0
  9
$PUCSORGTOP
 10
0.0
 20
0.0
 30
0.0
  9
$PUCSORGBOTTOM
 10
0.0
 20
0.0
 30
0.0
  9
$PUCSORGLEFT
 10
0.0
 20
0.0
 30
0.0
  9
$PUCSORGRIGHT
 10
0.0
 20
0.0
 30
0.0
  9
$PUCSORGFRONT
 10
0.0
 20
0.0
 30
0.0
  9
$PUCSORGBACK
 10
0.0
 20
0.0
 30
0.0
  9
$USERI1
 70
     0
  9
$USERI2
 70
     0
  9
$USERI3
 70
     0
  9
$USERI4
 70
     0
  9
$USERI5
 70
     0
  9
$USERR1
 40
0.0
  9
$USERR2
 40
0.0
  9
$USERR3
 40
0.0
  9
$USERR4
 40
0.0
  9
$USERR5
 40
0.0
  9
$WORLDVIEW
 70
     1
  9
$SHADEDGE
 70
     3
  9
$SHADEDIF
 70
    70
  9
$TILEMODE
 70
     1
  9
$MAXACTVP
 70
    64
  9
$PINSBASE
 10
0.0
 20
0.0
 30
0.0
  9
$PLIMCHECK
 70
     0
  9
$PEXTMIN
 10
1.000000000000000E+20
 20
1.000000000000000E+20
 30
1.000000000000000E+20
  9
$PEXTMAX
 10
-1.000000000000000E+20
 20
-1.000000000000000E+20
 30
-1.000000000000000E+20
  9
$PLIMMIN
 10
0.0
 20
0.0
  9
$PLIMMAX
 10
12.0
 20
9.0
  9
$UNITMODE
 70
     0
  9
$VISRETAIN
 70
     1
  9
$PLINEGEN
 70
     0
  9
$PSLTSCALE
 70
     1
  9
$TREEDEPTH
 70
  3020
  9
$CMLSTYLE
  2
Standard
  9
$CMLJUST
 70
     0
  9
$CMLSCALE
 40
1.0
  9
$PROXYGRAPHICS
 70
     1
  9
$MEASUREMENT
 70
     0
  9
$CELWEIGHT
370
    -1
  9
$ENDCAPS
280
     0
  9
$JOINSTYLE
280
     0
  9
$LWDISPLAY
290
     0
  9
$INSUNITS
 70
     1
  9
$HYPERLINKBASE
  1

  9
$STYLESHEET
  1

  9
$XEDIT
290
     1
  9
$CEPSNTYPE
380
     0
  9
$PSTYLEMODE
290
     1
  9
$FINGERPRINTGUID
  2
{E63B93BE-3F0C-46F4-A036-FF27DB4A1449}
  9
$VERSIONGUID
  2
{FAEB1C32-E019-11D5-929B-00C0DF256EC4}
  9
$EXTNAMES
290
     1
  9
$PSVPSCALE
 40
0.0
  9
$OLESTARTUP
290
     0
  9
$SORTENTS
280
   127
  9
$INDEXCTL
280
     0
  9
$HIDETEXT
280
     1
  9
$XCLIPFRAME
290
     0
  9
$HALOGAP
280
     0
  9
$OBSCOLOR
 70
   257
  9
$OBSLTYPE
280
     0
  9
$INTERSECTIONDISPLAY
280
     0
  9
$INTERSECTIONCOLOR
 70
   257
  9
$DIMASSOC
280
     2
  9
$PROJECTNAME
  1

  0
ENDSEC
  0
SECTION
  2
CLASSES
  0
CLASS
  1
ACDBDICTIONARYWDFLT
  2
AcDbDictionaryWithDefault
  3
ObjectDBX Classes
 90
        0
 91
        4
280
     0
281
     0
  0
CLASS
  1
VISUALSTYLE
  2
AcDbVisualStyle
  3
ObjectDBX Classes
 90
     4095
 91
        4
280
     0
281
     0
  0
ENDSEC
  0
SECTION
  2
TABLES
  0
TABLE
  2
VPORT
  5
8
330
0
100
AcDbSymbolTable
 70
     1
  0
VPORT
  5
29
330
8
100
AcDbSymbolTableRecord
100
AcDbViewportTableRecord
  2
*Active
 70
     0
 10
0.0
 20
0.0
 11
1.0
 21
1.0
 12
17.81658160756199
 22
32.1358854911427
 13
0.0
 23
0.0
 14
0.5
 24
0.5
 15
0.5
 25
0.5
 16
0.0
 26
0.0
 36
1.0
 17
0.0
 27
0.0
 37
0.0
 40
65.56162071264312
 41
0.8594824324282024
 42
50.0
 43
0.0
 44
0.0
 50
0.0
 51
0.0
 71
     0
 72
   100
 73
     1
 74
     3
 75
     0
 76
     0
 77
     0
 78
     0
281
     0
 65
     1
110
0.0
120
0.0
130
0.0
111
1.0
121
0.0
131
0.0
112
0.0
122
1.0
132
0.0
 79
     0
146
0.0
  0
ENDTAB
  0
TABLE
  2
LTYPE
  5
5
330
0
100
AcDbSymbolTable
 70
     1
  0
LTYPE
  5
14
330
5
100
AcDbSymbolTableRecord
100
AcDbLinetypeTableRecord
  2
ByBlock
 70
     0
  3

 72
    65
 73
     0
 40
0.0
  0
LTYPE
  5
15
330
5
100
AcDbSymbolTableRecord
100
AcDbLinetypeTableRecord
  2
ByLayer
 70
     0
  3

 72
    65
 73
     0
 40
0.0
  0
LTYPE
  5
16
330
5
100
AcDbSymbolTableRecord
100
AcDbLinetypeTableRecord
  2
Continuous
 70
     0
  3
Solid line
 72
    65
 73
     0
 40
0.0
  0
ENDTAB
  0
TABLE
  2
LAYER
  5
2
330
0
100
AcDbSymbolTable
 70
     2
  0
LAYER
  5
10
330
2
100
AcDbSymbolTableRecord
100
AcDbLayerTableRecord
  2
0
 70
     0
 62
     7
  6
Continuous
370
    -3
390
F
  0
LAYER
  5
3B
330
2
100
AcDbSymbolTableRecord
100
AcDbLayerTableRecord
  2
Default
 70
     0
 62
     7
  6
Continuous
370
    -3
390
F
  0
ENDTAB
  0
TABLE
  2
STYLE
  5
3
330
0
100
AcDbSymbolTable
 70
     1
  0
STYLE
  5
11
330
3
100
AcDbSymbolTableRecord
100
AcDbTextStyleTableRecord
  2
Standard
 70
     0
 40
0.0
 41
1.0
 50
0.0
 71
     0
 42
0.2
  3
txt
  4

  0
ENDTAB
  0
TABLE
  2
VIEW
  5
6
330
0
100
AcDbSymbolTable
 70
     0
  0
ENDTAB
  0
TABLE
  2
UCS
  5
7
330
0
100
AcDbSymbolTable
 70
     0
  0
ENDTAB
  0
TABLE
  2
APPID
  5
9
330
0
100
AcDbSymbolTable
 70
     1
  0
APPID
  5
12
330
9
100
AcDbSymbolTableRecord
100
AcDbRegAppTableRecord
  2
ACAD
 70
     0
  0
ENDTAB
  0
TABLE
  2
DIMSTYLE
  5
A
330
0
100
AcDbSymbolTable
 70
     1
100
AcDbDimStyleTable
  0
DIMSTYLE
105
27
330
A
100
AcDbSymbolTableRecord
100
AcDbDimStyleTableRecord
  2
Standard
 70
     0
340
11
  0
ENDTAB
  0
TABLE
  2
BLOCK_RECORD
  5
1
330
0
100
AcDbSymbolTable
 70
     1
  0
BLOCK_RECORD
  5
1F
330
1
100
AcDbSymbolTableRecord
100
AcDbBlockTableRecord
  2
*Model_Space
340
22
  0
BLOCK_RECORD
  5
1B
330
1
100
AcDbSymbolTableRecord
100
AcDbBlockTableRecord
  2
*Paper_Space
340
1E
  0
BLOCK_RECORD
  5
23
330
1
100
AcDbSymbolTableRecord
100
AcDbBlockTableRecord
  2
*Paper_Space0
340
26
  0
ENDTAB
  0
ENDSEC
  0
SECTION
  2
BLOCKS
  0
BLOCK
  5
20
330
1F
100
AcDbEntity
  8
0
100
AcDbBlockBegin
  2
*Model_Space
 70
     0
 10
0.0
 20
0.0
 30
0.0
  3
*Model_Space
  1

  0
ENDBLK
  5
21
330
1F
100
AcDbEntity
  8
0
100
AcDbBlockEnd
  0
BLOCK
  5
1C
330
1B
100
AcDbEntity
 67
     1
  8
0
100
AcDbBlockBegin
  2
*Paper_Space
 70
     0
 10
0.0
 20
0.0
 30
0.0
  3
*Paper_Space
  1

  0
ENDBLK
  5
1D
330
1B
100
AcDbEntity
 67
     1
  8
0
100
AcDbBlockEnd
  0
BLOCK
  5
24
330
23
100
AcDbEntity
  8
0
100
AcDbBlockBegin
  2
*Paper_Space0
 70
     0
 10
0.0
 20
0.0
 30
0.0
  3
*Paper_Space0
  1

  0
ENDBLK
  5
25
330
23
100
AcDbEntity
  8
0
100
AcDbBlockEnd
  0
ENDSEC
  0
SECTION
  2
ENTITIES
  0
ARC
  5
3C
330
1F
100
AcDbEntity
  8
Default
  6
Continuous
100
AcDbCircle
 10
0.0236821307190645
 20
78.42363608180383
 30
0.0
 40
66.69497753180386
100
AcDbArc
 50
269.9796553471003
 51
271.6452386815003
  0
ARC
  5
3D
330
1F
100
AcDbEntity
  8
Default
  6
Continuous
100
AcDbCircle
 10
-0.0236821306996254
 20
78.42363608180383
 30
0.0
 40
66.69497753180386
100
AcDbArc
 50
268.3547613184997
 51
270.0203446528996
  0
SPLINE
  5
3E
330
1F
100
AcDbEntity
  8
Default
  6
Continuous
100
AcDbSpline
210
0.0
220
0.0
230
1.0
 70
     8
 71
     3
 72
     9
 73
     5
 74
     0
 42
0.0000000001
 43
0.0000000001
 40
0.0
 40
0.0
 40
0.0
 40
0.0
 40
1.0
 40
2.0
 40
2.0
 40
2.0
 40
2.0
 10
4.5780145453
 20
12.298382449
 30
0.0
 10
5.060135256681134
 20
12.32901698997948
 30
0.0
 10
6.023365178493472
 20
12.40802858496222
 30
0.0
 10
6.980701407194055
 20
12.54341879217323
 30
0.0
 10
7.454788286300001
 20
12.6367843018
 30
0.0
  0
ARC
  5
3F
330
1F
100
AcDbEntity
  8
Default
  6
Continuous
100
AcDbCircle
 10
4.859254686473146
 20
25.81625955851493
 30
0.0
 40
13.43262307630908
100
AcDbArc
 50
281.1411168886588
 51
281.4479424102412
  0
SPLINE
  5
40
330
1F
100
AcDbEntity
  8
Default
  6
Continuous
100
AcDbSpline
210
0.0
220
0.0
230
1.0
 70
     8
 71
     3
 72
     9
 73
     5
 74
     0
 42
0.0000000001
 43
0.0000000001
 40
0.0
 40
0.0
 40
0.0
 40
0.0
 40
0.4978764404
 40
1.0
 40
1.0
 40
1.0
 40
1.0
 10
6.8314324587
 20
12.100691076
 30
0.0
 10
6.957639769500002
 20
12.1243422758
 30
0.0
 10
7.209511555900001
 20
12.1813177314
 30
0.0
 10
7.453760091100001
 20
12.2674110076
 30
0.0
 10
7.571809565900001
 20
12.3206508502
 30
0.0
  0
SPLINE
  5
41
330
1F
100
AcDbEntity
  8
Default
  6
Continuous
100
AcDbSpline
210
0.0
220
0.0
230
1.0
 70
     8
 71
     3
 72
     9
 73
     5
 74
     0
 42
0.0000000001
 43
0.0000000001
 40
0.0
 40
0.0
 40
0.0
 40
0.0
 40
1.0
 40
2.0
 40
2.0
 40
2.0
 40
2.0
 10
-4.5780145453
 20
12.298382449
 30
0.0
 10
-5.060135256681134
 20
12.32901698997948
 30
0.0
 10
-6.023365178493472
 20
12.40802858496222
 30
0.0
 10
-6.980701407194055
 20
12.54341879217323
 30
0.0
 10
-7.454788286300001
 20
12.6367843018
 30
0.0
  0
ARC
  5
42
330
1F
100
AcDbEntity
  8
Default
  6
Continuous
100
AcDbCircle
 10
-4.859254686473146
 20
25.81625955851493
 30
0.0
 40
13.43262307630908
100
AcDbArc
 50
258.5520575897588
 51
258.8588831113412
  0
SPLINE
  5
43
330
1F
100
AcDbEntity
  8
Default
  6
Continuous
100
AcDbSpline
210
0.0
220
0.0
230
1.0
 70
     8
 71
     3
 72
     9
 73
     5
 74
     0
 42
0.0000000001
 43
0.0000000001
 40
0.0
 40
0.0
 40
0.0
 40
0.0
 40
1.0
 40
2.0
 40
2.0
 40
2.0
 40
2.0
 10
-8.257071480899999
 20
12.8325597732
 30
0.0
 10
-8.496637291537784
 20
12.90958778560589
 30
0.0
 10
-9.00676604171931
 20
13.08462687837681
 30
0.0
 10
-9.265544586868483
 20
13.56990276633275
 30
0.0
 10
-9.3289184792
 20
13.8136046639
 30
0.0
  0
POLYLINE
  5
44
330
1F
100
AcDbEntity
  8
Default
  6
Continuous
100
AcDb2dPolyline
 66
     1
 10
0.0
 20
0.0
 30
0.0
  0
VERTEX
  5
45
330
44
100
AcDbEntity
  8
Default
  6
Continuous
100
AcDbVertex
100
AcDb2dVertex
 10
-9.3289184792
 20
13.8136046639
 30
0.0
  0
VERTEX
  5
46
330
44
100
AcDbEntity
  8
Default
  6
Continuous
100
AcDbVertex
100
AcDb2dVertex
 10
-9.3494628889
 20
13.909057369
 30
0.0
  0
VERTEX
  5
47
330
44
100
AcDbEntity
  8
Default
  6
Continuous
100
AcDbVertex
100
AcDb2dVertex
 10
-9.3824208873
 20
14.081945661
 30
0.0
  0
VERTEX
  5
48
330
44
100
AcDbEntity
  8
Default
  6
Continuous
100
AcDbVertex
100
AcDb2dVertex
 10
-9.409319508100001
 20
14.2504814042
 30
0.0
  0
VERTEX
  5
49
330
44
100
AcDbEntity
  8
Default
  6
Continuous
100
AcDbVertex
100
AcDb2dVertex
 10
-9.430458015500001
 20
14.413534942
 30
0.0
  0
VERTEX
  5
4A
330
44
100
AcDbEntity
  8
Default
  6
Continuous
100
AcDbVertex
100
AcDb2dVertex
 10
-9.4464146127
 20
14.5719454682
 30
0.0
  0
VERTEX
  5
4B
330
44
100
AcDbEntity
  8
Default
  6
Continuous
100
AcDbVertex
100
AcDb2dVertex
 10
-9.4577644837
 20
14.728528965
 30
0.0
  0
VERTEX
  5
4C
330
44
100
AcDbEntity
  8
Default
  6
Continuous
100
AcDbVertex
100
AcDb2dVertex
 10
-9.4646159899
 20
14.8816448602
 30
0.0
  0
VERTEX
  5
4D
330
44
100
AcDbEntity
  8
Default
  6
Continuous
100
AcDbVertex
100
AcDb2dVertex
 10
-9.4672572197
 20
15.0327188218
 30
0.0
  0
VERTEX
  5
4E
330
44
100
AcDbEntity
  8
Default
  6
Continuous
100
AcDbVertex
100
AcDb2dVertex
 10
-9.4656674551
 20
15.1891896394
 30
0.0
  0
VERTEX
  5
4F
330
44
100
AcDbEntity
  8
Default
  6
Continuous
100
AcDbVertex
100
AcDb2dVertex
 10
-9.4593464731
 20
15.3512253874
 30
0.0
  0
VERTEX
  5
50
330
44
100
AcDbEntity
  8
Default
  6
Continuous
100
AcDbVertex
100
AcDb2dVertex
 10
-9.4477587321
 20
15.5183877638
 30
0.0
  0
VERTEX
  5
51
330
44
100
AcDbEntity
  8
Default
  6
Continuous
100
AcDbVertex
100
AcDb2dVertex
 10
-9.4295683241
 20
15.6971201152
 30
0.0
  0
VERTEX
  5
52
330
44
100
AcDbEntity
  8
Default
  6
Continuous
100
AcDbVertex
100
AcDb2dVertex
 10
-9.4031762181
 20
15.8893015174
 30
0.0
  0
VERTEX
  5
53
330
44
100
AcDbEntity
  8
Default
  6
Continuous
100
AcDbVertex
100
AcDb2dVertex
 10
-9.3674111529
 20
16.0922792742
 30
0.0
  0
VERTEX
  5
54
330
44
100
AcDbEntity
  8
Default
  6
Continuous
100
AcDbVertex
100
AcDb2dVertex
 10
-9.339197434
 20
16.2264461179
 30
0.0
  0
SEQEND
  5
55
330
44
100
AcDbEntity
  8
Default
  6
Continuous
  0
SPLINE
  5
56
330
1F
100
AcDbEntity
  8
Default
  6
Continuous
100
AcDbSpline
210
0.0
220
0.0
230
1.0
 70
     8
 71
     3
 72
    31
 73
    27
 74
     0
 42
0.0000000001
 43
0.0000000001
 40
0.0
 40
0.0
 40
0.0
 40
0.0
 40
0.0052709430823672
 40
0.0108500491719372
 40
0.0169592733175272
 40
0.0238231865428688
 40
0.0316280670676467
 40
0.0405086858061029
 40
0.0523664965591727
 40
0.0599050731558091
 40
0.0685331205675749
 40
0.0891325122444081
 40
0.1141128548841968
 40
0.1281791127706435
 40
0.1432276447608916
 40
0.1758763756110345
 40
0.2113020886546339
 40
0.2488154599188458
 40
0.3277903297644865
 40
0.4096864445188289
 40
0.4929310684156743
 40
0.5768793153868749
 40
0.6612323445008507
 40
0.745807485238298
 40
0.8305070163888902
 40
1.0
 40
1.0
 40
1.0
 40
1.0
 10
-9.339197434
 20
16.2264461179
 30
0.0
 10
-9.335544813740041
 20
16.24271685084092
 30
0.0
 10
-9.32547451312279
 20
16.27571839517877
 30
0.0
 10
-9.3009880481
 20
16.3237644172
 30
0.0
 10
-9.2656699417
 20
16.37095961
 30
0.0
 10
-9.218587902100001
 20
16.4171866712
 30
0.0
 10
-9.158856697700001
 20
16.4618471846
 30
0.0
 10
-9.0825229867
 20
16.5107096044
 30
0.0
 10
-8.997871958700001
 20
16.5416400884
 30
0.0
 10
-8.9122678573
 20
16.5645511132
 30
0.0
 10
-8.7984780327
 20
16.5889930866
 30
0.0
 10
-8.628739642700001
 20
16.6143869698
 30
0.0
 10
-8.4408487119
 20
16.6324766044
 30
0.0
 10
-8.270091902099999
 20
16.6440332088
 30
0.0
 10
-8.0749317919
 20
16.6539033264
 30
0.0
 10
-7.8120436735
 20
16.6616616988
 30
0.0
 10
-7.478003239500001
 20
16.6652628188
 30
0.0
 10
-6.997385154700002
 20
16.6641013604
 30
0.0
 10
-6.369809779299999
 20
16.6547917768
 30
0.0
 10
-5.597681703100001
 20
16.63814186959999
 30
0.0
 10
-4.809847286100002
 20
16.6200043682
 30
0.0
 10
-4.014224653900001
 20
16.6024732868
 30
0.0
 10
-3.2143671977
 20
16.5860697098
 30
0.0
 10
-2.412085290300002
 20
16.5720757372
 30
0.0
 10
-1.340421089300001
 20
16.5576821318
 30
0.0
 10
-0.5362248994999987
 20
16.5529789518
 30
0.0
 10
0.0
 20
16.5529789518
 30
0.0
  0
SPLINE
  5
57
330
1F
100
AcDbEntity
  8
Default
  6
Continuous
100
AcDbSpline
210
0.0
220
0.0
230
1.0
 70
     8
 71
     3
 72
    31
 73
    27
 74
     0
 42
0.0000000001
 43
0.0000000001
 40
-1.0
 40
-1.0
 40
-1.0
 40
-1.0
 40
-0.8305070163888902
 40
-0.745807485238298
 40
-0.6612323445008507
 40
-0.5768793153868749
 40
-0.4929310684156743
 40
-0.4096864445188289
 40
-0.3277903297644865
 40
-0.2488154599188458
 40
-0.2113020886546339
 40
-0.1758763756110345
 40
-0.1432276447608916
 40
-0.1281791127706435
 40
-0.1141128548841968
 40
-0.0891325122444081
 40
-0.0685331205675749
 40
-0.0599050731558091
 40
-0.0523664965591727
 40
-0.0405086858061029
 40
-0.0316280670676467
 40
-0.0238231865428688
 40
-0.0169592733175272
 40
-0.0108500491719372
 40
-0.0052709430823672
 40
0.0
 40
0.0
 40
0.0
 40
0.0
 10
0.0
 20
16.5529789518
 30
0.0
 10
0.5362248994999987
 20
16.5529789518
 30
0.0
 10
1.340421089300001
 20
16.5576821318
 30
0.0
 10
2.412085290300002
 20
16.5720757372
 30
0.0
 10
3.2143671977
 20
16.5860697098
 30
0.0
 10
4.014224653900001
 20
16.6024732868
 30
0.0
 10
4.809847286100002
 20
16.6200043682
 30
0.0
 10
5.597681703100001
 20
16.63814186959999
 30
0.0
 10
6.369809779299999
 20
16.6547917768
 30
0.0
 10
6.997385154700002
 20
16.6641013604
 30
0.0
 10
7.478003239500001
 20
16.6652628188
 30
0.0
 10
7.8120436735
 20
16.6616616988
 30
0.0
 10
8.0749317919
 20
16.6539033264
 30
0.0
 10
8.270091902099999
 20
16.6440332088
 30
0.0
 10
8.4408487119
 20
16.6324766044
 30
0.0
 10
8.628739642700001
 20
16.6143869698
 30
0.0
 10
8.7984780327
 20
16.5889930866
 30
0.0
 10
8.9122678573
 20
16.5645511132
 30
0.0
 10
8.997871958700001
 20
16.5416400884
 30
0.0
 10
9.0825229867
 20
16.5107096044
 30
0.0
 10
9.158856697700001
 20
16.4618471846
 30
0.0
 10
9.218587902100001
 20
16.4171866712
 30
0.0
 10
9.2656699417
 20
16.37095961
 30
0.0
 10
9.3009880481
 20
16.3237644172
 30
0.0
 10
9.32547451312279
 20
16.27571839517877
 30
0.0
 10
9.335544813740041
 20
16.24271685084092
 30
0.0
 10
9.339197434
 20
16.2264461179
 30
0.0
  0
POLYLINE
  5
58
330
1F
100
AcDbEntity
  8
Default
  6
Continuous
100
AcDb2dPolyline
 66
     1
 10
0.0
 20
0.0
 30
0.0
  0
VERTEX
  5
59
330
58
100
AcDbEntity
  8
Default
  6
Continuous
100
AcDbVertex
100
AcDb2dVertex
 10
9.339197434
 20
16.2264461179
 30
0.0
  0
VERTEX
  5
5A
330
58
100
AcDbEntity
  8
Default
  6
Continuous
100
AcDbVertex
100
AcDb2dVertex
 10
9.3674111529
 20
16.0922792742
 30
0.0
  0
VERTEX
  5
5B
330
58
100
AcDbEntity
  8
Default
  6
Continuous
100
AcDbVertex
100
AcDb2dVertex
 10
9.4031762181
 20
15.8893015174
 30
0.0
  0
VERTEX
  5
5C
330
58
100
AcDbEntity
  8
Default
  6
Continuous
100
AcDbVertex
100
AcDb2dVertex
 10
9.4295683241
 20
15.6971201152
 30
0.0
  0
VERTEX
  5
5D
330
58
100
AcDbEntity
  8
Default
  6
Continuous
100
AcDbVertex
100
AcDb2dVertex
 10
9.4477587321
 20
15.5183877638
 30
0.0
  0
VERTEX
  5
5E
330
58
100
AcDbEntity
  8
Default
  6
Continuous
100
AcDbVertex
100
AcDb2dVertex
 10
9.4593464731
 20
15.3512253874
 30
0.0
  0
VERTEX
  5
5F
330
58
100
AcDbEntity
  8
Default
  6
Continuous
100
AcDbVertex
100
AcDb2dVertex
 10
9.4656674551
 20
15.1891896394
 30
0.0
  0
VERTEX
  5
60
330
58
100
AcDbEntity
  8
Default
  6
Continuous
100
AcDbVertex
100
AcDb2dVertex
 10
9.4672572197
 20
15.0327188218
 30
0.0
  0
VERTEX
  5
61
330
58
100
AcDbEntity
  8
Default
  6
Continuous
100
AcDbVertex
100
AcDb2dVertex
 10
9.4646159899
 20
14.8816448602
 30
0.0
  0
VERTEX
  5
62
330
58
100
AcDbEntity
  8
Default
  6
Continuous
100
AcDbVertex
100
AcDb2dVertex
 10
9.4577644837
 20
14.728528965
 30
0.0
  0
VERTEX
  5
63
330
58
100
AcDbEntity
  8
Default
  6
Continuous
100
AcDbVertex
100
AcDb2dVertex
 10
9.4464146127
 20
14.5719454682
 30
0.0
  0
VERTEX
  5
64
330
58
100
AcDbEntity
  8
Default
  6
Continuous
100
AcDbVertex
100
AcDb2dVertex
 10
9.430458015500001
 20
14.413534942
 30
0.0
  0
VERTEX
  5
65
330
58
100
AcDbEntity
  8
Default
  6
Continuous
100
AcDbVertex
100
AcDb2dVertex
 10
9.409319508100001
 20
14.2504814042
 30
0.0
  0
VERTEX
  5
66
330
58
100
AcDbEntity
  8
Default
  6
Continuous
100
AcDbVertex
100
AcDb2dVertex
 10
9.3824208873
 20
14.081945661
 30
0.0
  0
VERTEX
  5
67
330
58
100
AcDbEntity
  8
Default
  6
Continuous
100
AcDbVertex
100
AcDb2dVertex
 10
9.3494628889
 20
13.909057369
 30
0.0
  0
VERTEX
  5
68
330
58
100
AcDbEntity
  8
Default
  6
Continuous
100
AcDbVertex
100
AcDb2dVertex
 10
9.3289184792
 20
13.8136046639
 30
0.0
  0
SEQEND
  5
69
330
58
100
AcDbEntity
  8
Default
  6
Continuous
  0
SPLINE
  5
6A
330
1F
100
AcDbEntity
  8
Default
  6
Continuous
100
AcDbSpline
210
0.0
220
0.0
230
1.0
 70
     8
 71
     3
 72
     9
 73
     5
 74
     0
 42
0.0000000001
 43
0.0000000001
 40
-2.0
 40
-2.0
 40
-2.0
 40
-2.0
 40
-1.0
 40
0.0
 40
0.0
 40
0.0
 40
0.0
 10
9.3289184792
 20
13.8136046639
 30
0.0
 10
9.265544586868483
 20
13.56990276633275
 30
0.0
 10
9.00676604171931
 20
13.08462687837681
 30
0.0
 10
8.496637291537784
 20
12.90958778560589
 30
0.0
 10
8.257071480899999
 20
12.8325597732
 30
0.0
  0
SPLINE
  5
6B
330
1F
100
AcDbEntity
  8
Default
  6
Continuous
100
AcDbSpline
210
0.0
220
0.0
230
1.0
 70
     8
 71
     3
 72
    14
 73
    10
 74
     0
 42
0.0000000001
 43
0.0000000001
 40
0.0
 40
0.0
 40
0.0
 40
0.0
 40
1.0
 40
2.0
 40
3.0
 40
4.0
 40
5.0
 40
6.0
 40
7.0
 40
7.0
 40
7.0
 40
7.0
 10
9.328918298499996
 20
13.8136038586
 30
0.0
 10
9.43771647011672
 20
14.40642102951298
 30
0.0
 10
8.289412610296944
 20
14.50953212784197
 30
0.0
 10
6.98500775096335
 20
14.51714799481664
 30
0.0
 10
5.567946986920046
 20
14.48706250846888
 30
0.0
 10
4.181270078976244
 20
14.45631482349717
 30
0.0
 10
2.786379629950453
 20
14.42874988045286
 30
0.0
 10
1.393549566390586
 20
14.40957456701938
 30
0.0
 10
0.4644553866586137
 20
14.40501293960333
 30
0.0
 10
-0.0000000001000018
 20
14.4050032912
 30
0.0
  0
SPLINE
  5
6C
330
1F
100
AcDbEntity
  8
Default
  6
Continuous
100
AcDbSpline
210
0.0
220
0.0
230
1.0
 70
     8
 71
     3
 72
    14
 73
    10
 74
     0
 42
0.0000000001
 43
0.0000000001
 40
-7.0
 40
-7.0
 40
-7.0
 40
-7.0
 40
-6.0
 40
-5.0
 40
-4.0
 40
-3.0
 40
-2.0
 40
-1.0
 40
0.0
 40
0.0
 40
0.0
 40
0.0
 10
-0.0000000001000018
 20
14.4050032912
 30
0.0
 10
-0.4644553868586173
 20
14.40501293960333
 30
0.0
 10
-1.39354956659059
 20
14.40957456701938
 30
0.0
 10
-2.786379630150456
 20
14.42874988045286
 30
0.0
 10
-4.181270079176247
 20
14.45631482349717
 30
0.0
 10
-5.56794698712005
 20
14.48706250846888
 30
0.0
 10
-6.985007751163353
 20
14.51714799481664
 30
0.0
 10
-8.289412610496948
 20
14.50953212784197
 30
0.0
 10
-9.437716470316724
 20
14.40642102951298
 30
0.0
 10
-9.3289182987
 20
13.8136038586
 30
0.0
  0
SPLINE
  5
6D
330
1F
100
AcDbEntity
  8
Default
  6
Continuous
100
AcDbSpline
210
0.0
220
0.0
230
1.0
 70
     8
 71
     3
 72
     9
 73
     5
 74
     0
 42
0.0000000001
 43
0.0000000001
 40
0.0
 40
0.0
 40
0.0
 40
0.0
 40
1.000000149942827
 40
2.0
 40
2.0
 40
2.0
 40
2.0
 10
8.841352771100002
 20
16.5788832886
 30
0.0
 10
8.835039841973627
 20
17.18790665069152
 30
0.0
 10
8.807411493784246
 20
18.40581986974695
 30
0.0
 10
8.744886881556043
 20
19.62246614157695
 30
0.0
 10
8.7043121738
 20
20.23017121609999
 30
0.0
  0
SPLINE
  5
6E
330
1F
100
AcDbEntity
  8
Default
  6
Continuous
100
AcDbSpline
210
0.0
220
0.0
230
1.0
 70
     8
 71
     3
 72
    24
 73
    20
 74
     0
 42
0.0000000001
 43
0.0000000001
 40
-17.0
 40
-17.0
 40
-17.0
 40
-17.0
 40
-16.00000054142419
 40
-15.00000050758518
 40
-14.00000047374617
 40
-13.00000043990716
 40
-12.00000040606815
 40
-11.00000037222913
 40
-10.00000033839012
 40
-9.00000030455111
 40
-8.000000270712096
 40
-7.000000236873085
 40
-6.000000203034072
 40
-5.00000016919506
 40
-4.000000135356048
 40
-3.000000101517036
 40
-2.000000067678024
 40
-1.000000033839012
 40
0.0
 40
0.0
 40
0.0
 40
0.0
 10
8.7043121738
 20
20.23017121609999
 30
0.0
 10
8.682489318121721
 20
20.54691929048659
 30
0.0
 10
8.636574844673113
 20
21.18025499607538
 30
0.0
 10
8.554664211503315
 20
22.12926903152712
 30
0.0
 10
8.451571382270268
 20
23.07623357642571
 30
0.0
 10
8.325017011975381
 20
24.02041066875026
 30
0.0
 10
8.163003547041189
 20
24.95922663445777
 30
0.0
 10
7.960366494978348
 20
25.89017003546215
 30
0.0
 10
7.710477299039511
 20
26.80962485317515
 30
0.0
 10
7.402283651426981
 20
27.7118133613989
 30
0.0
 10
6.967625583401235
 20
28.56336299699493
 30
0.0
 10
6.378217080865605
 20
29.31769140582617
 30
0.0
 10
5.628413891552932
 20
29.91822510582066
 30
0.0
 10
4.74230817860009
 20
30.28958274456854
 30
0.0
 10
3.800168969559707
 20
30.44662308946312
 30
0.0
 10
2.853990920236803
 20
30.55295140285229
 30
0.0
 10
1.904272747885552
 20
30.62916004351314
 30
0.0
 10
0.9525036318598615
 20
30.66876599228653
 30
0.0
 10
0.3175004725572942
 20
30.67701620519938
 30
0.0
 10
0.0
 20
30.67684035080001
 30
0.0
  0
LINE
  5
6F
330
1F
100
AcDbEntity
  8
Default
  6
Continuous
100
AcDbLine
 10
0.0
 20
30.67684035080001
 30
0.0
 11
-0.0000000001000018
 21
30.6769249436
 31
0.0
  0
SPLINE
  5
70
330
1F
100
AcDbEntity
  8
Default
  6
Continuous
100
AcDbSpline
210
0.0
220
0.0
230
1.0
 70
     8
 71
     3
 72
    24
 73
    20
 74
     0
 42
0.0000000001
 43
0.0000000001
 40
0.0
 40
0.0
 40
0.0
 40
0.0
 40
1.000000033839012
 40
2.000000067678024
 40
3.000000101517036
 40
4.000000135356048
 40
5.00000016919506
 40
6.000000203034072
 40
7.000000236873085
 40
8.000000270712096
 40
9.00000030455111
 40
10.00000033839012
 40
11.00000037222913
 40
12.00000040606815
 40
13.00000043990716
 40
14.00000047374617
 40
15.00000050758518
 40
16.00000054142419
 40
17.0
 40
17.0
 40
17.0
 40
17.0
 10
-0.0000000001000018
 20
30.6769249436
 30
0.0
 10
-0.3175004725572942
 20
30.67701620519938
 30
0.0
 10
-0.9525036318598615
 20
30.66876599228653
 30
0.0
 10
-1.904272747885552
 20
30.62916004351314
 30
0.0
 10
-2.853990920236803
 20
30.55295140285229
 30
0.0
 10
-3.800168969559707
 20
30.44662308946312
 30
0.0
 10
-4.74230817860009
 20
30.28958274456854
 30
0.0
 10
-5.628413891552932
 20
29.91822510582066
 30
0.0
 10
-6.378217080865605
 20
29.31769140582617
 30
0.0
 10
-6.967625583401235
 20
28.56336299699493
 30
0.0
 10
-7.402283651426981
 20
27.7118133613989
 30
0.0
 10
-7.710477299039511
 20
26.80962485317515
 30
0.0
 10
-7.960366494978348
 20
25.89017003546215
 30
0.0
 10
-8.163003547041189
 20
24.95922663445777
 30
0.0
 10
-8.325017011975381
 20
24.02041066875026
 30
0.0
 10
-8.451571382270268
 20
23.07623357642571
 30
0.0
 10
-8.554664211503315
 20
22.12926903152712
 30
0.0
 10
-8.636574844673113
 20
21.18025499607538
 30
0.0
 10
-8.682489318121721
 20
20.54691929048659
 30
0.0
 10
-8.7043121738
 20
20.23017121609999
 30
0.0
  0
SPLINE
  5
71
330
1F
100
AcDbEntity
  8
Default
  6
Continuous
100
AcDbSpline
210
0.0
220
0.0
230
1.0
 70
     8
 71
     3
 72
     9
 73
     5
 74
     0
 42
0.0000000001
 43
0.0000000001
 40
-2.0
 40
-2.0
 40
-2.0
 40
-2.0
 40
-1.000000149942827
 40
0.0
 40
0.0
 40
0.0
 40
0.0
 10
-8.7043121738
 20
20.23017121609999
 30
0.0
 10
-8.744886881556043
 20
19.62246614157695
 30
0.0
 10
-8.807411493784246
 20
18.40581986974695
 30
0.0
 10
-8.835039841973627
 20
17.18790665069152
 30
0.0
 10
-8.841352771100002
 20
16.5788832886
 30
0.0
  0
SPLINE
  5
72
330
1F
100
AcDbEntity
  8
Default
  6
Continuous
100
AcDbSpline
210
0.0
220
0.0
230
1.0
 70
     8
 71
     3
 72
    14
 73
    10
 74
     0
 42
0.0000000001
 43
0.0000000001
 40
0.0
 40
0.0
 40
0.0
 40
0.0
 40
1.0
 40
2.0
 40
3.0
 40
4.0
 40
5.0
 40
6.0
 40
7.0
 40
7.0
 40
7.0
 40
7.0
 10
8.368009170699999
 20
16.6371132254
 30
0.0
 10
8.387334625975532
 20
17.37329269317694
 30
0.0
 10
8.399743156947139
 20
18.84641566356715
 30
0.0
 10
8.330716927727064
 20
21.05509506337301
 30
0.0
 10
8.163859546177257
 20
23.25883289506983
 30
0.0
 10
7.825917145276435
 20
25.44574956545853
 30
0.0
 10
7.282018825320992
 20
27.58381226673166
 30
0.0
 10
6.232204144576811
 20
29.60035189149956
 30
0.0
 10
4.844501729667222
 20
30.30049901118797
 30
0.0
 10
4.111847123899999
 20
30.39209981080001
 30
0.0
  0
SPLINE
  5
73
330
1F
100
AcDbEntity
  8
Default
  6
Continuous
100
AcDbSpline
210
0.0
220
0.0
230
1.0
 70
     8
 71
     3
 72
    14
 73
    10
 74
     0
 42
0.0000000001
 43
0.0000000001
 40
0.0
 40
0.0
 40
0.0
 40
0.0
 40
1.0
 40
2.0
 40
3.0
 40
4.0
 40
5.0
 40
6.0
 40
7.0
 40
7.0
 40
7.0
 40
7.0
 10
-8.368009170699999
 20
16.6371132254
 30
0.0
 10
-8.387334625975532
 20
17.37329269317694
 30
0.0
 10
-8.399743156947139
 20
18.84641566356715
 30
0.0
 10
-8.330716927727064
 20
21.05509506337301
 30
0.0
 10
-8.163859546177257
 20
23.25883289506983
 30
0.0
 10
-7.825917145276435
 20
25.44574956545853
 30
0.0
 10
-7.282018825320992
 20
27.58381226673166
 30
0.0
 10
-6.232204144576811
 20
29.60035189149956
 30
0.0
 10
-4.844501729667222
 20
30.30049901118797
 30
0.0
 10
-4.111847123899999
 20
30.39209981080001
 30
0.0
  0
SPLINE
  5
74
330
1F
100
AcDbEntity
  8
Default
  6
Continuous
100
AcDbSpline
210
0.0
220
0.0
230
1.0
 70
     8
 71
     3
 72
     9
 73
     5
 74
     0
 42
0.0000000001
 43
0.0000000001
 40
0.0
 40
0.0
 40
0.0
 40
0.0
 40
0.4978764404
 40
1.0
 40
1.0
 40
1.0
 40
1.0
 10
-6.8314324587
 20
12.100691076
 30
0.0
 10
-6.957639769500002
 20
12.1243422758
 30
0.0
 10
-7.209511555900001
 20
12.1813177314
 30
0.0
 10
-7.453760091100001
 20
12.2674110076
 30
0.0
 10
-7.571809565900001
 20
12.3206508502
 30
0.0
  0
LINE
  5
75
330
1F
100
AcDbEntity
  8
Default
  6
Continuous
100
AcDbLine
 10
-8.52488060280001
 20
0.453470774600003
 30
0.0
 11
-8.525903455399998
 21
0.4500317667999986
 31
0.0
  0
LINE
  5
76
330
1F
100
AcDbEntity
  8
Default
  6
Continuous
100
AcDbLine
 10
-2.25
 20
12.1957070276
 30
0.0
 11
-2.25
 21
12.7739601044
 31
0.0
  0
LINE
  5
77
330
1F
100
AcDbEntity
  8
Default
  6
Continuous
100
AcDbLine
 10
-1.5
 20
12.3823878204
 30
0.0
 11
1.5
 21
12.3823878204
 31
0.0
  0
ARC
  5
78
330
1F
100
AcDbEntity
  8
Default
100
AcDbCircle
 10
-9.512281750448231
 20
-0.4580664675388811
 30
0.0
 40
1.039268725609891
100
AcDbArc
 50
61.88341912158013
 51
104.1846738010469
  0
ARC
  5
79
330
1F
100
AcDbEntity
  8
Default
100
AcDbCircle
 10
9.512281750448231
 20
-0.4580664675388811
 30
0.0
 40
1.039268725609891
100
AcDbArc
 50
75.81532619895307
 51
118.1165808784199
  0
LINE
  5
7A
330
1F
100
AcDbEntity
  8
Default
  6
Continuous
100
AcDbLine
 10
-3.682624604800012
 20
12.7739601044
 30
0.0
 11
3.682624604800012
 21
12.7739601044
 31
0.0
  0
SPLINE
  5
7B
330
1F
100
AcDbEntity
  8
Default
  6
Continuous
100
AcDbSpline
210
0.0
220
0.0
230
1.0
 70
     8
 71
     3
 72
     8
 73
     4
 74
     0
 42
0.0000000001
 43
0.0000000001
 40
0.0
 40
0.0
 40
0.0
 40
0.0
 40
1.0
 40
1.0
 40
1.0
 40
1.0
 10
3.682624604800012
 20
12.7739601044
 30
0.0
 10
4.003634684337558
 20
12.77498965675506
 30
0.0
 10
4.325320361153055
 20
12.78479374639231
 30
0.0
 10
4.644153278200008
 20
12.8243745546
 30
0.0
  0
LINE
  5
7C
330
1F
100
AcDbEntity
  8
Default
  6
Continuous
100
AcDbLine
 10
4.644153278200008
 20
12.8243745546
 30
0.0
 11
7.158938160399998
 21
13.1548636386
 31
0.0
  0
SPLINE
  5
7D
330
1F
100
AcDbEntity
  8
Default
  6
Continuous
100
AcDbSpline
210
0.0
220
0.0
230
1.0
 70
     8
 71
     3
 72
     8
 73
     4
 74
     0
 42
0.0000000001
 43
0.0000000001
 40
0.0
 40
0.0
 40
0.0
 40
0.0
 40
1.0
 40
1.0
 40
1.0
 40
1.0
 10
7.158938160399998
 20
13.1548636386
 30
0.0
 10
7.428156015789641
 20
13.1038297417408
 30
0.0
 10
7.506417465058169
 20
12.78387911788908
 30
0.0
 10
7.543902794400012
 20
12.5475704116
 30
0.0
  0
LINE
  5
7E
330
1F
100
AcDbEntity
  8
Default
  6
Continuous
100
AcDbLine
 10
7.543902794400012
 20
12.5475704116
 30
0.0
 11
9.061054887157109
 21
0.1433212697947502
 31
0.0
  0
SPLINE
  5
7F
330
1F
100
AcDbEntity
  8
Default
  6
Continuous
100
AcDbSpline
210
0.0
220
0.0
230
1.0
 70
     8
 71
     3
 72
     8
 73
     4
 74
     0
 42
0.0000000001
 43
0.0000000001
 40
-1.0
 40
-1.0
 40
-1.0
 40
-1.0
 40
0.0
 40
0.0
 40
0.0
 40
0.0
 10
9.061054887157109
 20
0.1433212697947502
 30
0.0
 10
9.067412288560014
 20
0.0805846597448471
 30
0.0
 10
9.12209402735879
 20
0.032469553988779
 30
0.0
 10
9.181752197841211
 20
0.0203519791466141
 30
0.0
  0
ARC
  5
80
330
1F
100
AcDbEntity
  8
Default
  6
Continuous
100
AcDbCircle
 10
9.364529513000008
 20
0.7509611494000018
 30
0.0
 40
0.7531250271999999
100
AcDbArc
 50
255.9545291267997
 51
297.9917908878998
  0
SPLINE
  5
81
330
1F
100
AcDbEntity
  8
Default
  6
Continuous
100
AcDbSpline
210
0.0
220
0.0
230
1.0
 70
     8
 71
     3
 72
     8
 73
     4
 74
     0
 42
0.0000000001
 43
0.0000000001
 40
-1.0
 40
-1.0
 40
-1.0
 40
-1.0
 40
0.0
 40
0.0
 40
0.0
 40
0.0
 10
9.718005018609205
 20
0.0859405681174968
 30
0.0
 10
9.77298030969437
 20
0.1120819932300811
 30
0.0
 10
9.81446074628552
 20
0.1719531853404098
 30
0.0
 10
9.805507237554544
 20
0.2343745393944409
 30
0.0
  0
LINE
  5
82
330
1F
100
AcDbEntity
  8
Default
  6
Continuous
100
AcDbLine
 10
9.805507237554544
 20
0.2343745393944409
 30
0.0
 11
8.288355145000011
 21
12.63862368120001
 31
0.0
  0
SPLINE
  5
83
330
1F
100
AcDbEntity
  8
Default
  6
Continuous
100
AcDbSpline
210
0.0
220
0.0
230
1.0
 70
     8
 71
     3
 72
    10
 73
     6
 74
     0
 42
0.0000000001
 43
0.0000000001
 40
-3.0
 40
-3.0
 40
-3.0
 40
-3.0
 40
-2.0
 40
-1.0
 40
0.0
 40
0.0
 40
0.0
 40
0.0
 10
8.288355145000011
 20
12.63862368120001
 30
0.0
 10
8.261521817342105
 20
12.85451063725133
 30
0.0
 10
8.14522020674059
 20
13.27963776066536
 30
0.0
 10
7.724192588992582
 20
13.80855428556643
 30
0.0
 10
7.277881604030347
 20
13.92939112242977
 30
0.0
 10
7.061214606600004
 20
13.8984697892
 30
0.0
  0
LINE
  5
84
330
1F
100
AcDbEntity
  8
Default
  6
Continuous
100
AcDbLine
 10
7.061214606600004
 20
13.8984697892
 30
0.0
 11
4.546429724399999
 21
13.567980705
 31
0.0
  0
SPLINE
  5
85
330
1F
100
AcDbEntity
  8
Default
  6
Continuous
100
AcDbSpline
210
0.0
220
0.0
230
1.0
 70
     8
 71
     3
 72
     8
 73
     4
 74
     0
 42
0.0000000001
 43
0.0000000001
 40
-1.0
 40
-1.0
 40
-1.0
 40
-1.0
 40
0.0
 40
0.0
 40
0.0
 40
0.0
 10
4.546429724399999
 20
13.567980705
 30
0.0
 10
4.259952822576636
 20
13.53305018617114
 30
0.0
 10
3.970978054395244
 20
13.5249623707001
 30
0.0
 10
3.682624604800012
 20
13.5239601044
 30
0.0
  0
LINE
  5
86
330
1F
100
AcDbEntity
  8
Default
  6
Continuous
100
AcDbLine
 10
3.682624604800012
 20
13.5239601044
 30
0.0
 11
-3.682624604800012
 21
13.5239601044
 31
0.0
  0
SPLINE
  5
87
330
1F
100
AcDbEntity
  8
Default
  6
Continuous
100
AcDbSpline
210
0.0
220
0.0
230
1.0
 70
     8
 71
     3
 72
     8
 73
     4
 74
     0
 42
0.0000000001
 43
0.0000000001
 40
0.0
 40
0.0
 40
0.0
 40
0.0
 40
1.0
 40
1.0
 40
1.0
 40
1.0
 10
-3.682624604800012
 20
13.5239601044
 30
0.0
 10
-3.970978054395244
 20
13.5249623707001
 30
0.0
 10
-4.259952822576636
 20
13.53305018617114
 30
0.0
 10
-4.546429724399999
 20
13.567980705
 30
0.0
  0
LINE
  5
88
330
1F
100
AcDbEntity
  8
Default
  6
Continuous
100
AcDbLine
 10
-4.546429724399999
 20
13.567980705
 30
0.0
 11
-7.061214606600004
 21
13.8984697892
 31
0.0
  0
SPLINE
  5
89
330
1F
100
AcDbEntity
  8
Default
  6
Continuous
100
AcDbSpline
210
0.0
220
0.0
230
1.0
 70
     8
 71
     3
 72
    10
 73
     6
 74
     0
 42
0.0000000001
 43
0.0000000001
 40
0.0
 40
0.0
 40
0.0
 40
0.0
 40
1.0
 40
2.0
 40
3.0
 40
3.0
 40
3.0
 40
3.0
 10
-7.061214606600004
 20
13.8984697892
 30
0.0
 10
-7.277881604030347
 20
13.92939112242977
 30
0.0
 10
-7.724192588992582
 20
13.80855428556643
 30
0.0
 10
-8.14522020674059
 20
13.27963776066536
 30
0.0
 10
-8.261521817342105
 20
12.85451063725133
 30
0.0
 10
-8.288355145000011
 20
12.63862368120001
 30
0.0
  0
LINE
  5
8A
330
1F
100
AcDbEntity
  8
Default
  6
Continuous
100
AcDbLine
 10
-8.288355145000011
 20
12.63862368120001
 30
0.0
 11
-9.805507237554544
 21
0.2343745393944409
 31
0.0
  0
SPLINE
  5
8B
330
1F
100
AcDbEntity
  8
Default
  6
Continuous
100
AcDbSpline
210
0.0
220
0.0
230
1.0
 70
     8
 71
     3
 72
     8
 73
     4
 74
     0
 42
0.0000000001
 43
0.0000000001
 40
0.0
 40
0.0
 40
0.0
 40
0.0
 40
1.0
 40
1.0
 40
1.0
 40
1.0
 10
-9.805507237554544
 20
0.2343745393944409
 30
0.0
 10
-9.81446074628552
 20
0.1719531853404098
 30
0.0
 10
-9.77298030969437
 20
0.1120819932300811
 30
0.0
 10
-9.718005018609205
 20
0.0859405681174968
 30
0.0
  0
ARC
  5
8C
330
1F
100
AcDbEntity
  8
Default
  6
Continuous
100
AcDbCircle
 10
-9.364529513000008
 20
0.7509611494000018
 30
0.0
 40
0.7531250271999999
100
AcDbArc
 50
242.0082091121002
 51
284.0454708732003
  0
SPLINE
  5
8D
330
1F
100
AcDbEntity
  8
Default
  6
Continuous
100
AcDbSpline
210
0.0
220
0.0
230
1.0
 70
     8
 71
     3
 72
     8
 73
     4
 74
     0
 42
0.0000000001
 43
0.0000000001
 40
0.0
 40
0.0
 40
0.0
 40
0.0
 40
1.0
 40
1.0
 40
1.0
 40
1.0
 10
-9.181752197841211
 20
0.0203519791466141
 30
0.0
 10
-9.12209402735879
 20
0.032469553988779
 30
0.0
 10
-9.067412288560014
 20
0.0805846597448471
 30
0.0
 10
-9.061054887157109
 20
0.1433212697947502
 30
0.0
  0
LINE
  5
8E
330
1F
100
AcDbEntity
  8
Default
  6
Continuous
100
AcDbLine
 10
-9.061054887157109
 20
0.1433212697947502
 30
0.0
 11
-7.543902794400012
 21
12.5475704116
 31
0.0
  0
SPLINE
  5
8F
330
1F
100
AcDbEntity
  8
Default
  6
Continuous
100
AcDbSpline
210
0.0
220
0.0
230
1.0
 70
     8
 71
     3
 72
     8
 73
     4
 74
     0
 42
0.0000000001
 43
0.0000000001
 40
-1.0
 40
-1.0
 40
-1.0
 40
-1.0
 40
0.0
 40
0.0
 40
0.0
 40
0.0
 10
-7.543902794400012
 20
12.5475704116
 30
0.0
 10
-7.506417465058169
 20
12.78387911788908
 30
0.0
 10
-7.428156015789641
 20
13.1038297417408
 30
0.0
 10
-7.158938160399998
 20
13.1548636386
 30
0.0
  0
LINE
  5
90
330
1F
100
AcDbEntity
  8
Default
  6
Continuous
100
AcDbLine
 10
-7.158938160399998
 20
13.1548636386
 30
0.0
 11
-4.644153278200008
 21
12.8243745546
 31
0.0
  0
SPLINE
  5
91
330
1F
100
AcDbEntity
  8
Default
  6
Continuous
100
AcDbSpline
210
0.0
220
0.0
230
1.0
 70
     8
 71
     3
 72
     8
 73
     4
 74
     0
 42
0.0000000001
 43
0.0000000001
 40
-1.0
 40
-1.0
 40
-1.0
 40
-1.0
 40
0.0
 40
0.0
 40
0.0
 40
0.0
 10
-4.644153278200008
 20
12.8243745546
 30
0.0
 10
-4.325320361153055
 20
12.78479374639231
 30
0.0
 10
-4.003634684337558
 20
12.77498965675506
 30
0.0
 10
-3.682624604800012
 20
12.7739601044
 30
0.0
  0
LINE
  5
92
330
1F
100
AcDbEntity
  8
Default
  6
Continuous
100
AcDbLine
 10
-1.5
 20
12.7739601044
 30
0.0
 11
-1.5
 21
12.0723454728
 31
0.0
  0
LINE
  5
93
330
1F
100
AcDbEntity
  8
Default
  6
Continuous
100
AcDbLine
 10
-1.5
 20
12.0723454728
 30
0.0
 11
1.5
 21
12.0723454728
 31
0.0
  0
LINE
  5
94
330
1F
100
AcDbEntity
  8
Default
  6
Continuous
100
AcDbLine
 10
1.5
 20
12.0723454728
 30
0.0
 11
1.5
 21
12.7739601044
 31
0.0
  0
SPLINE
  5
95
330
1F
100
AcDbEntity
  8
Default
  6
Continuous
100
AcDbSpline
210
0.0
220
0.0
230
1.0
 70
     8
 71
     3
 72
     8
 73
     4
 74
     0
 42
0.0000000001
 43
0.0000000001
 40
0.0
 40
0.0
 40
0.0
 40
0.0
 40
1.0
 40
1.0
 40
1.0
 40
1.0
 10
-2.249683389400005
 20
12.4604920082
 30
0.0
 10
-2.381666728384626
 20
12.44123496233938
 30
0.0
 10
-2.514657934724982
 20
12.42983151063587
 30
0.0
 10
-2.647714054600002
 20
12.42119706
 30
0.0
  0
LINE
  5
96
330
1F
100
AcDbEntity
  8
Default
  6
Continuous
100
AcDbLine
 10
-2.647714054600002
 20
12.42119706
 30
0.0
 11
-6.452187835800004
 21
12.1794593936
 31
0.0
  0
SPLINE
  5
97
330
1F
100
AcDbEntity
  8
Default
  6
Continuous
100
AcDbSpline
210
0.0
220
0.0
230
1.0
 70
     8
 71
     3
 72
     8
 73
     4
 74
     0
 42
0.0000000001
 43
0.0000000001
 40
0.0
 40
0.0
 40
0.0
 40
0.0
 40
1.0
 40
1.0
 40
1.0
 40
1.0
 10
-6.452187835800004
 20
12.1794593936
 30
0.0
 10
-7.013852292882777
 20
12.15227922344902
 30
0.0
 10
-7.522332609556076
 20
11.75044222425513
 30
0.0
 10
-7.706197762000002
 20
11.2237207258
 30
0.0
  0
ARC
  5
98
330
1F
100
AcDbEntity
  8
Default
  6
Continuous
100
AcDbCircle
 10
-8.726731154600003
 20
0.1741892561999981
 30
0.0
 40
0.1588641572
100
AcDbArc
 50
282.3426210602988
 51
283.0333649002986
  0
ARC
  5
99
330
1F
100
AcDbEntity
  8
Default
100
AcDbCircle
 10
-8.757131348005752
 20
1.448716245008573
 30
0.0
 40
1.025103421774425
100
AcDbArc
 50
254.9964752999222
 51
283.0361296115291
  0
SPLINE
  5
9A
330
1F
100
AcDbEntity
  8
Default
100
AcDbSpline
210
0.0
220
0.0
230
1.0
 70
    12
 71
     3
 72
    29
 73
    25
 74
     0
 42
0.0000000001
 43
0.0000000001
 40
0.0
 40
0.0
 40
0.0
 40
0.0
 40
0.2186161258479055
 40
0.2186161258479055
 40
0.2186161258479055
 40
1.218616125847905
 40
2.218616125847905
 40
2.218616125847905
 40
2.218616125847905
 40
7.601048520801277
 40
7.601048520801277
 40
7.601048520801277
 40
8.601048520801278
 40
9.601048520801278
 40
9.601048520801278
 40
9.601048520801278
 40
11.5071215684043
 40
11.5071215684043
 40
11.5071215684043
 40
12.5071215684043
 40
13.5071215684043
 40
13.5071215684043
 40
13.5071215684043
 40
14.5071215684043
 40
14.5071215684043
 40
14.5071215684043
 40
14.5071215684043
 10
-9.121174714612701
 20
0.0464342937241432
 30
0.0
 41
1.0
 10
-8.98246023247436
 20
-0.0046704069462443
 30
0.0
 41
0.9721094373123367
 10
-8.834921839468706
 20
-0.0139343464337152
 30
0.0
 41
0.9721094373123367
 10
-8.690904321992623
 20
0.0194176047167679
 30
0.0
 41
1.0
 10
-8.661570139867347
 20
0.0259220443881637
 30
0.0
 41
1.0
 10
-8.604229387238174
 20
0.0524302808729579
 30
0.0
 41
1.0
 10
-8.574035396374281
 20
0.1088107572809526
 30
0.0
 41
1.0
 10
-8.56991311777039
 20
0.1387896577957654
 30
0.0
 41
1.0
 10
-8.061584635313594
 20
3.690889714730506
 30
0.0
 41
1.0
 10
-7.553256152856797
 20
7.242989771665254
 30
0.0
 41
1.0
 10
-7.0449276704
 20
10.7950898286
 30
0.0
 41
1.0
 10
-7.022351331718079
 20
10.95588985979099
 30
0.0
 41
1.0
 10
-6.880503920408944
 20
11.26955606887535
 30
0.0
 41
1.0
 10
-6.568092503979758
 20
11.42211970489464
 30
0.0
 41
1.0
 10
-6.404628470200009
 20
11.43096884140001
 30
0.0
 41
1.0
 10
-5.136470543133342
 20
11.51154806353334
 30
0.0
 41
1.0
 10
-3.868312616066675
 20
11.59212728566667
 30
0.0
 41
1.0
 10
-2.600154689000007
 20
11.6727065078
 30
0.0
 41
1.0
 10
-2.404569597405888
 20
11.68649555360392
 30
0.0
 41
1.0
 10
-2.024395812476095
 20
11.71563097134686
 30
0.0
 41
1.0
 10
-1.627418383081197
 20
11.83708769624851
 30
0.0
 41
1.0
 10
-1.538429866800001
 20
12.0259521466
 30
0.0
 41
1.0
 10
-1.5
 20
12.13405388134617
 30
0.0
 41
1.0
 10
-1.5
 20
12.26288735818819
 30
0.0
 41
1.0
 10
-1.5
 20
12.3823878204
 30
0.0
 41
1.0
  0
LINE
  5
9B
330
1F
100
AcDbEntity
  8
Default
  6
Continuous
100
AcDbLine
 10
8.52488060280001
 20
0.453470774600003
 30
0.0
 11
8.525903455399998
 21
0.4500317667999986
 31
0.0
  0
LINE
  5
9C
330
1F
100
AcDbEntity
  8
Default
  6
Continuous
100
AcDbLine
 10
2.25
 20
12.1957070276
 30
0.0
 11
2.25
 21
12.7739601044
 31
0.0
  0
SPLINE
  5
9D
330
1F
100
AcDbEntity
  8
Default
  6
Continuous
100
AcDbSpline
210
0.0
220
0.0
230
1.0
 70
     8
 71
     3
 72
     8
 73
     4
 74
     0
 42
0.0000000001
 43
0.0000000001
 40
0.0
 40
0.0
 40
0.0
 40
0.0
 40
1.0
 40
1.0
 40
1.0
 40
1.0
 10
2.249683389400005
 20
12.4604920082
 30
0.0
 10
2.381666728384626
 20
12.44123496233938
 30
0.0
 10
2.514657934724982
 20
12.42983151063587
 30
0.0
 10
2.647714054600002
 20
12.42119706
 30
0.0
  0
LINE
  5
9E
330
1F
100
AcDbEntity
  8
Default
  6
Continuous
100
AcDbLine
 10
2.647714054600002
 20
12.42119706
 30
0.0
 11
6.452187835800004
 21
12.1794593936
 31
0.0
  0
SPLINE
  5
9F
330
1F
100
AcDbEntity
  8
Default
  6
Continuous
100
AcDbSpline
210
0.0
220
0.0
230
1.0
 70
     8
 71
     3
 72
     8
 73
     4
 74
     0
 42
0.0000000001
 43
0.0000000001
 40
0.0
 40
0.0
 40
0.0
 40
0.0
 40
1.0
 40
1.0
 40
1.0
 40
1.0
 10
6.452187835800004
 20
12.1794593936
 30
0.0
 10
7.013852292882777
 20
12.15227922344902
 30
0.0
 10
7.522332609556076
 20
11.75044222425513
 30
0.0
 10
7.706197762000002
 20
11.2237207258
 30
0.0
  0
ARC
  5
A0
330
1F
100
AcDbEntity
  8
Default
  6
Continuous
100
AcDbCircle
 10
8.726731154600003
 20
0.1741892561999981
 30
0.0
 40
0.1588641572
100
AcDbArc
 50
256.9666350997014
 51
257.6573789397012
  0
ARC
  5
A1
330
1F
100
AcDbEntity
  8
Default
100
AcDbCircle
 10
8.757131348005752
 20
1.448716245008573
 30
0.0
 40
1.025103421774425
100
AcDbArc
 50
256.9638703884709
 51
285.0035247000777
  0
SPLINE
  5
A2
330
1F
100
AcDbEntity
  8
Default
100
AcDbSpline
210
0.0
220
0.0
230
1.0
 70
    12
 71
     3
 72
    29
 73
    25
 74
     0
 42
0.0000000001
 43
0.0000000001
 40
0.0
 40
0.0
 40
0.0
 40
0.0
 40
0.2186161258479055
 40
0.2186161258479055
 40
0.2186161258479055
 40
1.218616125847905
 40
2.218616125847905
 40
2.218616125847905
 40
2.218616125847905
 40
7.601048520801277
 40
7.601048520801277
 40
7.601048520801277
 40
8.601048520801278
 40
9.601048520801278
 40
9.601048520801278
 40
9.601048520801278
 40
11.5071215684043
 40
11.5071215684043
 40
11.5071215684043
 40
12.5071215684043
 40
13.5071215684043
 40
13.5071215684043
 40
13.5071215684043
 40
14.5071215684043
 40
14.5071215684043
 40
14.5071215684043
 40
14.5071215684043
 10
9.121174714612701
 20
0.0464342937241432
 30
0.0
 41
1.0
 10
8.98246023247436
 20
-0.0046704069462443
 30
0.0
 41
0.9721094373123367
 10
8.834921839468706
 20
-0.0139343464337152
 30
0.0
 41
0.9721094373123367
 10
8.690904321992623
 20
0.0194176047167679
 30
0.0
 41
1.0
 10
8.661570139867347
 20
0.0259220443881637
 30
0.0
 41
1.0
 10
8.604229387238174
 20
0.0524302808729579
 30
0.0
 41
1.0
 10
8.574035396374281
 20
0.1088107572809526
 30
0.0
 41
1.0
 10
8.56991311777039
 20
0.1387896577957654
 30
0.0
 41
1.0
 10
8.061584635313594
 20
3.690889714730506
 30
0.0
 41
1.0
 10
7.553256152856797
 20
7.242989771665254
 30
0.0
 41
1.0
 10
7.0449276704
 20
10.7950898286
 30
0.0
 41
1.0
 10
7.022351331718079
 20
10.95588985979099
 30
0.0
 41
1.0
 10
6.880503920408944
 20
11.26955606887535
 30
0.0
 41
1.0
 10
6.568092503979758
 20
11.42211970489464
 30
0.0
 41
1.0
 10
6.404628470200009
 20
11.43096884140001
 30
0.0
 41
1.0
 10
5.136470543133342
 20
11.51154806353334
 30
0.0
 41
1.0
 10
3.868312616066675
 20
11.59212728566667
 30
0.0
 41
1.0
 10
2.600154689000007
 20
11.6727065078
 30
0.0
 41
1.0
 10
2.404569597405888
 20
11.68649555360392
 30
0.0
 41
1.0
 10
2.024395812476095
 20
11.71563097134686
 30
0.0
 41
1.0
 10
1.627418383081197
 20
11.83708769624851
 30
0.0
 41
1.0
 10
1.538429866800001
 20
12.0259521466
 30
0.0
 41
1.0
 10
1.5
 20
12.13405388134617
 30
0.0
 41
1.0
 10
1.5
 20
12.26288735818819
 30
0.0
 41
1.0
 10
1.5
 20
12.3823878204
 30
0.0
 41
1.0
  0
LINE
  5
A3
330
1F
100
AcDbEntity
  8
Default
  6
Continuous
100
AcDbLine
 10
27.74179154695173
 20
11.85669320533515
 30
0.0
 11
27.36937451255655
 21
11.80924059618958
 31
0.0
  0
ARC
  5
A4
330
1F
100
AcDbEntity
  8
Default
  6
Continuous
100
AcDbCircle
 10
27.26661454459272
 20
12.61572022332474
 30
0.0
 40
0.813
100
AcDbArc
 50
234.7469696094568
 51
277.2613815829569
  0
POLYLINE
  5
A5
330
1F
100
AcDbEntity
  8
Default
100
AcDb2dPolyline
 66
     1
 10
0.0
 20
0.0
 30
0.0
  0
VERTEX
  5
A6
330
A5
100
AcDbEntity
  8
Default
100
AcDbVertex
100
AcDb2dVertex
 10
28.10847890843395
 20
12.36633589725852
 30
0.0
  0
VERTEX
  5
A7
330
A5
100
AcDbEntity
  8
Default
100
AcDbVertex
100
AcDb2dVertex
 10
25.97432734864693
 20
11.7221581330618
 30
0.0
  0
SEQEND
  5
A8
330
A5
100
AcDbEntity
  8
Default
  0
SPLINE
  5
A9
330
1F
100
AcDbEntity
  8
Default
  6
Continuous
100
AcDbSpline
210
0.0
220
0.0
230
1.0
 70
     8
 71
     3
 72
     9
 73
     5
 74
     0
 42
0.0000000001
 43
0.0000000001
 40
0.0
 40
0.0
 40
0.0
 40
0.0
 40
1.0
 40
2.0
 40
2.0
 40
2.0
 40
2.0
 10
26.88805370071851
 20
12.00009269798272
 30
0.0
 10
26.96592557616233
 20
12.02341334687842
 30
0.0
 10
27.11904693434919
 20
12.08295529756164
 30
0.0
 10
27.26026896171424
 20
12.19648557741066
 30
0.0
 10
27.30707722638596
 20
12.26336910866335
 30
0.0
  0
SPLINE
  5
AA
330
1F
100
AcDbEntity
  8
Default
  6
Continuous
100
AcDbSpline
210
0.0
220
0.0
230
1.0
 70
     8
 71
     3
 72
    25
 73
    21
 74
     0
 42
0.0000000001
 43
0.0000000001
 40
0.0
 40
0.0
 40
0.0
 40
0.0
 40
1.0
 40
2.0
 40
3.0
 40
4.0
 40
5.0
 40
6.0
 40
7.0
 40
8.0
 40
9.0
 40
10.0
 40
11.0
 40
12.0
 40
13.0
 40
14.0
 40
15.0
 40
16.0
 40
17.0
 40
18.0
 40
18.0
 40
18.0
 40
18.0
 10
27.30707722638596
 20
12.26336910866335
 30
0.0
 10
27.52283134468579
 20
12.571656489437
 30
0.0
 10
27.46971396350145
 20
13.35284606864911
 30
0.0
 10
27.16994076120308
 20
14.39681123752914
 30
0.0
 10
26.81916505728675
 20
15.43448914754688
 30
0.0
 10
26.45574416502968
 20
16.46493658217339
 30
0.0
 10
26.07788710911461
 20
17.4909440157346
 30
0.0
 10
25.69563166751211
 20
18.51509362826415
 30
0.0
 10
25.31157811702389
 20
19.5386301709364
 30
0.0
 10
24.92293400660162
 20
20.56041968080858
 30
0.0
 10
24.52808807464061
 20
21.57983573307417
 30
0.0
 10
24.1261573661414
 20
22.59647726476595
 30
0.0
 10
23.71647381527972
 20
23.61002771597303
 30
0.0
 10
23.2988346986454
 20
24.62030215199823
 30
0.0
 10
22.87367790539034
 20
25.62752156119815
 30
0.0
 10
22.4402310128211
 20
26.63088679888872
 30
0.0
 10
22.00114297642346
 20
27.63295727177088
 30
0.0
 10
21.51261995355246
 20
28.60854156513305
 30
0.0
 10
20.9844150722545
 20
29.57589562434828
 30
0.0
 10
20.4396233894283
 20
30.07409211897287
 30
0.0
 10
20.11726058066803
 20
30.24834834872439
 30
0.0
  0
POLYLINE
  5
AB
330
1F
100
AcDbEntity
  8
Default
100
AcDb2dPolyline
 66
     1
 10
0.0
 20
0.0
 30
0.0
  0
VERTEX
  5
AC
330
AB
100
AcDbEntity
  8
Default
100
AcDbVertex
100
AcDb2dVertex
 10
25.97432734864693
 20
11.7221581330618
 30
0.0
  0
VERTEX
  5
AD
330
AB
100
AcDbEntity
  8
Default
100
AcDbVertex
100
AcDb2dVertex
 10
27.46149627664325
 20
12.13650916029242
 30
0.0
  0
SEQEND
  5
AE
330
AB
100
AcDbEntity
  8
Default
  0
SPLINE
  5
AF
330
1F
100
AcDbEntity
  8
Default
  6
Continuous
100
AcDbSpline
210
0.0
220
0.0
230
1.0
 70
     8
 71
     3
 72
    25
 73
    21
 74
     0
 42
0.0000000001
 43
0.0000000001
 40
0.0
 40
0.0
 40
0.0
 40
0.0
 40
1.0
 40
2.0
 40
3.0
 40
4.0
 40
5.0
 40
6.0
 40
7.0
 40
8.0
 40
9.0
 40
10.0
 40
11.0
 40
12.0
 40
13.0
 40
14.0
 40
15.0
 40
16.0
 40
17.0
 40
18.0
 40
18.0
 40
18.0
 40
18.0
 10
28.10847890843395
 20
12.36633589725852
 30
0.0
 10
28.51959402962294
 20
12.45574372749802
 30
0.0
 10
28.77171137811618
 20
13.25693676492119
 30
0.0
 10
28.48756141219703
 20
14.34178691200147
 30
0.0
 10
28.15730489272934
 20
15.41210271510121
 30
0.0
 10
27.81045397844499
 20
16.47733309081297
 30
0.0
 10
27.44627965756214
 20
17.53671579875451
 30
0.0
 10
27.0700628126047
 20
18.59187592790573
 30
0.0
 10
26.68400669770377
 20
19.6434685484823
 30
0.0
 10
26.29045063244457
 20
20.69227587477494
 30
0.0
 10
25.88904237985799
 20
21.73810492084779
 30
0.0
 10
25.47925681909065
 20
22.78067922860077
 30
0.0
 10
25.06124230161458
 20
23.81998497279272
 30
0.0
 10
24.63557714265291
 20
24.85616434861581
 30
0.0
 10
24.20132829039555
 20
25.88884072063072
 30
0.0
 10
23.76091515638432
 20
26.91864999308889
 30
0.0
 10
23.30942597525635
 20
27.94462683156523
 30
0.0
 10
22.8117850325907
 20
28.94627847997428
 30
0.0
 10
22.28903893972732
 20
29.94499081197516
 30
0.0
 10
21.76179265757803
 20
30.48487685232881
 30
0.0
 10
21.42982225764971
 20
30.66464199084031
 30
0.0
  0
ARC
  5
B0
330
1F
100
AcDbEntity
  8
Default
  6
Continuous
100
AcDbCircle
 10
21.40523639939814
 20
28.46477937340846
 30
0.0
 40
2.199999999999999
100
AcDbArc
 50
89.35968398345553
 51
125.8344352746555
  0
ARC
  5
B1
330
1F
100
AcDbEntity
  8
Default
  6
Continuous
100
AcDbCircle
 10
31.33087378327823
 20
0.5405816986453402
 30
0.0
 40
12.22446792235284
100
AcDbArc
 50
104.9431026284025
 51
108.453038571512
  0
SPLINE
  5
B2
330
1F
100
AcDbEntity
  8
Default
  6
Continuous
100
AcDbSpline
210
0.0
220
0.0
230
1.0
 70
     8
 71
     3
 72
    17
 73
    13
 74
     0
 42
0.0000000001
 43
0.0000000001
 40
0.0
 40
0.0
 40
0.0
 40
0.0
 40
1.0
 40
2.0
 40
3.0
 40
4.0
 40
5.0
 40
6.0
 40
7.0
 40
8.0
 40
9.0
 40
10.0
 40
10.0
 40
10.0
 40
10.0
 10
28.17867604932931
 20
12.35164707949566
 30
0.0
 10
28.73898374420766
 20
12.50118487216365
 30
0.0
 10
29.8768874990926
 20
12.72757269934949
 30
0.0
 10
31.59468762560681
 20
12.99985758602271
 30
0.0
 10
33.31589668504726
 20
13.24991015383689
 30
0.0
 10
35.03890830229429
 20
13.48706445506821
 30
0.0
 10
36.76311542495549
 20
13.7151749942847
 30
0.0
 10
38.4884139894432
 20
13.93563137580715
 30
0.0
 10
40.21456907757855
 20
14.14639320300627
 30
0.0
 10
41.94244151001174
 20
14.35375316632417
 30
0.0
 10
43.66974592718861
 20
14.52457001431937
 30
0.0
 10
44.83888989190975
 20
14.56451209146616
 30
0.0
 10
45.40273783887279
 20
14.42254264335219
 30
0.0
  0
SPLINE
  5
B3
330
1F
100
AcDbEntity
  8
Default
  6
Continuous
100
AcDbSpline
210
0.0
220
0.0
230
1.0
 70
     8
 71
     3
 72
    36
 73
    32
 74
     0
 42
0.0000000001
 43
0.0000000001
 40
0.0
 40
0.0
 40
0.0
 40
0.0
 40
0.0268293352558578
 40
0.0595097548675145
 40
0.0970237093252662
 40
0.1380956546169486
 40
0.1815031125309036
 40
0.2263067799581736
 40
0.2718427483924272
 40
0.3176192565289746
 40
0.3634947203664658
 40
0.4094370792045949
 40
0.5014498873820746
 40
0.593563853160519
 40
0.6856946055391234
 40
0.7316409500772907
 40
0.777323086212938
 40
0.822333118342176
 40
0.8643548613429163
 40
0.9006659570891968
 40
0.9292564473618499
 40
0.9502818266623583
 40
0.9653869687064084
 40
0.9762731215102243
 40
0.9843452085872036
 40
0.990262839743637
 40
0.9944180083832629
 40
0.9971389310092109
 40
0.9988199332252418
 40
0.9997248131338712
 40
1.0
 40
1.0
 40
1.0
 40
1.0
 10
28.39690462717412
 20
14.624494709199
 30
0.0
 10
28.54410004671196
 20
14.65824881078942
 30
0.0
 10
28.87151036264609
 20
14.72913421180114
 30
0.0
 10
29.40751039743429
 20
14.83397001104559
 30
0.0
 10
30.02429466913186
 20
14.94285004141021
 30
0.0
 10
30.70207072358603
 20
15.05309714430119
 30
0.0
 10
31.42127501900572
 20
15.16402487909784
 30
0.0
 10
32.16592326018658
 20
15.27474300274703
 30
0.0
 10
32.92432969519527
 20
15.38352276013079
 30
0.0
 10
33.68904742770415
 20
15.49075493669616
 30
0.0
 10
34.45633068126437
 20
15.59614252358649
 30
0.0
 10
35.48179668327729
 20
15.73436870253549
 30
0.0
 10
36.76578498790795
 20
15.90296045285512
 30
0.0
 10
38.3083737128296
 20
16.09897659447978
 30
0.0
 10
39.59441341376782
 20
16.25686280234574
 30
0.0
 10
40.62148398781496
 20
16.37927418848344
 30
0.0
 10
41.38545975481966
 20
16.46793994684343
 30
0.0
 10
42.12768985551988
 20
16.5524631898529
 30
0.0
 10
42.81878830266491
 20
16.61923267371762
 30
0.0
 10
43.4191400523441
 20
16.66278361084582
 30
0.0
 10
43.90256063800072
 20
16.68144940746946
 30
0.0
 10
44.26695477132364
 20
16.68103933707396
 30
0.0
 10
44.53145285625354
 20
16.66994743006843
 30
0.0
 10
44.72252447245101
 20
16.653386977368
 30
0.0
 10
44.86150226731526
 20
16.63608252002383
 30
0.0
 10
44.96231258417854
 20
16.61950040062026
 30
0.0
 10
45.03273676151807
 20
16.60427097546491
 30
0.0
 10
45.07905437643113
 20
16.59086499728545
 30
0.0
 10
45.1070453990944
 20
16.5803994373647
 30
0.0
 10
45.12183806976471
 20
16.57399045248512
 30
0.0
 10
45.12773042340589
 20
16.5709240737341
 30
0.0
 10
45.12909067313289
 20
16.5701815234338
 30
0.0
  0
ARC
  5
B4
330
1F
100
AcDbEntity
  8
Default
  6
Continuous
100
AcDbCircle
 10
40.40387212417641
 20
14.87685177254867
 30
0.0
 40
5.019467698933335
100
AcDbArc
 50
354.8080954899568
 51
19.71565316915684
  0
LINE
  5
B5
330
1F
100
AcDbEntity
  8
Default
  6
Continuous
100
AcDbLine
 10
45.40274592302679
 20
14.42263076488587
 30
0.0
 11
27.46149627664325
 21
12.13650916029243
 31
0.0
  0
LINE
  5
B6
330
1F
100
AcDbEntity
  8
Default
  6
Continuous
100
AcDbLine
 10
20.11725734253286
 20
30.24834601026926
 30
0.0
 11
25.97432325654213
 21
11.72215701004971
 31
0.0
  0
LINE
  5
B7
330
1F
100
AcDbEntity
  8
Default
  6
Continuous
100
AcDbLine
 10
29.25284288311364
 20
12.36475893271497
 30
0.0
 11
29.23850770160068
 21
12.36295655198274
 31
0.0
  0
LINE
  5
B8
330
1F
100
AcDbEntity
  8
Default
  6
Continuous
100
AcDbLine
 10
39.42165563240635
 20
13.66044795868154
 30
0.0
 11
39.43205448370605
 21
13.66177541811575
 31
0.0
  0
ARC
  5
B9
330
1F
100
AcDbEntity
  8
Default
100
AcDbCircle
 10
45.2975230408798
 20
-1.02058493837297
 30
0.0
 40
1.598654297846829
100
AcDbArc
 50
87.12574310835056
 51
114.2567505016077
  0
ARC
  5
BA
330
1F
100
AcDbEntity
  8
Default
100
AcDbCircle
 10
25.54515448361053
 20
-0.8993157097569835
 30
0.0
 40
1.47998297551889
100
AcDbArc
 50
65.28133723045974
 51
94.63004863583294
  0
LINE
  5
BB
330
1F
100
AcDbEntity
  8
Default
  6
Continuous
100
AcDbLine
 10
45.43744143346539
 20
0.2608746657023957
 30
0.0
 11
43.08580911593188
 21
12.66485774568881
 31
0.0
  0
SPLINE
  5
BC
330
1F
100
AcDbEntity
  8
Default
  6
Continuous
100
AcDbSpline
210
0.0
220
0.0
230
1.0
 70
     8
 71
     3
 72
    10
 73
     6
 74
     0
 42
0.0000000001
 43
0.0000000001
 40
-3.0
 40
-3.0
 40
-3.0
 40
-3.0
 40
-2.0
 40
-1.0
 40
0.0
 40
0.0
 40
0.0
 40
0.0
 10
43.08580911593188
 20
12.66485774568881
 30
0.0
 10
43.04313322910546
 20
12.888717750239
 30
0.0
 10
42.87959962168713
 20
13.3230800116833
 30
0.0
 10
42.38161150522552
 20
13.82275741277854
 30
0.0
 10
41.91583831369896
 20
13.92818782000208
 30
0.0
 10
41.68871919501073
 20
13.90109273833657
 30
0.0
  0
LINE
  5
BD
330
1F
100
AcDbEntity
  8
Default
  6
Continuous
100
AcDbLine
 10
41.68871919501073
 20
13.90109273833657
 30
0.0
 11
38.34333316281158
 21
13.52300751854703
 31
0.0
  0
ARC
  5
BE
330
1F
100
AcDbEntity
  8
Default
  6
Continuous
100
AcDbCircle
 10
38.38544640801366
 20
13.15037972224279
 30
0.0
 40
0.375
100
AcDbArc
 50
96.44803212545426
 51
276.4480321254543
  0
LINE
  5
BF
330
1F
100
AcDbEntity
  8
Default
  6
Continuous
100
AcDbLine
 10
38.42755965321575
 20
12.77775192593856
 30
0.0
 11
41.77294568542911
 21
13.15583714568429
 31
0.0
  0
SPLINE
  5
C0
330
1F
100
AcDbEntity
  8
Default
  6
Continuous
100
AcDbSpline
210
0.0
220
0.0
230
1.0
 70
     8
 71
     3
 72
     9
 73
     5
 74
     0
 42
0.0000000001
 43
0.0000000001
 40
0.0
 40
0.0
 40
0.0
 40
0.0
 40
1.0
 40
2.0
 40
2.0
 40
2.0
 40
2.0
 10
41.77294568542911
 20
13.15583714568429
 30
0.0
 10
41.93437850157653
 20
13.17196136653155
 30
0.0
 10
42.20677674914207
 20
12.97248170532194
 30
0.0
 10
42.31914630930935
 20
12.67729563364767
 30
0.0
 10
42.34893501025985
 20
12.52515609099034
 30
0.0
  0
LINE
  5
C1
330
1F
100
AcDbEntity
  8
Default
  6
Continuous
100
AcDbLine
 10
42.34893501025985
 20
12.52515609099034
 30
0.0
 11
44.70056732774474
 21
0.1211730109944114
 31
0.0
  0
SPLINE
  5
C2
330
1F
100
AcDbEntity
  8
Default
  6
Continuous
100
AcDbSpline
210
0.0
220
0.0
230
1.0
 70
     8
 71
     3
 72
     9
 73
     5
 74
     0
 42
0.0000000001
 43
0.0000000001
 40
0.0
 40
0.0
 40
0.0
 40
0.0
 40
1.0
 40
2.0
 40
2.0
 40
2.0
 40
2.0
 10
44.70056732774474
 20
0.1211730109944114
 30
0.0
 10
44.70546176609088
 20
0.0948232630986539
 30
0.0
 10
44.73264180067332
 20
0.045583000276352
 30
0.0
 10
44.78286384561243
 20
0.0209844941094914
 30
0.0
 10
44.8090744237528
 20
0.0157803932449667
 30
0.0
  0
ARC
  5
C3
330
1F
100
AcDbEntity
  8
Default
  6
Continuous
100
AcDbCircle
 10
44.96243738123341
 20
0.7531250068011417
 30
0.0
 40
0.7531250068
100
AcDbArc
 50
258.2503681483544
 51
303.2198695719546
  0
SPLINE
  5
C4
330
1F
100
AcDbEntity
  8
Default
  6
Continuous
100
AcDbSpline
210
0.0
220
0.0
230
1.0
 70
     8
 71
     3
 72
     9
 73
     5
 74
     0
 42
0.0000000001
 43
0.0000000001
 40
0.0
 40
0.0
 40
0.0
 40
0.0
 40
1.0
 40
2.0
 40
2.0
 40
2.0
 40
2.0
 10
45.3750394554438
 20
0.123079925696004
 30
0.0
 10
45.39752740606357
 20
0.1375155600859728
 30
0.0
 10
45.43525968773832
 20
0.1787905551941193
 30
0.0
 10
45.44253072862617
 20
0.2345618171279185
 30
0.0
 10
45.43744143346539
 20
0.2608746657023957
 30
0.0
  0
SPLINE
  5
C5
330
1F
100
AcDbEntity
  8
Default
  6
Continuous
100
AcDbSpline
210
0.0
220
0.0
230
1.0
 70
     8
 71
     3
 72
    11
 73
     7
 74
     0
 42
0.0000000001
 43
0.0000000001
 40
-4.0
 40
-4.0
 40
-4.0
 40
-4.0
 40
-2.999998949625213
 40
-1.999997899250425
 40
-0.9999968488756381
 40
0.0
 40
0.0
 40
0.0
 40
0.0
 10
38.4299950597418
 20
12.77802716799413
 30
0.0
 10
37.58567727192226
 20
12.67120426362868
 30
0.0
 10
35.89681822864861
 20
12.45917988950914
 30
0.0
 10
33.36436871044621
 20
12.13506308025251
 30
0.0
 10
30.829237570786
 20
11.83040346342997
 30
0.0
 10
29.14575734566832
 20
11.5794215462811
 30
0.0
 10
28.30595546245826
 20
11.44127820262388
 30
0.0
  0
SPLINE
  5
C6
330
1F
100
AcDbEntity
  8
Default
  6
Continuous
100
AcDbSpline
210
0.0
220
0.0
230
1.0
 70
     8
 71
     3
 72
     8
 73
     4
 74
     0
 42
0.0000000001
 43
0.0000000001
 40
-1.0
 40
-1.0
 40
-1.0
 40
-1.0
 40
0.0
 40
0.0
 40
0.0
 40
0.0
 10
28.30595546245826
 20
11.44127820262388
 30
0.0
 10
28.16661691334418
 20
11.24752443078233
 30
0.0
 10
28.10792116688307
 20
11.01076723777442
 30
0.0
 10
28.06181999396169
 20
10.78069913643957
 30
0.0
  0
LINE
  5
C7
330
1F
100
AcDbEntity
  8
Default
  6
Continuous
100
AcDbLine
 10
28.06181999396169
 20
10.78069913643957
 30
0.0
 11
26.10510942743804
 21
0.1241774504554982
 31
0.0
  0
SPLINE
  5
C8
330
1F
100
AcDbEntity
  8
Default
  6
Continuous
100
AcDbSpline
210
0.0
220
0.0
230
1.0
 70
     8
 71
     3
 72
     8
 73
     4
 74
     0
 42
0.0000000001
 43
0.0000000001
 40
-1.0
 40
-1.0
 40
-1.0
 40
-1.0
 40
0.0
 40
0.0
 40
0.0
 40
0.0
 10
26.10510942743804
 20
0.1241774504554982
 30
0.0
 10
26.09589573591794
 20
0.0683820817292542
 30
0.0
 10
26.04692590812486
 20
0.0249706925771065
 30
0.0
 10
25.99219693788857
 20
0.0156780458401968
 30
0.0
  0
ARC
  5
C9
330
1F
100
AcDbEntity
  8
Default
  6
Continuous
100
AcDbCircle
 10
25.83932521231914
 20
0.7531246703774741
 30
0.0
 40
0.7531250152
100
AcDbArc
 50
237.4794572367557
 51
281.7114629076557
  0
SPLINE
  5
CA
330
1F
100
AcDbEntity
  8
Default
  6
Continuous
100
AcDbSpline
210
0.0
220
0.0
230
1.0
 70
     8
 71
     3
 72
     8
 73
     4
 74
     0
 42
0.0000000001
 43
0.0000000001
 40
-1.0
 40
-1.0
 40
-1.0
 40
-1.0
 40
0.0
 40
0.0
 40
0.0
 40
0.0
 10
25.43444372620787
 20
0.1180905998550159
 30
0.0
 10
25.38658841740488
 20
0.1462219375339515
 30
0.0
 10
25.35623136927153
 20
0.2041956358131571
 30
0.0
 10
25.36744155442492
 20
0.2596252602552909
 30
0.0
  0
LINE
  5
CB
330
1F
100
AcDbEntity
  8
Default
  6
Continuous
100
AcDbLine
 10
25.36744155442492
 20
0.2596252602552909
 30
0.0
 11
27.32415212094856
 21
10.91614694623936
 31
0.0
  0
SPLINE
  5
CC
330
1F
100
AcDbEntity
  8
Default
  6
Continuous
100
AcDbSpline
210
0.0
220
0.0
230
1.0
 70
     8
 71
     3
 72
    10
 73
     6
 74
     0
 42
0.0000000001
 43
0.0000000001
 40
0.0
 40
0.0
 40
0.0
 40
0.0
 40
1.0
 40
2.0
 40
3.0
 40
3.0
 40
3.0
 40
3.0
 10
27.32415212094856
 20
10.91614694623936
 30
0.0
 10
27.35603617599653
 20
11.09022363247404
 30
0.0
 10
27.44576119957414
 20
11.43265350126678
 30
0.0
 10
27.67403426862797
 20
11.91816061898675
 30
0.0
 10
27.96535685879802
 20
12.14864741976328
 30
0.0
 10
28.14405447896441
 20
12.17584931393515
 30
0.0
  0
LINE
  5
CD
330
1F
100
AcDbEntity
  8
Default
  6
Continuous
100
AcDbLine
 10
28.14405447896441
 20
12.17584931393515
 30
0.0
 11
29.66887059477168
 21
12.41775955029126
 31
0.0
  0
POLYLINE
  5
CE
330
1F
100
AcDbEntity
  8
Default
100
AcDb2dPolyline
 66
     1
 10
0.0
 20
0.0
 30
0.0
  0
VERTEX
  5
CF
330
CE
100
AcDbEntity
  8
Default
100
AcDbVertex
100
AcDb2dVertex
 10
29.66887059477168
 20
12.41775955029126
 30
0.0
  0
VERTEX
  5
D0
330
CE
100
AcDbEntity
  8
Default
100
AcDbVertex
100
AcDb2dVertex
 10
38.34333316281158
 20
13.52300751854703
 30
0.0
  0
SEQEND
  5
D1
330
CE
100
AcDbEntity
  8
Default
  0
SPLINE
  5
D2
330
1F
100
AcDbEntity
  8
Default
100
AcDbSpline
210
0.0
220
0.0
230
1.0
 70
    12
 71
     2
 72
     6
 73
     3
 74
     0
 42
0.0000000001
 43
0.0000000001
 40
0.0
 40
0.0
 40
0.0
 40
0.0310117036644928
 40
0.0310117036644928
 40
0.0310117036644928
 10
-9.762106123333588
 20
39.50672071727695
 30
0.0
 41
1.0
 10
-9.764638685386338
 20
39.49141345747893
 30
0.0
 41
0.9990820238187402
 10
-9.765851685972326
 20
39.47594559716623
 30
0.0
 41
1.0
  0
SPLINE
  5
D3
330
1F
100
AcDbEntity
  8
Default
100
AcDbSpline
210
0.0
220
0.0
230
1.0
 70
    12
 71
     2
 72
     6
 73
     3
 74
     0
 42
0.0000000001
 43
0.0000000001
 40
0.0
 40
0.0
 40
0.0
 40
0.028787495043254
 40
0.028787495043254
 40
0.028787495043254
 10
-9.766165054924988
 20
39.47162007093802
 30
0.0
 41
1.0
 10
-9.767119325180557
 20
39.45725046596133
 30
0.0
 41
0.9992181021449493
 10
-9.766935234709278
 20
39.44285038646141
 30
0.0
 41
1.0
  0
SPLINE
  5
D4
330
1F
100
AcDbEntity
  8
Default
100
AcDbSpline
210
0.0
220
0.0
230
1.0
 70
    12
 71
     2
 72
     6
 73
     3
 74
     0
 42
0.0000000001
 43
0.0000000001
 40
0.0
 40
0.0
 40
0.0
 40
0.033195217730056
 40
0.033195217730056
 40
0.033195217730056
 10
-9.765006721523768
 20
39.40971898691978
 30
0.0
 41
1.0
 10
-9.766722489375912
 20
39.4262391186986
 30
0.0
 41
0.9989722826092302
 10
-9.766935188309477
 20
39.44284674864617
 30
0.0
 41
1.0
  0
SPLINE
  5
D5
330
1F
100
AcDbEntity
  8
Default
100
AcDbSpline
210
0.0
220
0.0
230
1.0
 70
    12
 71
     2
 72
     6
 73
     3
 74
     0
 42
0.0000000001
 43
0.0000000001
 40
0.0
 40
0.0
 40
0.0
 40
0.2107005313025997
 40
0.2107005313025997
 40
0.2107005313025997
 10
-9.748276324223152
 20
39.58277679939609
 30
0.0
 41
1.0
 10
-9.807012832340812
 20
39.49157979543657
 30
0.0
 41
0.9573430636254009
 10
-9.805485755831848
 20
39.3831153360299
 30
0.0
 41
1.0
  0
SPLINE
  5
D6
330
1F
100
AcDbEntity
  8
Default
100
AcDbSpline
210
0.0
220
0.0
230
1.0
 70
    12
 71
     2
 72
     6
 73
     3
 74
     0
 42
0.0000000001
 43
0.0000000001
 40
0.0
 40
0.0
 40
0.0
 40
0.0775072285960061
 40
0.0775072285960061
 40
0.0775072285960061
 10
-9.625647914329596
 20
39.15538783649382
 30
0.0
 41
1.0
 10
-9.655937367715092
 20
39.17977418517804
 30
0.0
 41
0.9948893065873111
 10
-9.680709713184163
 20
39.20974877255637
 30
0.0
 41
1.0
  0
SPLINE
  5
D7
330
1F
100
AcDbEntity
  8
Default
100
AcDbSpline
210
0.0
220
0.0
230
1.0
 70
    12
 71
     2
 72
     6
 73
     3
 74
     0
 42
0.0000000001
 43
0.0000000001
 40
0.0
 40
0.0
 40
0.0
 40
0.0255765099974078
 40
0.0255765099974078
 40
0.0255765099974078
 10
-9.759864362760403
 20
39.3757292193906
 30
0.0
 41
1.0
 10
-9.762365743162658
 20
39.38827568192398
 30
0.0
 41
0.9993989632951451
 10
-9.76399177018466
 20
39.40096531005652
 30
0.0
 41
1.0
  0
SPLINE
  5
D8
330
1F
100
AcDbEntity
  8
Default
100
AcDbSpline
210
0.0
220
0.0
230
1.0
 70
    12
 71
     2
 72
     6
 73
     3
 74
     0
 42
0.0000000001
 43
0.0000000001
 40
0.0
 40
0.0
 40
0.0
 40
0.0317758659587442
 40
0.0317758659587442
 40
0.0317758659587442
 10
-9.156317654153927
 20
39.15072689914884
 30
0.0
 41
1.0
 10
-9.168706891003676
 20
39.14076382703163
 30
0.0
 41
0.9990220049606291
 10
-9.181927873092459
 20
39.1319342388
 30
0.0
 41
1.0
  0
SPLINE
  5
D9
330
1F
100
AcDbEntity
  8
Default
100
AcDbSpline
210
0.0
220
0.0
230
1.0
 70
    12
 71
     2
 72
     6
 73
     3
 74
     0
 42
0.0000000001
 43
0.0000000001
 40
0.0
 40
0.0
 40
0.0
 40
0.1106823209337032
 40
0.1106823209337032
 40
0.1106823209337032
 10
-9.186944642438498
 20
39.12864420049214
 30
0.0
 41
1.0
 10
-9.233856605657273
 20
39.09847556185294
 30
0.0
 41
0.9883664027738659
 10
-9.287668281266344
 20
39.08380645763602
 30
0.0
 41
1.0
  0
SPLINE
  5
DA
330
1F
100
AcDbEntity
  8
Default
100
AcDbSpline
210
0.0
220
0.0
230
1.0
 70
    12
 71
     2
 72
     6
 73
     3
 74
     0
 42
0.0000000001
 43
0.0000000001
 40
0.0
 40
0.0
 40
0.0
 40
0.1869642008515581
 40
0.1869642008515581
 40
0.1869642008515581
 10
-9.45777574363918
 20
39.07743139809124
 30
0.0
 41
1.0
 10
-9.551469382983097
 20
39.09539769795383
 30
0.0
 41
0.9701053716359117
 10
-9.625667161072727
 20
39.15536415283336
 30
0.0
 41
1.0
  0
SPLINE
  5
DB
330
1F
100
AcDbEntity
  8
Default
100
AcDbSpline
210
0.0
220
0.0
230
1.0
 70
    12
 71
     2
 72
     6
 73
     3
 74
     0
 42
0.0000000001
 43
0.0000000001
 40
0.0
 40
0.0
 40
0.0
 40
0.1858148263794706
 40
0.1858148263794706
 40
0.1858148263794706
 10
-9.68074743307629
 20
39.20971733306783
 30
0.0
 41
1.0
 10
-9.74136785649777
 20
39.28268578211328
 30
0.0
 41
0.9693432921039179
 10
-9.759909622238284
 20
39.37572036286219
 30
0.0
 41
1.0
  0
SPLINE
  5
DC
330
1F
100
AcDbEntity
  8
Default
100
AcDbSpline
210
0.0
220
0.0
230
1.0
 70
    12
 71
     2
 72
     6
 73
     3
 74
     0
 42
0.0000000001
 43
0.0000000001
 40
0.0
 40
0.0
 40
0.0
 40
0.0317758659587442
 40
0.0317758659587442
 40
0.0317758659587442
 10
9.156317654153927
 20
39.15072689914884
 30
0.0
 41
1.0
 10
9.168706891003676
 20
39.14076382703163
 30
0.0
 41
0.9990220049606291
 10
9.181927873092459
 20
39.1319342388
 30
0.0
 41
1.0
  0
SPLINE
  5
DD
330
1F
100
AcDbEntity
  8
Default
100
AcDbSpline
210
0.0
220
0.0
230
1.0
 70
    12
 71
     2
 72
     6
 73
     3
 74
     0
 42
0.0000000001
 43
0.0000000001
 40
0.0
 40
0.0
 40
0.0
 40
0.1106823209337032
 40
0.1106823209337032
 40
0.1106823209337032
 10
9.186944642438498
 20
39.12864420049214
 30
0.0
 41
1.0
 10
9.233856605657273
 20
39.09847556185294
 30
0.0
 41
0.9883664027738659
 10
9.287668281266344
 20
39.08380645763602
 30
0.0
 41
1.0
  0
SPLINE
  5
DE
330
1F
100
AcDbEntity
  8
Default
100
AcDbSpline
210
0.0
220
0.0
230
1.0
 70
    12
 71
     2
 72
     6
 73
     3
 74
     0
 42
0.0000000001
 43
0.0000000001
 40
0.0
 40
0.0
 40
0.0
 40
0.0319605526000054
 40
0.0319605526000054
 40
0.0319605526000054
 10
-9.725925569148858
 20
39.61496562162895
 30
0.0
 41
1.0
 10
-9.71848261381561
 20
39.62911899816121
 30
0.0
 41
0.998983932462457
 10
-9.709795467658733
 20
39.64254468782714
 30
0.0
 41
1.0
  0
SPLINE
  5
DF
330
1F
100
AcDbEntity
  8
Default
100
AcDbSpline
210
0.0
220
0.0
230
1.0
 70
    12
 71
     2
 72
     6
 73
     3
 74
     0
 42
0.0000000001
 43
0.0000000001
 40
0.0
 40
0.0
 40
0.0
 40
0.0088132216251208
 40
0.0088132216251208
 40
0.0088132216251208
 10
-9.764019394411509
 20
39.4009617711609
 30
0.0
 41
1.0
 10
-9.764576904450138
 20
39.40533318314036
 30
0.0
 41
0.9999288897077908
 10
-9.76503000152393
 20
39.40971664788629
 30
0.0
 41
1.0
  0
SPLINE
  5
E0
330
1F
100
AcDbEntity
  8
Default
100
AcDbSpline
210
0.0
220
0.0
230
1.0
 70
    12
 71
     2
 72
     6
 73
     3
 74
     0
 42
0.0000000001
 43
0.0000000001
 40
0.0
 40
0.0
 40
0.0
 40
0.1109958261616701
 40
0.1109958261616701
 40
0.1109958261616701
 10
-9.762158322250453
 20
39.50672935550242
 30
0.0
 41
1.0
 10
-9.753108096882366
 20
39.56194184018124
 30
0.0
 41
0.9879419355571115
 10
-9.727601375081134
 20
39.61173874958912
 30
0.0
 41
1.0
  0
SPLINE
  5
E1
330
1F
100
AcDbEntity
  8
Default
100
AcDbSpline
210
0.0
220
0.0
230
1.0
 70
    12
 71
     2
 72
     6
 73
     3
 74
     0
 42
0.0000000001
 43
0.0000000001
 40
0.0
 40
0.0
 40
0.0
 40
0.0043371591519316
 40
0.0043371591519316
 40
0.0043371591519316
 10
-9.766191781853092
 20
39.47162184724056
 30
0.0
 41
1.0
 10
-9.766049182760744
 20
39.4737857589147
 30
0.0
 41
0.9999823206938738
 10
-9.76588085973847
 20
39.47594782172482
 30
0.0
 41
1.0
  0
SPLINE
  5
E2
330
1F
100
AcDbEntity
  8
Default
100
AcDbSpline
210
0.0
220
0.0
230
1.0
 70
    12
 71
     2
 72
     8
 73
     5
 74
     0
 42
0.0000000001
 43
0.0000000001
 40
0.0
 40
0.0
 40
0.0
 40
0.585932424830423
 40
0.585932424830423
 40
0.8238178346840273
 40
0.8238178346840273
 40
0.8238178346840273
 10
-8.896006371610767
 20
59.02301040164409
 30
0.0
 41
1.0
 10
-9.264165649830543
 20
59.01300735134051
 30
0.0
 41
0.7196343119387673
 10
-9.267329614110686
 20
58.64472579534738
 30
0.0
 41
1.0
 10
-9.267575724899507
 20
58.52123416450549
 30
0.0
 41
0.9456482824480639
 10
-9.191818352103057
 20
58.42370948083265
 30
0.0
 41
1.0
  0
SPLINE
  5
E3
330
1F
100
AcDbEntity
  8
Default
100
AcDbSpline
210
0.0
220
0.0
230
1.0
 70
    12
 71
     2
 72
     8
 73
     5
 74
     0
 42
0.0000000001
 43
0.0000000001
 40
0.0
 40
0.0
 40
0.0
 40
0.585899679359591
 40
0.585899679359591
 40
0.9884639559915314
 40
0.9884639559915314
 40
0.9884639559915314
 10
-9.805485755831848
 20
39.3831153360299
 30
0.0
 41
1.0
 10
-9.7972622927172
 20
39.01442365487475
 30
0.0
 41
0.7182632240215047
 10
-9.42849558491926
 20
39.01091704419316
 30
0.0
 41
1.0
 10
-9.203704597893596
 20
39.00727215231599
 30
0.0
 41
0.8501034273344662
 10
-9.100330080613652
 20
39.20691679226885
 30
0.0
 41
1.0
  0
SPLINE
  5
E4
330
1F
100
AcDbEntity
  8
Default
100
AcDbSpline
210
0.0
220
0.0
230
1.0
 70
    12
 71
     2
 72
     6
 73
     3
 74
     0
 42
0.0000000001
 43
0.0000000001
 40
0.0
 40
0.0
 40
0.0
 40
0.1869642008515581
 40
0.1869642008515581
 40
0.1869642008515581
 10
9.45777574363918
 20
39.07743139809124
 30
0.0
 41
1.0
 10
9.551469382983097
 20
39.09539769795383
 30
0.0
 41
0.9701053716359117
 10
9.625667161072727
 20
39.15536415283336
 30
0.0
 41
1.0
  0
SPLINE
  5
E5
330
1F
100
AcDbEntity
  8
Default
100
AcDbSpline
210
0.0
220
0.0
230
1.0
 70
     8
 71
     3
 72
    29
 73
    25
 74
     0
 42
0.0000000001
 43
0.0000000001
 40
0.0
 40
0.0
 40
0.0
 40
0.0
 40
2.257939160687559
 40
3.460090082667903
 40
4.549419753990929
 40
5.356617594024712
 40
6.061127480974345
 40
6.725643933770008
 40
7.325610221583585
 40
7.661862715363807
 40
7.964471505277782
 40
8.093862297642254
 40
8.256330354794526
 40
8.628252027004171
 40
9.30472595330115
 40
10.05687033612012
 40
10.91605301242963
 40
11.83943371904452
 40
12.33927648537644
 40
12.58490568803674
 40
12.79161249233287
 40
13.09341337674144
 40
13.22490499687746
 40
13.32294297409648
 40
13.32294297409648
 40
13.32294297409648
 40
13.32294297409648
 10
0.0000165306264268
 20
64.2739348600854
 30
0.0
 10
-0.7525995940426409
 20
64.27383428500258
 30
0.0
 10
-1.906077463714461
 20
64.21410319797258
 30
0.0
 10
-3.409594873848703
 20
64.01228502637825
 30
0.0
 10
-4.425909735305922
 20
63.82597668617692
 30
0.0
 10
-5.265942635838594
 20
63.60800498532856
 30
0.0
 10
-5.946074035070762
 20
63.35230378233307
 30
0.0
 10
-6.530775758001129
 20
63.05156184563977
 30
0.0
 10
-6.970158565011968
 20
62.74644656274961
 30
0.0
 10
-7.278055841895638
 20
62.47047140430271
 30
0.0
 10
-7.454108380903721
 20
62.28431347202826
 30
0.0
 10
-7.579591720991964
 20
62.13077458082569
 30
0.0
 10
-7.710427303241538
 20
61.95234754214997
 30
0.0
 10
-7.936158366784794
 20
61.61746038785948
 30
0.0
 10
-8.219426811562931
 20
61.08676064179318
 30
0.0
 10
-8.482535148784237
 20
60.36920716992658
 30
0.0
 10
-8.680613447081566
 20
59.54673276814906
 30
0.0
 10
-8.782084421468216
 20
58.79164932137168
 30
0.0
 10
-8.811732866976127
 20
58.23595117754505
 30
0.0
 10
-8.815657113532312
 20
57.9185364904972
 30
0.0
 10
-8.812155133456503
 20
57.66722385406446
 30
0.0
 10
-8.79471973496953
 20
57.45414077500433
 30
0.0
 10
-8.759130943106323
 20
57.28049209744071
 30
0.0
 10
-8.73949592630431
 20
57.20649705351745
 30
0.0
 10
-8.728926908925722
 20
57.17556015374393
 30
0.0
  0
SPLINE
  5
E6
330
1F
100
AcDbEntity
  8
Default
100
AcDbSpline
210
0.0
220
0.0
230
1.0
 70
    12
 71
     2
 72
     6
 73
     3
 74
     0
 42
0.0000000001
 43
0.0000000001
 40
0.0
 40
0.0
 40
0.0
 40
0.1496403693190609
 40
0.1496403693190609
 40
0.1496403693190609
 10
8.749704443772195
 20
58.99689973353844
 30
0.0
 41
1.0
 10
8.820166931347272
 20
59.02501899068893
 30
0.0
 41
0.9794495273201224
 10
8.896006400313093
 20
59.02301157320713
 30
0.0
 41
1.0
  0
SPLINE
  5
E7
330
1F
100
AcDbEntity
  8
Default
100
AcDbSpline
210
0.0
220
0.0
230
1.0
 70
    24
 71
     2
 72
     6
 73
     3
 74
     0
 42
0.0000000001
 43
0.0000000001
 40
0.0
 40
0.0
 40
0.0
 40
0.0476939851555702
 40
0.0476939851555702
 40
0.0476939851555702
 10
-9.20754231944165
 20
58.44388564022303
 30
0.0
 10
-9.222198450482038
 20
58.46269725572867
 30
0.0
 10
-9.236854581522426
 20
58.4815088712343
 30
0.0
  0
SPLINE
  5
E8
330
1F
100
AcDbEntity
  8
Default
100
AcDbSpline
210
0.0
220
0.0
230
1.0
 70
    12
 71
     2
 72
     6
 73
     3
 74
     0
 42
0.0000000001
 43
0.0000000001
 40
0.0
 40
0.0
 40
0.0
 40
1.698902283157683
 40
1.698902283157683
 40
1.698902283157683
 10
-8.158346089710987
 20
40.66327759128768
 30
0.0
 41
1.0
 10
-8.618949735580616
 20
39.94954688336765
 30
0.0
 41
0.9999999999136253
 10
-9.079572143007223
 20
39.23582828350234
 30
0.0
 41
1.0
  0
SPLINE
  5
E9
330
1F
100
AcDbEntity
  8
Default
100
AcDbSpline
210
0.0
220
0.0
230
1.0
 70
    12
 71
     2
 72
     8
 73
     5
 74
     0
 42
0.0000000001
 43
0.0000000001
 40
0.0
 40
0.0
 40
0.0
 40
0.1034429179618575
 40
0.1034429179618575
 40
0.1717001579871532
 40
0.1717001579871532
 40
0.1717001579871532
 10
-9.287684252779533
 20
39.08386519266674
 30
0.0
 41
1.0
 10
-9.337891475663072
 20
39.07011380875139
 30
0.0
 41
0.990377410951852
 10
-9.389945063796686
 20
39.07065209462415
 30
0.0
 41
1.0
 10
-9.424164805542867
 20
39.07099621549428
 30
0.0
 41
0.9959350653995883
 10
-9.457767533346605
 20
39.07747431926749
 30
0.0
 41
1.0
  0
SPLINE
  5
EA
330
1F
100
AcDbEntity
  8
Default
100
AcDbSpline
210
0.0
220
0.0
230
1.0
 70
    12
 71
     2
 72
     6
 73
     3
 74
     0
 42
0.0000000001
 43
0.0000000001
 40
0.0
 40
0.0
 40
0.0
 40
0.115088042770518
 40
0.115088042770518
 40
0.115088042770518
 10
-9.079563829022343
 20
39.23582291906797
 30
0.0
 41
1.0
 10
-9.111046901956993
 20
39.18705676213389
 30
0.0
 41
0.9870819617354393
 10
-9.156338071380695
 20
39.15075205285586
 30
0.0
 41
1.0
  0
SPLINE
  5
EB
330
1F
100
AcDbEntity
  8
Default
100
AcDbSpline
210
0.0
220
0.0
230
1.0
 70
    12
 71
     2
 72
     6
 73
     3
 74
     0
 42
0.0000000001
 43
0.0000000001
 40
0.0
 40
0.0
 40
0.0
 40
0.0059983484682799
 40
0.0059983484682799
 40
0.0059983484682799
 10
-9.181967545849878
 20
39.13199377997345
 30
0.0
 41
1.0
 10
-9.184463493659552
 20
39.13033073933445
 30
0.0
 41
0.9999655201620198
 10
-9.186986716477032
 20
39.12870937995142
 30
0.0
 41
1.0
  0
SPLINE
  5
EC
330
1F
100
AcDbEntity
  8
Default
100
AcDbSpline
210
0.0
220
0.0
230
1.0
 70
    12
 71
     2
 72
     6
 73
     3
 74
     0
 42
0.0000000001
 43
0.0000000001
 40
0.0
 40
0.0
 40
0.0
 40
0.2421104190276293
 40
0.2421104190276293
 40
0.2421104190276293
 10
-6.749430089137141
 20
55.97156053248574
 30
0.0
 41
1.0
 10
-6.860988439179542
 20
56.01858204519936
 30
0.0
 41
0.9999015246256691
 10
-6.971183219087479
 20
56.06871585218729
 30
0.0
 41
1.0
  0
SPLINE
  5
ED
330
1F
100
AcDbEntity
  8
Default
100
AcDbSpline
210
0.0
220
0.0
230
1.0
 70
    12
 71
     2
 72
     6
 73
     3
 74
     0
 42
0.0000000001
 43
0.0000000001
 40
0.0
 40
0.0
 40
0.0
 40
1.914609764861617
 40
1.914609764861617
 40
1.914609764861617
 10
-9.709739358581002
 20
39.64250910709967
 30
0.0
 41
1.0
 10
-9.190644551569196
 20
40.44685556168625
 30
0.0
 41
0.999999999999819
 10
-8.671550712043
 20
41.25120264090274
 30
0.0
 41
1.0
  0
SPLINE
  5
EE
330
1F
100
AcDbEntity
  8
Default
100
AcDbSpline
210
0.0
220
0.0
230
1.0
 70
     8
 71
     3
 72
    16
 73
    12
 74
     0
 42
0.0000000001
 43
0.0000000001
 40
0.0
 40
0.0
 40
0.0
 40
0.0
 40
0.3929806094830499
 40
1.161485275626432
 40
1.434077379933263
 40
1.997193789902762
 40
2.236176104316814
 40
2.436878414714674
 40
2.615177840443278
 40
2.699855064475192
 40
2.788091875082257
 40
2.788091875082257
 40
2.788091875082257
 40
2.788091875082257
 10
-5.674848069138379
 20
56.51310958447013
 30
0.0
 10
-5.799561249276954
 20
56.47289768383393
 30
0.0
 10
-6.166669842979644
 20
56.35030038658709
 30
0.0
 10
-6.615960044732951
 20
56.18620404374182
 30
0.0
 10
-7.123092844110774
 20
56.01756938875616
 30
0.0
 10
-7.469650017889666
 20
55.9222027362005
 30
0.0
 10
-7.804736550048147
 20
55.89771593189128
 30
0.0
 10
-8.009497209215496
 20
55.93546596078132
 30
0.0
 10
-8.146968654542693
 20
56.01116797719902
 30
0.0
 10
-8.228033861398774
 20
56.09701832128272
 30
0.0
 10
-8.258580006476759
 20
56.14594404007711
 30
0.0
 10
-8.272122715478968
 20
56.17212691850163
 30
0.0
  0
SPLINE
  5
EF
330
1F
100
AcDbEntity
  8
Default
100
AcDbSpline
210
0.0
220
0.0
230
1.0
 70
     8
 71
     3
 72
    42
 73
    38
 74
     0
 42
0.0000000001
 43
0.0000000001
 40
0.0
 40
0.0
 40
0.0
 40
0.0
 40
1.516620863392709
 40
2.826776562584004
 40
4.929964676686994
 40
5.854074639093991
 40
6.654182431560953
 40
7.366796927983043
 40
8.013353623941308
 40
8.582775777476089
 40
9.14432336109235
 40
10.27241354955484
 40
10.55940406165225
 40
10.88698182031156
 40
11.38818442491691
 40
11.86763469448308
 40
12.76788888255603
 40
13.84082233621212
 40
15.57751585932661
 40
17.34174065012489
 40
18.98978961022311
 40
19.74149517604984
 40
20.29777565707634
 40
21.1692007953702
 40
21.98338072426363
 40
22.73983168263268
 40
23.48183490032807
 40
24.25285823176282
 40
25.01647725514974
 40
25.80905458703584
 40
26.63793784656495
 40
27.08161107010815
 40
27.58336887320954
 40
28.74750962886867
 40
30.27600043858114
 40
31.09125534884795
 40
31.8189308948828
 40
31.8189308948828
 40
31.8189308948828
 40
31.8189308948828
 10
0.0000165310190727
 20
39.08096297189042
 30
0.0
 10
-0.5055168835953694
 20
39.08062701504146
 30
0.0
 10
-1.447809561787656
 20
39.09033076451324
 30
0.0
 10
-3.090158894043852
 20
39.15007538594408
 30
0.0
 10
-4.530791742475261
 20
39.29182809218067
 30
0.0
 10
-5.783842944787689
 20
39.53799339960396
 30
0.0
 10
-6.56648579565257
 20
39.75792042069871
 30
0.0
 10
-7.234353929602245
 20
40.03055186300604
 30
0.0
 10
-7.792220641626034
 20
40.35330584325327
 30
0.0
 10
-8.25268859319469
 20
40.72963918400548
 30
0.0
 10
-8.749252616553198
 20
41.29942610134572
 30
0.0
 10
-9.044883617507532
 20
41.89872541966003
 30
0.0
 10
-9.196195432490951
 20
42.45952009227316
 30
0.0
 10
-9.264546568422512
 20
42.82549744037985
 30
0.0
 10
-9.33182873180636
 20
43.25618445246351
 30
0.0
 10
-9.40507707754944
 20
43.87910592986574
 30
0.0
 10
-9.458859778627957
 20
44.69517891067181
 30
0.0
 10
-9.47459852985206
 20
45.93201067233228
 30
0.0
 10
-9.443335054404496
 20
47.45643426079467
 30
0.0
 10
-9.354949160377924
 20
49.17073392510174
 30
0.0
 10
-9.237050084357689
 20
50.55392096141893
 30
0.0
 10
-9.122254643097884
 20
51.53265319707053
 30
0.0
 10
-9.01610941015643
 20
52.25145426859871
 30
0.0
 10
-8.847809402027384
 20
52.98076036607108
 30
0.0
 10
-8.577019578687405
 20
53.74982610495572
 30
0.0
 10
-8.227421682213429
 20
54.43905377936848
 30
0.0
 10
-7.79206943511014
 20
55.06012350484085
 30
0.0
 10
-7.26217612390789
 20
55.60715888980606
 30
0.0
 10
-6.635822709988893
 20
56.06910556177639
 30
0.0
 10
-5.927018021719956
 20
56.43442100950064
 30
0.0
 10
-5.273967461724334
 20
56.65747727307857
 30
0.0
 10
-4.69788017622847
 20
56.79210883298085
 30
0.0
 10
-4.005419385042305
 20
56.91626515937254
 30
0.0
 10
-2.94700824449785
 20
57.03713155647063
 30
0.0
 10
-1.779926109311246
 20
57.11267576973142
 30
0.0
 10
-0.7568138863120222
 20
57.15116806706131
 30
0.0
 10
-0.2425437279076998
 20
57.16039760745115
 30
0.0
 10
0.0000165310189466
 20
57.16061730110636
 30
0.0
  0
SPLINE
  5
F0
330
1F
100
AcDbEntity
  8
Default
100
AcDbSpline
210
0.0
220
0.0
230
1.0
 70
    12
 71
     2
 72
     8
 73
     5
 74
     0
 42
0.0000000001
 43
0.0000000001
 40
0.0
 40
0.0
 40
0.0
 40
0.5859429354961714
 40
0.5859429354961714
 40
0.8238486331554261
 40
0.8238486331554261
 40
0.8238486331554261
 10
8.941039696235356
 20
59.08081325671392
 30
0.0
 41
1.0
 10
9.309218957102637
 20
59.07084189787783
 30
0.0
 41
0.7196005445896396
 10
9.312379485900449
 20
58.70254119575043
 30
0.0
 41
1.0
 10
9.312623219705712
 20
58.57903863492572
 30
0.0
 41
0.9456438305804997
 10
9.236854580013976
 20
58.48150886933751
 30
0.0
 41
1.0
  0
SPLINE
  5
F1
330
1F
100
AcDbEntity
  8
Default
100
AcDbSpline
210
0.0
220
0.0
230
1.0
 70
    12
 71
     2
 72
     6
 73
     3
 74
     0
 42
0.0000000001
 43
0.0000000001
 40
0.0
 40
0.0
 40
0.0
 40
0.6068240252645541
 40
0.6068240252645541
 40
0.6068240252645541
 10
-8.818866406423778
 20
57.94500530122974
 30
0.0
 41
1.0
 10
-9.005329902074225
 20
58.18435904420887
 30
0.0
 41
0.9999999993582397
 10
-9.191810547542005
 20
58.42369942599662
 30
0.0
 41
1.0
  0
SPLINE
  5
F2
330
1F
100
AcDbEntity
  8
Default
100
AcDbSpline
210
0.0
220
0.0
230
1.0
 70
    24
 71
     2
 72
     6
 73
     3
 74
     0
 42
0.0000000001
 43
0.0000000001
 40
0.0
 40
0.0
 40
0.0
 40
0.0675409205343179
 40
0.0675409205343179
 40
0.0675409205343179
 10
-9.74827632472008
 20
39.58277679863138
 30
0.0
 10
-9.72996450030189
 20
39.61115145410299
 30
0.0
 10
-9.7116526758837
 20
39.63952610957462
 30
0.0
  0
SPLINE
  5
F3
330
1F
100
AcDbEntity
  8
Default
100
AcDbSpline
210
0.0
220
0.0
230
1.0
 70
    12
 71
     2
 72
     6
 73
     3
 74
     0
 42
0.0000000001
 43
0.0000000001
 40
0.0
 40
0.0
 40
0.0
 40
0.2044959339101838
 40
0.2044959339101838
 40
0.2044959339101838
 10
8.74554937578555
 20
59.03053659695139
 30
0.0
 41
1.0
 10
8.83609128348147
 20
59.08368327408211
 30
0.0
 41
0.9613128228848913
 10
8.941039696235356
 20
59.08081325671392
 30
0.0
 41
1.0
  0
SPLINE
  5
F4
330
1F
100
AcDbEntity
  8
Default
100
AcDbSpline
210
0.0
220
0.0
230
1.0
 70
     8
 71
     3
 72
    28
 73
    24
 74
     0
 42
0.0000000001
 43
0.0000000001
 40
0.0
 40
0.0
 40
0.0
 40
0.0
 40
0.1056753563021762
 40
0.254003820800577
 40
0.5729833083799895
 40
0.9705457745969663
 40
1.417102958837682
 40
2.312885158589451
 40
3.143270735001634
 40
3.866481523766936
 40
4.563468508603691
 40
4.912878154510834
 40
5.235693397770641
 40
5.877822823574495
 40
6.187250501844828
 40
6.508807919014306
 40
7.158424290978509
 40
7.819744961790179
 40
8.58344184735344
 40
9.061524614090164
 40
9.648561744110188
 40
10.77546253423588
 40
12.98833298296233
 40
12.98833298296233
 40
12.98833298296233
 40
12.98833298296233
 10
-8.272277877278555
 20
56.17204631888458
 30
0.0
 10
-8.28849648147273
 20
56.20337453164157
 30
0.0
 10
-8.319560181288704
 20
56.28220452647108
 30
0.0
 10
-8.37771313167784
 20
56.46433743099276
 30
0.0
 10
-8.429368804195406
 20
56.74874143870819
 30
0.0
 10
-8.454048389298205
 20
57.13596167054108
 30
0.0
 10
-8.45960645738096
 20
57.71606081957178
 30
0.0
 10
-8.400842286219488
 20
58.43925586352556
 30
0.0
 10
-8.239610662288017
 20
59.24120058277087
 30
0.0
 10
-7.99256418131437
 20
59.95168905029045
 30
0.0
 10
-7.714671706180098
 20
60.47398358525776
 30
0.0
 10
-7.461312301347373
 20
60.85368832888161
 30
0.0
 10
-7.191170430567645
 20
61.19929987581111
 30
0.0
 10
-6.884369216358432
 20
61.49530853108273
 30
0.0
 10
-6.551703079137711
 20
61.75868904442085
 30
0.0
 10
-6.1982950618975
 20
61.99884529560849
 30
0.0
 10
-5.720767059884976
 20
62.26170657048047
 30
0.0
 10
-5.077658018950844
 20
62.51939679966183
 30
0.0
 10
-4.465036345102861
 20
62.68726221865582
 30
0.0
 10
-3.868389969856395
 20
62.81207209751682
 30
0.0
 10
-3.148568065136236
 20
62.93852819687017
 30
0.0
 10
-1.85074994479803
 20
63.11155586258464
 30
0.0
 10
-0.7376029356311182
 20
63.1731486312439
 30
0.0
 10
0.0000595402325132
 20
63.17117408255705
 30
0.0
  0
SPLINE
  5
F5
330
1F
100
AcDbEntity
  8
Default
100
AcDbSpline
210
0.0
220
0.0
230
1.0
 70
    12
 71
     2
 72
     8
 73
     5
 74
     0
 42
0.0000000001
 43
0.0000000001
 40
0.0
 40
0.0
 40
0.0
 40
0.5859429354961714
 40
0.5859429354961714
 40
0.8238486331554261
 40
0.8238486331554261
 40
0.8238486331554261
 10
-8.941039696235356
 20
59.08081325671392
 30
0.0
 41
1.0
 10
-9.309218957102637
 20
59.07084189787783
 30
0.0
 41
0.7196005445896396
 10
-9.312379485900449
 20
58.70254119575043
 30
0.0
 41
1.0
 10
-9.312623219705712
 20
58.57903863492572
 30
0.0
 41
0.9456438305804997
 10
-9.236854580013976
 20
58.48150886933751
 30
0.0
 41
1.0
  0
SPLINE
  5
F6
330
1F
100
AcDbEntity
  8
Default
100
AcDbSpline
210
0.0
220
0.0
230
1.0
 70
    12
 71
     2
 72
     6
 73
     3
 74
     0
 42
0.0000000001
 43
0.0000000001
 40
0.0
 40
0.0
 40
0.0
 40
0.2044959339101838
 40
0.2044959339101838
 40
0.2044959339101838
 10
-8.74554937578555
 20
59.03053659695139
 30
0.0
 41
1.0
 10
-8.83609128348147
 20
59.08368327408211
 30
0.0
 41
0.9613128228848913
 10
-8.941039696235356
 20
59.08081325671392
 30
0.0
 41
1.0
  0
SPLINE
  5
F7
330
1F
100
AcDbEntity
  8
Default
100
AcDbSpline
210
0.0
220
0.0
230
1.0
 70
    12
 71
     2
 72
     6
 73
     3
 74
     0
 42
0.0000000001
 43
0.0000000001
 40
0.0
 40
0.0
 40
0.0
 40
0.1496403693190609
 40
0.1496403693190609
 40
0.1496403693190609
 10
-8.749704443772195
 20
58.99689973353844
 30
0.0
 41
1.0
 10
-8.820166931347272
 20
59.02501899068893
 30
0.0
 41
0.9794495273201224
 10
-8.896006400313093
 20
59.02301157320713
 30
0.0
 41
1.0
  0
SPLINE
  5
F8
330
1F
100
AcDbEntity
  8
Default
100
AcDbSpline
210
0.0
220
0.0
230
1.0
 70
    12
 71
     2
 72
     6
 73
     3
 74
     0
 42
0.0000000001
 43
0.0000000001
 40
0.0
 40
0.0
 40
0.0
 40
0.1858148263794706
 40
0.1858148263794706
 40
0.1858148263794706
 10
9.68074743307629
 20
39.20971733306783
 30
0.0
 41
1.0
 10
9.74136785649777
 20
39.28268578211328
 30
0.0
 41
0.9693432921039179
 10
9.759909622238284
 20
39.37572036286219
 30
0.0
 41
1.0
  0
SPLINE
  5
F9
330
1F
100
AcDbEntity
  8
Default
100
AcDbSpline
210
0.0
220
0.0
230
1.0
 70
    12
 71
     2
 72
     6
 73
     3
 74
     0
 42
0.0000000001
 43
0.0000000001
 40
0.0
 40
0.0
 40
0.0
 40
0.0088132216251208
 40
0.0088132216251208
 40
0.0088132216251208
 10
9.764019394411509
 20
39.4009617711609
 30
0.0
 41
1.0
 10
9.764576904450138
 20
39.40533318314036
 30
0.0
 41
0.9999288897077908
 10
9.76503000152393
 20
39.40971664788629
 30
0.0
 41
1.0
  0
SPLINE
  5
FA
330
1F
100
AcDbEntity
  8
Default
100
AcDbSpline
210
0.0
220
0.0
230
1.0
 70
    12
 71
     2
 72
     6
 73
     3
 74
     0
 42
0.0000000001
 43
0.0000000001
 40
0.0
 40
0.0
 40
0.0
 40
0.0043371591519316
 40
0.0043371591519316
 40
0.0043371591519316
 10
9.766191781853092
 20
39.47162184724056
 30
0.0
 41
1.0
 10
9.766049182760744
 20
39.4737857589147
 30
0.0
 41
0.9999823206938738
 10
9.76588085973847
 20
39.47594782172482
 30
0.0
 41
1.0
  0
SPLINE
  5
FB
330
1F
100
AcDbEntity
  8
Default
100
AcDbSpline
210
0.0
220
0.0
230
1.0
 70
    12
 71
     2
 72
     6
 73
     3
 74
     0
 42
0.0000000001
 43
0.0000000001
 40
0.0
 40
0.0
 40
0.0
 40
0.1109958261616701
 40
0.1109958261616701
 40
0.1109958261616701
 10
9.762158322250453
 20
39.50672935550242
 30
0.0
 41
1.0
 10
9.753108096882366
 20
39.56194184018124
 30
0.0
 41
0.9879419355571115
 10
9.727601375081134
 20
39.61173874958912
 30
0.0
 41
1.0
  0
SPLINE
  5
FC
330
1F
100
AcDbEntity
  8
Default
100
AcDbSpline
210
0.0
220
0.0
230
1.0
 70
    12
 71
     2
 72
     6
 73
     3
 74
     0
 42
0.0000000001
 43
0.0000000001
 40
-1.077778516170859
 40
-1.077778516170859
 40
-1.077778516170859
 40
0.0
 40
0.0
 40
0.0
 10
-8.728926908925722
 20
57.17556015374393
 30
0.0
 41
1.0
 10
-8.525496684971436
 20
56.65567786119363
 30
0.0
 41
0.9985225115608722
 10
-8.275292616799408
 20
56.17779425159577
 30
0.0
 41
1.0
  0
SPLINE
  5
FD
330
1F
100
AcDbEntity
  8
Default
100
AcDbSpline
210
0.0
220
0.0
230
1.0
 70
    12
 71
     2
 72
     6
 73
     3
 74
     0
 42
0.0000000001
 43
0.0000000001
 40
-1.077778516170859
 40
-1.077778516170859
 40
-1.077778516170859
 40
0.0
 40
0.0
 40
0.0
 10
8.728926908925722
 20
57.17556015374393
 30
0.0
 41
1.0
 10
8.525496684971436
 20
56.65567786119363
 30
0.0
 41
0.9985225115608722
 10
8.275292616799408
 20
56.17779425159577
 30
0.0
 41
1.0
  0
SPLINE
  5
FE
330
1F
100
AcDbEntity
  8
Default
100
AcDbSpline
210
0.0
220
0.0
230
1.0
 70
    12
 71
     2
 72
     6
 73
     3
 74
     0
 42
0.0000000001
 43
0.0000000001
 40
0.0
 40
0.0
 40
0.0
 40
0.0319605526000054
 40
0.0319605526000054
 40
0.0319605526000054
 10
9.725925569148858
 20
39.61496562162895
 30
0.0
 41
1.0
 10
9.71848261381561
 20
39.62911899816121
 30
0.0
 41
0.998983932462457
 10
9.709795467658733
 20
39.64254468782714
 30
0.0
 41
1.0
  0
SPLINE
  5
FF
330
1F
100
AcDbEntity
  8
Default
100
AcDbSpline
210
0.0
220
0.0
230
1.0
 70
    12
 71
     2
 72
     8
 73
     5
 74
     0
 42
0.0000000001
 43
0.0000000001
 40
0.0
 40
0.0
 40
0.0
 40
0.585932424830423
 40
0.585932424830423
 40
0.8238178346840273
 40
0.8238178346840273
 40
0.8238178346840273
 10
8.896006371610767
 20
59.02301040164409
 30
0.0
 41
1.0
 10
9.264165649830543
 20
59.01300735134051
 30
0.0
 41
0.7196343119387673
 10
9.267329614110686
 20
58.64472579534738
 30
0.0
 41
1.0
 10
9.267575724899507
 20
58.52123416450549
 30
0.0
 41
0.9456482824480639
 10
9.191818352103057
 20
58.42370948083265
 30
0.0
 41
1.0
  0
SPLINE
  5
100
330
1F
100
AcDbEntity
  8
Default
100
AcDbSpline
210
0.0
220
0.0
230
1.0
 70
    12
 71
     2
 72
     8
 73
     5
 74
     0
 42
0.0000000001
 43
0.0000000001
 40
0.0
 40
0.0
 40
0.0
 40
0.585899679359591
 40
0.585899679359591
 40
0.9884639559915314
 40
0.9884639559915314
 40
0.9884639559915314
 10
9.805485755831848
 20
39.3831153360299
 30
0.0
 41
1.0
 10
9.7972622927172
 20
39.01442365487475
 30
0.0
 41
0.7182632240215047
 10
9.42849558491926
 20
39.01091704419316
 30
0.0
 41
1.0
 10
9.203704597893596
 20
39.00727215231599
 30
0.0
 41
0.8501034273344662
 10
9.100330080613652
 20
39.20691679226885
 30
0.0
 41
1.0
  0
SPLINE
  5
101
330
1F
100
AcDbEntity
  8
Default
100
AcDbSpline
210
0.0
220
0.0
230
1.0
 70
    12
 71
     2
 72
     6
 73
     3
 74
     0
 42
0.0000000001
 43
0.0000000001
 40
0.0
 40
0.0
 40
0.0
 40
0.115088042770518
 40
0.115088042770518
 40
0.115088042770518
 10
9.079563829022343
 20
39.23582291906797
 30
0.0
 41
1.0
 10
9.111046901956993
 20
39.18705676213389
 30
0.0
 41
0.9870819617354393
 10
9.156338071380695
 20
39.15075205285586
 30
0.0
 41
1.0
  0
SPLINE
  5
102
330
1F
100
AcDbEntity
  8
Default
100
AcDbSpline
210
0.0
220
0.0
230
1.0
 70
    12
 71
     2
 72
     6
 73
     3
 74
     0
 42
0.0000000001
 43
0.0000000001
 40
0.0
 40
0.0
 40
0.0
 40
0.0059983484682799
 40
0.0059983484682799
 40
0.0059983484682799
 10
9.181967545849878
 20
39.13199377997345
 30
0.0
 41
1.0
 10
9.184463493659552
 20
39.13033073933445
 30
0.0
 41
0.9999655201620198
 10
9.186986716477032
 20
39.12870937995142
 30
0.0
 41
1.0
  0
SPLINE
  5
103
330
1F
100
AcDbEntity
  8
Default
100
AcDbSpline
210
0.0
220
0.0
230
1.0
 70
    12
 71
     2
 72
     8
 73
     5
 74
     0
 42
0.0000000001
 43
0.0000000001
 40
0.0
 40
0.0
 40
0.0
 40
0.1034429179618575
 40
0.1034429179618575
 40
0.1717001579871532
 40
0.1717001579871532
 40
0.1717001579871532
 10
9.287684252779533
 20
39.08386519266674
 30
0.0
 41
1.0
 10
9.337891475663072
 20
39.07011380875139
 30
0.0
 41
0.990377410951852
 10
9.389945063796686
 20
39.07065209462415
 30
0.0
 41
1.0
 10
9.424164805542867
 20
39.07099621549428
 30
0.0
 41
0.9959350653995883
 10
9.457767533346605
 20
39.07747431926749
 30
0.0
 41
1.0
  0
SPLINE
  5
104
330
1F
100
AcDbEntity
  8
Default
100
AcDbSpline
210
0.0
220
0.0
230
1.0
 70
    12
 71
     2
 72
     6
 73
     3
 74
     0
 42
0.0000000001
 43
0.0000000001
 40
0.0
 40
0.0
 40
0.0
 40
0.0775072285960061
 40
0.0775072285960061
 40
0.0775072285960061
 10
9.625647914329596
 20
39.15538783649382
 30
0.0
 41
1.0
 10
9.655937367715092
 20
39.17977418517804
 30
0.0
 41
0.9948893065873111
 10
9.680709713184163
 20
39.20974877255637
 30
0.0
 41
1.0
  0
SPLINE
  5
105
330
1F
100
AcDbEntity
  8
Default
100
AcDbSpline
210
0.0
220
0.0
230
1.0
 70
    12
 71
     2
 72
     6
 73
     3
 74
     0
 42
0.0000000001
 43
0.0000000001
 40
0.0
 40
0.0
 40
0.0
 40
0.0255765099974078
 40
0.0255765099974078
 40
0.0255765099974078
 10
9.759864362760403
 20
39.3757292193906
 30
0.0
 41
1.0
 10
9.762365743162658
 20
39.38827568192398
 30
0.0
 41
0.9993989632951451
 10
9.76399177018466
 20
39.40096531005652
 30
0.0
 41
1.0
  0
SPLINE
  5
106
330
1F
100
AcDbEntity
  8
Default
100
AcDbSpline
210
0.0
220
0.0
230
1.0
 70
    12
 71
     2
 72
     6
 73
     3
 74
     0
 42
0.0000000001
 43
0.0000000001
 40
0.0
 40
0.0
 40
0.0
 40
0.033195217730056
 40
0.033195217730056
 40
0.033195217730056
 10
9.765006721523768
 20
39.40971898691978
 30
0.0
 41
1.0
 10
9.766722489375912
 20
39.4262391186986
 30
0.0
 41
0.9989722826092302
 10
9.766935188309477
 20
39.44284674864617
 30
0.0
 41
1.0
  0
SPLINE
  5
107
330
1F
100
AcDbEntity
  8
Default
100
AcDbSpline
210
0.0
220
0.0
230
1.0
 70
    12
 71
     2
 72
     6
 73
     3
 74
     0
 42
0.0000000001
 43
0.0000000001
 40
0.0
 40
0.0
 40
0.0
 40
0.2107005313025997
 40
0.2107005313025997
 40
0.2107005313025997
 10
9.748276324223152
 20
39.58277679939609
 30
0.0
 41
1.0
 10
9.807012832340812
 20
39.49157979543657
 30
0.0
 41
0.9573430636254009
 10
9.805485755831848
 20
39.3831153360299
 30
0.0
 41
1.0
  0
SPLINE
  5
108
330
1F
100
AcDbEntity
  8
Default
100
AcDbSpline
210
0.0
220
0.0
230
1.0
 70
    12
 71
     2
 72
     6
 73
     3
 74
     0
 42
0.0000000001
 43
0.0000000001
 40
0.0
 40
0.0
 40
0.0
 40
0.0310117036644928
 40
0.0310117036644928
 40
0.0310117036644928
 10
9.762106123333588
 20
39.50672071727695
 30
0.0
 41
1.0
 10
9.764638685386338
 20
39.49141345747893
 30
0.0
 41
0.9990820238187402
 10
9.765851685972326
 20
39.47594559716623
 30
0.0
 41
1.0
  0
SPLINE
  5
109
330
1F
100
AcDbEntity
  8
Default
100
AcDbSpline
210
0.0
220
0.0
230
1.0
 70
    12
 71
     2
 72
     6
 73
     3
 74
     0
 42
0.0000000001
 43
0.0000000001
 40
0.0
 40
0.0
 40
0.0
 40
0.028787495043254
 40
0.028787495043254
 40
0.028787495043254
 10
9.766165054924988
 20
39.47162007093802
 30
0.0
 41
1.0
 10
9.767119325180557
 20
39.45725046596133
 30
0.0
 41
0.9992181021449493
 10
9.766935234709278
 20
39.44285038646141
 30
0.0
 41
1.0
  0
SPLINE
  5
10A
330
1F
100
AcDbEntity
  8
Default
100
AcDbSpline
210
0.0
220
0.0
230
1.0
 70
     8
 71
     3
 72
    28
 73
    24
 74
     0
 42
0.0000000001
 43
0.0000000001
 40
0.0
 40
0.0
 40
0.0
 40
0.0
 40
0.1056753563021762
 40
0.254003820800577
 40
0.5729833083799895
 40
0.9705457745969663
 40
1.417102958837682
 40
2.312885158589451
 40
3.143270735001634
 40
3.866481523766936
 40
4.563468508603691
 40
4.912878154510834
 40
5.235693397770641
 40
5.877822823574495
 40
6.187250501844828
 40
6.508807919014306
 40
7.158424290978509
 40
7.819744961790179
 40
8.58344184735344
 40
9.061524614090164
 40
9.648561744110188
 40
10.77546253423588
 40
12.98833298296233
 40
12.98833298296233
 40
12.98833298296233
 40
12.98833298296233
 10
8.272277877278555
 20
56.17204631888458
 30
0.0
 10
8.28849648147273
 20
56.20337453164157
 30
0.0
 10
8.319560181288704
 20
56.28220452647108
 30
0.0
 10
8.37771313167784
 20
56.46433743099276
 30
0.0
 10
8.429368804195406
 20
56.74874143870819
 30
0.0
 10
8.454048389298205
 20
57.13596167054108
 30
0.0
 10
8.45960645738096
 20
57.71606081957178
 30
0.0
 10
8.400842286219488
 20
58.43925586352556
 30
0.0
 10
8.239610662288017
 20
59.24120058277087
 30
0.0
 10
7.99256418131437
 20
59.95168905029045
 30
0.0
 10
7.714671706180098
 20
60.47398358525776
 30
0.0
 10
7.461312301347373
 20
60.85368832888161
 30
0.0
 10
7.191170430567645
 20
61.19929987581111
 30
0.0
 10
6.884369216358432
 20
61.49530853108273
 30
0.0
 10
6.551703079137711
 20
61.75868904442085
 30
0.0
 10
6.1982950618975
 20
61.99884529560849
 30
0.0
 10
5.720767059884976
 20
62.26170657048047
 30
0.0
 10
5.077658018950844
 20
62.51939679966183
 30
0.0
 10
4.465036345102861
 20
62.68726221865582
 30
0.0
 10
3.868389969856395
 20
62.81207209751682
 30
0.0
 10
3.148568065136236
 20
62.93852819687017
 30
0.0
 10
1.85074994479803
 20
63.11155586258464
 30
0.0
 10
0.7376029356311182
 20
63.1731486312439
 30
0.0
 10
-0.0000595402325132
 20
63.17117408255705
 30
0.0
  0
SPLINE
  5
10B
330
1F
100
AcDbEntity
  8
Default
100
AcDbSpline
210
0.0
220
0.0
230
1.0
 70
     8
 71
     3
 72
    29
 73
    25
 74
     0
 42
0.0000000001
 43
0.0000000001
 40
0.0
 40
0.0
 40
0.0
 40
0.0
 40
2.257939160687559
 40
3.460090082667903
 40
4.549419753990929
 40
5.356617594024712
 40
6.061127480974345
 40
6.725643933770008
 40
7.325610221583585
 40
7.661862715363807
 40
7.964471505277782
 40
8.093862297642254
 40
8.256330354794526
 40
8.628252027004171
 40
9.30472595330115
 40
10.05687033612012
 40
10.91605301242963
 40
11.83943371904452
 40
12.33927648537644
 40
12.58490568803674
 40
12.79161249233287
 40
13.09341337674144
 40
13.22490499687746
 40
13.32294297409648
 40
13.32294297409648
 40
13.32294297409648
 40
13.32294297409648
 10
-0.0000165306264268
 20
64.2739348600854
 30
0.0
 10
0.7525995940426409
 20
64.27383428500258
 30
0.0
 10
1.906077463714461
 20
64.21410319797258
 30
0.0
 10
3.409594873848703
 20
64.01228502637825
 30
0.0
 10
4.425909735305922
 20
63.82597668617692
 30
0.0
 10
5.265942635838594
 20
63.60800498532856
 30
0.0
 10
5.946074035070762
 20
63.35230378233307
 30
0.0
 10
6.530775758001129
 20
63.05156184563977
 30
0.0
 10
6.970158565011968
 20
62.74644656274961
 30
0.0
 10
7.278055841895638
 20
62.47047140430271
 30
0.0
 10
7.454108380903721
 20
62.28431347202826
 30
0.0
 10
7.579591720991964
 20
62.13077458082569
 30
0.0
 10
7.710427303241538
 20
61.95234754214997
 30
0.0
 10
7.936158366784794
 20
61.61746038785948
 30
0.0
 10
8.219426811562931
 20
61.08676064179318
 30
0.0
 10
8.482535148784237
 20
60.36920716992658
 30
0.0
 10
8.680613447081566
 20
59.54673276814906
 30
0.0
 10
8.782084421468216
 20
58.79164932137168
 30
0.0
 10
8.811732866976127
 20
58.23595117754505
 30
0.0
 10
8.815657113532312
 20
57.9185364904972
 30
0.0
 10
8.812155133456503
 20
57.66722385406446
 30
0.0
 10
8.79471973496953
 20
57.45414077500433
 30
0.0
 10
8.759130943106323
 20
57.28049209744071
 30
0.0
 10
8.73949592630431
 20
57.20649705351745
 30
0.0
 10
8.728926908925722
 20
57.17556015374393
 30
0.0
  0
SPLINE
  5
10C
330
1F
100
AcDbEntity
  8
Default
100
AcDbSpline
210
0.0
220
0.0
230
1.0
 70
    12
 71
     2
 72
     6
 73
     3
 74
     0
 42
0.0000000001
 43
0.0000000001
 40
0.0
 40
0.0
 40
0.0
 40
1.698902283157683
 40
1.698902283157683
 40
1.698902283157683
 10
8.158346089710987
 20
40.66327759128768
 30
0.0
 41
1.0
 10
8.618949735580616
 20
39.94954688336765
 30
0.0
 41
0.9999999999136253
 10
9.079572143007223
 20
39.23582828350234
 30
0.0
 41
1.0
  0
SPLINE
  5
10D
330
1F
100
AcDbEntity
  8
Default
100
AcDbSpline
210
0.0
220
0.0
230
1.0
 70
    12
 71
     2
 72
     6
 73
     3
 74
     0
 42
0.0000000001
 43
0.0000000001
 40
0.0
 40
0.0
 40
0.0
 40
0.6068240252645541
 40
0.6068240252645541
 40
0.6068240252645541
 10
8.818866406423778
 20
57.94500530122974
 30
0.0
 41
1.0
 10
9.005329902074225
 20
58.18435904420887
 30
0.0
 41
0.9999999993582397
 10
9.191810547542005
 20
58.42369942599662
 30
0.0
 41
1.0
  0
SPLINE
  5
10E
330
1F
100
AcDbEntity
  8
Default
100
AcDbSpline
210
0.0
220
0.0
230
1.0
 70
    24
 71
     2
 72
     6
 73
     3
 74
     0
 42
0.0000000001
 43
0.0000000001
 40
0.0
 40
0.0
 40
0.0
 40
0.0675409205343179
 40
0.0675409205343179
 40
0.0675409205343179
 10
9.74827632472008
 20
39.58277679863138
 30
0.0
 10
9.72996450030189
 20
39.61115145410299
 30
0.0
 10
9.7116526758837
 20
39.63952610957462
 30
0.0
  0
SPLINE
  5
10F
330
1F
100
AcDbEntity
  8
Default
100
AcDbSpline
210
0.0
220
0.0
230
1.0
 70
    24
 71
     2
 72
     6
 73
     3
 74
     0
 42
0.0000000001
 43
0.0000000001
 40
0.0
 40
0.0
 40
0.0
 40
0.0476939851555702
 40
0.0476939851555702
 40
0.0476939851555702
 10
9.20754231944165
 20
58.44388564022303
 30
0.0
 10
9.222198450482038
 20
58.46269725572867
 30
0.0
 10
9.236854581522426
 20
58.4815088712343
 30
0.0
  0
SPLINE
  5
110
330
1F
100
AcDbEntity
  8
Default
100
AcDbSpline
210
0.0
220
0.0
230
1.0
 70
    12
 71
     2
 72
     6
 73
     3
 74
     0
 42
0.0000000001
 43
0.0000000001
 40
0.0
 40
0.0
 40
0.0
 40
0.2421104190276293
 40
0.2421104190276293
 40
0.2421104190276293
 10
6.749430089137141
 20
55.97156053248574
 30
0.0
 41
1.0
 10
6.860988439179542
 20
56.01858204519936
 30
0.0
 41
0.9999015246256691
 10
6.971183219087479
 20
56.06871585218729
 30
0.0
 41
1.0
  0
SPLINE
  5
111
330
1F
100
AcDbEntity
  8
Default
100
AcDbSpline
210
0.0
220
0.0
230
1.0
 70
    12
 71
     2
 72
     6
 73
     3
 74
     0
 42
0.0000000001
 43
0.0000000001
 40
0.0
 40
0.0
 40
0.0
 40
1.914609764861617
 40
1.914609764861617
 40
1.914609764861617
 10
9.709739358581002
 20
39.64250910709967
 30
0.0
 41
1.0
 10
9.190644551569196
 20
40.44685556168625
 30
0.0
 41
0.999999999999819
 10
8.671550712043
 20
41.25120264090274
 30
0.0
 41
1.0
  0
SPLINE
  5
112
330
1F
100
AcDbEntity
  8
Default
100
AcDbSpline
210
0.0
220
0.0
230
1.0
 70
     8
 71
     3
 72
    16
 73
    12
 74
     0
 42
0.0000000001
 43
0.0000000001
 40
0.0
 40
0.0
 40
0.0
 40
0.0
 40
0.3929806094830499
 40
1.161485275626432
 40
1.434077379933263
 40
1.997193789902762
 40
2.236176104316814
 40
2.436878414714674
 40
2.615177840443278
 40
2.699855064475192
 40
2.788091875082257
 40
2.788091875082257
 40
2.788091875082257
 40
2.788091875082257
 10
5.674848069138379
 20
56.51310958447013
 30
0.0
 10
5.799561249276954
 20
56.47289768383393
 30
0.0
 10
6.166669842979644
 20
56.35030038658709
 30
0.0
 10
6.615960044732951
 20
56.18620404374182
 30
0.0
 10
7.123092844110774
 20
56.01756938875616
 30
0.0
 10
7.469650017889666
 20
55.9222027362005
 30
0.0
 10
7.804736550048147
 20
55.89771593189128
 30
0.0
 10
8.009497209215496
 20
55.93546596078132
 30
0.0
 10
8.146968654542693
 20
56.01116797719902
 30
0.0
 10
8.228033861398774
 20
56.09701832128272
 30
0.0
 10
8.258580006476759
 20
56.14594404007711
 30
0.0
 10
8.272122715478968
 20
56.17212691850163
 30
0.0
  0
SPLINE
  5
113
330
1F
100
AcDbEntity
  8
Default
100
AcDbSpline
210
0.0
220
0.0
230
1.0
 70
     8
 71
     3
 72
    42
 73
    38
 74
     0
 42
0.0000000001
 43
0.0000000001
 40
0.0
 40
0.0
 40
0.0
 40
0.0
 40
1.516620863392709
 40
2.826776562584004
 40
4.929964676686994
 40
5.854074639093991
 40
6.654182431560953
 40
7.366796927983043
 40
8.013353623941308
 40
8.582775777476089
 40
9.14432336109235
 40
10.27241354955484
 40
10.55940406165225
 40
10.88698182031156
 40
11.38818442491691
 40
11.86763469448308
 40
12.76788888255603
 40
13.84082233621212
 40
15.57751585932661
 40
17.34174065012489
 40
18.98978961022311
 40
19.74149517604984
 40
20.29777565707634
 40
21.1692007953702
 40
21.98338072426363
 40
22.73983168263268
 40
23.48183490032807
 40
24.25285823176282
 40
25.01647725514974
 40
25.80905458703584
 40
26.63793784656495
 40
27.08161107010815
 40
27.58336887320954
 40
28.74750962886867
 40
30.27600043858114
 40
31.09125534884795
 40
31.8189308948828
 40
31.8189308948828
 40
31.8189308948828
 40
31.8189308948828
 10
-0.0000165310190727
 20
39.08096297189042
 30
0.0
 10
0.5055168835953694
 20
39.08062701504146
 30
0.0
 10
1.447809561787656
 20
39.09033076451324
 30
0.0
 10
3.090158894043852
 20
39.15007538594408
 30
0.0
 10
4.530791742475261
 20
39.29182809218067
 30
0.0
 10
5.783842944787689
 20
39.53799339960396
 30
0.0
 10
6.56648579565257
 20
39.75792042069871
 30
0.0
 10
7.234353929602245
 20
40.03055186300604
 30
0.0
 10
7.792220641626034
 20
40.35330584325327
 30
0.0
 10
8.25268859319469
 20
40.72963918400548
 30
0.0
 10
8.749252616553198
 20
41.29942610134572
 30
0.0
 10
9.044883617507532
 20
41.89872541966003
 30
0.0
 10
9.196195432490951
 20
42.45952009227316
 30
0.0
 10
9.264546568422512
 20
42.82549744037985
 30
0.0
 10
9.33182873180636
 20
43.25618445246351
 30
0.0
 10
9.40507707754944
 20
43.87910592986574
 30
0.0
 10
9.458859778627957
 20
44.69517891067181
 30
0.0
 10
9.47459852985206
 20
45.93201067233228
 30
0.0
 10
9.443335054404496
 20
47.45643426079467
 30
0.0
 10
9.354949160377924
 20
49.17073392510174
 30
0.0
 10
9.237050084357689
 20
50.55392096141893
 30
0.0
 10
9.122254643097884
 20
51.53265319707053
 30
0.0
 10
9.01610941015643
 20
52.25145426859871
 30
0.0
 10
8.847809402027384
 20
52.98076036607108
 30
0.0
 10
8.577019578687405
 20
53.74982610495572
 30
0.0
 10
8.227421682213429
 20
54.43905377936848
 30
0.0
 10
7.79206943511014
 20
55.06012350484085
 30
0.0
 10
7.26217612390789
 20
55.60715888980606
 30
0.0
 10
6.635822709988893
 20
56.06910556177639
 30
0.0
 10
5.927018021719956
 20
56.43442100950064
 30
0.0
 10
5.273967461724334
 20
56.65747727307857
 30
0.0
 10
4.69788017622847
 20
56.79210883298085
 30
0.0
 10
4.005419385042305
 20
56.91626515937254
 30
0.0
 10
2.94700824449785
 20
57.03713155647063
 30
0.0
 10
1.779926109311246
 20
57.11267576973142
 30
0.0
 10
0.7568138863120222
 20
57.15116806706131
 30
0.0
 10
0.2425437279076998
 20
57.16039760745115
 30
0.0
 10
-0.0000165310189466
 20
57.16061730110636
 30
0.0
  0
ENDSEC
  0
SECTION
  2
OBJECTS
  0
DICTIONARY
  5
C
330
0
100
AcDbDictionary
281
     1
  3
ACAD_GROUP
350
D
  3
ACAD_LAYOUT
350
1A
  3
ACAD_MLEADERSTYLE
350
115
  3
ACAD_MLINESTYLE
350
17
  3
ACAD_PLOTSETTINGS
350
19
  3
ACAD_PLOTSTYLENAME
350
E
  3
ACAD_TABLESTYLE
350
114
  3
ACAD_VISUALSTYLE
350
2A
  0
DICTIONARY
  5
D
102
{ACAD_REACTORS
330
C
102
}
330
C
100
AcDbDictionary
281
     1
  0
DICTIONARY
  5
1A
102
{ACAD_REACTORS
330
C
102
}
330
C
100
AcDbDictionary
281
     1
  3
Layout1
350
1E
  3
Layout2
350
26
  3
Model
350
22
  0
DICTIONARY
  5
115
102
{ACAD_REACTORS
330
C
102
}
330
C
100
AcDbDictionary
281
     1
  0
DICTIONARY
  5
17
102
{ACAD_REACTORS
330
C
102
}
330
C
100
AcDbDictionary
281
     1
  3
Standard
350
18
  0
DICTIONARY
  5
19
102
{ACAD_REACTORS
330
C
102
}
330
C
100
AcDbDictionary
281
     1
  0
ACDBDICTIONARYWDFLT
  5
E
102
{ACAD_REACTORS
330
C
102
}
330
C
100
AcDbDictionary
281
     1
  3
Normal
350
F
100
AcDbDictionaryWithDefault
340
F
  0
DICTIONARY
  5
114
102
{ACAD_REACTORS
330
C
102
}
330
C
100
AcDbDictionary
281
     1
  0
DICTIONARY
  5
2A
102
{ACAD_REACTORS
330
C
102
}
330
C
100
AcDbDictionary
281
     1
  3
2dWireframe
350
2F
  3
3D Hidden
350
31
  3
3dWireframe
350
30
  3
Basic
350
32
  3
Brighten
350
36
  3
ColorChange
350
3A
  3
Conceptual
350
34
  3
Dim
350
35
  3
Facepattern
350
39
  3
Flat
350
2B
  3
FlatWithEdges
350
2C
  3
Gouraud
350
2D
  3
GouraudWithEdges
350
2E
  3
Linepattern
350
38
  3
Realistic
350
33
  3
Thicken
350
37
  0
LAYOUT
  5
1E
102
{ACAD_REACTORS
330
1A
102
}
330
1A
100
AcDbPlotSettings
  1

  2
none_device
  4

  6

 40
0.0
 41
0.0
 42
0.0
 43
0.0
 44
0.0
 45
0.0
 46
0.0
 47
0.0
 48
0.0
 49
0.0
140
0.0
141
0.0
142
1.0
143
1.0
 70
   688
 72
     0
 73
     0
 74
     5
  7

 75
    16
 76
     0
 77
     2
 78
   300
147
1.0
148
0.0
149
0.0
100
AcDbLayout
  1
Layout1
 70
     1
 71
     1
 10
0.0
 20
0.0
 11
12.0
 21
9.0
 12
0.0
 22
0.0
 32
0.0
 14
1.000000000000000E+20
 24
1.000000000000000E+20
 34
1.000000000000000E+20
 15
-1.000000000000000E+20
 25
-1.000000000000000E+20
 35
-1.000000000000000E+20
146
0.0
 13
0.0
 23
0.0
 33
0.0
 16
1.0
 26
0.0
 36
0.0
 17
0.0
 27
1.0
 37
0.0
 76
     0
330
1B
  0
LAYOUT
  5
26
102
{ACAD_REACTORS
330
1A
102
}
330
1A
100
AcDbPlotSettings
  1

  2
none_device
  4

  6

 40
0.0
 41
0.0
 42
0.0
 43
0.0
 44
0.0
 45
0.0
 46
0.0
 47
0.0
 48
0.0
 49
0.0
140
0.0
141
0.0
142
1.0
143
1.0
 70
   688
 72
     0
 73
     0
 74
     5
  7

 75
    16
 76
     0
 77
     2
 78
   300
147
1.0
148
0.0
149
0.0
100
AcDbLayout
  1
Layout2
 70
     1
 71
     2
 10
0.0
 20
0.0
 11
0.0
 21
0.0
 12
0.0
 22
0.0
 32
0.0
 14
0.0
 24
0.0
 34
0.0
 15
0.0
 25
0.0
 35
0.0
146
0.0
 13
0.0
 23
0.0
 33
0.0
 16
1.0
 26
0.0
 36
0.0
 17
0.0
 27
1.0
 37
0.0
 76
     0
330
23
  0
LAYOUT
  5
22
102
{ACAD_REACTORS
330
1A
102
}
330
1A
100
AcDbPlotSettings
  1

  2
none_device
  4

  6

 40
0.0
 41
0.0
 42
0.0
 43
0.0
 44
0.0
 45
0.0
 46
0.0
 47
0.0
 48
0.0
 49
0.0
140
0.0
141
0.0
142
1.0
143
1.0
 70
  1712
 72
     0
 73
     0
 74
     0
  7

 75
     0
 76
     0
 77
     2
 78
   300
147
1.0
148
0.0
149
0.0
100
AcDbLayout
  1
Model
 70
     1
 71
     0
 10
0.0
 20
0.0
 11
12.0
 21
9.0
 12
0.0
 22
0.0
 32
0.0
 14
-9.805507237554544
 24
-0.0021638777999981
 34
0.0
 15
45.43867045267852
 25
64.2739348600854
 35
0.0
146
0.0
 13
0.0
 23
0.0
 33
0.0
 16
1.0
 26
0.0
 36
0.0
 17
0.0
 27
1.0
 37
0.0
 76
     0
330
1F
331
29
  0
MLINESTYLE
  5
18
102
{ACAD_REACTORS
330
17
102
}
330
17
100
AcDbMlineStyle
  2
Standard
 70
     0
  3

 62
   256
 51
90.0
 52
90.0
 71
     2
 49
0.5
 62
   256
  6
BYLAYER
 49
-0.5
 62
   256
  6
BYLAYER
  0
ACDBPLACEHOLDER
  5
F
102
{ACAD_REACTORS
330
E
102
}
330
E
  0
VISUALSTYLE
  5
2F
102
{ACAD_REACTORS
330
2A
102
}
330
2A
100
AcDbVisualStyle
  2
2dWireframe
 70
     4
 71
     0
 72
     2
 73
     0
 90
        0
 40
-0.6
 41
-30.0
 62
     5
 63
     7
421
 16777215
 74
     1
 91
        4
 64
     7
 65
   257
 75
     1
175
     1
 42
1.0
 92
        0
 66
   257
 43
1.0
 76
     1
 77
     6
 78
     2
 67
     7
 79
     5
170
     0
171
     0
290
     0
174
     0
 93
        1
 44
0.0
173
     0
291
     0
 45
0.0
1001
ACAD
1000
AcDbSavedByObjectVersion
1070
     0
  0
VISUALSTYLE
  5
31
102
{ACAD_REACTORS
330
2A
102
}
330
2A
100
AcDbVisualStyle
  2
3D Hidden
 70
     6
 71
     1
 72
     2
 73
     2
 90
        0
 40
-0.6
 41
-30.0
 62
     5
 63
     7
421
 16777215
 74
     2
 91
        2
 64
     7
 65
   257
 75
     2
175
     1
 42
40.0
 92
        0
 66
   257
 43
1.0
 76
     1
 77
     6
 78
     2
 67
     7
 79
     3
170
     0
171
     0
290
     0
174
     0
 93
        1
 44
0.0
173
     0
291
     0
 45
0.0
1001
ACAD
1000
AcDbSavedByObjectVersion
1070
     0
  0
VISUALSTYLE
  5
30
102
{ACAD_REACTORS
330
2A
102
}
330
2A
100
AcDbVisualStyle
  2
3dWireframe
 70
     5
 71
     0
 72
     2
 73
     0
 90
        0
 40
-0.6
 41
-30.0
 62
     5
 63
     7
421
 16777215
 74
     1
 91
        4
 64
     7
 65
   257
 75
     1
175
     1
 42
1.0
 92
        0
 66
   257
 43
1.0
 76
     1
 77
     6
 78
     2
 67
     7
 79
     5
170
     0
171
     0
290
     0
174
     0
 93
        1
 44
0.0
173
     0
291
     0
 45
0.0
1001
ACAD
1000
AcDbSavedByObjectVersion
1070
     0
  0
VISUALSTYLE
  5
32
102
{ACAD_REACTORS
330
2A
102
}
330
2A
100
AcDbVisualStyle
  2
Basic
 70
     7
 71
     1
 72
     0
 73
     1
 90
        0
 40
-0.6
 41
-30.0
 62
     5
 63
     7
421
 16777215
 74
     0
 91
        4
 64
     7
 65
   257
 75
     1
175
     1
 42
1.0
 92
        8
 66
     7
 43
1.0
 76
     1
 77
     6
 78
     2
 67
     7
 79
     5
170
     0
171
     0
290
     0
174
     0
 93
        1
 44
0.0
173
     0
291
     1
 45
0.0
1001
ACAD
1000
AcDbSavedByObjectVersion
1070
     0
  0
VISUALSTYLE
  5
36
102
{ACAD_REACTORS
330
2A
102
}
330
2A
100
AcDbVisualStyle
  2
Brighten
 70
    12
 71
     2
 72
     2
 73
     0
 90
        0
 40
-0.6
 41
-30.0
 62
     5
 63
     7
421
 16777215
 74
     1
 91
        4
 64
     7
 65
   257
 75
     1
175
     1
 42
1.0
 92
        8
 66
     7
 43
1.0
 76
     1
 77
     6
 78
     2
 67
     7
 79
     5
170
     0
171
     0
290
     0
174
     0
 93
        1
 44
50.0
173
     0
291
     1
 45
0.0
1001
ACAD
1000
AcDbSavedByObjectVersion
1070
     0
  0
VISUALSTYLE
  5
3A
102
{ACAD_REACTORS
330
2A
102
}
330
2A
100
AcDbVisualStyle
  2
ColorChange
 70
    16
 71
     2
 72
     2
 73
     3
 90
        0
 40
-0.6
 41
-30.0
 62
     5
 63
     8
421
  8421504
 74
     1
 91
        4
 64
     7
 65
   257
 75
     1
175
     1
 42
1.0
 92
        8
 66
     8
424
  8421504
 43
1.0
 76
     1
 77
     6
 78
     2
 67
     7
 79
     5
170
     0
171
     0
290
     0
174
     0
 93
        1
 44
0.0
173
     0
291
     1
 45
0.0
1001
ACAD
1000
AcDbSavedByObjectVersion
1070
     0
  0
VISUALSTYLE
  5
34
102
{ACAD_REACTORS
330
2A
102
}
330
2A
100
AcDbVisualStyle
  2
Conceptual
 70
     9
 71
     3
 72
     2
 73
     0
 90
        0
 40
-0.6
 41
-30.0
 62
     5
 63
     7
421
 16777215
 74
     2
 91
        2
 64
     7
 65
   257
 75
     1
175
     1
 42
40.0
 92
        8
 66
     7
 43
1.0
 76
     1
 77
     6
 78
     2
 67
     7
 79
     3
170
     0
171
     0
290
     0
174
     0
 93
        1
 44
0.0
173
     0
291
     0
 45
0.0
1001
ACAD
1000
AcDbSavedByObjectVersion
1070
     0
  0
VISUALSTYLE
  5
35
102
{ACAD_REACTORS
330
2A
102
}
330
2A
100
AcDbVisualStyle
  2
Dim
 70
    11
 71
     2
 72
     2
 73
     0
 90
        0
 40
-0.6
 41
-30.0
 62
     5
 63
     7
421
 16777215
 74
     1
 91
        4
 64
     7
 65
   257
 75
     1
175
     1
 42
1.0
 92
        8
 66
     7
 43
1.0
 76
     1
 77
     6
 78
     2
 67
     7
 79
     5
170
     0
171
     0
290
     0
174
     0
 93
        1
 44
-50.0
173
     0
291
     1
 45
0.0
1001
ACAD
1000
AcDbSavedByObjectVersion
1070
     0
  0
VISUALSTYLE
  5
39
102
{ACAD_REACTORS
330
2A
102
}
330
2A
100
AcDbVisualStyle
  2
Facepattern
 70
    15
 71
     2
 72
     2
 73
     0
 90
        0
 40
-0.6
 41
-30.0
 62
     5
 63
     7
421
 16777215
 74
     1
 91
        4
 64
     7
 65
   257
 75
     1
175
     1
 42
1.0
 92
        8
 66
     7
 43
1.0
 76
     1
 77
     6
 78
     2
 67
     7
 79
     5
170
     0
171
     0
290
     0
174
     0
 93
        1
 44
0.0
173
     0
291
     1
 45
0.0
1001
ACAD
1000
AcDbSavedByObjectVersion
1070
     0
  0
VISUALSTYLE
  5
2B
102
{ACAD_REACTORS
330
2A
102
}
330
2A
100
AcDbVisualStyle
  2
Flat
 70
     0
 71
     2
 72
     1
 73
     1
 90
        2
 40
-0.6
 41
30.0
 62
     5
 63
     7
421
 16777215
 74
     0
 91
        4
 64
     7
 65
   257
 75
     1
175
     1
 42
1.0
 92
        8
 66
     7
 43
1.0
 76
     1
 77
     6
 78
     2
 67
     7
 79
     5
170
     0
171
     0
290
     0
174
     0
 93
       13
 44
0.0
173
     0
291
     1
 45
0.0
1001
ACAD
1000
AcDbSavedByObjectVersion
1070
     0
  0
VISUALSTYLE
  5
2C
102
{ACAD_REACTORS
330
2A
102
}
330
2A
100
AcDbVisualStyle
  2
FlatWithEdges
 70
     1
 71
     2
 72
     1
 73
     1
 90
        2
 40
-0.6
 41
30.0
 62
     5
 63
     7
421
 16777215
 74
     1
 91
        4
 64
     7
 65
   257
 75
     1
175
     1
 42
1.0
 92
        0
 66
   257
 43
1.0
 76
     1
 77
     6
 78
     2
 67
     7
 79
     5
170
     0
171
     0
290
     0
174
     0
 93
       13
 44
0.0
173
     0
291
     1
 45
0.0
1001
ACAD
1000
AcDbSavedByObjectVersion
1070
     0
  0
VISUALSTYLE
  5
2D
102
{ACAD_REACTORS
330
2A
102
}
330
2A
100
AcDbVisualStyle
  2
Gouraud
 70
     2
 71
     2
 72
     2
 73
     1
 90
        2
 40
-0.6
 41
30.0
 62
     5
 63
     7
421
 16777215
 74
     0
 91
        4
 64
     7
 65
   257
 75
     1
175
     1
 42
1.0
 92
        0
 66
     7
 43
1.0
 76
     1
 77
     6
 78
     2
 67
     7
 79
     5
170
     0
171
     0
290
     0
174
     0
 93
       13
 44
0.0
173
     0
291
     1
 45
0.0
1001
ACAD
1000
AcDbSavedByObjectVersion
1070
     0
  0
VISUALSTYLE
  5
2E
102
{ACAD_REACTORS
330
2A
102
}
330
2A
100
AcDbVisualStyle
  2
GouraudWithEdges
 70
     3
 71
     2
 72
     2
 73
     1
 90
        2
 40
-0.6
 41
30.0
 62
     5
 63
     7
421
 16777215
 74
     1
 91
        4
 64
     7
 65
   257
 75
     1
175
     1
 42
1.0
 92
        0
 66
   257
 43
1.0
 76
     1
 77
     6
 78
     2
 67
     7
 79
     5
170
     0
171
     0
290
     0
174
     0
 93
       13
 44
0.0
173
     0
291
     1
 45
0.0
1001
ACAD
1000
AcDbSavedByObjectVersion
1070
     0
  0
VISUALSTYLE
  5
38
102
{ACAD_REACTORS
330
2A
102
}
330
2A
100
AcDbVisualStyle
  2
Linepattern
 70
    14
 71
     2
 72
     2
 73
     0
 90
        0
 40
-0.6
 41
-30.0
 62
     5
 63
     7
421
 16777215
 74
     1
 91
        4
 64
     7
 65
   257
 75
     7
175
     7
 42
1.0
 92
        8
 66
     7
 43
1.0
 76
     1
 77
     6
 78
     2
 67
     7
 79
     5
170
     0
171
     0
290
     0
174
     0
 93
        1
 44
0.0
173
     0
291
     1
 45
0.0
1001
ACAD
1000
AcDbSavedByObjectVersion
1070
     0
  0
VISUALSTYLE
  5
33
102
{ACAD_REACTORS
330
2A
102
}
330
2A
100
AcDbVisualStyle
  2
Realistic
 70
     8
 71
     2
 72
     2
 73
     0
 90
        0
 40
-0.6
 41
-30.0
 62
     5
 63
     7
421
 16777215
 74
     1
 91
        0
 64
     7
 65
   257
 75
     1
175
     1
 42
1.0
 92
        8
 66
     8
424
  7895160
 43
1.0
 76
     1
 77
     6
 78
     2
 67
     7
 79
     5
170
     0
171
     0
290
     0
174
     0
 93
       13
 44
0.0
173
     0
291
     0
 45
0.0
1001
ACAD
1000
AcDbSavedByObjectVersion
1070
     0
  0
VISUALSTYLE
  5
37
102
{ACAD_REACTORS
330
2A
102
}
330
2A
100
AcDbVisualStyle
  2
Thicken
 70
    13
 71
     2
 72
     2
 73
     0
 90
        0
 40
-0.6
 41
-30.0
 62
     5
 63
     7
421
 16777215
 74
     1
 91
        4
 64
     7
 65
   257
 75
     1
175
     1
 42
1.0
 92
       12
 66
     7
 43
1.0
 76
     1
 77
     6
 78
     2
 67
     7
 79
     5
170
     0
171
     0
290
     0
174
     0
 93
        1
 44
0.0
173
     0
291
     1
 45
0.0
1001
ACAD
1000
AcDbSavedByObjectVersion
1070
     0
  0
ENDSEC
  0
EOF
