  0
SECTION
  2
HEADER
  9
$ACADVER
  1
AC1018
  9
$ACADMAINTVER
 70
     0
  9
$DWGCODEPAGE
  3
ANSI_1252
  9
$INSBASE
 10
0.0
 20
0.0
 30
0.0
  9
$EXTMIN
 10
-10.02630013665312
 20
-0.0048389957999952
 30
0.0
  9
$EXTMAX
 10
44.99036064589234
 20
69.26484220513107
 30
0.0
  9
$LIMMIN
 10
0.0
 20
0.0
  9
$LIMMAX
 10
12.0
 20
9.0
  9
$ORTHOMODE
 70
     0
  9
$REGENMODE
 70
     1
  9
$FILLMODE
 70
     1
  9
$QTEXTMODE
 70
     0
  9
$MIRRTEXT
 70
     1
  9
$LTSCALE
 40
0.0393700787401575
  9
$ATTMODE
 70
     1
  9
$TEXTSIZE
 40
0.2
  9
$TRACEWID
 40
0.05
  9
$TEXTSTYLE
  7
Standard
  9
$CLAYER
  8
Default
  9
$CELTYPE
  6
ByLayer
  9
$CECOLOR
 62
   256
  9
$CELTSCALE
 40
1.0
  9
$DISPSILH
 70
     0
  9
$DIMSCALE
 40
1.0
  9
$DIMASZ
 40
0.18
  9
$DIMEXO
 40
0.0625
  9
$DIMDLI
 40
0.38
  9
$DIMRND
 40
0.0
  9
$DIMDLE
 40
0.0
  9
$DIMEXE
 40
0.18
  9
$DIMTP
 40
0.0
  9
$DIMTM
 40
0.0
  9
$DIMTXT
 40
0.18
  9
$DIMCEN
 40
0.09
  9
$DIMTSZ
 40
0.0
  9
$DIMTOL
 70
     0
  9
$DIMLIM
 70
     0
  9
$DIMTIH
 70
     1
  9
$DIMTOH
 70
     1
  9
$DIMSE1
 70
     0
  9
$DIMSE2
 70
     0
  9
$DIMTAD
 70
     0
  9
$DIMZIN
 70
     0
  9
$DIMBLK
  1

  9
$DIMASO
 70
     1
  9
$DIMSHO
 70
     1
  9
$DIMPOST
  1

  9
$DIMAPOST
  1

  9
$DIMALT
 70
     0
  9
$DIMALTD
 70
     2
  9
$DIMALTF
 40
25.4
  9
$DIMLFAC
 40
1.0
  9
$DIMTOFL
 70
     0
  9
$DIMTVP
 40
0.0
  9
$DIMTIX
 70
     0
  9
$DIMSOXD
 70
     0
  9
$DIMSAH
 70
     0
  9
$DIMBLK1
  1

  9
$DIMBLK2
  1

  9
$DIMSTYLE
  2
Standard
  9
$DIMCLRD
 70
     0
  9
$DIMCLRE
 70
     0
  9
$DIMCLRT
 70
     0
  9
$DIMTFAC
 40
1.0
  9
$DIMGAP
 40
0.09
  9
$DIMJUST
 70
     0
  9
$DIMSD1
 70
     0
  9
$DIMSD2
 70
     0
  9
$DIMTOLJ
 70
     1
  9
$DIMTZIN
 70
     0
  9
$DIMALTZ
 70
     0
  9
$DIMALTTZ
 70
     0
  9
$DIMUPT
 70
     0
  9
$DIMDEC
 70
     4
  9
$DIMTDEC
 70
     4
  9
$DIMALTU
 70
     2
  9
$DIMALTTD
 70
     2
  9
$DIMTXSTY
  7
Standard
  9
$DIMAUNIT
 70
     0
  9
$DIMADEC
 70
     0
  9
$DIMALTRND
 40
0.0
  9
$DIMAZIN
 70
     0
  9
$DIMDSEP
 70
    46
  9
$DIMATFIT
 70
     3
  9
$DIMFRAC
 70
     0
  9
$DIMLDRBLK
  1

  9
$DIMLUNIT
 70
     2
  9
$DIMLWD
 70
    -2
  9
$DIMLWE
 70
    -2
  9
$DIMTMOVE
 70
     2
  9
$LUNITS
 70
     2
  9
$LUPREC
 70
     4
  9
$SKETCHINC
 40
0.1
  9
$FILLETRAD
 40
0.5
  9
$AUNITS
 70
     0
  9
$AUPREC
 70
     0
  9
$MENU
  1
.
  9
$ELEVATION
 40
0.0
  9
$PELEVATION
 40
0.0
  9
$THICKNESS
 40
0.0
  9
$LIMCHECK
 70
     0
  9
$CHAMFERA
 40
0.5
  9
$CHAMFERB
 40
0.5
  9
$CHAMFERC
 40
1.0
  9
$CHAMFERD
 40
0.0
  9
$SKPOLY
 70
     0
  9
$TDCREATE
 40
2457212.417044803
  9
$TDUCREATE
 40
2457212.58371147
  9
$TDUPDATE
 40
2457212.417044815
  9
$TDUUPDATE
 40
2457212.583711482
  9
$TDINDWG
 40
0.0000000116
  9
$TDUSRTIMER
 40
0.0000000116
  9
$USRTIMER
 70
     1
  9
$ANGBASE
 50
0.0
  9
$ANGDIR
 70
     0
  9
$PDMODE
 70
     0
  9
$PDSIZE
 40
0.0
  9
$PLINEWID
 40
0.0
  9
$SPLFRAME
 70
     0
  9
$SPLINETYPE
 70
     6
  9
$SPLINESEGS
 70
     8
  9
$HANDSEED
  5
F6
  9
$SURFTAB1
 70
     6
  9
$SURFTAB2
 70
     6
  9
$SURFTYPE
 70
     6
  9
$SURFU
 70
     6
  9
$SURFV
 70
     6
  9
$UCSBASE
  2

  9
$UCSNAME
  2

  9
$UCSORG
 10
0.0
 20
0.0
 30
0.0
  9
$UCSXDIR
 10
1.0
 20
0.0
 30
0.0
  9
$UCSYDIR
 10
0.0
 20
1.0
 30
0.0
  9
$UCSORTHOREF
  2

  9
$UCSORTHOVIEW
 70
     0
  9
$UCSORGTOP
 10
0.0
 20
0.0
 30
0.0
  9
$UCSORGBOTTOM
 10
0.0
 20
0.0
 30
0.0
  9
$UCSORGLEFT
 10
0.0
 20
0.0
 30
0.0
  9
$UCSORGRIGHT
 10
0.0
 20
0.0
 30
0.0
  9
$UCSORGFRONT
 10
0.0
 20
0.0
 30
0.0
  9
$UCSORGBACK
 10
0.0
 20
0.0
 30
0.0
  9
$PUCSBASE
  2

  9
$PUCSNAME
  2

  9
$PUCSORG
 10
0.0
 20
0.0
 30
0.0
  9
$PUCSXDIR
 10
1.0
 20
0.0
 30
0.0
  9
$PUCSYDIR
 10
0.0
 20
1.0
 30
0.0
  9
$PUCSORTHOREF
  2

  9
$PUCSORTHOVIEW
 70
     0
  9
$PUCSORGTOP
 10
0.0
 20
0.0
 30
0.0
  9
$PUCSORGBOTTOM
 10
0.0
 20
0.0
 30
0.0
  9
$PUCSORGLEFT
 10
0.0
 20
0.0
 30
0.0
  9
$PUCSORGRIGHT
 10
0.0
 20
0.0
 30
0.0
  9
$PUCSORGFRONT
 10
0.0
 20
0.0
 30
0.0
  9
$PUCSORGBACK
 10
0.0
 20
0.0
 30
0.0
  9
$USERI1
 70
     0
  9
$USERI2
 70
     0
  9
$USERI3
 70
     0
  9
$USERI4
 70
     0
  9
$USERI5
 70
     0
  9
$USERR1
 40
0.0
  9
$USERR2
 40
0.0
  9
$USERR3
 40
0.0
  9
$USERR4
 40
0.0
  9
$USERR5
 40
0.0
  9
$WORLDVIEW
 70
     1
  9
$SHADEDGE
 70
     3
  9
$SHADEDIF
 70
    70
  9
$TILEMODE
 70
     1
  9
$MAXACTVP
 70
    64
  9
$PINSBASE
 10
0.0
 20
0.0
 30
0.0
  9
$PLIMCHECK
 70
     0
  9
$PEXTMIN
 10
1.000000000000000E+20
 20
1.000000000000000E+20
 30
1.000000000000000E+20
  9
$PEXTMAX
 10
-1.000000000000000E+20
 20
-1.000000000000000E+20
 30
-1.000000000000000E+20
  9
$PLIMMIN
 10
0.0
 20
0.0
  9
$PLIMMAX
 10
12.0
 20
9.0
  9
$UNITMODE
 70
     0
  9
$VISRETAIN
 70
     1
  9
$PLINEGEN
 70
     0
  9
$PSLTSCALE
 70
     1
  9
$TREEDEPTH
 70
  3020
  9
$CMLSTYLE
  2
Standard
  9
$CMLJUST
 70
     0
  9
$CMLSCALE
 40
1.0
  9
$PROXYGRAPHICS
 70
     1
  9
$MEASUREMENT
 70
     0
  9
$CELWEIGHT
370
    -1
  9
$ENDCAPS
280
     0
  9
$JOINSTYLE
280
     0
  9
$LWDISPLAY
290
     0
  9
$INSUNITS
 70
     1
  9
$HYPERLINKBASE
  1

  9
$STYLESHEET
  1

  9
$XEDIT
290
     1
  9
$CEPSNTYPE
380
     0
  9
$PSTYLEMODE
290
     1
  9
$FINGERPRINTGUID
  2
{CE07115A-6C70-48F2-8FBF-5B012D811CF6}
  9
$VERSIONGUID
  2
{FAEB1C32-E019-11D5-929B-00C0DF256EC4}
  9
$EXTNAMES
290
     1
  9
$PSVPSCALE
 40
0.0
  9
$OLESTARTUP
290
     0
  9
$SORTENTS
280
   127
  9
$INDEXCTL
280
     0
  9
$HIDETEXT
280
     1
  9
$XCLIPFRAME
290
     0
  9
$HALOGAP
280
     0
  9
$OBSCOLOR
 70
   257
  9
$OBSLTYPE
280
     0
  9
$INTERSECTIONDISPLAY
280
     0
  9
$INTERSECTIONCOLOR
 70
   257
  9
$DIMASSOC
280
     2
  9
$PROJECTNAME
  1

  0
ENDSEC
  0
SECTION
  2
CLASSES
  0
CLASS
  1
ACDBDICTIONARYWDFLT
  2
AcDbDictionaryWithDefault
  3
ObjectDBX Classes
 90
        0
 91
        4
280
     0
281
     0
  0
CLASS
  1
VISUALSTYLE
  2
AcDbVisualStyle
  3
ObjectDBX Classes
 90
     4095
 91
        4
280
     0
281
     0
  0
ENDSEC
  0
SECTION
  2
TABLES
  0
TABLE
  2
VPORT
  5
8
330
0
100
AcDbSymbolTable
 70
     1
  0
VPORT
  5
29
330
8
100
AcDbSymbolTableRecord
100
AcDbViewportTableRecord
  2
*Active
 70
     0
 10
0.0
 20
0.0
 11
1.0
 21
1.0
 12
17.48203025461961
 22
34.63000160466554
 13
0.0
 23
0.0
 14
0.5
 24
0.5
 15
0.5
 25
0.5
 16
0.0
 26
0.0
 36
1.0
 17
0.0
 27
0.0
 37
0.0
 40
70.6550748249497
 41
0.7942386889721383
 42
50.0
 43
0.0
 44
0.0
 50
0.0
 51
0.0
 71
     0
 72
   100
 73
     1
 74
     3
 75
     0
 76
     0
 77
     0
 78
     0
281
     0
 65
     1
110
0.0
120
0.0
130
0.0
111
1.0
121
0.0
131
0.0
112
0.0
122
1.0
132
0.0
 79
     0
146
0.0
  0
ENDTAB
  0
TABLE
  2
LTYPE
  5
5
330
0
100
AcDbSymbolTable
 70
     1
  0
LTYPE
  5
14
330
5
100
AcDbSymbolTableRecord
100
AcDbLinetypeTableRecord
  2
ByBlock
 70
     0
  3

 72
    65
 73
     0
 40
0.0
  0
LTYPE
  5
15
330
5
100
AcDbSymbolTableRecord
100
AcDbLinetypeTableRecord
  2
ByLayer
 70
     0
  3

 72
    65
 73
     0
 40
0.0
  0
LTYPE
  5
16
330
5
100
AcDbSymbolTableRecord
100
AcDbLinetypeTableRecord
  2
Continuous
 70
     0
  3
Solid line
 72
    65
 73
     0
 40
0.0
  0
ENDTAB
  0
TABLE
  2
LAYER
  5
2
330
0
100
AcDbSymbolTable
 70
     2
  0
LAYER
  5
10
330
2
100
AcDbSymbolTableRecord
100
AcDbLayerTableRecord
  2
0
 70
     0
 62
     7
  6
Continuous
370
    -3
390
F
  0
LAYER
  5
3B
330
2
100
AcDbSymbolTableRecord
100
AcDbLayerTableRecord
  2
Default
 70
     0
 62
     7
  6
Continuous
370
    -3
390
F
  0
ENDTAB
  0
TABLE
  2
STYLE
  5
3
330
0
100
AcDbSymbolTable
 70
     1
  0
STYLE
  5
11
330
3
100
AcDbSymbolTableRecord
100
AcDbTextStyleTableRecord
  2
Standard
 70
     0
 40
0.0
 41
1.0
 50
0.0
 71
     0
 42
0.2
  3
txt
  4

  0
ENDTAB
  0
TABLE
  2
VIEW
  5
6
330
0
100
AcDbSymbolTable
 70
     0
  0
ENDTAB
  0
TABLE
  2
UCS
  5
7
330
0
100
AcDbSymbolTable
 70
     0
  0
ENDTAB
  0
TABLE
  2
APPID
  5
9
330
0
100
AcDbSymbolTable
 70
     1
  0
APPID
  5
12
330
9
100
AcDbSymbolTableRecord
100
AcDbRegAppTableRecord
  2
ACAD
 70
     0
  0
ENDTAB
  0
TABLE
  2
DIMSTYLE
  5
A
330
0
100
AcDbSymbolTable
 70
     1
100
AcDbDimStyleTable
  0
DIMSTYLE
105
27
330
A
100
AcDbSymbolTableRecord
100
AcDbDimStyleTableRecord
  2
Standard
 70
     0
340
11
  0
ENDTAB
  0
TABLE
  2
BLOCK_RECORD
  5
1
330
0
100
AcDbSymbolTable
 70
     1
  0
BLOCK_RECORD
  5
1F
330
1
100
AcDbSymbolTableRecord
100
AcDbBlockTableRecord
  2
*Model_Space
340
22
  0
BLOCK_RECORD
  5
1B
330
1
100
AcDbSymbolTableRecord
100
AcDbBlockTableRecord
  2
*Paper_Space
340
1E
  0
BLOCK_RECORD
  5
23
330
1
100
AcDbSymbolTableRecord
100
AcDbBlockTableRecord
  2
*Paper_Space0
340
26
  0
ENDTAB
  0
ENDSEC
  0
SECTION
  2
BLOCKS
  0
BLOCK
  5
20
330
1F
100
AcDbEntity
  8
0
100
AcDbBlockBegin
  2
*Model_Space
 70
     0
 10
0.0
 20
0.0
 30
0.0
  3
*Model_Space
  1

  0
ENDBLK
  5
21
330
1F
100
AcDbEntity
  8
0
100
AcDbBlockEnd
  0
BLOCK
  5
1C
330
1B
100
AcDbEntity
 67
     1
  8
0
100
AcDbBlockBegin
  2
*Paper_Space
 70
     0
 10
0.0
 20
0.0
 30
0.0
  3
*Paper_Space
  1

  0
ENDBLK
  5
1D
330
1B
100
AcDbEntity
 67
     1
  8
0
100
AcDbBlockEnd
  0
BLOCK
  5
24
330
23
100
AcDbEntity
  8
0
100
AcDbBlockBegin
  2
*Paper_Space0
 70
     0
 10
0.0
 20
0.0
 30
0.0
  3
*Paper_Space0
  1

  0
ENDBLK
  5
25
330
23
100
AcDbEntity
  8
0
100
AcDbBlockEnd
  0
ENDSEC
  0
SECTION
  2
ENTITIES
  0
LINE
  5
3C
330
1F
100
AcDbEntity
  8
Default
  6
Continuous
100
AcDbLine
 10
27.10181699342969
 20
15.04616302749406
 30
0.0
 11
26.72674629848703
 21
15.02978708728729
 31
0.0
  0
ARC
  5
3D
330
1F
100
AcDbEntity
  8
Default
  6
Continuous
100
AcDbCircle
 10
26.69128373655901
 20
15.84201329143334
 30
0.0
 40
0.813
100
AcDbArc
 50
229.9855880265003
 51
272.5000000000005
  0
SPLINE
  5
3E
330
1F
100
AcDbEntity
  8
Default
  6
Continuous
100
AcDbSpline
210
0.0
220
0.0
230
1.0
 70
     8
 71
     3
 72
    10
 73
     6
 74
     0
 42
0.0000000001
 43
0.0000000001
 40
7.022346633940672
 40
7.022346633940672
 40
7.022346633940672
 40
7.022346633940672
 40
8.0
 40
9.0
 40
10.0
 40
10.0
 40
10.0
 40
10.0
 10
7.729929643239508
 20
15.71286110175146
 30
0.0
 10
7.919633307299065
 20
15.7364361200988
 30
0.0
 10
8.30307946406657
 20
15.7891322724855
 30
0.0
 10
8.874141676810098
 20
15.88256343085241
 30
0.0
 10
9.246156455023993
 20
16.05569322158887
 30
0.0
 10
9.346882083691654
 20
16.22622985646667
 30
0.0
  0
POLYLINE
  5
3F
330
1F
100
AcDbEntity
  8
Default
  6
Continuous
100
AcDb2dPolyline
 66
     1
 10
0.0
 20
0.0
 30
0.0
  0
VERTEX
  5
40
330
3F
100
AcDbEntity
  8
Default
  6
Continuous
100
AcDbVertex
100
AcDb2dVertex
 10
9.346882083691654
 20
16.22622985646667
 30
0.0
  0
VERTEX
  5
41
330
3F
100
AcDbEntity
  8
Default
  6
Continuous
100
AcDbVertex
100
AcDb2dVertex
 10
9.384341039691662
 20
16.41094520393334
 30
0.0
  0
VERTEX
  5
42
330
3F
100
AcDbEntity
  8
Default
  6
Continuous
100
AcDbVertex
100
AcDb2dVertex
 10
9.42468220929166
 20
16.66838644313334
 30
0.0
  0
VERTEX
  5
43
330
3F
100
AcDbEntity
  8
Default
  6
Continuous
100
AcDbVertex
100
AcDb2dVertex
 10
9.45176990609167
 20
16.92824515833335
 30
0.0
  0
VERTEX
  5
44
330
3F
100
AcDbEntity
  8
Default
  6
Continuous
100
AcDbVertex
100
AcDb2dVertex
 10
9.465490514091655
 20
17.18993064313334
 30
0.0
  0
VERTEX
  5
45
330
3F
100
AcDbEntity
  8
Default
  6
Continuous
100
AcDbVertex
100
AcDb2dVertex
 10
9.465718269825004
 20
17.45268226873334
 30
0.0
  0
VERTEX
  5
46
330
3F
100
AcDbEntity
  8
Default
  6
Continuous
100
AcDbVertex
100
AcDb2dVertex
 10
9.452355266891658
 20
17.71556918180001
 30
0.0
  0
VERTEX
  5
47
330
3F
100
AcDbEntity
  8
Default
  6
Continuous
100
AcDbVertex
100
AcDb2dVertex
 10
9.425329746891663
 20
17.97780554606668
 30
0.0
  0
VERTEX
  5
48
330
3F
100
AcDbEntity
  8
Default
  6
Continuous
100
AcDbVertex
100
AcDb2dVertex
 10
9.384552378358322
 20
18.23875069780001
 30
0.0
  0
VERTEX
  5
49
330
3F
100
AcDbEntity
  8
Default
  6
Continuous
100
AcDbVertex
100
AcDb2dVertex
 10
9.347337968758325
 20
18.42224109846667
 30
0.0
  0
SEQEND
  5
4A
330
3F
100
AcDbEntity
  8
Default
  6
Continuous
  0
SPLINE
  5
4B
330
1F
100
AcDbEntity
  8
Default
  6
Continuous
100
AcDbSpline
210
0.0
220
0.0
230
1.0
 70
     8
 71
     3
 72
    29
 73
    25
 74
     0
 42
0.0000000001
 43
0.0000000001
 40
0.0
 40
0.0
 40
0.0
 40
0.0
 40
0.0018649516990507
 40
0.0041229248655613
 40
0.0071392599544101
 40
0.0111974032739463
 40
0.0165015217301838
 40
0.0231795004268895
 40
0.0313731989682422
 40
0.0367914495278415
 40
0.0434872304250717
 40
0.0606413267303607
 40
0.0828314253839897
 40
0.1098695728804222
 40
0.1413718597083498
 40
0.1765351133441145
 40
0.2145024675624765
 40
0.2958912236598542
 40
0.3812166439731898
 40
0.4683182067388432
 40
0.5562751132296916
 40
0.6447099330346173
 40
0.822231503063672
 40
1.0
 40
1.0
 40
1.0
 40
1.0
 10
9.347337968758325
 20
18.42224109846667
 30
0.0
 10
9.34607119512107
 20
18.42793356367382
 30
0.0
 10
9.340936358839954
 20
18.44012073001051
 30
0.0
 10
9.325088904758331
 20
18.45639446606667
 30
0.0
 10
9.299781435958323
 20
18.47131951913335
 30
0.0
 10
9.263663632758323
 20
18.48549471886668
 30
0.0
 10
9.215291033024997
 20
18.49898639726668
 30
0.0
 10
9.153474702091671
 20
18.51168859566667
 30
0.0
 10
9.090852590091657
 20
18.52216025646668
 30
0.0
 10
9.02762886049166
 20
18.5283576874
 30
0.0
 10
8.936286737824986
 20
18.53421465460001
 30
0.0
 10
8.792337183958324
 20
18.53826665806668
 30
0.0
 10
8.584748506625004
 20
18.53846794420001
 30
0.0
 10
8.332331922091669
 20
18.53393611273334
 30
0.0
 10
8.039456948224995
 20
18.52484201753335
 30
0.0
 10
7.712515625024992
 20
18.51210137860001
 30
0.0
 10
7.22978667489167
 20
18.49115489540002
 30
0.0
 10
6.590417476491666
 20
18.46185644500001
 30
0.0
 10
5.79748000289166
 20
18.42743592020001
 30
0.0
 10
4.983882696224981
 20
18.39547797726668
 30
0.0
 10
4.160409138624999
 20
18.36750669940001
 30
0.0
 10
3.05417863569167
 20
18.33553041566668
 30
0.0
 10
1.666889134358343
 20
18.30780987140001
 30
0.0
 10
0.5558827943583253
 20
18.30012705006668
 30
0.0
 10
-0.0000000003083471
 20
18.30012705006668
 30
0.0
  0
SPLINE
  5
4C
330
1F
100
AcDbEntity
  8
Default
  6
Continuous
100
AcDbSpline
210
0.0
220
0.0
230
1.0
 70
     8
 71
     3
 72
    29
 73
    25
 74
     0
 42
0.0000000001
 43
0.0000000001
 40
-1.0
 40
-1.0
 40
-1.0
 40
-1.0
 40
-0.8222315030636721
 40
-0.6447099330346175
 40
-0.5562751132296919
 40
-0.4683182067388437
 40
-0.3812166439731903
 40
-0.2958912236598547
 40
-0.2145024675624771
 40
-0.1765351133441152
 40
-0.1413718597083505
 40
-0.1098695728804229
 40
-0.0828314253839904
 40
-0.0606413267303614
 40
-0.0434872304250724
 40
-0.0367914495278423
 40
-0.0313731989682429
 40
-0.0231795004268903
 40
-0.0165015217301845
 40
-0.0111974032739471
 40
-0.0071392599544109
 40
-0.004122924865562
 40
-0.0018649516990515
 40
0.0
 40
0.0
 40
0.0
 40
0.0
 10
-0.0000000003083471
 20
18.30012705006668
 30
0.0
 10
-0.5558827947083387
 20
18.30012705006668
 30
0.0
 10
-1.666889134708356
 20
18.30780987140001
 30
0.0
 10
-3.054178636041655
 20
18.33553041566668
 30
0.0
 10
-4.160409138975012
 20
18.36750669940001
 30
0.0
 10
-4.983882696575023
 20
18.39547797726668
 30
0.0
 10
-5.797480003241702
 20
18.42743592020001
 30
0.0
 10
-6.590417476841679
 20
18.46185644500001
 30
0.0
 10
-7.229786675241684
 20
18.49115489540002
 30
0.0
 10
-7.712515625375033
 20
18.51210137860001
 30
0.0
 10
-8.03945694857498
 20
18.52484201753335
 30
0.0
 10
-8.332331922441654
 20
18.53393611273334
 30
0.0
 10
-8.584748506975018
 20
18.53846794420001
 30
0.0
 10
-8.792337184308337
 20
18.53826665806668
 30
0.0
 10
-8.93628673844168
 20
18.53421465460001
 30
0.0
 10
-9.027628860841673
 20
18.5283576874
 30
0.0
 10
-9.09085259044167
 20
18.52216025646668
 30
0.0
 10
-9.153474702441684
 20
18.51168859566667
 30
0.0
 10
-9.215291033374996
 20
18.49898639726668
 30
0.0
 10
-9.263663633108365
 20
18.48549471886668
 30
0.0
 10
-9.299781436308365
 20
18.47131951913335
 30
0.0
 10
-9.325088905108345
 20
18.45639446606667
 30
0.0
 10
-9.340936359456663
 20
18.44012073001051
 30
0.0
 10
-9.346071195471097
 20
18.42793356367382
 30
0.0
 10
-9.347337969108338
 20
18.42224109846667
 30
0.0
  0
POLYLINE
  5
4D
330
1F
100
AcDbEntity
  8
Default
  6
Continuous
100
AcDb2dPolyline
 66
     1
 10
0.0
 20
0.0
 30
0.0
  0
VERTEX
  5
4E
330
4D
100
AcDbEntity
  8
Default
  6
Continuous
100
AcDbVertex
100
AcDb2dVertex
 10
-9.347337969108338
 20
18.42224109846667
 30
0.0
  0
VERTEX
  5
4F
330
4D
100
AcDbEntity
  8
Default
  6
Continuous
100
AcDbVertex
100
AcDb2dVertex
 10
-9.38455237870835
 20
18.23875069780001
 30
0.0
  0
VERTEX
  5
50
330
4D
100
AcDbEntity
  8
Default
  6
Continuous
100
AcDbVertex
100
AcDb2dVertex
 10
-9.425329747241676
 20
17.97780554606668
 30
0.0
  0
VERTEX
  5
51
330
4D
100
AcDbEntity
  8
Default
  6
Continuous
100
AcDbVertex
100
AcDb2dVertex
 10
-9.452355267241671
 20
17.71556918180001
 30
0.0
  0
VERTEX
  5
52
330
4D
100
AcDbEntity
  8
Default
  6
Continuous
100
AcDbVertex
100
AcDb2dVertex
 10
-9.465718270174989
 20
17.45268226873334
 30
0.0
  0
VERTEX
  5
53
330
4D
100
AcDbEntity
  8
Default
  6
Continuous
100
AcDbVertex
100
AcDb2dVertex
 10
-9.465490514441683
 20
17.18993064313334
 30
0.0
  0
VERTEX
  5
54
330
4D
100
AcDbEntity
  8
Default
  6
Continuous
100
AcDbVertex
100
AcDb2dVertex
 10
-9.451769906441655
 20
16.92824515833335
 30
0.0
  0
VERTEX
  5
55
330
4D
100
AcDbEntity
  8
Default
  6
Continuous
100
AcDbVertex
100
AcDb2dVertex
 10
-9.424682209641674
 20
16.66838644313334
 30
0.0
  0
VERTEX
  5
56
330
4D
100
AcDbEntity
  8
Default
  6
Continuous
100
AcDbVertex
100
AcDb2dVertex
 10
-9.384341040041676
 20
16.41094520393334
 30
0.0
  0
VERTEX
  5
57
330
4D
100
AcDbEntity
  8
Default
  6
Continuous
100
AcDbVertex
100
AcDb2dVertex
 10
-9.346882083641674
 20
16.22622985646667
 30
0.0
  0
SEQEND
  5
58
330
4D
100
AcDbEntity
  8
Default
  6
Continuous
  0
SPLINE
  5
59
330
1F
100
AcDbEntity
  8
Default
  6
Continuous
100
AcDbSpline
210
0.0
220
0.0
230
1.0
 70
     8
 71
     3
 72
    10
 73
     6
 74
     0
 42
0.0000000001
 43
0.0000000001
 40
-10.0
 40
-10.0
 40
-10.0
 40
-10.0
 40
-9.0
 40
-8.0
 40
-7.022346634609328
 40
-7.022346634609328
 40
-7.022346634609328
 40
-7.022346634609328
 10
-9.346882083641674
 20
16.22622985646667
 30
0.0
 10
-9.24615645457402
 20
16.05569322158887
 30
0.0
 10
-8.874141676360125
 20
15.88256343085241
 30
0.0
 10
-8.303079463744837
 20
15.78913227250648
 30
0.0
 10
-7.919633307108384
 20
15.73643612013444
 30
0.0
 10
-7.729929643178778
 20
15.71286110179982
 30
0.0
  0
POLYLINE
  5
5A
330
1F
100
AcDbEntity
  8
Default
100
AcDb2dPolyline
 66
     1
 10
0.0
 20
0.0
 30
0.0
  0
VERTEX
  5
5B
330
5A
100
AcDbEntity
  8
Default
100
AcDbVertex
100
AcDb2dVertex
 10
27.50954241682568
 20
15.52360964610001
 30
0.0
  0
VERTEX
  5
5C
330
5A
100
AcDbEntity
  8
Default
100
AcDbVertex
100
AcDb2dVertex
 10
25.32928501415903
 20
15.05880266450001
 30
0.0
  0
SEQEND
  5
5D
330
5A
100
AcDbEntity
  8
Default
  0
SPLINE
  5
5E
330
1F
100
AcDbEntity
  8
Default
  6
Continuous
100
AcDbSpline
210
0.0
220
0.0
230
1.0
 70
     8
 71
     3
 72
     9
 73
     5
 74
     0
 42
0.0000000001
 43
0.0000000001
 40
0.0
 40
0.0
 40
0.0
 40
0.0
 40
1.0
 40
2.0
 40
2.0
 40
2.0
 40
2.0
 10
26.26292841069234
 20
15.25993316183334
 30
0.0
 10
26.34246731062809
 20
15.27670948583664
 30
0.0
 10
26.50000260137219
 20
15.32333594178523
 30
0.0
 10
26.65016098990266
 20
15.42475213284773
 30
0.0
 10
26.70235946655902
 20
15.4875194765
 30
0.0
  0
SPLINE
  5
5F
330
1F
100
AcDbEntity
  8
Default
  6
Continuous
100
AcDbSpline
210
0.0
220
0.0
230
1.0
 70
     8
 71
     3
 72
    25
 73
    21
 74
     0
 42
0.0000000001
 43
0.0000000001
 40
0.0
 40
0.0
 40
0.0
 40
0.0
 40
1.0
 40
2.0
 40
3.0
 40
4.0
 40
5.0
 40
6.0
 40
7.0
 40
8.0
 40
9.0
 40
10.0
 40
11.0
 40
12.0
 40
13.0
 40
14.0
 40
15.0
 40
16.0
 40
17.0
 40
18.0
 40
18.0
 40
18.0
 40
18.0
 10
26.70235946655902
 20
15.4875194765
 30
0.0
 10
26.94295877923534
 20
15.77683404482883
 30
0.0
 10
26.95486825916311
 20
16.55973683518108
 30
0.0
 10
26.74278511419519
 20
17.62498234034476
 30
0.0
 10
26.47935359426735
 20
18.68819580607274
 30
0.0
 10
26.20272035005505
 20
19.74525337718885
 30
0.0
 10
25.91133221342268
 20
20.79908456018617
 30
0.0
 10
25.61540665917751
 20
21.85142942657925
 30
0.0
 10
25.31763831267988
 20
22.90331259293002
 30
0.0
 10
25.0151502336165
 20
23.95383580022974
 30
0.0
 10
24.70628472366901
 20
25.00250853009726
 30
0.0
 10
24.39012858418552
 20
26.04900439433284
 30
0.0
 10
24.06598977838898
 20
27.09306337904852
 30
0.0
 10
23.73365093174009
 20
28.13451801504435
 30
0.0
 10
23.3935667656469
 20
29.17355218055222
 30
0.0
 10
23.04490118908168
 20
30.20943360455897
 30
0.0
 10
22.69050646262008
 20
31.24449298168958
 30
0.0
 10
22.28464883186426
 20
32.25726099110103
 30
0.0
 10
21.8385631232407
 20
33.26512100770502
 30
0.0
 10
21.33700488115468
 20
33.80681931370979
 30
0.0
 10
21.03021887789235
 20
34.00723229303334
 30
0.0
  0
POLYLINE
  5
60
330
1F
100
AcDbEntity
  8
Default
100
AcDb2dPolyline
 66
     1
 10
0.0
 20
0.0
 30
0.0
  0
VERTEX
  5
61
330
60
100
AcDbEntity
  8
Default
100
AcDbVertex
100
AcDb2dVertex
 10
25.32928501415903
 20
15.05880266450001
 30
0.0
  0
VERTEX
  5
62
330
60
100
AcDbEntity
  8
Default
100
AcDbVertex
100
AcDb2dVertex
 10
26.84571546341162
 20
15.3482795836911
 30
0.0
  0
SEQEND
  5
63
330
60
100
AcDbEntity
  8
Default
  0
SPLINE
  5
64
330
1F
100
AcDbEntity
  8
Default
  6
Continuous
100
AcDbSpline
210
0.0
220
0.0
230
1.0
 70
     8
 71
     3
 72
    25
 73
    21
 74
     0
 42
0.0000000001
 43
0.0000000001
 40
0.0
 40
0.0
 40
0.0
 40
0.0
 40
1.0
 40
2.0
 40
3.0
 40
4.0
 40
5.0
 40
6.0
 40
7.0
 40
8.0
 40
9.0
 40
10.0
 40
11.0
 40
12.0
 40
13.0
 40
14.0
 40
15.0
 40
16.0
 40
17.0
 40
18.0
 40
18.0
 40
18.0
 40
18.0
 10
27.50954241682568
 20
15.52360964610001
 30
0.0
 10
27.92666019495653
 20
15.57858384136976
 30
0.0
 10
28.24441146012394
 20
16.35608469288771
 30
0.0
 10
28.05129134170654
 20
17.46077725854315
 30
0.0
 10
27.81101734169789
 20
18.55481276616428
 30
0.0
 10
27.55378409172747
 20
19.64515783319055
 30
0.0
 10
27.27880182515428
 20
20.73111336218165
 30
0.0
 10
26.99146809276422
 20
21.8138604881584
 30
0.0
 10
26.69403292020128
 20
22.89386913702468
 30
0.0
 10
26.38889248274889
 20
23.97172464571719
 30
0.0
 10
26.07567973997261
 20
25.04726393212974
 30
0.0
 10
25.7538484354657
 20
26.12025508048065
 30
0.0
 10
25.42354526116387
 20
27.1906719991517
 30
0.0
 10
25.08535833962192
 20
28.25860838889268
 30
0.0
 10
24.73832657589529
 20
29.3237663630775
 30
0.0
 10
24.38491381619338
 20
30.38657880538813
 30
0.0
 10
24.02014511677885
 20
31.4464914195658
 30
0.0
 10
23.60736478316318
 20
32.48599367004816
 30
0.0
 10
23.16932195499024
 20
33.5246506299636
 30
0.0
 10
22.68870905449631
 20
34.10643823595724
 30
0.0
 10
22.37280588895857
 20
34.31313860232326
 30
0.0
  0
ARC
  5
65
330
1F
100
AcDbEntity
  8
Default
  6
Continuous
100
AcDbCircle
 10
22.16570270589234
 20
32.12290841543334
 30
0.0
 40
2.199999999999999
100
AcDbArc
 50
84.59830240049945
 51
121.0730536916995
  0
ARC
  5
66
330
1F
100
AcDbEntity
  8
Default
  6
Continuous
100
AcDbCircle
 10
29.73920635416212
 20
3.471187075430606
 30
0.0
 40
12.22446792235284
100
AcDbArc
 50
100.181721045446
 51
103.6916569885555
  0
SPLINE
  5
67
330
1F
100
AcDbEntity
  8
Default
  6
Continuous
100
AcDbSpline
210
0.0
220
0.0
230
1.0
 70
     8
 71
     3
 72
    17
 73
    13
 74
     0
 42
0.0000000001
 43
0.0000000001
 40
0.0
 40
0.0
 40
0.0
 40
0.0
 40
1.0
 40
2.0
 40
3.0
 40
4.0
 40
5.0
 40
6.0
 40
7.0
 40
8.0
 40
9.0
 40
10.0
 40
10.0
 40
10.0
 40
10.0
 10
27.57827804722568
 20
15.50314472316668
 30
0.0
 10
28.1490646983103
 20
15.60565747027415
 30
0.0
 10
29.30183317164565
 20
15.73681100840113
 30
0.0
 10
31.03630655265681
 20
15.86556824014603
 30
0.0
 10
32.77233168284765
 20
15.97188691355868
 30
0.0
 10
34.509082514573
 20
16.06520220845761
 30
0.0
 10
36.2462740380184
 20
16.14940571673789
 30
0.0
 10
37.98391789444827
 20
16.22589088516187
 30
0.0
 10
39.72161061086963
 20
16.29264385809932
 30
0.0
 10
41.46073236940018
 20
16.35586415670222
 30
0.0
 10
43.19625476884339
 20
16.382714597827
 30
0.0
 10
44.36467949551927
 20
16.32547267382824
 30
0.0
 10
44.91479728189235
 20
16.13719029916668
 30
0.0
  0
SPLINE
  5
68
330
1F
100
AcDbEntity
  8
Default
  6
Continuous
100
AcDbSpline
210
0.0
220
0.0
230
1.0
 70
     8
 71
     3
 72
    36
 73
    32
 74
     0
 42
0.0000000001
 43
0.0000000001
 40
0.0
 40
0.0
 40
0.0
 40
0.0
 40
0.0268293352558578
 40
0.0595097548675145
 40
0.0970237093252662
 40
0.1380956546169486
 40
0.1815031125309036
 40
0.2263067799581736
 40
0.2718427483924272
 40
0.3176192565289746
 40
0.3634947203664658
 40
0.4094370792045949
 40
0.5014498873820746
 40
0.593563853160519
 40
0.6856946055391234
 40
0.7316409500772907
 40
0.777323086212938
 40
0.822333118342176
 40
0.8643548613429163
 40
0.9006659570891968
 40
0.9292564473618499
 40
0.9502818266623583
 40
0.9653869687064084
 40
0.9762731215102243
 40
0.9843452085872036
 40
0.990262839743637
 40
0.9944180083832629
 40
0.9971389310092109
 40
0.9988199332252418
 40
0.9997248131338712
 40
1.0
 40
1.0
 40
1.0
 40
1.0
 10
27.98441390162567
 20
17.75003451303334
 30
0.0
 10
28.13390315335901
 20
17.77145400236667
 30
0.0
 10
28.46606751282569
 20
17.81491770396667
 30
0.0
 10
29.00891984749235
 20
17.87490040850001
 30
0.0
 10
29.63261333149235
 20
17.93220779756668
 30
0.0
 10
30.31720159309235
 20
17.98581484716668
 30
0.0
 10
31.04313162482568
 20
18.03666138023334
 30
0.0
 10
31.79440039709236
 20
18.08518702103333
 30
0.0
 10
32.55921898775902
 20
18.13063896983334
 30
0.0
 10
33.33019863709235
 20
18.17402480183334
 30
0.0
 10
34.10358184162568
 20
18.21535945570001
 30
0.0
 10
35.13698262029236
 20
18.26798861570001
 30
0.0
 10
36.43053407949235
 20
18.32941961036667
 30
0.0
 10
37.98406993122569
 20
18.3967149253
 30
0.0
 10
39.27877708135901
 20
18.44730704343334
 30
0.0
 10
40.31246416935902
 20
18.48404279756667
 30
0.0
 10
41.08116328642568
 20
18.50898787116667
 30
0.0
 10
41.82784792642569
 20
18.53160974956667
 30
0.0
 10
42.52210369495901
 20
18.54078337916667
 30
0.0
 10
43.12399864722568
 20
18.53435112423334
 30
0.0
 10
43.60730034082569
 20
18.51282561463334
 30
0.0
 10
43.97040292375901
 20
18.48216999810001
 30
0.0
 10
44.23306753789234
 20
18.44916139596667
 30
0.0
 10
44.42210515255901
 20
18.41679796983334
 30
0.0
 10
44.55916696295901
 20
18.38801721516667
 30
0.0
 10
44.65825296855901
 20
18.36312444183334
 30
0.0
 10
44.72716997815901
 20
18.3421019317
 30
0.0
 10
44.77221497362568
 20
18.32489756930001
 30
0.0
 10
44.79924069415902
 20
18.31214469810001
 30
0.0
 10
44.81345033052889
 20
18.30452994748144
 30
0.0
 10
44.81906782149889
 20
18.30098504899495
 30
0.0
 10
44.82036174079313
 20
18.30013215209129
 30
0.0
  0
ARC
  5
69
330
1F
100
AcDbEntity
  8
Default
  6
Continuous
100
AcDbCircle
 10
39.97089294695901
 20
17.00486831863334
 30
0.0
 40
5.019467698933335
100
AcDbArc
 50
350.0467139070004
 51
14.95427158620035
  0
LINE
  5
6A
330
1F
100
AcDbEntity
  8
Default
  6
Continuous
100
AcDbLine
 10
44.91481265277918
 20
16.13727744556121
 30
0.0
 11
26.84571546341162
 21
15.34827958369111
 31
0.0
  0
LINE
  5
6B
330
1F
100
AcDbEntity
  8
Default
  6
Continuous
100
AcDbLine
 10
21.03021545682567
 20
34.00723023143335
 30
0.0
 11
25.32928084295901
 21
15.05880188503334
 31
0.0
  0
LINE
  5
6C
330
1F
100
AcDbEntity
  8
Default
  6
Continuous
100
AcDbLine
 10
28.64982633175902
 20
15.42704885330001
 30
0.0
 11
28.63539101175901
 21
15.42644260103334
 31
0.0
  0
LINE
  5
6D
330
1F
100
AcDbEntity
  8
Default
  6
Continuous
100
AcDbLine
 10
38.89109703015902
 20
15.87419230263334
 30
0.0
 11
38.90157018269235
 21
15.87465201223334
 31
0.0
  0
SPLINE
  5
6E
330
1F
100
AcDbEntity
  8
Default
  6
Continuous
100
AcDbSpline
210
0.0
220
0.0
230
1.0
 70
     8
 71
     3
 72
    31
 73
    27
 74
     0
 42
0.0000000001
 43
0.0000000001
 40
0.0
 40
0.0
 40
0.0
 40
0.0
 40
0.0037220821
 40
0.0057924638
 40
0.0084688316
 40
0.0121337093
 40
0.0170447498
 40
0.0234385228
 40
0.0271613998
 40
0.0312218642
 40
0.0359859202
 40
0.0418707346
 40
0.0490267908
 40
0.057463594
 40
0.0781277012
 40
0.1038098573
 40
0.1345135264
 40
0.1698072455
 40
0.2507580647
 40
0.3396850359
 40
0.4319896428
 40
0.5257189732
 40
0.6200879568
 40
0.7148941532
 40
0.8098782232
 40
1.0
 40
1.0
 40
1.0
 40
1.0
 10
-9.346881748575015
 20
16.22622835006668
 30
0.0
 10
-9.3494216768417
 20
16.237622597
 30
0.0
 10
-9.349618201375023
 20
16.25722957220001
 30
0.0
 10
-9.335092205108339
 20
16.28023745326667
 30
0.0
 10
-9.313889924308342
 20
16.29654491886668
 30
0.0
 10
-9.281839681641685
 20
16.31162945833334
 30
0.0
 10
-9.237077878175
 20
16.32608481966668
 30
0.0
 10
-9.191083234975025
 20
16.33655036873334
 30
0.0
 10
-9.147415662441688
 20
16.34492363486667
 30
0.0
 10
-9.108630863508324
 20
16.35163348766667
 30
0.0
 10
-9.062848462441679
 20
16.35745703060001
 30
0.0
 10
-9.007190315508353
 20
16.3621440906
 30
0.0
 10
-8.939922734708347
 20
16.36583580313334
 30
0.0
 10
-8.826263320575038
 20
16.36962605833335
 30
0.0
 10
-8.654423858975008
 20
16.37097013620001
 30
0.0
 10
-8.412775355241678
 20
16.36792924820001
 30
0.0
 10
-8.125332192041668
 20
16.36006674046668
 30
0.0
 10
-7.664749738175004
 20
16.34322876446668
 30
0.0
 10
-7.021878132041678
 20
16.31474400153334
 30
0.0
 10
-6.200370282441668
 20
16.27853424926668
 30
0.0
 10
-5.338689109641678
 20
16.24361089060001
 30
0.0
 10
-4.459780290441671
 20
16.21255489673334
 30
0.0
 10
-3.572876163775021
 20
16.18592228126668
 30
0.0
 10
-2.681889736575016
 20
16.16461684713334
 30
0.0
 10
-1.490515977641678
 20
16.14365996766667
 30
0.0
 10
-0.5962963120416589
 20
16.13718540526668
 30
0.0
 10
-0.0000000003083471
 20
16.13718540526668
 30
0.0
  0
SPLINE
  5
6F
330
1F
100
AcDbEntity
  8
Default
  6
Continuous
100
AcDbSpline
210
0.0
220
0.0
230
1.0
 70
     8
 71
     3
 72
    31
 73
    27
 74
     0
 42
0.0000000001
 43
0.0000000001
 40
-1.0
 40
-1.0
 40
-1.0
 40
-1.0
 40
-0.8098782232
 40
-0.7148941532
 40
-0.6200879568
 40
-0.5257189732
 40
-0.4319896428
 40
-0.3396850359
 40
-0.2507580647
 40
-0.1698072455
 40
-0.1345135264
 40
-0.1038098573
 40
-0.0781277012
 40
-0.057463594
 40
-0.0490267908
 40
-0.0418707346
 40
-0.0359859202
 40
-0.0312218642
 40
-0.0271613998
 40
-0.0234385228
 40
-0.0170447498
 40
-0.0121337093
 40
-0.0084688316
 40
-0.0057924638
 40
-0.0037220821
 40
0.0
 40
0.0
 40
0.0
 40
0.0
 10
-0.0000000003083471
 20
16.13718540526668
 30
0.0
 10
0.5962963116916455
 20
16.13718540526668
 30
0.0
 10
1.490515977291665
 20
16.14365996766667
 30
0.0
 10
2.681889736225003
 20
16.16461684713334
 30
0.0
 10
3.572876163425008
 20
16.18592228126668
 30
0.0
 10
4.459780290091658
 20
16.21255489673334
 30
0.0
 10
5.338689109291664
 20
16.24361089060001
 30
0.0
 10
6.200370282091654
 20
16.27853424926668
 30
0.0
 10
7.021878131691665
 20
16.31474400153334
 30
0.0
 10
7.664749737824991
 20
16.34322876446668
 30
0.0
 10
8.125332191691683
 20
16.36006674046668
 30
0.0
 10
8.412775354891664
 20
16.36792924820001
 30
0.0
 10
8.654423858624995
 20
16.37097013620001
 30
0.0
 10
8.826263320224996
 20
16.36962605833335
 30
0.0
 10
8.939922734358333
 20
16.36583580313334
 30
0.0
 10
9.007190315158326
 20
16.3621440906
 30
0.0
 10
9.062848462091665
 20
16.35745703060001
 30
0.0
 10
9.10863086315834
 20
16.35163348766667
 30
0.0
 10
9.147415661824994
 20
16.34492363486667
 30
0.0
 10
9.191083234624983
 20
16.33655036873334
 30
0.0
 10
9.237077877824987
 20
16.32608481966668
 30
0.0
 10
9.281839681291672
 20
16.31162945833334
 30
0.0
 10
9.313889923958328
 20
16.29654491886668
 30
0.0
 10
9.335092204758325
 20
16.28023745326667
 30
0.0
 10
9.349618201024981
 20
16.25722957220001
 30
0.0
 10
9.349421676491659
 20
16.237622597
 30
0.0
 10
9.346881748224988
 20
16.22622835006668
 30
0.0
  0
SPLINE
  5
70
330
1F
100
AcDbEntity
  8
Default
  6
Continuous
100
AcDbSpline
210
0.0
220
0.0
230
1.0
 70
     8
 71
     3
 72
    12
 73
     8
 74
     0
 42
0.0000000001
 43
0.0000000001
 40
0.0
 40
0.0
 40
0.0
 40
0.0
 40
1.000000087140231
 40
2.000000174280462
 40
3.000000261420693
 40
4.000000348560924
 40
5.0
 40
5.0
 40
5.0
 40
5.0
 10
8.835577975958302
 20
18.53650576713335
 30
0.0
 10
8.844396958706739
 20
18.88254237738921
 30
0.0
 10
8.846462294595796
 20
19.57486068307043
 30
0.0
 10
8.832324786271187
 20
20.6131868897759
 30
0.0
 10
8.804296065768227
 20
21.65123690791768
 30
0.0
 10
8.759922234061406
 20
22.68872405575991
 30
0.0
 10
8.719674515112871
 20
23.37984219215083
 30
0.0
 10
8.69645439155829
 20
23.72519730966668
 30
0.0
  0
SPLINE
  5
71
330
1F
100
AcDbEntity
  8
Default
  6
Continuous
100
AcDbSpline
210
0.0
220
0.0
230
1.0
 70
     8
 71
     3
 72
    18
 73
    14
 74
     0
 42
0.0000000001
 43
0.0000000001
 40
-11.0
 40
-11.0
 40
-11.0
 40
-11.0
 40
-10.00000027760901
 40
-9.000000249848105
 40
-8.000000222087206
 40
-7.000000194326304
 40
-6.000000166565403
 40
-5.000000138804504
 40
-4.000000111043603
 40
-3.000000083282702
 40
-2.000000055521801
 40
-1.000000027760901
 40
0.0
 40
0.0
 40
0.0
 40
0.0
 10
8.69645439155829
 20
23.72519730966668
 30
0.0
 10
8.66247656398329
 20
24.21788568723555
 30
0.0
 10
8.588833848713705
 20
25.20296627724427
 30
0.0
 10
8.4369812031361
 20
26.67683207056125
 30
0.0
 10
8.227297203613091
 20
28.14436503141998
 30
0.0
 10
7.919219100813166
 20
29.5935454910082
 30
0.0
 10
7.525329411838641
 20
31.02513941243467
 30
0.0
 10
6.878201872776231
 20
32.36711197706633
 30
0.0
 10
5.841255580379197
 20
33.47243055993
 30
0.0
 10
4.433023600467919
 20
34.00856388029074
 30
0.0
 10
2.95748547430108
 20
34.17315893492652
 30
0.0
 10
1.48235048005975
 20
34.30643485161887
 30
0.0
 10
0.4937148190621485
 20
34.32107031460602
 30
0.0
 10
-0.0000000003083471
 20
34.32290008526668
 30
0.0
  0
SPLINE
  5
72
330
1F
100
AcDbEntity
  8
Default
  6
Continuous
100
AcDbSpline
210
0.0
220
0.0
230
1.0
 70
     8
 71
     3
 72
    18
 73
    14
 74
     0
 42
0.0000000001
 43
0.0000000001
 40
0.0
 40
0.0
 40
0.0
 40
0.0
 40
1.000000027760901
 40
2.000000055521801
 40
3.000000083282702
 40
4.000000111043603
 40
5.000000138804504
 40
6.000000166565403
 40
7.000000194326304
 40
8.000000222087206
 40
9.000000249848105
 40
10.00000027760901
 40
11.0
 40
11.0
 40
11.0
 40
11.0
 10
-0.0000000003083471
 20
34.32290008526668
 30
0.0
 10
-0.4937148196788428
 20
34.32107031460602
 30
0.0
 10
-1.482350480676445
 20
34.30643485161887
 30
0.0
 10
-2.957485474917775
 20
34.17315893492652
 30
0.0
 10
-4.433023601084614
 20
34.00856388029074
 30
0.0
 10
-5.841255580995892
 20
33.47243055993
 30
0.0
 10
-6.878201873392925
 20
32.36711197706633
 30
0.0
 10
-7.525329412455335
 20
31.02513941243467
 30
0.0
 10
-7.91921910142986
 20
29.5935454910082
 30
0.0
 10
-8.227297204229785
 20
28.14436503141998
 30
0.0
 10
-8.436981203752794
 20
26.67683207056125
 30
0.0
 10
-8.588833849330399
 20
25.20296627724427
 30
0.0
 10
-8.662476564599984
 20
24.21788568723555
 30
0.0
 10
-8.696454392174985
 20
23.72519730966668
 30
0.0
  0
SPLINE
  5
73
330
1F
100
AcDbEntity
  8
Default
  6
Continuous
100
AcDbSpline
210
0.0
220
0.0
230
1.0
 70
     8
 71
     3
 72
    12
 73
     8
 74
     0
 42
0.0000000001
 43
0.0000000001
 40
-5.0
 40
-5.0
 40
-5.0
 40
-5.0
 40
-4.000000348560924
 40
-3.000000261420693
 40
-2.000000174280462
 40
-1.000000087140231
 40
0.0
 40
0.0
 40
0.0
 40
0.0
 10
-8.696454392174985
 20
23.72519730966668
 30
0.0
 10
-8.719674515729565
 20
23.37984219215083
 30
0.0
 10
-8.7599222346781
 20
22.68872405575991
 30
0.0
 10
-8.804296066384921
 20
21.65123690791768
 30
0.0
 10
-8.832324786887881
 20
20.6131868897759
 30
0.0
 10
-8.84646229521249
 20
19.57486068307043
 30
0.0
 10
-8.844396959323433
 20
18.88254237738921
 30
0.0
 10
-8.835577976574996
 20
18.53650576713335
 30
0.0
  0
SPLINE
  5
74
330
1F
100
AcDbEntity
  8
Default
  6
Continuous
100
AcDbSpline
210
0.0
220
0.0
230
1.0
 70
     8
 71
     3
 72
    24
 73
    20
 74
     0
 42
0.0000000001
 43
0.0000000001
 40
0.0
 40
0.0
 40
0.0
 40
0.0
 40
1.0
 40
2.0
 40
3.0
 40
4.0
 40
5.0
 40
6.0
 40
7.0
 40
8.0
 40
9.0
 40
10.0
 40
11.0
 40
12.0
 40
13.0
 40
14.0
 40
15.0
 40
16.0
 40
17.0
 40
17.0
 40
17.0
 40
17.0
 10
8.30612807649166
 20
18.53266628153334
 30
0.0
 10
8.337165842299413
 20
18.94843293424982
 30
0.0
 10
8.373557286817459
 20
19.78158439104175
 30
0.0
 10
8.390991570726499
 20
21.03221435821551
 30
0.0
 10
8.38708942027796
 20
22.28293606218347
 30
0.0
 10
8.355608355097331
 20
23.53331132828693
 30
0.0
 10
8.29417191744497
 20
24.78256569753346
 30
0.0
 10
8.200286291779605
 20
26.02986845861906
 30
0.0
 10
8.06359498250913
 20
27.27324581407392
 30
0.0
 10
7.871164742087927
 20
28.50962227099483
 30
0.0
 10
7.602797571462304
 20
29.7314180695867
 30
0.0
 10
7.266143879758431
 20
30.93760217748027
 30
0.0
 10
6.767219253797407
 20
32.08865772416492
 30
0.0
 10
6.037055062920615
 20
33.11877865458219
 30
0.0
 10
4.98369539282163
 20
33.84320415061224
 30
0.0
 10
3.738619118660438
 20
34.06829977129665
 30
0.0
 10
2.499802814142583
 20
34.21494455267144
 30
0.0
 10
1.250536996333068
 20
34.29892339484222
 30
0.0
 10
0.4169258846786761
 20
34.31308959360585
 30
0.0
 10
-0.0000000003083471
 20
34.31313289353334
 30
0.0
  0
SPLINE
  5
75
330
1F
100
AcDbEntity
  8
Default
  6
Continuous
100
AcDbSpline
210
0.0
220
0.0
230
1.0
 70
     8
 71
     3
 72
    24
 73
    20
 74
     0
 42
0.0000000001
 43
0.0000000001
 40
-17.0
 40
-17.0
 40
-17.0
 40
-17.0
 40
-16.0
 40
-15.0
 40
-14.0
 40
-13.0
 40
-12.0
 40
-11.0
 40
-10.0
 40
-9.0
 40
-8.0
 40
-7.0
 40
-6.0
 40
-5.0
 40
-4.0
 40
-3.0
 40
-2.0
 40
-1.0
 40
0.0
 40
0.0
 40
0.0
 40
0.0
 10
-0.0000000003083471
 20
34.31313289353334
 30
0.0
 10
-0.4169258852953703
 20
34.31308959360585
 30
0.0
 10
-1.250536996949762
 20
34.29892339484222
 30
0.0
 10
-2.499802814759278
 20
34.21494455267144
 30
0.0
 10
-3.738619119277132
 20
34.06829977129665
 30
0.0
 10
-4.983695393438325
 20
33.84320415061224
 30
0.0
 10
-6.037055063537309
 20
33.11877865458219
 30
0.0
 10
-6.767219254414101
 20
32.08865772416492
 30
0.0
 10
-7.266143880375125
 20
30.93760217748027
 30
0.0
 10
-7.602797572078998
 20
29.7314180695867
 30
0.0
 10
-7.871164742704622
 20
28.50962227099483
 30
0.0
 10
-8.063594983125824
 20
27.27324581407392
 30
0.0
 10
-8.2002862923963
 20
26.02986845861906
 30
0.0
 10
-8.294171918061664
 20
24.78256569753346
 30
0.0
 10
-8.355608355714025
 20
23.53331132828693
 30
0.0
 10
-8.387089420894654
 20
22.28293606218347
 30
0.0
 10
-8.390991571343193
 20
21.03221435821551
 30
0.0
 10
-8.373557287434153
 20
19.78158439104175
 30
0.0
 10
-8.337165842916107
 20
18.94843293424982
 30
0.0
 10
-8.306128077108355
 20
18.53266628153334
 30
0.0
  0
ARC
  5
76
330
1F
100
AcDbEntity
  8
Default
100
AcDbCircle
 10
-9.840076544806394
 20
-1.322532204970528
 30
0.0
 40
1.87403351473569
100
AcDbArc
 50
71.37677830577167
 51
94.46288826791856
  0
SPLINE
  5
77
330
1F
100
AcDbEntity
  8
Default
  6
Continuous
100
AcDbSpline
210
0.0
220
0.0
230
1.0
 70
     8
 71
     3
 72
     9
 73
     5
 74
     0
 42
0.0000000001
 43
0.0000000001
 40
0.0
 40
0.0
 40
0.0
 40
0.0
 40
1.0
 40
2.0
 40
2.0
 40
2.0
 40
2.0
 10
-9.01802315758799
 20
0.4501488232355229
 30
0.0
 10
-9.045525113411784
 20
0.4184931721443661
 30
0.0
 10
-9.12806300328937
 20
0.4028739775377161
 30
0.0
 10
-9.207336871281015
 20
0.4003326643186327
 30
0.0
 10
-9.247788942599996
 20
0.4016087810000073
 30
0.0
  0
SPLINE
  5
78
330
1F
100
AcDbEntity
  8
Default
  6
Continuous
100
AcDbSpline
210
0.0
220
0.0
230
1.0
 70
     8
 71
     3
 72
     9
 73
     5
 74
     0
 42
0.0000000001
 43
0.0000000001
 40
0.0
 40
0.0
 40
0.0
 40
0.0
 40
1.0
 40
2.0
 40
2.0
 40
2.0
 40
2.0
 10
9.01802315758799
 20
0.4501488232355229
 30
0.0
 10
9.045525113411777
 20
0.4184931721443661
 30
0.0
 10
9.128063003289363
 20
0.4028739775377161
 30
0.0
 10
9.207336871281015
 20
0.4003326643186327
 30
0.0
 10
9.247788942599996
 20
0.4016087810000073
 30
0.0
  0
SPLINE
  5
79
330
1F
100
AcDbEntity
  8
Default
  6
Continuous
100
AcDbSpline
210
0.0
220
0.0
230
1.0
 70
     8
 71
     3
 72
     8
 73
     4
 74
     0
 42
0.0000000001
 43
0.0000000001
 40
-1.0
 40
-1.0
 40
-1.0
 40
-1.0
 40
0.0
 40
0.0
 40
0.0
 40
0.0
 10
-9.2801668149
 20
0.1343579367000061
 30
0.0
 10
-9.28569781749394
 20
0.0816374122095809
 30
0.0
 10
-9.327402247980004
 20
0.03662208693666
 30
0.0
 10
-9.378312005003934
 20
0.0237101261357466
 30
0.0
  0
ARC
  5
7A
330
1F
100
AcDbEntity
  8
Default
  6
Continuous
100
AcDbCircle
 10
-9.5837068986
 20
0.7482860106000047
 30
0.0
 40
0.753125006
100
AcDbArc
 50
240.3930060020003
 51
285.8263959296003
  0
SPLINE
  5
7B
330
1F
100
AcDbEntity
  8
Default
  6
Continuous
100
AcDbSpline
210
0.0
220
0.0
230
1.0
 70
     8
 71
     3
 72
     8
 73
     4
 74
     0
 42
0.0000000001
 43
0.0000000001
 40
-1.0
 40
-1.0
 40
-1.0
 40
-1.0
 40
0.0
 40
0.0
 40
0.0
 40
0.0
 10
-9.955786802065674
 20
0.0934930508795446
 30
0.0
 10
-10.00213544980868
 20
0.1181479656033915
 30
0.0
 10
-10.031943642356
 20
0.171811837316902
 30
0.0
 10
-10.0247500663
 20
0.2243344989000065
 30
0.0
  0
LINE
  5
7C
330
1F
100
AcDbEntity
  8
Default
  6
Continuous
100
AcDbLine
 10
-10.0247500663
 20
0.2243344989000065
 30
0.0
 11
-8.288420595399998
 21
14.59298574850001
 31
0.0
  0
SPLINE
  5
7D
330
1F
100
AcDbEntity
  8
Default
  6
Continuous
100
AcDbSpline
210
0.0
220
0.0
230
1.0
 70
     8
 71
     3
 72
    10
 73
     6
 74
     0
 42
0.0000000001
 43
0.0000000001
 40
-3.0
 40
-3.0
 40
-3.0
 40
-3.0
 40
-2.0
 40
-1.0
 40
0.0
 40
0.0
 40
0.0
 40
0.0
 10
-8.288420595399998
 20
14.59298574850001
 30
0.0
 10
-8.261894231306385
 20
14.80998611496763
 30
0.0
 10
-8.146599214727402
 20
15.23665972227507
 30
0.0
 10
-7.748035390455883
 20
15.78097778474394
 30
0.0
 10
-7.316702515414747
 20
15.94362289970099
 30
0.0
 10
-7.096662027400001
 20
15.93386417650001
 30
0.0
  0
SPLINE
  5
7E
330
1F
100
AcDbEntity
  8
Default
  6
Continuous
100
AcDbSpline
210
0.0
220
0.0
230
1.0
 70
     8
 71
     3
 72
     9
 73
     5
 74
     0
 42
0.0000000001
 43
0.0000000001
 40
-2.0
 40
-2.0
 40
-2.0
 40
-2.0
 40
-1.0
 40
0.0
 40
0.0
 40
0.0
 40
0.0
 10
-7.096662027400001
 20
15.93386417650001
 30
0.0
 10
-6.527736122342247
 20
15.91301158937555
 30
0.0
 10
-5.389835830781536
 20
15.87520991583842
 30
0.0
 10
-4.252056966308103
 20
15.82764949852101
 30
0.0
 10
-3.682624604899999
 20
15.8312279806
 30
0.0
  0
LINE
  5
7F
330
1F
100
AcDbEntity
  8
Default
  6
Continuous
100
AcDbLine
 10
-3.682624604899999
 20
15.8312279806
 30
0.0
 11
3.682624604899999
 21
15.8312279806
 31
0.0
  0
SPLINE
  5
80
330
1F
100
AcDbEntity
  8
Default
  6
Continuous
100
AcDbSpline
210
0.0
220
0.0
230
1.0
 70
     8
 71
     3
 72
     9
 73
     5
 74
     0
 42
0.0000000001
 43
0.0000000001
 40
0.0
 40
0.0
 40
0.0
 40
0.0
 40
1.0
 40
2.0
 40
2.0
 40
2.0
 40
2.0
 10
3.682624604899999
 20
15.8312279806
 30
0.0
 10
4.252056966308103
 20
15.82764949852101
 30
0.0
 10
5.389835830781536
 20
15.87520991583842
 30
0.0
 10
6.527736122342247
 20
15.91301158937555
 30
0.0
 10
7.096662027400001
 20
15.93386417650001
 30
0.0
  0
SPLINE
  5
81
330
1F
100
AcDbEntity
  8
Default
  6
Continuous
100
AcDbSpline
210
0.0
220
0.0
230
1.0
 70
     8
 71
     3
 72
    10
 73
     6
 74
     0
 42
0.0000000001
 43
0.0000000001
 40
0.0
 40
0.0
 40
0.0
 40
0.0
 40
1.0
 40
2.0
 40
3.0
 40
3.0
 40
3.0
 40
3.0
 10
7.096662027400001
 20
15.93386417650001
 30
0.0
 10
7.316702515414754
 20
15.94362289970099
 30
0.0
 10
7.748035390455883
 20
15.78097778474394
 30
0.0
 10
8.146599214727395
 20
15.23665972227507
 30
0.0
 10
8.261894231306385
 20
14.80998611496763
 30
0.0
 10
8.288420595399998
 20
14.59298574850001
 30
0.0
  0
LINE
  5
82
330
1F
100
AcDbEntity
  8
Default
  6
Continuous
100
AcDbLine
 10
8.288420595399998
 20
14.59298574850001
 30
0.0
 11
10.0247500663
 21
0.2243344989000065
 31
0.0
  0
SPLINE
  5
83
330
1F
100
AcDbEntity
  8
Default
  6
Continuous
100
AcDbSpline
210
0.0
220
0.0
230
1.0
 70
     8
 71
     3
 72
     8
 73
     4
 74
     0
 42
0.0000000001
 43
0.0000000001
 40
0.0
 40
0.0
 40
0.0
 40
0.0
 40
1.0
 40
1.0
 40
1.0
 40
1.0
 10
10.0247500663
 20
0.2243344989000065
 30
0.0
 10
10.031943642356
 20
0.171811837316902
 30
0.0
 10
10.00213544980868
 20
0.1181479656033915
 30
0.0
 10
9.955786802065667
 20
0.0934930508795446
 30
0.0
  0
ARC
  5
84
330
1F
100
AcDbEntity
  8
Default
  6
Continuous
100
AcDbCircle
 10
9.5837068986
 20
0.7482860106000047
 30
0.0
 40
0.753125006
100
AcDbArc
 50
254.1736040703997
 51
299.6069939979998
  0
SPLINE
  5
85
330
1F
100
AcDbEntity
  8
Default
  6
Continuous
100
AcDbSpline
210
0.0
220
0.0
230
1.0
 70
     8
 71
     3
 72
     8
 73
     4
 74
     0
 42
0.0000000001
 43
0.0000000001
 40
0.0
 40
0.0
 40
0.0
 40
0.0
 40
1.0
 40
1.0
 40
1.0
 40
1.0
 10
9.378312005003927
 20
0.0237101261357466
 30
0.0
 10
9.327402247980004
 20
0.03662208693666
 30
0.0
 10
9.28569781749394
 20
0.0816374122095809
 30
0.0
 10
9.2801668149
 20
0.1343579367000061
 30
0.0
  0
LINE
  5
86
330
1F
100
AcDbEntity
  8
Default
  6
Continuous
100
AcDbLine
 10
9.2801668149
 20
0.1343579367000061
 30
0.0
 11
7.543837343999996
 21
14.50300918630001
 31
0.0
  0
SPLINE
  5
87
330
1F
100
AcDbEntity
  8
Default
  6
Continuous
100
AcDbSpline
210
0.0
220
0.0
230
1.0
 70
     8
 71
     3
 72
    10
 73
     6
 74
     0
 42
0.0000000001
 43
0.0000000001
 40
-3.0
 40
-3.0
 40
-3.0
 40
-3.0
 40
-2.0
 40
-1.0
 40
0.0
 40
0.0
 40
0.0
 40
0.0
 10
7.543837343999996
 20
14.50300918630001
 30
0.0
 10
7.532450893632117
 20
14.59690261201237
 30
0.0
 10
7.491278745344978
 20
14.78379107604855
 30
0.0
 10
7.367194394000812
 20
15.0390865565136
 30
0.0
 10
7.221909310392569
 20
15.17881522199608
 30
0.0
 10
7.123490739700003
 20
15.18434418330001
 30
0.0
  0
SPLINE
  5
88
330
1F
100
AcDbEntity
  8
Default
  6
Continuous
100
AcDbSpline
210
0.0
220
0.0
230
1.0
 70
     8
 71
     3
 72
    10
 73
     6
 74
     0
 42
0.0000000001
 43
0.0000000001
 40
-3.0
 40
-3.0
 40
-3.0
 40
-3.0
 40
-2.0
 40
-1.0
 40
0.0
 40
0.0
 40
0.0
 40
0.0
 10
7.123490739700003
 20
15.18434418330001
 30
0.0
 10
6.741227904422949
 20
15.17052632059702
 30
0.0
 10
5.976663426671834
 20
15.14396877437539
 30
0.0
 10
4.829962646333485
 20
15.10008929775231
 30
0.0
 10
4.06518402860857
 20
15.07946171197448
 30
0.0
 10
3.682624604899999
 20
15.0812279806
 30
0.0
  0
LINE
  5
89
330
1F
100
AcDbEntity
  8
Default
  6
Continuous
100
AcDbLine
 10
3.682624604899999
 20
15.0812279806
 30
0.0
 11
-3.682624604899999
 21
15.0812279806
 31
0.0
  0
SPLINE
  5
8A
330
1F
100
AcDbEntity
  8
Default
  6
Continuous
100
AcDbSpline
210
0.0
220
0.0
230
1.0
 70
     8
 71
     3
 72
    10
 73
     6
 74
     0
 42
0.0000000001
 43
0.0000000001
 40
0.0
 40
0.0
 40
0.0
 40
0.0
 40
1.0
 40
2.0
 40
3.0
 40
3.0
 40
3.0
 40
3.0
 10
-3.682624604899999
 20
15.0812279806
 30
0.0
 10
-4.06518402860857
 20
15.07946171197448
 30
0.0
 10
-4.829962646333485
 20
15.10008929775231
 30
0.0
 10
-5.976663426671834
 20
15.14396877437539
 30
0.0
 10
-6.741227904422956
 20
15.17052632059702
 30
0.0
 10
-7.123490739700003
 20
15.18434418330001
 30
0.0
  0
SPLINE
  5
8B
330
1F
100
AcDbEntity
  8
Default
  6
Continuous
100
AcDbSpline
210
0.0
220
0.0
230
1.0
 70
     8
 71
     3
 72
    10
 73
     6
 74
     0
 42
0.0000000001
 43
0.0000000001
 40
0.0
 40
0.0
 40
0.0
 40
0.0
 40
1.0
 40
2.0
 40
3.0
 40
3.0
 40
3.0
 40
3.0
 10
-7.123490739700003
 20
15.18434418330001
 30
0.0
 10
-7.221909310392576
 20
15.17881522199608
 30
0.0
 10
-7.367194394000805
 20
15.0390865565136
 30
0.0
 10
-7.491278745344985
 20
14.78379107604855
 30
0.0
 10
-7.532450893632117
 20
14.59690261201237
 30
0.0
 10
-7.543837343999996
 20
14.50300918630001
 30
0.0
  0
LINE
  5
8C
330
1F
100
AcDbEntity
  8
Default
  6
Continuous
100
AcDbLine
 10
-7.543837343999996
 20
14.50300918630001
 30
0.0
 11
-9.2801668149
 21
0.1343579367000061
 31
0.0
  0
SPLINE
  5
8D
330
1F
100
AcDbEntity
  8
Default
  6
Continuous
100
AcDbSpline
210
0.0
220
0.0
230
1.0
 70
     8
 71
     3
 72
    14
 73
    10
 74
     0
 42
0.0000000001
 43
0.0000000001
 40
-7.0
 40
-7.0
 40
-7.0
 40
-7.0
 40
-6.0
 40
-5.0
 40
-4.0
 40
-3.0
 40
-2.0
 40
-1.0
 40
0.0
 40
0.0
 40
0.0
 40
0.0
 10
-1.502453825184318
 20
15.08120983383587
 30
0.0
 10
-1.509331851882834
 20
15.02016271193273
 30
0.0
 10
-1.553656918928667
 20
14.90206760847142
 30
0.0
 10
-1.695643854718597
 20
14.77512136498339
 30
0.0
 10
-1.877433950281826
 20
14.73142318161469
 30
0.0
 10
-2.060708044623652
 20
14.71706196708394
 30
0.0
 10
-2.244536759049026
 20
14.70535653223114
 30
0.0
 10
-2.428461899945319
 20
14.69723177937742
 30
0.0
 10
-2.551138626668617
 20
14.69293755167163
 30
0.0
 10
-2.612482429300002
 20
14.6910703739
 30
0.0
  0
LINE
  5
8E
330
1F
100
AcDbEntity
  8
Default
  6
Continuous
100
AcDbLine
 10
-2.612482429300002
 20
14.6910703739
 30
0.0
 11
-6.416956210599992
 21
14.57483318700001
 31
0.0
  0
SPLINE
  5
8F
330
1F
100
AcDbEntity
  8
Default
  6
Continuous
100
AcDbSpline
210
0.0
220
0.0
230
1.0
 70
     8
 71
     3
 72
    10
 73
     6
 74
     0
 42
0.0000000001
 43
0.0000000001
 40
-3.0
 40
-3.0
 40
-3.0
 40
-3.0
 40
-2.0
 40
-1.0
 40
0.0
 40
0.0
 40
0.0
 40
0.0
 10
-6.416956210599992
 20
14.57483318700001
 30
0.0
 10
-6.521236445421636
 20
14.57187256114145
 30
0.0
 10
-6.729325798697914
 20
14.51476374484874
 30
0.0
 10
-6.959607781808231
 20
14.28856562860766
 30
0.0
 10
-7.030007607269553
 20
14.08666896306178
 30
0.0
 10
-7.045068335300002
 20
13.98346406060001
 30
0.0
  0
LINE
  5
90
330
1F
100
AcDbEntity
  8
Default
  6
Continuous
100
AcDbLine
 10
-7.045068335300002
 20
13.98346406060001
 30
0.0
 11
-9.062053390905916
 21
0.148127195200864
 31
0.0
  0
SPLINE
  5
91
330
1F
100
AcDbEntity
  8
Default
  6
Continuous
100
AcDbSpline
210
0.0
220
0.0
230
1.0
 70
     8
 71
     3
 72
    11
 73
     7
 74
     0
 42
0.0000000001
 43
0.0000000001
 40
0.0
 40
0.0
 40
0.0
 40
0.0
 40
1.0
 40
2.0
 40
3.0
 40
4.0
 40
4.0
 40
4.0
 40
4.0
 10
-9.062053390905916
 20
0.148127195200864
 30
0.0
 10
-9.066279114555186
 20
0.1098461875086443
 30
0.0
 10
-9.112534896202959
 20
0.0415028221754383
 30
0.0
 10
-9.224342972618885
 20
0.0066622577881574
 30
0.0
 10
-9.338445723900932
 20
-0.0023139795559217
 30
0.0
 10
-9.414873806555633
 20
0.0014995216415485
 30
0.0
 10
-9.452674930378421
 20
0.0066493900347169
 30
0.0
  0
SPLINE
  5
92
330
1F
100
AcDbEntity
  8
Default
  6
Continuous
100
AcDbSpline
210
0.0
220
0.0
230
1.0
 70
     8
 71
     3
 72
    14
 73
    10
 74
     0
 42
0.0000000001
 43
0.0000000001
 40
-7.0
 40
-7.0
 40
-7.0
 40
-7.0
 40
-6.0
 40
-5.0
 40
-4.0
 40
-3.0
 40
-2.0
 40
-1.0
 40
0.0
 40
0.0
 40
0.0
 40
0.0
 10
1.502453825184318
 20
15.08120983383587
 30
0.0
 10
1.509331851882834
 20
15.02016271193273
 30
0.0
 10
1.553656918928667
 20
14.90206760847142
 30
0.0
 10
1.695643854718597
 20
14.77512136498339
 30
0.0
 10
1.877433950281826
 20
14.73142318161469
 30
0.0
 10
2.060708044623652
 20
14.71706196708394
 30
0.0
 10
2.244536759049026
 20
14.70535653223114
 30
0.0
 10
2.428461899945319
 20
14.69723177937742
 30
0.0
 10
2.551138626668617
 20
14.69293755167163
 30
0.0
 10
2.612482429300002
 20
14.6910703739
 30
0.0
  0
LINE
  5
93
330
1F
100
AcDbEntity
  8
Default
  6
Continuous
100
AcDbLine
 10
2.612482429300002
 20
14.6910703739
 30
0.0
 11
6.416956210599999
 21
14.57483318700001
 31
0.0
  0
SPLINE
  5
94
330
1F
100
AcDbEntity
  8
Default
  6
Continuous
100
AcDbSpline
210
0.0
220
0.0
230
1.0
 70
     8
 71
     3
 72
    10
 73
     6
 74
     0
 42
0.0000000001
 43
0.0000000001
 40
-3.0
 40
-3.0
 40
-3.0
 40
-3.0
 40
-2.0
 40
-1.0
 40
0.0
 40
0.0
 40
0.0
 40
0.0
 10
6.416956210599999
 20
14.57483318700001
 30
0.0
 10
6.521236445421636
 20
14.57187256114145
 30
0.0
 10
6.729325798697914
 20
14.51476374484874
 30
0.0
 10
6.959607781808224
 20
14.28856562860766
 30
0.0
 10
7.030007607269546
 20
14.08666896306178
 30
0.0
 10
7.045068335300002
 20
13.98346406060001
 30
0.0
  0
LINE
  5
95
330
1F
100
AcDbEntity
  8
Default
  6
Continuous
100
AcDbLine
 10
7.045068335300002
 20
13.98346406060001
 30
0.0
 11
9.062053390905916
 21
0.148127195200864
 31
0.0
  0
SPLINE
  5
96
330
1F
100
AcDbEntity
  8
Default
  6
Continuous
100
AcDbSpline
210
0.0
220
0.0
230
1.0
 70
     8
 71
     3
 72
    11
 73
     7
 74
     0
 42
0.0000000001
 43
0.0000000001
 40
0.0
 40
0.0
 40
0.0
 40
0.0
 40
1.0
 40
2.0
 40
3.0
 40
4.0
 40
4.0
 40
4.0
 40
4.0
 10
9.062053390905916
 20
0.148127195200864
 30
0.0
 10
9.066279114555194
 20
0.1098461875086443
 30
0.0
 10
9.112534896202959
 20
0.0415028221754383
 30
0.0
 10
9.224342972618885
 20
0.0066622577881574
 30
0.0
 10
9.338445723900932
 20
-0.0023139795559217
 30
0.0
 10
9.41487380655564
 20
0.0014995216415485
 30
0.0
 10
9.452674930378421
 20
0.0066493900347169
 30
0.0
  0
LINE
  5
97
330
1F
100
AcDbEntity
  8
Default
  6
Continuous
100
AcDbLine
 10
-1.561258011121652
 20
14.9178903003
 30
0.0
 11
1.561258011121652
 21
14.9178903003
 31
0.0
  0
ARC
  5
98
330
1F
100
AcDbEntity
  8
Default
100
AcDbCircle
 10
9.840076544806394
 20
-1.322532204970528
 30
0.0
 40
1.87403351473569
100
AcDbArc
 50
85.537111732081
 51
108.6232216942279
  0
LINE
  5
99
330
1F
100
AcDbEntity
  8
Default
  6
Continuous
100
AcDbLine
 10
44.04010646629041
 20
0.2187927377000065
 30
0.0
 11
42.52022550149312
 21
14.58744398730001
 31
0.0
  0
SPLINE
  5
9A
330
1F
100
AcDbEntity
  8
Default
  6
Continuous
100
AcDbSpline
210
0.0
220
0.0
230
1.0
 70
     8
 71
     3
 72
    10
 73
     6
 74
     0
 42
0.0000000001
 43
0.0000000001
 40
-3.0
 40
-3.0
 40
-3.0
 40
-3.0
 40
-2.0
 40
-1.0
 40
0.0
 40
0.0
 40
0.0
 40
0.0
 10
42.52022550149312
 20
14.58744398730001
 30
0.0
 10
42.49602386713977
 20
14.81404675393859
 30
0.0
 10
42.36860751202462
 20
15.26034137341258
 30
0.0
 10
41.91320821414705
 20
15.79911883099119
 30
0.0
 10
41.45763246009677
 20
15.94233534202849
 30
0.0
 10
41.22905736959313
 20
15.93392906310001
 30
0.0
  0
LINE
  5
9B
330
1F
100
AcDbEntity
  8
Default
  6
Continuous
100
AcDbLine
 10
41.22905736959313
 20
15.93392906310001
 30
0.0
 11
37.8639462829484
 21
15.83105286372759
 31
0.0
  0
ARC
  5
9C
330
1F
100
AcDbEntity
  8
Default
  6
Continuous
100
AcDbCircle
 10
37.87540520909312
 20
15.4562279806
 30
0.0
 40
0.375
100
AcDbArc
 50
91.75106752759983
 51
271.7510675275998
  0
LINE
  5
9D
330
1F
100
AcDbEntity
  8
Default
  6
Continuous
100
AcDbLine
 10
37.88686413523784
 20
15.08140309747242
 30
0.0
 11
41.25197522189313
 21
15.1842792968
 31
0.0
  0
SPLINE
  5
9E
330
1F
100
AcDbEntity
  8
Default
  6
Continuous
100
AcDbSpline
210
0.0
220
0.0
230
1.0
 70
     8
 71
     3
 72
     9
 73
     5
 74
     0
 42
0.0000000001
 43
0.0000000001
 40
0.0
 40
0.0
 40
0.0
 40
0.0
 40
1.0
 40
2.0
 40
2.0
 40
2.0
 40
2.0
 10
41.25197522189313
 20
15.1842792968
 30
0.0
 10
41.41418624572043
 20
15.18713032751156
 30
0.0
 10
41.6693351719569
 20
14.96601504998998
 30
0.0
 10
41.75715584365425
 20
14.66261883283278
 30
0.0
 10
41.77438645169313
 20
14.50855094750001
 30
0.0
  0
LINE
  5
9F
330
1F
100
AcDbEntity
  8
Default
  6
Continuous
100
AcDbLine
 10
41.77438645169313
 20
14.50855094750001
 30
0.0
 11
43.29426741649178
 21
0.1398996978998639
 31
0.0
  0
SPLINE
  5
A0
330
1F
100
AcDbEntity
  8
Default
  6
Continuous
100
AcDbSpline
210
0.0
220
0.0
230
1.0
 70
     8
 71
     3
 72
     9
 73
     5
 74
     0
 42
0.0000000001
 43
0.0000000001
 40
0.0
 40
0.0
 40
0.0
 40
0.0
 40
1.0
 40
2.0
 40
2.0
 40
2.0
 40
2.0
 10
43.29426741649178
 20
0.1398996978998639
 30
0.0
 10
43.29698775023929
 20
0.1132376551201588
 30
0.0
 10
43.32004443299997
 20
0.0619370981759602
 30
0.0
 10
43.36808355245302
 20
0.0333087327723689
 30
0.0
 10
43.39377996681071
 20
0.0259758369310816
 30
0.0
  0
ARC
  5
A1
330
1F
100
AcDbEntity
  8
Default
  6
Continuous
100
AcDbCircle
 10
43.60700587589313
 20
0.7482860110000047
 30
0.0
 40
0.7531250068
100
AcDbArc
 50
253.5534035505003
 51
298.5229049741002
  0
SPLINE
  5
A2
330
1F
100
AcDbEntity
  8
Default
  6
Continuous
100
AcDbSpline
210
0.0
220
0.0
230
1.0
 70
     8
 71
     3
 72
     9
 73
     5
 74
     0
 42
0.0000000001
 43
0.0000000001
 40
0.0
 40
0.0
 40
0.0
 40
0.0
 40
1.0
 40
2.0
 40
2.0
 40
2.0
 40
2.0
 10
43.96663063132138
 20
0.0865705803572894
 30
0.0
 10
43.99022513340428
 20
0.0991162941583497
 30
0.0
 10
44.03121053198544
 20
0.1371629419042861
 30
0.0
 10
44.04302402404773
 20
0.192151514340523
 30
0.0
 10
44.04010646629041
 20
0.2187927377000065
 30
0.0
  0
SPLINE
  5
A3
330
1F
100
AcDbEntity
  8
Default
  6
Continuous
100
AcDbSpline
210
0.0
220
0.0
230
1.0
 70
     8
 71
     3
 72
    11
 73
     7
 74
     0
 42
0.0000000001
 43
0.0000000001
 40
-4.0
 40
-4.0
 40
-4.0
 40
-4.0
 40
-2.999998949625213
 40
-1.999997899250425
 40
-0.9999968488756381
 40
0.0
 40
0.0
 40
0.0
 40
0.0
 10
37.88931390139313
 20
15.0814779902
 30
0.0
 10
37.0390842945122
 20
15.04415138697092
 30
0.0
 10
35.33853513590378
 20
14.97113246870865
 30
0.0
 10
32.7880497415267
 20
14.8554755564404
 30
0.0
 10
30.23648499730611
 20
14.75943008050343
 30
0.0
 10
28.53810652728248
 20
14.64714400096477
 30
0.0
 10
27.68981296299312
 20
14.578232353
 30
0.0
  0
SPLINE
  5
A4
330
1F
100
AcDbEntity
  8
Default
  6
Continuous
100
AcDbSpline
210
0.0
220
0.0
230
1.0
 70
     8
 71
     3
 72
     8
 73
     4
 74
     0
 42
0.0000000001
 43
0.0000000001
 40
-1.0
 40
-1.0
 40
-1.0
 40
-1.0
 40
0.0
 40
0.0
 40
0.0
 40
0.0
 10
27.68981296299312
 20
14.578232353
 30
0.0
 10
27.53507668589985
 20
14.39653909521824
 30
0.0
 10
27.45719102523216
 20
14.16538334046406
 30
0.0
 10
27.39240538309313
 20
13.939862898
 30
0.0
  0
LINE
  5
A5
330
1F
100
AcDbEntity
  8
Default
  6
Continuous
100
AcDbLine
 10
27.39240538309313
 20
13.939862898
 30
0.0
 11
23.65895524379312
 21
0.1045260326000061
 31
0.0
  0
SPLINE
  5
A6
330
1F
100
AcDbEntity
  8
Default
  6
Continuous
100
AcDbSpline
210
0.0
220
0.0
230
1.0
 70
     8
 71
     3
 72
     8
 73
     4
 74
     0
 42
0.0000000001
 43
0.0000000001
 40
-1.0
 40
-1.0
 40
-1.0
 40
-1.0
 40
0.0
 40
0.0
 40
0.0
 40
0.0
 10
23.65895524379312
 20
0.1045260326000061
 30
0.0
 10
23.64520365107654
 20
0.049672509645319
 30
0.0
 10
23.59284350499141
 20
0.0104168368813973
 30
0.0
 10
23.53753739464882
 20
0.0056369179202918
 30
0.0
  0
ARC
  5
A7
330
1F
100
AcDbEntity
  8
Default
  6
Continuous
100
AcDbCircle
 10
23.44556539379312
 20
0.7531250045000064
 30
0.0
 40
0.7531250152
100
AcDbArc
 50
232.7824926389002
 51
277.0144983098003
  0
SPLINE
  5
A8
330
1F
100
AcDbEntity
  8
Default
  6
Continuous
100
AcDbSpline
210
0.0
220
0.0
230
1.0
 70
     8
 71
     3
 72
     8
 73
     4
 74
     0
 42
0.0000000001
 43
0.0000000001
 40
-1.0
 40
-1.0
 40
-1.0
 40
-1.0
 40
0.0
 40
0.0
 40
0.0
 40
0.0
 10
22.99004339547417
 20
0.1533775596805143
 30
0.0
 10
22.94465235242238
 20
0.1853330905148809
 30
0.0
 10
22.91914446894521
 20
0.2455979056565099
 30
0.0
 10
22.93485590129313
 20
0.299923428300005
 30
0.0
  0
LINE
  5
A9
330
1F
100
AcDbEntity
  8
Default
  6
Continuous
100
AcDbLine
 10
22.93485590129313
 20
0.299923428300005
 30
0.0
 11
26.66830604059313
 21
14.1352602937
 31
0.0
  0
SPLINE
  5
AA
330
1F
100
AcDbEntity
  8
Default
  6
Continuous
100
AcDbSpline
210
0.0
220
0.0
230
1.0
 70
     8
 71
     3
 72
    10
 73
     6
 74
     0
 42
0.0000000001
 43
0.0000000001
 40
0.0
 40
0.0
 40
0.0
 40
0.0
 40
1.0
 40
2.0
 40
3.0
 40
3.0
 40
3.0
 40
3.0
 10
26.66830604059313
 20
14.1352602937
 30
0.0
 10
26.7143374131136
 20
14.30614153433405
 30
0.0
 10
26.83180122806142
 20
14.64007423275594
 30
0.0
 10
27.09906378818892
 20
15.10525858262823
 30
0.0
 10
27.40828161245036
 20
15.31111618883845
 30
0.0
 10
27.58860656349312
 20
15.32359395030001
 30
0.0
  0
LINE
  5
AB
330
1F
100
AcDbEntity
  8
Default
  6
Continuous
100
AcDbLine
 10
27.58860656349312
 20
15.32359395030001
 30
0.0
 11
29.12811092069312
 21
15.4398311373
 31
0.0
  0
ARC
  5
AC
330
1F
100
AcDbEntity
  8
Default
100
AcDbCircle
 10
23.01707131895706
 20
-0.8696776499710381
 30
0.0
 40
1.47998297551889
100
AcDbArc
 50
60.58437263260395
 51
89.93308403797742
  0
ARC
  5
AD
330
1F
100
AcDbEntity
  8
Default
100
AcDbCircle
 10
43.79572472995559
 20
-1.046906057563014
 30
0.0
 40
1.598654297846829
100
AcDbArc
 50
82.42877851049491
 51
109.5597859037523
  0
POLYLINE
  5
AE
330
1F
100
AcDbEntity
  8
Default
100
AcDb2dPolyline
 66
     1
 10
0.0
 20
0.0
 30
0.0
  0
VERTEX
  5
AF
330
AE
100
AcDbEntity
  8
Default
100
AcDbVertex
100
AcDb2dVertex
 10
29.12811092069312
 20
15.4398311373
 30
0.0
  0
VERTEX
  5
B0
330
AE
100
AcDbEntity
  8
Default
100
AcDbVertex
100
AcDb2dVertex
 10
37.8639462829484
 20
15.83105286372759
 30
0.0
  0
SEQEND
  5
B1
330
AE
100
AcDbEntity
  8
Default
  0
SPLINE
  5
B2
330
1F
100
AcDbEntity
  8
Default
100
AcDbSpline
210
0.0
220
0.0
230
1.0
 70
    12
 71
     2
 72
     6
 73
     3
 74
     0
 42
0.0000000001
 43
0.0000000001
 40
0.0
 40
0.0
 40
0.0
 40
0.0109358629608601
 40
0.0109358629608601
 40
0.0109358629608601
 10
-9.261799001260933
 20
67.24895145574946
 30
0.0
 41
1.0
 10
-9.256585115373161
 20
67.24730277355887
 30
0.0
 41
0.9998875264709345
 10
-9.251423022743689
 20
67.24549845687352
 30
0.0
 41
1.0
  0
SPLINE
  5
B3
330
1F
100
AcDbEntity
  8
Default
100
AcDbSpline
210
0.0
220
0.0
230
1.0
 70
    12
 71
     2
 72
     6
 73
     3
 74
     0
 42
0.0000000001
 43
0.0000000001
 40
0.0
 40
0.0
 40
0.0
 40
0.0346104590342824
 40
0.0346104590342824
 40
0.0346104590342824
 10
-9.15190350540532
 20
67.19185207345575
 30
0.0
 41
1.0
 10
-9.138162866672408
 20
67.18130892379268
 30
0.0
 41
0.998769325811188
 10
-9.12553435137248
 20
67.16945633930972
 30
0.0
 41
1.0
  0
SPLINE
  5
B4
330
1F
100
AcDbEntity
  8
Default
100
AcDbSpline
210
0.0
220
0.0
230
1.0
 70
    12
 71
     2
 72
     8
 73
     5
 74
     0
 42
0.0000000001
 43
0.0000000001
 40
0.0
 40
0.0
 40
0.0
 40
0.5875841789397264
 40
0.5875841789397264
 40
0.8536309312570707
 40
0.8536309312570707
 40
0.8536309312570707
 10
-10.02630013665171
 20
46.61526122621367
 30
0.0
 41
1.0
 10
-10.02097402991274
 20
46.24363295908591
 30
0.0
 41
0.7134069970754707
 10
-9.649309965739148
 20
46.24230640590734
 30
0.0
 41
1.0
 10
-9.510156390840558
 20
46.24211936502333
 30
0.0
 41
0.9352097685451839
 10
-9.405773836649097
 20
46.33414129051838
 30
0.0
 41
1.0
  0
SPLINE
  5
B5
330
1F
100
AcDbEntity
  8
Default
100
AcDbSpline
210
0.0
220
0.0
230
1.0
 70
    12
 71
     2
 72
     6
 73
     3
 74
     0
 42
0.0000000001
 43
0.0000000001
 40
0.0
 40
0.0
 40
0.0
 40
0.1624439965856768
 40
0.1624439965856768
 40
0.1624439965856768
 10
-9.367223315526338
 20
46.36818724015704
 30
0.0
 41
1.0
 10
-9.42913158149411
 20
46.31353541671587
 30
0.0
 41
0.975514663640986
 10
-9.50850171422845
 20
46.29073547745463
 30
0.0
 41
1.0
  0
SPLINE
  5
B6
330
1F
100
AcDbEntity
  8
Default
100
AcDbSpline
210
0.0
220
0.0
230
1.0
 70
    12
 71
     2
 72
     8
 73
     5
 74
     0
 42
0.0000000001
 43
0.0000000001
 40
1.5707963267949
 40
1.5707963267949
 40
1.5707963267949
 40
3.14159265358979
 40
3.14159265358979
 40
3.313302877847097
 40
3.313302877847097
 40
3.313302877847097
 10
-9.433144530691676
 20
67.34899554237057
 30
0.0
 41
1.0
 10
-9.80448432035729
 20
67.33542625744715
 30
0.0
 41
0.707106781186548
 10
-9.804484320356776
 20
66.97328453593785
 30
0.0
 41
1.0
 10
-9.80461392910068
 20
66.88562404244361
 30
0.0
 41
0.9693900736105534
 10
-9.762999726950408
 20
66.80847070747046
 30
0.0
 41
1.0
  0
SPLINE
  5
B7
330
1F
100
AcDbEntity
  8
Default
100
AcDbSpline
210
0.0
220
0.0
230
1.0
 70
    12
 71
     2
 72
     6
 73
     3
 74
     0
 42
0.0000000001
 43
0.0000000001
 40
0.0
 40
0.0
 40
0.0
 40
0.3978301785502824
 40
0.3978301785502824
 40
0.3978301785502824
 10
-9.103289334431906
 20
67.16523693425208
 30
0.0
 41
1.0
 10
-9.211015703454263
 20
67.35979508882481
 30
0.0
 41
0.8489244330938814
 10
-9.433144530691676
 20
67.34899554237057
 30
0.0
 41
1.0
  0
SPLINE
  5
B8
330
1F
100
AcDbEntity
  8
Default
100
AcDbSpline
210
0.0
220
0.0
230
1.0
 70
    12
 71
     2
 72
     8
 73
     5
 74
     0
 42
0.0000000001
 43
0.0000000001
 40
0.0
 40
0.0
 40
0.0
 40
0.1717102242572233
 40
0.1717102242572233
 40
1.742506551052113
 40
1.742506551052113
 40
1.742506551052113
 10
-9.717966431028911
 20
66.72540542550388
 30
0.0
 41
1.0
 10
-9.759580633179086
 20
66.80255876047705
 30
0.0
 41
0.9693900736104972
 10
-9.759451024435037
 20
66.89021925397124
 30
0.0
 41
1.0
 10
-9.75945102443504
 20
67.25236097548057
 30
0.0
 41
0.707106781186548
 10
-9.388111234769417
 20
67.26593026040399
 30
0.0
 41
1.0
  0
SPLINE
  5
B9
330
1F
100
AcDbEntity
  8
Default
100
AcDbSpline
210
0.0
220
0.0
230
1.0
 70
    12
 71
     2
 72
     6
 73
     3
 74
     0
 42
0.0000000001
 43
0.0000000001
 40
0.0
 40
0.0
 40
0.0
 40
0.103012484408063
 40
0.103012484408063
 40
0.103012484408063
 10
-9.388111234769417
 20
67.26593026040399
 30
0.0
 41
1.0
 10
-9.336315313503757
 20
67.26786175708263
 30
0.0
 41
0.9906015205329454
 10
-9.285934041143973
 20
67.25568491288607
 30
0.0
 41
1.0
  0
SPLINE
  5
BA
330
1F
100
AcDbEntity
  8
Default
100
AcDbSpline
210
0.0
220
0.0
230
1.0
 70
    12
 71
     2
 72
     6
 73
     3
 74
     0
 42
0.0000000001
 43
0.0000000001
 40
0.0
 40
0.0
 40
0.0
 40
0.1106911871836654
 40
0.1106911871836654
 40
0.1106911871836654
 10
9.058182359281593
 20
67.08221157606577
 30
0.0
 41
1.0
 10
9.084806096795282
 20
67.13127822255751
 30
0.0
 41
0.9871850534032713
 10
9.125533246879485
 20
67.16945751593967
 30
0.0
 41
1.0
  0
SPLINE
  5
BB
330
1F
100
AcDbEntity
  8
Default
100
AcDbSpline
210
0.0
220
0.0
230
1.0
 70
    12
 71
     2
 72
     6
 73
     3
 74
     0
 42
0.0000000001
 43
0.0000000001
 40
0.0
 40
0.0
 40
0.0
 40
0.1036082929460972
 40
0.1036082929460972
 40
0.1036082929460972
 10
9.610756258937071
 20
46.27632166063636
 30
0.0
 41
1.0
 10
9.558610536492065
 20
46.27630346356286
 30
0.0
 41
0.9902031922285416
 10
9.508493218824224
 20
46.29070593453927
 30
0.0
 41
1.0
  0
SPLINE
  5
BC
330
1F
100
AcDbEntity
  8
Default
100
AcDbSpline
210
0.0
220
0.0
230
1.0
 70
    24
 71
     2
 72
     6
 73
     3
 74
     0
 42
0.0000000001
 43
0.0000000001
 40
0.0
 40
0.0
 40
0.0
 40
0.0940954102827625
 40
0.0940954102827625
 40
0.0940954102827625
 10
9.717966627821317
 20
66.72540531881418
 30
0.0
 10
9.740389900995796
 20
66.76676572716822
 30
0.0
 10
9.762813174170274
 20
66.80812613552226
 30
0.0
  0
SPLINE
  5
BD
330
1F
100
AcDbEntity
  8
Default
100
AcDbSpline
210
0.0
220
0.0
230
1.0
 70
    12
 71
     2
 72
     6
 73
     3
 74
     0
 42
0.0000000001
 43
0.0000000001
 40
0.0
 40
0.0
 40
0.0
 40
0.1700892672528955
 40
0.1700892672528955
 40
0.1700892672528955
 10
5.836116465258973
 20
62.84571748761297
 30
0.0
 41
1.0
 10
5.757279970986139
 20
62.81382082822957
 30
0.0
 41
0.9999999999591014
 10
5.678444053684668
 20
62.78192274282728
 30
0.0
 41
1.0
  0
SPLINE
  5
BE
330
1F
100
AcDbEntity
  8
Default
100
AcDbSpline
210
0.0
220
0.0
230
1.0
 70
    12
 71
     2
 72
     6
 73
     3
 74
     0
 42
0.0000000001
 43
0.0000000001
 40
0.0
 40
0.0
 40
0.0
 40
1.215705401014226
 40
1.215705401014226
 40
1.215705401014226
 10
8.455989534478894
 20
47.17291863802163
 30
0.0
 41
1.0
 10
8.91159701351741
 20
46.77054228364078
 30
0.0
 41
0.9999999999966951
 10
9.367206561510233
 20
46.36816827195602
 30
0.0
 41
1.0
  0
SPLINE
  5
BF
330
1F
100
AcDbEntity
  8
Default
100
AcDbSpline
210
0.0
220
0.0
230
1.0
 70
    12
 71
     2
 72
     8
 73
     5
 74
     0
 42
0.0000000001
 43
0.0000000001
 40
1.5707963267949
 40
1.5707963267949
 40
1.5707963267949
 40
3.14159265358979
 40
3.14159265358979
 40
3.313302877847097
 40
3.313302877847097
 40
3.313302877847097
 10
9.433144530691676
 20
67.34899554237057
 30
0.0
 41
1.0
 10
9.80448432035729
 20
67.33542625744715
 30
0.0
 41
0.707106781186548
 10
9.804484320356776
 20
66.97328453593785
 30
0.0
 41
1.0
 10
9.80461392910068
 20
66.88562404244361
 30
0.0
 41
0.9693900736105534
 10
9.762999726950408
 20
66.80847070747046
 30
0.0
 41
1.0
  0
SPLINE
  5
C0
330
1F
100
AcDbEntity
  8
Default
100
AcDbSpline
210
0.0
220
0.0
230
1.0
 70
    12
 71
     2
 72
     8
 73
     5
 74
     0
 42
0.0000000001
 43
0.0000000001
 40
0.0
 40
0.0
 40
0.0
 40
0.1717102242572233
 40
0.1717102242572233
 40
1.742506551052113
 40
1.742506551052113
 40
1.742506551052113
 10
9.717966431028911
 20
66.72540542550388
 30
0.0
 41
1.0
 10
9.759580633179086
 20
66.80255876047705
 30
0.0
 41
0.9693900736104972
 10
9.759451024435037
 20
66.89021925397124
 30
0.0
 41
1.0
 10
9.75945102443504
 20
67.25236097548057
 30
0.0
 41
0.707106781186548
 10
9.388111234769417
 20
67.26593026040399
 30
0.0
 41
1.0
  0
SPLINE
  5
C1
330
1F
100
AcDbEntity
  8
Default
100
AcDbSpline
210
0.0
220
0.0
230
1.0
 70
    12
 71
     2
 72
     6
 73
     3
 74
     0
 42
0.0000000001
 43
0.0000000001
 40
0.0
 40
0.0
 40
0.0
 40
0.3978301785502824
 40
0.3978301785502824
 40
0.3978301785502824
 10
9.103289334431906
 20
67.16523693425208
 30
0.0
 41
1.0
 10
9.211015703454263
 20
67.35979508882481
 30
0.0
 41
0.8489244330938814
 10
9.433144530691676
 20
67.34899554237057
 30
0.0
 41
1.0
  0
SPLINE
  5
C2
330
1F
100
AcDbEntity
  8
Default
100
AcDbSpline
210
0.0
220
0.0
230
1.0
 70
    12
 71
     2
 72
     6
 73
     3
 74
     0
 42
0.0000000001
 43
0.0000000001
 40
0.0
 40
0.0
 40
0.0
 40
0.103012484408063
 40
0.103012484408063
 40
0.103012484408063
 10
9.388111234769417
 20
67.26593026040399
 30
0.0
 41
1.0
 10
9.336315313503757
 20
67.26786175708263
 30
0.0
 41
0.9906015205329454
 10
9.285934041143973
 20
67.25568491288607
 30
0.0
 41
1.0
  0
SPLINE
  5
C3
330
1F
100
AcDbEntity
  8
Default
100
AcDbSpline
210
0.0
220
0.0
230
1.0
 70
    12
 71
     2
 72
     6
 73
     3
 74
     0
 42
0.0000000001
 43
0.0000000001
 40
0.0
 40
0.0
 40
0.0
 40
0.0109358629608601
 40
0.0109358629608601
 40
0.0109358629608601
 10
9.261799001260933
 20
67.24895145574946
 30
0.0
 41
1.0
 10
9.256585115373161
 20
67.24730277355887
 30
0.0
 41
0.9998875264709345
 10
9.251423022743689
 20
67.24549845687352
 30
0.0
 41
1.0
  0
SPLINE
  5
C4
330
1F
100
AcDbEntity
  8
Default
100
AcDbSpline
210
0.0
220
0.0
230
1.0
 70
    12
 71
     2
 72
     6
 73
     3
 74
     0
 42
0.0000000001
 43
0.0000000001
 40
0.0
 40
0.0
 40
0.0
 40
0.0346104590342824
 40
0.0346104590342824
 40
0.0346104590342824
 10
9.15190350540532
 20
67.19185207345575
 30
0.0
 41
1.0
 10
9.138162866672408
 20
67.18130892379268
 30
0.0
 41
0.998769325811188
 10
9.12553435137248
 20
67.16945633930972
 30
0.0
 41
1.0
  0
SPLINE
  5
C5
330
1F
100
AcDbEntity
  8
Default
100
AcDbSpline
210
0.0
220
0.0
230
1.0
 70
    12
 71
     2
 72
     8
 73
     5
 74
     0
 42
0.0000000001
 43
0.0000000001
 40
0.0
 40
0.0
 40
0.0
 40
0.5875841789397264
 40
0.5875841789397264
 40
0.8536309312570707
 40
0.8536309312570707
 40
0.8536309312570707
 10
10.02630013665171
 20
46.61526122621367
 30
0.0
 41
1.0
 10
10.02097402991274
 20
46.24363295908591
 30
0.0
 41
0.7134069970754707
 10
9.649309965739148
 20
46.24230640590734
 30
0.0
 41
1.0
 10
9.510156390840558
 20
46.24211936502333
 30
0.0
 41
0.9352097685451839
 10
9.405773836649097
 20
46.33414129051838
 30
0.0
 41
1.0
  0
SPLINE
  5
C6
330
1F
100
AcDbEntity
  8
Default
100
AcDbSpline
210
0.0
220
0.0
230
1.0
 70
    12
 71
     2
 72
     6
 73
     3
 74
     0
 42
0.0000000001
 43
0.0000000001
 40
0.0
 40
0.0
 40
0.0
 40
0.1624439965856768
 40
0.1624439965856768
 40
0.1624439965856768
 10
9.367223315526338
 20
46.36818724015704
 30
0.0
 41
1.0
 10
9.42913158149411
 20
46.31353541671587
 30
0.0
 41
0.975514663640986
 10
9.50850171422845
 20
46.29073547745463
 30
0.0
 41
1.0
  0
SPLINE
  5
C7
330
1F
100
AcDbEntity
  8
Default
100
AcDbSpline
210
0.0
220
0.0
230
1.0
 70
    12
 71
     2
 72
     6
 73
     3
 74
     0
 42
0.0000000001
 43
0.0000000001
 40
0.0
 40
0.0
 40
0.0
 40
0.316883761450353
 40
0.316883761450353
 40
0.316883761450353
 10
9.902243183812272
 20
46.89629624008882
 30
0.0
 41
1.0
 10
10.02875418175574
 20
46.7842431761448
 30
0.0
 41
0.9088720084661118
 10
10.02630013665171
 20
46.61526122621367
 30
0.0
 41
1.0
  0
SPLINE
  5
C8
330
1F
100
AcDbEntity
  8
Default
100
AcDbSpline
210
0.0
220
0.0
230
1.0
 70
    12
 71
     2
 72
     6
 73
     3
 74
     0
 42
0.0000000001
 43
0.0000000001
 40
0.0
 40
0.0
 40
0.0
 40
0.1135549766693578
 40
0.1135549766693578
 40
0.1135549766693578
 10
9.151896603616743
 20
67.19186103582527
 30
0.0
 41
1.0
 10
9.197326918306288
 20
67.22671944434578
 30
0.0
 41
0.9873369811577766
 10
9.251390278265237
 20
67.24559205008336
 30
0.0
 41
1.0
  0
SPLINE
  5
C9
330
1F
100
AcDbEntity
  8
Default
100
AcDbSpline
210
0.0
220
0.0
230
1.0
 70
    12
 71
     2
 72
     6
 73
     3
 74
     0
 42
0.0000000001
 43
0.0000000001
 40
0.0
 40
0.0
 40
0.0
 40
0.0252296155500384
 40
0.0252296155500384
 40
0.0252296155500384
 10
9.261614862787843
 20
67.24899923068253
 30
0.0
 41
1.0
 10
9.27364569889282
 20
67.25280971433831
 30
0.0
 41
0.999399897406087
 10
9.285911487311878
 20
67.25577808721494
 30
0.0
 41
1.0
  0
SPLINE
  5
CA
330
1F
100
AcDbEntity
  8
Default
100
AcDbSpline
210
0.0
220
0.0
230
1.0
 70
    12
 71
     3
 72
    10
 73
     6
 74
     0
 42
0.0000000001
 43
0.0000000001
 40
-0.8566784584733946
 40
-0.8566784584733946
 40
-0.8566784584733946
 40
-0.8566784584733946
 40
-0.7250511770237734
 40
-0.7250511770237734
 40
-0.0000029464464834
 40
-0.0000029464464834
 40
-0.0000029464464834
 40
-0.0000029464464834
 10
9.895435235621774
 20
46.89926462632073
 30
0.0
 41
1.0
 10
9.924248387736599
 20
46.86666733732132
 30
0.0
 41
1.0
 10
9.947909378518247
 20
46.82795955234299
 30
0.0
 41
1.0
 10
10.05560281809532
 20
46.53909810048152
 30
0.0
 41
1.0
 10
9.87239678212562
 20
46.27635611476451
 30
0.0
 41
1.0
 10
9.610759448661454
 20
46.27632166104338
 30
0.0
 41
1.0
  0
SPLINE
  5
CB
330
1F
100
AcDbEntity
  8
Default
100
AcDbSpline
210
0.0
220
0.0
230
1.0
 70
    24
 71
     2
 72
     6
 73
     3
 74
     0
 42
0.0000000001
 43
0.0000000001
 40
0.0
 40
0.0
 40
0.0
 40
0.0875020762910082
 40
0.0875020762910082
 40
0.0875020762910082
 10
9.10328913763932
 20
67.16523704094189
 30
0.0
 10
9.08243707956219
 20
67.12677478655195
 30
0.0
 10
9.06158502148506
 20
67.08831253216199
 30
0.0
  0
SPLINE
  5
CC
330
1F
100
AcDbEntity
  8
Default
100
AcDbSpline
210
0.0
220
0.0
230
1.0
 70
    12
 71
     2
 72
     6
 73
     3
 74
     0
 42
0.0000000001
 43
0.0000000001
 40
0.0
 40
0.0
 40
0.0
 40
1.276708466034433
 40
1.276708466034433
 40
1.276708466034433
 10
9.058250726018477
 20
67.08217453241011
 30
0.0
 41
1.0
 10
8.753998141215424
 20
66.52099141482122
 30
0.0
 41
0.9999999999723839
 10
8.449737215203367
 20
65.95981281960582
 30
0.0
 41
1.0
  0
SPLINE
  5
CD
330
1F
100
AcDbEntity
  8
Default
100
AcDbSpline
210
0.0
220
0.0
230
1.0
 70
    12
 71
     3
 72
    10
 73
     6
 74
     0
 42
0.0000000001
 43
0.0000000001
 40
-0.8566784584733946
 40
-0.8566784584733946
 40
-0.8566784584733946
 40
-0.8566784584733946
 40
-0.7250511770237734
 40
-0.7250511770237734
 40
-0.0000029464464834
 40
-0.0000029464464834
 40
-0.0000029464464834
 40
-0.0000029464464834
 10
-9.895435235621774
 20
46.89926462632073
 30
0.0
 41
1.0
 10
-9.924248387736599
 20
46.86666733732132
 30
0.0
 41
1.0
 10
-9.947909378518247
 20
46.82795955234299
 30
0.0
 41
1.0
 10
-10.05560281809532
 20
46.53909810048152
 30
0.0
 41
1.0
 10
-9.87239678212562
 20
46.27635611476451
 30
0.0
 41
1.0
 10
-9.610759448661454
 20
46.27632166104338
 30
0.0
 41
1.0
  0
SPLINE
  5
CE
330
1F
100
AcDbEntity
  8
Default
100
AcDbSpline
210
0.0
220
0.0
230
1.0
 70
    12
 71
     2
 72
     6
 73
     3
 74
     0
 42
0.0000000001
 43
0.0000000001
 40
0.0
 40
0.0
 40
0.0
 40
0.1700892672528955
 40
0.1700892672528955
 40
0.1700892672528955
 10
-5.836116465258973
 20
62.84571748761297
 30
0.0
 41
1.0
 10
-5.757279970986139
 20
62.81382082822957
 30
0.0
 41
0.9999999999591014
 10
-5.678444053684668
 20
62.78192274282728
 30
0.0
 41
1.0
  0
SPLINE
  5
CF
330
1F
100
AcDbEntity
  8
Default
100
AcDbSpline
210
0.0
220
0.0
230
1.0
 70
    12
 71
     2
 72
     6
 73
     3
 74
     0
 42
0.0000000001
 43
0.0000000001
 40
0.0
 40
0.0
 40
0.0
 40
1.215705401014226
 40
1.215705401014226
 40
1.215705401014226
 10
-8.455989534478894
 20
47.17291863802163
 30
0.0
 41
1.0
 10
-8.91159701351741
 20
46.77054228364078
 30
0.0
 41
0.9999999999966951
 10
-9.367206561510233
 20
46.36816827195602
 30
0.0
 41
1.0
  0
SPLINE
  5
D0
330
1F
100
AcDbEntity
  8
Default
100
AcDbSpline
210
0.0
220
0.0
230
1.0
 70
    12
 71
     2
 72
     6
 73
     3
 74
     0
 42
0.0000000001
 43
0.0000000001
 40
0.0
 40
0.0
 40
0.0
 40
0.316883761450353
 40
0.316883761450353
 40
0.316883761450353
 10
-9.902243183812272
 20
46.89629624008882
 30
0.0
 41
1.0
 10
-10.02875418175574
 20
46.7842431761448
 30
0.0
 41
0.9088720084661118
 10
-10.02630013665171
 20
46.61526122621367
 30
0.0
 41
1.0
  0
SPLINE
  5
D1
330
1F
100
AcDbEntity
  8
Default
100
AcDbSpline
210
0.0
220
0.0
230
1.0
 70
    12
 71
     2
 72
     6
 73
     3
 74
     0
 42
0.0000000001
 43
0.0000000001
 40
0.0
 40
0.0
 40
0.0
 40
0.1135549766693578
 40
0.1135549766693578
 40
0.1135549766693578
 10
-9.151896603616743
 20
67.19186103582527
 30
0.0
 41
1.0
 10
-9.197326918306288
 20
67.22671944434578
 30
0.0
 41
0.9873369811577766
 10
-9.251390278265237
 20
67.24559205008336
 30
0.0
 41
1.0
  0
SPLINE
  5
D2
330
1F
100
AcDbEntity
  8
Default
100
AcDbSpline
210
0.0
220
0.0
230
1.0
 70
    12
 71
     2
 72
     6
 73
     3
 74
     0
 42
0.0000000001
 43
0.0000000001
 40
0.0
 40
0.0
 40
0.0
 40
0.0252296155500384
 40
0.0252296155500384
 40
0.0252296155500384
 10
-9.261614862787843
 20
67.24899923068253
 30
0.0
 41
1.0
 10
-9.27364569889282
 20
67.25280971433831
 30
0.0
 41
0.999399897406087
 10
-9.285911487311878
 20
67.25577808721494
 30
0.0
 41
1.0
  0
SPLINE
  5
D3
330
1F
100
AcDbEntity
  8
Default
100
AcDbSpline
210
0.0
220
0.0
230
1.0
 70
    12
 71
     2
 72
     6
 73
     3
 74
     0
 42
0.0000000001
 43
0.0000000001
 40
0.0
 40
0.0
 40
0.0
 40
0.1036082929460972
 40
0.1036082929460972
 40
0.1036082929460972
 10
-9.610756258937071
 20
46.27632166063636
 30
0.0
 41
1.0
 10
-9.558610536492065
 20
46.27630346356286
 30
0.0
 41
0.9902031922285416
 10
-9.508493218824224
 20
46.29070593453927
 30
0.0
 41
1.0
  0
SPLINE
  5
D4
330
1F
100
AcDbEntity
  8
Default
100
AcDbSpline
210
0.0
220
0.0
230
1.0
 70
    24
 71
     2
 72
     6
 73
     3
 74
     0
 42
0.0000000001
 43
0.0000000001
 40
0.0
 40
0.0
 40
0.0
 40
0.0940954102827625
 40
0.0940954102827625
 40
0.0940954102827625
 10
-9.717966627821317
 20
66.72540531881418
 30
0.0
 10
-9.740389900995796
 20
66.76676572716822
 30
0.0
 10
-9.762813174170274
 20
66.80812613552226
 30
0.0
  0
SPLINE
  5
D5
330
1F
100
AcDbEntity
  8
Default
100
AcDbSpline
210
0.0
220
0.0
230
1.0
 70
    12
 71
     2
 72
     6
 73
     3
 74
     0
 42
0.0000000001
 43
0.0000000001
 40
0.0
 40
0.0
 40
0.0
 40
1.276708466034433
 40
1.276708466034433
 40
1.276708466034433
 10
-9.058250726018477
 20
67.08217453241011
 30
0.0
 41
1.0
 10
-8.753998141215424
 20
66.52099141482122
 30
0.0
 41
0.9999999999723839
 10
-8.449737215203367
 20
65.95981281960582
 30
0.0
 41
1.0
  0
SPLINE
  5
D6
330
1F
100
AcDbEntity
  8
Default
100
AcDbSpline
210
0.0
220
0.0
230
1.0
 70
    12
 71
     2
 72
     6
 73
     3
 74
     0
 42
0.0000000001
 43
0.0000000001
 40
0.0
 40
0.0
 40
0.0
 40
2.056933365039831
 40
2.056933365039831
 40
2.056933365039831
 10
-8.737445622103868
 20
64.91678965710159
 30
0.0
 41
1.0
 10
-9.227576649038566
 20
65.82095518110583
 30
0.0
 41
0.9999999990720724
 10
-9.717785576400974
 20
66.72507847242099
 30
0.0
 41
1.0
  0
SPLINE
  5
D7
330
1F
100
AcDbEntity
  8
Default
100
AcDbSpline
210
0.0
220
0.0
230
1.0
 70
    12
 71
     2
 72
     6
 73
     3
 74
     0
 42
0.0000000001
 43
0.0000000001
 40
0.0
 40
0.0
 40
0.0
 40
0.1106911871836654
 40
0.1106911871836654
 40
0.1106911871836654
 10
-9.058182359281593
 20
67.08221157606577
 30
0.0
 41
1.0
 10
-9.084806096795282
 20
67.13127822255751
 30
0.0
 41
0.9871850534032713
 10
-9.125533246879485
 20
67.16945751593967
 30
0.0
 41
1.0
  0
SPLINE
  5
D8
330
1F
100
AcDbEntity
  8
Default
100
AcDbSpline
210
0.0
220
0.0
230
1.0
 70
    12
 71
     2
 72
     6
 73
     3
 74
     0
 42
0.0000000001
 43
0.0000000001
 40
0.0
 40
0.0
 40
0.0
 40
0.3134068474028695
 40
0.3134068474028695
 40
0.3134068474028695
 10
-6.586973041219196
 20
62.34077614138008
 30
0.0
 41
1.0
 10
-6.732146473584464
 20
62.39985488732844
 30
0.0
 41
0.999705051773788
 10
-6.874279930972103
 20
62.46591322502002
 30
0.0
 41
1.0
  0
SPLINE
  5
D9
330
1F
100
AcDbEntity
  8
Default
100
AcDbSpline
210
0.0
220
0.0
230
1.0
 70
    12
 71
     2
 72
     6
 73
     3
 74
     0
 42
0.0000000001
 43
0.0000000001
 40
0.0
 40
0.0
 40
0.0
 40
1.312664377370766
 40
1.312664377370766
 40
1.312664377370766
 10
-9.895435235621774
 20
46.89926462632073
 30
0.0
 41
1.0
 10
-9.371716955909957
 20
47.36477565215224
 30
0.0
 41
0.9999999996220382
 10
-8.879782254044738
 20
47.79925487055662
 30
0.0
 41
1.0
  0
SPLINE
  5
DA
330
1F
100
AcDbEntity
  8
Default
100
AcDbSpline
210
0.0
220
0.0
230
1.0
 70
    24
 71
     2
 72
     6
 73
     3
 74
     0
 42
0.0000000001
 43
0.0000000001
 40
0.0
 40
0.0
 40
0.0
 40
0.0875020762910082
 40
0.0875020762910082
 40
0.0875020762910082
 10
-9.10328913763932
 20
67.16523704094189
 30
0.0
 10
-9.08243707956219
 20
67.12677478655195
 30
0.0
 10
-9.06158502148506
 20
67.08831253216199
 30
0.0
  0
SPLINE
  5
DB
330
1F
100
AcDbEntity
  8
Default
100
AcDbSpline
210
0.0
220
0.0
230
1.0
 70
    12
 71
     2
 72
     6
 73
     3
 74
     0
 42
0.0000000001
 43
0.0000000001
 40
0.0
 40
0.0
 40
0.0
 40
0.3134068474028695
 40
0.3134068474028695
 40
0.3134068474028695
 10
6.586973041219196
 20
62.34077614138008
 30
0.0
 41
1.0
 10
6.732146473584464
 20
62.39985488732844
 30
0.0
 41
0.999705051773788
 10
6.874279930972103
 20
62.46591322502002
 30
0.0
 41
1.0
  0
SPLINE
  5
DC
330
1F
100
AcDbEntity
  8
Default
100
AcDbSpline
210
0.0
220
0.0
230
1.0
 70
    12
 71
     2
 72
     6
 73
     3
 74
     0
 42
0.0000000001
 43
0.0000000001
 40
0.0
 40
0.0
 40
0.0
 40
2.056933365039831
 40
2.056933365039831
 40
2.056933365039831
 10
8.737445622103868
 20
64.91678965710159
 30
0.0
 41
1.0
 10
9.227576649038566
 20
65.82095518110583
 30
0.0
 41
0.9999999990720724
 10
9.717785576400974
 20
66.72507847242099
 30
0.0
 41
1.0
  0
SPLINE
  5
DD
330
1F
100
AcDbEntity
  8
Default
100
AcDbSpline
210
0.0
220
0.0
230
1.0
 70
    12
 71
     2
 72
     6
 73
     3
 74
     0
 42
0.0000000001
 43
0.0000000001
 40
0.0
 40
0.0
 40
0.0
 40
1.312664377370766
 40
1.312664377370766
 40
1.312664377370766
 10
9.895435235621774
 20
46.89926462632073
 30
0.0
 41
1.0
 10
9.371716955909957
 20
47.36477565215224
 30
0.0
 41
0.9999999996220382
 10
8.879782254044738
 20
47.79925487055662
 30
0.0
 41
1.0
  0
SPLINE
  5
DE
330
1F
100
AcDbEntity
  8
Default
100
AcDbSpline
210
0.0
220
0.0
230
1.0
 70
     8
 71
     3
 72
    42
 73
    38
 74
     0
 42
0.0000000001
 43
0.0000000001
 40
-31.87439353502379
 40
-31.87439353502379
 40
-31.87439353502379
 40
-31.87439353502379
 40
-31.14691026504493
 40
-30.33174389017705
 40
-28.81759513768598
 40
-27.65305253994346
 40
-27.14381919304531
 40
-26.70345791053316
 40
-25.87076894409001
 40
-25.07821381365109
 40
-24.30756197318831
 40
-23.53678803523399
 40
-22.79487326645472
 40
-22.03826866517793
 40
-21.22343992901799
 40
-20.33606925514989
 40
-19.78360694278379
 40
-19.02790418592421
 40
-17.34098918640463
 40
-15.56633459196268
 40
-13.84928946295565
 40
-12.77184938058234
 40
-11.86920431584046
 40
-11.39607483796483
 40
-10.90105658608137
 40
-10.55871548889437
 40
-10.27310334035815
 40
-9.13341851675078
 40
-8.595760610397573
 40
-8.021804470455628
 40
-7.382340769121686
 40
-6.677256588586643
 40
-5.877612648694915
 40
-4.939418693591196
 40
-2.851384615401141
 40
-1.541497374587808
 40
0.0
 40
0.0
 40
0.0
 40
0.0
 10
0.0
 20
63.44446222292338
 30
0.0
 10
-0.2424986045655242
 20
63.44424555243016
 30
0.0
 10
-0.7566733127812757
 20
63.43482837479134
 30
0.0
 10
-1.774878744720636
 20
63.3954899017884
 30
0.0
 10
-2.937160414236319
 20
63.31806604369689
 30
0.0
 10
-3.993140910183465
 20
63.19490881838958
 30
0.0
 10
-4.686775608097249
 20
63.06863444691122
 30
0.0
 10
-5.265101111498416
 20
62.93196343890037
 30
0.0
 10
-5.917809589140903
 20
62.70739794188925
 30
0.0
 10
-6.629129574428276
 20
62.33916672593848
 30
0.0
 10
-7.256670443099322
 20
61.87498468973331
 30
0.0
 10
-7.787507601234147
 20
61.32583016966947
 30
0.0
 10
-8.222798995357026
 20
60.70479217030535
 30
0.0
 10
-8.572745642202511
 20
60.01548275130682
 30
0.0
 10
-8.845902340601807
 20
59.2413215142052
 30
0.0
 10
-9.01495767229852
 20
58.50777428248674
 30
0.0
 10
-9.121537721923112
 20
57.78362176103573
 30
0.0
 10
-9.237403316534843
 20
56.79189426572273
 30
0.0
 10
-9.355652216644996
 20
55.39091826729652
 30
0.0
 10
-9.443563442211506
 20
53.66668107300218
 30
0.0
 10
-9.474291494269066
 20
52.14385385063257
 30
0.0
 10
-9.459391394155245
 20
50.91124093386394
 30
0.0
 10
-9.406401956996763
 20
50.0949619360841
 30
0.0
 10
-9.334968786886511
 20
49.47519208761276
 30
0.0
 10
-9.26811013301922
 20
49.04371255789098
 30
0.0
 10
-9.200999473483256
 20
48.67501776795454
 30
0.0
 10
-9.049437750098182
 20
48.10578938183188
 30
0.0
 10
-8.75577017349253
 20
47.50998706134309
 30
0.0
 10
-8.259981178439212
 20
46.94335573963376
 30
0.0
 10
-7.806253096560634
 20
46.57251620107458
 30
0.0
 10
-7.25104854565937
 20
46.25212528710783
 30
0.0
 10
-6.587831534377383
 20
45.98116856910664
 30
0.0
 10
-5.80312778905413
 20
45.76121043442513
 30
0.0
 10
-4.550193309073095
 20
45.51711141535732
 30
0.0
 10
-3.109851465339683
 20
45.37716549410577
 30
0.0
 10
-1.464320929680837
 20
45.31830725075573
 30
0.0
 10
-0.5138271122088528
 20
45.30899097015333
 30
0.0
 10
0.0
 20
45.30924265159632
 30
0.0
  0
SPLINE
  5
DF
330
1F
100
AcDbEntity
  8
Default
100
AcDbSpline
210
0.0
220
0.0
230
1.0
 70
     8
 71
     3
 72
    42
 73
    38
 74
     0
 42
0.0000000001
 43
0.0000000001
 40
0.0
 40
0.0
 40
0.0
 40
0.0
 40
1.541497374587808
 40
2.851384615401141
 40
4.939418693591196
 40
5.877612648694915
 40
6.677256588586643
 40
7.382340769121686
 40
8.021804470455628
 40
8.595760610397573
 40
9.13341851675078
 40
10.27310334035815
 40
10.55871548889437
 40
10.90105658608137
 40
11.39607483796483
 40
11.86920431584046
 40
12.77184938058234
 40
13.84928946295565
 40
15.56633459196268
 40
17.34098918640463
 40
19.02790418592421
 40
19.78360694278379
 40
20.33606925514989
 40
21.22343992901799
 40
22.03826866517793
 40
22.79487326645472
 40
23.53678803523399
 40
24.30756197318831
 40
25.07821381365109
 40
25.87076894409001
 40
26.70345791053316
 40
27.14381919304531
 40
27.65305253994346
 40
28.81759513768598
 40
30.33174389017705
 40
31.14691026504493
 40
31.87439353502379
 40
31.87439353502379
 40
31.87439353502379
 40
31.87439353502379
 10
0.0
 20
45.30924265159632
 30
0.0
 10
0.5138271122088528
 20
45.30899097015333
 30
0.0
 10
1.464320929680837
 20
45.31830725075573
 30
0.0
 10
3.109851465339683
 20
45.37716549410577
 30
0.0
 10
4.550193309073095
 20
45.51711141535732
 30
0.0
 10
5.80312778905413
 20
45.76121043442513
 30
0.0
 10
6.587831534377383
 20
45.98116856910664
 30
0.0
 10
7.25104854565937
 20
46.25212528710783
 30
0.0
 10
7.806253096560634
 20
46.57251620107458
 30
0.0
 10
8.259981178439212
 20
46.94335573963376
 30
0.0
 10
8.75577017349253
 20
47.50998706134309
 30
0.0
 10
9.049437750098182
 20
48.10578938183188
 30
0.0
 10
9.200999473483256
 20
48.67501776795454
 30
0.0
 10
9.26811013301922
 20
49.04371255789098
 30
0.0
 10
9.334968786886511
 20
49.47519208761276
 30
0.0
 10
9.406401956996763
 20
50.0949619360841
 30
0.0
 10
9.459391394155245
 20
50.91124093386394
 30
0.0
 10
9.474291494269066
 20
52.14385385063257
 30
0.0
 10
9.443563442211506
 20
53.66668107300218
 30
0.0
 10
9.355652216644996
 20
55.39091826729652
 30
0.0
 10
9.237403316534843
 20
56.79189426572273
 30
0.0
 10
9.121537721923112
 20
57.78362176103573
 30
0.0
 10
9.01495767229852
 20
58.50777428248674
 30
0.0
 10
8.845902340601807
 20
59.2413215142052
 30
0.0
 10
8.572745642202511
 20
60.01548275130682
 30
0.0
 10
8.222798995357026
 20
60.70479217030535
 30
0.0
 10
7.787507601234147
 20
61.32583016966947
 30
0.0
 10
7.256670443099322
 20
61.87498468973331
 30
0.0
 10
6.629129574428276
 20
62.33916672593848
 30
0.0
 10
5.917809589140903
 20
62.70739794188925
 30
0.0
 10
5.265101111498416
 20
62.93196343890037
 30
0.0
 10
4.686775608097249
 20
63.06863444691122
 30
0.0
 10
3.993140910183465
 20
63.19490881838958
 30
0.0
 10
2.937160414236319
 20
63.31806604369689
 30
0.0
 10
1.774878744720636
 20
63.3954899017884
 30
0.0
 10
0.7566733127812757
 20
63.43482837479134
 30
0.0
 10
0.2424986045655242
 20
63.44424555243016
 30
0.0
 10
0.0
 20
63.44446222292338
 30
0.0
  0
SPLINE
  5
E0
330
1F
100
AcDbEntity
  8
Default
100
AcDbSpline
210
0.0
220
0.0
230
1.0
 70
     8
 71
     3
 72
    23
 73
    19
 74
     0
 42
0.0000000001
 43
0.0000000001
 40
0.0
 40
0.0
 40
0.0
 40
0.0
 40
0.2238709213952738
 40
0.521329265525629
 40
1.268575205064484
 40
1.954704949636548
 40
2.636382543990066
 40
3.242169926739764
 40
3.850853675673826
 40
4.145663581386537
 40
4.405605207943766
 40
4.992826723597618
 40
5.611004823335814
 40
6.272702611381541
 40
7.798380653698081
 40
8.860195888103046
 40
9.959346312934244
 40
12.11765493802799
 40
12.11765493802799
 40
12.11765493802799
 40
12.11765493802799
 10
8.773187421606414
 20
63.53570645593242
 30
0.0
 10
8.79287779707414
 20
63.60778904808635
 30
0.0
 10
8.818452388549003
 20
63.78023449718633
 30
0.0
 10
8.822708365921867
 20
64.20352698649425
 30
0.0
 10
8.77430488227312
 20
64.7794655959153
 30
0.0
 10
8.628098367456664
 20
65.47059845403099
 30
0.0
 10
8.410835344893801
 20
66.0930603393797
 30
0.0
 10
8.126351715934684
 20
66.65906906033433
 30
0.0
 10
7.830049350306035
 20
67.06794086696661
 30
0.0
 10
7.576383492229381
 20
67.36098518781925
 30
0.0
 10
7.304739836462906
 20
67.62842817218909
 30
0.0
 10
6.912578998471865
 20
67.92228101389924
 30
0.0
 10
6.368041298037086
 20
68.22549808206638
 30
0.0
 10
5.50279896569073
 20
68.58566359508394
 30
0.0
 10
4.447877982038801
 20
68.844511118689
 30
0.0
 10
3.235452393127716
 20
69.04292876044413
 30
0.0
 10
1.805265854072008
 20
69.21361941181345
 30
0.0
 10
0.7194313752126242
 20
69.26480719089234
 30
0.0
 10
0.0
 20
69.26484220513107
 30
0.0
  0
SPLINE
  5
E1
330
1F
100
AcDbEntity
  8
Default
100
AcDbSpline
210
0.0
220
0.0
230
1.0
 70
    12
 71
     2
 72
     6
 73
     3
 74
     0
 42
0.0000000001
 43
0.0000000001
 40
0.0
 40
0.0
 40
0.0
 40
1.07391244906266
 40
1.07391244906266
 40
1.07391244906266
 10
8.308544071238916
 20
62.46119030585065
 30
0.0
 41
1.0
 10
8.556518172650017
 20
62.9390181190789
 30
0.0
 41
0.9980945187465091
 10
8.773187421606414
 20
63.53570645593242
 30
0.0
 41
1.0
  0
SPLINE
  5
E2
330
1F
100
AcDbEntity
  8
Default
100
AcDbSpline
210
0.0
220
0.0
230
1.0
 70
     8
 71
     3
 72
    21
 73
    17
 74
     0
 42
0.0000000001
 43
0.0000000001
 40
0.0
 40
0.0
 40
0.0
 40
0.0
 40
1.120545043659075
 40
2.464651665222287
 40
3.447312224111049
 40
4.206162410790602
 40
5.404733600712757
 40
6.027746982053883
 40
7.044026917533134
 40
7.340565610368325
 40
7.642176893345443
 40
7.888587830494002
 40
8.0958160748408
 40
8.269320540832858
 40
8.415726605621757
 40
8.572929914728228
 40
8.572929914728228
 40
8.572929914728228
 40
8.572929914728228
 10
0.0
 20
63.53828368866699
 30
0.0
 10
0.3735197863547808
 20
63.53777231860285
 30
0.0
 10
1.194964871562158
 20
63.51746706258457
 30
0.0
 10
2.342302752916943
 20
63.45297767116466
 30
0.0
 10
3.368376970960851
 20
63.37995653544507
 30
0.0
 10
4.341042028042632
 20
63.25530726235216
 30
0.0
 10
5.180251089532603
 20
63.05888594990893
 30
0.0
 10
6.079345537230413
 20
62.76422527800979
 30
0.0
 10
6.682106162363247
 20
62.53330699597643
 30
0.0
 10
7.18941257264159
 20
62.35384797094955
 30
0.0
 10
7.459426197647126
 20
62.27353132044782
 30
0.0
 10
7.705926646779305
 20
62.22063807575034
 30
0.0
 10
7.915501703067287
 20
62.20896914935908
 30
0.0
 10
8.090170366489575
 20
62.24191341343191
 30
0.0
 10
8.228635097679417
 20
62.32681756002269
 30
0.0
 10
8.284498068984455
 20
62.4143703957569
 30
0.0
 10
8.308544071238916
 20
62.46119030585065
 30
0.0
  0
SPLINE
  5
E3
330
1F
100
AcDbEntity
  8
Default
100
AcDbSpline
210
0.0
220
0.0
230
1.0
 70
     8
 71
     3
 72
    21
 73
    17
 74
     0
 42
0.0000000001
 43
0.0000000001
 40
-8.572929914728228
 40
-8.572929914728228
 40
-8.572929914728228
 40
-8.572929914728228
 40
-8.415726605621757
 40
-8.269320540832858
 40
-8.0958160748408
 40
-7.888587830494002
 40
-7.642176893345443
 40
-7.340565610368325
 40
-7.044026917533134
 40
-6.027746982053883
 40
-5.404733600712757
 40
-4.206162410790602
 40
-3.447312224111049
 40
-2.464651665222287
 40
-1.120545043659075
 40
0.0
 40
0.0
 40
0.0
 40
0.0
 10
-8.308544071238916
 20
62.46119030585065
 30
0.0
 10
-8.284498068984455
 20
62.4143703957569
 30
0.0
 10
-8.228635097679417
 20
62.32681756002269
 30
0.0
 10
-8.090170366489575
 20
62.24191341343191
 30
0.0
 10
-7.915501703067287
 20
62.20896914935908
 30
0.0
 10
-7.705926646779305
 20
62.22063807575034
 30
0.0
 10
-7.459426197647126
 20
62.27353132044782
 30
0.0
 10
-7.18941257264159
 20
62.35384797094955
 30
0.0
 10
-6.682106162363247
 20
62.53330699597643
 30
0.0
 10
-6.079345537230413
 20
62.76422527800979
 30
0.0
 10
-5.180251089532603
 20
63.05888594990893
 30
0.0
 10
-4.341042028042632
 20
63.25530726235216
 30
0.0
 10
-3.368376970960851
 20
63.37995653544507
 30
0.0
 10
-2.342302752916943
 20
63.45297767116466
 30
0.0
 10
-1.194964871562158
 20
63.51746706258457
 30
0.0
 10
-0.3735197863547808
 20
63.53777231860285
 30
0.0
 10
0.0
 20
63.53828368866699
 30
0.0
  0
SPLINE
  5
E4
330
1F
100
AcDbEntity
  8
Default
100
AcDbSpline
210
0.0
220
0.0
230
1.0
 70
    12
 71
     2
 72
     6
 73
     3
 74
     0
 42
0.0000000001
 43
0.0000000001
 40
-1.07391244906266
 40
-1.07391244906266
 40
-1.07391244906266
 40
0.0
 40
0.0
 40
0.0
 10
-8.773187421606414
 20
63.53570645593242
 30
0.0
 41
1.0
 10
-8.556518172650017
 20
62.9390181190789
 30
0.0
 41
0.9980945187465091
 10
-8.308544071238916
 20
62.46119030585065
 30
0.0
 41
1.0
  0
SPLINE
  5
E5
330
1F
100
AcDbEntity
  8
Default
100
AcDbSpline
210
0.0
220
0.0
230
1.0
 70
     8
 71
     3
 72
    23
 73
    19
 74
     0
 42
0.0000000001
 43
0.0000000001
 40
-12.11765493802799
 40
-12.11765493802799
 40
-12.11765493802799
 40
-12.11765493802799
 40
-9.959346312934244
 40
-8.860195888103046
 40
-7.798380653698081
 40
-6.272702611381541
 40
-5.611004823335814
 40
-4.992826723597618
 40
-4.405605207943766
 40
-4.145663581386537
 40
-3.850853675673826
 40
-3.242169926739764
 40
-2.636382543990066
 40
-1.954704949636548
 40
-1.268575205064484
 40
-0.521329265525629
 40
-0.2238709213952738
 40
0.0
 40
0.0
 40
0.0
 40
0.0
 10
0.0
 20
69.26484220513107
 30
0.0
 10
-0.7194313752126242
 20
69.26480719089234
 30
0.0
 10
-1.805265854072008
 20
69.21361941181345
 30
0.0
 10
-3.235452393127716
 20
69.04292876044413
 30
0.0
 10
-4.447877982038801
 20
68.844511118689
 30
0.0
 10
-5.50279896569073
 20
68.58566359508394
 30
0.0
 10
-6.368041298037086
 20
68.22549808206638
 30
0.0
 10
-6.912578998471865
 20
67.92228101389924
 30
0.0
 10
-7.304739836462906
 20
67.62842817218909
 30
0.0
 10
-7.576383492229381
 20
67.36098518781925
 30
0.0
 10
-7.830049350306035
 20
67.06794086696661
 30
0.0
 10
-8.126351715934684
 20
66.65906906033433
 30
0.0
 10
-8.410835344893801
 20
66.0930603393797
 30
0.0
 10
-8.628098367456664
 20
65.47059845403099
 30
0.0
 10
-8.77430488227312
 20
64.7794655959153
 30
0.0
 10
-8.822708365921867
 20
64.20352698649425
 30
0.0
 10
-8.818452388549003
 20
63.78023449718633
 30
0.0
 10
-8.79287779707414
 20
63.60778904808635
 30
0.0
 10
-8.773187421606414
 20
63.53570645593242
 30
0.0
  0
ARC
  5
E6
330
1F
100
AcDbEntity
  8
Default
100
AcDbCircle
 10
-0.2958440172621327
 20
25.71146277685711
 30
0.0
 40
37.53978594622574
100
AcDbArc
 50
85.4911757479816
 51
88.96023666463672
  0
LINE
  5
E7
330
1F
100
AcDbEntity
  8
Default
100
AcDbLine
 10
0.0
 20
63.25206162731017
 30
0.0
 11
0.3853641104577346
 21
63.2450675114836
 31
0.0
  0
LINE
  5
E8
330
1F
100
AcDbEntity
  8
Default
100
AcDbLine
 10
-0.3853641104577346
 20
63.2450675114836
 30
0.0
 11
0.0
 21
63.25206162731017
 31
0.0
  0
ARC
  5
E9
330
1F
100
AcDbEntity
  8
Default
100
AcDbCircle
 10
0.2958440172623142
 20
25.71146277685212
 30
0.0
 40
37.53978594623074
100
AcDbArc
 50
91.03976333536342
 51
94.50882425201809
  0
SPLINE
  5
EA
330
1F
100
AcDbEntity
  8
Default
100
AcDbSpline
210
0.0
220
0.0
230
1.0
 70
    12
 71
     3
 72
    10
 73
     6
 74
     0
 42
0.0000000001
 43
0.0000000001
 40
-7.7161633322116
 40
-7.7161633322116
 40
-7.7161633322116
 40
-7.7161633322116
 40
-6.782380598752975
 40
-6.782380598752975
 40
-5.840617081523052
 40
-5.840617081523052
 40
-5.840617081523052
 40
-5.840617081523052
 10
-4.140129699356066
 20
62.96550885001125
 30
0.0
 41
1.0
 10
-3.893966613905418
 20
63.00467923020004
 30
0.0
 41
1.0
 10
-3.647251611755499
 20
63.03848311452886
 30
0.0
 41
1.0
 10
-3.150017565711194
 20
63.09451074932834
 30
0.0
 41
1.0
 10
-2.905770876320465
 20
63.11534789666408
 30
0.0
 41
1.0
 10
-2.655257371202017
 20
63.13507202935243
 30
0.0
 41
1.0
  0
SPLINE
  5
EB
330
1F
100
AcDbEntity
  8
Default
100
AcDbSpline
210
0.0
220
0.0
230
1.0
 70
     8
 71
     3
 72
    36
 73
    32
 74
     0
 42
0.0000000001
 43
0.0000000001
 40
0.0
 40
0.0
 40
0.0
 40
0.0
 40
1.607764415090916
 40
2.348733944583401
 40
2.986984620547964
 40
4.073751858443948
 40
4.985216878559912
 40
5.409708366711644
 40
5.838734109645466
 40
6.672766676210213
 40
7.082115576556376
 40
7.290780040416171
 40
7.600787219376496
 40
7.782263749687275
 40
7.918382670296524
 40
8.281353825240656
 40
8.57491879166004
 40
8.929842840700308
 40
10.04469783440959
 40
11.51296717130436
 40
14.70995262980568
 40
15.96925157373182
 40
16.83243599640812
 40
18.26840446478735
 40
18.94050557296364
 40
19.67087195866193
 40
20.33449818087862
 40
20.95409187325373
 40
22.28453458113185
 40
22.98200672795109
 40
23.83475433039732
 40
23.83475433039732
 40
23.83475433039732
 40
23.83475433039732
 10
-3.110026359889252
 20
45.688222155734
 30
0.0
 10
-3.644602698899701
 20
45.72541235034217
 30
0.0
 10
-4.424155933302018
 20
45.80536722570297
 30
0.0
 10
-5.405120501312516
 20
45.97810880292435
 30
0.0
 10
-6.205780329408825
 20
46.16475159345048
 30
0.0
 10
-7.040105655829857
 20
46.45097982099013
 30
0.0
 10
-7.739101637355144
 20
46.86619798416024
 30
0.0
 10
-8.174676186137097
 20
47.26476265064759
 30
0.0
 10
-8.533354083678436
 20
47.69954150305104
 30
0.0
 10
-8.792709725412632
 20
48.19908439199865
 30
0.0
 10
-8.931565491384553
 20
48.66319339626752
 30
0.0
 10
-8.993574170132021
 20
48.96662718426088
 30
0.0
 10
-9.032392605081451
 20
49.19654599931698
 30
0.0
 10
-9.064007622609012
 20
49.40351113020943
 30
0.0
 10
-9.095477117994871
 20
49.62808980926879
 30
0.0
 10
-9.127359025101379
 20
49.89046356818687
 30
0.0
 10
-9.159497528594711
 20
50.22606450414413
 30
0.0
 10
-9.202241261147597
 20
50.8124266024958
 30
0.0
 10
-9.226438560191905
 20
51.79174436369729
 30
0.0
 10
-9.202203996532763
 20
53.71847235733608
 30
0.0
 10
-9.097783068769736
 20
55.69140670419871
 30
0.0
 10
-8.920594240654408
 20
57.45594741534864
 30
0.0
 10
-8.761724981498892
 20
58.63176060276076
 30
0.0
 10
-8.505401563823217
 20
59.59314408746602
 30
0.0
 10
-8.106009257919169
 20
60.45379407327597
 30
0.0
 10
-7.73526936527829
 20
61.03577661786251
 30
0.0
 10
-7.293437862924183
 20
61.54374488560543
 30
0.0
 10
-6.631251307202516
 20
62.11364815518614
 30
0.0
 10
-5.846457113123797
 20
62.53513264296708
 30
0.0
 10
-4.92906662508426
 20
62.82329892084041
 30
0.0
 10
-4.420690506491977
 20
62.92063759018281
 30
0.0
 10
-4.140129699356066
 20
62.96550885001125
 30
0.0
  0
SPLINE
  5
EC
330
1F
100
AcDbEntity
  8
Default
100
AcDbSpline
210
0.0
220
0.0
230
1.0
 70
     8
 71
     3
 72
     8
 73
     4
 74
     0
 42
0.0000000001
 43
0.0000000001
 40
-31.06643827780845
 40
-31.06643827780845
 40
-31.06643827780845
 40
-31.06643827780845
 40
-27.47610604272704
 40
-27.47610604272704
 40
-27.47610604272704
 40
-27.47610604272704
 10
-0.0683785723968509
 20
45.60227840989223
 30
0.0
 10
-1.083026323443617
 20
45.60295447631509
 30
0.0
 10
-2.098246090493381
 20
45.61703422323636
 30
0.0
 10
-3.110026359889252
 20
45.688222155734
 30
0.0
  0
LINE
  5
ED
330
1F
100
AcDbEntity
  8
Default
100
AcDbLine
 10
0.0
 20
45.60223284776541
 30
0.0
 11
-0.0683785723968509
 21
45.60227840989223
 31
0.0
  0
LINE
  5
EE
330
1F
100
AcDbEntity
  8
Default
100
AcDbLine
 10
0.0683785723968509
 20
45.60227840989223
 30
0.0
 11
0.0
 21
45.60223284776541
 31
0.0
  0
SPLINE
  5
EF
330
1F
100
AcDbEntity
  8
Default
100
AcDbSpline
210
0.0
220
0.0
230
1.0
 70
     8
 71
     3
 72
     8
 73
     4
 74
     0
 42
0.0000000001
 43
0.0000000001
 40
27.47610604272704
 40
27.47610604272704
 40
27.47610604272704
 40
27.47610604272704
 40
31.06643827780845
 40
31.06643827780845
 40
31.06643827780845
 40
31.06643827780845
 10
3.110026359889252
 20
45.688222155734
 30
0.0
 10
2.098246090493381
 20
45.61703422323636
 30
0.0
 10
1.083026323443617
 20
45.60295447631509
 30
0.0
 10
0.0683785723968509
 20
45.60227840989223
 30
0.0
  0
SPLINE
  5
F0
330
1F
100
AcDbEntity
  8
Default
100
AcDbSpline
210
0.0
220
0.0
230
1.0
 70
     8
 71
     3
 72
    36
 73
    32
 74
     0
 42
0.0000000001
 43
0.0000000001
 40
-23.83475433039732
 40
-23.83475433039732
 40
-23.83475433039732
 40
-23.83475433039732
 40
-22.98200672795109
 40
-22.28453458113185
 40
-20.95409187325373
 40
-20.33449818087862
 40
-19.67087195866193
 40
-18.94050557296364
 40
-18.26840446478735
 40
-16.83243599640812
 40
-15.96925157373182
 40
-14.70995262980568
 40
-11.51296717130436
 40
-10.04469783440959
 40
-8.929842840700308
 40
-8.57491879166004
 40
-8.281353825240656
 40
-7.918382670296524
 40
-7.782263749687275
 40
-7.600787219376496
 40
-7.290780040416171
 40
-7.082115576556376
 40
-6.672766676210213
 40
-5.838734109645466
 40
-5.409708366711644
 40
-4.985216878559912
 40
-4.073751858443948
 40
-2.986984620547964
 40
-2.348733944583401
 40
-1.607764415090916
 40
0.0
 40
0.0
 40
0.0
 40
0.0
 10
4.140129699356066
 20
62.96550885001125
 30
0.0
 10
4.420690506491977
 20
62.92063759018281
 30
0.0
 10
4.92906662508426
 20
62.82329892084041
 30
0.0
 10
5.846457113123797
 20
62.53513264296708
 30
0.0
 10
6.631251307202516
 20
62.11364815518614
 30
0.0
 10
7.293437862924183
 20
61.54374488560543
 30
0.0
 10
7.73526936527829
 20
61.03577661786251
 30
0.0
 10
8.106009257919169
 20
60.45379407327597
 30
0.0
 10
8.505401563823217
 20
59.59314408746602
 30
0.0
 10
8.761724981498892
 20
58.63176060276076
 30
0.0
 10
8.920594240654408
 20
57.45594741534864
 30
0.0
 10
9.097783068769736
 20
55.69140670419871
 30
0.0
 10
9.202203996532763
 20
53.71847235733608
 30
0.0
 10
9.226438560191905
 20
51.79174436369729
 30
0.0
 10
9.202241261147597
 20
50.8124266024958
 30
0.0
 10
9.159497528594711
 20
50.22606450414413
 30
0.0
 10
9.127359025101379
 20
49.89046356818687
 30
0.0
 10
9.095477117994871
 20
49.62808980926879
 30
0.0
 10
9.064007622609012
 20
49.40351113020943
 30
0.0
 10
9.032392605081451
 20
49.19654599931698
 30
0.0
 10
8.993574170132021
 20
48.96662718426088
 30
0.0
 10
8.931565491384553
 20
48.66319339626752
 30
0.0
 10
8.792709725412632
 20
48.19908439199865
 30
0.0
 10
8.533354083678436
 20
47.69954150305104
 30
0.0
 10
8.174676186137097
 20
47.26476265064759
 30
0.0
 10
7.739101637355144
 20
46.86619798416024
 30
0.0
 10
7.040105655829857
 20
46.45097982099013
 30
0.0
 10
6.205780329408825
 20
46.16475159345048
 30
0.0
 10
5.405120501312516
 20
45.97810880292435
 30
0.0
 10
4.424155933302018
 20
45.80536722570297
 30
0.0
 10
3.644602698899701
 20
45.72541235034217
 30
0.0
 10
3.110026359889252
 20
45.688222155734
 30
0.0
  0
SPLINE
  5
F1
330
1F
100
AcDbEntity
  8
Default
100
AcDbSpline
210
0.0
220
0.0
230
1.0
 70
    12
 71
     3
 72
    10
 73
     6
 74
     0
 42
0.0000000001
 43
0.0000000001
 40
5.840617081523052
 40
5.840617081523052
 40
5.840617081523052
 40
5.840617081523052
 40
6.782380598752975
 40
6.782380598752975
 40
7.7161633322116
 40
7.7161633322116
 40
7.7161633322116
 40
7.7161633322116
 10
2.655257371202016
 20
63.13507202935243
 30
0.0
 41
1.0
 10
2.905770876320465
 20
63.11534789666408
 30
0.0
 41
1.0
 10
3.150017565711194
 20
63.09451074932834
 30
0.0
 41
1.0
 10
3.647251611755499
 20
63.03848311452886
 30
0.0
 41
1.0
 10
3.893966613905418
 20
63.00467923020004
 30
0.0
 41
1.0
 10
4.140129699356066
 20
62.96550885001125
 30
0.0
 41
1.0
  0
SPLINE
  5
F2
330
1F
100
AcDbEntity
  8
Default
100
AcDbSpline
210
0.0
220
0.0
230
1.0
 70
     8
 71
     3
 72
    29
 73
    25
 74
     0
 42
0.0000000001
 43
0.0000000001
 40
-11.77076998503533
 40
-11.77076998503533
 40
-11.77076998503533
 40
-11.77076998503533
 40
-9.609884778501197
 40
-8.534954238045774
 40
-7.999503083483516
 40
-7.516939192782874
 40
-6.098772718345308
 40
-5.730782641826128
 40
-5.428239998287118
 40
-5.115183906264332
 40
-4.830881114654314
 40
-4.491209792613959
 40
-4.213991072924498
 40
-3.652042690128299
 40
-3.032167325833857
 40
-2.463154345427246
 40
-1.792982890921901
 40
-1.116426481293132
 40
-0.7697521439540331
 40
-0.5893346744175345
 40
-0.4382617758584238
 40
-0.1942210121717855
 40
-0.0988422393250357
 40
0.0
 40
0.0
 40
0.0
 40
0.0
 10
0.0
 20
68.0582378527528
 30
0.0
 10
-0.7203422785136043
 20
68.06027096267313
 30
0.0
 10
-1.798784894876566
 20
68.00433174160035
 30
0.0
 10
-3.04692145331474
 20
67.85273425028063
 30
0.0
 10
-3.736081674443309
 20
67.74254453326873
 30
0.0
 10
-4.534119121273202
 20
67.59546008876352
 30
0.0
 10
-5.268431048904619
 20
67.4022094547469
 30
0.0
 10
-5.910379514647771
 20
67.13103662565065
 30
0.0
 10
-6.205377320933481
 20
66.98760009145494
 30
0.0
 10
-6.467677259776468
 20
66.84223426730304
 30
0.0
 10
-6.732325097146964
 20
66.67554176972857
 30
0.0
 10
-6.974855295505142
 20
66.49866071573524
 30
0.0
 10
-7.277908006126184
 20
66.24719567134709
 30
0.0
 10
-7.607722537700973
 20
65.88855622035247
 30
0.0
 10
-7.943651686989089
 20
65.40895590308816
 30
0.0
 10
-8.208322956411795
 20
64.84620928939984
 30
0.0
 10
-8.381188777529518
 20
64.22937147542795
 30
0.0
 10
-8.452360518838923
 20
63.66792399412671
 30
0.0
 10
-8.457698139110175
 20
63.26644483266118
 30
0.0
 10
-8.446830792808932
 20
63.04055286665384
 30
0.0
 10
-8.429191624424462
 20
62.84956513220169
 30
0.0
 10
-8.39852732885548
 20
62.68837217197121
 30
0.0
 10
-8.350859394899015
 20
62.55006831530918
 30
0.0
 10
-8.323829844880837
 20
62.49116134160111
 30
0.0
 10
-8.30896318226499
 20
62.46176368149149
 30
0.0
  0
SPLINE
  5
F3
330
1F
100
AcDbEntity
  8
Default
100
AcDbSpline
210
0.0
220
0.0
230
1.0
 70
     8
 71
     3
 72
    29
 73
    25
 74
     0
 42
0.0000000001
 43
0.0000000001
 40
0.0
 40
0.0
 40
0.0
 40
0.0
 40
0.0988422393250357
 40
0.1942210121717855
 40
0.4382617758584238
 40
0.5893346744175345
 40
0.7697521439540331
 40
1.116426481293132
 40
1.792982890921901
 40
2.463154345427246
 40
3.032167325833857
 40
3.652042690128299
 40
4.213991072924498
 40
4.491209792613959
 40
4.830881114654314
 40
5.115183906264332
 40
5.428239998287118
 40
5.730782641826128
 40
6.098772718345308
 40
7.516939192782874
 40
7.999503083483516
 40
8.534954238045774
 40
9.609884778501197
 40
11.77076998503533
 40
11.77076998503533
 40
11.77076998503533
 40
11.77076998503533
 10
8.30896318226499
 20
62.46176368149149
 30
0.0
 10
8.323829844880837
 20
62.49116134160111
 30
0.0
 10
8.350859394899015
 20
62.55006831530918
 30
0.0
 10
8.39852732885548
 20
62.68837217197121
 30
0.0
 10
8.429191624424462
 20
62.84956513220169
 30
0.0
 10
8.446830792808932
 20
63.04055286665384
 30
0.0
 10
8.457698139110175
 20
63.26644483266118
 30
0.0
 10
8.452360518838923
 20
63.66792399412671
 30
0.0
 10
8.381188777529518
 20
64.22937147542795
 30
0.0
 10
8.208322956411795
 20
64.84620928939984
 30
0.0
 10
7.943651686989089
 20
65.40895590308816
 30
0.0
 10
7.607722537700973
 20
65.88855622035247
 30
0.0
 10
7.277908006126184
 20
66.24719567134709
 30
0.0
 10
6.974855295505142
 20
66.49866071573524
 30
0.0
 10
6.732325097146964
 20
66.67554176972857
 30
0.0
 10
6.467677259776468
 20
66.84223426730304
 30
0.0
 10
6.205377320933481
 20
66.98760009145494
 30
0.0
 10
5.910379514647771
 20
67.13103662565065
 30
0.0
 10
5.268431048904619
 20
67.4022094547469
 30
0.0
 10
4.534119121273202
 20
67.59546008876352
 30
0.0
 10
3.736081674443309
 20
67.74254453326873
 30
0.0
 10
3.04692145331474
 20
67.85273425028063
 30
0.0
 10
1.798784894876566
 20
68.00433174160035
 30
0.0
 10
0.7203422785136043
 20
68.06027096267313
 30
0.0
 10
0.0
 20
68.0582378527528
 30
0.0
  0
ENDSEC
  0
SECTION
  2
OBJECTS
  0
DICTIONARY
  5
C
330
0
100
AcDbDictionary
281
     1
  3
ACAD_GROUP
350
D
  3
ACAD_LAYOUT
350
1A
  3
ACAD_MLEADERSTYLE
350
F5
  3
ACAD_MLINESTYLE
350
17
  3
ACAD_PLOTSETTINGS
350
19
  3
ACAD_PLOTSTYLENAME
350
E
  3
ACAD_TABLESTYLE
350
F4
  3
ACAD_VISUALSTYLE
350
2A
  0
DICTIONARY
  5
D
102
{ACAD_REACTORS
330
C
102
}
330
C
100
AcDbDictionary
281
     1
  0
DICTIONARY
  5
1A
102
{ACAD_REACTORS
330
C
102
}
330
C
100
AcDbDictionary
281
     1
  3
Layout1
350
1E
  3
Layout2
350
26
  3
Model
350
22
  0
DICTIONARY
  5
F5
102
{ACAD_REACTORS
330
C
102
}
330
C
100
AcDbDictionary
281
     1
  0
DICTIONARY
  5
17
102
{ACAD_REACTORS
330
C
102
}
330
C
100
AcDbDictionary
281
     1
  3
Standard
350
18
  0
DICTIONARY
  5
19
102
{ACAD_REACTORS
330
C
102
}
330
C
100
AcDbDictionary
281
     1
  0
ACDBDICTIONARYWDFLT
  5
E
102
{ACAD_REACTORS
330
C
102
}
330
C
100
AcDbDictionary
281
     1
  3
Normal
350
F
100
AcDbDictionaryWithDefault
340
F
  0
DICTIONARY
  5
F4
102
{ACAD_REACTORS
330
C
102
}
330
C
100
AcDbDictionary
281
     1
  0
DICTIONARY
  5
2A
102
{ACAD_REACTORS
330
C
102
}
330
C
100
AcDbDictionary
281
     1
  3
2dWireframe
350
2F
  3
3D Hidden
350
31
  3
3dWireframe
350
30
  3
Basic
350
32
  3
Brighten
350
36
  3
ColorChange
350
3A
  3
Conceptual
350
34
  3
Dim
350
35
  3
Facepattern
350
39
  3
Flat
350
2B
  3
FlatWithEdges
350
2C
  3
Gouraud
350
2D
  3
GouraudWithEdges
350
2E
  3
Linepattern
350
38
  3
Realistic
350
33
  3
Thicken
350
37
  0
LAYOUT
  5
1E
102
{ACAD_REACTORS
330
1A
102
}
330
1A
100
AcDbPlotSettings
  1

  2
none_device
  4

  6

 40
0.0
 41
0.0
 42
0.0
 43
0.0
 44
0.0
 45
0.0
 46
0.0
 47
0.0
 48
0.0
 49
0.0
140
0.0
141
0.0
142
1.0
143
1.0
 70
   688
 72
     0
 73
     0
 74
     5
  7

 75
    16
 76
     0
 77
     2
 78
   300
147
1.0
148
0.0
149
0.0
100
AcDbLayout
  1
Layout1
 70
     1
 71
     1
 10
0.0
 20
0.0
 11
12.0
 21
9.0
 12
0.0
 22
0.0
 32
0.0
 14
1.000000000000000E+20
 24
1.000000000000000E+20
 34
1.000000000000000E+20
 15
-1.000000000000000E+20
 25
-1.000000000000000E+20
 35
-1.000000000000000E+20
146
0.0
 13
0.0
 23
0.0
 33
0.0
 16
1.0
 26
0.0
 36
0.0
 17
0.0
 27
1.0
 37
0.0
 76
     0
330
1B
  0
LAYOUT
  5
26
102
{ACAD_REACTORS
330
1A
102
}
330
1A
100
AcDbPlotSettings
  1

  2
none_device
  4

  6

 40
0.0
 41
0.0
 42
0.0
 43
0.0
 44
0.0
 45
0.0
 46
0.0
 47
0.0
 48
0.0
 49
0.0
140
0.0
141
0.0
142
1.0
143
1.0
 70
   688
 72
     0
 73
     0
 74
     5
  7

 75
    16
 76
     0
 77
     2
 78
   300
147
1.0
148
0.0
149
0.0
100
AcDbLayout
  1
Layout2
 70
     1
 71
     2
 10
0.0
 20
0.0
 11
0.0
 21
0.0
 12
0.0
 22
0.0
 32
0.0
 14
0.0
 24
0.0
 34
0.0
 15
0.0
 25
0.0
 35
0.0
146
0.0
 13
0.0
 23
0.0
 33
0.0
 16
1.0
 26
0.0
 36
0.0
 17
0.0
 27
1.0
 37
0.0
 76
     0
330
23
  0
LAYOUT
  5
22
102
{ACAD_REACTORS
330
1A
102
}
330
1A
100
AcDbPlotSettings
  1

  2
none_device
  4

  6

 40
0.0
 41
0.0
 42
0.0
 43
0.0
 44
0.0
 45
0.0
 46
0.0
 47
0.0
 48
0.0
 49
0.0
140
0.0
141
0.0
142
1.0
143
1.0
 70
  1712
 72
     0
 73
     0
 74
     0
  7

 75
     0
 76
     0
 77
     2
 78
   300
147
1.0
148
0.0
149
0.0
100
AcDbLayout
  1
Model
 70
     1
 71
     0
 10
0.0
 20
0.0
 11
12.0
 21
9.0
 12
0.0
 22
0.0
 32
0.0
 14
-10.02630013665312
 24
-0.0048389957999952
 34
0.0
 15
44.99036064589234
 25
69.26484220513107
 35
0.0
146
0.0
 13
0.0
 23
0.0
 33
0.0
 16
1.0
 26
0.0
 36
0.0
 17
0.0
 27
1.0
 37
0.0
 76
     0
330
1F
331
29
  0
MLINESTYLE
  5
18
102
{ACAD_REACTORS
330
17
102
}
330
17
100
AcDbMlineStyle
  2
Standard
 70
     0
  3

 62
   256
 51
90.0
 52
90.0
 71
     2
 49
0.5
 62
   256
  6
BYLAYER
 49
-0.5
 62
   256
  6
BYLAYER
  0
ACDBPLACEHOLDER
  5
F
102
{ACAD_REACTORS
330
E
102
}
330
E
  0
VISUALSTYLE
  5
2F
102
{ACAD_REACTORS
330
2A
102
}
330
2A
100
AcDbVisualStyle
  2
2dWireframe
 70
     4
 71
     0
 72
     2
 73
     0
 90
        0
 40
-0.6
 41
-30.0
 62
     5
 63
     7
421
 16777215
 74
     1
 91
        4
 64
     7
 65
   257
 75
     1
175
     1
 42
1.0
 92
        0
 66
   257
 43
1.0
 76
     1
 77
     6
 78
     2
 67
     7
 79
     5
170
     0
171
     0
290
     0
174
     0
 93
        1
 44
0.0
173
     0
291
     0
 45
0.0
1001
ACAD
1000
AcDbSavedByObjectVersion
1070
     0
  0
VISUALSTYLE
  5
31
102
{ACAD_REACTORS
330
2A
102
}
330
2A
100
AcDbVisualStyle
  2
3D Hidden
 70
     6
 71
     1
 72
     2
 73
     2
 90
        0
 40
-0.6
 41
-30.0
 62
     5
 63
     7
421
 16777215
 74
     2
 91
        2
 64
     7
 65
   257
 75
     2
175
     1
 42
40.0
 92
        0
 66
   257
 43
1.0
 76
     1
 77
     6
 78
     2
 67
     7
 79
     3
170
     0
171
     0
290
     0
174
     0
 93
        1
 44
0.0
173
     0
291
     0
 45
0.0
1001
ACAD
1000
AcDbSavedByObjectVersion
1070
     0
  0
VISUALSTYLE
  5
30
102
{ACAD_REACTORS
330
2A
102
}
330
2A
100
AcDbVisualStyle
  2
3dWireframe
 70
     5
 71
     0
 72
     2
 73
     0
 90
        0
 40
-0.6
 41
-30.0
 62
     5
 63
     7
421
 16777215
 74
     1
 91
        4
 64
     7
 65
   257
 75
     1
175
     1
 42
1.0
 92
        0
 66
   257
 43
1.0
 76
     1
 77
     6
 78
     2
 67
     7
 79
     5
170
     0
171
     0
290
     0
174
     0
 93
        1
 44
0.0
173
     0
291
     0
 45
0.0
1001
ACAD
1000
AcDbSavedByObjectVersion
1070
     0
  0
VISUALSTYLE
  5
32
102
{ACAD_REACTORS
330
2A
102
}
330
2A
100
AcDbVisualStyle
  2
Basic
 70
     7
 71
     1
 72
     0
 73
     1
 90
        0
 40
-0.6
 41
-30.0
 62
     5
 63
     7
421
 16777215
 74
     0
 91
        4
 64
     7
 65
   257
 75
     1
175
     1
 42
1.0
 92
        8
 66
     7
 43
1.0
 76
     1
 77
     6
 78
     2
 67
     7
 79
     5
170
     0
171
     0
290
     0
174
     0
 93
        1
 44
0.0
173
     0
291
     1
 45
0.0
1001
ACAD
1000
AcDbSavedByObjectVersion
1070
     0
  0
VISUALSTYLE
  5
36
102
{ACAD_REACTORS
330
2A
102
}
330
2A
100
AcDbVisualStyle
  2
Brighten
 70
    12
 71
     2
 72
     2
 73
     0
 90
        0
 40
-0.6
 41
-30.0
 62
     5
 63
     7
421
 16777215
 74
     1
 91
        4
 64
     7
 65
   257
 75
     1
175
     1
 42
1.0
 92
        8
 66
     7
 43
1.0
 76
     1
 77
     6
 78
     2
 67
     7
 79
     5
170
     0
171
     0
290
     0
174
     0
 93
        1
 44
50.0
173
     0
291
     1
 45
0.0
1001
ACAD
1000
AcDbSavedByObjectVersion
1070
     0
  0
VISUALSTYLE
  5
3A
102
{ACAD_REACTORS
330
2A
102
}
330
2A
100
AcDbVisualStyle
  2
ColorChange
 70
    16
 71
     2
 72
     2
 73
     3
 90
        0
 40
-0.6
 41
-30.0
 62
     5
 63
     8
421
  8421504
 74
     1
 91
        4
 64
     7
 65
   257
 75
     1
175
     1
 42
1.0
 92
        8
 66
     8
424
  8421504
 43
1.0
 76
     1
 77
     6
 78
     2
 67
     7
 79
     5
170
     0
171
     0
290
     0
174
     0
 93
        1
 44
0.0
173
     0
291
     1
 45
0.0
1001
ACAD
1000
AcDbSavedByObjectVersion
1070
     0
  0
VISUALSTYLE
  5
34
102
{ACAD_REACTORS
330
2A
102
}
330
2A
100
AcDbVisualStyle
  2
Conceptual
 70
     9
 71
     3
 72
     2
 73
     0
 90
        0
 40
-0.6
 41
-30.0
 62
     5
 63
     7
421
 16777215
 74
     2
 91
        2
 64
     7
 65
   257
 75
     1
175
     1
 42
40.0
 92
        8
 66
     7
 43
1.0
 76
     1
 77
     6
 78
     2
 67
     7
 79
     3
170
     0
171
     0
290
     0
174
     0
 93
        1
 44
0.0
173
     0
291
     0
 45
0.0
1001
ACAD
1000
AcDbSavedByObjectVersion
1070
     0
  0
VISUALSTYLE
  5
35
102
{ACAD_REACTORS
330
2A
102
}
330
2A
100
AcDbVisualStyle
  2
Dim
 70
    11
 71
     2
 72
     2
 73
     0
 90
        0
 40
-0.6
 41
-30.0
 62
     5
 63
     7
421
 16777215
 74
     1
 91
        4
 64
     7
 65
   257
 75
     1
175
     1
 42
1.0
 92
        8
 66
     7
 43
1.0
 76
     1
 77
     6
 78
     2
 67
     7
 79
     5
170
     0
171
     0
290
     0
174
     0
 93
        1
 44
-50.0
173
     0
291
     1
 45
0.0
1001
ACAD
1000
AcDbSavedByObjectVersion
1070
     0
  0
VISUALSTYLE
  5
39
102
{ACAD_REACTORS
330
2A
102
}
330
2A
100
AcDbVisualStyle
  2
Facepattern
 70
    15
 71
     2
 72
     2
 73
     0
 90
        0
 40
-0.6
 41
-30.0
 62
     5
 63
     7
421
 16777215
 74
     1
 91
        4
 64
     7
 65
   257
 75
     1
175
     1
 42
1.0
 92
        8
 66
     7
 43
1.0
 76
     1
 77
     6
 78
     2
 67
     7
 79
     5
170
     0
171
     0
290
     0
174
     0
 93
        1
 44
0.0
173
     0
291
     1
 45
0.0
1001
ACAD
1000
AcDbSavedByObjectVersion
1070
     0
  0
VISUALSTYLE
  5
2B
102
{ACAD_REACTORS
330
2A
102
}
330
2A
100
AcDbVisualStyle
  2
Flat
 70
     0
 71
     2
 72
     1
 73
     1
 90
        2
 40
-0.6
 41
30.0
 62
     5
 63
     7
421
 16777215
 74
     0
 91
        4
 64
     7
 65
   257
 75
     1
175
     1
 42
1.0
 92
        8
 66
     7
 43
1.0
 76
     1
 77
     6
 78
     2
 67
     7
 79
     5
170
     0
171
     0
290
     0
174
     0
 93
       13
 44
0.0
173
     0
291
     1
 45
0.0
1001
ACAD
1000
AcDbSavedByObjectVersion
1070
     0
  0
VISUALSTYLE
  5
2C
102
{ACAD_REACTORS
330
2A
102
}
330
2A
100
AcDbVisualStyle
  2
FlatWithEdges
 70
     1
 71
     2
 72
     1
 73
     1
 90
        2
 40
-0.6
 41
30.0
 62
     5
 63
     7
421
 16777215
 74
     1
 91
        4
 64
     7
 65
   257
 75
     1
175
     1
 42
1.0
 92
        0
 66
   257
 43
1.0
 76
     1
 77
     6
 78
     2
 67
     7
 79
     5
170
     0
171
     0
290
     0
174
     0
 93
       13
 44
0.0
173
     0
291
     1
 45
0.0
1001
ACAD
1000
AcDbSavedByObjectVersion
1070
     0
  0
VISUALSTYLE
  5
2D
102
{ACAD_REACTORS
330
2A
102
}
330
2A
100
AcDbVisualStyle
  2
Gouraud
 70
     2
 71
     2
 72
     2
 73
     1
 90
        2
 40
-0.6
 41
30.0
 62
     5
 63
     7
421
 16777215
 74
     0
 91
        4
 64
     7
 65
   257
 75
     1
175
     1
 42
1.0
 92
        0
 66
     7
 43
1.0
 76
     1
 77
     6
 78
     2
 67
     7
 79
     5
170
     0
171
     0
290
     0
174
     0
 93
       13
 44
0.0
173
     0
291
     1
 45
0.0
1001
ACAD
1000
AcDbSavedByObjectVersion
1070
     0
  0
VISUALSTYLE
  5
2E
102
{ACAD_REACTORS
330
2A
102
}
330
2A
100
AcDbVisualStyle
  2
GouraudWithEdges
 70
     3
 71
     2
 72
     2
 73
     1
 90
        2
 40
-0.6
 41
30.0
 62
     5
 63
     7
421
 16777215
 74
     1
 91
        4
 64
     7
 65
   257
 75
     1
175
     1
 42
1.0
 92
        0
 66
   257
 43
1.0
 76
     1
 77
     6
 78
     2
 67
     7
 79
     5
170
     0
171
     0
290
     0
174
     0
 93
       13
 44
0.0
173
     0
291
     1
 45
0.0
1001
ACAD
1000
AcDbSavedByObjectVersion
1070
     0
  0
VISUALSTYLE
  5
38
102
{ACAD_REACTORS
330
2A
102
}
330
2A
100
AcDbVisualStyle
  2
Linepattern
 70
    14
 71
     2
 72
     2
 73
     0
 90
        0
 40
-0.6
 41
-30.0
 62
     5
 63
     7
421
 16777215
 74
     1
 91
        4
 64
     7
 65
   257
 75
     7
175
     7
 42
1.0
 92
        8
 66
     7
 43
1.0
 76
     1
 77
     6
 78
     2
 67
     7
 79
     5
170
     0
171
     0
290
     0
174
     0
 93
        1
 44
0.0
173
     0
291
     1
 45
0.0
1001
ACAD
1000
AcDbSavedByObjectVersion
1070
     0
  0
VISUALSTYLE
  5
33
102
{ACAD_REACTORS
330
2A
102
}
330
2A
100
AcDbVisualStyle
  2
Realistic
 70
     8
 71
     2
 72
     2
 73
     0
 90
        0
 40
-0.6
 41
-30.0
 62
     5
 63
     7
421
 16777215
 74
     1
 91
        0
 64
     7
 65
   257
 75
     1
175
     1
 42
1.0
 92
        8
 66
     8
424
  7895160
 43
1.0
 76
     1
 77
     6
 78
     2
 67
     7
 79
     5
170
     0
171
     0
290
     0
174
     0
 93
       13
 44
0.0
173
     0
291
     0
 45
0.0
1001
ACAD
1000
AcDbSavedByObjectVersion
1070
     0
  0
VISUALSTYLE
  5
37
102
{ACAD_REACTORS
330
2A
102
}
330
2A
100
AcDbVisualStyle
  2
Thicken
 70
    13
 71
     2
 72
     2
 73
     0
 90
        0
 40
-0.6
 41
-30.0
 62
     5
 63
     7
421
 16777215
 74
     1
 91
        4
 64
     7
 65
   257
 75
     1
175
     1
 42
1.0
 92
       12
 66
     7
 43
1.0
 76
     1
 77
     6
 78
     2
 67
     7
 79
     5
170
     0
171
     0
290
     0
174
     0
 93
        1
 44
0.0
173
     0
291
     1
 45
0.0
1001
ACAD
1000
AcDbSavedByObjectVersion
1070
     0
  0
ENDSEC
  0
EOF
