  0
SECTION
  2
HEADER
  9
$ACADVER
  1
AC1018
  9
$ACADMAINTVER
 70
     0
  9
$DWGCODEPAGE
  3
ANSI_1252
  9
$INSBASE
 10
0.0
 20
0.0
 30
0.0
  9
$EXTMIN
 10
-13.41000108009499
 20
0.137628025151855
 30
0.0
  9
$EXTMAX
 10
45.7786996832132
 20
68.13741192005081
 30
0.0
  9
$LIMMIN
 10
0.0
 20
0.0
  9
$LIMMAX
 10
12.0
 20
9.0
  9
$ORTHOMODE
 70
     0
  9
$REGENMODE
 70
     1
  9
$FILLMODE
 70
     1
  9
$QTEXTMODE
 70
     0
  9
$MIRRTEXT
 70
     1
  9
$LTSCALE
 40
0.0393700787401575
  9
$ATTMODE
 70
     1
  9
$TEXTSIZE
 40
0.2
  9
$TRACEWID
 40
0.05
  9
$TEXTSTYLE
  7
Standard
  9
$CLAYER
  8
Default
  9
$CELTYPE
  6
ByLayer
  9
$CECOLOR
 62
   256
  9
$CELTSCALE
 40
1.0
  9
$DISPSILH
 70
     0
  9
$DIMSCALE
 40
1.0
  9
$DIMASZ
 40
0.18
  9
$DIMEXO
 40
0.0625
  9
$DIMDLI
 40
0.38
  9
$DIMRND
 40
0.0
  9
$DIMDLE
 40
0.0
  9
$DIMEXE
 40
0.18
  9
$DIMTP
 40
0.0
  9
$DIMTM
 40
0.0
  9
$DIMTXT
 40
0.18
  9
$DIMCEN
 40
0.09
  9
$DIMTSZ
 40
0.0
  9
$DIMTOL
 70
     0
  9
$DIMLIM
 70
     0
  9
$DIMTIH
 70
     1
  9
$DIMTOH
 70
     1
  9
$DIMSE1
 70
     0
  9
$DIMSE2
 70
     0
  9
$DIMTAD
 70
     0
  9
$DIMZIN
 70
     0
  9
$DIMBLK
  1

  9
$DIMASO
 70
     1
  9
$DIMSHO
 70
     1
  9
$DIMPOST
  1

  9
$DIMAPOST
  1

  9
$DIMALT
 70
     0
  9
$DIMALTD
 70
     2
  9
$DIMALTF
 40
25.4
  9
$DIMLFAC
 40
1.0
  9
$DIMTOFL
 70
     0
  9
$DIMTVP
 40
0.0
  9
$DIMTIX
 70
     0
  9
$DIMSOXD
 70
     0
  9
$DIMSAH
 70
     0
  9
$DIMBLK1
  1

  9
$DIMBLK2
  1

  9
$DIMSTYLE
  2
Standard
  9
$DIMCLRD
 70
     0
  9
$DIMCLRE
 70
     0
  9
$DIMCLRT
 70
     0
  9
$DIMTFAC
 40
1.0
  9
$DIMGAP
 40
0.09
  9
$DIMJUST
 70
     0
  9
$DIMSD1
 70
     0
  9
$DIMSD2
 70
     0
  9
$DIMTOLJ
 70
     1
  9
$DIMTZIN
 70
     0
  9
$DIMALTZ
 70
     0
  9
$DIMALTTZ
 70
     0
  9
$DIMUPT
 70
     0
  9
$DIMDEC
 70
     4
  9
$DIMTDEC
 70
     4
  9
$DIMALTU
 70
     2
  9
$DIMALTTD
 70
     2
  9
$DIMTXSTY
  7
Standard
  9
$DIMAUNIT
 70
     0
  9
$DIMADEC
 70
     0
  9
$DIMALTRND
 40
0.0
  9
$DIMAZIN
 70
     0
  9
$DIMDSEP
 70
    46
  9
$DIMATFIT
 70
     3
  9
$DIMFRAC
 70
     0
  9
$DIMLDRBLK
  1

  9
$DIMLUNIT
 70
     2
  9
$DIMLWD
 70
    -2
  9
$DIMLWE
 70
    -2
  9
$DIMTMOVE
 70
     2
  9
$LUNITS
 70
     2
  9
$LUPREC
 70
     4
  9
$SKETCHINC
 40
0.1
  9
$FILLETRAD
 40
0.5
  9
$AUNITS
 70
     0
  9
$AUPREC
 70
     0
  9
$MENU
  1
.
  9
$ELEVATION
 40
0.0
  9
$PELEVATION
 40
0.0
  9
$THICKNESS
 40
0.0
  9
$LIMCHECK
 70
     0
  9
$CHAMFERA
 40
0.5
  9
$CHAMFERB
 40
0.5
  9
$CHAMFERC
 40
1.0
  9
$CHAMFERD
 40
0.0
  9
$SKPOLY
 70
     0
  9
$TDCREATE
 40
2457212.421468287
  9
$TDUCREATE
 40
2457212.588134954
  9
$TDUPDATE
 40
2457212.421468298
  9
$TDUUPDATE
 40
2457212.588134965
  9
$TDINDWG
 40
0.0000000116
  9
$TDUSRTIMER
 40
0.0000000116
  9
$USRTIMER
 70
     1
  9
$ANGBASE
 50
0.0
  9
$ANGDIR
 70
     0
  9
$PDMODE
 70
     0
  9
$PDSIZE
 40
0.0
  9
$PLINEWID
 40
0.0
  9
$SPLFRAME
 70
     0
  9
$SPLINETYPE
 70
     6
  9
$SPLINESEGS
 70
     8
  9
$HANDSEED
  5
275
  9
$SURFTAB1
 70
     6
  9
$SURFTAB2
 70
     6
  9
$SURFTYPE
 70
     6
  9
$SURFU
 70
     6
  9
$SURFV
 70
     6
  9
$UCSBASE
  2

  9
$UCSNAME
  2

  9
$UCSORG
 10
0.0
 20
0.0
 30
0.0
  9
$UCSXDIR
 10
1.0
 20
0.0
 30
0.0
  9
$UCSYDIR
 10
0.0
 20
1.0
 30
0.0
  9
$UCSORTHOREF
  2

  9
$UCSORTHOVIEW
 70
     0
  9
$UCSORGTOP
 10
0.0
 20
0.0
 30
0.0
  9
$UCSORGBOTTOM
 10
0.0
 20
0.0
 30
0.0
  9
$UCSORGLEFT
 10
0.0
 20
0.0
 30
0.0
  9
$UCSORGRIGHT
 10
0.0
 20
0.0
 30
0.0
  9
$UCSORGFRONT
 10
0.0
 20
0.0
 30
0.0
  9
$UCSORGBACK
 10
0.0
 20
0.0
 30
0.0
  9
$PUCSBASE
  2

  9
$PUCSNAME
  2

  9
$PUCSORG
 10
0.0
 20
0.0
 30
0.0
  9
$PUCSXDIR
 10
1.0
 20
0.0
 30
0.0
  9
$PUCSYDIR
 10
0.0
 20
1.0
 30
0.0
  9
$PUCSORTHOREF
  2

  9
$PUCSORTHOVIEW
 70
     0
  9
$PUCSORGTOP
 10
0.0
 20
0.0
 30
0.0
  9
$PUCSORGBOTTOM
 10
0.0
 20
0.0
 30
0.0
  9
$PUCSORGLEFT
 10
0.0
 20
0.0
 30
0.0
  9
$PUCSORGRIGHT
 10
0.0
 20
0.0
 30
0.0
  9
$PUCSORGFRONT
 10
0.0
 20
0.0
 30
0.0
  9
$PUCSORGBACK
 10
0.0
 20
0.0
 30
0.0
  9
$USERI1
 70
     0
  9
$USERI2
 70
     0
  9
$USERI3
 70
     0
  9
$USERI4
 70
     0
  9
$USERI5
 70
     0
  9
$USERR1
 40
0.0
  9
$USERR2
 40
0.0
  9
$USERR3
 40
0.0
  9
$USERR4
 40
0.0
  9
$USERR5
 40
0.0
  9
$WORLDVIEW
 70
     1
  9
$SHADEDGE
 70
     3
  9
$SHADEDIF
 70
    70
  9
$TILEMODE
 70
     1
  9
$MAXACTVP
 70
    64
  9
$PINSBASE
 10
0.0
 20
0.0
 30
0.0
  9
$PLIMCHECK
 70
     0
  9
$PEXTMIN
 10
1.000000000000000E+20
 20
1.000000000000000E+20
 30
1.000000000000000E+20
  9
$PEXTMAX
 10
-1.000000000000000E+20
 20
-1.000000000000000E+20
 30
-1.000000000000000E+20
  9
$PLIMMIN
 10
0.0
 20
0.0
  9
$PLIMMAX
 10
12.0
 20
9.0
  9
$UNITMODE
 70
     0
  9
$VISRETAIN
 70
     1
  9
$PLINEGEN
 70
     0
  9
$PSLTSCALE
 70
     1
  9
$TREEDEPTH
 70
  3020
  9
$CMLSTYLE
  2
Standard
  9
$CMLJUST
 70
     0
  9
$CMLSCALE
 40
1.0
  9
$PROXYGRAPHICS
 70
     1
  9
$MEASUREMENT
 70
     0
  9
$CELWEIGHT
370
    -1
  9
$ENDCAPS
280
     0
  9
$JOINSTYLE
280
     0
  9
$LWDISPLAY
290
     0
  9
$INSUNITS
 70
     1
  9
$HYPERLINKBASE
  1

  9
$STYLESHEET
  1

  9
$XEDIT
290
     1
  9
$CEPSNTYPE
380
     0
  9
$PSTYLEMODE
290
     1
  9
$FINGERPRINTGUID
  2
{2D8F48CD-60A9-4DF0-8BD1-0144692A41F1}
  9
$VERSIONGUID
  2
{FAEB1C32-E019-11D5-929B-00C0DF256EC4}
  9
$EXTNAMES
290
     1
  9
$PSVPSCALE
 40
0.0
  9
$OLESTARTUP
290
     0
  9
$SORTENTS
280
   127
  9
$INDEXCTL
280
     0
  9
$HIDETEXT
280
     1
  9
$XCLIPFRAME
290
     0
  9
$HALOGAP
280
     0
  9
$OBSCOLOR
 70
   257
  9
$OBSLTYPE
280
     0
  9
$INTERSECTIONDISPLAY
280
     0
  9
$INTERSECTIONCOLOR
 70
   257
  9
$DIMASSOC
280
     2
  9
$PROJECTNAME
  1

  0
ENDSEC
  0
SECTION
  2
CLASSES
  0
CLASS
  1
ACDBDICTIONARYWDFLT
  2
AcDbDictionaryWithDefault
  3
ObjectDBX Classes
 90
        0
 91
        4
280
     0
281
     0
  0
CLASS
  1
VISUALSTYLE
  2
AcDbVisualStyle
  3
ObjectDBX Classes
 90
     4095
 91
        4
280
     0
281
     0
  0
ENDSEC
  0
SECTION
  2
TABLES
  0
TABLE
  2
VPORT
  5
8
330
0
100
AcDbSymbolTable
 70
     1
  0
VPORT
  5
29
330
8
100
AcDbSymbolTableRecord
100
AcDbViewportTableRecord
  2
*Active
 70
     0
 10
0.0
 20
0.0
 11
1.0
 21
1.0
 12
16.1843493015591
 22
34.13751997260133
 13
0.0
 23
0.0
 14
0.5
 24
0.5
 15
0.5
 25
0.5
 16
0.0
 26
0.0
 36
1.0
 17
0.0
 27
0.0
 37
0.0
 40
69.35977957279694
 41
0.8704248362728733
 42
50.0
 43
0.0
 44
0.0
 50
0.0
 51
0.0
 71
     0
 72
   100
 73
     1
 74
     3
 75
     0
 76
     0
 77
     0
 78
     0
281
     0
 65
     1
110
0.0
120
0.0
130
0.0
111
1.0
121
0.0
131
0.0
112
0.0
122
1.0
132
0.0
 79
     0
146
0.0
  0
ENDTAB
  0
TABLE
  2
LTYPE
  5
5
330
0
100
AcDbSymbolTable
 70
     1
  0
LTYPE
  5
14
330
5
100
AcDbSymbolTableRecord
100
AcDbLinetypeTableRecord
  2
ByBlock
 70
     0
  3

 72
    65
 73
     0
 40
0.0
  0
LTYPE
  5
15
330
5
100
AcDbSymbolTableRecord
100
AcDbLinetypeTableRecord
  2
ByLayer
 70
     0
  3

 72
    65
 73
     0
 40
0.0
  0
LTYPE
  5
16
330
5
100
AcDbSymbolTableRecord
100
AcDbLinetypeTableRecord
  2
Continuous
 70
     0
  3
Solid line
 72
    65
 73
     0
 40
0.0
  0
ENDTAB
  0
TABLE
  2
LAYER
  5
2
330
0
100
AcDbSymbolTable
 70
     2
  0
LAYER
  5
10
330
2
100
AcDbSymbolTableRecord
100
AcDbLayerTableRecord
  2
0
 70
     0
 62
     7
  6
Continuous
370
    -3
390
F
  0
LAYER
  5
3B
330
2
100
AcDbSymbolTableRecord
100
AcDbLayerTableRecord
  2
Default
 70
     0
 62
     7
  6
Continuous
370
    -3
390
F
  0
ENDTAB
  0
TABLE
  2
STYLE
  5
3
330
0
100
AcDbSymbolTable
 70
     1
  0
STYLE
  5
11
330
3
100
AcDbSymbolTableRecord
100
AcDbTextStyleTableRecord
  2
Standard
 70
     0
 40
0.0
 41
1.0
 50
0.0
 71
     0
 42
0.2
  3
txt
  4

  0
ENDTAB
  0
TABLE
  2
VIEW
  5
6
330
0
100
AcDbSymbolTable
 70
     0
  0
ENDTAB
  0
TABLE
  2
UCS
  5
7
330
0
100
AcDbSymbolTable
 70
     0
  0
ENDTAB
  0
TABLE
  2
APPID
  5
9
330
0
100
AcDbSymbolTable
 70
     1
  0
APPID
  5
12
330
9
100
AcDbSymbolTableRecord
100
AcDbRegAppTableRecord
  2
ACAD
 70
     0
  0
ENDTAB
  0
TABLE
  2
DIMSTYLE
  5
A
330
0
100
AcDbSymbolTable
 70
     1
100
AcDbDimStyleTable
  0
DIMSTYLE
105
27
330
A
100
AcDbSymbolTableRecord
100
AcDbDimStyleTableRecord
  2
Standard
 70
     0
340
11
  0
ENDTAB
  0
TABLE
  2
BLOCK_RECORD
  5
1
330
0
100
AcDbSymbolTable
 70
     1
  0
BLOCK_RECORD
  5
1F
330
1
100
AcDbSymbolTableRecord
100
AcDbBlockTableRecord
  2
*Model_Space
340
22
  0
BLOCK_RECORD
  5
1B
330
1
100
AcDbSymbolTableRecord
100
AcDbBlockTableRecord
  2
*Paper_Space
340
1E
  0
BLOCK_RECORD
  5
23
330
1
100
AcDbSymbolTableRecord
100
AcDbBlockTableRecord
  2
*Paper_Space0
340
26
  0
ENDTAB
  0
ENDSEC
  0
SECTION
  2
BLOCKS
  0
BLOCK
  5
20
330
1F
100
AcDbEntity
  8
0
100
AcDbBlockBegin
  2
*Model_Space
 70
     0
 10
0.0
 20
0.0
 30
0.0
  3
*Model_Space
  1

  0
ENDBLK
  5
21
330
1F
100
AcDbEntity
  8
0
100
AcDbBlockEnd
  0
BLOCK
  5
1C
330
1B
100
AcDbEntity
 67
     1
  8
0
100
AcDbBlockBegin
  2
*Paper_Space
 70
     0
 10
0.0
 20
0.0
 30
0.0
  3
*Paper_Space
  1

  0
ENDBLK
  5
1D
330
1B
100
AcDbEntity
 67
     1
  8
0
100
AcDbBlockEnd
  0
BLOCK
  5
24
330
23
100
AcDbEntity
  8
0
100
AcDbBlockBegin
  2
*Paper_Space0
 70
     0
 10
0.0
 20
0.0
 30
0.0
  3
*Paper_Space0
  1

  0
ENDBLK
  5
25
330
23
100
AcDbEntity
  8
0
100
AcDbBlockEnd
  0
ENDSEC
  0
SECTION
  2
ENTITIES
  0
SPLINE
  5
3C
330
1F
100
AcDbEntity
  8
Default
100
AcDbSpline
210
0.0
220
0.0
230
1.0
 70
    12
 71
     2
 72
     6
 73
     3
 74
     0
 42
0.0000000001
 43
0.0000000001
 40
0.0
 40
0.0
 40
0.0
 40
0.0490826514059793
 40
0.0490826514059793
 40
0.0490826514059793
 10
-12.94124310527861
 20
53.39169765933369
 30
0.0
 41
1.0
 10
-12.91000413389485
 20
53.39168663071749
 30
0.0
 41
0.7073563743042116
 10
-12.90999310527859
 20
53.36044765933374
 30
0.0
 41
1.0
  0
SPLINE
  5
3D
330
1F
100
AcDbEntity
  8
Default
100
AcDbSpline
210
0.0
220
0.0
230
1.0
 70
    12
 71
     2
 72
     8
 73
     5
 74
     0
 42
0.0000000001
 43
0.0000000001
 40
0.0
 40
0.0
 40
0.0
 40
0.0245445835752897
 40
0.0245445835752897
 40
0.0490891671505794
 40
0.0490891671505794
 40
0.0490891671505794
 10
-12.90999310527859
 20
50.86294765933365
 30
0.0
 41
1.0
 10
-12.9099913856702
 20
50.85000277329128
 30
0.0
 41
0.9238541124959884
 10
-12.91914480245322
 20
50.84084935650828
 30
0.0
 41
1.0
 10
-12.92829821923624
 20
50.83169593972528
 30
0.0
 41
0.9238541124959884
 10
-12.94124310527861
 20
50.8316976593337
 30
0.0
 41
1.0
  0
SPLINE
  5
3E
330
1F
100
AcDbEntity
  8
Default
100
AcDbSpline
210
0.0
220
0.0
230
1.0
 70
    24
 71
     2
 72
     6
 73
     3
 74
     0
 42
0.0000000001
 43
0.0000000001
 40
0.0
 40
0.0
 40
0.0
 40
0.34375
 40
0.34375
 40
0.34375
 10
-12.12874310527861
 20
53.39169765933369
 30
0.0
 10
-11.95686810527861
 20
53.39169765933369
 30
0.0
 10
-11.78499310527861
 20
53.39169765933369
 30
0.0
  0
SPLINE
  5
3F
330
1F
100
AcDbEntity
  8
Default
100
AcDbSpline
210
0.0
220
0.0
230
1.0
 70
    12
 71
     2
 72
     6
 73
     3
 74
     0
 42
0.0000000001
 43
0.0000000001
 40
0.0
 40
0.0
 40
0.0
 40
0.0490826514060275
 40
0.0490826514060275
 40
0.0490826514060275
 10
0.4062579748413917
 20
41.7244862860267
 30
0.0
 41
1.0
 10
0.3750190034575578
 20
41.72449731464286
 30
0.0
 41
0.7073563743028135
 10
0.3750079748413917
 20
41.7557362860267
 30
0.0
 41
1.0
  0
SPLINE
  5
40
330
1F
100
AcDbEntity
  8
Default
100
AcDbSpline
210
0.0
220
0.0
230
1.0
 70
    24
 71
     2
 72
     6
 73
     3
 74
     0
 42
0.0000000001
 43
0.0000000001
 40
0.0
 40
0.0
 40
0.0
 40
0.078238455356054
 40
0.078238455356054
 40
0.078238455356054
 10
-12.90999310527861
 20
50.86294768898669
 30
0.0
 10
-12.90999310527861
 20
50.90206691666472
 30
0.0
 10
-12.90999310527861
 20
50.94118614434275
 30
0.0
  0
SPLINE
  5
41
330
1F
100
AcDbEntity
  8
Default
100
AcDbSpline
210
0.0
220
0.0
230
1.0
 70
    24
 71
     2
 72
     6
 73
     3
 74
     0
 42
0.0000000001
 43
0.0000000001
 40
0.0
 40
0.0
 40
0.0
 40
0.71875
 40
0.71875
 40
0.71875
 10
-8.10642374169161
 20
68.1274752040667
 30
0.0
 10
-7.747048741691611
 20
68.1274752040667
 30
0.0
 10
-7.387673741691611
 20
68.1274752040667
 30
0.0
  0
SPLINE
  5
42
330
1F
100
AcDbEntity
  8
Default
100
AcDbSpline
210
0.0
220
0.0
230
1.0
 70
    12
 71
     2
 72
     6
 73
     3
 74
     0
 42
0.0000000001
 43
0.0000000001
 40
0.0
 40
0.0
 40
0.0
 40
0.1963481793390235
 40
0.1963481793390235
 40
0.1963481793390235
 10
-11.78499310527861
 20
53.39169765933369
 30
0.0
 41
1.0
 10
-11.65999474559218
 20
53.3916971708713
 30
0.0
 41
0.7071128023126129
 10
-11.65999310528391
 20
53.26669881119467
 30
0.0
 41
1.0
  0
SPLINE
  5
43
330
1F
100
AcDbEntity
  8
Default
100
AcDbSpline
210
0.0
220
0.0
230
1.0
 70
    24
 71
     2
 72
     6
 73
     3
 74
     0
 42
0.0000000001
 43
0.0000000001
 40
0.0
 40
0.0
 40
0.0
 40
0.34375
 40
0.34375
 40
0.34375
 10
0.7500079748413917
 20
41.7244862860267
 30
0.0
 10
0.5781329748413917
 20
41.7244862860267
 30
0.0
 10
0.4062579748413917
 20
41.7244862860267
 30
0.0
  0
SPLINE
  5
44
330
1F
100
AcDbEntity
  8
Default
100
AcDbSpline
210
0.0
220
0.0
230
1.0
 70
    12
 71
     2
 72
     8
 73
     5
 74
     0
 42
0.0000000001
 43
0.0000000001
 40
0.0
 40
0.0
 40
0.0
 40
0.024544583575308
 40
0.024544583575308
 40
0.0490891671506161
 40
0.0490891671506161
 40
0.0490891671506161
 10
-0.3749920251586083
 20
41.7557362860267
 30
0.0
 41
1.0
 10
-0.3749903055501965
 20
41.74279139998432
 30
0.0
 41
0.9238541124958461
 10
-0.3841437223332136
 20
41.7336379832013
 30
0.0
 41
1.0
 10
-0.3932971391162313
 20
41.72448456641829
 30
0.0
 41
0.9238541124958461
 10
-0.4062420251586083
 20
41.7244862860267
 30
0.0
 41
1.0
  0
SPLINE
  5
45
330
1F
100
AcDbEntity
  8
Default
100
AcDbSpline
210
0.0
220
0.0
230
1.0
 70
    24
 71
     2
 72
     6
 73
     3
 74
     0
 42
0.0000000001
 43
0.0000000001
 40
0.0
 40
0.0
 40
0.0
 40
0.0322825955594169
 40
0.0322825955594169
 40
0.0322825955594169
 10
-0.3749920251586225
 20
41.7557363156797
 30
0.0
 10
-0.3749920251586225
 20
41.77187761345941
 30
0.0
 10
-0.3749920251586225
 20
41.78801891123911
 30
0.0
  0
SPLINE
  5
46
330
1F
100
AcDbEntity
  8
Default
100
AcDbSpline
210
0.0
220
0.0
230
1.0
 70
    12
 71
     2
 72
     6
 73
     3
 74
     0
 42
0.0000000001
 43
0.0000000001
 40
0.0
 40
0.0
 40
0.0
 40
0.049082651406081
 40
0.049082651406081
 40
0.049082651406081
 10
-8.15329874169161
 20
68.1274752040667
 30
0.0
 41
1.0
 10
-8.122059770307683
 20
68.1274641754506
 30
0.0
 41
0.7073563743009177
 10
-8.122048741691604
 20
68.09622520406668
 30
0.0
 41
1.0
  0
SPLINE
  5
47
330
1F
100
AcDbEntity
  8
Default
100
AcDbSpline
210
0.0
220
0.0
230
1.0
 70
    12
 71
     2
 72
     6
 73
     3
 74
     0
 42
0.0000000001
 43
0.0000000001
 40
0.0
 40
0.0
 40
0.0
 40
0.1963473754739977
 40
0.1963473754739977
 40
0.1963473754739977
 10
0.875007974836091
 20
41.84948513416572
 30
0.0
 41
1.0
 10
0.8750044616245772
 20
41.7244886474096
 30
0.0
 41
0.7071233973205231
 10
0.7500079748413917
 20
41.7244862860267
 30
0.0
 41
1.0
  0
SPLINE
  5
48
330
1F
100
AcDbEntity
  8
Default
100
AcDbSpline
210
0.0
220
0.0
230
1.0
 70
    24
 71
     2
 72
     6
 73
     3
 74
     0
 42
0.0000000001
 43
0.0000000001
 40
0.0
 40
0.0
 40
0.0
 40
0.34375
 40
0.34375
 40
0.34375
 10
-0.4062420251586083
 20
41.7244862860267
 30
0.0
 10
-0.5781170251586083
 20
41.7244862860267
 30
0.0
 10
-0.7499920251586083
 20
41.7244862860267
 30
0.0
  0
SPLINE
  5
49
330
1F
100
AcDbEntity
  8
Default
100
AcDbSpline
210
0.0
220
0.0
230
1.0
 70
    24
 71
     2
 72
     6
 73
     3
 74
     0
 42
0.0000000001
 43
0.0000000001
 40
0.0
 40
0.0
 40
0.0
 40
0.0322710418429565
 40
0.0322710418429565
 40
0.0322710418429565
 10
0.3750079748414059
 20
41.78800735752365
 30
0.0
 10
0.3750079748414059
 20
41.77187183660217
 30
0.0
 10
0.3750079748414059
 20
41.75573631568069
 30
0.0
  0
SPLINE
  5
4A
330
1F
100
AcDbEntity
  8
Default
100
AcDbSpline
210
0.0
220
0.0
230
1.0
 70
    24
 71
     2
 72
     6
 73
     3
 74
     0
 42
0.0000000001
 43
0.0000000001
 40
0.0
 40
0.0
 40
0.0
 40
0.34375
 40
0.34375
 40
0.34375
 10
-8.49704874169161
 20
68.1274752040667
 30
0.0
 10
-8.32517374169161
 20
68.1274752040667
 30
0.0
 10
-8.15329874169161
 20
68.1274752040667
 30
0.0
  0
SPLINE
  5
4B
330
1F
100
AcDbEntity
  8
Default
100
AcDbSpline
210
0.0
220
0.0
230
1.0
 70
    12
 71
     2
 72
     8
 73
     5
 74
     0
 42
0.0000000001
 43
0.0000000001
 40
0.0
 40
0.0
 40
0.0
 40
0.0245445835753323
 40
0.0245445835753323
 40
0.0490891671506647
 40
0.0490891671506647
 40
0.0490891671506647
 10
-12.15999310527862
 20
53.36044765933369
 30
0.0
 41
1.0
 10
-12.15999482488706
 20
53.37339254537608
 30
0.0
 41
0.9238541124953076
 10
-12.15084140810403
 20
53.38254596215912
 30
0.0
 41
1.0
 10
-12.141687991321
 20
53.39169937894214
 30
0.0
 41
0.9238541124953076
 10
-12.12874310527861
 20
53.39169765933369
 30
0.0
 41
1.0
  0
SPLINE
  5
4C
330
1F
100
AcDbEntity
  8
Default
100
AcDbSpline
210
0.0
220
0.0
230
1.0
 70
    12
 71
     2
 72
     6
 73
     3
 74
     0
 42
0.0000000001
 43
0.0000000001
 40
0.0
 40
0.0
 40
0.0
 40
0.1963481793390298
 40
0.1963481793390298
 40
0.1963481793390298
 10
-0.7499920251586083
 20
41.7244862860267
 30
0.0
 41
1.0
 10
-0.8749903848450391
 20
41.72448677448909
 30
0.0
 41
0.7071128023126251
 10
-0.8749920251533077
 20
41.84948513416572
 30
0.0
 41
1.0
  0
SPLINE
  5
4D
330
1F
100
AcDbEntity
  8
Default
100
AcDbSpline
210
0.0
220
0.0
230
1.0
 70
    24
 71
     2
 72
     6
 73
     3
 74
     0
 42
0.0000000001
 43
0.0000000001
 40
0.0
 40
0.0
 40
0.0
 40
1.127426796760748
 40
1.127426796760748
 40
1.127426796760748
 10
-11.65999310527861
 20
52.13927086257295
 30
0.0
 10
-11.65999310527861
 20
52.70298426095332
 30
0.0
 10
-11.65999310527861
 20
53.26669765933369
 30
0.0
  0
SPLINE
  5
4E
330
1F
100
AcDbEntity
  8
Default
100
AcDbSpline
210
0.0
220
0.0
230
1.0
 70
    24
 71
     2
 72
     6
 73
     3
 74
     0
 42
0.0000000001
 43
0.0000000001
 40
0.0
 40
0.0
 40
0.0
 40
0.71875
 40
0.71875
 40
0.71875
 10
-12.89436810527861
 20
53.39169765933369
 30
0.0
 10
-12.53499310527861
 20
53.39169765933369
 30
0.0
 10
-12.17561810527861
 20
53.39169765933369
 30
0.0
  0
SPLINE
  5
4F
330
1F
100
AcDbEntity
  8
Default
100
AcDbSpline
210
0.0
220
0.0
230
1.0
 70
    12
 71
     2
 72
     8
 73
     5
 74
     0
 42
0.0000000001
 43
0.0000000001
 40
0.0
 40
0.0
 40
0.0
 40
0.0245445835752897
 40
0.0245445835752897
 40
0.0490891671505794
 40
0.0490891671505794
 40
0.0490891671505794
 10
12.90999310527859
 20
50.86294765933365
 30
0.0
 41
1.0
 10
12.9099913856702
 20
50.85000277329128
 30
0.0
 41
0.9238541124959884
 10
12.91914480245322
 20
50.84084935650828
 30
0.0
 41
1.0
 10
12.92829821923624
 20
50.83169593972528
 30
0.0
 41
0.9238541124959884
 10
12.94124310527861
 20
50.8316976593337
 30
0.0
 41
1.0
  0
SPLINE
  5
50
330
1F
100
AcDbEntity
  8
Default
100
AcDbSpline
210
0.0
220
0.0
230
1.0
 70
    12
 71
     2
 72
     6
 73
     3
 74
     0
 42
0.0000000001
 43
0.0000000001
 40
0.0
 40
0.0
 40
0.0
 40
0.1963481793390292
 40
0.1963481793390292
 40
0.1963481793390292
 10
6.997048741691611
 20
68.1274752040667
 30
0.0
 41
1.0
 10
6.872050382005176
 20
68.12747471560431
 30
0.0
 41
0.7071128023125809
 10
6.872048741696916
 20
68.00247635592768
 30
0.0
 41
1.0
  0
SPLINE
  5
51
330
1F
100
AcDbEntity
  8
Default
100
AcDbSpline
210
0.0
220
0.0
230
1.0
 70
    24
 71
     2
 72
     6
 73
     3
 74
     0
 42
0.0000000001
 43
0.0000000001
 40
0.0
 40
0.0
 40
0.0
 40
0.34375
 40
0.34375
 40
0.34375
 10
7.340798741691611
 20
68.1274752040667
 30
0.0
 10
7.168923741691611
 20
68.1274752040667
 30
0.0
 10
6.997048741691611
 20
68.1274752040667
 30
0.0
  0
SPLINE
  5
52
330
1F
100
AcDbEntity
  8
Default
100
AcDbSpline
210
0.0
220
0.0
230
1.0
 70
    12
 71
     2
 72
     8
 73
     5
 74
     0
 42
0.0000000001
 43
0.0000000001
 40
0.0
 40
0.0
 40
0.0
 40
0.024544583575317
 40
0.024544583575317
 40
0.049089167150634
 40
0.049089167150634
 40
0.049089167150634
 10
7.372048741691611
 20
68.09622520406668
 30
0.0
 41
1.0
 10
7.37205046130003
 20
68.10917009010906
 30
0.0
 41
0.923854112495817
 10
7.362897044517012
 20
68.11832350689208
 30
0.0
 41
1.0
 10
7.353743627733996
 20
68.1274769236751
 30
0.0
 41
0.923854112495817
 10
7.340798741691611
 20
68.1274752040667
 30
0.0
 41
1.0
  0
SPLINE
  5
53
330
1F
100
AcDbEntity
  8
Default
100
AcDbSpline
210
0.0
220
0.0
230
1.0
 70
    12
 71
     2
 72
     6
 73
     3
 74
     0
 42
0.0000000001
 43
0.0000000001
 40
0.0
 40
0.0
 40
0.0
 40
0.1963473754739867
 40
0.1963473754739867
 40
0.1963473754739867
 10
8.622048741686303
 20
68.00247635592768
 30
0.0
 41
1.0
 10
8.62204522847479
 20
68.12747284268379
 30
0.0
 41
0.7071233973205383
 10
8.49704874169161
 20
68.1274752040667
 30
0.0
 41
1.0
  0
SPLINE
  5
54
330
1F
100
AcDbEntity
  8
Default
100
AcDbSpline
210
0.0
220
0.0
230
1.0
 70
    12
 71
     2
 72
     6
 73
     3
 74
     0
 42
0.0000000001
 43
0.0000000001
 40
0.0
 40
0.0
 40
0.0
 40
0.196348179339025
 40
0.196348179339025
 40
0.196348179339025
 10
8.49704874169161
 20
65.5674752040667
 30
0.0
 41
1.0
 10
8.62204710137804
 20
65.5674756925291
 30
0.0
 41
0.7071128023126084
 10
8.622048741686303
 20
65.69247405220571
 30
0.0
 41
1.0
  0
SPLINE
  5
55
330
1F
100
AcDbEntity
  8
Default
100
AcDbSpline
210
0.0
220
0.0
230
1.0
 70
    24
 71
     2
 72
     6
 73
     3
 74
     0
 42
0.0000000001
 43
0.0000000001
 40
0.0
 40
0.0
 40
0.0
 40
0.2880920884418892
 40
0.2880920884418892
 40
0.2880920884418892
 10
8.208956653249722
 20
65.5674752040667
 30
0.0
 10
8.353002697470666
 20
65.5674752040667
 30
0.0
 10
8.49704874169161
 20
65.5674752040667
 30
0.0
  0
SPLINE
  5
56
330
1F
100
AcDbEntity
  8
Default
100
AcDbSpline
210
0.0
220
0.0
230
1.0
 70
    24
 71
     2
 72
     6
 73
     3
 74
     0
 42
0.0000000001
 43
0.0000000001
 40
0.0
 40
0.0
 40
0.0
 40
0.34375
 40
0.34375
 40
0.34375
 10
8.49704874169161
 20
68.1274752040667
 30
0.0
 10
8.32517374169161
 20
68.1274752040667
 30
0.0
 10
8.15329874169161
 20
68.1274752040667
 30
0.0
  0
SPLINE
  5
57
330
1F
100
AcDbEntity
  8
Default
100
AcDbSpline
210
0.0
220
0.0
230
1.0
 70
    12
 71
     2
 72
     6
 73
     3
 74
     0
 42
0.0000000001
 43
0.0000000001
 40
0.0
 40
0.0
 40
0.0
 40
0.049082651406081
 40
0.049082651406081
 40
0.049082651406081
 10
8.15329874169161
 20
68.1274752040667
 30
0.0
 41
1.0
 10
8.122059770307683
 20
68.1274641754506
 30
0.0
 41
0.7073563743009177
 10
8.122048741691604
 20
68.09622520406668
 30
0.0
 41
1.0
  0
SPLINE
  5
58
330
1F
100
AcDbEntity
  8
Default
100
AcDbSpline
210
0.0
220
0.0
230
1.0
 70
    12
 71
     2
 72
     6
 73
     3
 74
     0
 42
0.0000000001
 43
0.0000000001
 40
0.0
 40
0.0
 40
0.0
 40
0.1963481793390235
 40
0.1963481793390235
 40
0.1963481793390235
 10
11.78499310527861
 20
53.39169765933369
 30
0.0
 41
1.0
 10
11.65999474559218
 20
53.3916971708713
 30
0.0
 41
0.7071128023126129
 10
11.65999310528391
 20
53.26669881119467
 30
0.0
 41
1.0
  0
SPLINE
  5
59
330
1F
100
AcDbEntity
  8
Default
100
AcDbSpline
210
0.0
220
0.0
230
1.0
 70
    24
 71
     2
 72
     6
 73
     3
 74
     0
 42
0.0000000001
 43
0.0000000001
 40
0.0
 40
0.0
 40
0.0
 40
0.34375
 40
0.34375
 40
0.34375
 10
12.12874310527861
 20
53.39169765933369
 30
0.0
 10
11.95686810527861
 20
53.39169765933369
 30
0.0
 10
11.78499310527861
 20
53.39169765933369
 30
0.0
  0
SPLINE
  5
5A
330
1F
100
AcDbEntity
  8
Default
100
AcDbSpline
210
0.0
220
0.0
230
1.0
 70
    12
 71
     2
 72
     8
 73
     5
 74
     0
 42
0.0000000001
 43
0.0000000001
 40
0.0
 40
0.0
 40
0.0
 40
0.0245445835753323
 40
0.0245445835753323
 40
0.0490891671506647
 40
0.0490891671506647
 40
0.0490891671506647
 10
12.15999310527862
 20
53.36044765933369
 30
0.0
 41
1.0
 10
12.15999482488706
 20
53.37339254537608
 30
0.0
 41
0.9238541124953076
 10
12.15084140810403
 20
53.38254596215912
 30
0.0
 41
1.0
 10
12.141687991321
 20
53.39169937894214
 30
0.0
 41
0.9238541124953076
 10
12.12874310527861
 20
53.39169765933369
 30
0.0
 41
1.0
  0
SPLINE
  5
5B
330
1F
100
AcDbEntity
  8
Default
100
AcDbSpline
210
0.0
220
0.0
230
1.0
 70
    24
 71
     2
 72
     6
 73
     3
 74
     0
 42
0.0000000001
 43
0.0000000001
 40
0.0
 40
0.0
 40
0.0
 40
0.34375
 40
0.34375
 40
0.34375
 10
-12.94124310527861
 20
50.8316976593337
 30
0.0
 10
-13.11311810527861
 20
50.8316976593337
 30
0.0
 10
-13.28499310527861
 20
50.8316976593337
 30
0.0
  0
SPLINE
  5
5C
330
1F
100
AcDbEntity
  8
Default
100
AcDbSpline
210
0.0
220
0.0
230
1.0
 70
    24
 71
     2
 72
     6
 73
     3
 74
     0
 42
0.0000000001
 43
0.0000000001
 40
0.0
 40
0.0
 40
0.0
 40
0.34375
 40
0.34375
 40
0.34375
 10
-13.28499310527861
 20
53.39169765933369
 30
0.0
 10
-13.11311810527861
 20
53.39169765933369
 30
0.0
 10
-12.94124310527861
 20
53.39169765933369
 30
0.0
  0
SPLINE
  5
5D
330
1F
100
AcDbEntity
  8
Default
100
AcDbSpline
210
0.0
220
0.0
230
1.0
 70
    12
 71
     2
 72
     6
 73
     3
 74
     0
 42
0.0000000001
 43
0.0000000001
 40
0.0
 40
0.0
 40
0.0
 40
0.1963481793390366
 40
0.1963481793390366
 40
0.1963481793390366
 10
-13.28499310527861
 20
50.8316976593337
 30
0.0
 41
1.0
 10
-13.40999146496505
 20
50.83169814779609
 30
0.0
 41
0.7071128023125598
 10
-13.40999310527331
 20
50.95669650747272
 30
0.0
 41
1.0
  0
LINE
  5
5E
330
1F
100
AcDbEntity
  8
Default
100
AcDbLine
 10
0.8750079748413917
 20
41.8494862860267
 30
0.0
 11
0.8750079748413917
 21
44.1868452420973
 31
0.0
  0
LINE
  5
5F
330
1F
100
AcDbEntity
  8
Default
100
AcDbLine
 10
-0.8749920251586083
 20
44.18684815544167
 30
0.0
 11
-0.8749920251586083
 21
41.8494862860267
 31
0.0
  0
SPLINE
  5
60
330
1F
100
AcDbEntity
  8
Default
100
AcDbSpline
210
0.0
220
0.0
230
1.0
 70
     8
 71
     3
 72
    29
 73
    25
 74
     0
 42
0.0000000001
 43
0.0000000001
 40
0.0
 40
0.0
 40
0.0
 40
0.0
 40
1.0
 40
2.0
 40
3.0
 40
4.0
 40
5.0
 40
6.0
 40
7.0
 40
8.0
 40
9.0
 40
10.0
 40
11.0
 40
12.0
 40
13.0
 40
14.0
 40
15.0
 40
16.0
 40
17.0
 40
18.0
 40
19.0
 40
20.0
 40
21.0
 40
22.0
 40
22.0
 40
22.0
 40
22.0
 10
-0.6575218658528463
 20
44.20089625513796
 30
0.0
 10
-0.6552099771064586
 20
44.11307976606624
 30
0.0
 10
-0.6505827498135145
 20
43.93744799379056
 30
0.0
 10
-0.6436558668118328
 20
43.67399483494254
 30
0.0
 10
-0.6366862993360523
 20
43.41056030724502
 30
0.0
 10
-0.6298762937325688
 20
43.14705642987025
 30
0.0
 10
-0.6224735154695631
 20
42.88381134891733
 30
0.0
 10
-0.6172850622578103
 20
42.61960071983518
 30
0.0
 10
-0.6035515752900442
 20
42.35900094969181
 30
0.0
 10
-0.6106944820175743
 20
42.0852707984331
 30
0.0
 10
-0.4549060740849286
 20
41.86709574258993
 30
0.0
 10
-0.2659768530787169
 20
41.67842258170546
 30
0.0
 10
0.0000000129887835
 20
41.61467405311208
 30
0.0
 10
0.2659768011235827
 20
41.67842256308593
 30
0.0
 10
0.4549060476263116
 20
41.86709570622119
 30
0.0
 10
0.6106944822073075
 20
42.08527077354339
 30
0.0
 10
0.6035515744322786
 20
42.3590009546676
 30
0.0
 10
0.6172850576634457
 20
42.61960054511855
 30
0.0
 10
0.6224735178311038
 20
42.88381143867956
 30
0.0
 10
0.6298762933103136
 20
43.14705641381634
 30
0.0
 10
0.6366863000301922
 20
43.41056033361433
 30
0.0
 10
0.6436558649192525
 20
43.67399476305775
 30
0.0
 10
0.6505827516195797
 20
43.9374480623854
 30
0.0
 10
0.6552099757824915
 20
44.11307971578363
 30
0.0
 10
0.6575218658528463
 20
44.20089625513796
 30
0.0
  0
LINE
  5
61
330
1F
100
AcDbEntity
  8
Default
100
AcDbLine
 10
6.872048741691604
 20
66.80464421196677
 30
0.0
 11
6.872048741691604
 21
68.0024752040667
 31
0.0
  0
LINE
  5
62
330
1F
100
AcDbEntity
  8
Default
100
AcDbLine
 10
7.372048741691604
 20
68.0962251744127
 30
0.0
 11
7.372048741691604
 21
66.42893124563551
 31
0.0
  0
LINE
  5
63
330
1F
100
AcDbEntity
  8
Default
100
AcDbLine
 10
7.387673741691611
 20
68.1274752040667
 30
0.0
 11
7.387673741691611
 21
66.41477240657568
 31
0.0
  0
LINE
  5
64
330
1F
100
AcDbEntity
  8
Default
100
AcDbLine
 10
8.10642374169161
 20
66.19943535651333
 30
0.0
 11
8.10642374169161
 21
68.1274752040667
 31
0.0
  0
LINE
  5
65
330
1F
100
AcDbEntity
  8
Default
100
AcDbLine
 10
8.122048741691618
 20
66.17985638388555
 30
0.0
 11
8.122048741691618
 21
68.09622517441369
 31
0.0
  0
LINE
  5
66
330
1F
100
AcDbEntity
  8
Default
100
AcDbLine
 10
8.62204874169161
 20
68.0024752040667
 30
0.0
 11
8.62204874169161
 21
65.69247405220571
 31
0.0
  0
SPLINE
  5
67
330
1F
100
AcDbEntity
  8
Default
100
AcDbSpline
210
0.0
220
0.0
230
1.0
 70
     8
 71
     3
 72
    20
 73
    16
 74
     0
 42
0.0000000001
 43
0.0000000001
 40
0.0
 40
0.0
 40
0.0
 40
0.0
 40
1.0
 40
2.0
 40
3.0
 40
4.0
 40
5.0
 40
6.0
 40
7.0
 40
8.0
 40
9.0
 40
10.0
 40
11.0
 40
12.0
 40
13.0
 40
13.0
 40
13.0
 40
13.0
 10
8.151008216688712
 20
65.4635685222963
 30
0.0
 10
8.170835184620026
 20
65.49636750053637
 30
0.0
 10
8.210733059746167
 20
65.56179776902916
 30
0.0
 10
8.249360450513887
 20
65.67202221517874
 30
0.0
 10
8.23633877392691
 20
65.788087162223
 30
0.0
 10
8.233274451958705
 20
65.90271069346784
 30
0.0
 10
8.211664393334305
 20
66.01630197372275
 30
0.0
 10
8.165056110544919
 20
66.12218274952177
 30
0.0
 10
8.097524405586693
 20
66.21596770428022
 30
0.0
 10
8.011654550715999
 20
66.29341328125084
 30
0.0
 10
7.911184564598341
 20
66.35067148931864
 30
0.0
 10
7.800958321831998
 20
66.38536345701536
 30
0.0
 10
7.685753617691715
 20
66.3964015393046
 30
0.0
 10
7.571286171471594
 20
66.38115630000462
 30
0.0
 10
7.497691356328454
 20
66.35929246895729
 30
0.0
 10
7.460499124080882
 20
66.35011282921663
 30
0.0
  0
LINE
  5
68
330
1F
100
AcDbEntity
  8
Default
100
AcDbLine
 10
12.90999310527861
 20
51.49732755881536
 30
0.0
 11
12.90999310527861
 21
53.36044765933374
 31
0.0
  0
LINE
  5
69
330
1F
100
AcDbEntity
  8
Default
100
AcDbLine
 10
13.40999310527862
 20
53.26669881119467
 30
0.0
 11
13.40999310527861
 21
50.9566976593337
 31
0.0
  0
LINE
  5
6A
330
1F
100
AcDbEntity
  8
Default
100
AcDbLine
 10
12.15999310527861
 20
53.3604476296797
 30
0.0
 11
12.15999310527861
 21
51.9621054275661
 31
0.0
  0
LINE
  5
6B
330
1F
100
AcDbEntity
  8
Default
100
AcDbLine
 10
12.17561810527861
 20
53.39169765933369
 30
0.0
 11
12.17561810527861
 21
51.95656331215243
 31
0.0
  0
LINE
  5
6C
330
1F
100
AcDbEntity
  8
Default
100
AcDbLine
 10
12.89436810527861
 20
53.39169765933369
 30
0.0
 11
12.89436810527861
 21
51.52382254703264
 31
0.0
  0
SPLINE
  5
6D
330
1F
100
AcDbEntity
  8
Default
100
AcDbSpline
210
0.0
220
0.0
230
1.0
 70
    12
 71
     2
 72
     6
 73
     3
 74
     0
 42
0.0000000001
 43
0.0000000001
 40
0.0
 40
0.0
 40
0.0
 40
2.356320581900889
 40
2.356320581900889
 40
2.356320581900889
 10
9.462204419500107
 20
51.47341527440934
 30
0.0
 41
1.0
 10
10.59189834536903
 20
51.13897050307429
 30
0.0
 41
0.9999999999704112
 10
11.72200070077844
 20
50.804385892126
 30
0.0
 41
1.0
  0
SPLINE
  5
6E
330
1F
100
AcDbEntity
  8
Default
100
AcDbSpline
210
0.0
220
0.0
230
1.0
 70
     8
 71
     3
 72
    12
 73
     8
 74
     0
 42
0.0000000001
 43
0.0000000001
 40
0.0
 40
0.0
 40
0.0
 40
0.0
 40
0.2277238427788097
 40
0.3807872263969767
 40
0.574644344777862
 40
0.690553147307176
 40
0.7737724427288758
 40
0.7737724427288758
 40
0.7737724427288758
 40
0.7737724427288758
 10
11.72200070077844
 20
50.804385892126
 30
0.0
 10
11.79525218814651
 20
50.78265536577666
 30
0.0
 10
11.91681297852708
 20
50.74677166139865
 30
0.0
 10
12.10115252889215
 20
50.69377852510375
 30
0.0
 10
12.24998667669703
 20
50.65440500445445
 30
0.0
 10
12.37979523689576
 20
50.63160085526869
 30
0.0
 10
12.44647877732607
 20
50.64086323749952
 30
0.0
 10
12.47250628947138
 20
50.65083931007972
 30
0.0
  0
SPLINE
  5
6F
330
1F
100
AcDbEntity
  8
Default
100
AcDbSpline
210
0.0
220
0.0
230
1.0
 70
     8
 71
     3
 72
    20
 73
    16
 74
     0
 42
0.0000000001
 43
0.0000000001
 40
0.0
 40
0.0
 40
0.0
 40
0.0
 40
0.9999999979049098
 40
1.999999998874399
 40
2.999999999843889
 40
4.000000000813379
 40
5.000000001782869
 40
6.000000002752358
 40
7.000000003721847
 40
8.000000004691337
 40
9.000000005660828
 40
10.00000000663032
 40
11.00000000759981
 40
12.0000000085693
 40
13.0
 40
13.0
 40
13.0
 40
13.0
 10
12.47250628947138
 20
50.65083931007972
 30
0.0
 10
12.50453702590257
 20
50.66189493809129
 30
0.0
 10
12.56766010380455
 20
50.68653931237836
 30
0.0
 10
12.66289389608361
 20
50.72241120743207
 30
0.0
 10
12.75289381957609
 20
50.77045580257839
 30
0.0
 10
12.83147153615445
 20
50.83583308202233
 30
0.0
 10
12.89664547855046
 20
50.91440076359761
 30
0.0
 10
12.94594860978187
 20
51.00386072224706
 30
0.0
 10
12.9775071249126
 20
51.1009796612491
 30
0.0
 10
12.99020751187069
 20
51.20233561450576
 30
0.0
 10
12.98364809493482
 20
51.30419987448106
 30
0.0
 10
12.95853881843701
 20
51.40330153148226
 30
0.0
 10
12.91380713287346
 20
51.49497302943428
 30
0.0
 10
12.8583942397846
 20
51.58031142973535
 30
0.0
 10
12.821315665235
 20
51.63703344961235
 30
0.0
 10
12.80198113540246
 20
51.66485983441957
 30
0.0
  0
SPLINE
  5
70
330
1F
100
AcDbEntity
  8
Default
100
AcDbSpline
210
0.0
220
0.0
230
1.0
 70
     8
 71
     3
 72
    12
 73
     8
 74
     0
 42
0.0000000001
 43
0.0000000001
 40
0.0
 40
0.0
 40
0.0
 40
0.0
 40
0.0430809044223024
 40
0.0833702823884406
 40
0.1987076479139627
 40
0.392327853781393
 40
0.7738094630589032
 40
0.7738094630589032
 40
0.7738094630589032
 40
0.7738094630589032
 10
12.80198113540246
 20
51.66485983441957
 30
0.0
 10
12.79353930463703
 20
51.67641054254568
 30
0.0
 10
12.77660249971678
 20
51.69868963563245
 30
0.0
 10
12.72516052484621
 20
51.74101070483938
 30
0.0
 10
12.62031019820519
 20
51.7927537796877
 30
0.0
 10
12.40569981861905
 20
51.87546190677446
 30
0.0
 10
12.224703879857
 20
51.93910643923098
 30
0.0
 10
12.10405837908335
 20
51.98195049293217
 30
0.0
  0
SPLINE
  5
71
330
1F
100
AcDbEntity
  8
Default
100
AcDbSpline
210
0.0
220
0.0
230
1.0
 70
    12
 71
     2
 72
     6
 73
     3
 74
     0
 42
0.0000000001
 43
0.0000000001
 40
0.0
 40
0.0
 40
0.0
 40
2.846688206662964
 40
2.846688206662964
 40
2.846688206662964
 10
12.10405837908335
 20
51.98195049293217
 30
0.0
 41
1.0
 10
10.76154973266139
 20
52.45756310794147
 30
0.0
 41
0.999999999957658
 10
9.419919869116551
 20
52.93289220012706
 30
0.0
 41
1.0
  0
SPLINE
  5
72
330
1F
100
AcDbEntity
  8
Default
100
AcDbSpline
210
0.0
220
0.0
230
1.0
 70
    12
 71
     2
 72
     6
 73
     3
 74
     0
 42
0.0000000001
 43
0.0000000001
 40
0.0
 40
0.0
 40
0.0
 40
0.1963473754739972
 40
0.1963473754739972
 40
0.1963473754739972
 10
13.4099931052733
 20
53.26669881119467
 30
0.0
 41
1.0
 10
13.40998959206179
 20
53.3916952979508
 30
0.0
 41
0.7071233973204936
 10
13.28499310527861
 20
53.39169765933369
 30
0.0
 41
1.0
  0
SPLINE
  5
73
330
1F
100
AcDbEntity
  8
Default
100
AcDbSpline
210
0.0
220
0.0
230
1.0
 70
    12
 71
     2
 72
     6
 73
     3
 74
     0
 42
0.0000000001
 43
0.0000000001
 40
0.0
 40
0.0
 40
0.0
 40
0.1963481793390366
 40
0.1963481793390366
 40
0.1963481793390366
 10
13.28499310527861
 20
50.8316976593337
 30
0.0
 41
1.0
 10
13.40999146496505
 20
50.83169814779609
 30
0.0
 41
0.7071128023125598
 10
13.40999310527331
 20
50.95669650747272
 30
0.0
 41
1.0
  0
SPLINE
  5
74
330
1F
100
AcDbEntity
  8
Default
100
AcDbSpline
210
0.0
220
0.0
230
1.0
 70
    24
 71
     2
 72
     6
 73
     3
 74
     0
 42
0.0000000001
 43
0.0000000001
 40
0.0
 40
0.0
 40
0.0
 40
0.34375
 40
0.34375
 40
0.34375
 10
12.94124310527861
 20
50.8316976593337
 30
0.0
 10
13.11311810527861
 20
50.8316976593337
 30
0.0
 10
13.28499310527861
 20
50.8316976593337
 30
0.0
  0
SPLINE
  5
75
330
1F
100
AcDbEntity
  8
Default
100
AcDbSpline
210
0.0
220
0.0
230
1.0
 70
    12
 71
     2
 72
     6
 73
     3
 74
     0
 42
0.0000000001
 43
0.0000000001
 40
0.0
 40
0.0
 40
0.0
 40
0.1963481793390292
 40
0.1963481793390292
 40
0.1963481793390292
 10
-6.997048741691611
 20
68.1274752040667
 30
0.0
 41
1.0
 10
-6.872050382005176
 20
68.12747471560431
 30
0.0
 41
0.7071128023125809
 10
-6.872048741696916
 20
68.00247635592768
 30
0.0
 41
1.0
  0
SPLINE
  5
76
330
1F
100
AcDbEntity
  8
Default
100
AcDbSpline
210
0.0
220
0.0
230
1.0
 70
    12
 71
     2
 72
     8
 73
     5
 74
     0
 42
0.0000000001
 43
0.0000000001
 40
0.0
 40
0.0
 40
0.0
 40
0.024544583575317
 40
0.024544583575317
 40
0.049089167150634
 40
0.049089167150634
 40
0.049089167150634
 10
-7.372048741691611
 20
68.09622520406668
 30
0.0
 41
1.0
 10
-7.37205046130003
 20
68.10917009010906
 30
0.0
 41
0.923854112495817
 10
-7.362897044517012
 20
68.11832350689208
 30
0.0
 41
1.0
 10
-7.353743627733996
 20
68.1274769236751
 30
0.0
 41
0.923854112495817
 10
-7.340798741691611
 20
68.1274752040667
 30
0.0
 41
1.0
  0
SPLINE
  5
77
330
1F
100
AcDbEntity
  8
Default
100
AcDbSpline
210
0.0
220
0.0
230
1.0
 70
    12
 71
     2
 72
     6
 73
     3
 74
     0
 42
0.0000000001
 43
0.0000000001
 40
0.0
 40
0.0
 40
0.0
 40
0.1963473754739867
 40
0.1963473754739867
 40
0.1963473754739867
 10
-8.622048741686303
 20
68.00247635592768
 30
0.0
 41
1.0
 10
-8.62204522847479
 20
68.12747284268379
 30
0.0
 41
0.7071233973205383
 10
-8.49704874169161
 20
68.1274752040667
 30
0.0
 41
1.0
  0
SPLINE
  5
78
330
1F
100
AcDbEntity
  8
Default
100
AcDbSpline
210
0.0
220
0.0
230
1.0
 70
     8
 71
     3
 72
    20
 73
    16
 74
     0
 42
0.0000000001
 43
0.0000000001
 40
0.0
 40
0.0
 40
0.0
 40
0.0
 40
1.0
 40
2.0
 40
3.0
 40
4.0
 40
5.0
 40
6.0
 40
7.0
 40
8.0
 40
9.0
 40
10.0
 40
11.0
 40
12.0
 40
13.0
 40
13.0
 40
13.0
 40
13.0
 10
-8.151008216688712
 20
65.4635685222963
 30
0.0
 10
-8.170835184620026
 20
65.49636750053637
 30
0.0
 10
-8.210733059746167
 20
65.56179776902916
 30
0.0
 10
-8.249360450513887
 20
65.67202221517874
 30
0.0
 10
-8.23633877392691
 20
65.788087162223
 30
0.0
 10
-8.233274451958705
 20
65.90271069346784
 30
0.0
 10
-8.211664393334305
 20
66.01630197372275
 30
0.0
 10
-8.165056110544919
 20
66.12218274952177
 30
0.0
 10
-8.097524405586693
 20
66.21596770428022
 30
0.0
 10
-8.011654550715999
 20
66.29341328125084
 30
0.0
 10
-7.911184564598341
 20
66.35067148931864
 30
0.0
 10
-7.800958321831998
 20
66.38536345701536
 30
0.0
 10
-7.685753617691715
 20
66.3964015393046
 30
0.0
 10
-7.571286171471594
 20
66.38115630000462
 30
0.0
 10
-7.497691356328454
 20
66.35929246895729
 30
0.0
 10
-7.460499124080882
 20
66.35011282921663
 30
0.0
  0
LINE
  5
79
330
1F
100
AcDbEntity
  8
Default
100
AcDbLine
 10
-13.40999310527862
 20
53.26669881119467
 30
0.0
 11
-13.40999310527861
 21
50.9566976593337
 31
0.0
  0
LINE
  5
7A
330
1F
100
AcDbEntity
  8
Default
100
AcDbLine
 10
-12.17561810527861
 20
53.39169765933369
 30
0.0
 11
-12.17561810527861
 21
51.95656331215243
 31
0.0
  0
LINE
  5
7B
330
1F
100
AcDbEntity
  8
Default
100
AcDbLine
 10
-12.89436810527861
 20
53.39169765933369
 30
0.0
 11
-12.89436810527861
 21
51.52382254703264
 31
0.0
  0
SPLINE
  5
7C
330
1F
100
AcDbEntity
  8
Default
100
AcDbSpline
210
0.0
220
0.0
230
1.0
 70
    12
 71
     2
 72
     6
 73
     3
 74
     0
 42
0.0000000001
 43
0.0000000001
 40
0.0
 40
0.0
 40
0.0
 40
2.356320581900889
 40
2.356320581900889
 40
2.356320581900889
 10
-9.462204419500107
 20
51.47341527440934
 30
0.0
 41
1.0
 10
-10.59189834536903
 20
51.13897050307429
 30
0.0
 41
0.9999999999704112
 10
-11.72200070077844
 20
50.804385892126
 30
0.0
 41
1.0
  0
SPLINE
  5
7D
330
1F
100
AcDbEntity
  8
Default
100
AcDbSpline
210
0.0
220
0.0
230
1.0
 70
     8
 71
     3
 72
    12
 73
     8
 74
     0
 42
0.0000000001
 43
0.0000000001
 40
0.0
 40
0.0
 40
0.0
 40
0.0
 40
0.2277238427788097
 40
0.3807872263969767
 40
0.574644344777862
 40
0.690553147307176
 40
0.7737724427288758
 40
0.7737724427288758
 40
0.7737724427288758
 40
0.7737724427288758
 10
-11.72200070077844
 20
50.804385892126
 30
0.0
 10
-11.79525218814651
 20
50.78265536577666
 30
0.0
 10
-11.91681297852708
 20
50.74677166139865
 30
0.0
 10
-12.10115252889215
 20
50.69377852510375
 30
0.0
 10
-12.24998667669703
 20
50.65440500445445
 30
0.0
 10
-12.37979523689576
 20
50.63160085526869
 30
0.0
 10
-12.44647877732607
 20
50.64086323749952
 30
0.0
 10
-12.47250628947138
 20
50.65083931007972
 30
0.0
  0
SPLINE
  5
7E
330
1F
100
AcDbEntity
  8
Default
100
AcDbSpline
210
0.0
220
0.0
230
1.0
 70
     8
 71
     3
 72
    20
 73
    16
 74
     0
 42
0.0000000001
 43
0.0000000001
 40
0.0
 40
0.0
 40
0.0
 40
0.0
 40
0.9999999979049098
 40
1.999999998874399
 40
2.999999999843889
 40
4.000000000813379
 40
5.000000001782869
 40
6.000000002752358
 40
7.000000003721847
 40
8.000000004691337
 40
9.000000005660828
 40
10.00000000663032
 40
11.00000000759981
 40
12.0000000085693
 40
13.0
 40
13.0
 40
13.0
 40
13.0
 10
-12.47250628947138
 20
50.65083931007972
 30
0.0
 10
-12.50453702590257
 20
50.66189493809129
 30
0.0
 10
-12.56766010380455
 20
50.68653931237836
 30
0.0
 10
-12.66289389608361
 20
50.72241120743207
 30
0.0
 10
-12.75289381957609
 20
50.77045580257839
 30
0.0
 10
-12.83147153615445
 20
50.83583308202233
 30
0.0
 10
-12.89664547855046
 20
50.91440076359761
 30
0.0
 10
-12.94594860978187
 20
51.00386072224706
 30
0.0
 10
-12.9775071249126
 20
51.1009796612491
 30
0.0
 10
-12.99020751187069
 20
51.20233561450576
 30
0.0
 10
-12.98364809493482
 20
51.30419987448106
 30
0.0
 10
-12.95853881843701
 20
51.40330153148226
 30
0.0
 10
-12.91380713287346
 20
51.49497302943428
 30
0.0
 10
-12.8583942397846
 20
51.58031142973535
 30
0.0
 10
-12.821315665235
 20
51.63703344961235
 30
0.0
 10
-12.80198113540246
 20
51.66485983441957
 30
0.0
  0
SPLINE
  5
7F
330
1F
100
AcDbEntity
  8
Default
100
AcDbSpline
210
0.0
220
0.0
230
1.0
 70
     8
 71
     3
 72
    12
 73
     8
 74
     0
 42
0.0000000001
 43
0.0000000001
 40
0.0
 40
0.0
 40
0.0
 40
0.0
 40
0.0430809044223024
 40
0.0833702823884406
 40
0.1987076479139627
 40
0.392327853781393
 40
0.7738094630589032
 40
0.7738094630589032
 40
0.7738094630589032
 40
0.7738094630589032
 10
-12.80198113540246
 20
51.66485983441957
 30
0.0
 10
-12.79353930463703
 20
51.67641054254568
 30
0.0
 10
-12.77660249971678
 20
51.69868963563245
 30
0.0
 10
-12.72516052484621
 20
51.74101070483938
 30
0.0
 10
-12.62031019820519
 20
51.7927537796877
 30
0.0
 10
-12.40569981861905
 20
51.87546190677446
 30
0.0
 10
-12.224703879857
 20
51.93910643923098
 30
0.0
 10
-12.10405837908335
 20
51.98195049293217
 30
0.0
  0
SPLINE
  5
80
330
1F
100
AcDbEntity
  8
Default
100
AcDbSpline
210
0.0
220
0.0
230
1.0
 70
    12
 71
     2
 72
     6
 73
     3
 74
     0
 42
0.0000000001
 43
0.0000000001
 40
0.0
 40
0.0
 40
0.0
 40
2.846688206662964
 40
2.846688206662964
 40
2.846688206662964
 10
-12.10405837908335
 20
51.98195049293217
 30
0.0
 41
1.0
 10
-10.76154973266139
 20
52.45756310794147
 30
0.0
 41
0.999999999957658
 10
-9.419919869116551
 20
52.93289220012706
 30
0.0
 41
1.0
  0
LINE
  5
81
330
1F
100
AcDbEntity
  8
Default
100
AcDbLine
 10
-12.90999310527861
 20
51.49732755881536
 30
0.0
 11
-12.90999310527861
 21
53.36044765933374
 31
0.0
  0
LINE
  5
82
330
1F
100
AcDbEntity
  8
Default
100
AcDbLine
 10
-12.15999310527861
 20
53.3604476296797
 30
0.0
 11
-12.15999310527861
 21
51.9621054275661
 31
0.0
  0
SPLINE
  5
83
330
1F
100
AcDbEntity
  8
Default
100
AcDbSpline
210
0.0
220
0.0
230
1.0
 70
    12
 71
     3
 72
    10
 73
     6
 74
     0
 42
0.0000000001
 43
0.0000000001
 40
5.840617081523052
 40
5.840617081523052
 40
5.840617081523052
 40
5.840617081523052
 40
6.782380598752975
 40
6.782380598752975
 40
7.7161633322116
 40
7.7161633322116
 40
7.7161633322116
 40
7.7161633322116
 10
2.655382831483365
 20
62.00764174427216
 30
0.0
 41
1.0
 10
2.905896336601813
 20
61.98791761158381
 30
0.0
 41
1.0
 10
3.150143025992548
 20
61.96708046424807
 30
0.0
 41
1.0
 10
3.647377072036846
 20
61.91105282944859
 30
0.0
 41
1.0
 10
3.894092074186773
 20
61.87724894511977
 30
0.0
 41
1.0
 10
4.14025515963742
 20
61.83807856493099
 30
0.0
 41
1.0
  0
SPLINE
  5
84
330
1F
100
AcDbEntity
  8
Default
100
AcDbSpline
210
0.0
220
0.0
230
1.0
 70
     8
 71
     3
 72
    36
 73
    32
 74
     0
 42
0.0000000001
 43
0.0000000001
 40
-23.83475433039732
 40
-23.83475433039732
 40
-23.83475433039732
 40
-23.83475433039732
 40
-22.98200672795109
 40
-22.28453458113185
 40
-20.95409187325373
 40
-20.33449818087862
 40
-19.67087195866193
 40
-18.94050557296364
 40
-18.26840446478735
 40
-16.83243599640812
 40
-15.96925157373182
 40
-14.70995262980568
 40
-11.51296717130436
 40
-10.04469783440959
 40
-8.929842840700308
 40
-8.57491879166004
 40
-8.281353825240656
 40
-7.918382670296524
 40
-7.782263749687275
 40
-7.600787219376496
 40
-7.290780040416171
 40
-7.082115576556376
 40
-6.672766676210213
 40
-5.838734109645466
 40
-5.409708366711644
 40
-4.985216878559912
 40
-4.073751858443948
 40
-2.986984620547964
 40
-2.348733944583401
 40
-1.607764415090916
 40
0.0
 40
0.0
 40
0.0
 40
0.0
 10
4.14025515963742
 20
61.83807856493099
 30
0.0
 10
4.420815966773333
 20
61.79320730510254
 30
0.0
 10
4.929192085365614
 20
61.69586863576014
 30
0.0
 10
5.846582573405144
 20
61.40770235788681
 30
0.0
 10
6.631376767483872
 20
60.98621787010588
 30
0.0
 10
7.293563323205532
 20
60.41631460052516
 30
0.0
 10
7.735394825559638
 20
59.90834633278224
 30
0.0
 10
8.106134718200522
 20
59.3263637881957
 30
0.0
 10
8.505527024104566
 20
58.46571380238575
 30
0.0
 10
8.76185044178024
 20
57.50433031768049
 30
0.0
 10
8.920719700935763
 20
56.32851713026837
 30
0.0
 10
9.097908529051082
 20
54.56397641911845
 30
0.0
 10
9.202329456814113
 20
52.59104207225582
 30
0.0
 10
9.226564020473262
 20
50.66431407861702
 30
0.0
 10
9.202366721428945
 20
49.68499631741554
 30
0.0
 10
9.159622988876066
 20
49.09863421906386
 30
0.0
 10
9.127484485382737
 20
48.7630332831066
 30
0.0
 10
9.095602578276228
 20
48.50065952418853
 30
0.0
 10
9.064133082890365
 20
48.27608084512917
 30
0.0
 10
9.032518065362808
 20
48.06911571423672
 30
0.0
 10
8.993699630413374
 20
47.83919689918061
 30
0.0
 10
8.931690951665914
 20
47.53576311118725
 30
0.0
 10
8.792835185693988
 20
47.07165410691839
 30
0.0
 10
8.533479543959785
 20
46.57211121797077
 30
0.0
 10
8.174801646418445
 20
46.13733236556732
 30
0.0
 10
7.739227097636501
 20
45.73876769907997
 30
0.0
 10
7.040231116111215
 20
45.32354953590986
 30
0.0
 10
6.205905789690178
 20
45.03732130837022
 30
0.0
 10
5.405245961593863
 20
44.85067851784408
 30
0.0
 10
4.424281393583371
 20
44.6779369406227
 30
0.0
 10
3.644728159181057
 20
44.5979820652619
 30
0.0
 10
3.1101518201706
 20
44.56079187065373
 30
0.0
  0
SPLINE
  5
85
330
1F
100
AcDbEntity
  8
Default
100
AcDbSpline
210
0.0
220
0.0
230
1.0
 70
     8
 71
     3
 72
     8
 73
     4
 74
     0
 42
0.0000000001
 43
0.0000000001
 40
27.47610604272704
 40
27.47610604272704
 40
27.47610604272704
 40
27.47610604272704
 40
31.06643827780845
 40
31.06643827780845
 40
31.06643827780845
 40
31.06643827780845
 10
3.1101518201706
 20
44.56079187065373
 30
0.0
 10
2.098371550774729
 20
44.48960393815609
 30
0.0
 10
1.083151783724972
 20
44.47552419123483
 30
0.0
 10
0.0685040326782058
 20
44.47484812481196
 30
0.0
  0
LINE
  5
86
330
1F
100
AcDbEntity
  8
Default
100
AcDbLine
 10
0.0685040326782058
 20
44.47484812481196
 30
0.0
 11
0.0001254602813532
 21
44.47480256268515
 31
0.0
  0
LINE
  5
87
330
1F
100
AcDbEntity
  8
Default
100
AcDbLine
 10
0.0001254602813532
 20
44.47480256268515
 30
0.0
 11
-0.0682531121154994
 21
44.47484812481196
 31
0.0
  0
SPLINE
  5
88
330
1F
100
AcDbEntity
  8
Default
100
AcDbSpline
210
0.0
220
0.0
230
1.0
 70
     8
 71
     3
 72
     8
 73
     4
 74
     0
 42
0.0000000001
 43
0.0000000001
 40
-31.06643827780845
 40
-31.06643827780845
 40
-31.06643827780845
 40
-31.06643827780845
 40
-27.47610604272704
 40
-27.47610604272704
 40
-27.47610604272704
 40
-27.47610604272704
 10
-0.0682531121154994
 20
44.47484812481196
 30
0.0
 10
-1.082900863162266
 20
44.47552419123483
 30
0.0
 10
-2.098120630212023
 20
44.48960393815609
 30
0.0
 10
-3.109900899607894
 20
44.56079187065373
 30
0.0
  0
SPLINE
  5
89
330
1F
100
AcDbEntity
  8
Default
100
AcDbSpline
210
0.0
220
0.0
230
1.0
 70
     8
 71
     3
 72
    36
 73
    32
 74
     0
 42
0.0000000001
 43
0.0000000001
 40
0.0
 40
0.0
 40
0.0
 40
0.0
 40
1.607764415090916
 40
2.348733944583401
 40
2.986984620547964
 40
4.073751858443948
 40
4.985216878559912
 40
5.409708366711644
 40
5.838734109645466
 40
6.672766676210213
 40
7.082115576556376
 40
7.290780040416171
 40
7.600787219376496
 40
7.782263749687275
 40
7.918382670296524
 40
8.281353825240656
 40
8.57491879166004
 40
8.929842840700308
 40
10.04469783440959
 40
11.51296717130436
 40
14.70995262980568
 40
15.96925157373182
 40
16.83243599640812
 40
18.26840446478735
 40
18.94050557296364
 40
19.67087195866193
 40
20.33449818087862
 40
20.95409187325373
 40
22.28453458113185
 40
22.98200672795109
 40
23.83475433039732
 40
23.83475433039732
 40
23.83475433039732
 40
23.83475433039732
 10
-3.109900899607894
 20
44.56079187065373
 30
0.0
 10
-3.64447723861835
 20
44.5979820652619
 30
0.0
 10
-4.424030473020665
 20
44.6779369406227
 30
0.0
 10
-5.404995041031157
 20
44.85067851784408
 30
0.0
 10
-6.205654869127471
 20
45.03732130837022
 30
0.0
 10
-7.039980195548509
 20
45.32354953590986
 30
0.0
 10
-7.738976177073795
 20
45.73876769907997
 30
0.0
 10
-8.174550725855738
 20
46.13733236556732
 30
0.0
 10
-8.533228623397079
 20
46.57211121797077
 30
0.0
 10
-8.792584265131282
 20
47.07165410691839
 30
0.0
 10
-8.931440031103207
 20
47.53576311118725
 30
0.0
 10
-8.993448709850668
 20
47.83919689918061
 30
0.0
 10
-9.032267144800102
 20
48.06911571423672
 30
0.0
 10
-9.063882162327658
 20
48.27608084512917
 30
0.0
 10
-9.095351657713522
 20
48.50065952418853
 30
0.0
 10
-9.127233564820031
 20
48.7630332831066
 30
0.0
 10
-9.15937206831336
 20
49.09863421906386
 30
0.0
 10
-9.202115800866238
 20
49.68499631741554
 30
0.0
 10
-9.226313099910556
 20
50.66431407861702
 30
0.0
 10
-9.202078536251406
 20
52.59104207225582
 30
0.0
 10
-9.097657608488376
 20
54.56397641911845
 30
0.0
 10
-8.920468780373056
 20
56.32851713026837
 30
0.0
 10
-8.761599521217533
 20
57.50433031768049
 30
0.0
 10
-8.50527610354186
 20
58.46571380238575
 30
0.0
 10
-8.105883797637816
 20
59.3263637881957
 30
0.0
 10
-7.735143904996931
 20
59.90834633278224
 30
0.0
 10
-7.293312402642826
 20
60.41631460052516
 30
0.0
 10
-6.631125846921165
 20
60.98621787010588
 30
0.0
 10
-5.846331652842437
 20
61.40770235788681
 30
0.0
 10
-4.928941164802907
 20
61.69586863576014
 30
0.0
 10
-4.420565046210626
 20
61.79320730510254
 30
0.0
 10
-4.140004239074713
 20
61.83807856493099
 30
0.0
  0
SPLINE
  5
8A
330
1F
100
AcDbEntity
  8
Default
100
AcDbSpline
210
0.0
220
0.0
230
1.0
 70
    12
 71
     3
 72
    10
 73
     6
 74
     0
 42
0.0000000001
 43
0.0000000001
 40
-7.7161633322116
 40
-7.7161633322116
 40
-7.7161633322116
 40
-7.7161633322116
 40
-6.782380598752975
 40
-6.782380598752975
 40
-5.840617081523052
 40
-5.840617081523052
 40
-5.840617081523052
 40
-5.840617081523052
 10
-4.140004239074713
 20
61.83807856493099
 30
0.0
 41
1.0
 10
-3.893841153624066
 20
61.87724894511977
 30
0.0
 41
1.0
 10
-3.64712615147414
 20
61.91105282944859
 30
0.0
 41
1.0
 10
-3.149892105429842
 20
61.96708046424807
 30
0.0
 41
1.0
 10
-2.905645416039107
 20
61.98791761158381
 30
0.0
 41
1.0
 10
-2.655131910920659
 20
62.00764174427216
 30
0.0
 41
1.0
  0
ARC
  5
8B
330
1F
100
AcDbEntity
  8
Default
100
AcDbCircle
 10
0.2959694775436645
 20
24.58403249177186
 30
0.0
 40
37.53978594623074
100
AcDbArc
 50
91.03976333536296
 51
94.50882425201762
  0
LINE
  5
8C
330
1F
100
AcDbEntity
  8
Default
100
AcDbLine
 10
-0.385238650176376
 20
62.11763722640333
 30
0.0
 11
0.0001254602813532
 21
62.1246313422299
 31
0.0
  0
LINE
  5
8D
330
1F
100
AcDbEntity
  8
Default
100
AcDbLine
 10
0.0001254602813532
 20
62.1246313422299
 30
0.0
 11
0.3854895707390824
 21
62.11763722640333
 31
0.0
  0
ARC
  5
8E
330
1F
100
AcDbEntity
  8
Default
100
AcDbCircle
 10
-0.2957185569807734
 20
24.58403249177684
 30
0.0
 40
37.53978594622574
100
AcDbArc
 50
85.49117574798193
 51
88.96023666463705
  0
SPLINE
  5
8F
330
1F
100
AcDbEntity
  8
Default
100
AcDbSpline
210
0.0
220
0.0
230
1.0
 70
     8
 71
     3
 72
    42
 73
    38
 74
     0
 42
0.0000000001
 43
0.0000000001
 40
0.0
 40
0.0
 40
0.0
 40
0.0
 40
1.541497374587808
 40
2.851384615401141
 40
4.939418693591196
 40
5.877612648694915
 40
6.677256588586643
 40
7.382340769121686
 40
8.021804470455628
 40
8.595760610397573
 40
9.13341851675078
 40
10.27310334035815
 40
10.55871548889437
 40
10.90105658608137
 40
11.39607483796483
 40
11.86920431584046
 40
12.77184938058234
 40
13.84928946295565
 40
15.56633459196268
 40
17.34098918640463
 40
19.02790418592421
 40
19.78360694278379
 40
20.33606925514989
 40
21.22343992901799
 40
22.03826866517793
 40
22.79487326645472
 40
23.53678803523399
 40
24.30756197318831
 40
25.07821381365109
 40
25.87076894409001
 40
26.70345791053316
 40
27.14381919304531
 40
27.65305253994346
 40
28.81759513768598
 40
30.33174389017705
 40
31.14691026504493
 40
31.87439353502379
 40
31.87439353502379
 40
31.87439353502379
 40
31.87439353502379
 10
0.0001254602813532
 20
44.18181236651606
 30
0.0
 10
0.5139525724902114
 20
44.18156068507307
 30
0.0
 10
1.464446389962191
 20
44.19087696567546
 30
0.0
 10
3.109976925621041
 20
44.24973520902551
 30
0.0
 10
4.550318769354448
 20
44.38968113027705
 30
0.0
 10
5.803253249335484
 20
44.63378014934487
 30
0.0
 10
6.58795699465874
 20
44.85373828402637
 30
0.0
 10
7.251174005940726
 20
45.12469500202756
 30
0.0
 10
7.806378556841992
 20
45.44508591599432
 30
0.0
 10
8.260106638720558
 20
45.81592545455349
 30
0.0
 10
8.75589563377389
 20
46.38255677626282
 30
0.0
 10
9.049563210379532
 20
46.97835909675161
 30
0.0
 10
9.201124933764603
 20
47.54758748287428
 30
0.0
 10
9.268235593300574
 20
47.91628227281071
 30
0.0
 10
9.33509424716786
 20
48.3477618025325
 30
0.0
 10
9.406527417278113
 20
48.96753165100384
 30
0.0
 10
9.4595168544366
 20
49.78381064878367
 30
0.0
 10
9.47441695455042
 20
51.0164235655523
 30
0.0
 10
9.443688902492866
 20
52.53925078792192
 30
0.0
 10
9.355777676926351
 20
54.26348798221625
 30
0.0
 10
9.237528776816191
 20
55.66446398064247
 30
0.0
 10
9.121663182204472
 20
56.65619147595547
 30
0.0
 10
9.015083132579875
 20
57.38034399740647
 30
0.0
 10
8.846027800883164
 20
58.11389122912493
 30
0.0
 10
8.572871102483859
 20
58.88805246622655
 30
0.0
 10
8.222924455638378
 20
59.57736188522508
 30
0.0
 10
7.787633061515507
 20
60.19839988458921
 30
0.0
 10
7.256795903380677
 20
60.74755440465304
 30
0.0
 10
6.62925503470963
 20
61.21173644085822
 30
0.0
 10
5.917935049422255
 20
61.57996765680898
 30
0.0
 10
5.265226571779763
 20
61.8045331538201
 30
0.0
 10
4.686901068378603
 20
61.94120416183095
 30
0.0
 10
3.993266370464823
 20
62.06747853330931
 30
0.0
 10
2.93728587451767
 20
62.19063575861662
 30
0.0
 10
1.775004205001991
 20
62.26805961670814
 30
0.0
 10
0.7567987730626271
 20
62.30739808971107
 30
0.0
 10
0.2426240648468792
 20
62.3168152673499
 30
0.0
 10
0.0001254602813532
 20
62.31703193784311
 30
0.0
  0
SPLINE
  5
90
330
1F
100
AcDbEntity
  8
Default
100
AcDbSpline
210
0.0
220
0.0
230
1.0
 70
     8
 71
     3
 72
    42
 73
    38
 74
     0
 42
0.0000000001
 43
0.0000000001
 40
-31.87439353502379
 40
-31.87439353502379
 40
-31.87439353502379
 40
-31.87439353502379
 40
-31.14691026504493
 40
-30.33174389017705
 40
-28.81759513768598
 40
-27.65305253994346
 40
-27.14381919304531
 40
-26.70345791053316
 40
-25.87076894409001
 40
-25.07821381365109
 40
-24.30756197318831
 40
-23.53678803523399
 40
-22.79487326645472
 40
-22.03826866517793
 40
-21.22343992901799
 40
-20.33606925514989
 40
-19.78360694278379
 40
-19.02790418592421
 40
-17.34098918640463
 40
-15.56633459196268
 40
-13.84928946295565
 40
-12.77184938058234
 40
-11.86920431584046
 40
-11.39607483796483
 40
-10.90105658608137
 40
-10.55871548889437
 40
-10.27310334035815
 40
-9.13341851675078
 40
-8.595760610397573
 40
-8.021804470455628
 40
-7.382340769121686
 40
-6.677256588586643
 40
-5.877612648694915
 40
-4.939418693591196
 40
-2.851384615401141
 40
-1.541497374587808
 40
0.0
 40
0.0
 40
0.0
 40
0.0
 10
0.0001254602813532
 20
62.31703193784311
 30
0.0
 10
-0.2423731442841728
 20
62.3168152673499
 30
0.0
 10
-0.7565478524999207
 20
62.30739808971107
 30
0.0
 10
-1.774753284439285
 20
62.26805961670814
 30
0.0
 10
-2.937034953954964
 20
62.19063575861662
 30
0.0
 10
-3.993015449902117
 20
62.06747853330931
 30
0.0
 10
-4.686650147815897
 20
61.94120416183095
 30
0.0
 10
-5.264975651217057
 20
61.8045331538201
 30
0.0
 10
-5.917684128859548
 20
61.57996765680898
 30
0.0
 10
-6.629004114146923
 20
61.21173644085822
 30
0.0
 10
-7.256544982817971
 20
60.74755440465304
 30
0.0
 10
-7.787382140952801
 20
60.19839988458921
 30
0.0
 10
-8.222673535075671
 20
59.57736188522508
 30
0.0
 10
-8.572620181921152
 20
58.88805246622655
 30
0.0
 10
-8.845776880320457
 20
58.11389122912493
 30
0.0
 10
-9.014832212017168
 20
57.38034399740647
 30
0.0
 10
-9.121412261641765
 20
56.65619147595547
 30
0.0
 10
-9.237277856253485
 20
55.66446398064247
 30
0.0
 10
-9.355526756363645
 20
54.26348798221625
 30
0.0
 10
-9.44343798193016
 20
52.53925078792192
 30
0.0
 10
-9.474166033987714
 20
51.0164235655523
 30
0.0
 10
-9.459265933873894
 20
49.78381064878367
 30
0.0
 10
-9.406276496715407
 20
48.96753165100384
 30
0.0
 10
-9.334843326605153
 20
48.3477618025325
 30
0.0
 10
-9.267984672737867
 20
47.91628227281071
 30
0.0
 10
-9.200874013201897
 20
47.54758748287428
 30
0.0
 10
-9.049312289816825
 20
46.97835909675161
 30
0.0
 10
-8.755644713211183
 20
46.38255677626282
 30
0.0
 10
-8.259855718157851
 20
45.81592545455349
 30
0.0
 10
-7.806127636279285
 20
45.44508591599432
 30
0.0
 10
-7.25092308537802
 20
45.12469500202756
 30
0.0
 10
-6.587706074096033
 20
44.85373828402637
 30
0.0
 10
-5.803002328772777
 20
44.63378014934487
 30
0.0
 10
-4.550067848791741
 20
44.38968113027705
 30
0.0
 10
-3.109726005058334
 20
44.24973520902551
 30
0.0
 10
-1.464195469399485
 20
44.19087696567546
 30
0.0
 10
-0.513701651927505
 20
44.18156068507307
 30
0.0
 10
0.0001254602813532
 20
44.18181236651606
 30
0.0
  0
SPLINE
  5
91
330
1F
100
AcDbEntity
  8
Default
100
AcDbSpline
210
0.0
220
0.0
230
1.0
 70
     8
 71
     3
 72
    23
 73
    19
 74
     0
 42
0.0000000001
 43
0.0000000001
 40
-12.11765493802799
 40
-12.11765493802799
 40
-12.11765493802799
 40
-12.11765493802799
 40
-9.959346312934244
 40
-8.860195888103046
 40
-7.798380653698081
 40
-6.272702611381541
 40
-5.611004823335814
 40
-4.992826723597618
 40
-4.405605207943766
 40
-4.145663581386537
 40
-3.850853675673826
 40
-3.242169926739764
 40
-2.636382543990066
 40
-1.954704949636548
 40
-1.268575205064484
 40
-0.521329265525629
 40
-0.2238709213952738
 40
0.0
 40
0.0
 40
0.0
 40
0.0
 10
0.0001254602813532
 20
68.13741192005081
 30
0.0
 10
-0.7193059149312688
 20
68.13737690581208
 30
0.0
 10
-1.805140393790651
 20
68.08618912673319
 30
0.0
 10
-3.235326932846363
 20
67.91549847536386
 30
0.0
 10
-4.447752521757451
 20
67.71708083360873
 30
0.0
 10
-5.502673505409376
 20
67.45823331000368
 30
0.0
 10
-6.367915837755731
 20
67.09806779698611
 30
0.0
 10
-6.912453538190519
 20
66.79485072881897
 30
0.0
 10
-7.304614376181547
 20
66.50099788710882
 30
0.0
 10
-7.576258031948029
 20
66.23355490273899
 30
0.0
 10
-7.829923890024688
 20
65.94051058188634
 30
0.0
 10
-8.126226255653336
 20
65.53163877525407
 30
0.0
 10
-8.410709884612444
 20
64.96563005429944
 30
0.0
 10
-8.627972907175305
 20
64.34316816895073
 30
0.0
 10
-8.77417942199176
 20
63.65203531083502
 30
0.0
 10
-8.822582905640516
 20
63.07609670141399
 30
0.0
 10
-8.818326928267652
 20
62.65280421210606
 30
0.0
 10
-8.792752336792788
 20
62.48035876300608
 30
0.0
 10
-8.773061961325055
 20
62.40827617085215
 30
0.0
  0
SPLINE
  5
92
330
1F
100
AcDbEntity
  8
Default
100
AcDbSpline
210
0.0
220
0.0
230
1.0
 70
    12
 71
     2
 72
     6
 73
     3
 74
     0
 42
0.0000000001
 43
0.0000000001
 40
-1.07391244906266
 40
-1.07391244906266
 40
-1.07391244906266
 40
0.0
 40
0.0
 40
0.0
 10
-8.773061961325055
 20
62.40827617085215
 30
0.0
 41
1.0
 10
-8.556392712368663
 20
61.81158783399863
 30
0.0
 41
0.9980945187465091
 10
-8.30841861095756
 20
61.33376002077038
 30
0.0
 41
1.0
  0
SPLINE
  5
93
330
1F
100
AcDbEntity
  8
Default
100
AcDbSpline
210
0.0
220
0.0
230
1.0
 70
     8
 71
     3
 72
    21
 73
    17
 74
     0
 42
0.0000000001
 43
0.0000000001
 40
-8.572929914728228
 40
-8.572929914728228
 40
-8.572929914728228
 40
-8.572929914728228
 40
-8.415726605621757
 40
-8.269320540832858
 40
-8.0958160748408
 40
-7.888587830494002
 40
-7.642176893345443
 40
-7.340565610368325
 40
-7.044026917533134
 40
-6.027746982053883
 40
-5.404733600712757
 40
-4.206162410790602
 40
-3.447312224111049
 40
-2.464651665222287
 40
-1.120545043659075
 40
0.0
 40
0.0
 40
0.0
 40
0.0
 10
-8.30841861095756
 20
61.33376002077038
 30
0.0
 10
-8.284372608703094
 20
61.28694011067663
 30
0.0
 10
-8.228509637398062
 20
61.19938727494242
 30
0.0
 10
-8.09004490620822
 20
61.11448312835164
 30
0.0
 10
-7.915376242785939
 20
61.08153886427881
 30
0.0
 10
-7.705801186497951
 20
61.09320779067008
 30
0.0
 10
-7.45930073736578
 20
61.14610103536756
 30
0.0
 10
-7.189287112360233
 20
61.22641768586929
 30
0.0
 10
-6.681980702081901
 20
61.40587671089617
 30
0.0
 10
-6.079220076949056
 20
61.63679499292952
 30
0.0
 10
-5.180125629251251
 20
61.93145566482866
 30
0.0
 10
-4.340916567761283
 20
62.1278769772719
 30
0.0
 10
-3.368251510679499
 20
62.25252625036481
 30
0.0
 10
-2.342177292635583
 20
62.32554738608439
 30
0.0
 10
-1.19483941128081
 20
62.39003677750431
 30
0.0
 10
-0.3733943260734236
 20
62.41034203352259
 30
0.0
 10
0.0001254602813532
 20
62.41085340358672
 30
0.0
  0
SPLINE
  5
94
330
1F
100
AcDbEntity
  8
Default
100
AcDbSpline
210
0.0
220
0.0
230
1.0
 70
     8
 71
     3
 72
    21
 73
    17
 74
     0
 42
0.0000000001
 43
0.0000000001
 40
0.0
 40
0.0
 40
0.0
 40
0.0
 40
1.120545043659075
 40
2.464651665222287
 40
3.447312224111049
 40
4.206162410790602
 40
5.404733600712757
 40
6.027746982053883
 40
7.044026917533134
 40
7.340565610368325
 40
7.642176893345443
 40
7.888587830494002
 40
8.0958160748408
 40
8.269320540832858
 40
8.415726605621757
 40
8.572929914728228
 40
8.572929914728228
 40
8.572929914728228
 40
8.572929914728228
 10
0.0001254602813532
 20
62.41085340358672
 30
0.0
 10
0.37364524663613
 20
62.41034203352259
 30
0.0
 10
1.195090331843517
 20
62.39003677750431
 30
0.0
 10
2.342428213198289
 20
62.32554738608439
 30
0.0
 10
3.368502431242206
 20
62.25252625036481
 30
0.0
 10
4.34116748832399
 20
62.1278769772719
 30
0.0
 10
5.180376549813957
 20
61.93145566482866
 30
0.0
 10
6.079470997511763
 20
61.63679499292952
 30
0.0
 10
6.682231622644608
 20
61.40587671089617
 30
0.0
 10
7.18953803292294
 20
61.22641768586929
 30
0.0
 10
7.459551657928486
 20
61.14610103536756
 30
0.0
 10
7.706052107060657
 20
61.09320779067008
 30
0.0
 10
7.915627163348645
 20
61.08153886427881
 30
0.0
 10
8.090295826770927
 20
61.11448312835164
 30
0.0
 10
8.228760557960769
 20
61.19938727494242
 30
0.0
 10
8.2846235292658
 20
61.28694011067663
 30
0.0
 10
8.308669531520266
 20
61.33376002077038
 30
0.0
  0
SPLINE
  5
95
330
1F
100
AcDbEntity
  8
Default
100
AcDbSpline
210
0.0
220
0.0
230
1.0
 70
    12
 71
     2
 72
     6
 73
     3
 74
     0
 42
0.0000000001
 43
0.0000000001
 40
0.0
 40
0.0
 40
0.0
 40
1.07391244906266
 40
1.07391244906266
 40
1.07391244906266
 10
8.308669531520266
 20
61.33376002077038
 30
0.0
 41
1.0
 10
8.556643632931367
 20
61.81158783399863
 30
0.0
 41
0.9980945187465091
 10
8.773312881887762
 20
62.40827617085215
 30
0.0
 41
1.0
  0
SPLINE
  5
96
330
1F
100
AcDbEntity
  8
Default
100
AcDbSpline
210
0.0
220
0.0
230
1.0
 70
     8
 71
     3
 72
    23
 73
    19
 74
     0
 42
0.0000000001
 43
0.0000000001
 40
0.0
 40
0.0
 40
0.0
 40
0.0
 40
0.2238709213952738
 40
0.521329265525629
 40
1.268575205064484
 40
1.954704949636548
 40
2.636382543990066
 40
3.242169926739764
 40
3.850853675673826
 40
4.145663581386537
 40
4.405605207943766
 40
4.992826723597618
 40
5.611004823335814
 40
6.272702611381541
 40
7.798380653698081
 40
8.860195888103046
 40
9.959346312934244
 40
12.11765493802799
 40
12.11765493802799
 40
12.11765493802799
 40
12.11765493802799
 10
8.773312881887762
 20
62.40827617085215
 30
0.0
 10
8.793003257355494
 20
62.48035876300608
 30
0.0
 10
8.818577848830358
 20
62.65280421210606
 30
0.0
 10
8.822833826203222
 20
63.07609670141399
 30
0.0
 10
8.774430342554467
 20
63.65203531083502
 30
0.0
 10
8.628223827738012
 20
64.34316816895073
 30
0.0
 10
8.41096080517515
 20
64.96563005429944
 30
0.0
 10
8.126477176216042
 20
65.53163877525407
 30
0.0
 10
7.830174810587394
 20
65.94051058188634
 30
0.0
 10
7.576508952510736
 20
66.23355490273899
 30
0.0
 10
7.304865296744254
 20
66.50099788710882
 30
0.0
 10
6.912704458753225
 20
66.79485072881897
 30
0.0
 10
6.368166758318438
 20
67.09806779698611
 30
0.0
 10
5.502924425972083
 20
67.45823331000368
 30
0.0
 10
4.448003442320157
 20
67.71708083360873
 30
0.0
 10
3.235577853409069
 20
67.91549847536386
 30
0.0
 10
1.805391314353358
 20
68.08618912673319
 30
0.0
 10
0.7195568354939752
 20
68.13737690581208
 30
0.0
 10
0.0001254602813532
 20
68.13741192005081
 30
0.0
  0
SPLINE
  5
97
330
1F
100
AcDbEntity
  8
Default
100
AcDbSpline
210
0.0
220
0.0
230
1.0
 70
    12
 71
     2
 72
     6
 73
     3
 74
     0
 42
0.0000000001
 43
0.0000000001
 40
0.0
 40
0.0
 40
0.0
 40
0.1963473754739972
 40
0.1963473754739972
 40
0.1963473754739972
 10
-13.4099931052733
 20
53.26669881119467
 30
0.0
 41
1.0
 10
-13.40998959206179
 20
53.3916952979508
 30
0.0
 41
0.7071233973204936
 10
-13.28499310527861
 20
53.39169765933369
 30
0.0
 41
1.0
  0
SPLINE
  5
98
330
1F
100
AcDbEntity
  8
Default
100
AcDbSpline
210
0.0
220
0.0
230
1.0
 70
    24
 71
     2
 72
     6
 73
     3
 74
     0
 42
0.0000000001
 43
0.0000000001
 40
0.0
 40
0.0
 40
0.0
 40
0.078238455356054
 40
0.078238455356054
 40
0.078238455356054
 10
12.90999310527861
 20
50.86294768898669
 30
0.0
 10
12.90999310527861
 20
50.90206691666472
 30
0.0
 10
12.90999310527861
 20
50.94118614434275
 30
0.0
  0
SPLINE
  5
99
330
1F
100
AcDbEntity
  8
Default
100
AcDbSpline
210
0.0
220
0.0
230
1.0
 70
    24
 71
     2
 72
     6
 73
     3
 74
     0
 42
0.0000000001
 43
0.0000000001
 40
0.0
 40
0.0
 40
0.0
 40
1.127426796760748
 40
1.127426796760748
 40
1.127426796760748
 10
11.65999310527861
 20
52.13927086257295
 30
0.0
 10
11.65999310527861
 20
52.70298426095332
 30
0.0
 10
11.65999310527861
 20
53.26669765933369
 30
0.0
  0
SPLINE
  5
9A
330
1F
100
AcDbEntity
  8
Default
100
AcDbSpline
210
0.0
220
0.0
230
1.0
 70
    24
 71
     2
 72
     6
 73
     3
 74
     0
 42
0.0000000001
 43
0.0000000001
 40
0.0
 40
0.0
 40
0.0
 40
0.71875
 40
0.71875
 40
0.71875
 10
8.10642374169161
 20
68.1274752040667
 30
0.0
 10
7.747048741691611
 20
68.1274752040667
 30
0.0
 10
7.387673741691611
 20
68.1274752040667
 30
0.0
  0
SPLINE
  5
9B
330
1F
100
AcDbEntity
  8
Default
100
AcDbSpline
210
0.0
220
0.0
230
1.0
 70
    24
 71
     2
 72
     6
 73
     3
 74
     0
 42
0.0000000001
 43
0.0000000001
 40
0.0
 40
0.0
 40
0.0
 40
0.71875
 40
0.71875
 40
0.71875
 10
12.89436810527861
 20
53.39169765933369
 30
0.0
 10
12.53499310527861
 20
53.39169765933369
 30
0.0
 10
12.17561810527861
 20
53.39169765933369
 30
0.0
  0
LINE
  5
9C
330
1F
100
AcDbEntity
  8
Default
100
AcDbLine
 10
-6.872048741691604
 20
66.80464421196677
 30
0.0
 11
-6.872048741691604
 21
68.0024752040667
 31
0.0
  0
LINE
  5
9D
330
1F
100
AcDbEntity
  8
Default
100
AcDbLine
 10
-7.372048741691604
 20
68.0962251744127
 30
0.0
 11
-7.372048741691604
 21
66.42893124563551
 31
0.0
  0
LINE
  5
9E
330
1F
100
AcDbEntity
  8
Default
100
AcDbLine
 10
-7.387673741691611
 20
68.1274752040667
 30
0.0
 11
-7.387673741691611
 21
66.41477240657568
 31
0.0
  0
LINE
  5
9F
330
1F
100
AcDbEntity
  8
Default
100
AcDbLine
 10
-8.10642374169161
 20
66.19943535651333
 30
0.0
 11
-8.10642374169161
 21
68.1274752040667
 31
0.0
  0
LINE
  5
A0
330
1F
100
AcDbEntity
  8
Default
100
AcDbLine
 10
-8.122048741691618
 20
66.17985638388555
 30
0.0
 11
-8.122048741691618
 21
68.09622517441369
 31
0.0
  0
LINE
  5
A1
330
1F
100
AcDbEntity
  8
Default
100
AcDbLine
 10
-8.62204874169161
 20
68.0024752040667
 30
0.0
 11
-8.62204874169161
 21
65.69247405220571
 31
0.0
  0
SPLINE
  5
A2
330
1F
100
AcDbEntity
  8
Default
100
AcDbSpline
210
0.0
220
0.0
230
1.0
 70
     8
 71
     3
 72
    29
 73
    25
 74
     0
 42
0.0000000001
 43
0.0000000001
 40
0.0
 40
0.0
 40
0.0
 40
0.0
 40
0.0988422393250357
 40
0.1942210121717855
 40
0.4382617758584238
 40
0.5893346744175345
 40
0.7697521439540331
 40
1.116426481293132
 40
1.792982890921901
 40
2.463154345427246
 40
3.032167325833857
 40
3.652042690128299
 40
4.213991072924498
 40
4.491209792613959
 40
4.830881114654314
 40
5.115183906264332
 40
5.428239998287118
 40
5.730782641826128
 40
6.098772718345308
 40
7.516939192782874
 40
7.999503083483516
 40
8.534954238045774
 40
9.609884778501197
 40
11.77076998503533
 40
11.77076998503533
 40
11.77076998503533
 40
11.77076998503533
 10
8.309088642546342
 20
61.33433339641122
 30
0.0
 10
8.323955305162187
 20
61.36373105652085
 30
0.0
 10
8.350984855180371
 20
61.42263803022892
 30
0.0
 10
8.398652789136833
 20
61.56094188689094
 30
0.0
 10
8.429317084705815
 20
61.72213484712142
 30
0.0
 10
8.446956253090278
 20
61.91312258157357
 30
0.0
 10
8.457823599391531
 20
62.13901454758091
 30
0.0
 10
8.452485979120283
 20
62.54049370904644
 30
0.0
 10
8.38131423781087
 20
63.10194119034769
 30
0.0
 10
8.208448416693145
 20
63.71877900431958
 30
0.0
 10
7.943777147270438
 20
64.28152561800789
 30
0.0
 10
7.607847997982319
 20
64.7611259352722
 30
0.0
 10
7.278033466407535
 20
65.11976538626682
 30
0.0
 10
6.97498075578649
 20
65.37123043065498
 30
0.0
 10
6.732450557428322
 20
65.5481114846483
 30
0.0
 10
6.467802720057819
 20
65.71480398222278
 30
0.0
 10
6.205502781214832
 20
65.86016980637467
 30
0.0
 10
5.910504974929125
 20
66.00360634057039
 30
0.0
 10
5.26855650918597
 20
66.27477916966663
 30
0.0
 10
4.53424458155456
 20
66.46802980368325
 30
0.0
 10
3.736207134724665
 20
66.61511424818846
 30
0.0
 10
3.047046913596091
 20
66.72530396520037
 30
0.0
 10
1.798910355157915
 20
66.87690145652009
 30
0.0
 10
0.7204677387949516
 20
66.93284067759286
 30
0.0
 10
0.0001254602813532
 20
66.93080756767253
 30
0.0
  0
SPLINE
  5
A3
330
1F
100
AcDbEntity
  8
Default
100
AcDbSpline
210
0.0
220
0.0
230
1.0
 70
     8
 71
     3
 72
    29
 73
    25
 74
     0
 42
0.0000000001
 43
0.0000000001
 40
-11.77076998503533
 40
-11.77076998503533
 40
-11.77076998503533
 40
-11.77076998503533
 40
-9.609884778501197
 40
-8.534954238045774
 40
-7.999503083483516
 40
-7.516939192782874
 40
-6.098772718345308
 40
-5.730782641826128
 40
-5.428239998287118
 40
-5.115183906264332
 40
-4.830881114654314
 40
-4.491209792613959
 40
-4.213991072924498
 40
-3.652042690128299
 40
-3.032167325833857
 40
-2.463154345427246
 40
-1.792982890921901
 40
-1.116426481293132
 40
-0.7697521439540331
 40
-0.5893346744175345
 40
-0.4382617758584238
 40
-0.1942210121717855
 40
-0.0988422393250357
 40
0.0
 40
0.0
 40
0.0
 40
0.0
 10
0.0001254602813532
 20
66.93080756767253
 30
0.0
 10
-0.7202168182322453
 20
66.93284067759286
 30
0.0
 10
-1.798659434595208
 20
66.87690145652009
 30
0.0
 10
-3.046795993033385
 20
66.72530396520037
 30
0.0
 10
-3.735956214161959
 20
66.61511424818846
 30
0.0
 10
-4.533993660991854
 20
66.46802980368325
 30
0.0
 10
-5.268305588623264
 20
66.27477916966663
 30
0.0
 10
-5.910254054366419
 20
66.00360634057039
 30
0.0
 10
-6.205251860652126
 20
65.86016980637467
 30
0.0
 10
-6.467551799495112
 20
65.71480398222278
 30
0.0
 10
-6.732199636865616
 20
65.5481114846483
 30
0.0
 10
-6.974729835223783
 20
65.37123043065498
 30
0.0
 10
-7.277782545844829
 20
65.11976538626682
 30
0.0
 10
-7.607597077419612
 20
64.7611259352722
 30
0.0
 10
-7.943526226707732
 20
64.28152561800789
 30
0.0
 10
-8.208197496130438
 20
63.71877900431958
 30
0.0
 10
-8.381063317248163
 20
63.10194119034769
 30
0.0
 10
-8.452235058557577
 20
62.54049370904644
 30
0.0
 10
-8.457572678828825
 20
62.13901454758091
 30
0.0
 10
-8.446705332527571
 20
61.91312258157357
 30
0.0
 10
-8.429066164143109
 20
61.72213484712142
 30
0.0
 10
-8.398401868574126
 20
61.56094188689094
 30
0.0
 10
-8.350733934617665
 20
61.42263803022892
 30
0.0
 10
-8.32370438459948
 20
61.36373105652085
 30
0.0
 10
-8.308837721983636
 20
61.33433339641122
 30
0.0
  0
SPLINE
  5
A4
330
1F
100
AcDbEntity
  8
Default
100
AcDbSpline
210
0.0
220
0.0
230
1.0
 70
    24
 71
     2
 72
     6
 73
     3
 74
     0
 42
0.0000000001
 43
0.0000000001
 40
0.0
 40
0.0
 40
0.0
 40
0.34375
 40
0.34375
 40
0.34375
 10
13.28499310527861
 20
53.39169765933369
 30
0.0
 10
13.11311810527861
 20
53.39169765933369
 30
0.0
 10
12.94124310527861
 20
53.39169765933369
 30
0.0
  0
SPLINE
  5
A5
330
1F
100
AcDbEntity
  8
Default
100
AcDbSpline
210
0.0
220
0.0
230
1.0
 70
    12
 71
     2
 72
     6
 73
     3
 74
     0
 42
0.0000000001
 43
0.0000000001
 40
0.0
 40
0.0
 40
0.0
 40
0.0490826514059793
 40
0.0490826514059793
 40
0.0490826514059793
 10
12.94124310527861
 20
53.39169765933369
 30
0.0
 41
1.0
 10
12.91000413389485
 20
53.39168663071749
 30
0.0
 41
0.7073563743042116
 10
12.90999310527859
 20
53.36044765933374
 30
0.0
 41
1.0
  0
SPLINE
  5
A6
330
1F
100
AcDbEntity
  8
Default
100
AcDbSpline
210
0.0
220
0.0
230
1.0
 70
    24
 71
     2
 72
     6
 73
     3
 74
     0
 42
0.0000000001
 43
0.0000000001
 40
0.0
 40
0.0
 40
0.0
 40
0.2880920884418892
 40
0.2880920884418892
 40
0.2880920884418892
 10
-8.208956653249722
 20
65.5674752040667
 30
0.0
 10
-8.353002697470666
 20
65.5674752040667
 30
0.0
 10
-8.49704874169161
 20
65.5674752040667
 30
0.0
  0
SPLINE
  5
A7
330
1F
100
AcDbEntity
  8
Default
100
AcDbSpline
210
0.0
220
0.0
230
1.0
 70
    24
 71
     2
 72
     6
 73
     3
 74
     0
 42
0.0000000001
 43
0.0000000001
 40
0.0
 40
0.0
 40
0.0
 40
0.34375
 40
0.34375
 40
0.34375
 10
-7.340798741691611
 20
68.1274752040667
 30
0.0
 10
-7.168923741691611
 20
68.1274752040667
 30
0.0
 10
-6.997048741691611
 20
68.1274752040667
 30
0.0
  0
SPLINE
  5
A8
330
1F
100
AcDbEntity
  8
Default
100
AcDbSpline
210
0.0
220
0.0
230
1.0
 70
    12
 71
     2
 72
     6
 73
     3
 74
     0
 42
0.0000000001
 43
0.0000000001
 40
0.0
 40
0.0
 40
0.0
 40
0.196348179339025
 40
0.196348179339025
 40
0.196348179339025
 10
-8.49704874169161
 20
65.5674752040667
 30
0.0
 41
1.0
 10
-8.62204710137804
 20
65.5674756925291
 30
0.0
 41
0.7071128023126084
 10
-8.622048741686303
 20
65.69247405220571
 30
0.0
 41
1.0
  0
POLYLINE
  5
A9
330
1F
100
AcDbEntity
  8
Default
100
AcDb2dPolyline
 66
     1
 10
0.0
 20
0.0
 30
0.0
  0
VERTEX
  5
AA
330
A9
100
AcDbEntity
  8
Default
100
AcDbVertex
100
AcDb2dVertex
 10
25.73564706789422
 20
14.08360964610001
 30
0.0
  0
VERTEX
  5
AB
330
A9
100
AcDbEntity
  8
Default
100
AcDbVertex
100
AcDb2dVertex
 10
23.55538966522757
 20
13.6188026645
 30
0.0
  0
SEQEND
  5
AC
330
A9
100
AcDbEntity
  8
Default
  0
SPLINE
  5
AD
330
1F
100
AcDbEntity
  8
Default
  6
Continuous
100
AcDbSpline
210
0.0
220
0.0
230
1.0
 70
     8
 71
     3
 72
     9
 73
     5
 74
     0
 42
0.0000000001
 43
0.0000000001
 40
0.0
 40
0.0
 40
0.0
 40
0.0
 40
1.0
 40
2.0
 40
2.0
 40
2.0
 40
2.0
 10
24.48903306176088
 20
13.81993316183334
 30
0.0
 10
24.56857196169663
 20
13.83670948583664
 30
0.0
 10
24.72610725244073
 20
13.88333594178523
 30
0.0
 10
24.8762656409712
 20
13.98475213284772
 30
0.0
 10
24.92846411762756
 20
14.04751947650001
 30
0.0
  0
SPLINE
  5
AE
330
1F
100
AcDbEntity
  8
Default
  6
Continuous
100
AcDbSpline
210
0.0
220
0.0
230
1.0
 70
     8
 71
     3
 72
    25
 73
    21
 74
     0
 42
0.0000000001
 43
0.0000000001
 40
0.0
 40
0.0
 40
0.0
 40
0.0
 40
1.0
 40
2.0
 40
3.0
 40
4.0
 40
5.0
 40
6.0
 40
7.0
 40
8.0
 40
9.0
 40
10.0
 40
11.0
 40
12.0
 40
13.0
 40
14.0
 40
15.0
 40
16.0
 40
17.0
 40
18.0
 40
18.0
 40
18.0
 40
18.0
 10
24.92846411762756
 20
14.04751947650001
 30
0.0
 10
25.16906343030388
 20
14.33683404482883
 30
0.0
 10
25.18097291023165
 20
15.11973683518108
 30
0.0
 10
24.96888976526373
 20
16.18498234034476
 30
0.0
 10
24.70545824533589
 20
17.24819580607274
 30
0.0
 10
24.42882500112358
 20
18.30525337718884
 30
0.0
 10
24.13743686449122
 20
19.35908456018618
 30
0.0
 10
23.84151131024605
 20
20.41142942657925
 30
0.0
 10
23.54374296374841
 20
21.46331259293002
 30
0.0
 10
23.24125488468503
 20
22.51383580022974
 30
0.0
 10
22.93238937473755
 20
23.56250853009726
 30
0.0
 10
22.61623323525406
 20
24.60900439433284
 30
0.0
 10
22.29209442945752
 20
25.6530633790485
 30
0.0
 10
21.95975558280863
 20
26.69451801504435
 30
0.0
 10
21.61967141671543
 20
27.73355218055222
 30
0.0
 10
21.27100584015022
 20
28.76943360455897
 30
0.0
 10
20.91661111368862
 20
29.80449298168958
 30
0.0
 10
20.5107534829328
 20
30.81726099110104
 30
0.0
 10
20.06466777430924
 20
31.82512100770502
 30
0.0
 10
19.56310953222322
 20
32.3668193137098
 30
0.0
 10
19.25632352896089
 20
32.56723229303334
 30
0.0
  0
POLYLINE
  5
AF
330
1F
100
AcDbEntity
  8
Default
100
AcDb2dPolyline
 66
     1
 10
0.0
 20
0.0
 30
0.0
  0
VERTEX
  5
B0
330
AF
100
AcDbEntity
  8
Default
100
AcDbVertex
100
AcDb2dVertex
 10
23.55538966522757
 20
13.6188026645
 30
0.0
  0
VERTEX
  5
B1
330
AF
100
AcDbEntity
  8
Default
100
AcDbVertex
100
AcDb2dVertex
 10
25.07182011448016
 20
13.9082795836911
 30
0.0
  0
SEQEND
  5
B2
330
AF
100
AcDbEntity
  8
Default
  0
SPLINE
  5
B3
330
1F
100
AcDbEntity
  8
Default
  6
Continuous
100
AcDbSpline
210
0.0
220
0.0
230
1.0
 70
     8
 71
     3
 72
    25
 73
    21
 74
     0
 42
0.0000000001
 43
0.0000000001
 40
0.0
 40
0.0
 40
0.0
 40
0.0
 40
1.0
 40
2.0
 40
3.0
 40
4.0
 40
5.0
 40
6.0
 40
7.0
 40
8.0
 40
9.0
 40
10.0
 40
11.0
 40
12.0
 40
13.0
 40
14.0
 40
15.0
 40
16.0
 40
17.0
 40
18.0
 40
18.0
 40
18.0
 40
18.0
 10
25.73564706789422
 20
14.08360964610001
 30
0.0
 10
26.15276484602506
 20
14.13858384136977
 30
0.0
 10
26.47051611119248
 20
14.9160846928877
 30
0.0
 10
26.27739599277508
 20
16.02077725854315
 30
0.0
 10
26.03712199276643
 20
17.11481276616427
 30
0.0
 10
25.779888742796
 20
18.20515783319055
 30
0.0
 10
25.50490647622281
 20
19.29111336218164
 30
0.0
 10
25.21757274383276
 20
20.3738604881584
 30
0.0
 10
24.92013757126982
 20
21.45386913702468
 30
0.0
 10
24.61499713381743
 20
22.53172464571718
 30
0.0
 10
24.30178439104115
 20
23.60726393212974
 30
0.0
 10
23.97995308653424
 20
24.68025508048065
 30
0.0
 10
23.64964991223241
 20
25.75067199915171
 30
0.0
 10
23.31146299069046
 20
26.81860838889268
 30
0.0
 10
22.96443122696382
 20
27.8837663630775
 30
0.0
 10
22.61101846726191
 20
28.94657880538811
 30
0.0
 10
22.24624976784739
 20
30.0064914195658
 30
0.0
 10
21.83346943423172
 20
31.04599367004815
 30
0.0
 10
21.39542660605878
 20
32.0846506299636
 30
0.0
 10
20.91481370556485
 20
32.66643823595724
 30
0.0
 10
20.59891054002711
 20
32.87313860232327
 30
0.0
  0
ARC
  5
B4
330
1F
100
AcDbEntity
  8
Default
  6
Continuous
100
AcDbCircle
 10
20.39180735696088
 20
30.68290841543335
 30
0.0
 40
2.199999999999999
100
AcDbArc
 50
84.59830240049946
 51
121.0730536916996
  0
LINE
  5
B5
330
1F
100
AcDbEntity
  8
Default
  6
Continuous
100
AcDbLine
 10
29.44057556096088
 20
13.78572537543334
 30
0.0
 11
24.95285094955557
 21
13.58978708728729
 31
0.0
  0
ARC
  5
B6
330
1F
100
AcDbEntity
  8
Default
  6
Continuous
100
AcDbCircle
 10
24.91738838762755
 20
14.40201329143334
 30
0.0
 40
0.813
100
AcDbArc
 50
229.9855880265004
 51
272.5000000000005
  0
ARC
  5
B7
330
1F
100
AcDbEntity
  8
Default
  6
Continuous
100
AcDbCircle
 10
27.96531100523066
 20
2.031187075430609
 30
0.0
 40
12.22446792235284
100
AcDbArc
 50
100.181721045446
 51
103.6916569885555
  0
SPLINE
  5
B8
330
1F
100
AcDbEntity
  8
Default
  6
Continuous
100
AcDbSpline
210
0.0
220
0.0
230
1.0
 70
     8
 71
     3
 72
    17
 73
    13
 74
     0
 42
0.0000000001
 43
0.0000000001
 40
0.0
 40
0.0
 40
0.0
 40
0.0
 40
1.0
 40
2.0
 40
3.0
 40
4.0
 40
5.0
 40
6.0
 40
7.0
 40
8.0
 40
9.0
 40
10.0
 40
10.0
 40
10.0
 40
10.0
 10
25.80438269829422
 20
14.06314472316667
 30
0.0
 10
26.37516934937884
 20
14.16565747027415
 30
0.0
 10
27.52793782271419
 20
14.29681100840112
 30
0.0
 10
29.26241120372535
 20
14.42556824014603
 30
0.0
 10
30.99843633391619
 20
14.53188691355868
 30
0.0
 10
32.73518716564153
 20
14.62520220845762
 30
0.0
 10
34.47237868908694
 20
14.70940571673788
 30
0.0
 10
36.21002254551681
 20
14.78589088516186
 30
0.0
 10
37.94771526193817
 20
14.85264385809931
 30
0.0
 10
39.68683702046872
 20
14.91586415670222
 30
0.0
 10
41.42235941991193
 20
14.942714597827
 30
0.0
 10
42.59078414658781
 20
14.88547267382825
 30
0.0
 10
43.14090193296089
 20
14.69719029916667
 30
0.0
  0
SPLINE
  5
B9
330
1F
100
AcDbEntity
  8
Default
  6
Continuous
100
AcDbSpline
210
0.0
220
0.0
230
1.0
 70
     8
 71
     3
 72
    36
 73
    32
 74
     0
 42
0.0000000001
 43
0.0000000001
 40
0.0
 40
0.0
 40
0.0
 40
0.0
 40
0.0268293352558578
 40
0.0595097548675145
 40
0.0970237093252662
 40
0.1380956546169486
 40
0.1815031125309036
 40
0.2263067799581736
 40
0.2718427483924272
 40
0.3176192565289746
 40
0.3634947203664658
 40
0.4094370792045949
 40
0.5014498873820746
 40
0.593563853160519
 40
0.6856946055391234
 40
0.7316409500772907
 40
0.777323086212938
 40
0.822333118342176
 40
0.8643548613429163
 40
0.9006659570891968
 40
0.9292564473618499
 40
0.9502818266623583
 40
0.9653869687064084
 40
0.9762731215102243
 40
0.9843452085872036
 40
0.990262839743637
 40
0.9944180083832629
 40
0.9971389310092109
 40
0.9988199332252418
 40
0.9997248131338712
 40
1.0
 40
1.0
 40
1.0
 40
1.0
 10
26.21051855269421
 20
16.31003451303334
 30
0.0
 10
26.36000780442755
 20
16.33145400236667
 30
0.0
 10
26.69217216389423
 20
16.37491770396667
 30
0.0
 10
27.23502449856089
 20
16.43490040850001
 30
0.0
 10
27.85871798256089
 20
16.49220779756667
 30
0.0
 10
28.54330624416089
 20
16.54581484716667
 30
0.0
 10
29.26923627589422
 20
16.59666138023334
 30
0.0
 10
30.0205050481609
 20
16.64518702103334
 30
0.0
 10
30.78532363882756
 20
16.69063896983334
 30
0.0
 10
31.55630328816089
 20
16.73402480183334
 30
0.0
 10
32.32968649269422
 20
16.77535945570001
 30
0.0
 10
33.3630872713609
 20
16.82798861570001
 30
0.0
 10
34.65663873056089
 20
16.88941961036667
 30
0.0
 10
36.21017458229423
 20
16.95671492530001
 30
0.0
 10
37.50488173242755
 20
17.00730704343334
 30
0.0
 10
38.53856882042756
 20
17.04404279756668
 30
0.0
 10
39.30726793749422
 20
17.06898787116667
 30
0.0
 10
40.05395257749423
 20
17.09160974956667
 30
0.0
 10
40.74820834602755
 20
17.10078337916667
 30
0.0
 10
41.35010329829421
 20
17.09435112423334
 30
0.0
 10
41.83340499189423
 20
17.07282561463335
 30
0.0
 10
42.19650757482755
 20
17.04216999810001
 30
0.0
 10
42.45917218896088
 20
17.00916139596667
 30
0.0
 10
42.64820980362755
 20
16.97679796983334
 30
0.0
 10
42.78527161402755
 20
16.94801721516667
 30
0.0
 10
42.88435761962755
 20
16.92312444183334
 30
0.0
 10
42.95327462922755
 20
16.9021019317
 30
0.0
 10
42.99831962469422
 20
16.88489756930001
 30
0.0
 10
43.02534534522756
 20
16.87214469810001
 30
0.0
 10
43.03955498159743
 20
16.86452994748144
 30
0.0
 10
43.04517247256743
 20
16.86098504899494
 30
0.0
 10
43.04646639186167
 20
16.8601321520913
 30
0.0
  0
ARC
  5
BA
330
1F
100
AcDbEntity
  8
Default
  6
Continuous
100
AcDbCircle
 10
38.19699759802755
 20
15.56486831863334
 30
0.0
 40
5.019467698933335
100
AcDbArc
 50
350.0467139070005
 51
14.95427158620057
  0
LINE
  5
BB
330
1F
100
AcDbEntity
  8
Default
  6
Continuous
100
AcDbLine
 10
43.14091730384771
 20
14.69727744556121
 30
0.0
 11
25.07182011448016
 21
13.9082795836911
 31
0.0
  0
SPLINE
  5
BC
330
1F
100
AcDbEntity
  8
Default
  6
Continuous
100
AcDbSpline
210
0.0
220
0.0
230
1.0
 70
     8
 71
     3
 72
    31
 73
    27
 74
     0
 42
0.0000000001
 43
0.0000000001
 40
0.0
 40
0.0
 40
0.0
 40
0.0
 40
0.0037220821
 40
0.0057924638
 40
0.0084688316
 40
0.0121337093
 40
0.0170447498
 40
0.0234385228
 40
0.0271613998
 40
0.0312218642
 40
0.0359859202
 40
0.0418707346
 40
0.0490267908
 40
0.057463594
 40
0.0781277012
 40
0.1038098573
 40
0.1345135264
 40
0.1698072455
 40
0.2507580647
 40
0.3396850359
 40
0.4319896428
 40
0.5257189732
 40
0.6200879568
 40
0.7148941532
 40
0.8098782232
 40
1.0
 40
1.0
 40
1.0
 40
1.0
 10
-9.346883465125018
 20
14.78622835006667
 30
0.0
 10
-9.349423393391703
 20
14.79762259700001
 30
0.0
 10
-9.349619917925025
 20
14.81722957220001
 30
0.0
 10
-9.335093921658341
 20
14.84023745326667
 30
0.0
 10
-9.313891640858344
 20
14.85654491886667
 30
0.0
 10
-9.281841398191688
 20
14.87162945833334
 30
0.0
 10
-9.237079594725003
 20
14.88608481966667
 30
0.0
 10
-9.191084951525028
 20
14.89655036873334
 30
0.0
 10
-9.14741737899169
 20
14.90492363486667
 30
0.0
 10
-9.108632580058327
 20
14.91163348766667
 30
0.0
 10
-9.062850178991681
 20
14.9174570306
 30
0.0
 10
-9.007192032058356
 20
14.92214409060001
 30
0.0
 10
-8.93992445125835
 20
14.92583580313334
 30
0.0
 10
-8.82626503712504
 20
14.92962605833334
 30
0.0
 10
-8.65442557552501
 20
14.93097013620001
 30
0.0
 10
-8.41277707179168
 20
14.92792924820001
 30
0.0
 10
-8.12533390859167
 20
14.92006674046667
 30
0.0
 10
-7.664751454725007
 20
14.90322876446668
 30
0.0
 10
-7.021879848591681
 20
14.87474400153334
 30
0.0
 10
-6.20037199899167
 20
14.83853424926667
 30
0.0
 10
-5.33869082619168
 20
14.80361089060001
 30
0.0
 10
-4.459782006991674
 20
14.77255489673334
 30
0.0
 10
-3.572877880325024
 20
14.74592228126667
 30
0.0
 10
-2.681891453125019
 20
14.72461684713334
 30
0.0
 10
-1.490517694191681
 20
14.70365996766667
 30
0.0
 10
-0.5962980285916615
 20
14.69718540526667
 30
0.0
 10
-0.0000017168583497
 20
14.69718540526667
 30
0.0
  0
SPLINE
  5
BD
330
1F
100
AcDbEntity
  8
Default
  6
Continuous
100
AcDbSpline
210
0.0
220
0.0
230
1.0
 70
     8
 71
     3
 72
    31
 73
    27
 74
     0
 42
0.0000000001
 43
0.0000000001
 40
-1.0
 40
-1.0
 40
-1.0
 40
-1.0
 40
-0.8098782232
 40
-0.7148941532
 40
-0.6200879568
 40
-0.5257189732
 40
-0.4319896428
 40
-0.3396850359
 40
-0.2507580647
 40
-0.1698072455
 40
-0.1345135264
 40
-0.1038098573
 40
-0.0781277012
 40
-0.057463594
 40
-0.0490267908
 40
-0.0418707346
 40
-0.0359859202
 40
-0.0312218642
 40
-0.0271613998
 40
-0.0234385228
 40
-0.0170447498
 40
-0.0121337093
 40
-0.0084688316
 40
-0.0057924638
 40
-0.0037220821
 40
0.0
 40
0.0
 40
0.0
 40
0.0
 10
-0.0000017168583497
 20
14.69718540526667
 30
0.0
 10
0.596294595141643
 20
14.69718540526667
 30
0.0
 10
1.490514260741662
 20
14.70365996766667
 30
0.0
 10
2.681888019675
 20
14.72461684713334
 30
0.0
 10
3.572874446875005
 20
14.74592228126667
 30
0.0
 10
4.459778573541655
 20
14.77255489673334
 30
0.0
 10
5.338687392741662
 20
14.80361089060001
 30
0.0
 10
6.200368565541652
 20
14.83853424926667
 30
0.0
 10
7.021876415141662
 20
14.87474400153334
 30
0.0
 10
7.664748021274988
 20
14.90322876446668
 30
0.0
 10
8.12533047514168
 20
14.92006674046667
 30
0.0
 10
8.412773638341662
 20
14.92792924820001
 30
0.0
 10
8.654422142074992
 20
14.93097013620001
 30
0.0
 10
8.826261603674993
 20
14.92962605833334
 30
0.0
 10
8.93992101780833
 20
14.92583580313334
 30
0.0
 10
9.007188598608323
 20
14.92214409060001
 30
0.0
 10
9.062846745541663
 20
14.9174570306
 30
0.0
 10
9.108629146608337
 20
14.91163348766667
 30
0.0
 10
9.147413945274991
 20
14.90492363486667
 30
0.0
 10
9.19108151807498
 20
14.89655036873334
 30
0.0
 10
9.237076161274985
 20
14.88608481966667
 30
0.0
 10
9.281837964741669
 20
14.87162945833334
 30
0.0
 10
9.313888207408326
 20
14.85654491886667
 30
0.0
 10
9.335090488208323
 20
14.84023745326667
 30
0.0
 10
9.349616484474979
 20
14.81722957220001
 30
0.0
 10
9.349419959941656
 20
14.79762259700001
 30
0.0
 10
9.346880031674985
 20
14.78622835006667
 30
0.0
  0
SPLINE
  5
BE
330
1F
100
AcDbEntity
  8
Default
  6
Continuous
100
AcDbSpline
210
0.0
220
0.0
230
1.0
 70
     8
 71
     3
 72
    17
 73
    13
 74
     0
 42
0.0000000001
 43
0.0000000001
 40
0.0
 40
0.0
 40
0.0
 40
0.0
 40
1.0
 40
2.0
 40
3.0
 40
4.0
 40
5.0
 40
6.0
 40
7.0
 40
8.0
 40
9.0
 40
10.0
 40
10.0
 40
10.0
 40
10.0
 10
3.624551815674977
 20
13.98150196073334
 30
0.0
 10
3.819841908885678
 20
13.98862958704561
 30
0.0
 10
4.210373978701313
 20
14.00419363635369
 30
0.0
 10
4.795991520716655
 20
14.03173278372412
 30
0.0
 10
5.381352699291284
 20
14.064294051485
 30
0.0
 10
5.966332483030754
 20
14.10321966158175
 30
0.0
 10
6.550774743615534
 20
14.14934808776815
 30
0.0
 10
7.134514807225884
 20
14.20444287866738
 30
0.0
 10
7.717052231743338
 20
14.26865409453045
 30
0.0
 10
8.298792051145398
 20
14.34843109218074
 30
0.0
 10
8.874139960260095
 20
14.44256343085241
 30
0.0
 10
9.24615473847399
 20
14.61569322158887
 30
0.0
 10
9.346880367141651
 20
14.78622985646668
 30
0.0
  0
POLYLINE
  5
BF
330
1F
100
AcDbEntity
  8
Default
  6
Continuous
100
AcDb2dPolyline
 66
     1
 10
0.0
 20
0.0
 30
0.0
  0
VERTEX
  5
C0
330
BF
100
AcDbEntity
  8
Default
  6
Continuous
100
AcDbVertex
100
AcDb2dVertex
 10
9.346880367141651
 20
14.78622985646668
 30
0.0
  0
VERTEX
  5
C1
330
BF
100
AcDbEntity
  8
Default
  6
Continuous
100
AcDbVertex
100
AcDb2dVertex
 10
9.38433932314166
 20
14.97094520393334
 30
0.0
  0
VERTEX
  5
C2
330
BF
100
AcDbEntity
  8
Default
  6
Continuous
100
AcDbVertex
100
AcDb2dVertex
 10
9.424680492741658
 20
15.22838644313334
 30
0.0
  0
VERTEX
  5
C3
330
BF
100
AcDbEntity
  8
Default
  6
Continuous
100
AcDbVertex
100
AcDb2dVertex
 10
9.451768189541667
 20
15.48824515833334
 30
0.0
  0
VERTEX
  5
C4
330
BF
100
AcDbEntity
  8
Default
  6
Continuous
100
AcDbVertex
100
AcDb2dVertex
 10
9.465488797541653
 20
15.74993064313334
 30
0.0
  0
VERTEX
  5
C5
330
BF
100
AcDbEntity
  8
Default
  6
Continuous
100
AcDbVertex
100
AcDb2dVertex
 10
9.465716553275001
 20
16.01268226873334
 30
0.0
  0
VERTEX
  5
C6
330
BF
100
AcDbEntity
  8
Default
  6
Continuous
100
AcDbVertex
100
AcDb2dVertex
 10
9.452353550341655
 20
16.27556918180001
 30
0.0
  0
VERTEX
  5
C7
330
BF
100
AcDbEntity
  8
Default
  6
Continuous
100
AcDbVertex
100
AcDb2dVertex
 10
9.42532803034166
 20
16.53780554606667
 30
0.0
  0
VERTEX
  5
C8
330
BF
100
AcDbEntity
  8
Default
  6
Continuous
100
AcDbVertex
100
AcDb2dVertex
 10
9.38455066180832
 20
16.79875069780001
 30
0.0
  0
VERTEX
  5
C9
330
BF
100
AcDbEntity
  8
Default
  6
Continuous
100
AcDbVertex
100
AcDb2dVertex
 10
9.347336252208322
 20
16.98224109846667
 30
0.0
  0
SEQEND
  5
CA
330
BF
100
AcDbEntity
  8
Default
  6
Continuous
  0
SPLINE
  5
CB
330
1F
100
AcDbEntity
  8
Default
  6
Continuous
100
AcDbSpline
210
0.0
220
0.0
230
1.0
 70
     8
 71
     3
 72
    29
 73
    25
 74
     0
 42
0.0000000001
 43
0.0000000001
 40
0.0
 40
0.0
 40
0.0
 40
0.0
 40
0.0018649516990507
 40
0.0041229248655613
 40
0.0071392599544101
 40
0.0111974032739463
 40
0.0165015217301838
 40
0.0231795004268895
 40
0.0313731989682422
 40
0.0367914495278415
 40
0.0434872304250717
 40
0.0606413267303607
 40
0.0828314253839897
 40
0.1098695728804222
 40
0.1413718597083498
 40
0.1765351133441145
 40
0.2145024675624765
 40
0.2958912236598542
 40
0.3812166439731898
 40
0.4683182067388432
 40
0.5562751132296916
 40
0.6447099330346173
 40
0.822231503063672
 40
1.0
 40
1.0
 40
1.0
 40
1.0
 10
9.347336252208322
 20
16.98224109846667
 30
0.0
 10
9.346069478571067
 20
16.98793356367381
 30
0.0
 10
9.340934642289952
 20
17.00012073001051
 30
0.0
 10
9.325087188208329
 20
17.01639446606667
 30
0.0
 10
9.29977971940832
 20
17.03131951913334
 30
0.0
 10
9.26366191620832
 20
17.04549471886668
 30
0.0
 10
9.215289316474994
 20
17.05898639726668
 30
0.0
 10
9.153472985541669
 20
17.07168859566667
 30
0.0
 10
9.090850873541655
 20
17.08216025646668
 30
0.0
 10
9.027627143941658
 20
17.08835768740001
 30
0.0
 10
8.936285021274983
 20
17.09421465460001
 30
0.0
 10
8.792335467408321
 20
17.09826665806668
 30
0.0
 10
8.584746790075002
 20
17.09846794420001
 30
0.0
 10
8.332330205541666
 20
17.09393611273335
 30
0.0
 10
8.039455231674992
 20
17.08484201753334
 30
0.0
 10
7.712513908474989
 20
17.07210137860001
 30
0.0
 10
7.229784958341668
 20
17.05115489540001
 30
0.0
 10
6.590415759941664
 20
17.02185644500001
 30
0.0
 10
5.797478286341658
 20
16.98743592020001
 30
0.0
 10
4.983880979674979
 20
16.95547797726667
 30
0.0
 10
4.160407422074996
 20
16.92750669940001
 30
0.0
 10
3.054176919141668
 20
16.89553041566668
 30
0.0
 10
1.66688741780834
 20
16.86780987140001
 30
0.0
 10
0.5558810778083227
 20
16.86012705006668
 30
0.0
 10
-0.0000017168583497
 20
16.86012705006668
 30
0.0
  0
SPLINE
  5
CC
330
1F
100
AcDbEntity
  8
Default
  6
Continuous
100
AcDbSpline
210
0.0
220
0.0
230
1.0
 70
     8
 71
     3
 72
    29
 73
    25
 74
     0
 42
0.0000000001
 43
0.0000000001
 40
-1.0
 40
-1.0
 40
-1.0
 40
-1.0
 40
-0.8222315030636721
 40
-0.6447099330346175
 40
-0.5562751132296919
 40
-0.4683182067388437
 40
-0.3812166439731903
 40
-0.2958912236598547
 40
-0.2145024675624771
 40
-0.1765351133441152
 40
-0.1413718597083505
 40
-0.1098695728804229
 40
-0.0828314253839904
 40
-0.0606413267303614
 40
-0.0434872304250724
 40
-0.0367914495278423
 40
-0.0313731989682429
 40
-0.0231795004268903
 40
-0.0165015217301845
 40
-0.0111974032739471
 40
-0.0071392599544109
 40
-0.004122924865562
 40
-0.0018649516990515
 40
0.0
 40
0.0
 40
0.0
 40
0.0
 10
-0.0000017168583497
 20
16.86012705006668
 30
0.0
 10
-0.5558845112583413
 20
16.86012705006668
 30
0.0
 10
-1.666890851258358
 20
16.86780987140001
 30
0.0
 10
-3.054180352591658
 20
16.89553041566668
 30
0.0
 10
-4.160410855525015
 20
16.92750669940001
 30
0.0
 10
-4.983884413125026
 20
16.95547797726667
 30
0.0
 10
-5.797481719791705
 20
16.98743592020001
 30
0.0
 10
-6.590419193391682
 20
17.02185644500001
 30
0.0
 10
-7.229788391791686
 20
17.05115489540001
 30
0.0
 10
-7.712517341925036
 20
17.07210137860001
 30
0.0
 10
-8.039458665124982
 20
17.08484201753334
 30
0.0
 10
-8.332333638991656
 20
17.09393611273335
 30
0.0
 10
-8.58475022352502
 20
17.09846794420001
 30
0.0
 10
-8.79233890085834
 20
17.09826665806668
 30
0.0
 10
-8.936288454991683
 20
17.09421465460001
 30
0.0
 10
-9.027630577391676
 20
17.08835768740001
 30
0.0
 10
-9.090854306991673
 20
17.08216025646668
 30
0.0
 10
-9.153476418991687
 20
17.07168859566667
 30
0.0
 10
-9.215292749924998
 20
17.05898639726668
 30
0.0
 10
-9.263665349658368
 20
17.04549471886668
 30
0.0
 10
-9.299783152858367
 20
17.03131951913334
 30
0.0
 10
-9.325090621658347
 20
17.01639446606667
 30
0.0
 10
-9.340938076006665
 20
17.00012073001051
 30
0.0
 10
-9.3460729120211
 20
16.98793356367381
 30
0.0
 10
-9.34733968565834
 20
16.98224109846667
 30
0.0
  0
POLYLINE
  5
CD
330
1F
100
AcDbEntity
  8
Default
  6
Continuous
100
AcDb2dPolyline
 66
     1
 10
0.0
 20
0.0
 30
0.0
  0
VERTEX
  5
CE
330
CD
100
AcDbEntity
  8
Default
  6
Continuous
100
AcDbVertex
100
AcDb2dVertex
 10
-9.34733968565834
 20
16.98224109846667
 30
0.0
  0
VERTEX
  5
CF
330
CD
100
AcDbEntity
  8
Default
  6
Continuous
100
AcDbVertex
100
AcDb2dVertex
 10
-9.384554095258352
 20
16.79875069780001
 30
0.0
  0
VERTEX
  5
D0
330
CD
100
AcDbEntity
  8
Default
  6
Continuous
100
AcDbVertex
100
AcDb2dVertex
 10
-9.425331463791679
 20
16.53780554606667
 30
0.0
  0
VERTEX
  5
D1
330
CD
100
AcDbEntity
  8
Default
  6
Continuous
100
AcDbVertex
100
AcDb2dVertex
 10
-9.452356983791674
 20
16.27556918180001
 30
0.0
  0
VERTEX
  5
D2
330
CD
100
AcDbEntity
  8
Default
  6
Continuous
100
AcDbVertex
100
AcDb2dVertex
 10
-9.465719986724991
 20
16.01268226873334
 30
0.0
  0
VERTEX
  5
D3
330
CD
100
AcDbEntity
  8
Default
  6
Continuous
100
AcDbVertex
100
AcDb2dVertex
 10
-9.465492230991686
 20
15.74993064313334
 30
0.0
  0
VERTEX
  5
D4
330
CD
100
AcDbEntity
  8
Default
  6
Continuous
100
AcDbVertex
100
AcDb2dVertex
 10
-9.451771622991657
 20
15.48824515833334
 30
0.0
  0
VERTEX
  5
D5
330
CD
100
AcDbEntity
  8
Default
  6
Continuous
100
AcDbVertex
100
AcDb2dVertex
 10
-9.424683926191676
 20
15.22838644313334
 30
0.0
  0
VERTEX
  5
D6
330
CD
100
AcDbEntity
  8
Default
  6
Continuous
100
AcDbVertex
100
AcDb2dVertex
 10
-9.384342756591678
 20
14.97094520393334
 30
0.0
  0
VERTEX
  5
D7
330
CD
100
AcDbEntity
  8
Default
  6
Continuous
100
AcDbVertex
100
AcDb2dVertex
 10
-9.346883800191677
 20
14.78622985646668
 30
0.0
  0
SEQEND
  5
D8
330
CD
100
AcDbEntity
  8
Default
  6
Continuous
  0
SPLINE
  5
D9
330
1F
100
AcDbEntity
  8
Default
  6
Continuous
100
AcDbSpline
210
0.0
220
0.0
230
1.0
 70
     8
 71
     3
 72
    17
 73
    13
 74
     0
 42
0.0000000001
 43
0.0000000001
 40
-10.0
 40
-10.0
 40
-10.0
 40
-10.0
 40
-9.0
 40
-8.0
 40
-7.0
 40
-6.0
 40
-5.0
 40
-4.0
 40
-3.0
 40
-2.0
 40
-1.0
 40
0.0
 40
0.0
 40
0.0
 40
0.0
 10
-9.346883800191677
 20
14.78622985646668
 30
0.0
 10
-9.246158171124023
 20
14.61569322158887
 30
0.0
 10
-8.874143392910128
 20
14.44256343085241
 30
0.0
 10
-8.29879548379543
 20
14.34843109218074
 30
0.0
 10
-7.717055664393371
 20
14.26865409453045
 30
0.0
 10
-7.134518239875916
 20
14.20444287866738
 30
0.0
 10
-6.550778176265567
 20
14.14934808776815
 30
0.0
 10
-5.966335915680787
 20
14.10321966158175
 30
0.0
 10
-5.381356131941317
 20
14.064294051485
 30
0.0
 10
-4.795994953366687
 20
14.03173278372412
 30
0.0
 10
-4.210377411351345
 20
14.00419363635369
 30
0.0
 10
-3.819845341535711
 20
13.98862958704561
 30
0.0
 10
-3.624555248325009
 20
13.98150196073334
 30
0.0
  0
SPLINE
  5
DA
330
1F
100
AcDbEntity
  8
Default
  6
Continuous
100
AcDbSpline
210
0.0
220
0.0
230
1.0
 70
     8
 71
     3
 72
    12
 73
     8
 74
     0
 42
0.0000000001
 43
0.0000000001
 40
0.0
 40
0.0
 40
0.0
 40
0.0
 40
1.000000087140231
 40
2.000000174280462
 40
3.000000261420693
 40
4.000000348560924
 40
5.0
 40
5.0
 40
5.0
 40
5.0
 10
8.835576259408299
 20
17.09650576713334
 30
0.0
 10
8.844395242156736
 20
17.44254237738921
 30
0.0
 10
8.846460578045793
 20
18.13486068307042
 30
0.0
 10
8.832323069721184
 20
19.1731868897759
 30
0.0
 10
8.804294349218225
 20
20.21123690791768
 30
0.0
 10
8.759920517511404
 20
21.24872405575991
 30
0.0
 10
8.719672798562868
 20
21.93984219215082
 30
0.0
 10
8.696452675008288
 20
22.28519730966668
 30
0.0
  0
SPLINE
  5
DB
330
1F
100
AcDbEntity
  8
Default
  6
Continuous
100
AcDbSpline
210
0.0
220
0.0
230
1.0
 70
     8
 71
     3
 72
    18
 73
    14
 74
     0
 42
0.0000000001
 43
0.0000000001
 40
-11.0
 40
-11.0
 40
-11.0
 40
-11.0
 40
-10.00000027760901
 40
-9.000000249848105
 40
-8.000000222087206
 40
-7.000000194326304
 40
-6.000000166565403
 40
-5.000000138804504
 40
-4.000000111043603
 40
-3.000000083282702
 40
-2.000000055521801
 40
-1.000000027760901
 40
0.0
 40
0.0
 40
0.0
 40
0.0
 10
8.696452675008288
 20
22.28519730966668
 30
0.0
 10
8.662474847433288
 20
22.77788568723555
 30
0.0
 10
8.588832132163702
 20
23.76296627724427
 30
0.0
 10
8.436979486586097
 20
25.23683207056125
 30
0.0
 10
8.227295487063088
 20
26.70436503141998
 30
0.0
 10
7.919217384263163
 20
28.15354549100819
 30
0.0
 10
7.525327695288638
 20
29.58513941243467
 30
0.0
 10
6.878200156226228
 20
30.92711197706632
 30
0.0
 10
5.841253863829195
 20
32.03243055993001
 30
0.0
 10
4.433021883917917
 20
32.56856388029074
 30
0.0
 10
2.957483757751078
 20
32.73315893492652
 30
0.0
 10
1.482348763509748
 20
32.86643485161888
 30
0.0
 10
0.493713102512146
 20
32.88107031460601
 30
0.0
 10
-0.0000017168583497
 20
32.88290008526668
 30
0.0
  0
SPLINE
  5
DC
330
1F
100
AcDbEntity
  8
Default
  6
Continuous
100
AcDbSpline
210
0.0
220
0.0
230
1.0
 70
     8
 71
     3
 72
    18
 73
    14
 74
     0
 42
0.0000000001
 43
0.0000000001
 40
0.0
 40
0.0
 40
0.0
 40
0.0
 40
1.000000027760901
 40
2.000000055521801
 40
3.000000083282702
 40
4.000000111043603
 40
5.000000138804504
 40
6.000000166565403
 40
7.000000194326304
 40
8.000000222087206
 40
9.000000249848105
 40
10.00000027760901
 40
11.0
 40
11.0
 40
11.0
 40
11.0
 10
-0.0000017168583497
 20
32.88290008526668
 30
0.0
 10
-0.4937165362288454
 20
32.88107031460601
 30
0.0
 10
-1.482352197226447
 20
32.86643485161888
 30
0.0
 10
-2.957487191467777
 20
32.73315893492652
 30
0.0
 10
-4.433025317634616
 20
32.56856388029074
 30
0.0
 10
-5.841257297545894
 20
32.03243055993001
 30
0.0
 10
-6.878203589942927
 20
30.92711197706632
 30
0.0
 10
-7.525331129005338
 20
29.58513941243467
 30
0.0
 10
-7.919220817979863
 20
28.15354549100819
 30
0.0
 10
-8.227298920779788
 20
26.70436503141998
 30
0.0
 10
-8.436982920302796
 20
25.23683207056125
 30
0.0
 10
-8.588835565880402
 20
23.76296627724427
 30
0.0
 10
-8.662478281149987
 20
22.77788568723555
 30
0.0
 10
-8.696456108724988
 20
22.28519730966668
 30
0.0
  0
SPLINE
  5
DD
330
1F
100
AcDbEntity
  8
Default
  6
Continuous
100
AcDbSpline
210
0.0
220
0.0
230
1.0
 70
     8
 71
     3
 72
    12
 73
     8
 74
     0
 42
0.0000000001
 43
0.0000000001
 40
-5.0
 40
-5.0
 40
-5.0
 40
-5.0
 40
-4.000000348560924
 40
-3.000000261420693
 40
-2.000000174280462
 40
-1.000000087140231
 40
0.0
 40
0.0
 40
0.0
 40
0.0
 10
-8.696456108724988
 20
22.28519730966668
 30
0.0
 10
-8.719676232279568
 20
21.93984219215082
 30
0.0
 10
-8.759923951228103
 20
21.24872405575991
 30
0.0
 10
-8.804297782934924
 20
20.21123690791768
 30
0.0
 10
-8.832326503437884
 20
19.1731868897759
 30
0.0
 10
-8.846464011762492
 20
18.13486068307042
 30
0.0
 10
-8.844398675873435
 20
17.44254237738921
 30
0.0
 10
-8.835579693124998
 20
17.09650576713334
 30
0.0
  0
SPLINE
  5
DE
330
1F
100
AcDbEntity
  8
Default
  6
Continuous
100
AcDbSpline
210
0.0
220
0.0
230
1.0
 70
     8
 71
     3
 72
    24
 73
    20
 74
     0
 42
0.0000000001
 43
0.0000000001
 40
0.0
 40
0.0
 40
0.0
 40
0.0
 40
1.0
 40
2.0
 40
3.0
 40
4.0
 40
5.0
 40
6.0
 40
7.0
 40
8.0
 40
9.0
 40
10.0
 40
11.0
 40
12.0
 40
13.0
 40
14.0
 40
15.0
 40
16.0
 40
17.0
 40
17.0
 40
17.0
 40
17.0
 10
8.306126359941658
 20
17.09266628153334
 30
0.0
 10
8.33716412574941
 20
17.50843293424982
 30
0.0
 10
8.373555570267456
 20
18.34158439104175
 30
0.0
 10
8.390989854176496
 20
19.59221435821551
 30
0.0
 10
8.387087703727957
 20
20.84293606218346
 30
0.0
 10
8.355606638547329
 20
22.09331132828693
 30
0.0
 10
8.294170200894968
 20
23.34256569753345
 30
0.0
 10
8.200284575229603
 20
24.58986845861907
 30
0.0
 10
8.063593265959128
 20
25.83324581407392
 30
0.0
 10
7.871163025537925
 20
27.06962227099483
 30
0.0
 10
7.602795854912301
 20
28.2914180695867
 30
0.0
 10
7.266142163208428
 20
29.49760217748027
 30
0.0
 10
6.767217537247404
 20
30.64865772416492
 30
0.0
 10
6.037053346370612
 20
31.67877865458219
 30
0.0
 10
4.983693676271628
 20
32.40320415061224
 30
0.0
 10
3.738617402110435
 20
32.62829977129665
 30
0.0
 10
2.499801097592581
 20
32.77494455267143
 30
0.0
 10
1.250535279783065
 20
32.85892339484222
 30
0.0
 10
0.4169241681286735
 20
32.87308959360585
 30
0.0
 10
-0.0000017168583497
 20
32.87313289353334
 30
0.0
  0
SPLINE
  5
DF
330
1F
100
AcDbEntity
  8
Default
  6
Continuous
100
AcDbSpline
210
0.0
220
0.0
230
1.0
 70
     8
 71
     3
 72
    24
 73
    20
 74
     0
 42
0.0000000001
 43
0.0000000001
 40
-17.0
 40
-17.0
 40
-17.0
 40
-17.0
 40
-16.0
 40
-15.0
 40
-14.0
 40
-13.0
 40
-12.0
 40
-11.0
 40
-10.0
 40
-9.0
 40
-8.0
 40
-7.0
 40
-6.0
 40
-5.0
 40
-4.0
 40
-3.0
 40
-2.0
 40
-1.0
 40
0.0
 40
0.0
 40
0.0
 40
0.0
 10
-0.0000017168583497
 20
32.87313289353334
 30
0.0
 10
-0.4169276018453729
 20
32.87308959360585
 30
0.0
 10
-1.250538713499765
 20
32.85892339484222
 30
0.0
 10
-2.49980453130928
 20
32.77494455267143
 30
0.0
 10
-3.738620835827135
 20
32.62829977129665
 30
0.0
 10
-4.983697109988327
 20
32.40320415061224
 30
0.0
 10
-6.037056780087312
 20
31.67877865458219
 30
0.0
 10
-6.767220970964104
 20
30.64865772416492
 30
0.0
 10
-7.266145596925128
 20
29.49760217748027
 30
0.0
 10
-7.602799288629001
 20
28.2914180695867
 30
0.0
 10
-7.871166459254624
 20
27.06962227099483
 30
0.0
 10
-8.063596699675827
 20
25.83324581407392
 30
0.0
 10
-8.200288008946302
 20
24.58986845861907
 30
0.0
 10
-8.294173634611667
 20
23.34256569753345
 30
0.0
 10
-8.355610072264028
 20
22.09331132828693
 30
0.0
 10
-8.387091137444656
 20
20.84293606218346
 30
0.0
 10
-8.390993287893195
 20
19.59221435821551
 30
0.0
 10
-8.373559003984155
 20
18.34158439104175
 30
0.0
 10
-8.33716755946611
 20
17.50843293424982
 30
0.0
 10
-8.306129793658357
 20
17.09266628153334
 30
0.0
  0
LINE
  5
E0
330
1F
100
AcDbEntity
  8
Default
  6
Continuous
100
AcDbLine
 10
19.25632010789421
 20
32.56723023143336
 30
0.0
 11
23.55538549402755
 21
13.61880188503334
 31
0.0
  0
LINE
  5
E1
330
1F
100
AcDbEntity
  8
Default
  6
Continuous
100
AcDbLine
 10
29.42692269269422
 20
14.09842746876667
 30
0.0
 11
29.44057556096088
 21
13.78572537543334
 31
0.0
  0
LINE
  5
E2
330
1F
100
AcDbEntity
  8
Default
  6
Continuous
100
AcDbLine
 10
26.87593098282755
 20
13.9870488533
 30
0.0
 11
26.86149566282755
 21
13.98644260103334
 31
0.0
  0
LINE
  5
E3
330
1F
100
AcDbEntity
  8
Default
  6
Continuous
100
AcDbLine
 10
37.11720168122756
 20
14.43419230263334
 30
0.0
 11
37.12767483376089
 21
14.43465201223334
 31
0.0
  0
SPLINE
  5
E4
330
1F
100
AcDbEntity
  8
Default
  6
Continuous
100
AcDbSpline
210
0.0
220
0.0
230
1.0
 70
     8
 71
     3
 72
    23
 73
    19
 74
     0
 42
0.0000000001
 43
0.0000000001
 40
0.0
 40
0.0
 40
0.0
 40
0.0
 40
0.1280208413
 40
0.1917972736
 40
0.2553939674
 40
0.3187764418
 40
0.3819077624
 40
0.4447515973
 40
0.5072715633
 40
0.5694308409
 40
0.6312021107
 40
0.6925963746
 40
0.7537633981
 40
0.8148126023
 40
0.8760096275
 40
0.9376191448
 40
0.9686750355
 40
1.0
 40
1.0
 40
1.0
 40
1.0
 10
2.729563639674979
 20
13.65900245940001
 30
0.0
 10
2.955346957008345
 20
13.6656846058
 30
0.0
 10
3.293574069541677
 20
13.67695027380001
 30
0.0
 10
3.743852451408344
 20
13.6945531946
 30
0.0
 10
4.080115634074986
 20
13.70899664233334
 30
0.0
 10
4.415196028208328
 20
13.72440680473334
 30
0.0
 10
4.748904089808349
 20
13.74072249806667
 30
0.0
 10
5.081012947408311
 20
13.75852026500001
 30
0.0
 10
5.411340185275009
 20
13.77743827086667
 30
0.0
 10
5.73980197514166
 20
13.79587193460001
 30
0.0
 10
6.066191824741651
 20
13.81558445966667
 30
0.0
 10
6.390624418341673
 20
13.83911908260001
 30
0.0
 10
6.712604107941672
 20
13.8758132578
 30
0.0
 10
7.032159779941679
 20
13.92835354446667
 30
0.0
 10
7.347234926341656
 20
14.00753955700001
 30
0.0
 10
7.601918564208319
 20
14.10438496633334
 30
0.0
 10
7.795768677808326
 20
14.20631025460001
 30
0.0
 10
7.888333177541682
 20
14.26620478740001
 30
0.0
 10
7.933314952475001
 20
14.29832093140001
 30
0.0
  0
SPLINE
  5
E5
330
1F
100
AcDbEntity
  8
Default
  6
Continuous
100
AcDbSpline
210
0.0
220
0.0
230
1.0
 70
     8
 71
     3
 72
    23
 73
    19
 74
     0
 42
0.0000000001
 43
0.0000000001
 40
0.0
 40
0.0
 40
0.0
 40
0.0
 40
0.128020826
 40
0.1917972498
 40
0.2553939323
 40
0.3187763919
 40
0.3819076955
 40
0.4447515122
 40
0.5072714596
 40
0.5694307198
 40
0.6312019755
 40
0.6925962373
 40
0.7537632737
 40
0.8148124992
 40
0.8760095614
 40
0.9376191131
 40
0.9686750212
 40
1.0
 40
1.0
 40
1.0
 40
1.0
 10
-2.729646515525019
 20
13.6590048106
 30
0.0
 10
-2.955426410458358
 20
13.66568705246667
 30
0.0
 10
-3.293648394191678
 20
13.67695282820001
 30
0.0
 10
-3.743919940858348
 20
13.69455583353334
 30
0.0
 10
-4.080178005124992
 20
13.70899927913334
 30
0.0
 10
-4.415253286191671
 20
13.72440935193334
 30
0.0
 10
-4.748956240858348
 20
13.74072498553334
 30
0.0
 10
-5.081060004591677
 20
13.75852272206667
 30
0.0
 10
-5.411382186191673
 20
13.77744047086667
 30
0.0
 10
-5.739838957125016
 20
13.79587385246668
 30
0.0
 10
-6.066223836325008
 20
13.81558628446667
 30
0.0
 10
-6.390651504058326
 20
13.83912128633334
 30
0.0
 10
-6.71262630939168
 20
13.87581587566667
 30
0.0
 10
-7.032177132058337
 20
13.92835648446667
 30
0.0
 10
-7.34724741179167
 20
14.00754253113334
 30
0.0
 10
-7.601927048858357
 20
14.10438734793334
 30
0.0
 10
-7.795774153391704
 20
14.20631153086667
 30
0.0
 10
-7.888337265658379
 20
14.26620525486667
 30
0.0
 10
-7.93331838592502
 20
14.29832093140001
 30
0.0
  0
SPLINE
  5
E6
330
1F
100
AcDbEntity
  8
Default
  6
Continuous
100
AcDbSpline
210
0.0
220
0.0
230
1.0
 70
     8
 71
     3
 72
    35
 73
    31
 74
     0
 42
0.0000000001
 43
0.0000000001
 40
0.0
 40
0.0
 40
0.0
 40
0.0
 40
0.1943518493
 40
0.2892027916
 40
0.381250012
 40
0.4696401143
 40
0.5535282545
 40
0.63209178
 40
0.7045874641
 40
0.7703137967
 40
0.8286550256
 40
0.8548744511
 40
0.8790452271
 40
0.9011134258
 40
0.9210257087
 40
0.9387331883
 40
0.9542025563
 40
0.9674064553
 40
0.9731517084
 40
0.9783226897
 40
0.9829185643
 40
0.9869416096
 40
0.9903966612
 40
0.9932922887
 40
0.9956442811
 40
0.9974838936
 40
0.9982321217
 40
0.9988838699
 40
0.9994622332
 40
1.0
 40
1.0
 40
1.0
 40
1.0
 10
-2.875
 20
14.23452134270001
 30
0.0
 10
-2.923773030599989
 20
14.23452134270001
 30
0.0
 10
-2.996349683999995
 20
14.23421607560001
 30
0.0
 10
-3.092019807200018
 20
14.23317641270001
 30
0.0
 10
-3.161095975899997
 20
14.23210416680001
 30
0.0
 10
-3.22741537600001
 20
14.23074348110001
 30
0.0
 10
-3.290343819200018
 20
14.22910946040001
 30
0.0
 10
-3.349274400100001
 20
14.22721653310001
 30
0.0
 10
-3.403636058399997
 20
14.22508650160001
 30
0.0
 10
-3.452908780799987
 20
14.22273894370001
 30
0.0
 10
-3.490561396200007
 20
14.22055514860001
 30
0.0
 10
-3.517784062000004
 20
14.21868786710001
 30
0.0
 10
-3.535914715199993
 20
14.21729830670001
 30
0.0
 10
-3.552454564100003
 20
14.21587351280001
 30
0.0
 10
-3.567362826699991
 20
14.21441732550001
 30
0.0
 10
-3.580603400000001
 20
14.21293363590001
 30
0.0
 10
-3.5921455278
 20
14.21142703030001
 30
0.0
 10
-3.600682451300003
 20
14.21010399440001
 30
0.0
 10
-3.606637346599996
 20
14.20901663670001
 30
0.0
 10
-3.610451411599996
 20
14.20823583370001
 30
0.0
 10
-3.613822600199995
 20
14.20745209400001
 30
0.0
 10
-3.6167497669
 20
14.20666636780001
 30
0.0
 10
-3.6192324294
 20
14.20587983250001
 30
0.0
 10
-3.62127244269999
 20
14.20509351570001
 30
0.0
 10
-3.622870584099985
 20
14.20430834930001
 30
0.0
 10
-3.623906495399979
 20
14.20361170190001
 30
0.0
 10
-3.624485752699997
 20
14.20303755420001
 30
0.0
 10
-3.624778666800012
 20
14.2026331146
 30
0.0
 10
-3.624958636700001
 20
14.20222316180001
 30
0.0
 10
-3.625
 20
14.20194175600001
 30
0.0
 10
-3.625
 20
14.20180680220001
 30
0.0
  0
SPLINE
  5
E7
330
1F
100
AcDbEntity
  8
Default
  6
Continuous
100
AcDbSpline
210
0.0
220
0.0
230
1.0
 70
     8
 71
     3
 72
    35
 73
    31
 74
     0
 42
0.0000000001
 43
0.0000000001
 40
0.0
 40
0.0
 40
0.0
 40
0.0
 40
0.0005377668
 40
0.0011161301
 40
0.0017678783
 40
0.0025161064
 40
0.0043557189
 40
0.0067077113
 40
0.0096033388
 40
0.0130583904
 40
0.0170814357
 40
0.0216773103
 40
0.0268482916
 40
0.0325935447
 40
0.0457974437
 40
0.0612668117
 40
0.0789742913
 40
0.0988865742
 40
0.1209547729
 40
0.1451255489
 40
0.1713449744
 40
0.2296862033
 40
0.2954125359
 40
0.36790822
 40
0.4464717455
 40
0.5303598857
 40
0.618749988
 40
0.7107972084
 40
0.8056481507
 40
1.0
 40
1.0
 40
1.0
 40
1.0
 10
3.625
 20
14.20180680220001
 30
0.0
 10
3.625
 20
14.20194175600001
 30
0.0
 10
3.624958636799988
 20
14.20222316180001
 30
0.0
 10
3.624778666800012
 20
14.2026331146
 30
0.0
 10
3.624485752800013
 20
14.20303755420001
 30
0.0
 10
3.623906495499995
 20
14.20361170190001
 30
0.0
 10
3.622870584200001
 20
14.20430834930001
 30
0.0
 10
3.621272442800006
 20
14.20509351570001
 30
0.0
 10
3.619232429500016
 20
14.20587983250001
 30
0.0
 10
3.616749766999988
 20
14.20666636780001
 30
0.0
 10
3.613822600300011
 20
14.20745209400001
 30
0.0
 10
3.610451411700012
 20
14.20823583370001
 30
0.0
 10
3.606637346699983
 20
14.20901663670001
 30
0.0
 10
3.600682451400019
 20
14.21010399440001
 30
0.0
 10
3.5921455278
 20
14.21142703030001
 30
0.0
 10
3.580603400100017
 20
14.21293363590001
 30
0.0
 10
3.567362826800007
 20
14.21441732550001
 30
0.0
 10
3.552454564199991
 20
14.21587351280001
 30
0.0
 10
3.535914715300009
 20
14.21729830670001
 30
0.0
 10
3.517784062000004
 20
14.21868786710001
 30
0.0
 10
3.490561396299995
 20
14.22055514860001
 30
0.0
 10
3.452908780900003
 20
14.22273894370001
 30
0.0
 10
3.403636058500012
 20
14.22508650160001
 30
0.0
 10
3.349274400199988
 20
14.22721653310001
 30
0.0
 10
3.290343819300006
 20
14.22910946040001
 30
0.0
 10
3.227415376099998
 20
14.23074348110001
 30
0.0
 10
3.161095975899997
 20
14.23210416680001
 30
0.0
 10
3.092019807300005
 20
14.23317641270001
 30
0.0
 10
2.996349684100011
 20
14.23421607560001
 30
0.0
 10
2.923773030599989
 20
14.23452134270001
 30
0.0
 10
2.875
 20
14.23452134270001
 30
0.0
  0
LINE
  5
E8
330
1F
100
AcDbEntity
  8
Default
  6
Continuous
100
AcDbLine
 10
0.551181102399994
 20
10.79978533780001
 30
0.0
 11
0.551181102399994
 21
8.793328644900008
 31
0.0
  0
LINE
  5
E9
330
1F
100
AcDbEntity
  8
Default
  6
Continuous
100
AcDbLine
 10
-0.5363702699999919
 20
11.38978533780001
 30
0.0
 11
-0.5511811023000064
 21
10.79978533780001
 31
0.0
  0
LINE
  5
EA
330
1F
100
AcDbEntity
  8
Default
  6
Continuous
100
AcDbLine
 10
3.625
 20
14.38912834380001
 30
0.0
 11
3.625
 21
13.96509576200001
 31
0.0
  0
LINE
  5
EB
330
1F
100
AcDbEntity
  8
Default
  6
Continuous
100
AcDbLine
 10
-2.875
 20
14.23452134270001
 30
0.0
 11
2.875
 21
14.23452134270001
 31
0.0
  0
LINE
  5
EC
330
1F
100
AcDbEntity
  8
Default
  6
Continuous
100
AcDbLine
 10
0.5363702700000204
 20
11.38978533780001
 30
0.0
 11
0.551181102399994
 21
10.79978533780001
 31
0.0
  0
LINE
  5
ED
330
1F
100
AcDbEntity
  8
Default
  6
Continuous
100
AcDbLine
 10
-3.625
 20
13.96509576200001
 30
0.0
 11
-3.625
 21
14.38912834380001
 31
0.0
  0
POLYLINE
  5
EE
330
1F
100
AcDbEntity
  8
Default
100
AcDb2dPolyline
 66
     1
 10
0.0
 20
0.0
 30
0.0
  0
VERTEX
  5
EF
330
EE
100
AcDbEntity
  8
Default
100
AcDbVertex
100
AcDb2dVertex
 10
2.632957016446795
 20
13.30102818113606
 30
0.0
  0
VERTEX
  5
F0
330
EE
100
AcDbEntity
  8
Default
100
AcDbVertex
100
AcDb2dVertex
 10
2.170331625100403
 20
13.30102818113606
 30
0.0
  0
SEQEND
  5
F1
330
EE
100
AcDbEntity
  8
Default
  0
SPLINE
  5
F2
330
1F
100
AcDbEntity
  8
Default
  6
Continuous
100
AcDbSpline
210
0.0
220
0.0
230
1.0
 70
     8
 71
     3
 72
     8
 73
     4
 74
     0
 42
0.0000000001
 43
0.0000000001
 40
0.0
 40
0.0
 40
0.0
 40
0.0
 40
1.0
 40
1.0
 40
1.0
 40
1.0
 10
-2.095443113300007
 20
13.17179405190001
 30
0.0
 10
-4.13026401948764
 20
13.16992128408987
 30
0.0
 10
-6.165087932660356
 20
13.17088679400509
 30
0.0
 10
-8.199906210150004
 20
13.17469085700001
 30
0.0
  0
SPLINE
  5
F3
330
1F
100
AcDbEntity
  8
Default
  6
Continuous
100
AcDbSpline
210
0.0
220
0.0
230
1.0
 70
     8
 71
     3
 72
     8
 73
     4
 74
     0
 42
0.0000000001
 43
0.0000000001
 40
0.0
 40
0.0
 40
0.0
 40
0.0
 40
1.0
 40
1.0
 40
1.0
 40
1.0
 10
-8.199906210150004
 20
13.17469085700001
 30
0.0
 10
-8.226627091291164
 20
13.1752802035509
 30
0.0
 10
-8.250525090123318
 20
13.1514183463781
 30
0.0
 10
-8.25
 20
13.12468026225001
 30
0.0
  0
LINE
  5
F4
330
1F
100
AcDbEntity
  8
Default
  6
Continuous
100
AcDbLine
 10
-8.25
 20
13.12468026225001
 30
0.0
 11
-8.25
 21
12.90489713000001
 31
0.0
  0
SPLINE
  5
F5
330
1F
100
AcDbEntity
  8
Default
  6
Continuous
100
AcDbSpline
210
0.0
220
0.0
230
1.0
 70
     8
 71
     3
 72
     8
 73
     4
 74
     0
 42
0.0000000001
 43
0.0000000001
 40
0.0
 40
0.0
 40
0.0
 40
0.0
 40
1.0
 40
1.0
 40
1.0
 40
1.0
 10
-8.25
 20
12.90489713000001
 30
0.0
 10
-8.250525083661898
 20
12.87816503806705
 30
0.0
 10
-8.226627098073237
 20
12.85430332630995
 30
0.0
 10
-8.199906202750014
 20
12.85488622045001
 30
0.0
  0
SPLINE
  5
F6
330
1F
100
AcDbEntity
  8
Default
  6
Continuous
100
AcDbSpline
210
0.0
220
0.0
230
1.0
 70
     8
 71
     3
 72
     8
 73
     4
 74
     0
 42
0.0000000001
 43
0.0000000001
 40
0.0
 40
0.0
 40
0.0
 40
0.0
 40
1.0
 40
1.0
 40
1.0
 40
1.0
 10
-8.199906202750014
 20
12.85488622045001
 30
0.0
 10
-6.0968117780032
 20
12.85878767781139
 30
0.0
 10
-3.993712047419081
 20
12.85973251335454
 30
0.0
 10
-1.890614957499992
 20
12.85757108960001
 30
0.0
  0
SPLINE
  5
F7
330
1F
100
AcDbEntity
  8
Default
  6
Continuous
100
AcDbSpline
210
0.0
220
0.0
230
1.0
 70
     8
 71
     3
 72
    12
 73
     8
 74
     0
 42
0.0000000001
 43
0.0000000001
 40
0.0
 40
0.0
 40
0.0
 40
0.0
 40
1.0
 40
2.0
 40
3.0
 40
4.0
 40
5.0
 40
5.0
 40
5.0
 40
5.0
 10
2.615363753099984
 20
14.17082329680001
 30
0.0
 10
2.267168323664151
 20
14.19265433107238
 30
0.0
 10
1.569784057244703
 20
14.21683086119529
 30
0.0
 10
0.5233046498392184
 20
14.23231264087772
 30
0.0
 10
-0.523304700662095
 20
14.23231264319179
 30
0.0
 10
-1.569784023824553
 20
14.21683086128222
 30
0.0
 10
-2.267168321939238
 20
14.19265433163243
 30
0.0
 10
-2.615363759800005
 20
14.17082329620001
 30
0.0
  0
ARC
  5
F8
330
1F
100
AcDbEntity
  8
Default
  6
Continuous
100
AcDbCircle
 10
-2.54802472962524
 20
13.09679530657934
 30
0.0
 40
1.076136918553346
100
AcDbArc
 50
93.58761463965162
 51
102.721321725761
  0
LINE
  5
F9
330
1F
100
AcDbEntity
  8
Default
  6
Continuous
100
AcDbLine
 10
-2.784999999999997
 20
14.14651593070001
 30
0.0
 11
-2.785000000000025
 21
14.05321764597825
 31
0.0
  0
LINE
  5
FA
330
1F
100
AcDbEntity
  8
Default
  6
Continuous
100
AcDbLine
 10
-2.785000000000025
 20
14.05321764597825
 30
0.0
 11
-2.685823578550014
 21
13.34822558900001
 31
0.0
  0
SPLINE
  5
FB
330
1F
100
AcDbEntity
  8
Default
  6
Continuous
100
AcDbSpline
210
0.0
220
0.0
230
1.0
 70
     8
 71
     3
 72
    12
 73
     8
 74
     0
 42
0.0000000001
 43
0.0000000001
 40
0.0
 40
0.0
 40
0.0
 40
0.0
 40
0.9999630501083864
 40
1.99997228758129
 40
2.999981525054193
 40
3.999990762527097
 40
5.0
 40
5.0
 40
5.0
 40
5.0
 10
-2.685823578550014
 20
13.34822558900001
 30
0.0
 10
-2.68440671752046
 20
13.33826736155393
 30
0.0
 10
-2.676942659833628
 20
13.31842426098748
 30
0.0
 10
-2.650584546951904
 20
13.30081926749996
 30
0.0
 10
-2.618941983967716
 20
13.29992178716802
 30
0.0
 10
-2.591354822129347
 20
13.31522957935802
 30
0.0
 10
-2.582229268289552
 20
13.33450915620807
 30
0.0
 10
-2.580848357104742
 20
13.34451805679777
 30
0.0
  0
LINE
  5
FC
330
1F
100
AcDbEntity
  8
Default
  6
Continuous
100
AcDbLine
 10
-2.580848357104742
 20
13.34451805679777
 30
0.0
 11
-2.559483555647944
 21
13.49399666943623
 31
0.0
  0
LINE
  5
FD
330
1F
100
AcDbEntity
  8
Default
  6
Continuous
100
AcDbLine
 10
-2.559483555647944
 20
13.49399666943623
 30
0.0
 11
-2.397308499100006
 21
13.52338365730001
 31
0.0
  0
POLYLINE
  5
FE
330
1F
100
AcDbEntity
  8
Default
  6
Continuous
100
AcDb2dPolyline
 66
     1
 10
0.0
 20
0.0
 30
0.0
  0
VERTEX
  5
FF
330
FE
100
AcDbEntity
  8
Default
  6
Continuous
100
AcDbVertex
100
AcDb2dVertex
 10
-2.397308499100006
 20
13.52338365730001
 30
0.0
  0
VERTEX
  5
100
330
FE
100
AcDbEntity
  8
Default
  6
Continuous
100
AcDbVertex
100
AcDb2dVertex
 10
-2.305392122800015
 20
13.53900064500001
 30
0.0
  0
VERTEX
  5
101
330
FE
100
AcDbEntity
  8
Default
  6
Continuous
100
AcDbVertex
100
AcDb2dVertex
 10
-2.207670063699993
 20
13.55449848600001
 30
0.0
  0
VERTEX
  5
102
330
FE
100
AcDbEntity
  8
Default
  6
Continuous
100
AcDbVertex
100
AcDb2dVertex
 10
-2.104094997900006
 20
13.56981759680001
 30
0.0
  0
VERTEX
  5
103
330
FE
100
AcDbEntity
  8
Default
  6
Continuous
100
AcDbVertex
100
AcDb2dVertex
 10
-1.994565909699986
 20
13.58488494240001
 30
0.0
  0
VERTEX
  5
104
330
FE
100
AcDbEntity
  8
Default
  6
Continuous
100
AcDbVertex
100
AcDb2dVertex
 10
-1.879515552399994
 20
13.59955946480001
 30
0.0
  0
VERTEX
  5
105
330
FE
100
AcDbEntity
  8
Default
  6
Continuous
100
AcDbVertex
100
AcDb2dVertex
 10
-1.760176883700012
 20
13.61361953910001
 30
0.0
  0
VERTEX
  5
106
330
FE
100
AcDbEntity
  8
Default
  6
Continuous
100
AcDbVertex
100
AcDb2dVertex
 10
-1.636703712200017
 20
13.62700051180001
 30
0.0
  0
VERTEX
  5
107
330
FE
100
AcDbEntity
  8
Default
  6
Continuous
100
AcDbVertex
100
AcDb2dVertex
 10
-1.509259159799996
 20
13.63962874320001
 30
0.0
  0
VERTEX
  5
108
330
FE
100
AcDbEntity
  8
Default
  6
Continuous
100
AcDbVertex
100
AcDb2dVertex
 10
-1.377823917299992
 20
13.65144402750001
 30
0.0
  0
VERTEX
  5
109
330
FE
100
AcDbEntity
  8
Default
  6
Continuous
100
AcDbVertex
100
AcDb2dVertex
 10
-1.24238265370002
 20
13.6623843385
 30
0.0
  0
VERTEX
  5
10A
330
FE
100
AcDbEntity
  8
Default
  6
Continuous
100
AcDbVertex
100
AcDb2dVertex
 10
-1.103021155299984
 20
13.67237576370001
 30
0.0
  0
VERTEX
  5
10B
330
FE
100
AcDbEntity
  8
Default
  6
Continuous
100
AcDbVertex
100
AcDb2dVertex
 10
-0.9609273782999992
 20
13.68128004410001
 30
0.0
  0
VERTEX
  5
10C
330
FE
100
AcDbEntity
  8
Default
  6
Continuous
100
AcDbVertex
100
AcDb2dVertex
 10
-0.8173152852999976
 20
13.68898727120001
 30
0.0
  0
VERTEX
  5
10D
330
FE
100
AcDbEntity
  8
Default
  6
Continuous
100
AcDbVertex
100
AcDb2dVertex
 10
-0.6721810084999902
 20
13.69547629750001
 30
0.0
  0
VERTEX
  5
10E
330
FE
100
AcDbEntity
  8
Default
  6
Continuous
100
AcDbVertex
100
AcDb2dVertex
 10
-0.525547283700007
 20
13.70072435150001
 30
0.0
  0
VERTEX
  5
10F
330
FE
100
AcDbEntity
  8
Default
  6
Continuous
100
AcDbVertex
100
AcDb2dVertex
 10
-0.3774339670000018
 20
13.70470792300001
 30
0.0
  0
VERTEX
  5
110
330
FE
100
AcDbEntity
  8
Default
  6
Continuous
100
AcDbVertex
100
AcDb2dVertex
 10
-0.2277756742000179
 20
13.70740220370001
 30
0.0
  0
VERTEX
  5
111
330
FE
100
AcDbEntity
  8
Default
  6
Continuous
100
AcDbVertex
100
AcDb2dVertex
 10
-0.0766128687000105
 20
13.70877074240001
 30
0.0
  0
VERTEX
  5
112
330
FE
100
AcDbEntity
  8
Default
  6
Continuous
100
AcDbVertex
100
AcDb2dVertex
 10
-0.0000034331000052
 20
13.70877619966378
 30
0.0
  0
SEQEND
  5
113
330
FE
100
AcDbEntity
  8
Default
  6
Continuous
  0
POLYLINE
  5
114
330
1F
100
AcDbEntity
  8
Default
  6
Continuous
100
AcDb2dPolyline
 66
     1
 10
0.0
 20
0.0
 30
0.0
  0
VERTEX
  5
115
330
114
100
AcDbEntity
  8
Default
  6
Continuous
100
AcDbVertex
100
AcDb2dVertex
 10
-0.0000034331000052
 20
13.70877619966378
 30
0.0
  0
VERTEX
  5
116
330
114
100
AcDbEntity
  8
Default
  6
Continuous
100
AcDbVertex
100
AcDb2dVertex
 10
0.0766060025000002
 20
13.70877074240001
 30
0.0
  0
VERTEX
  5
117
330
114
100
AcDbEntity
  8
Default
  6
Continuous
100
AcDbVertex
100
AcDb2dVertex
 10
0.2277688080000075
 20
13.70740220370001
 30
0.0
  0
VERTEX
  5
118
330
114
100
AcDbEntity
  8
Default
  6
Continuous
100
AcDbVertex
100
AcDb2dVertex
 10
0.3774271007999914
 20
13.70470792300001
 30
0.0
  0
VERTEX
  5
119
330
114
100
AcDbEntity
  8
Default
  6
Continuous
100
AcDbVertex
100
AcDb2dVertex
 10
0.5255404174999967
 20
13.70072435150001
 30
0.0
  0
VERTEX
  5
11A
330
114
100
AcDbEntity
  8
Default
  6
Continuous
100
AcDbVertex
100
AcDb2dVertex
 10
0.6721741422999798
 20
13.69547629750001
 30
0.0
  0
VERTEX
  5
11B
330
114
100
AcDbEntity
  8
Default
  6
Continuous
100
AcDbVertex
100
AcDb2dVertex
 10
0.8173084190999873
 20
13.68898727120001
 30
0.0
  0
VERTEX
  5
11C
330
114
100
AcDbEntity
  8
Default
  6
Continuous
100
AcDbVertex
100
AcDb2dVertex
 10
0.9609205120999889
 20
13.68128004410001
 30
0.0
  0
VERTEX
  5
11D
330
114
100
AcDbEntity
  8
Default
  6
Continuous
100
AcDbVertex
100
AcDb2dVertex
 10
1.103014289099974
 20
13.67237576370001
 30
0.0
  0
VERTEX
  5
11E
330
114
100
AcDbEntity
  8
Default
  6
Continuous
100
AcDbVertex
100
AcDb2dVertex
 10
1.242375787500009
 20
13.6623843385
 30
0.0
  0
VERTEX
  5
11F
330
114
100
AcDbEntity
  8
Default
  6
Continuous
100
AcDbVertex
100
AcDb2dVertex
 10
1.377817051099981
 20
13.65144402750001
 30
0.0
  0
VERTEX
  5
120
330
114
100
AcDbEntity
  8
Default
  6
Continuous
100
AcDbVertex
100
AcDb2dVertex
 10
1.509252293599985
 20
13.63962874320001
 30
0.0
  0
VERTEX
  5
121
330
114
100
AcDbEntity
  8
Default
  6
Continuous
100
AcDbVertex
100
AcDb2dVertex
 10
1.636696846000007
 20
13.62700051180001
 30
0.0
  0
VERTEX
  5
122
330
114
100
AcDbEntity
  8
Default
  6
Continuous
100
AcDbVertex
100
AcDb2dVertex
 10
1.760170017500002
 20
13.61361953910001
 30
0.0
  0
VERTEX
  5
123
330
114
100
AcDbEntity
  8
Default
  6
Continuous
100
AcDbVertex
100
AcDb2dVertex
 10
1.879508686199983
 20
13.59955946480001
 30
0.0
  0
VERTEX
  5
124
330
114
100
AcDbEntity
  8
Default
  6
Continuous
100
AcDbVertex
100
AcDb2dVertex
 10
1.994559043499976
 20
13.58488494240001
 30
0.0
  0
VERTEX
  5
125
330
114
100
AcDbEntity
  8
Default
  6
Continuous
100
AcDbVertex
100
AcDb2dVertex
 10
2.104088131699996
 20
13.56981759680001
 30
0.0
  0
VERTEX
  5
126
330
114
100
AcDbEntity
  8
Default
  6
Continuous
100
AcDbVertex
100
AcDb2dVertex
 10
2.207663197499983
 20
13.55449848600001
 30
0.0
  0
VERTEX
  5
127
330
114
100
AcDbEntity
  8
Default
  6
Continuous
100
AcDbVertex
100
AcDb2dVertex
 10
2.305385256600005
 20
13.53900064500001
 30
0.0
  0
VERTEX
  5
128
330
114
100
AcDbEntity
  8
Default
  6
Continuous
100
AcDbVertex
100
AcDb2dVertex
 10
2.397301632899996
 20
13.52338365730001
 30
0.0
  0
SEQEND
  5
129
330
114
100
AcDbEntity
  8
Default
  6
Continuous
  0
LINE
  5
12A
330
1F
100
AcDbEntity
  8
Default
  6
Continuous
100
AcDbLine
 10
2.397301632899996
 20
13.52338365730001
 30
0.0
 11
2.559476689447933
 21
13.49399666943623
 31
0.0
  0
LINE
  5
12B
330
1F
100
AcDbEntity
  8
Default
  6
Continuous
100
AcDbLine
 10
2.559476689447933
 20
13.49399666943623
 30
0.0
 11
2.580844924004737
 21
13.34451805679777
 31
0.0
  0
SPLINE
  5
12C
330
1F
100
AcDbEntity
  8
Default
  6
Continuous
100
AcDbSpline
210
0.0
220
0.0
230
1.0
 70
     8
 71
     3
 72
    12
 73
     8
 74
     0
 42
0.0000000001
 43
0.0000000001
 40
-5.0
 40
-5.0
 40
-5.0
 40
-5.0
 40
-3.99999076252709
 40
-2.99998152505418
 40
-1.99997228758127
 40
-0.99996305010836
 40
0.0
 40
0.0
 40
0.0
 40
0.0
 10
2.580844924004737
 20
13.34451805679777
 30
0.0
 10
2.582229268289552
 20
13.33450915620807
 30
0.0
 10
2.591354822129347
 20
13.31522957935802
 30
0.0
 10
2.618941983967716
 20
13.29992178716802
 30
0.0
 10
2.650584546951904
 20
13.30081926749996
 30
0.0
 10
2.6769426598336
 20
13.31842426098748
 30
0.0
 10
2.68440671752046
 20
13.33826736155393
 30
0.0
 10
2.685823578549986
 20
13.34822558900001
 30
0.0
  0
LINE
  5
12D
330
1F
100
AcDbEntity
  8
Default
  6
Continuous
100
AcDbLine
 10
2.685823578549986
 20
13.34822558900001
 30
0.0
 11
2.785000000000025
 21
14.05321764597825
 31
0.0
  0
LINE
  5
12E
330
1F
100
AcDbEntity
  8
Default
  6
Continuous
100
AcDbLine
 10
2.785000000000025
 20
14.05321764597825
 30
0.0
 11
2.784999999999997
 21
14.14651593070001
 31
0.0
  0
ARC
  5
12F
330
1F
100
AcDbEntity
  8
Default
  6
Continuous
100
AcDbCircle
 10
2.548024721997365
 20
13.09679526129653
 30
0.0
 40
1.076136964404298
100
AcDbArc
 50
77.27867840899646
 51
86.41238546390618
  0
ARC
  5
130
330
1F
100
AcDbEntity
  8
Default
  6
Continuous
100
AcDbCircle
 10
-2.875
 20
5.808390997971657
 30
0.0
 40
8.613451886328349
100
AcDbArc
 50
90.0
 51
94.99524713351741
  0
LINE
  5
131
330
1F
100
AcDbEntity
  8
Default
  6
Continuous
100
AcDbLine
 10
-2.875
 20
14.42184288430001
 30
0.0
 11
2.875
 21
14.42184288430001
 31
0.0
  0
ARC
  5
132
330
1F
100
AcDbEntity
  8
Default
  6
Continuous
100
AcDbCircle
 10
2.875
 20
5.808390997971657
 30
0.0
 40
8.61345188632835
100
AcDbArc
 50
85.0047528664826
 51
90.0
  0
SPLINE
  5
133
330
1F
100
AcDbEntity
  8
Default
  6
Continuous
100
AcDbSpline
210
0.0
220
0.0
230
1.0
 70
     8
 71
     3
 72
    12
 73
     8
 74
     0
 42
0.0000000001
 43
0.0000000001
 40
0.0
 40
0.0
 40
0.0
 40
0.0
 40
1.0
 40
2.0
 40
3.0
 40
4.0
 40
5.0
 40
5.0
 40
5.0
 40
5.0
 10
-2.281815014599999
 20
13.54273976260001
 30
0.0
 10
-2.22138306161844
 20
13.38169703327639
 30
0.0
 10
-2.049250541194738
 20
13.08354441623464
 30
0.0
 10
-1.755470878714902
 20
12.66109576887873
 30
0.0
 10
-1.438318708003465
 20
12.25451297512208
 30
0.0
 10
-1.127211118271816
 20
11.84812151004657
 30
0.0
 10
-0.9244924596455917
 20
11.56223675191868
 30
0.0
 10
-0.9000143339000033
 20
11.38978533780001
 30
0.0
  0
LINE
  5
134
330
1F
100
AcDbEntity
  8
Default
  6
Continuous
100
AcDbLine
 10
-0.9000143339000033
 20
11.38978533780001
 30
0.0
 11
0.900010901249999
 21
11.38978533780001
 31
0.0
  0
SPLINE
  5
135
330
1F
100
AcDbEntity
  8
Default
  6
Continuous
100
AcDbSpline
210
0.0
220
0.0
230
1.0
 70
     8
 71
     3
 72
    12
 73
     8
 74
     0
 42
0.0000000001
 43
0.0000000001
 40
-5.0
 40
-5.0
 40
-5.0
 40
-5.0
 40
-4.000000738231605
 40
-3.000000553673703
 40
-2.000000369115802
 40
-1.000000184557901
 40
0.0
 40
0.0
 40
0.0
 40
0.0
 10
0.900010901249999
 20
11.38978533780001
 30
0.0
 10
0.9244857805122138
 20
11.56223701573008
 30
0.0
 10
1.127204347767389
 20
11.84812163505114
 30
0.0
 10
1.438311841803454
 20
12.25451297512208
 30
0.0
 10
1.755464012514892
 20
12.66109576887873
 30
0.0
 10
2.049243674994727
 20
13.08354441623464
 30
0.0
 10
2.221376195418429
 20
13.38169703327639
 30
0.0
 10
2.281808148399989
 20
13.54273976260001
 30
0.0
  0
POLYLINE
  5
136
330
1F
100
AcDbEntity
  8
Default
100
AcDb2dPolyline
 66
     1
 10
0.0
 20
0.0
 30
0.0
  0
VERTEX
  5
137
330
136
100
AcDbEntity
  8
Default
100
AcDbVertex
100
AcDb2dVertex
 10
-2.632957016446795
 20
13.30102818113606
 30
0.0
  0
VERTEX
  5
138
330
136
100
AcDbEntity
  8
Default
100
AcDbVertex
100
AcDb2dVertex
 10
-2.170331625100403
 20
13.30102818113606
 30
0.0
  0
SEQEND
  5
139
330
136
100
AcDbEntity
  8
Default
  0
LINE
  5
13A
330
1F
100
AcDbEntity
  8
Default
  6
Continuous
100
AcDbLine
 10
-0.8592452124499914
 20
8.793327392750008
 30
0.0
 11
0.8592452125000136
 21
8.793327392750008
 31
0.0
  0
LINE
  5
13B
330
1F
100
AcDbEntity
  8
Default
  6
Continuous
100
AcDbLine
 10
0.8592452125000136
 20
8.793327392750008
 30
0.0
 11
0.9804499708000094
 21
8.672124730000007
 31
0.0
  0
LINE
  5
13C
330
1F
100
AcDbEntity
  8
Default
  6
Continuous
100
AcDbLine
 10
29.49963984291088
 20
13.91392373950001
 30
0.0
 11
29.49146120781089
 21
14.10124528110001
 31
0.0
  0
ARC
  5
13D
330
1F
100
AcDbEntity
  8
Default
  6
Continuous
100
AcDbCircle
 10
30.39739948711087
 20
11.3890934643
 30
0.0
 40
1.2193874361
100
AcDbArc
 50
0.0327392560001277
 51
1.067967634200175
  0
SPLINE
  5
13E
330
1F
100
AcDbEntity
  8
Default
  6
Continuous
100
AcDbSpline
210
0.0
220
0.0
230
1.0
 70
     8
 71
     3
 72
    11
 73
     7
 74
     0
 42
0.0000000001
 43
0.0000000001
 40
0.0
 40
0.0
 40
0.0
 40
0.0
 40
1.0
 40
2.0
 40
3.0
 40
4.0
 40
4.0
 40
4.0
 40
4.0
 10
29.93581401111088
 20
13.38065868370001
 30
0.0
 10
30.02641885022813
 20
13.20235674775952
 30
0.0
 10
30.24019096922549
 20
12.86409228481595
 30
0.0
 10
30.60310048439239
 20
12.38557900058775
 30
0.0
 10
30.9673689920653
 20
11.91363857461869
 30
0.0
 10
31.21404636962417
 20
11.58876943638701
 30
0.0
 10
31.25068880011088
 20
11.3897902317
 30
0.0
  0
LINE
  5
13F
330
1F
100
AcDbEntity
  8
Default
  6
Continuous
100
AcDbLine
 10
31.25068880011088
 20
11.3897902317
 30
0.0
 11
33.05069365221088
 21
11.3897902317
 31
0.0
  0
SPLINE
  5
140
330
1F
100
AcDbEntity
  8
Default
  6
Continuous
100
AcDbSpline
210
0.0
220
0.0
230
1.0
 70
     8
 71
     3
 72
    15
 73
    11
 74
     0
 42
0.0000000001
 43
0.0000000001
 40
0.0
 40
0.0
 40
0.0
 40
0.0
 40
1.0
 40
2.0
 40
3.0
 40
4.0
 40
5.0
 40
6.0
 40
7.0
 40
8.0
 40
8.0
 40
8.0
 40
8.0
 10
33.05069365221088
 20
11.3897902317
 30
0.0
 10
33.08510921438958
 20
11.5607704030349
 30
0.0
 10
33.37910800831807
 20
11.75741783715142
 30
0.0
 10
33.81075511109655
 20
11.99754005491091
 30
0.0
 10
34.26254439551056
 20
12.21992820451987
 30
0.0
 10
34.71042608480508
 20
12.44414377988383
 30
0.0
 10
35.1528001282752
 20
12.68076442572471
 30
0.0
 10
35.58086620059419
 20
12.94246592901501
 30
0.0
 10
35.98073130518968
 20
13.24685668375252
 30
0.0
 10
36.20206977874624
 20
13.50192620557358
 30
0.0
 10
36.28011833101088
 20
13.65045653110001
 30
0.0
  0
LINE
  5
141
330
1F
100
AcDbEntity
  8
Default
  6
Continuous
100
AcDbLine
 10
32.68706698781088
 20
11.3895746435
 30
0.0
 11
32.70187240821087
 21
10.79979023170001
 31
0.0
  0
LINE
  5
142
330
1F
100
AcDbEntity
  8
Default
  6
Continuous
100
AcDbLine
 10
32.70187240821087
 20
10.79979023170001
 30
0.0
 11
32.70187240821087
 21
8.793333538800006
 31
0.0
  0
SPLINE
  5
143
330
1F
100
AcDbEntity
  8
Default
100
AcDbSpline
210
0.0
220
0.0
230
1.0
 70
    15
 71
     2
 72
    12
 73
     9
 74
     0
 42
0.0000000001
 43
0.0000000001
 40
0.0
 40
0.0
 40
0.0
 40
1.570796326794897
 40
1.570796326794897
 40
3.141592653589793
 40
3.141592653589793
 40
4.71238898038469
 40
4.71238898038469
 40
6.283185307179586
 40
6.283185307179586
 40
6.283185307179586
 10
32.46215863102088
 20
13.01450304374117
 30
0.0
 41
1.0
 10
32.46200975767555
 20
12.85327785179153
 30
0.0
 41
0.7071067811865475
 10
32.15054317112308
 20
12.85356545617974
 30
0.0
 41
1.0
 10
31.83907658457057
 20
12.85385306056796
 30
0.0
 41
0.7071067811865475
 10
31.83922545791589
 20
13.0150782525176
 30
0.0
 41
1.0
 10
31.8393743312612
 20
13.17630344446724
 30
0.0
 41
0.7071067811865475
 10
32.1508409178137
 20
13.17601584007902
 30
0.0
 41
1.0
 10
32.46230750436619
 20
13.17572823569081
 30
0.0
 41
0.7071067811865475
 10
32.46215863102088
 20
13.01450304374117
 30
0.0
 41
1.0
  0
LINE
  5
144
330
1F
100
AcDbEntity
  8
Default
  6
Continuous
100
AcDbLine
 10
31.61431562391088
 20
11.3895746435
 30
0.0
 11
31.59951020351087
 21
10.79979023170001
 31
0.0
  0
LINE
  5
145
330
1F
100
AcDbEntity
  8
Default
  6
Continuous
100
AcDbLine
 10
29.44928551211088
 20
13.91172522190001
 30
0.0
 11
36.84264427151088
 21
14.2345262366
 31
0.0
  0
LINE
  5
146
330
1F
100
AcDbEntity
  8
Default
  6
Continuous
100
AcDbLine
 10
36.84264427151088
 20
14.2345262366
 30
0.0
 11
36.83446563641088
 21
14.4218477782
 31
0.0
  0
LINE
  5
147
330
1F
100
AcDbEntity
  8
Default
100
AcDbLine
 10
29.44928635251088
 20
13.91172525860001
 30
0.0
 11
29.53442736981089
 21
13.45234543880001
 31
0.0
  0
SPLINE
  5
148
330
1F
100
AcDbEntity
  8
Default
100
AcDbSpline
210
0.0
220
0.0
230
1.0
 70
     8
 71
     3
 72
     8
 73
     4
 74
     0
 42
0.0000000001
 43
0.0000000001
 40
-1.0
 40
-1.0
 40
-1.0
 40
-1.0
 40
0.0
 40
0.0
 40
0.0
 40
0.0
 10
29.53442736981089
 20
13.45234543880001
 30
0.0
 10
29.53809432801992
 20
13.43256030286083
 30
0.0
 10
29.55901754303063
 20
13.41357357836046
 30
0.0
 10
29.57905136759541
 20
13.41169101097875
 30
0.0
  0
ARC
  5
149
330
1F
100
AcDbEntity
  8
Default
100
AcDbCircle
 10
32.01155429938444
 20
39.29779605154779
 30
0.0
 40
26.00014432045592
100
AcDbArc
 50
264.6317114663
 51
269.6332936003186
  0
ARC
  5
14A
330
1F
100
AcDbEntity
  8
Default
100
AcDbCircle
 10
31.84546843571911
 20
13.34818322709869
 30
0.0
 40
0.049999999991672
100
AcDbArc
 50
269.633293552224
 51
350.8916442475994
  0
LINE
  5
14B
330
1F
100
AcDbEntity
  8
Default
100
AcDbLine
 10
31.89483797227125
 20
13.34026812382748
 30
0.0
 11
31.92852839128918
 21
13.550408196426
 31
0.0
  0
ARC
  5
14C
330
1F
100
AcDbEntity
  8
Default
100
AcDbCircle
 10
32.15069130581088
 20
13.5147902317
 30
0.0
 40
0.225
100
AcDbArc
 50
9.108355752300183
 51
170.8916442477003
  0
LINE
  5
14D
330
1F
100
AcDbEntity
  8
Default
100
AcDbLine
 10
32.37285422033258
 20
13.550408196426
 30
0.0
 11
32.40602128775049
 21
13.34353246922765
 31
0.0
  0
ARC
  5
14E
330
1F
100
AcDbEntity
  8
Default
100
AcDbCircle
 10
32.4553908242539
 20
13.35144757249087
 30
0.0
 40
0.0499999999422856
100
AcDbArc
 50
189.1083557522009
 51
270.9800022879447
  0
ARC
  5
14F
330
1F
100
AcDbEntity
  8
Default
100
AcDbCircle
 10
32.01155429854504
 20
39.29779605333881
 30
0.0
 40
26.00014432229922
100
AcDbArc
 50
270.9800022455709
 51
280.3682838781992
  0
SPLINE
  5
150
330
1F
100
AcDbEntity
  8
Default
100
AcDbSpline
210
0.0
220
0.0
230
1.0
 70
     8
 71
     3
 72
     8
 73
     4
 74
     0
 42
0.0000000001
 43
0.0000000001
 40
0.0
 40
0.0
 40
0.0
 40
0.0
 40
1.0
 40
1.0
 40
1.0
 40
1.0
 10
36.69092145615805
 20
13.72220167540419
 30
0.0
 10
36.71042188222907
 20
13.72576951636881
 30
0.0
 10
36.72988846206493
 20
13.74567583224104
 30
0.0
 10
36.73178854011088
 20
13.7654086934
 30
0.0
  0
LINE
  5
151
330
1F
100
AcDbEntity
  8
Default
100
AcDbLine
 10
36.73178854011088
 20
13.7654086934
 30
0.0
 11
36.77668147001089
 21
14.2316347806
 31
0.0
  0
ARC
  5
152
330
1F
100
AcDbEntity
  8
Default
100
AcDbCircle
 10
3.2187666847
 20
16.78842848967328
 30
0.0
 40
2.852408315373275
100
AcDbArc
 50
270.0
 51
278.1877700108407
  0
LINE
  5
153
330
1F
100
AcDbEntity
  8
Default
100
AcDbLine
 10
3.2187666847
 20
13.9360201743
 30
0.0
 11
2.768512969076767
 21
13.9360201743
 31
0.0
  0
LINE
  5
154
330
1F
100
AcDbEntity
  8
Default
100
AcDbLine
 10
-2.768512969076795
 20
13.9360201743
 30
0.0
 11
-3.218766684599984
 21
13.9360201743
 31
0.0
  0
ARC
  5
155
330
1F
100
AcDbEntity
  8
Default
100
AcDbCircle
 10
-3.218766684599984
 20
16.78842849107064
 30
0.0
 40
2.852408316770632
100
AcDbArc
 50
261.8122299911685
 51
270.0
  0
SPLINE
  5
156
330
1F
100
AcDbEntity
  8
Default
100
AcDbSpline
210
0.0
220
0.0
230
1.0
 70
    24
 71
     2
 72
     6
 73
     3
 74
     0
 42
0.0000000001
 43
0.0000000001
 40
0.0
 40
0.0
 40
0.0
 40
0.0829573442459193
 40
0.0829573442459193
 40
0.0829573442459193
 10
7.390500020557451
 20
2.779590879554846
 30
0.0
 10
7.396903368557687
 20
2.738609452353345
 30
0.0
 10
7.403306716557922
 20
2.697628025151845
 30
0.0
  0
POLYLINE
  5
157
330
1F
100
AcDbEntity
  8
Default
100
AcDb2dPolyline
 66
     1
 10
0.0
 20
0.0
 30
0.0
  0
VERTEX
  5
158
330
157
100
AcDbEntity
  8
Default
100
AcDbVertex
100
AcDb2dVertex
 10
8.103613412558573
 20
2.779590879554846
 30
0.0
  0
VERTEX
  5
159
330
157
100
AcDbEntity
  8
Default
100
AcDbVertex
100
AcDb2dVertex
 10
7.390500020557451
 20
2.779590879554846
 30
0.0
  0
SEQEND
  5
15A
330
157
100
AcDbEntity
  8
Default
  0
SPLINE
  5
15B
330
1F
100
AcDbEntity
  8
Default
100
AcDbSpline
210
0.0
220
0.0
230
1.0
 70
    24
 71
     2
 72
     6
 73
     3
 74
     0
 42
0.0000000001
 43
0.0000000001
 40
0.0
 40
0.0
 40
0.0
 40
0.0829573442459193
 40
0.0829573442459193
 40
0.0829573442459193
 10
8.090806716558102
 20
2.697628025151845
 30
0.0
 10
8.097210064558338
 20
2.738609452353345
 30
0.0
 10
8.103613412558573
 20
2.779590879554846
 30
0.0
  0
SPLINE
  5
15C
330
1F
100
AcDbEntity
  8
Default
100
AcDbSpline
210
0.0
220
0.0
230
1.0
 70
    24
 71
     2
 72
     6
 73
     3
 74
     0
 42
0.0000000001
 43
0.0000000001
 40
-0.34375
 40
-0.34375
 40
-0.34375
 40
0.0
 40
0.0
 40
0.0
 10
7.340806716558011
 20
0.137628025151855
 30
0.0
 10
7.168931716558011
 20
0.1376280251518551
 30
0.0
 10
6.997056716558011
 20
0.1376280251518551
 30
0.0
  0
SPLINE
  5
15D
330
1F
100
AcDbEntity
  8
Default
100
AcDbSpline
210
0.0
220
0.0
230
1.0
 70
    12
 71
     2
 72
     8
 73
     5
 74
     0
 42
0.0000000001
 43
0.0000000001
 40
0.0
 40
0.0
 40
0.0
 40
0.0245437074331706
 40
0.0245437074331706
 40
0.0490874148663432
 40
0.0490874148663432
 40
0.0490874148663432
 10
7.372056716558004
 20
0.1714037086807126
 30
0.0
 41
1.0
 10
7.372056728841093
 20
0.1559338722962469
 30
0.0
 41
0.9238794417266645
 10
7.362903813954364
 20
0.1467809487240501
 30
0.0
 41
1.0
 10
7.353750899067625
 20
0.1376280251518578
 30
0.0
 41
0.9238794417266113
 10
7.340806716558011
 20
0.137628025151855
 30
0.0
 41
1.0
  0
SPLINE
  5
15E
330
1F
100
AcDbEntity
  8
Default
100
AcDbSpline
210
0.0
220
0.0
230
1.0
 70
    24
 71
     2
 72
     6
 73
     3
 74
     0
 42
0.0000000001
 43
0.0000000001
 40
0.0
 40
0.0
 40
0.0
 40
2.492448632942286
 40
2.492448632942286
 40
2.492448632942286
 10
7.372056716558004
 20
2.666377995497855
 30
0.0
 10
7.372056716558004
 20
1.418890852089284
 30
0.0
 10
7.372056716558004
 20
0.1714037086807126
 30
0.0
  0
SPLINE
  5
15F
330
1F
100
AcDbEntity
  8
Default
100
AcDbSpline
210
0.0
220
0.0
230
1.0
 70
    12
 71
     2
 72
     8
 73
     5
 74
     0
 42
0.0000000001
 43
0.0000000001
 40
0.0
 40
0.0
 40
0.0
 40
0.0245437074331701
 40
0.0245437074331701
 40
0.0490874148663453
 40
0.0490874148663453
 40
0.0490874148663453
 10
7.340806716558011
 20
2.697628025151856
 30
0.0
 41
1.0
 10
7.353750899067625
 20
2.697628025151854
 30
0.0
 41
0.9238794417266487
 10
7.362903813954364
 20
2.688475101579666
 30
0.0
 41
1.0
 10
7.372056728841093
 20
2.679322178007466
 30
0.0
 41
0.9238794417267178
 10
7.372056716558004
 20
2.666377995497855
 30
0.0
 41
1.0
  0
SPLINE
  5
160
330
1F
100
AcDbEntity
  8
Default
100
AcDbSpline
210
0.0
220
0.0
230
1.0
 70
    24
 71
     2
 72
     6
 73
     3
 74
     0
 42
0.0000000001
 43
0.0000000001
 40
-0.34375
 40
-0.34375
 40
-0.34375
 40
0.0
 40
0.0
 40
0.0
 10
6.997056716558011
 20
2.697628025151856
 30
0.0
 10
7.168931716558011
 20
2.697628025151856
 30
0.0
 10
7.340806716558011
 20
2.697628025151856
 30
0.0
  0
SPLINE
  5
161
330
1F
100
AcDbEntity
  8
Default
100
AcDbSpline
210
0.0
220
0.0
230
1.0
 70
    12
 71
     2
 72
     6
 73
     3
 74
     0
 42
0.0000000001
 43
0.0000000001
 40
0.0
 40
0.0
 40
0.0
 40
0.196349540849363
 40
0.196349540849363
 40
0.196349540849363
 10
6.872056716558011
 20
2.570291984875793
 30
0.0
 41
1.0
 10
6.872056716558009
 20
2.697628025151857
 30
0.0
 41
0.707106781186545
 10
6.997056716558011
 20
2.697628025151856
 30
0.0
 41
1.0
  0
SPLINE
  5
162
330
1F
100
AcDbEntity
  8
Default
100
AcDbSpline
210
0.0
220
0.0
230
1.0
 70
    24
 71
     2
 72
     6
 73
     3
 74
     0
 42
0.0000000001
 43
0.0000000001
 40
0.0
 40
0.0
 40
0.0
 40
2.305327919447875
 40
2.305327919447875
 40
2.305327919447875
 10
6.872056716558011
 20
0.2626280251518551
 30
0.0
 10
6.872056716558011
 20
1.416460005013824
 30
0.0
 10
6.872056716558011
 20
2.570291984875793
 30
0.0
  0
SPLINE
  5
163
330
1F
100
AcDbEntity
  8
Default
100
AcDbSpline
210
0.0
220
0.0
230
1.0
 70
    12
 71
     2
 72
     6
 73
     3
 74
     0
 42
0.0000000001
 43
0.0000000001
 40
0.0
 40
0.0
 40
0.0
 40
0.1963495408493627
 40
0.1963495408493627
 40
0.1963495408493627
 10
6.997056716558011
 20
0.1376280251518551
 30
0.0
 41
1.0
 10
6.87205671655801
 20
0.1376280251518551
 30
0.0
 41
0.7071067811865437
 10
6.872056716558011
 20
0.2626280251518551
 30
0.0
 41
1.0
  0
SPLINE
  5
164
330
1F
100
AcDbEntity
  8
Default
100
AcDbSpline
210
0.0
220
0.0
230
1.0
 70
    24
 71
     2
 72
     6
 73
     3
 74
     0
 42
0.0000000001
 43
0.0000000001
 40
0.0
 40
0.0
 40
0.0
 40
0.7187500000000018
 40
0.7187500000000018
 40
0.7187500000000018
 10
8.106431716558014
 20
2.697628025151856
 30
0.0
 10
7.747056716558012
 20
2.697628025151856
 30
0.0
 10
7.387681716558011
 20
2.697628025151856
 30
0.0
  0
LINE
  5
165
330
1F
100
AcDbEntity
  8
Default
100
AcDbLine
 10
8.106431716558014
 20
0.9801280251518545
 30
0.0
 11
8.106431716558014
 21
2.697628025151856
 31
0.0
  0
SPLINE
  5
166
330
1F
100
AcDbEntity
  8
Default
100
AcDbSpline
210
0.0
220
0.0
230
1.0
 70
    24
 71
     2
 72
     6
 73
     3
 74
     0
 42
0.0000000001
 43
0.0000000001
 40
0.0
 40
0.0
 40
0.0
 40
0.7187500000000018
 40
0.7187500000000018
 40
0.7187500000000018
 10
7.387681716558011
 20
0.9801280251518545
 30
0.0
 10
7.747056716558012
 20
0.9801280251518545
 30
0.0
 10
8.106431716558014
 20
0.9801280251518545
 30
0.0
  0
LINE
  5
167
330
1F
100
AcDbEntity
  8
Default
100
AcDbLine
 10
7.387681716558011
 20
2.697628025151856
 30
0.0
 11
7.387681716558011
 21
0.9801280251518545
 31
0.0
  0
SPLINE
  5
168
330
1F
100
AcDbEntity
  8
Default
100
AcDbSpline
210
0.0
220
0.0
230
1.0
 70
    24
 71
     2
 72
     6
 73
     3
 74
     0
 42
0.0000000001
 43
0.0000000001
 40
0.0
 40
0.0
 40
0.0
 40
2.305327919447875
 40
2.305327919447875
 40
2.305327919447875
 10
8.622056716558014
 20
2.572628025151856
 30
0.0
 10
8.622056716558014
 20
1.418796045289887
 30
0.0
 10
8.622056716558014
 20
0.2649640654279177
 30
0.0
  0
SPLINE
  5
169
330
1F
100
AcDbEntity
  8
Default
100
AcDbSpline
210
0.0
220
0.0
230
1.0
 70
    12
 71
     2
 72
     6
 73
     3
 74
     0
 42
0.0000000001
 43
0.0000000001
 40
0.0
 40
0.0
 40
0.0
 40
0.1963495408493616
 40
0.1963495408493616
 40
0.1963495408493616
 10
8.497056716558014
 20
2.697628025151856
 30
0.0
 41
1.0
 10
8.622056716558014
 20
2.697628025151855
 30
0.0
 41
0.707106781186545
 10
8.622056716558014
 20
2.572628025151856
 30
0.0
 41
1.0
  0
SPLINE
  5
16A
330
1F
100
AcDbEntity
  8
Default
100
AcDbSpline
210
0.0
220
0.0
230
1.0
 70
    24
 71
     2
 72
     6
 73
     3
 74
     0
 42
0.0000000001
 43
0.0000000001
 40
-0.34375
 40
-0.34375
 40
-0.34375
 40
0.0
 40
0.0
 40
0.0
 10
8.153306716558014
 20
2.697628025151856
 30
0.0
 10
8.325181716558014
 20
2.697628025151856
 30
0.0
 10
8.497056716558014
 20
2.697628025151856
 30
0.0
  0
SPLINE
  5
16B
330
1F
100
AcDbEntity
  8
Default
100
AcDbSpline
210
0.0
220
0.0
230
1.0
 70
    12
 71
     2
 72
     8
 73
     5
 74
     0
 42
0.0000000001
 43
0.0000000001
 40
0.0
 40
0.0
 40
0.0
 40
0.0245437074326705
 40
0.0245437074326705
 40
0.0490874148653448
 40
0.0490874148653448
 40
0.0490874148653448
 10
8.12205671655802
 20
2.663852341623996
 30
0.0
 41
1.0
 10
8.122056704275339
 20
2.679322178008172
 30
0.0
 41
0.9238794417296411
 10
8.13120961916201
 20
2.688475101580014
 30
0.0
 41
1.0
 10
8.14036253404869
 20
2.697628025151853
 30
0.0
 41
0.9238794417296741
 10
8.153306716558014
 20
2.697628025151856
 30
0.0
 41
1.0
  0
SPLINE
  5
16C
330
1F
100
AcDbEntity
  8
Default
100
AcDbSpline
210
0.0
220
0.0
230
1.0
 70
    24
 71
     2
 72
     6
 73
     3
 74
     0
 42
0.0000000001
 43
0.0000000001
 40
0.0
 40
0.0
 40
0.0
 40
2.492448632944281
 40
2.492448632944281
 40
2.492448632944281
 10
8.12205671655802
 20
0.1688780548048552
 30
0.0
 10
8.12205671655802
 20
1.416365198214426
 30
0.0
 10
8.12205671655802
 20
2.663852341623996
 30
0.0
  0
SPLINE
  5
16D
330
1F
100
AcDbEntity
  8
Default
100
AcDbSpline
210
0.0
220
0.0
230
1.0
 70
    12
 71
     2
 72
     8
 73
     5
 74
     0
 42
0.0000000001
 43
0.0000000001
 40
0.0
 40
0.0
 40
0.0
 40
0.0245437074326741
 40
0.0245437074326741
 40
0.0490874148653442
 40
0.0490874148653442
 40
0.0490874148653442
 10
8.153306716558014
 20
0.1376280251518551
 30
0.0
 41
1.0
 10
8.14036253404869
 20
0.1376280251518584
 30
0.0
 41
0.9238794417296992
 10
8.13120961916201
 20
0.1467809487236965
 30
0.0
 41
1.0
 10
8.12205670427534
 20
0.1559338722955394
 30
0.0
 41
0.9238794417296726
 10
8.12205671655802
 20
0.1688780548048552
 30
0.0
 41
1.0
  0
SPLINE
  5
16E
330
1F
100
AcDbEntity
  8
Default
100
AcDbSpline
210
0.0
220
0.0
230
1.0
 70
    24
 71
     2
 72
     6
 73
     3
 74
     0
 42
0.0000000001
 43
0.0000000001
 40
-0.34375
 40
-0.34375
 40
-0.34375
 40
0.0
 40
0.0
 40
0.0
 10
8.497056716558014
 20
0.1376280251518552
 30
0.0
 10
8.325181716558014
 20
0.1376280251518551
 30
0.0
 10
8.153306716558014
 20
0.1376280251518551
 30
0.0
  0
SPLINE
  5
16F
330
1F
100
AcDbEntity
  8
Default
100
AcDbSpline
210
0.0
220
0.0
230
1.0
 70
    12
 71
     2
 72
     6
 73
     3
 74
     0
 42
0.0000000001
 43
0.0000000001
 40
0.0
 40
0.0
 40
0.0
 40
0.1963495408493624
 40
0.1963495408493624
 40
0.1963495408493624
 10
8.622056716558014
 20
0.2649640654279177
 30
0.0
 41
1.0
 10
8.622056716558014
 20
0.1376280251518551
 30
0.0
 41
0.7071067811865427
 10
8.497056716558014
 20
0.1376280251518552
 30
0.0
 41
1.0
  0
SPLINE
  5
170
330
1F
100
AcDbEntity
  8
Default
100
AcDbSpline
210
0.0
220
0.0
230
1.0
 70
    24
 71
     2
 72
     6
 73
     3
 74
     0
 42
0.0000000001
 43
0.0000000001
 40
0.0
 40
0.0
 40
0.0
 40
0.0829573442459237
 40
0.0829573442459237
 40
0.0829573442459237
 10
12.17844438414441
 20
2.779590879554846
 30
0.0
 10
12.18484773214466
 20
2.738609452353345
 30
0.0
 10
12.19125108014491
 20
2.697628025151845
 30
0.0
  0
POLYLINE
  5
171
330
1F
100
AcDbEntity
  8
Default
100
AcDb2dPolyline
 66
     1
 10
0.0
 20
0.0
 30
0.0
  0
VERTEX
  5
172
330
171
100
AcDbEntity
  8
Default
100
AcDbVertex
100
AcDb2dVertex
 10
12.89155777614561
 20
2.779590879554846
 30
0.0
  0
VERTEX
  5
173
330
171
100
AcDbEntity
  8
Default
100
AcDbVertex
100
AcDb2dVertex
 10
12.17844438414441
 20
2.779590879554846
 30
0.0
  0
SEQEND
  5
174
330
171
100
AcDbEntity
  8
Default
  0
SPLINE
  5
175
330
1F
100
AcDbEntity
  8
Default
100
AcDbSpline
210
0.0
220
0.0
230
1.0
 70
    24
 71
     2
 72
     6
 73
     3
 74
     0
 42
0.0000000001
 43
0.0000000001
 40
0.0
 40
0.0
 40
0.0
 40
0.0829573442459237
 40
0.0829573442459237
 40
0.0829573442459237
 10
12.87875108014511
 20
2.697628025151845
 30
0.0
 10
12.88515442814536
 20
2.738609452353345
 30
0.0
 10
12.89155777614561
 20
2.779590879554846
 30
0.0
  0
SPLINE
  5
176
330
1F
100
AcDbEntity
  8
Default
100
AcDbSpline
210
0.0
220
0.0
230
1.0
 70
    24
 71
     2
 72
     6
 73
     3
 74
     0
 42
0.0000000001
 43
0.0000000001
 40
0.0
 40
0.0
 40
0.0
 40
2.305327919447875
 40
2.305327919447875
 40
2.305327919447875
 10
13.41000108014502
 20
2.572628025151856
 30
0.0
 10
13.41000108014502
 20
1.418796045289887
 30
0.0
 10
13.41000108014502
 20
0.2649640654279177
 30
0.0
  0
SPLINE
  5
177
330
1F
100
AcDbEntity
  8
Default
100
AcDbSpline
210
0.0
220
0.0
230
1.0
 70
    12
 71
     2
 72
     6
 73
     3
 74
     0
 42
0.0000000001
 43
0.0000000001
 40
0.0
 40
0.0
 40
0.0
 40
0.1963495408493628
 40
0.1963495408493628
 40
0.1963495408493628
 10
13.28500108014501
 20
2.697628025151856
 30
0.0
 41
1.0
 10
13.41000108014501
 20
2.697628025151856
 30
0.0
 41
0.7071067811865535
 10
13.41000108014502
 20
2.572628025151856
 30
0.0
 41
1.0
  0
SPLINE
  5
178
330
1F
100
AcDbEntity
  8
Default
100
AcDbSpline
210
0.0
220
0.0
230
1.0
 70
    24
 71
     2
 72
     6
 73
     3
 74
     0
 42
0.0000000001
 43
0.0000000001
 40
-0.34375
 40
-0.34375
 40
-0.34375
 40
0.0
 40
0.0
 40
0.0
 10
12.94125108014501
 20
2.697628025151856
 30
0.0
 10
13.11312608014501
 20
2.697628025151856
 30
0.0
 10
13.28500108014501
 20
2.697628025151856
 30
0.0
  0
SPLINE
  5
179
330
1F
100
AcDbEntity
  8
Default
100
AcDbSpline
210
0.0
220
0.0
230
1.0
 70
    12
 71
     2
 72
     8
 73
     5
 74
     0
 42
0.0000000001
 43
0.0000000001
 40
0.0
 40
0.0
 40
0.0
 40
0.0245437074326791
 40
0.0245437074326791
 40
0.0490874148653502
 40
0.0490874148653502
 40
0.0490874148653502
 10
12.91000108014502
 20
2.663852341623996
 30
0.0
 41
1.0
 10
12.91000106786232
 20
2.679322178008183
 30
0.0
 41
0.9238794417289465
 10
12.91915398274901
 20
2.688475101580014
 30
0.0
 41
1.0
 10
12.92830689763569
 20
2.697628025151847
 30
0.0
 41
0.9238794417298515
 10
12.94125108014501
 20
2.697628025151856
 30
0.0
 41
1.0
  0
SPLINE
  5
17A
330
1F
100
AcDbEntity
  8
Default
100
AcDbSpline
210
0.0
220
0.0
230
1.0
 70
    24
 71
     2
 72
     6
 73
     3
 74
     0
 42
0.0000000001
 43
0.0000000001
 40
0.0
 40
0.0
 40
0.0
 40
2.492448632944281
 40
2.492448632944281
 40
2.492448632944281
 10
12.91000108014502
 20
0.1688780548048552
 30
0.0
 10
12.91000108014502
 20
1.416365198214426
 30
0.0
 10
12.91000108014502
 20
2.663852341623996
 30
0.0
  0
SPLINE
  5
17B
330
1F
100
AcDbEntity
  8
Default
100
AcDbSpline
210
0.0
220
0.0
230
1.0
 70
    12
 71
     2
 72
     8
 73
     5
 74
     0
 42
0.0000000001
 43
0.0000000001
 40
0.0
 40
0.0
 40
0.0
 40
0.0245437074326708
 40
0.0245437074326708
 40
0.0490874148653497
 40
0.0490874148653497
 40
0.0490874148653497
 10
12.94125108014501
 20
0.1376280251518551
 30
0.0
 41
1.0
 10
12.92830689763569
 20
0.1376280251518653
 30
0.0
 41
0.9238794417298885
 10
12.91915398274901
 20
0.1467809487236966
 30
0.0
 41
1.0
 10
12.91000106786231
 20
0.1559338722955282
 30
0.0
 41
0.9238794417289753
 10
12.91000108014502
 20
0.1688780548048552
 30
0.0
 41
1.0
  0
SPLINE
  5
17C
330
1F
100
AcDbEntity
  8
Default
100
AcDbSpline
210
0.0
220
0.0
230
1.0
 70
    24
 71
     2
 72
     6
 73
     3
 74
     0
 42
0.0000000001
 43
0.0000000001
 40
-0.34375
 40
-0.34375
 40
-0.34375
 40
0.0
 40
0.0
 40
0.0
 10
13.28500108014501
 20
0.1376280251518551
 30
0.0
 10
13.11312608014501
 20
0.1376280251518551
 30
0.0
 10
12.94125108014501
 20
0.1376280251518551
 30
0.0
  0
SPLINE
  5
17D
330
1F
100
AcDbEntity
  8
Default
100
AcDbSpline
210
0.0
220
0.0
230
1.0
 70
    12
 71
     2
 72
     6
 73
     3
 74
     0
 42
0.0000000001
 43
0.0000000001
 40
0.0
 40
0.0
 40
0.0
 40
0.1963495408493625
 40
0.1963495408493625
 40
0.1963495408493625
 10
13.41000108014502
 20
0.2649640654279177
 30
0.0
 41
1.0
 10
13.41000108014501
 20
0.1376280251518551
 30
0.0
 41
0.70710678118656
 10
13.28500108014501
 20
0.1376280251518551
 30
0.0
 41
1.0
  0
SPLINE
  5
17E
330
1F
100
AcDbEntity
  8
Default
100
AcDbSpline
210
0.0
220
0.0
230
1.0
 70
    12
 71
     2
 72
     6
 73
     3
 74
     0
 42
0.0000000001
 43
0.0000000001
 40
0.0
 40
0.0
 40
0.0
 40
0.196349540849361
 40
0.196349540849361
 40
0.196349540849361
 10
11.78500108014501
 20
0.1376280251518551
 30
0.0
 41
1.0
 10
11.66000108014501
 20
0.1376280251518551
 30
0.0
 41
0.7071067811865408
 10
11.66000108014502
 20
0.2626280251518551
 30
0.0
 41
1.0
  0
SPLINE
  5
17F
330
1F
100
AcDbEntity
  8
Default
100
AcDbSpline
210
0.0
220
0.0
230
1.0
 70
    24
 71
     2
 72
     6
 73
     3
 74
     0
 42
0.0000000001
 43
0.0000000001
 40
-0.34375
 40
-0.34375
 40
-0.34375
 40
0.0
 40
0.0
 40
0.0
 10
12.12875108014501
 20
0.1376280251518551
 30
0.0
 10
11.95687608014501
 20
0.1376280251518551
 30
0.0
 10
11.78500108014501
 20
0.1376280251518551
 30
0.0
  0
SPLINE
  5
180
330
1F
100
AcDbEntity
  8
Default
100
AcDbSpline
210
0.0
220
0.0
230
1.0
 70
    12
 71
     2
 72
     8
 73
     5
 74
     0
 42
0.0000000001
 43
0.0000000001
 40
0.0
 40
0.0
 40
0.0
 40
0.0245437074331536
 40
0.0245437074331536
 40
0.0490874148663662
 40
0.0490874148663662
 40
0.0490874148663662
 10
12.16000108014502
 20
0.1714037086807126
 30
0.0
 41
1.0
 10
12.16000109242812
 20
0.1559338722962577
 30
0.0
 41
0.9238794417268615
 10
12.15084817754141
 20
0.1467809487240501
 30
0.0
 41
1.0
 10
12.14169526265464
 20
0.1376280251518696
 30
0.0
 41
0.92387944172725
 10
12.12875108014501
 20
0.1376280251518551
 30
0.0
 41
1.0
  0
SPLINE
  5
181
330
1F
100
AcDbEntity
  8
Default
100
AcDbSpline
210
0.0
220
0.0
230
1.0
 70
    24
 71
     2
 72
     6
 73
     3
 74
     0
 42
0.0000000001
 43
0.0000000001
 40
0.0
 40
0.0
 40
0.0
 40
2.492448632942286
 40
2.492448632942286
 40
2.492448632942286
 10
12.16000108014502
 20
2.666377995497855
 30
0.0
 10
12.16000108014502
 20
1.418890852089284
 30
0.0
 10
12.16000108014502
 20
0.1714037086807126
 30
0.0
  0
SPLINE
  5
182
330
1F
100
AcDbEntity
  8
Default
100
AcDbSpline
210
0.0
220
0.0
230
1.0
 70
    12
 71
     2
 72
     8
 73
     5
 74
     0
 42
0.0000000001
 43
0.0000000001
 40
0.0
 40
0.0
 40
0.0
 40
0.0245437074332097
 40
0.0245437074332097
 40
0.0490874148663679
 40
0.0490874148663679
 40
0.0490874148663679
 10
12.12875108014501
 20
2.697628025151856
 30
0.0
 41
1.0
 10
12.14169526265464
 20
2.697628025151841
 30
0.0
 41
0.923879441727346
 10
12.15084817754141
 20
2.688475101579666
 30
0.0
 41
1.0
 10
12.16000109242811
 20
2.679322178007455
 30
0.0
 41
0.9238794417269129
 10
12.16000108014502
 20
2.666377995497855
 30
0.0
 41
1.0
  0
SPLINE
  5
183
330
1F
100
AcDbEntity
  8
Default
100
AcDbSpline
210
0.0
220
0.0
230
1.0
 70
    24
 71
     2
 72
     6
 73
     3
 74
     0
 42
0.0000000001
 43
0.0000000001
 40
-0.34375
 40
-0.34375
 40
-0.34375
 40
0.0
 40
0.0
 40
0.0
 10
11.78500108014501
 20
2.697628025151856
 30
0.0
 10
11.95687608014501
 20
2.697628025151856
 30
0.0
 10
12.12875108014501
 20
2.697628025151856
 30
0.0
  0
SPLINE
  5
184
330
1F
100
AcDbEntity
  8
Default
100
AcDbSpline
210
0.0
220
0.0
230
1.0
 70
    12
 71
     2
 72
     6
 73
     3
 74
     0
 42
0.0000000001
 43
0.0000000001
 40
0.0
 40
0.0
 40
0.0
 40
0.1963495408493624
 40
0.1963495408493624
 40
0.1963495408493624
 10
11.66000108014502
 20
2.570291984875793
 30
0.0
 41
1.0
 10
11.66000108014501
 20
2.697628025151857
 30
0.0
 41
0.7071067811865318
 10
11.78500108014501
 20
2.697628025151856
 30
0.0
 41
1.0
  0
SPLINE
  5
185
330
1F
100
AcDbEntity
  8
Default
100
AcDbSpline
210
0.0
220
0.0
230
1.0
 70
    24
 71
     2
 72
     6
 73
     3
 74
     0
 42
0.0000000001
 43
0.0000000001
 40
0.0
 40
0.0
 40
0.0
 40
2.305327919447875
 40
2.305327919447875
 40
2.305327919447875
 10
11.66000108014502
 20
0.2626280251518551
 30
0.0
 10
11.66000108014502
 20
1.416460005013824
 30
0.0
 10
11.66000108014502
 20
2.570291984875793
 30
0.0
  0
SPLINE
  5
186
330
1F
100
AcDbEntity
  8
Default
100
AcDbSpline
210
0.0
220
0.0
230
1.0
 70
    24
 71
     2
 72
     6
 73
     3
 74
     0
 42
0.0000000001
 43
0.0000000001
 40
-0.71875
 40
-0.71875
 40
-0.71875
 40
0.0
 40
0.0
 40
0.0
 10
12.17562608014502
 20
2.697628025151856
 30
0.0
 10
12.53500108014502
 20
2.697628025151856
 30
0.0
 10
12.89437608014502
 20
2.697628025151856
 30
0.0
  0
LINE
  5
187
330
1F
100
AcDbEntity
  8
Default
100
AcDbLine
 10
12.17562608014501
 20
0.9801280251518545
 30
0.0
 11
12.17562608014502
 21
2.697628025151856
 31
0.0
  0
SPLINE
  5
188
330
1F
100
AcDbEntity
  8
Default
100
AcDbSpline
210
0.0
220
0.0
230
1.0
 70
    24
 71
     2
 72
     6
 73
     3
 74
     0
 42
0.0000000001
 43
0.0000000001
 40
-0.71875
 40
-0.71875
 40
-0.71875
 40
0.0
 40
0.0
 40
0.0
 10
12.89437608014501
 20
0.9801280251518545
 30
0.0
 10
12.53500108014501
 20
0.9801280251518545
 30
0.0
 10
12.17562608014501
 20
0.9801280251518545
 30
0.0
  0
LINE
  5
189
330
1F
100
AcDbEntity
  8
Default
100
AcDbLine
 10
12.89437608014502
 20
2.697628025151856
 30
0.0
 11
12.89437608014501
 21
0.9801280251518545
 31
0.0
  0
SPLINE
  5
18A
330
1F
100
AcDbEntity
  8
Default
100
AcDbSpline
210
0.0
220
0.0
230
1.0
 70
    24
 71
     2
 72
     6
 73
     3
 74
     0
 42
0.0000000001
 43
0.0000000001
 40
0.0
 40
0.0
 40
0.0
 40
0.7499999999999787
 40
0.7499999999999787
 40
0.7499999999999787
 10
0.3750000000249969
 20
0.899628025151865
 30
0.0
 10
0.0000000000250076
 20
0.8996280251518651
 30
0.0
 10
-0.3749999999749818
 20
0.8996280251518651
 30
0.0
  0
SPLINE
  5
18B
330
1F
100
AcDbEntity
  8
Default
100
AcDbSpline
210
0.0
220
0.0
230
1.0
 70
    24
 71
     2
 72
     6
 73
     3
 74
     0
 42
0.0000000001
 43
0.0000000001
 40
-0.34375
 40
-0.34375
 40
-0.34375
 40
0.0
 40
0.0
 40
0.0
 10
0.4062500000250111
 20
0.1376280251518554
 30
0.0
 10
0.5781250000250111
 20
0.1376280251518553
 30
0.0
 10
0.7500000000250111
 20
0.1376280251518551
 30
0.0
  0
SPLINE
  5
18C
330
1F
100
AcDbEntity
  8
Default
100
AcDbSpline
210
0.0
220
0.0
230
1.0
 70
    12
 71
     2
 72
     8
 73
     5
 74
     0
 42
0.0000000001
 43
0.0000000001
 40
0.0
 40
0.0
 40
0.0
 40
0.0245437074331721
 40
0.0245437074331721
 40
0.0490874148663431
 40
0.0490874148663431
 40
0.0490874148663431
 10
0.3750000000250218
 20
0.1714037086807126
 30
0.0
 41
1.0
 10
0.374999987741923
 20
0.1559338722962436
 30
0.0
 41
0.9238794417263989
 10
0.3841529026286601
 20
0.1467809487240502
 30
0.0
 41
1.0
 10
0.393305817515396
 20
0.1376280251518572
 30
0.0
 41
0.9238794417265687
 10
0.4062500000250111
 20
0.1376280251518554
 30
0.0
 41
1.0
  0
SPLINE
  5
18D
330
1F
100
AcDbEntity
  8
Default
100
AcDbSpline
210
0.0
220
0.0
230
1.0
 70
    24
 71
     2
 72
     6
 73
     3
 74
     0
 42
0.0000000001
 43
0.0000000001
 40
0.0
 40
0.0
 40
0.0
 40
2.492448632942286
 40
2.492448632942286
 40
2.492448632942286
 10
0.3750000000250218
 20
2.666377995497855
 30
0.0
 10
0.3750000000250218
 20
1.418890852089284
 30
0.0
 10
0.3750000000250218
 20
0.1714037086807126
 30
0.0
  0
SPLINE
  5
18E
330
1F
100
AcDbEntity
  8
Default
100
AcDbSpline
210
0.0
220
0.0
230
1.0
 70
    12
 71
     2
 72
     8
 73
     5
 74
     0
 42
0.0000000001
 43
0.0000000001
 40
0.0
 40
0.0
 40
0.0
 40
0.0245437074331684
 40
0.0245437074331684
 40
0.0490874148663449
 40
0.0490874148663449
 40
0.0490874148663449
 10
0.4062500000250111
 20
2.697628025151856
 30
0.0
 41
1.0
 10
0.3933058175153976
 20
2.697628025151854
 30
0.0
 41
0.9238794417266333
 10
0.3841529026286619
 20
2.688475101579666
 30
0.0
 41
1.0
 10
0.3749999877419244
 20
2.679322178007469
 30
0.0
 41
0.9238794417264741
 10
0.3750000000250218
 20
2.666377995497855
 30
0.0
 41
1.0
  0
SPLINE
  5
18F
330
1F
100
AcDbEntity
  8
Default
100
AcDbSpline
210
0.0
220
0.0
230
1.0
 70
    24
 71
     2
 72
     6
 73
     3
 74
     0
 42
0.0000000001
 43
0.0000000001
 40
-0.34375
 40
-0.34375
 40
-0.34375
 40
0.0
 40
0.0
 40
0.0
 10
0.7500000000250111
 20
2.697628025151856
 30
0.0
 10
0.5781250000250111
 20
2.697628025151856
 30
0.0
 10
0.4062500000250111
 20
2.697628025151856
 30
0.0
  0
SPLINE
  5
190
330
1F
100
AcDbEntity
  8
Default
100
AcDbSpline
210
0.0
220
0.0
230
1.0
 70
    12
 71
     2
 72
     6
 73
     3
 74
     0
 42
0.0000000001
 43
0.0000000001
 40
0.0
 40
0.0
 40
0.0
 40
0.1963495408493624
 40
0.1963495408493624
 40
0.1963495408493624
 10
0.8750000000250111
 20
2.57029195974267
 30
0.0
 41
1.0
 10
0.875000000025012
 20
2.697628025151857
 30
0.0
 41
0.7071067811865388
 10
0.7500000000250111
 20
2.697628025151856
 30
0.0
 41
1.0
  0
SPLINE
  5
191
330
1F
100
AcDbEntity
  8
Default
100
AcDbSpline
210
0.0
220
0.0
230
1.0
 70
    24
 71
     2
 72
     6
 73
     3
 74
     0
 42
0.0000000001
 43
0.0000000001
 40
0.0
 40
0.0
 40
0.0
 40
2.30532786918163
 40
2.30532786918163
 40
2.30532786918163
 10
0.875000000025012
 20
0.2626280251518551
 30
0.0
 10
0.8750000000250115
 20
1.416459992447263
 30
0.0
 10
0.8750000000250111
 20
2.57029195974267
 30
0.0
  0
SPLINE
  5
192
330
1F
100
AcDbEntity
  8
Default
100
AcDbSpline
210
0.0
220
0.0
230
1.0
 70
    12
 71
     2
 72
     6
 73
     3
 74
     0
 42
0.0000000001
 43
0.0000000001
 40
0.0
 40
0.0
 40
0.0
 40
0.1963495408493642
 40
0.1963495408493642
 40
0.1963495408493642
 10
0.7500000000250111
 20
0.1376280251518551
 30
0.0
 41
1.0
 10
0.875000000025017
 20
0.1376280251518516
 30
0.0
 41
0.7071067811865305
 10
0.875000000025012
 20
0.2626280251518551
 30
0.0
 41
1.0
  0
SPLINE
  5
193
330
1F
100
AcDbEntity
  8
Default
100
AcDbSpline
210
0.0
220
0.0
230
1.0
 70
    24
 71
     2
 72
     6
 73
     3
 74
     0
 42
0.0000000001
 43
0.0000000001
 40
0.0
 40
0.0
 40
0.0
 40
2.305327919447875
 40
2.305327919447875
 40
2.305327919447875
 10
-0.8749999999745297
 20
2.572628265096605
 30
0.0
 10
-0.8749999999747593
 20
1.418796165262261
 30
0.0
 10
-0.8749999999749889
 20
0.2649640654279177
 30
0.0
  0
SPLINE
  5
194
330
1F
100
AcDbEntity
  8
Default
100
AcDbSpline
210
0.0
220
0.0
230
1.0
 70
    12
 71
     2
 72
     6
 73
     3
 74
     0
 42
0.0000000001
 43
0.0000000001
 40
0.0
 40
0.0
 40
0.0
 40
0.1963490609598645
 40
0.1963490609598645
 40
0.1963490609598645
 10
-0.7499999999749889
 20
2.697628025151856
 30
0.0
 41
1.0
 10
-0.874999520086412
 20
2.697628025151856
 30
0.0
 41
0.7071081385177264
 10
-0.8749999999745297
 20
2.572628265096605
 30
0.0
 41
1.0
  0
SPLINE
  5
195
330
1F
100
AcDbEntity
  8
Default
100
AcDbSpline
210
0.0
220
0.0
230
1.0
 70
    24
 71
     2
 72
     6
 73
     3
 74
     0
 42
0.0000000001
 43
0.0000000001
 40
-0.34375
 40
-0.34375
 40
-0.34375
 40
0.0
 40
0.0
 40
0.0
 10
-0.4062499999749889
 20
2.697628025151856
 30
0.0
 10
-0.5781249999749889
 20
2.697628025151856
 30
0.0
 10
-0.7499999999749889
 20
2.697628025151856
 30
0.0
  0
SPLINE
  5
196
330
1F
100
AcDbEntity
  8
Default
100
AcDbSpline
210
0.0
220
0.0
230
1.0
 70
    12
 71
     2
 72
     8
 73
     5
 74
     0
 42
0.0000000001
 43
0.0000000001
 40
0.0
 40
0.0
 40
0.0
 40
0.0245437074326697
 40
0.0245437074326697
 40
0.0490874148653425
 40
0.0490874148653425
 40
0.0490874148653425
 10
-0.3749999999749996
 20
2.663852341623996
 30
0.0
 41
1.0
 10
-0.3749999876923187
 20
2.679322178008171
 30
0.0
 41
0.9238794417296371
 10
-0.3841529025789896
 20
2.688475101580014
 30
0.0
 41
1.0
 10
-0.3933058174656656
 20
2.697628025151853
 30
0.0
 41
0.9238794417296533
 10
-0.4062499999749889
 20
2.697628025151856
 30
0.0
 41
1.0
  0
SPLINE
  5
197
330
1F
100
AcDbEntity
  8
Default
100
AcDbSpline
210
0.0
220
0.0
230
1.0
 70
    24
 71
     2
 72
     6
 73
     3
 74
     0
 42
0.0000000001
 43
0.0000000001
 40
0.0
 40
0.0
 40
0.0
 40
2.492448632944281
 40
2.492448632944281
 40
2.492448632944281
 10
-0.3749999999750004
 20
0.1688780548048552
 30
0.0
 10
-0.374999999975
 20
1.416365198214426
 30
0.0
 10
-0.3749999999749996
 20
2.663852341623996
 30
0.0
  0
SPLINE
  5
198
330
1F
100
AcDbEntity
  8
Default
100
AcDbSpline
210
0.0
220
0.0
230
1.0
 70
    12
 71
     2
 72
     8
 73
     5
 74
     0
 42
0.0000000001
 43
0.0000000001
 40
0.0
 40
0.0
 40
0.0
 40
0.0245437074326725
 40
0.0245437074326725
 40
0.0490874148653418
 40
0.0490874148653418
 40
0.0490874148653418
 10
-0.4062499999749889
 20
0.1376280251518551
 30
0.0
 41
1.0
 10
-0.3933058174656655
 20
0.1376280251518581
 30
0.0
 41
0.9238794417296706
 10
-0.3841529025789896
 20
0.1467809487236968
 30
0.0
 41
1.0
 10
-0.3749999876923217
 20
0.1559338722955398
 30
0.0
 41
0.9238794417296721
 10
-0.3749999999750004
 20
0.1688780548048552
 30
0.0
 41
1.0
  0
SPLINE
  5
199
330
1F
100
AcDbEntity
  8
Default
100
AcDbSpline
210
0.0
220
0.0
230
1.0
 70
    24
 71
     2
 72
     6
 73
     3
 74
     0
 42
0.0000000001
 43
0.0000000001
 40
-0.34375
 40
-0.34375
 40
-0.34375
 40
0.0
 40
0.0
 40
0.0
 10
-0.7499999999749889
 20
0.1376280251518557
 30
0.0
 10
-0.5781249999749889
 20
0.1376280251518554
 30
0.0
 10
-0.4062499999749889
 20
0.1376280251518551
 30
0.0
  0
SPLINE
  5
19A
330
1F
100
AcDbEntity
  8
Default
100
AcDbSpline
210
0.0
220
0.0
230
1.0
 70
    12
 71
     2
 72
     6
 73
     3
 74
     0
 42
0.0000000001
 43
0.0000000001
 40
0.0
 40
0.0
 40
0.0
 40
0.1963495408493625
 40
0.1963495408493625
 40
0.1963495408493625
 10
-0.8749999999749889
 20
0.2649640654279177
 30
0.0
 41
1.0
 10
-0.8749999999749906
 20
0.1376280251518527
 30
0.0
 41
0.7071067811865307
 10
-0.7499999999749889
 20
0.1376280251518557
 30
0.0
 41
1.0
  0
SPLINE
  5
19B
330
1F
100
AcDbEntity
  8
Default
100
AcDbSpline
210
0.0
220
0.0
230
1.0
 70
    24
 71
     2
 72
     6
 73
     3
 74
     0
 42
0.0000000001
 43
0.0000000001
 40
-0.71875
 40
-0.71875
 40
-0.71875
 40
0.0
 40
0.0
 40
0.0
 10
0.3593750000250111
 20
2.697628025151856
 30
0.0
 10
0.0000000000250111
 20
2.697628025151856
 30
0.0
 10
-0.3593749999749889
 20
2.697628025151856
 30
0.0
  0
LINE
  5
19C
330
1F
100
AcDbEntity
  8
Default
100
AcDbLine
 10
0.3593750000250111
 20
0.9801280251518545
 30
0.0
 11
0.3593750000250111
 21
2.697628025151856
 31
0.0
  0
SPLINE
  5
19D
330
1F
100
AcDbEntity
  8
Default
100
AcDbSpline
210
0.0
220
0.0
230
1.0
 70
    24
 71
     2
 72
     6
 73
     3
 74
     0
 42
0.0000000001
 43
0.0000000001
 40
-0.71875
 40
-0.71875
 40
-0.71875
 40
0.0
 40
0.0
 40
0.0
 10
-0.3593749999749889
 20
0.9801280251518545
 30
0.0
 10
0.0000000000250111
 20
0.9801280251518545
 30
0.0
 10
0.3593750000250111
 20
0.9801280251518545
 30
0.0
  0
LINE
  5
19E
330
1F
100
AcDbEntity
  8
Default
100
AcDbLine
 10
-0.3593749999749889
 20
2.697628025151856
 30
0.0
 11
-0.3593749999749889
 21
0.9801280251518545
 31
0.0
  0
SPLINE
  5
19F
330
1F
100
AcDbEntity
  8
Default
100
AcDbSpline
210
0.0
220
0.0
230
1.0
 70
    24
 71
     2
 72
     6
 73
     3
 74
     0
 42
0.0000000001
 43
0.0000000001
 40
0.0
 40
0.0
 40
0.0
 40
0.0829573442459193
 40
0.0829573442459193
 40
0.0829573442459193
 10
0.3565566960255744
 20
2.779590879554846
 30
0.0
 10
0.3501533480253389
 20
2.738609452353345
 30
0.0
 10
0.3437500000251035
 20
2.697628025151845
 30
0.0
  0
POLYLINE
  5
1A0
330
1F
100
AcDbEntity
  8
Default
100
AcDb2dPolyline
 66
     1
 10
0.0
 20
0.0
 30
0.0
  0
VERTEX
  5
1A1
330
1A0
100
AcDbEntity
  8
Default
100
AcDbVertex
100
AcDb2dVertex
 10
-0.3565566959755522
 20
2.779590879554846
 30
0.0
  0
VERTEX
  5
1A2
330
1A0
100
AcDbEntity
  8
Default
100
AcDbVertex
100
AcDb2dVertex
 10
0.3565566960255744
 20
2.779590879554846
 30
0.0
  0
SEQEND
  5
1A3
330
1A0
100
AcDbEntity
  8
Default
  0
SPLINE
  5
1A4
330
1F
100
AcDbEntity
  8
Default
100
AcDbSpline
210
0.0
220
0.0
230
1.0
 70
    24
 71
     2
 72
     6
 73
     3
 74
     0
 42
0.0000000001
 43
0.0000000001
 40
0.0
 40
0.0
 40
0.0
 40
0.0829573442459193
 40
0.0829573442459193
 40
0.0829573442459193
 10
-0.3437499999750813
 20
2.697628025151845
 30
0.0
 10
-0.3501533479753167
 20
2.738609452353345
 30
0.0
 10
-0.3565566959755522
 20
2.779590879554846
 30
0.0
  0
SPLINE
  5
1A5
330
1F
100
AcDbEntity
  8
Default
100
AcDbSpline
210
0.0
220
0.0
230
1.0
 70
    24
 71
     2
 72
     6
 73
     3
 74
     0
 42
0.0000000001
 43
0.0000000001
 40
0.0
 40
0.0
 40
0.0
 40
0.0829573442459193
 40
0.0829573442459193
 40
0.0829573442459193
 10
-7.390500020507429
 20
2.779590879554846
 30
0.0
 10
-7.396903368507664
 20
2.738609452353345
 30
0.0
 10
-7.4033067165079
 20
2.697628025151845
 30
0.0
  0
POLYLINE
  5
1A6
330
1F
100
AcDbEntity
  8
Default
100
AcDb2dPolyline
 66
     1
 10
0.0
 20
0.0
 30
0.0
  0
VERTEX
  5
1A7
330
1A6
100
AcDbEntity
  8
Default
100
AcDbVertex
100
AcDb2dVertex
 10
-8.103613412508551
 20
2.779590879554846
 30
0.0
  0
VERTEX
  5
1A8
330
1A6
100
AcDbEntity
  8
Default
100
AcDbVertex
100
AcDb2dVertex
 10
-7.390500020507429
 20
2.779590879554846
 30
0.0
  0
SEQEND
  5
1A9
330
1A6
100
AcDbEntity
  8
Default
  0
SPLINE
  5
1AA
330
1F
100
AcDbEntity
  8
Default
100
AcDbSpline
210
0.0
220
0.0
230
1.0
 70
    24
 71
     2
 72
     6
 73
     3
 74
     0
 42
0.0000000001
 43
0.0000000001
 40
0.0
 40
0.0
 40
0.0
 40
0.0829573442459193
 40
0.0829573442459193
 40
0.0829573442459193
 10
-8.09080671650808
 20
2.697628025151845
 30
0.0
 10
-8.097210064508316
 20
2.738609452353345
 30
0.0
 10
-8.103613412508551
 20
2.779590879554846
 30
0.0
  0
SPLINE
  5
1AB
330
1F
100
AcDbEntity
  8
Default
100
AcDbSpline
210
0.0
220
0.0
230
1.0
 70
    24
 71
     2
 72
     6
 73
     3
 74
     0
 42
0.0000000001
 43
0.0000000001
 40
-0.34375
 40
-0.34375
 40
-0.34375
 40
0.0
 40
0.0
 40
0.0
 10
-7.340806716507989
 20
0.137628025151855
 30
0.0
 10
-7.168931716507989
 20
0.1376280251518551
 30
0.0
 10
-6.997056716507989
 20
0.1376280251518551
 30
0.0
  0
SPLINE
  5
1AC
330
1F
100
AcDbEntity
  8
Default
100
AcDbSpline
210
0.0
220
0.0
230
1.0
 70
    12
 71
     2
 72
     8
 73
     5
 74
     0
 42
0.0000000001
 43
0.0000000001
 40
0.0
 40
0.0
 40
0.0
 40
0.0245437074331706
 40
0.0245437074331706
 40
0.0490874148663432
 40
0.0490874148663432
 40
0.0490874148663432
 10
-7.372056716507982
 20
0.1714037086807126
 30
0.0
 41
1.0
 10
-7.372056728791072
 20
0.1559338722962469
 30
0.0
 41
0.9238794417266645
 10
-7.362903813904341
 20
0.1467809487240501
 30
0.0
 41
1.0
 10
-7.353750899017604
 20
0.1376280251518578
 30
0.0
 41
0.9238794417266113
 10
-7.340806716507989
 20
0.137628025151855
 30
0.0
 41
1.0
  0
SPLINE
  5
1AD
330
1F
100
AcDbEntity
  8
Default
100
AcDbSpline
210
0.0
220
0.0
230
1.0
 70
    24
 71
     2
 72
     6
 73
     3
 74
     0
 42
0.0000000001
 43
0.0000000001
 40
0.0
 40
0.0
 40
0.0
 40
2.492448632942286
 40
2.492448632942286
 40
2.492448632942286
 10
-7.372056716507982
 20
2.666377995497855
 30
0.0
 10
-7.372056716507982
 20
1.418890852089284
 30
0.0
 10
-7.372056716507982
 20
0.1714037086807126
 30
0.0
  0
SPLINE
  5
1AE
330
1F
100
AcDbEntity
  8
Default
100
AcDbSpline
210
0.0
220
0.0
230
1.0
 70
    12
 71
     2
 72
     8
 73
     5
 74
     0
 42
0.0000000001
 43
0.0000000001
 40
0.0
 40
0.0
 40
0.0
 40
0.0245437074331701
 40
0.0245437074331701
 40
0.0490874148663453
 40
0.0490874148663453
 40
0.0490874148663453
 10
-7.340806716507989
 20
2.697628025151856
 30
0.0
 41
1.0
 10
-7.353750899017605
 20
2.697628025151854
 30
0.0
 41
0.9238794417266487
 10
-7.362903813904341
 20
2.688475101579666
 30
0.0
 41
1.0
 10
-7.372056728791072
 20
2.679322178007466
 30
0.0
 41
0.9238794417267178
 10
-7.372056716507982
 20
2.666377995497855
 30
0.0
 41
1.0
  0
SPLINE
  5
1AF
330
1F
100
AcDbEntity
  8
Default
100
AcDbSpline
210
0.0
220
0.0
230
1.0
 70
    24
 71
     2
 72
     6
 73
     3
 74
     0
 42
0.0000000001
 43
0.0000000001
 40
-0.34375
 40
-0.34375
 40
-0.34375
 40
0.0
 40
0.0
 40
0.0
 10
-6.997056716507989
 20
2.697628025151856
 30
0.0
 10
-7.168931716507989
 20
2.697628025151856
 30
0.0
 10
-7.340806716507989
 20
2.697628025151856
 30
0.0
  0
SPLINE
  5
1B0
330
1F
100
AcDbEntity
  8
Default
100
AcDbSpline
210
0.0
220
0.0
230
1.0
 70
    12
 71
     2
 72
     6
 73
     3
 74
     0
 42
0.0000000001
 43
0.0000000001
 40
0.0
 40
0.0
 40
0.0
 40
0.196349540849363
 40
0.196349540849363
 40
0.196349540849363
 10
-6.872056716507989
 20
2.570291984875793
 30
0.0
 41
1.0
 10
-6.872056716507987
 20
2.697628025151857
 30
0.0
 41
0.707106781186545
 10
-6.997056716507989
 20
2.697628025151856
 30
0.0
 41
1.0
  0
SPLINE
  5
1B1
330
1F
100
AcDbEntity
  8
Default
100
AcDbSpline
210
0.0
220
0.0
230
1.0
 70
    24
 71
     2
 72
     6
 73
     3
 74
     0
 42
0.0000000001
 43
0.0000000001
 40
0.0
 40
0.0
 40
0.0
 40
2.305327919447875
 40
2.305327919447875
 40
2.305327919447875
 10
-6.872056716507989
 20
0.2626280251518551
 30
0.0
 10
-6.872056716507989
 20
1.416460005013824
 30
0.0
 10
-6.872056716507989
 20
2.570291984875793
 30
0.0
  0
SPLINE
  5
1B2
330
1F
100
AcDbEntity
  8
Default
100
AcDbSpline
210
0.0
220
0.0
230
1.0
 70
    12
 71
     2
 72
     6
 73
     3
 74
     0
 42
0.0000000001
 43
0.0000000001
 40
0.0
 40
0.0
 40
0.0
 40
0.1963495408493627
 40
0.1963495408493627
 40
0.1963495408493627
 10
-6.997056716507989
 20
0.1376280251518551
 30
0.0
 41
1.0
 10
-6.872056716507989
 20
0.1376280251518551
 30
0.0
 41
0.7071067811865437
 10
-6.872056716507989
 20
0.2626280251518551
 30
0.0
 41
1.0
  0
SPLINE
  5
1B3
330
1F
100
AcDbEntity
  8
Default
100
AcDbSpline
210
0.0
220
0.0
230
1.0
 70
    24
 71
     2
 72
     6
 73
     3
 74
     0
 42
0.0000000001
 43
0.0000000001
 40
0.0
 40
0.0
 40
0.0
 40
0.7187500000000018
 40
0.7187500000000018
 40
0.7187500000000018
 10
-8.106431716507991
 20
2.697628025151856
 30
0.0
 10
-7.74705671650799
 20
2.697628025151856
 30
0.0
 10
-7.387681716507989
 20
2.697628025151856
 30
0.0
  0
LINE
  5
1B4
330
1F
100
AcDbEntity
  8
Default
100
AcDbLine
 10
-8.106431716507991
 20
0.9801280251518545
 30
0.0
 11
-8.106431716507991
 21
2.697628025151856
 31
0.0
  0
SPLINE
  5
1B5
330
1F
100
AcDbEntity
  8
Default
100
AcDbSpline
210
0.0
220
0.0
230
1.0
 70
    24
 71
     2
 72
     6
 73
     3
 74
     0
 42
0.0000000001
 43
0.0000000001
 40
0.0
 40
0.0
 40
0.0
 40
0.7187500000000018
 40
0.7187500000000018
 40
0.7187500000000018
 10
-7.387681716507989
 20
0.9801280251518545
 30
0.0
 10
-7.74705671650799
 20
0.9801280251518545
 30
0.0
 10
-8.106431716507991
 20
0.9801280251518545
 30
0.0
  0
LINE
  5
1B6
330
1F
100
AcDbEntity
  8
Default
100
AcDbLine
 10
-7.387681716507989
 20
2.697628025151856
 30
0.0
 11
-7.387681716507989
 21
0.9801280251518545
 31
0.0
  0
SPLINE
  5
1B7
330
1F
100
AcDbEntity
  8
Default
100
AcDbSpline
210
0.0
220
0.0
230
1.0
 70
    24
 71
     2
 72
     6
 73
     3
 74
     0
 42
0.0000000001
 43
0.0000000001
 40
0.0
 40
0.0
 40
0.0
 40
2.305327919447875
 40
2.305327919447875
 40
2.305327919447875
 10
-8.622056716507991
 20
2.572628025151856
 30
0.0
 10
-8.622056716507991
 20
1.418796045289887
 30
0.0
 10
-8.622056716507991
 20
0.2649640654279177
 30
0.0
  0
SPLINE
  5
1B8
330
1F
100
AcDbEntity
  8
Default
100
AcDbSpline
210
0.0
220
0.0
230
1.0
 70
    12
 71
     2
 72
     6
 73
     3
 74
     0
 42
0.0000000001
 43
0.0000000001
 40
0.0
 40
0.0
 40
0.0
 40
0.1963495408493616
 40
0.1963495408493616
 40
0.1963495408493616
 10
-8.497056716507991
 20
2.697628025151856
 30
0.0
 41
1.0
 10
-8.622056716507991
 20
2.697628025151855
 30
0.0
 41
0.707106781186545
 10
-8.622056716507991
 20
2.572628025151856
 30
0.0
 41
1.0
  0
SPLINE
  5
1B9
330
1F
100
AcDbEntity
  8
Default
100
AcDbSpline
210
0.0
220
0.0
230
1.0
 70
    24
 71
     2
 72
     6
 73
     3
 74
     0
 42
0.0000000001
 43
0.0000000001
 40
-0.34375
 40
-0.34375
 40
-0.34375
 40
0.0
 40
0.0
 40
0.0
 10
-8.153306716507991
 20
2.697628025151856
 30
0.0
 10
-8.325181716507991
 20
2.697628025151856
 30
0.0
 10
-8.497056716507991
 20
2.697628025151856
 30
0.0
  0
SPLINE
  5
1BA
330
1F
100
AcDbEntity
  8
Default
100
AcDbSpline
210
0.0
220
0.0
230
1.0
 70
    12
 71
     2
 72
     8
 73
     5
 74
     0
 42
0.0000000001
 43
0.0000000001
 40
0.0
 40
0.0
 40
0.0
 40
0.0245437074326705
 40
0.0245437074326705
 40
0.0490874148653448
 40
0.0490874148653448
 40
0.0490874148653448
 10
-8.122056716507998
 20
2.663852341623996
 30
0.0
 41
1.0
 10
-8.122056704225319
 20
2.679322178008172
 30
0.0
 41
0.9238794417296411
 10
-8.131209619111988
 20
2.688475101580014
 30
0.0
 41
1.0
 10
-8.140362533998667
 20
2.697628025151853
 30
0.0
 41
0.9238794417296741
 10
-8.153306716507991
 20
2.697628025151856
 30
0.0
 41
1.0
  0
SPLINE
  5
1BB
330
1F
100
AcDbEntity
  8
Default
100
AcDbSpline
210
0.0
220
0.0
230
1.0
 70
    24
 71
     2
 72
     6
 73
     3
 74
     0
 42
0.0000000001
 43
0.0000000001
 40
0.0
 40
0.0
 40
0.0
 40
2.492448632944281
 40
2.492448632944281
 40
2.492448632944281
 10
-8.122056716507998
 20
0.1688780548048552
 30
0.0
 10
-8.122056716507998
 20
1.416365198214426
 30
0.0
 10
-8.122056716507998
 20
2.663852341623996
 30
0.0
  0
SPLINE
  5
1BC
330
1F
100
AcDbEntity
  8
Default
100
AcDbSpline
210
0.0
220
0.0
230
1.0
 70
    12
 71
     2
 72
     8
 73
     5
 74
     0
 42
0.0000000001
 43
0.0000000001
 40
0.0
 40
0.0
 40
0.0
 40
0.0245437074326741
 40
0.0245437074326741
 40
0.0490874148653442
 40
0.0490874148653442
 40
0.0490874148653442
 10
-8.153306716507991
 20
0.1376280251518551
 30
0.0
 41
1.0
 10
-8.140362533998667
 20
0.1376280251518584
 30
0.0
 41
0.9238794417296992
 10
-8.131209619111988
 20
0.1467809487236965
 30
0.0
 41
1.0
 10
-8.122056704225319
 20
0.1559338722955394
 30
0.0
 41
0.9238794417296726
 10
-8.122056716507998
 20
0.1688780548048552
 30
0.0
 41
1.0
  0
SPLINE
  5
1BD
330
1F
100
AcDbEntity
  8
Default
100
AcDbSpline
210
0.0
220
0.0
230
1.0
 70
    24
 71
     2
 72
     6
 73
     3
 74
     0
 42
0.0000000001
 43
0.0000000001
 40
-0.34375
 40
-0.34375
 40
-0.34375
 40
0.0
 40
0.0
 40
0.0
 10
-8.497056716507991
 20
0.1376280251518552
 30
0.0
 10
-8.325181716507991
 20
0.1376280251518551
 30
0.0
 10
-8.153306716507991
 20
0.1376280251518551
 30
0.0
  0
SPLINE
  5
1BE
330
1F
100
AcDbEntity
  8
Default
100
AcDbSpline
210
0.0
220
0.0
230
1.0
 70
    12
 71
     2
 72
     6
 73
     3
 74
     0
 42
0.0000000001
 43
0.0000000001
 40
0.0
 40
0.0
 40
0.0
 40
0.1963495408493624
 40
0.1963495408493624
 40
0.1963495408493624
 10
-8.622056716507991
 20
0.2649640654279177
 30
0.0
 41
1.0
 10
-8.622056716507991
 20
0.1376280251518551
 30
0.0
 41
0.7071067811865427
 10
-8.497056716507991
 20
0.1376280251518552
 30
0.0
 41
1.0
  0
SPLINE
  5
1BF
330
1F
100
AcDbEntity
  8
Default
100
AcDbSpline
210
0.0
220
0.0
230
1.0
 70
    24
 71
     2
 72
     6
 73
     3
 74
     0
 42
0.0000000001
 43
0.0000000001
 40
0.0
 40
0.0
 40
0.0
 40
0.0829573442459237
 40
0.0829573442459237
 40
0.0829573442459237
 10
-12.17844438409439
 20
2.779590879554846
 30
0.0
 10
-12.18484773209464
 20
2.738609452353345
 30
0.0
 10
-12.19125108009489
 20
2.697628025151845
 30
0.0
  0
POLYLINE
  5
1C0
330
1F
100
AcDbEntity
  8
Default
100
AcDb2dPolyline
 66
     1
 10
0.0
 20
0.0
 30
0.0
  0
VERTEX
  5
1C1
330
1C0
100
AcDbEntity
  8
Default
100
AcDbVertex
100
AcDb2dVertex
 10
-12.89155777609559
 20
2.779590879554846
 30
0.0
  0
VERTEX
  5
1C2
330
1C0
100
AcDbEntity
  8
Default
100
AcDbVertex
100
AcDb2dVertex
 10
-12.17844438409439
 20
2.779590879554846
 30
0.0
  0
SEQEND
  5
1C3
330
1C0
100
AcDbEntity
  8
Default
  0
SPLINE
  5
1C4
330
1F
100
AcDbEntity
  8
Default
100
AcDbSpline
210
0.0
220
0.0
230
1.0
 70
    24
 71
     2
 72
     6
 73
     3
 74
     0
 42
0.0000000001
 43
0.0000000001
 40
0.0
 40
0.0
 40
0.0
 40
0.0829573442459237
 40
0.0829573442459237
 40
0.0829573442459237
 10
-12.87875108009509
 20
2.697628025151845
 30
0.0
 10
-12.88515442809534
 20
2.738609452353345
 30
0.0
 10
-12.89155777609559
 20
2.779590879554846
 30
0.0
  0
SPLINE
  5
1C5
330
1F
100
AcDbEntity
  8
Default
100
AcDbSpline
210
0.0
220
0.0
230
1.0
 70
    24
 71
     2
 72
     6
 73
     3
 74
     0
 42
0.0000000001
 43
0.0000000001
 40
0.0
 40
0.0
 40
0.0
 40
2.305327919447875
 40
2.305327919447875
 40
2.305327919447875
 10
-13.41000108009499
 20
2.572628025151856
 30
0.0
 10
-13.41000108009499
 20
1.418796045289887
 30
0.0
 10
-13.41000108009499
 20
0.2649640654279177
 30
0.0
  0
SPLINE
  5
1C6
330
1F
100
AcDbEntity
  8
Default
100
AcDbSpline
210
0.0
220
0.0
230
1.0
 70
    12
 71
     2
 72
     6
 73
     3
 74
     0
 42
0.0000000001
 43
0.0000000001
 40
0.0
 40
0.0
 40
0.0
 40
0.1963495408493628
 40
0.1963495408493628
 40
0.1963495408493628
 10
-13.28500108009499
 20
2.697628025151856
 30
0.0
 41
1.0
 10
-13.41000108009499
 20
2.697628025151856
 30
0.0
 41
0.7071067811865535
 10
-13.41000108009499
 20
2.572628025151856
 30
0.0
 41
1.0
  0
SPLINE
  5
1C7
330
1F
100
AcDbEntity
  8
Default
100
AcDbSpline
210
0.0
220
0.0
230
1.0
 70
    24
 71
     2
 72
     6
 73
     3
 74
     0
 42
0.0000000001
 43
0.0000000001
 40
-0.34375
 40
-0.34375
 40
-0.34375
 40
0.0
 40
0.0
 40
0.0
 10
-12.94125108009499
 20
2.697628025151856
 30
0.0
 10
-13.11312608009499
 20
2.697628025151856
 30
0.0
 10
-13.28500108009499
 20
2.697628025151856
 30
0.0
  0
SPLINE
  5
1C8
330
1F
100
AcDbEntity
  8
Default
100
AcDbSpline
210
0.0
220
0.0
230
1.0
 70
    12
 71
     2
 72
     8
 73
     5
 74
     0
 42
0.0000000001
 43
0.0000000001
 40
0.0
 40
0.0
 40
0.0
 40
0.0245437074326791
 40
0.0245437074326791
 40
0.0490874148653502
 40
0.0490874148653502
 40
0.0490874148653502
 10
-12.91000108009499
 20
2.663852341623996
 30
0.0
 41
1.0
 10
-12.91000106781229
 20
2.679322178008183
 30
0.0
 41
0.9238794417289465
 10
-12.91915398269899
 20
2.688475101580014
 30
0.0
 41
1.0
 10
-12.92830689758567
 20
2.697628025151847
 30
0.0
 41
0.9238794417298515
 10
-12.94125108009499
 20
2.697628025151856
 30
0.0
 41
1.0
  0
SPLINE
  5
1C9
330
1F
100
AcDbEntity
  8
Default
100
AcDbSpline
210
0.0
220
0.0
230
1.0
 70
    24
 71
     2
 72
     6
 73
     3
 74
     0
 42
0.0000000001
 43
0.0000000001
 40
0.0
 40
0.0
 40
0.0
 40
2.492448632944281
 40
2.492448632944281
 40
2.492448632944281
 10
-12.91000108009499
 20
0.1688780548048552
 30
0.0
 10
-12.91000108009499
 20
1.416365198214426
 30
0.0
 10
-12.91000108009499
 20
2.663852341623996
 30
0.0
  0
SPLINE
  5
1CA
330
1F
100
AcDbEntity
  8
Default
100
AcDbSpline
210
0.0
220
0.0
230
1.0
 70
    12
 71
     2
 72
     8
 73
     5
 74
     0
 42
0.0000000001
 43
0.0000000001
 40
0.0
 40
0.0
 40
0.0
 40
0.0245437074326708
 40
0.0245437074326708
 40
0.0490874148653497
 40
0.0490874148653497
 40
0.0490874148653497
 10
-12.94125108009499
 20
0.1376280251518551
 30
0.0
 41
1.0
 10
-12.92830689758567
 20
0.1376280251518653
 30
0.0
 41
0.9238794417298885
 10
-12.91915398269899
 20
0.1467809487236966
 30
0.0
 41
1.0
 10
-12.91000106781229
 20
0.1559338722955282
 30
0.0
 41
0.9238794417289753
 10
-12.91000108009499
 20
0.1688780548048552
 30
0.0
 41
1.0
  0
SPLINE
  5
1CB
330
1F
100
AcDbEntity
  8
Default
100
AcDbSpline
210
0.0
220
0.0
230
1.0
 70
    24
 71
     2
 72
     6
 73
     3
 74
     0
 42
0.0000000001
 43
0.0000000001
 40
-0.34375
 40
-0.34375
 40
-0.34375
 40
0.0
 40
0.0
 40
0.0
 10
-13.28500108009499
 20
0.1376280251518551
 30
0.0
 10
-13.11312608009499
 20
0.1376280251518551
 30
0.0
 10
-12.94125108009499
 20
0.1376280251518551
 30
0.0
  0
SPLINE
  5
1CC
330
1F
100
AcDbEntity
  8
Default
100
AcDbSpline
210
0.0
220
0.0
230
1.0
 70
    12
 71
     2
 72
     6
 73
     3
 74
     0
 42
0.0000000001
 43
0.0000000001
 40
0.0
 40
0.0
 40
0.0
 40
0.1963495408493625
 40
0.1963495408493625
 40
0.1963495408493625
 10
-13.41000108009499
 20
0.2649640654279177
 30
0.0
 41
1.0
 10
-13.41000108009499
 20
0.1376280251518551
 30
0.0
 41
0.70710678118656
 10
-13.28500108009499
 20
0.1376280251518551
 30
0.0
 41
1.0
  0
SPLINE
  5
1CD
330
1F
100
AcDbEntity
  8
Default
100
AcDbSpline
210
0.0
220
0.0
230
1.0
 70
    12
 71
     2
 72
     6
 73
     3
 74
     0
 42
0.0000000001
 43
0.0000000001
 40
0.0
 40
0.0
 40
0.0
 40
0.196349540849361
 40
0.196349540849361
 40
0.196349540849361
 10
-11.78500108009499
 20
0.1376280251518551
 30
0.0
 41
1.0
 10
-11.66000108009499
 20
0.1376280251518551
 30
0.0
 41
0.7071067811865408
 10
-11.66000108009499
 20
0.2626280251518551
 30
0.0
 41
1.0
  0
SPLINE
  5
1CE
330
1F
100
AcDbEntity
  8
Default
100
AcDbSpline
210
0.0
220
0.0
230
1.0
 70
    24
 71
     2
 72
     6
 73
     3
 74
     0
 42
0.0000000001
 43
0.0000000001
 40
-0.34375
 40
-0.34375
 40
-0.34375
 40
0.0
 40
0.0
 40
0.0
 10
-12.12875108009499
 20
0.1376280251518551
 30
0.0
 10
-11.95687608009499
 20
0.1376280251518551
 30
0.0
 10
-11.78500108009499
 20
0.1376280251518551
 30
0.0
  0
SPLINE
  5
1CF
330
1F
100
AcDbEntity
  8
Default
100
AcDbSpline
210
0.0
220
0.0
230
1.0
 70
    12
 71
     2
 72
     8
 73
     5
 74
     0
 42
0.0000000001
 43
0.0000000001
 40
0.0
 40
0.0
 40
0.0
 40
0.0245437074331536
 40
0.0245437074331536
 40
0.0490874148663662
 40
0.0490874148663662
 40
0.0490874148663662
 10
-12.16000108009499
 20
0.1714037086807126
 30
0.0
 41
1.0
 10
-12.1600010923781
 20
0.1559338722962577
 30
0.0
 41
0.9238794417268615
 10
-12.15084817749139
 20
0.1467809487240501
 30
0.0
 41
1.0
 10
-12.14169526260462
 20
0.1376280251518696
 30
0.0
 41
0.92387944172725
 10
-12.12875108009499
 20
0.1376280251518551
 30
0.0
 41
1.0
  0
SPLINE
  5
1D0
330
1F
100
AcDbEntity
  8
Default
100
AcDbSpline
210
0.0
220
0.0
230
1.0
 70
    24
 71
     2
 72
     6
 73
     3
 74
     0
 42
0.0000000001
 43
0.0000000001
 40
0.0
 40
0.0
 40
0.0
 40
2.492448632942286
 40
2.492448632942286
 40
2.492448632942286
 10
-12.16000108009499
 20
2.666377995497855
 30
0.0
 10
-12.16000108009499
 20
1.418890852089284
 30
0.0
 10
-12.16000108009499
 20
0.1714037086807126
 30
0.0
  0
SPLINE
  5
1D1
330
1F
100
AcDbEntity
  8
Default
100
AcDbSpline
210
0.0
220
0.0
230
1.0
 70
    12
 71
     2
 72
     8
 73
     5
 74
     0
 42
0.0000000001
 43
0.0000000001
 40
0.0
 40
0.0
 40
0.0
 40
0.0245437074332097
 40
0.0245437074332097
 40
0.0490874148663679
 40
0.0490874148663679
 40
0.0490874148663679
 10
-12.12875108009499
 20
2.697628025151856
 30
0.0
 41
1.0
 10
-12.14169526260462
 20
2.697628025151841
 30
0.0
 41
0.923879441727346
 10
-12.15084817749139
 20
2.688475101579666
 30
0.0
 41
1.0
 10
-12.16000109237809
 20
2.679322178007455
 30
0.0
 41
0.9238794417269129
 10
-12.16000108009499
 20
2.666377995497855
 30
0.0
 41
1.0
  0
SPLINE
  5
1D2
330
1F
100
AcDbEntity
  8
Default
100
AcDbSpline
210
0.0
220
0.0
230
1.0
 70
    24
 71
     2
 72
     6
 73
     3
 74
     0
 42
0.0000000001
 43
0.0000000001
 40
-0.34375
 40
-0.34375
 40
-0.34375
 40
0.0
 40
0.0
 40
0.0
 10
-11.78500108009499
 20
2.697628025151856
 30
0.0
 10
-11.95687608009499
 20
2.697628025151856
 30
0.0
 10
-12.12875108009499
 20
2.697628025151856
 30
0.0
  0
SPLINE
  5
1D3
330
1F
100
AcDbEntity
  8
Default
100
AcDbSpline
210
0.0
220
0.0
230
1.0
 70
    12
 71
     2
 72
     6
 73
     3
 74
     0
 42
0.0000000001
 43
0.0000000001
 40
0.0
 40
0.0
 40
0.0
 40
0.1963495408493624
 40
0.1963495408493624
 40
0.1963495408493624
 10
-11.66000108009499
 20
2.570291984875793
 30
0.0
 41
1.0
 10
-11.66000108009499
 20
2.697628025151857
 30
0.0
 41
0.7071067811865318
 10
-11.78500108009499
 20
2.697628025151856
 30
0.0
 41
1.0
  0
SPLINE
  5
1D4
330
1F
100
AcDbEntity
  8
Default
100
AcDbSpline
210
0.0
220
0.0
230
1.0
 70
    24
 71
     2
 72
     6
 73
     3
 74
     0
 42
0.0000000001
 43
0.0000000001
 40
0.0
 40
0.0
 40
0.0
 40
2.305327919447875
 40
2.305327919447875
 40
2.305327919447875
 10
-11.66000108009499
 20
0.2626280251518551
 30
0.0
 10
-11.66000108009499
 20
1.416460005013824
 30
0.0
 10
-11.66000108009499
 20
2.570291984875793
 30
0.0
  0
SPLINE
  5
1D5
330
1F
100
AcDbEntity
  8
Default
100
AcDbSpline
210
0.0
220
0.0
230
1.0
 70
    24
 71
     2
 72
     6
 73
     3
 74
     0
 42
0.0000000001
 43
0.0000000001
 40
-0.71875
 40
-0.71875
 40
-0.71875
 40
0.0
 40
0.0
 40
0.0
 10
-12.17562608009499
 20
2.697628025151856
 30
0.0
 10
-12.53500108009499
 20
2.697628025151856
 30
0.0
 10
-12.89437608009499
 20
2.697628025151856
 30
0.0
  0
LINE
  5
1D6
330
1F
100
AcDbEntity
  8
Default
100
AcDbLine
 10
-12.17562608009499
 20
0.9801280251518545
 30
0.0
 11
-12.17562608009499
 21
2.697628025151856
 31
0.0
  0
SPLINE
  5
1D7
330
1F
100
AcDbEntity
  8
Default
100
AcDbSpline
210
0.0
220
0.0
230
1.0
 70
    24
 71
     2
 72
     6
 73
     3
 74
     0
 42
0.0000000001
 43
0.0000000001
 40
-0.71875
 40
-0.71875
 40
-0.71875
 40
0.0
 40
0.0
 40
0.0
 10
-12.89437608009499
 20
0.9801280251518545
 30
0.0
 10
-12.53500108009499
 20
0.9801280251518545
 30
0.0
 10
-12.17562608009499
 20
0.9801280251518545
 30
0.0
  0
LINE
  5
1D8
330
1F
100
AcDbEntity
  8
Default
100
AcDbLine
 10
-12.89437608009499
 20
2.697628025151856
 30
0.0
 11
-12.89437608009499
 21
0.9801280251518545
 31
0.0
  0
SPLINE
  5
1D9
330
1F
100
AcDbEntity
  8
Default
100
AcDbSpline
210
0.0
220
0.0
230
1.0
 70
     8
 71
     3
 72
     8
 73
     4
 74
     0
 42
0.0000000001
 43
0.0000000001
 40
0.0
 40
0.0
 40
0.0
 40
0.0
 40
1.0
 40
1.0
 40
1.0
 40
1.0
 10
-0.5279388112998049
 20
3.983873157277311
 30
0.0
 10
-0.2488444139697877
 20
4.261284549453076
 30
0.0
 10
0.2488443747854356
 20
4.261284572184374
 30
0.0
 10
0.5279388029674408
 20
3.983873157277311
 30
0.0
  0
SPLINE
  5
1DA
330
1F
100
AcDbEntity
  8
Default
100
AcDbSpline
210
0.0
220
0.0
230
1.0
 70
    24
 71
     2
 72
     6
 73
     3
 74
     0
 42
0.0000000001
 43
0.0000000001
 40
0.0
 40
0.0
 40
0.0
 40
1.553604462126479
 40
1.553604462126479
 40
1.553604462126479
 10
0.907162529157473
 20
4.679109380498559
 30
0.0
 10
0.9266571174287925
 20
5.455690071888947
 30
0.0
 10
0.9461517057001121
 20
6.232270763279335
 30
0.0
  0
SPLINE
  5
1DB
330
1F
100
AcDbEntity
  8
Default
100
AcDbSpline
210
0.0
220
0.0
230
1.0
 70
    12
 71
     2
 72
     6
 73
     3
 74
     0
 42
0.0000000001
 43
0.0000000001
 40
-0.3807238837486256
 40
-0.3807238837486256
 40
-0.3807238837486256
 40
0.0
 40
0.0
 40
0.0
 10
0.8759842519935193
 20
4.299628025151854
 30
0.0
 41
1.0
 10
0.8891887611415688
 20
4.489541491497635
 30
0.0
 41
0.999921053373171
 10
0.907162529157473
 20
4.679109380498559
 30
0.0
 41
1.0
  0
SPLINE
  5
1DC
330
1F
100
AcDbEntity
  8
Default
100
AcDbSpline
210
0.0
220
0.0
230
1.0
 70
    24
 71
     2
 72
     6
 73
     3
 74
     0
 42
0.0000000001
 43
0.0000000001
 40
0.0
 40
0.0
 40
0.0
 40
1.726999521608466
 40
1.726999521608466
 40
1.726999521608466
 10
0.8759842519935148
 20
2.572628503543388
 30
0.0
 10
0.875984251993517
 20
3.436128264347621
 30
0.0
 10
0.8759842519935193
 20
4.299628025151854
 30
0.0
  0
SPLINE
  5
1DD
330
1F
100
AcDbEntity
  8
Default
100
AcDbSpline
210
0.0
220
0.0
230
1.0
 70
    24
 71
     2
 72
     6
 73
     3
 74
     0
 42
0.0000000001
 43
0.0000000001
 40
0.0
 40
0.0
 40
0.0
 40
1.553604462126479
 40
1.553604462126479
 40
1.553604462126479
 10
-0.9071625291074508
 20
4.679109380498559
 30
0.0
 10
-0.9266571173787703
 20
5.455690071888947
 30
0.0
 10
-0.9461517056500899
 20
6.232270763279335
 30
0.0
  0
SPLINE
  5
1DE
330
1F
100
AcDbEntity
  8
Default
100
AcDbSpline
210
0.0
220
0.0
230
1.0
 70
    12
 71
     2
 72
     6
 73
     3
 74
     0
 42
0.0000000001
 43
0.0000000001
 40
-0.3807238837486256
 40
-0.3807238837486256
 40
-0.3807238837486256
 40
0.0
 40
0.0
 40
0.0
 10
-0.875984251943497
 20
4.299628025151854
 30
0.0
 41
1.0
 10
-0.8891887610915465
 20
4.489541491497635
 30
0.0
 41
0.999921053373171
 10
-0.9071625291074508
 20
4.679109380498559
 30
0.0
 41
1.0
  0
SPLINE
  5
1DF
330
1F
100
AcDbEntity
  8
Default
100
AcDbSpline
210
0.0
220
0.0
230
1.0
 70
    24
 71
     2
 72
     6
 73
     3
 74
     0
 42
0.0000000001
 43
0.0000000001
 40
0.0
 40
0.0
 40
0.0
 40
1.726999521608466
 40
1.726999521608466
 40
1.726999521608466
 10
-0.8759842519434926
 20
2.572628503543388
 30
0.0
 10
-0.8759842519434948
 20
3.436128264347621
 30
0.0
 10
-0.875984251943497
 20
4.299628025151854
 30
0.0
  0
POLYLINE
  5
1E0
330
1F
100
AcDbEntity
  8
Default
100
AcDb2dPolyline
 66
     1
 10
0.0
 20
0.0
 30
0.0
  0
VERTEX
  5
1E1
330
1E0
100
AcDbEntity
  8
Default
100
AcDbVertex
100
AcDb2dVertex
 10
8.07090269322096
 20
4.15680387229849
 30
0.0
  0
VERTEX
  5
1E2
330
1E0
100
AcDbEntity
  8
Default
100
AcDbVertex
100
AcDb2dVertex
 10
8.054766494666332
 20
2.87167372634142
 30
0.0
  0
SEQEND
  5
1E3
330
1E0
100
AcDbEntity
  8
Default
  0
SPLINE
  5
1E4
330
1F
100
AcDbEntity
  8
Default
100
AcDbSpline
210
0.0
220
0.0
230
1.0
 70
     8
 71
     3
 72
    12
 73
     8
 74
     0
 42
0.0000000001
 43
0.0000000001
 40
0.0
 40
0.0
 40
0.0
 40
0.0
 40
0.0777114771405163
 40
0.1546564840546772
 40
0.2981583361660409
 40
0.4868813327676616
 40
0.7234304532672331
 40
0.7234304532672331
 40
0.7234304532672331
 40
0.7234304532672331
 10
7.807965034237064
 20
4.783826277823792
 30
0.0
 10
7.831348085561796
 20
4.772093177813985
 30
0.0
 10
7.874649905217688
 20
4.745112321160113
 30
0.0
 10
7.95357876000579
 20
4.682740548549261
 30
0.0
 10
8.026875211021622
 20
4.564931511059648
 30
0.0
 10
8.064946641534917
 20
4.376998626768121
 30
0.0
 10
8.07111353404968
 20
4.235915961513516
 30
0.0
 10
8.07090269322096
 20
4.15680387229849
 30
0.0
  0
SPLINE
  5
1E5
330
1F
100
AcDbEntity
  8
Default
100
AcDbSpline
210
0.0
220
0.0
230
1.0
 70
    12
 71
     2
 72
    12
 73
     9
 74
     0
 42
0.0000000001
 43
0.0000000001
 40
0.0
 40
0.0
 40
0.0
 40
0.0219657447765961
 40
0.0219657447765961
 40
0.2012253551878538
 40
0.2012253551878538
 40
0.4000652492478786
 40
0.4000652492478786
 40
0.6196896136585456
 40
0.6196896136585456
 40
0.6196896136585456
 10
7.261537500123602
 20
5.076104519010691
 30
0.0
 41
1.0
 10
7.271190769367476
 20
5.070866400916445
 30
0.0
 41
0.9999999852867707
 10
7.280845835151629
 20
5.065631595001451
 30
0.0
 41
1.0
 10
7.359637475149962
 20
5.022906979825041
 30
0.0
 41
0.9999987588496051
 10
7.438563351759421
 20
4.980430853859654
 30
0.0
 41
1.0
 10
7.526109863685297
 20
4.933314368762272
 30
0.0
 41
0.9999977956929498
 10
7.613853461289613
 20
4.886565935657295
 30
0.0
 41
1.0
 10
7.710768092546605
 20
4.834929414581666
 30
0.0
 41
0.9999962247547252
 10
7.807965034237064
 20
4.783826277823792
 30
0.0
 41
1.0
  0
SPLINE
  5
1E6
330
1F
100
AcDbEntity
  8
Default
100
AcDbSpline
210
0.0
220
0.0
230
1.0
 70
     8
 71
     3
 72
    11
 73
     7
 74
     0
 42
0.0000000001
 43
0.0000000001
 40
0.0
 40
0.0
 40
0.0
 40
0.0
 40
0.228878354841985
 40
0.3827236574931573
 40
0.6319093170913446
 40
0.9898010798300454
 40
0.9898010798300454
 40
0.9898010798300454
 40
0.9898010798300454
 10
8.24138961855249
 20
3.916889492095661
 30
0.0
 10
8.241214198883224
 20
3.993207399787008
 30
0.0
 10
8.242451954202654
 20
4.187698326034921
 30
0.0
 10
8.233807845480765
 20
4.398374097003265
 30
0.0
 10
8.211633502154585
 20
4.65093901701495
 30
0.0
 10
8.131814072215843
 20
4.844045469234842
 30
0.0
 10
8.043873814571624
 20
4.927587509484363
 30
0.0
  0
SPLINE
  5
1E7
330
1F
100
AcDbEntity
  8
Default
100
AcDbSpline
210
0.0
220
0.0
230
1.0
 70
    12
 71
     2
 72
    20
 73
    17
 74
     0
 42
0.0000000001
 43
0.0000000001
 40
-0.6326102639687782
 40
-0.6326102639687782
 40
-0.6326102639687782
 40
0.0
 40
0.0
 40
6.228803922046562
 40
6.228803922046562
 40
6.754706867413238
 40
6.754706867413238
 40
7.584796540661103
 40
7.584796540661103
 40
7.703003709330384
 40
7.703003709330384
 40
8.499385155016927
 40
8.499385155016927
 40
8.623796281411327
 40
8.623796281411327
 40
9.597371973369967
 40
9.597371973369967
 40
9.597371973369967
 10
0.9438609266247784
 20
6.14101595586913
 30
0.0
 41
1.0
 10
1.065086968640641
 20
6.104792871039255
 30
0.0
 41
0.9999984060425278
 10
1.186182887295807
 20
6.068137126298687
 30
0.0
 41
1.0
 10
4.167013164393476
 20
5.165839551239184
 30
0.0
 41
1.0
 10
7.147843441491016
 20
4.263541976179532
 30
0.0
 41
1.0
 10
7.17847742401371
 20
3.980986512942001
 30
0.0
 41
0.9999456278703327
 10
7.202352052136579
 20
3.719111557839135
 30
0.0
 41
1.0
 10
7.240034906542141
 20
3.305777546736683
 30
0.0
 41
0.9999878711153075
 10
7.276775939654891
 20
2.870612511194787
 30
0.0
 41
1.0
 10
7.283612796526057
 20
2.797668167934844
 30
0.0
 41
0.7395367103834682
 10
7.356465195486694
 20
2.797628025153174
 30
0.0
 41
1.0
 10
7.754655918329966
 20
2.797628025153174
 30
0.0
 41
1.0
 10
8.15284664117324
 20
2.797628025153175
 30
0.0
 41
1.0
 10
8.231603766034537
 20
2.797628025153173
 30
0.0
 41
0.7126207291208112
 10
8.232836835398391
 20
2.876375496581545
 30
0.0
 41
1.0
 10
8.242508534830623
 20
3.430094883574336
 30
0.0
 41
0.9999751998217252
 10
8.241389618552493
 20
3.916889492095661
 30
0.0
 41
1.0
  0
POLYLINE
  5
1E8
330
1F
100
AcDbEntity
  8
Default
100
AcDb2dPolyline
 66
     1
 10
0.0
 20
0.0
 30
0.0
  0
VERTEX
  5
1E9
330
1E8
100
AcDbEntity
  8
Default
100
AcDbVertex
100
AcDb2dVertex
 10
-8.070902693170938
 20
4.15680387229849
 30
0.0
  0
VERTEX
  5
1EA
330
1E8
100
AcDbEntity
  8
Default
100
AcDbVertex
100
AcDb2dVertex
 10
-8.05476649461631
 20
2.87167372634142
 30
0.0
  0
SEQEND
  5
1EB
330
1E8
100
AcDbEntity
  8
Default
  0
SPLINE
  5
1EC
330
1F
100
AcDbEntity
  8
Default
100
AcDbSpline
210
0.0
220
0.0
230
1.0
 70
     8
 71
     3
 72
    12
 73
     8
 74
     0
 42
0.0000000001
 43
0.0000000001
 40
0.0
 40
0.0
 40
0.0
 40
0.0
 40
0.0777114771405163
 40
0.1546564840546772
 40
0.2981583361660409
 40
0.4868813327676616
 40
0.7234304532672331
 40
0.7234304532672331
 40
0.7234304532672331
 40
0.7234304532672331
 10
-7.807965034187042
 20
4.783826277823792
 30
0.0
 10
-7.831348085511774
 20
4.772093177813985
 30
0.0
 10
-7.874649905167666
 20
4.745112321160113
 30
0.0
 10
-7.953578759955768
 20
4.682740548549261
 30
0.0
 10
-8.0268752109716
 20
4.564931511059648
 30
0.0
 10
-8.064946641484894
 20
4.376998626768121
 30
0.0
 10
-8.071113533999657
 20
4.235915961513516
 30
0.0
 10
-8.070902693170938
 20
4.15680387229849
 30
0.0
  0
SPLINE
  5
1ED
330
1F
100
AcDbEntity
  8
Default
100
AcDbSpline
210
0.0
220
0.0
230
1.0
 70
    12
 71
     2
 72
    12
 73
     9
 74
     0
 42
0.0000000001
 43
0.0000000001
 40
0.0
 40
0.0
 40
0.0
 40
0.0219657447765961
 40
0.0219657447765961
 40
0.2012253551878538
 40
0.2012253551878538
 40
0.4000652492478786
 40
0.4000652492478786
 40
0.6196896136585456
 40
0.6196896136585456
 40
0.6196896136585456
 10
-7.26153750007358
 20
5.076104519010691
 30
0.0
 41
1.0
 10
-7.271190769317454
 20
5.070866400916445
 30
0.0
 41
0.9999999852867707
 10
-7.280845835101607
 20
5.065631595001451
 30
0.0
 41
1.0
 10
-7.359637475099938
 20
5.022906979825041
 30
0.0
 41
0.9999987588496051
 10
-7.438563351709399
 20
4.980430853859654
 30
0.0
 41
1.0
 10
-7.526109863635275
 20
4.933314368762272
 30
0.0
 41
0.9999977956929498
 10
-7.613853461239591
 20
4.886565935657295
 30
0.0
 41
1.0
 10
-7.710768092496584
 20
4.834929414581666
 30
0.0
 41
0.9999962247547252
 10
-7.807965034187042
 20
4.783826277823792
 30
0.0
 41
1.0
  0
SPLINE
  5
1EE
330
1F
100
AcDbEntity
  8
Default
100
AcDbSpline
210
0.0
220
0.0
230
1.0
 70
     8
 71
     3
 72
    11
 73
     7
 74
     0
 42
0.0000000001
 43
0.0000000001
 40
0.0
 40
0.0
 40
0.0
 40
0.0
 40
0.228878354841985
 40
0.3827236574931573
 40
0.6319093170913446
 40
0.9898010798300454
 40
0.9898010798300454
 40
0.9898010798300454
 40
0.9898010798300454
 10
-8.241389618502469
 20
3.916889492095661
 30
0.0
 10
-8.241214198833202
 20
3.993207399787008
 30
0.0
 10
-8.242451954152632
 20
4.187698326034921
 30
0.0
 10
-8.233807845430743
 20
4.398374097003265
 30
0.0
 10
-8.211633502104563
 20
4.65093901701495
 30
0.0
 10
-8.13181407216582
 20
4.844045469234842
 30
0.0
 10
-8.043873814521602
 20
4.927587509484363
 30
0.0
  0
SPLINE
  5
1EF
330
1F
100
AcDbEntity
  8
Default
100
AcDbSpline
210
0.0
220
0.0
230
1.0
 70
    12
 71
     2
 72
    20
 73
    17
 74
     0
 42
0.0000000001
 43
0.0000000001
 40
-0.6326102639687782
 40
-0.6326102639687782
 40
-0.6326102639687782
 40
0.0
 40
0.0
 40
6.228803922046562
 40
6.228803922046562
 40
6.754706867413238
 40
6.754706867413238
 40
7.584796540661103
 40
7.584796540661103
 40
7.703003709330384
 40
7.703003709330384
 40
8.499385155016927
 40
8.499385155016927
 40
8.623796281411327
 40
8.623796281411327
 40
9.597371973369967
 40
9.597371973369967
 40
9.597371973369967
 10
-0.9438609265747562
 20
6.14101595586913
 30
0.0
 41
1.0
 10
-1.065086968590619
 20
6.104792871039255
 30
0.0
 41
0.9999984060425278
 10
-1.186182887245785
 20
6.068137126298687
 30
0.0
 41
1.0
 10
-4.167013164343453
 20
5.165839551239184
 30
0.0
 41
1.0
 10
-7.147843441440994
 20
4.263541976179532
 30
0.0
 41
1.0
 10
-7.178477423963689
 20
3.980986512942001
 30
0.0
 41
0.9999456278703327
 10
-7.202352052086557
 20
3.719111557839135
 30
0.0
 41
1.0
 10
-7.240034906492118
 20
3.305777546736683
 30
0.0
 41
0.9999878711153075
 10
-7.276775939604869
 20
2.870612511194787
 30
0.0
 41
1.0
 10
-7.283612796476036
 20
2.797668167934844
 30
0.0
 41
0.7395367103834682
 10
-7.356465195436672
 20
2.797628025153174
 30
0.0
 41
1.0
 10
-7.754655918279944
 20
2.797628025153174
 30
0.0
 41
1.0
 10
-8.152846641123217
 20
2.797628025153175
 30
0.0
 41
1.0
 10
-8.231603765984516
 20
2.797628025153173
 30
0.0
 41
0.7126207291208112
 10
-8.232836835348369
 20
2.876375496581545
 30
0.0
 41
1.0
 10
-8.2425085347806
 20
3.430094883574336
 30
0.0
 41
0.9999751998217252
 10
-8.24138961850247
 20
3.916889492095661
 30
0.0
 41
1.0
  0
SPLINE
  5
1F0
330
1F
100
AcDbEntity
  8
Default
100
AcDbSpline
210
0.0
220
0.0
230
1.0
 70
    12
 71
     2
 72
     6
 73
     3
 74
     0
 42
0.0000000001
 43
0.0000000001
 40
-0.9002738465380399
 40
-0.9002738465380399
 40
-0.9002738465380399
 40
0.0
 40
0.0
 40
0.0
 10
12.1657993839105
 20
4.156803872298362
 30
0.0
 41
1.0
 10
12.21936265635587
 20
3.709863940042107
 30
0.0
 41
0.9999960116697004
 10
12.28803432915502
 20
2.871673725794611
 30
0.0
 41
1.0
  0
SPLINE
  5
1F1
330
1F
100
AcDbEntity
  8
Default
100
AcDbSpline
210
0.0
220
0.0
230
1.0
 70
     8
 71
     3
 72
    12
 73
     8
 74
     0
 42
0.0000000001
 43
0.0000000001
 40
0.0
 40
0.0
 40
0.0
 40
0.0
 40
0.1304698364917213
 40
0.2435530191724092
 40
0.4202610833918047
 40
0.6278468604377302
 40
0.8694819765484789
 40
0.8694819765484789
 40
0.8694819765484789
 40
0.8694819765484789
 10
11.66169750825063
 20
4.783826277824007
 30
0.0
 10
11.70340616757758
 20
4.7713966247946
 30
0.0
 10
11.77970201152623
 20
4.743457204000701
 30
0.0
 10
11.90659477730532
 20
4.683726923589577
 30
0.0
 10
12.03670647723832
 20
4.57595229169721
 30
0.0
 10
12.12943297076464
 20
4.384241796743362
 30
0.0
 10
12.15618325965924
 20
4.237042246938568
 30
0.0
 10
12.1657993839105
 20
4.156803872298362
 30
0.0
  0
SPLINE
  5
1F2
330
1F
100
AcDbEntity
  8
Default
100
AcDbSpline
210
0.0
220
0.0
230
1.0
 70
    12
 71
     2
 72
    62
 73
    59
 74
     0
 42
0.0000000001
 43
0.0000000001
 40
0.0
 40
0.0
 40
0.0
 40
0.5951612262701652
 40
0.5951612262701652
 40
1.136271914371296
 40
1.136271914371296
 40
1.628892629194652
 40
1.628892629194652
 40
2.078584755984497
 40
2.078584755984497
 40
2.490909357037769
 40
2.490909357037769
 40
2.871427336197556
 40
2.871427336197556
 40
3.225699575272315
 40
3.225699575272315
 40
3.559287048594487
 40
3.559287048594487
 40
3.877750923729905
 40
3.877750923729905
 40
4.187063172131393
 40
4.187063172131393
 40
4.498059089899636
 40
4.498059089899636
 40
4.834928755310043
 40
4.834928755310043
 40
5.221255839049146
 40
5.221255839049146
 40
5.647727922597271
 40
5.647727922597271
 40
6.085052402856194
 40
6.085052402856194
 40
6.488955408981431
 40
6.488955408981431
 40
6.844981922201951
 40
6.844981922201951
 40
7.158509595040932
 40
7.158509595040932
 40
7.438403270893588
 40
7.438403270893588
 40
7.693331252177657
 40
7.693331252177657
 40
7.926348360459921
 40
7.926348360459921
 40
8.136560569415305
 40
8.136560569415305
 40
8.339895092427948
 40
8.339895092427948
 40
8.55259838424204
 40
8.55259838424204
 40
8.781545330664224
 40
8.781545330664224
 40
9.033396055488625
 40
9.033396055488625
 40
9.313618316989823
 40
9.313618316989823
 40
9.62470543009556
 40
9.62470543009556
 40
9.968678105622077
 40
9.968678105622077
 40
9.968678105622077
 10
2.158143793339022
 20
7.794655549351875
 30
0.0
 41
1.0
 10
2.442608064191792
 20
7.705681488674279
 30
0.0
 41
0.9999999999194691
 10
2.726622598753602
 20
7.616856011019086
 30
0.0
 41
1.0
 10
2.984844054651949
 20
7.536097891207165
 30
0.0
 41
0.9999999999277216
 10
3.243063568535371
 20
7.455333562132386
 30
0.0
 41
1.0
 10
3.478143496074718
 20
7.381806560990918
 30
0.0
 41
0.9999999992562242
 10
3.713217751218764
 20
7.30826142656967
 30
0.0
 41
1.0
 10
3.927806869165034
 20
7.241125275268133
 30
0.0
 41
0.999999998094429
 10
4.142387696249063
 20
7.173962629395636
 30
0.0
 41
1.0
 10
4.339137746895537
 20
7.112380879473444
 30
0.0
 41
0.9999999965679425
 10
4.535877590750719
 20
7.050766528930877
 30
0.0
 41
1.0
 10
4.717440961694956
 20
6.993905068366349
 30
0.0
 41
0.9999999948160331
 10
4.898992749259655
 20
6.937006634308668
 30
0.0
 41
1.0
 10
5.068022228820987
 20
6.884032676718238
 30
0.0
 41
0.9999999928584481
 10
5.237039041512872
 20
6.831018318559222
 30
0.0
 41
1.0
 10
5.396187528464658
 20
6.78109928373282
 30
0.0
 41
0.9999999906266546
 10
5.555322339765231
 20
6.731136670016019
 30
0.0
 41
1.0
 10
5.707242581770573
 20
6.683439181420591
 30
0.0
 41
0.999999987939692
 10
5.859148000831589
 20
6.635694506228874
 30
0.0
 41
1.0
 10
6.006688156765348
 20
6.589321888919443
 30
0.0
 41
0.999999984438125
 10
6.154211941471269
 20
6.54289721665211
 30
0.0
 41
1.0
 10
6.30253876370144
 20
6.496219923394506
 30
0.0
 41
0.9999999788574961
 10
6.450846376586884
 20
6.449481632251487
 30
0.0
 41
1.0
 10
6.611492731736531
 20
6.398855130211764
 30
0.0
 41
0.9999999666055444
 10
6.772112898057057
 20
6.348145601493673
 30
0.0
 41
1.0
 10
6.956314656867779
 20
6.289991762656715
 30
0.0
 41
0.9999999394395688
 10
7.140475893170578
 20
6.231709724567201
 30
0.0
 41
1.0
 10
7.343774415538602
 20
6.167372125484139
 30
0.0
 41
0.9999998954029852
 10
7.547013999736977
 20
6.102848585069348
 30
0.0
 41
1.0
 10
7.755425617791817
 20
6.036683769948715
 30
0.0
 41
0.999999842484512
 10
7.963762831076662
 20
5.9702850435987
 30
0.0
 41
1.0
 10
8.15617828637495
 20
5.908960396897075
 30
0.0
 41
0.9999998135043583
 10
8.348518692534107
 20
5.847400768167861
 30
0.0
 41
1.0
 10
8.51806008943158
 20
5.793138050819505
 30
0.0
 41
0.9999998052859095
 10
8.687533629888456
 20
5.738663773945037
 30
0.0
 41
1.0
 10
8.836776517382217
 20
5.690690169084578
 30
0.0
 41
0.9999998223239517
 10
8.985962103330408
 20
5.642538666760334
 30
0.0
 41
1.0
 10
9.119142234773443
 20
5.599548288361421
 30
0.0
 41
0.9999999004159054
 10
9.252283941452138
 20
5.556439055142188
 30
0.0
 41
1.0
 10
9.373549972373134
 20
5.517175594991264
 30
0.0
 41
0.9999999700882024
 10
9.494796781994378
 20
5.477852818957023
 30
0.0
 41
1.0
 10
9.60562252812922
 20
5.441909847007225
 30
0.0
 41
0.9999999971886839
 10
9.71644288270705
 20
5.405950255099138
 30
0.0
 41
1.0
 10
9.81641758962266
 20
5.373510291927781
 30
0.0
 41
0.999999997627236
 10
9.91639676502436
 20
5.341084103138391
 30
0.0
 41
1.0
 10
10.01310485996436
 20
5.309718888307486
 30
0.0
 41
0.9999999806906933
 10
10.10982527497967
 20
5.278391685311176
 30
0.0
 41
1.0
 10
10.21100208098562
 20
5.245620853605682
 30
0.0
 41
0.9999999405142294
 10
10.31220146971095
 20
5.212919826009333
 30
0.0
 41
1.0
 10
10.42112912654544
 20
5.177721188567274
 30
0.0
 41
0.9999998607950831
 10
10.53009386752975
 20
5.142637521092888
 30
0.0
 41
1.0
 10
10.64995928755164
 20
5.104043686683281
 30
0.0
 41
0.999999712773409
 10
10.76988307244875
 20
5.065631595000963
 30
0.0
 41
1.0
 10
10.90331639133052
 20
5.022891769801185
 30
0.0
 41
0.9999994542204448
 10
11.03683872602879
 20
4.980430853859133
 30
0.0
 41
1.0
 10
11.18506756869728
 20
4.933292341720862
 30
0.0
 41
0.9999990346608162
 10
11.33342683568717
 20
4.886565935656706
 30
0.0
 41
1.0
 10
11.49746899631448
 20
4.834898394684561
 30
0.0
 41
0.9999983550314561
 10
11.66169750825063
 20
4.783826277824007
 30
0.0
 41
1.0
  0
SPLINE
  5
1F3
330
1F
100
AcDbEntity
  8
Default
100
AcDbSpline
210
0.0
220
0.0
230
1.0
 70
     8
 71
     3
 72
    13
 73
     9
 74
     0
 42
0.0000000001
 43
0.0000000001
 40
-6.0
 40
-6.0
 40
-6.0
 40
-6.0
 40
-5.0
 40
-4.0
 40
-3.0
 40
-2.0
 40
-1.0
 40
0.0
 40
0.0
 40
0.0
 40
0.0
 10
0.8635623319785317
 20
7.832174001357371
 30
0.0
 10
0.8832629534820493
 20
7.913030837344492
 30
0.0
 10
1.038424830779653
 20
7.975058838429161
 30
0.0
 10
1.264431436394866
 20
7.976721799147452
 30
0.0
 10
1.493054340031115
 20
7.958407677113603
 30
0.0
 10
1.717880208665415
 20
7.917917041861055
 30
0.0
 10
1.940340046065335
 20
7.865379628030172
 30
0.0
 10
2.085160826956104
 20
7.817910634708359
 30
0.0
 10
2.158143793339022
 20
7.794655549351875
 30
0.0
  0
ARC
  5
1F4
330
1F
100
AcDbEntity
  8
Default
100
AcDbCircle
 10
-2.051492646184915
 20
-15.19640219540753
 30
0.0
 40
21.63732646217517
100
AcDbArc
 50
79.42340351347474
 51
82.61735116736537
  0
LINE
  5
1F5
330
1F
100
AcDbEntity
  8
Default
100
AcDbLine
 10
11.68133498257323
 20
4.250663037521255
 30
0.0
 11
1.920035105153296
 21
6.073314863150077
 31
0.0
  0
SPLINE
  5
1F6
330
1F
100
AcDbEntity
  8
Default
100
AcDbSpline
210
0.0
220
0.0
230
1.0
 70
     8
 71
     3
 72
    11
 73
     7
 74
     0
 42
0.0000000001
 43
0.0000000001
 40
4.764430144314341
 40
4.764430144314341
 40
4.764430144314341
 40
4.764430144314341
 40
5.008315578540884
 40
5.119818273382206
 40
5.18847192926391
 40
5.271331508038644
 40
5.271331508038644
 40
5.271331508038644
 40
5.271331508038644
 10
12.0180224465469
 20
3.931697228581415
 30
0.0
 10
12.01181383439237
 20
4.010900729295621
 30
0.0
 10
11.97315423964484
 20
4.135414048823339
 30
0.0
 10
11.8459826928592
 20
4.208352879384672
 30
0.0
 10
11.76330171906188
 20
4.233688698341419
 30
0.0
 10
11.71314273739661
 20
4.244723822137441
 30
0.0
 10
11.68133498257323
 20
4.250663037521255
 30
0.0
  0
LINE
  5
1F7
330
1F
100
AcDbEntity
  8
Default
100
AcDbLine
 10
12.07486711359249
 20
2.873396958304906
 30
0.0
 11
12.0180224465469
 21
3.931697228581415
 31
0.0
  0
ARC
  5
1F8
330
1F
100
AcDbEntity
  8
Default
100
AcDbCircle
 10
12.154815084229
 20
2.877691217599214
 30
0.0
 40
0.0800632167214291
100
AcDbArc
 50
183.0745836397718
 51
269.9552967070831
  0
LINE
  5
1F9
330
1F
100
AcDbEntity
  8
Default
100
AcDbLine
 10
12.91692531531831
 20
2.798217811364815
 30
0.0
 11
12.15475261734058
 21
2.797628025246732
 31
0.0
  0
ARC
  5
1FA
330
1F
100
AcDbEntity
  8
Default
100
AcDbCircle
 10
12.90731878780585
 20
2.877737280871023
 30
0.0
 40
0.0800976366779727
100
AcDbArc
 50
276.8883638395407
 51
4.212743180837528
  0
LINE
  5
1FB
330
1F
100
AcDbEntity
  8
Default
100
AcDbLine
 10
12.89442130634482
 20
4.175432846007868
 30
0.0
 11
12.98720001377481
 21
2.883621253941321
 31
0.0
  0
SPLINE
  5
1FC
330
1F
100
AcDbEntity
  8
Default
100
AcDbSpline
210
0.0
220
0.0
230
1.0
 70
     8
 71
     3
 72
    12
 73
     8
 74
     0
 42
0.0000000001
 43
0.0000000001
 40
0.0000000000000005
 40
0.0000000000000005
 40
0.0000000000000005
 40
0.0000000000000005
 40
0.4316943487276926
 40
0.7207259165309453
 40
1.0497358550603
 40
1.226131776502205
 40
1.422849610230158
 40
1.422849610230158
 40
1.422849610230158
 40
1.422849610230158
 10
12.00170201506743
 20
5.146223039208433
 30
0.0
 10
12.13818067505581
 20
5.102178036291134
 30
0.0
 10
12.38245707883614
 20
5.030345637700202
 30
0.0
 10
12.67423156585766
 20
4.826686839434887
 30
0.0
 10
12.80502513430026
 20
4.587707138467406
 30
0.0
 10
12.87193068497127
 20
4.365326391044763
 30
0.0
 10
12.8897590167216
 20
4.240348600362281
 30
0.0
 10
12.89442130634482
 20
4.175432846007868
 30
0.0
  0
ARC
  5
1FD
330
1F
100
AcDbEntity
  8
Default
100
AcDbCircle
 10
529.670622316578
 20
1609.204705973968
 30
0.0
 40
1685.522093513192
100
AcDbArc
 50
251.8645244897879
 51
252.1138399515331
  0
ARC
  5
1FE
330
1F
100
AcDbEntity
  8
Default
100
AcDbCircle
 10
-44.50143746654066
 20
-143.8006311863039
 30
0.0
 40
159.1191361973409
100
AcDbArc
 50
71.86452448978882
 51
73.3953426409905
  0
ARC
  5
1FF
330
1F
100
AcDbEntity
  8
Default
100
AcDbCircle
 10
2.051492646234937
 20
-15.19640219540753
 30
0.0
 40
21.63732646217517
100
AcDbArc
 50
97.38264883263464
 51
100.5765964865253
  0
LINE
  5
200
330
1F
100
AcDbEntity
  8
Default
100
AcDbLine
 10
-11.68133498252321
 20
4.250663037521255
 30
0.0
 11
-1.920035105103273
 21
6.073314863150077
 31
0.0
  0
SPLINE
  5
201
330
1F
100
AcDbEntity
  8
Default
100
AcDbSpline
210
0.0
220
0.0
230
1.0
 70
     8
 71
     3
 72
    11
 73
     7
 74
     0
 42
0.0000000001
 43
0.0000000001
 40
4.764430144314341
 40
4.764430144314341
 40
4.764430144314341
 40
4.764430144314341
 40
5.008315578540884
 40
5.119818273382206
 40
5.18847192926391
 40
5.271331508038644
 40
5.271331508038644
 40
5.271331508038644
 40
5.271331508038644
 10
-12.01802244649688
 20
3.931697228581415
 30
0.0
 10
-12.01181383434235
 20
4.010900729295621
 30
0.0
 10
-11.97315423959482
 20
4.135414048823339
 30
0.0
 10
-11.84598269280918
 20
4.208352879384672
 30
0.0
 10
-11.76330171901186
 20
4.233688698341419
 30
0.0
 10
-11.71314273734659
 20
4.244723822137441
 30
0.0
 10
-11.68133498252321
 20
4.250663037521255
 30
0.0
  0
LINE
  5
202
330
1F
100
AcDbEntity
  8
Default
100
AcDbLine
 10
-12.07486711354247
 20
2.873396958304906
 30
0.0
 11
-12.01802244649688
 21
3.931697228581415
 31
0.0
  0
ARC
  5
203
330
1F
100
AcDbEntity
  8
Default
100
AcDbCircle
 10
-12.15481508417898
 20
2.877691217599214
 30
0.0
 40
0.0800632167214291
100
AcDbArc
 50
270.0447032929169
 51
356.9254163602278
  0
LINE
  5
204
330
1F
100
AcDbEntity
  8
Default
100
AcDbLine
 10
-12.91692531526829
 20
2.798217811364815
 30
0.0
 11
-12.15475261729055
 21
2.797628025246732
 31
0.0
  0
ARC
  5
205
330
1F
100
AcDbEntity
  8
Default
100
AcDbCircle
 10
-12.90731878775582
 20
2.877737280871023
 30
0.0
 40
0.0800976366779727
100
AcDbArc
 50
175.7872568191625
 51
263.1116361604593
  0
LINE
  5
206
330
1F
100
AcDbEntity
  8
Default
100
AcDbLine
 10
-12.8944213062948
 20
4.175432846007868
 30
0.0
 11
-12.98720001372479
 21
2.883621253941321
 31
0.0
  0
SPLINE
  5
207
330
1F
100
AcDbEntity
  8
Default
100
AcDbSpline
210
0.0
220
0.0
230
1.0
 70
     8
 71
     3
 72
    12
 73
     8
 74
     0
 42
0.0000000001
 43
0.0000000001
 40
0.0000000000000005
 40
0.0000000000000005
 40
0.0000000000000005
 40
0.0000000000000005
 40
0.4316943487276926
 40
0.7207259165309453
 40
1.0497358550603
 40
1.226131776502205
 40
1.422849610230158
 40
1.422849610230158
 40
1.422849610230158
 40
1.422849610230158
 10
-12.0017020150174
 20
5.146223039208433
 30
0.0
 10
-12.13818067500578
 20
5.102178036291134
 30
0.0
 10
-12.38245707878612
 20
5.030345637700202
 30
0.0
 10
-12.67423156580764
 20
4.826686839434887
 30
0.0
 10
-12.80502513425024
 20
4.587707138467406
 30
0.0
 10
-12.87193068492125
 20
4.365326391044763
 30
0.0
 10
-12.88975901667158
 20
4.240348600362281
 30
0.0
 10
-12.8944213062948
 20
4.175432846007868
 30
0.0
  0
ARC
  5
208
330
1F
100
AcDbEntity
  8
Default
100
AcDbCircle
 10
-529.670622316528
 20
1609.204705973968
 30
0.0
 40
1685.522093513192
100
AcDbArc
 50
287.8861600484669
 51
288.1354755102121
  0
ARC
  5
209
330
1F
100
AcDbEntity
  8
Default
100
AcDbCircle
 10
44.50143746659069
 20
-143.8006311863039
 30
0.0
 40
159.1191361973409
100
AcDbArc
 50
106.6046573590095
 51
108.1354755102112
  0
SPLINE
  5
20A
330
1F
100
AcDbEntity
  8
Default
100
AcDbSpline
210
0.0
220
0.0
230
1.0
 70
    12
 71
     2
 72
     6
 73
     3
 74
     0
 42
0.0000000001
 43
0.0000000001
 40
-0.9002738465380399
 40
-0.9002738465380399
 40
-0.9002738465380399
 40
0.0
 40
0.0
 40
0.0
 10
-12.16579938386048
 20
4.156803872298362
 30
0.0
 41
1.0
 10
-12.21936265630585
 20
3.709863940042107
 30
0.0
 41
0.9999960116697004
 10
-12.288034329105
 20
2.871673725794611
 30
0.0
 41
1.0
  0
SPLINE
  5
20B
330
1F
100
AcDbEntity
  8
Default
100
AcDbSpline
210
0.0
220
0.0
230
1.0
 70
     8
 71
     3
 72
    12
 73
     8
 74
     0
 42
0.0000000001
 43
0.0000000001
 40
0.0
 40
0.0
 40
0.0
 40
0.0
 40
0.1304698364917213
 40
0.2435530191724092
 40
0.4202610833918047
 40
0.6278468604377302
 40
0.8694819765484789
 40
0.8694819765484789
 40
0.8694819765484789
 40
0.8694819765484789
 10
-11.66169750820061
 20
4.783826277824007
 30
0.0
 10
-11.70340616752755
 20
4.7713966247946
 30
0.0
 10
-11.77970201147621
 20
4.743457204000701
 30
0.0
 10
-11.90659477725529
 20
4.683726923589577
 30
0.0
 10
-12.0367064771883
 20
4.57595229169721
 30
0.0
 10
-12.12943297071462
 20
4.384241796743362
 30
0.0
 10
-12.15618325960921
 20
4.237042246938568
 30
0.0
 10
-12.16579938386048
 20
4.156803872298362
 30
0.0
  0
SPLINE
  5
20C
330
1F
100
AcDbEntity
  8
Default
100
AcDbSpline
210
0.0
220
0.0
230
1.0
 70
    12
 71
     2
 72
    62
 73
    59
 74
     0
 42
0.0000000001
 43
0.0000000001
 40
0.0
 40
0.0
 40
0.0
 40
0.5951612262701652
 40
0.5951612262701652
 40
1.136271914371296
 40
1.136271914371296
 40
1.628892629194652
 40
1.628892629194652
 40
2.078584755984497
 40
2.078584755984497
 40
2.490909357037769
 40
2.490909357037769
 40
2.871427336197556
 40
2.871427336197556
 40
3.225699575272315
 40
3.225699575272315
 40
3.559287048594487
 40
3.559287048594487
 40
3.877750923729905
 40
3.877750923729905
 40
4.187063172131393
 40
4.187063172131393
 40
4.498059089899636
 40
4.498059089899636
 40
4.834928755310043
 40
4.834928755310043
 40
5.221255839049146
 40
5.221255839049146
 40
5.647727922597271
 40
5.647727922597271
 40
6.085052402856194
 40
6.085052402856194
 40
6.488955408981431
 40
6.488955408981431
 40
6.844981922201951
 40
6.844981922201951
 40
7.158509595040932
 40
7.158509595040932
 40
7.438403270893588
 40
7.438403270893588
 40
7.693331252177657
 40
7.693331252177657
 40
7.926348360459921
 40
7.926348360459921
 40
8.136560569415305
 40
8.136560569415305
 40
8.339895092427948
 40
8.339895092427948
 40
8.55259838424204
 40
8.55259838424204
 40
8.781545330664224
 40
8.781545330664224
 40
9.033396055488625
 40
9.033396055488625
 40
9.313618316989823
 40
9.313618316989823
 40
9.62470543009556
 40
9.62470543009556
 40
9.968678105622077
 40
9.968678105622077
 40
9.968678105622077
 10
-2.158143793289
 20
7.794655549351875
 30
0.0
 41
1.0
 10
-2.44260806414177
 20
7.705681488674279
 30
0.0
 41
0.9999999999194691
 10
-2.72662259870358
 20
7.616856011019086
 30
0.0
 41
1.0
 10
-2.984844054601926
 20
7.536097891207165
 30
0.0
 41
0.9999999999277216
 10
-3.243063568485349
 20
7.455333562132386
 30
0.0
 41
1.0
 10
-3.478143496024695
 20
7.381806560990918
 30
0.0
 41
0.9999999992562242
 10
-3.713217751168742
 20
7.30826142656967
 30
0.0
 41
1.0
 10
-3.927806869115012
 20
7.241125275268133
 30
0.0
 41
0.999999998094429
 10
-4.142387696199041
 20
7.173962629395636
 30
0.0
 41
1.0
 10
-4.339137746845514
 20
7.112380879473444
 30
0.0
 41
0.9999999965679425
 10
-4.535877590700697
 20
7.050766528930877
 30
0.0
 41
1.0
 10
-4.717440961644933
 20
6.993905068366349
 30
0.0
 41
0.9999999948160331
 10
-4.898992749209633
 20
6.937006634308668
 30
0.0
 41
1.0
 10
-5.068022228770965
 20
6.884032676718238
 30
0.0
 41
0.9999999928584481
 10
-5.23703904146285
 20
6.831018318559222
 30
0.0
 41
1.0
 10
-5.396187528414636
 20
6.78109928373282
 30
0.0
 41
0.9999999906266546
 10
-5.555322339715209
 20
6.731136670016019
 30
0.0
 41
1.0
 10
-5.707242581720551
 20
6.683439181420591
 30
0.0
 41
0.999999987939692
 10
-5.859148000781567
 20
6.635694506228874
 30
0.0
 41
1.0
 10
-6.006688156715326
 20
6.589321888919443
 30
0.0
 41
0.999999984438125
 10
-6.154211941421247
 20
6.54289721665211
 30
0.0
 41
1.0
 10
-6.302538763651418
 20
6.496219923394506
 30
0.0
 41
0.9999999788574961
 10
-6.450846376536862
 20
6.449481632251487
 30
0.0
 41
1.0
 10
-6.611492731686509
 20
6.398855130211764
 30
0.0
 41
0.9999999666055444
 10
-6.772112898007035
 20
6.348145601493673
 30
0.0
 41
1.0
 10
-6.956314656817757
 20
6.289991762656715
 30
0.0
 41
0.9999999394395688
 10
-7.140475893120556
 20
6.231709724567201
 30
0.0
 41
1.0
 10
-7.343774415488579
 20
6.167372125484139
 30
0.0
 41
0.9999998954029852
 10
-7.547013999686955
 20
6.102848585069348
 30
0.0
 41
1.0
 10
-7.755425617741794
 20
6.036683769948715
 30
0.0
 41
0.999999842484512
 10
-7.96376283102664
 20
5.9702850435987
 30
0.0
 41
1.0
 10
-8.156178286324927
 20
5.908960396897075
 30
0.0
 41
0.9999998135043583
 10
-8.348518692484085
 20
5.847400768167861
 30
0.0
 41
1.0
 10
-8.518060089381558
 20
5.793138050819505
 30
0.0
 41
0.9999998052859095
 10
-8.687533629838434
 20
5.738663773945037
 30
0.0
 41
1.0
 10
-8.836776517332195
 20
5.690690169084578
 30
0.0
 41
0.9999998223239517
 10
-8.985962103280386
 20
5.642538666760334
 30
0.0
 41
1.0
 10
-9.119142234723421
 20
5.599548288361421
 30
0.0
 41
0.9999999004159054
 10
-9.252283941402116
 20
5.556439055142188
 30
0.0
 41
1.0
 10
-9.373549972323111
 20
5.517175594991264
 30
0.0
 41
0.9999999700882024
 10
-9.494796781944356
 20
5.477852818957023
 30
0.0
 41
1.0
 10
-9.605622528079198
 20
5.441909847007225
 30
0.0
 41
0.9999999971886839
 10
-9.716442882657027
 20
5.405950255099138
 30
0.0
 41
1.0
 10
-9.816417589572637
 20
5.373510291927781
 30
0.0
 41
0.999999997627236
 10
-9.916396764974337
 20
5.341084103138391
 30
0.0
 41
1.0
 10
-10.01310485991434
 20
5.309718888307486
 30
0.0
 41
0.9999999806906933
 10
-10.10982527492964
 20
5.278391685311176
 30
0.0
 41
1.0
 10
-10.21100208093559
 20
5.245620853605682
 30
0.0
 41
0.9999999405142294
 10
-10.31220146966093
 20
5.212919826009333
 30
0.0
 41
1.0
 10
-10.42112912649542
 20
5.177721188567274
 30
0.0
 41
0.9999998607950831
 10
-10.53009386747973
 20
5.142637521092888
 30
0.0
 41
1.0
 10
-10.64995928750162
 20
5.104043686683281
 30
0.0
 41
0.999999712773409
 10
-10.76988307239872
 20
5.065631595000963
 30
0.0
 41
1.0
 10
-10.9033163912805
 20
5.022891769801185
 30
0.0
 41
0.9999994542204448
 10
-11.03683872597876
 20
4.980430853859133
 30
0.0
 41
1.0
 10
-11.18506756864725
 20
4.933292341720862
 30
0.0
 41
0.9999990346608162
 10
-11.33342683563714
 20
4.886565935656706
 30
0.0
 41
1.0
 10
-11.49746899626445
 20
4.834898394684561
 30
0.0
 41
0.9999983550314561
 10
-11.66169750820061
 20
4.783826277824007
 30
0.0
 41
1.0
  0
SPLINE
  5
20D
330
1F
100
AcDbEntity
  8
Default
100
AcDbSpline
210
0.0
220
0.0
230
1.0
 70
     8
 71
     3
 72
    13
 73
     9
 74
     0
 42
0.0000000001
 43
0.0000000001
 40
-6.0
 40
-6.0
 40
-6.0
 40
-6.0
 40
-5.0
 40
-4.0
 40
-3.0
 40
-2.0
 40
-1.0
 40
0.0
 40
0.0
 40
0.0
 40
0.0
 10
-0.8635623319285095
 20
7.832174001357371
 30
0.0
 10
-0.8832629534320271
 20
7.913030837344492
 30
0.0
 10
-1.038424830729631
 20
7.975058838429161
 30
0.0
 10
-1.264431436344844
 20
7.976721799147452
 30
0.0
 10
-1.493054339981093
 20
7.958407677113603
 30
0.0
 10
-1.717880208615393
 20
7.917917041861055
 30
0.0
 10
-1.940340046015313
 20
7.865379628030172
 30
0.0
 10
-2.085160826906082
 20
7.817910634708359
 30
0.0
 10
-2.158143793289
 20
7.794655549351875
 30
0.0
  0
SPLINE
  5
20E
330
1F
100
AcDbEntity
  8
Default
100
AcDbSpline
210
0.0
220
0.0
230
1.0
 70
    12
 71
     3
 72
    50
 73
    46
 74
     0
 42
0.0000000001
 43
0.0000000001
 40
-21.39919436954268
 40
-21.39919436954268
 40
-21.39919436954268
 40
-21.39919436954268
 40
-18.31268141022234
 40
-18.31268141022234
 40
-18.31268141022234
 40
-17.31268141022234
 40
-16.31268141022234
 40
-15.31268141022234
 40
-14.31268141022234
 40
-13.31268141022234
 40
-12.31268141022234
 40
-12.31268141022234
 40
-12.31268141022234
 40
-2.340163212403525
 40
-2.340163212403525
 40
-2.340163212403525
 40
-2.138509668222612
 40
-1.974728516318232
 40
-1.720839284697714
 40
-1.436598781496028
 40
-0.9809485365654831
 40
-0.9809485365654831
 40
-0.9809485365654831
 40
-0.8037235255112315
 40
-0.8037235255112315
 40
-0.8037235255112315
 40
-0.6394305824938648
 40
-0.6394305824938648
 40
-0.6394305824938648
 40
-0.4880526041597468
 40
-0.4880526041597468
 40
-0.4880526041597468
 40
-0.3498097180376555
 40
-0.3498097180376555
 40
-0.3498097180376555
 40
-0.2247267776877842
 40
-0.2247267776877842
 40
-0.2247267776877842
 40
-0.111133383893198
 40
-0.111133383893198
 40
-0.111133383893198
 40
-0.0076783149946913
 40
-0.0076783149946913
 40
-0.0076783149946913
 40
0.0
 40
0.0
 40
0.0
 40
0.0
 10
0.4621210449485034
 20
2.871502861561519
 30
0.0
 41
1.0
 10
0.7056799170969653
 20
6.02389063372538
 30
0.0
 41
0.9999999997688959
 10
0.792559474168398
 20
7.049053478964082
 30
0.0
 41
0.9999999997688959
 10
0.8794120378244239
 20
8.074218611458
 30
0.0
 41
1.0
 10
0.8818160654387824
 20
8.163247744511779
 30
0.0
 41
1.0
 10
1.025463404114165
 20
8.273391766750676
 30
0.0
 41
1.0
 10
1.273805735452153
 20
8.293089944852412
 30
0.0
 41
1.0
 10
1.51857038909694
 20
8.26311539187831
 30
0.0
 41
1.0
 10
1.759624667138541
 20
8.212394227813505
 30
0.0
 41
1.0
 10
1.997790557303571
 20
8.149658098179136
 30
0.0
 41
1.0
 10
2.154333878395803
 20
8.10012549899682
 30
0.0
 41
1.0
 10
2.232208056271922
 20
8.074218610037995
 30
0.0
 41
1.0
 10
5.393986531681566
 20
7.047923476594382
 30
0.0
 41
0.9999999572588246
 10
8.556132303348816
 20
6.022760588452021
 30
0.0
 41
0.9999999572588246
 10
11.7186449658122
 20
4.998730077060917
 30
0.0
 41
1.0
 10
11.7828535025426
 20
4.979108436945505
 30
0.0
 41
1.0
 10
11.89742609248801
 20
4.936517264244285
 30
0.0
 41
1.0
 10
12.0849956606068
 20
4.851066944964917
 30
0.0
 41
1.0
 10
12.26645023378045
 20
4.692567060111687
 30
0.0
 41
1.0
 10
12.37955076840282
 20
4.372783829982012
 30
0.0
 41
1.0
 10
12.40148384800288
 20
4.128790558150106
 30
0.0
 41
1.0
 10
12.41868540642637
 20
3.977148038647462
 30
0.0
 41
1.0
 10
12.425343873695
 20
3.918449476122837
 30
0.0
 41
0.9999998944164606
 10
12.43663853897441
 20
3.815419336017385
 30
0.0
 41
0.9999998944164606
 10
12.45256939868699
 20
3.668057650965966
 30
0.0
 41
1.0
 10
12.45859496265877
 20
3.613625823365579
 30
0.0
 41
0.999999615868106
 10
12.46467895555062
 20
3.559200495552252
 30
0.0
 41
0.999999615868106
 10
12.47082137035138
 20
3.504781730245496
 30
0.0
 41
1.0
 10
12.47648176834637
 20
3.454640875116636
 30
0.0
 41
0.9999992667736493
 10
12.48221652557717
 20
3.404508470246943
 30
0.0
 41
0.9999992667736493
 10
12.48802562942913
 20
3.354384625911616
 30
0.0
 41
1.0
 10
12.49333375805791
 20
3.308610390337466
 30
0.0
 41
0.9999991479266753
 10
12.49871506456468
 20
3.262844699998332
 30
0.0
 41
0.9999991479266753
 10
12.50416953519364
 20
3.217087671881384
 30
0.0
 41
1.0
 10
12.50910474563552
 20
3.175686454626539
 30
0.0
 41
0.9999992417095568
 10
12.51410239456317
 20
3.134292728079097
 30
0.0
 41
0.9999992417095568
 10
12.51916247060758
 20
3.092906586404459
 30
0.0
 41
1.0
 10
12.52375806535104
 20
3.055322026598183
 30
0.0
 41
0.9999993390826499
 10
12.52840657843003
 20
3.017743975118203
 30
0.0
 41
0.9999993390826499
 10
12.53310800062771
 20
2.980172506472478
 30
0.0
 41
1.0
 10
12.53739005743591
 20
2.945954361507273
 30
0.0
 41
0.9999994564567191
 10
12.54171580598658
 20
2.91174171245981
 30
0.0
 41
0.9999994564567191
 10
12.54608523922601
 20
2.877534615118256
 30
0.0
 41
1.0
 10
12.54640952268357
 20
2.874995803421546
 30
0.0
 41
0.9999999970820159
 10
12.54673404367742
 20
2.872457022076739
 30
0.0
 41
0.9999999970820159
 10
12.54705880220473
 20
2.869918271106059
 30
0.0
 41
1.0
  0
SPLINE
  5
20F
330
1F
100
AcDbEntity
  8
Default
100
AcDbSpline
210
0.0
220
0.0
230
1.0
 70
     8
 71
     3
 72
     8
 73
     4
 74
     0
 42
0.0000000001
 43
0.0000000001
 40
-1.0
 40
-1.0
 40
-1.0
 40
-1.0
 40
0.0
 40
0.0
 40
0.0
 40
0.0
 10
0.3805675284989789
 20
2.797628025151982
 30
0.0
 10
0.4172470224671029
 20
2.797628025151994
 30
0.0
 10
0.4592955451776525
 20
2.834932356659309
 30
0.0
 10
0.4621210449485034
 20
2.871502861561519
 30
0.0
  0
POLYLINE
  5
210
330
1F
100
AcDbEntity
  8
Default
100
AcDb2dPolyline
 66
     1
 10
0.0
 20
0.0
 30
0.0
  0
VERTEX
  5
211
330
210
100
AcDbEntity
  8
Default
100
AcDbVertex
100
AcDb2dVertex
 10
-0.3805675284489567
 20
2.797628025151982
 30
0.0
  0
VERTEX
  5
212
330
210
100
AcDbEntity
  8
Default
100
AcDbVertex
100
AcDb2dVertex
 10
0.3805675284989789
 20
2.797628025151982
 30
0.0
  0
SEQEND
  5
213
330
210
100
AcDbEntity
  8
Default
  0
SPLINE
  5
214
330
1F
100
AcDbEntity
  8
Default
100
AcDbSpline
210
0.0
220
0.0
230
1.0
 70
     8
 71
     3
 72
     8
 73
     4
 74
     0
 42
0.0000000001
 43
0.0000000001
 40
0.0
 40
0.0
 40
0.0
 40
0.0
 40
1.0
 40
1.0
 40
1.0
 40
1.0
 10
-0.4621210448984812
 20
2.871502861561519
 30
0.0
 10
-0.4592955451276303
 20
2.834932356659309
 30
0.0
 10
-0.4172470224170807
 20
2.797628025151994
 30
0.0
 10
-0.3805675284489567
 20
2.797628025151982
 30
0.0
  0
SPLINE
  5
215
330
1F
100
AcDbEntity
  8
Default
100
AcDbSpline
210
0.0
220
0.0
230
1.0
 70
    12
 71
     3
 72
    50
 73
    46
 74
     0
 42
0.0000000001
 43
0.0000000001
 40
0.0
 40
0.0
 40
0.0
 40
0.0
 40
0.0076783149946913
 40
0.0076783149946913
 40
0.0076783149946913
 40
0.111133383893198
 40
0.111133383893198
 40
0.111133383893198
 40
0.2247267776877842
 40
0.2247267776877842
 40
0.2247267776877842
 40
0.3498097180376555
 40
0.3498097180376555
 40
0.3498097180376555
 40
0.4880526041597468
 40
0.4880526041597468
 40
0.4880526041597468
 40
0.6394305824938648
 40
0.6394305824938648
 40
0.6394305824938648
 40
0.8037235255112315
 40
0.8037235255112315
 40
0.8037235255112315
 40
0.9809485365654831
 40
0.9809485365654831
 40
0.9809485365654831
 40
1.436598781496028
 40
1.720839284697714
 40
1.974728516318232
 40
2.138509668222612
 40
2.340163212403525
 40
2.340163212403525
 40
2.340163212403525
 40
12.31268141022234
 40
12.31268141022234
 40
12.31268141022234
 40
13.31268141022234
 40
14.31268141022234
 40
15.31268141022234
 40
16.31268141022234
 40
17.31268141022234
 40
18.31268141022234
 40
18.31268141022234
 40
18.31268141022234
 40
21.39919436954268
 40
21.39919436954268
 40
21.39919436954268
 40
21.39919436954268
 10
-12.54705880215471
 20
2.869918271106059
 30
0.0
 41
1.0
 10
-12.5467340436274
 20
2.872457022076739
 30
0.0
 41
0.9999999970820159
 10
-12.54640952263355
 20
2.874995803421546
 30
0.0
 41
0.9999999970820159
 10
-12.54608523917599
 20
2.877534615118256
 30
0.0
 41
1.0
 10
-12.54171580593655
 20
2.91174171245981
 30
0.0
 41
0.9999994564567191
 10
-12.53739005738588
 20
2.945954361507273
 30
0.0
 41
0.9999994564567191
 10
-12.53310800057769
 20
2.980172506472478
 30
0.0
 41
1.0
 10
-12.52840657838
 20
3.017743975118203
 30
0.0
 41
0.9999993390826499
 10
-12.52375806530102
 20
3.055322026598183
 30
0.0
 41
0.9999993390826499
 10
-12.51916247055756
 20
3.092906586404459
 30
0.0
 41
1.0
 10
-12.51410239451315
 20
3.134292728079097
 30
0.0
 41
0.9999992417095568
 10
-12.5091047455855
 20
3.175686454626539
 30
0.0
 41
0.9999992417095568
 10
-12.50416953514362
 20
3.217087671881384
 30
0.0
 41
1.0
 10
-12.49871506451466
 20
3.262844699998332
 30
0.0
 41
0.9999991479266753
 10
-12.49333375800789
 20
3.308610390337466
 30
0.0
 41
0.9999991479266753
 10
-12.48802562937911
 20
3.354384625911616
 30
0.0
 41
1.0
 10
-12.48221652552714
 20
3.404508470246943
 30
0.0
 41
0.9999992667736493
 10
-12.47648176829635
 20
3.454640875116636
 30
0.0
 41
0.9999992667736493
 10
-12.47082137030136
 20
3.504781730245496
 30
0.0
 41
1.0
 10
-12.4646789555006
 20
3.559200495552252
 30
0.0
 41
0.999999615868106
 10
-12.45859496260874
 20
3.613625823365579
 30
0.0
 41
0.999999615868106
 10
-12.45256939863697
 20
3.668057650965966
 30
0.0
 41
1.0
 10
-12.43663853892439
 20
3.815419336017385
 30
0.0
 41
0.9999998944164606
 10
-12.42534387364498
 20
3.918449476122837
 30
0.0
 41
0.9999998944164606
 10
-12.41868540637634
 20
3.977148038647462
 30
0.0
 41
1.0
 10
-12.40148384795286
 20
4.128790558150106
 30
0.0
 41
1.0
 10
-12.3795507683528
 20
4.372783829982012
 30
0.0
 41
1.0
 10
-12.26645023373043
 20
4.692567060111687
 30
0.0
 41
1.0
 10
-12.08499566055678
 20
4.851066944964917
 30
0.0
 41
1.0
 10
-11.89742609243799
 20
4.936517264244285
 30
0.0
 41
1.0
 10
-11.78285350249258
 20
4.979108436945505
 30
0.0
 41
1.0
 10
-11.71864496576217
 20
4.998730077060917
 30
0.0
 41
1.0
 10
-8.556132303298794
 20
6.022760588452021
 30
0.0
 41
0.9999999572588246
 10
-5.393986531631544
 20
7.047923476594382
 30
0.0
 41
0.9999999572588246
 10
-2.2322080562219
 20
8.074218610037995
 30
0.0
 41
1.0
 10
-2.154333878345781
 20
8.10012549899682
 30
0.0
 41
1.0
 10
-1.997790557253549
 20
8.149658098179136
 30
0.0
 41
1.0
 10
-1.759624667088519
 20
8.212394227813505
 30
0.0
 41
1.0
 10
-1.518570389046917
 20
8.26311539187831
 30
0.0
 41
1.0
 10
-1.273805735402131
 20
8.293089944852412
 30
0.0
 41
1.0
 10
-1.025463404064142
 20
8.273391766750676
 30
0.0
 41
1.0
 10
-0.8818160653887602
 20
8.163247744511779
 30
0.0
 41
1.0
 10
-0.8794120377744017
 20
8.074218611458
 30
0.0
 41
1.0
 10
-0.7925594741183758
 20
7.049053478964082
 30
0.0
 41
0.9999999997688959
 10
-0.7056799170469431
 20
6.02389063372538
 30
0.0
 41
0.9999999997688959
 10
-0.4621210448984812
 20
2.871502861561519
 30
0.0
 41
1.0
  0
POLYLINE
  5
216
330
1F
100
AcDbEntity
  8
Default
100
AcDb2dPolyline
 66
     1
 10
0.0
 20
0.0
 30
0.0
  0
VERTEX
  5
217
330
216
100
AcDbEntity
  8
Default
100
AcDbVertex
100
AcDb2dVertex
 10
-0.9694437600086054
 20
8.683133407387857
 30
0.0
  0
VERTEX
  5
218
330
216
100
AcDbEntity
  8
Default
100
AcDbVertex
100
AcDb2dVertex
 10
0.9694437600586276
 20
8.683133407387857
 30
0.0
  0
SEQEND
  5
219
330
216
100
AcDbEntity
  8
Default
  0
SPLINE
  5
21A
330
1F
100
AcDbEntity
  8
Default
100
AcDbSpline
210
0.0
220
0.0
230
1.0
 70
    24
 71
     2
 72
     6
 73
     3
 74
     0
 42
0.0000000001
 43
0.0000000001
 40
0.0
 40
0.0
 40
0.0
 40
0.1558384354793708
 40
0.1558384354793708
 40
0.1558384354793708
 10
-0.9694437600086054
 20
8.683133407387857
 30
0.0
 10
-0.9143463381935515
 20
8.738230400068932
 30
0.0
 10
-0.8592489163784975
 20
8.793327392750008
 30
0.0
  0
SPLINE
  5
21B
330
1F
100
AcDbEntity
  8
Default
100
AcDbSpline
210
0.0
220
0.0
230
1.0
 70
    24
 71
     2
 72
     6
 73
     3
 74
     0
 42
0.0000000001
 43
0.0000000001
 40
0.0
 40
0.0
 40
0.0
 40
2.006456692913002
 40
2.006456692913002
 40
2.006456692913002
 10
-0.5511811023371891
 20
10.79978550546686
 30
0.0
 10
-0.5511811023371891
 20
9.796557159010357
 30
0.0
 10
-0.5511811023371891
 20
8.793328812553856
 30
0.0
  0
SPLINE
  5
21C
330
1F
100
AcDbEntity
  8
Default
100
AcDbSpline
210
0.0
220
0.0
230
1.0
 70
    24
 71
     2
 72
     6
 73
     3
 74
     0
 42
0.0000000001
 43
0.0000000001
 40
0.0
 40
0.0
 40
0.0
 40
2.006456692913002
 40
2.006456692913002
 40
2.006456692913002
 10
31.59951020351087
 20
8.793328812553856
 30
0.0
 10
31.59951020351087
 20
9.796557159010357
 30
0.0
 10
31.59951020351087
 20
10.79978550546686
 30
0.0
  0
LINE
  5
21D
330
1F
100
AcDbEntity
  8
Default
  6
Continuous
100
AcDbLine
 10
31.29144209401088
 20
8.793331113700006
 30
0.0
 11
31.17273387941088
 21
8.674622183200007
 31
0.0
  0
LINE
  5
21E
330
1F
100
AcDbEntity
  8
Default
  6
Continuous
100
AcDbLine
 10
33.00993041461088
 20
8.793333538800006
 30
0.0
 11
31.29145219711089
 21
8.793333538800006
 31
0.0
  0
LINE
  5
21F
330
1F
100
AcDbEntity
  8
Default
  6
Continuous
100
AcDbLine
 10
33.00994051771089
 20
8.793331113700006
 30
0.0
 11
33.12909131401088
 21
8.67417959880001
 31
0.0
  0
CIRCLE
  5
220
330
1F
100
AcDbEntity
  8
Default
100
AcDbCircle
 10
20.5671575043487
 20
1.417628025151856
 30
0.0
 40
1.000000000000004
  0
CIRCLE
  5
221
330
1F
100
AcDbEntity
  8
Default
100
AcDbCircle
 10
20.5671575043487
 20
1.417628025151856
 30
0.0
 40
1.062499999999999
  0
CIRCLE
  5
222
330
1F
100
AcDbEntity
  8
Default
100
AcDbCircle
 10
20.5671575043487
 20
1.417628025151856
 30
0.0
 40
1.280000000000001
  0
CIRCLE
  5
223
330
1F
100
AcDbEntity
  8
Default
100
AcDbCircle
 10
35.3029350490817
 20
1.417628025151856
 30
0.0
 40
1.000000000000004
  0
CIRCLE
  5
224
330
1F
100
AcDbEntity
  8
Default
100
AcDbCircle
 10
35.3029350490817
 20
1.417628025151856
 30
0.0
 40
1.062499999999999
  0
CIRCLE
  5
225
330
1F
100
AcDbEntity
  8
Default
100
AcDbCircle
 10
35.3029350490817
 20
1.417628025151856
 30
0.0
 40
1.280000000000001
  0
CIRCLE
  5
226
330
1F
100
AcDbEntity
  8
Default
100
AcDbCircle
 10
44.41014642238869
 20
1.417628025151856
 30
0.0
 40
1.000000000000004
  0
CIRCLE
  5
227
330
1F
100
AcDbEntity
  8
Default
100
AcDbCircle
 10
44.41014642238869
 20
1.417628025151856
 30
0.0
 40
1.062499999999999
  0
CIRCLE
  5
228
330
1F
100
AcDbEntity
  8
Default
100
AcDbCircle
 10
44.41014642238869
 20
1.417628025151856
 30
0.0
 40
1.280000000000001
  0
POLYLINE
  5
229
330
1F
100
AcDbEntity
  8
Default
100
AcDb2dPolyline
 66
     1
 10
0.0
 20
0.0
 30
0.0
  0
VERTEX
  5
22A
330
229
100
AcDbEntity
  8
Default
100
AcDbVertex
100
AcDb2dVertex
 10
45.38684884412109
 20
3.977148038647028
 30
0.0
  0
VERTEX
  5
22B
330
229
100
AcDbEntity
  8
Default
100
AcDbVertex
100
AcDb2dVertex
 10
45.49355239340345
 20
2.869918273055204
 30
0.0
  0
SEQEND
  5
22C
330
229
100
AcDbEntity
  8
Default
  0
SPLINE
  5
22D
330
1F
100
AcDbEntity
  8
Default
100
AcDbSpline
210
0.0
220
0.0
230
1.0
 70
     8
 71
     3
 72
    12
 73
     8
 74
     0
 42
0.0000000001
 43
0.0000000001
 40
0.0
 40
0.0
 40
0.0
 40
0.0
 40
0.2091843899195215
 40
0.3782016163300649
 40
0.6365325742950334
 40
0.9209448829353687
 40
1.375741785486437
 40
1.375741785486437
 40
1.375741785486437
 40
1.375741785486437
 10
44.67345546097222
 20
4.99873007706133
 30
0.0
 10
44.74020249434429
 20
4.979167465283704
 30
0.0
 10
44.8595954916274
 20
4.936616888908338
 30
0.0
 10
45.05331961398538
 20
4.851831855321978
 30
0.0
 10
45.24103607798268
 20
4.694700889585224
 30
0.0
 10
45.35468053022497
 20
4.372942161601344
 30
0.0
 10
45.37200654596408
 20
4.12877121505184
 30
0.0
 10
45.38684884412109
 20
3.977148038647028
 30
0.0
  0
SPLINE
  5
22E
330
1F
100
AcDbEntity
  8
Default
100
AcDbSpline
210
0.0
220
0.0
230
1.0
 70
    12
 71
     2
 72
     6
 73
     3
 74
     0
 42
0.0000000001
 43
0.0000000001
 40
0.0
 40
0.0
 40
0.0
 40
10.35710455726541
 40
10.35710455726541
 40
10.35710455726541
 10
34.78351204577973
 20
8.074218610038
 30
0.0
 41
1.0
 10
39.72794814386538
 20
6.534751967511405
 30
0.0
 41
0.9999999393405746
 10
44.67345546097222
 20
4.99873007706133
 30
0.0
 41
1.0
  0
SPLINE
  5
22F
330
1F
100
AcDbEntity
  8
Default
100
AcDbSpline
210
0.0
220
0.0
230
1.0
 70
     8
 71
     3
 72
    11
 73
     7
 74
     0
 42
0.0000000001
 43
0.0000000001
 40
0.0
 40
0.0
 40
0.0
 40
0.0
 40
0.1479668185272424
 40
0.34956327559182
 40
0.6244312097799937
 40
0.9132129837337586
 40
0.9132129837337586
 40
0.9132129837337586
 40
0.9132129837337586
 10
33.87675919214853
 20
8.284940248289148
 30
0.0
 10
33.94618726567764
 20
8.28267763921073
 30
0.0
 10
34.06195781195096
 20
8.267735558671239
 30
0.0
 10
34.26530725622727
 20
8.223110061935893
 30
0.0
 10
34.51221777956121
 20
8.158784570407914
 30
0.0
 10
34.69180055633188
 20
8.103458426494491
 30
0.0
 10
34.78351204577973
 20
8.074218610038
 30
0.0
  0
SPLINE
  5
230
330
1F
100
AcDbEntity
  8
Default
100
AcDbSpline
210
0.0
220
0.0
230
1.0
 70
    12
 71
     3
 72
    10
 73
     6
 74
     0
 42
0.0000000001
 43
0.0000000001
 40
-0.4224739044921719
 40
-0.4224739044921719
 40
-0.4224739044921719
 40
-0.4224739044921719
 40
-0.2499944994444386
 40
-0.2499944994444386
 40
0.0
 40
0.0
 40
0.0
 40
0.0
 10
33.72780746799687
 20
8.218747570076967
 30
0.0
 41
1.0
 10
33.72987098023184
 20
8.232981552373621
 30
0.0
 41
1.0
 10
33.73723425696227
 20
8.246400941515754
 30
0.0
 41
1.0
 10
33.77351348398722
 20
8.27341766517992
 30
0.0
 41
1.0
 10
33.81058034921199
 20
8.282972215831222
 30
0.0
 41
1.0
 10
33.87675919214853
 20
8.284940248289148
 30
0.0
 41
1.0
  0
SPLINE
  5
231
330
1F
100
AcDbEntity
  8
Default
100
AcDbSpline
210
0.0
220
0.0
230
1.0
 70
    12
 71
     2
 72
     6
 73
     3
 74
     0
 42
0.0000000001
 43
0.0000000001
 40
0.0
 40
0.0
 40
0.0
 40
0.1020195629765884
 40
0.1020195629765884
 40
0.1020195629765884
 10
33.78408997188517
 20
8.134223766950146
 30
0.0
 41
1.0
 10
33.74705092439035
 20
8.17045796413541
 30
0.0
 41
0.9778821939828444
 10
33.72780746799687
 20
8.218747570076967
 30
0.0
 41
1.0
  0
SPLINE
  5
232
330
1F
100
AcDbEntity
  8
Default
100
AcDbSpline
210
0.0
220
0.0
230
1.0
 70
    12
 71
     2
 72
     6
 73
     3
 74
     0
 42
0.0000000001
 43
0.0000000001
 40
0.0
 40
0.0
 40
0.0
 40
4.151244989609161
 40
4.151244989609161
 40
4.151244989609161
 10
36.58790846518643
 20
5.064079833321532
 30
0.0
 41
1.0
 10
35.1827754728327
 20
6.600586952307422
 30
0.0
 41
0.9999997692669422
 10
33.78408997188517
 20
8.134223766950146
 30
0.0
 41
1.0
  0
SPLINE
  5
233
330
1F
100
AcDbEntity
  8
Default
100
AcDbSpline
210
0.0
220
0.0
230
1.0
 70
    12
 71
     3
 72
   142
 73
   138
 74
     0
 42
0.0000000001
 43
0.0000000001
 40
-1.292073330473372
 40
-1.292073330473372
 40
-1.292073330473372
 40
-1.292073330473372
 40
0.0
 40
0.0
 40
0.0
 40
0.5016686169690452
 40
0.5016686169690452
 40
0.7506257317009957
 40
0.7506257317009957
 40
1.0
 40
1.0
 40
1.0
 40
1.248464256042997
 40
1.248464256042997
 40
1.499878053957325
 40
1.499878053957325
 40
1.999999706578288
 40
1.999999706578288
 40
1.999999706578288
 40
2.999999706578287
 40
3.999999706578287
 40
4.999999706578287
 40
4.999999706578287
 40
4.999999706578287
 40
5.265609398210422
 40
5.265609398210422
 40
5.265609398210422
 40
5.507096444360737
 40
5.507096444360737
 40
5.507096444360737
 40
5.726958861361561
 40
5.726958861361561
 40
5.726958861361561
 40
5.927689465994343
 40
5.927689465994343
 40
5.927689465994343
 40
6.111776927655057
 40
6.111776927655057
 40
6.111776927655057
 40
6.281707211364328
 40
6.281707211364328
 40
6.281707211364328
 40
6.439965082943349
 40
6.439965082943349
 40
6.439965082943349
 40
6.589035522177435
 40
6.589035522177435
 40
6.589035522177435
 40
6.731405030802778
 40
6.731405030802778
 40
6.731405030802778
 40
6.869746555558066
 40
6.869746555558066
 40
6.869746555558066
 40
7.008914351251104
 40
7.008914351251104
 40
7.008914351251104
 40
7.159756667550019
 40
7.159756667550019
 40
7.159756667550019
 40
7.33288896174432
 40
7.33288896174432
 40
7.33288896174432
 40
7.524223842626769
 40
7.524223842626769
 40
7.524223842626769
 40
7.720702961741825
 40
7.720702961741825
 40
7.720702961741825
 40
7.902460996185262
 40
7.902460996185262
 40
7.902460996185262
 40
8.062947967067617
 40
8.062947967067617
 40
8.062947967067617
 40
8.204518574990104
 40
8.204518574990104
 40
8.204518574990104
 40
8.33109001495191
 40
8.33109001495191
 40
8.33109001495191
 40
8.446481260824196
 40
8.446481260824196
 40
8.446481260824196
 40
8.55200162263511
 40
8.55200162263511
 40
8.55200162263511
 40
8.647195730560643
 40
8.647195730560643
 40
8.647195730560643
 40
8.739241963983428
 40
8.739241963983428
 40
8.739241963983428
 40
8.835458171123218
 40
8.835458171123218
 40
8.835458171123218
 40
8.938898566439793
 40
8.938898566439793
 40
8.938898566439793
 40
9.052486605117275
 40
9.052486605117275
 40
9.052486605117275
 40
9.178557854364872
 40
9.178557854364872
 40
9.178557854364872
 40
9.318047032163843
 40
9.318047032163843
 40
9.318047032163843
 40
9.47160308642828
 40
9.47160308642828
 40
9.47160308642828
 40
9.533260132847579
 40
9.595609942498344
 40
9.72073156510651
 40
10.14665343337229
 40
10.14665343337229
 40
10.14665343337229
 40
11.43716271484244
 40
11.43716271484244
 40
11.43716271484244
 40
11.55394291577069
 40
11.55394291577069
 40
11.55394291577069
 40
12.36381440101304
 40
12.36381440101304
 40
12.36381440101304
 40
12.48503700822558
 40
12.48503700822558
 40
12.48503700822558
 40
13.27821697950502
 40
13.27821697950502
 40
13.27821697950502
 40
13.5460163274926
 40
13.72963561534857
 40
14.00839745083708
 40
14.20725206746503
 40
14.40227317278986
 40
14.40227317278986
 40
14.40227317278986
 40
14.40227317278986
 10
21.84743966859162
 20
2.871673757747709
 30
0.0
 41
1.0
 10
21.89202895866276
 20
3.300050493320384
 30
0.0
 41
1.0
 10
21.93661824873391
 20
3.728427228893059
 30
0.0
 41
1.0
 10
21.98120753880505
 20
4.156803964465734
 30
0.0
 41
1.0
 10
21.99974589173284
 20
4.301452600626785
 30
0.0
 41
1.0
 10
22.02904949341897
 20
4.444501448292279
 30
0.0
 41
1.0
 10
22.14426172901987
 20
4.6184723675713
 30
0.0
 41
1.0
 10
22.19341030218031
 20
4.664664298315934
 30
0.0
 41
1.0
 10
22.30339364332772
 20
4.734922199039751
 30
0.0
 41
1.0
 10
22.36324379072234
 20
4.761198191400297
 30
0.0
 41
1.0
 10
22.42581853348982
 20
4.783826278193505
 30
0.0
 41
1.0
 10
23.15314499659321
 20
5.04700916418421
 30
0.0
 41
1.0
 10
23.7634618938538
 20
5.280189787702888
 30
0.0
 41
1.0
 10
25.0852004094309
 20
5.777542001943399
 30
0.0
 41
1.0
 10
25.75408160418957
 20
6.026688760676564
 30
0.0
 41
1.0
 10
27.83002846329484
 20
6.790213045676041
 30
0.0
 41
1.0
 10
29.2108072652959
 20
7.291396700137167
 30
0.0
 41
1.0
 10
30.59382003308119
 20
7.794796882718895
 30
0.0
 41
1.0
 10
30.75813295718319
 20
7.860587507471321
 30
0.0
 41
1.0
 10
31.10189194006645
 20
7.955109809826948
 30
0.0
 41
1.0
 10
31.63137206860665
 20
7.995429636292117
 30
0.0
 41
1.0
 10
31.99171236156957
 20
7.922506387316004
 30
0.0
 41
1.0
 10
32.12261684583312
 20
7.794655615590621
 30
0.0
 41
1.0
 10
32.18853671678325
 20
7.735340560807078
 30
0.0
 41
0.999999999854912
 10
32.25440542714099
 20
7.676074025942532
 30
0.0
 41
0.999999999854912
 10
32.32022297687769
 20
7.616856011022782
 30
0.0
 41
1.0
 10
32.38006316326153
 20
7.563016370207271
 30
0.0
 41
0.9999999998713714
 10
32.43990229200953
 20
7.509175553903531
 30
0.0
 41
0.9999999998713714
 10
32.4997403630986
 20
7.455333562132343
 30
0.0
 41
1.0
 10
32.55422002653726
 20
7.406312955447401
 30
0.0
 41
0.9999999986720259
 10
32.6086965957693
 20
7.357288910195336
 30
0.0
 41
0.9999999986720259
 10
32.66317007057768
 20
7.308261426571458
 30
0.0
 41
1.0
 10
32.71290342198538
 20
7.263500183920165
 30
0.0
 41
0.9999999965991441
 10
32.76263225190645
 20
7.218733918042789
 30
0.0
 41
0.9999999965991441
 10
32.81235655983355
 20
7.173962629396061
 30
0.0
 41
1.0
 10
32.85795807136357
 20
7.132903440326192
 30
0.0
 41
0.9999999938811545
 10
32.90355401951748
 20
7.091838073253175
 30
0.0
 41
0.9999999938811545
 10
32.94914440345829
 20
7.050766528930823
 30
0.0
 41
1.0
 10
32.9912286665029
 20
7.012853565999682
 30
0.0
 41
0.9999999907703566
 10
33.03330662025121
 20
6.974933600775791
 30
0.0
 41
0.9999999907703566
 10
33.07537826353814
 20
6.937006634309109
 30
0.0
 41
1.0
 10
33.11456002299439
 20
6.901684840961113
 30
0.0
 41
0.9999999873053725
 10
33.15373488862407
 20
6.866355401929279
 30
0.0
 41
0.9999999873053725
 10
33.19290285893523
 20
6.831018318559088
 30
0.0
 41
1.0
 10
33.22979698657777
 20
6.797732675453658
 30
0.0
 41
0.9999999833682711
 10
33.26668367820913
 20
6.764438792052338
 30
0.0
 41
0.9999999833682711
 10
33.30356293198884
 20
6.731136670016332
 30
0.0
 41
1.0
 10
33.33878441287022
 20
6.699331528957767
 30
0.0
 41
0.9999999786435446
 10
33.37399784212916
 20
6.667517473682501
 30
0.0
 41
0.9999999786435446
 10
33.40920321750959
 20
6.635694506228847
 30
0.0
 41
1.0
 10
33.44341255583397
 20
6.604771899359233
 30
0.0
 41
0.9999999725043054
 10
33.47761301160019
 20
6.5738394686499
 30
0.0
 41
0.9999999725043054
 10
33.51180458198715
 20
6.542897216652377
 30
0.0
 41
1.0
 10
33.5462003949696
 20
6.511770185664243
 30
0.0
 41
0.999999962737951
 10
33.58058579888264
 20
6.480631656370186
 30
0.0
 41
0.999999962737951
 10
33.61496078988247
 20
6.449481632251062
 30
0.0
 41
1.0
 10
33.65221951628305
 20
6.41571858294725
 30
0.0
 41
0.9999999413208943
 10
33.68946407350899
 20
6.381939904045757
 30
0.0
 41
0.9999999413208943
 10
33.72669445500382
 20
6.348145601492893
 30
0.0
 41
1.0
 10
33.76942657122654
 20
6.309357730166011
 30
0.0
 41
0.9999998939942363
 10
33.81213680700258
 20
6.270545767076047
 30
0.0
 41
0.9999998939942363
 10
33.85482514874936
 20
6.231709724565878
 30
0.0
 41
1.0
 10
33.90200187209336
 20
6.188790867945875
 30
0.0
 41
0.999999817829078
 10
33.9491468541389
 20
6.145837146954909
 30
0.0
 41
0.999999817829078
 10
33.99626006912067
 20
6.102848585067739
 30
0.0
 41
1.0
 10
34.04464018608905
 20
6.058704460868711
 30
0.0
 41
0.9999997273774349
 10
34.09298036108035
 20
6.014516601665255
 30
0.0
 41
0.9999997273774349
 10
34.14128055455869
 20
5.970285043597191
 30
0.0
 41
1.0
 10
34.18596178254933
 20
5.929367396685349
 30
0.0
 41
0.9999996795239744
 10
34.23060286831516
 20
5.888405958414697
 30
0.0
 41
0.9999996795239744
 10
34.27520376893702
 20
5.847400768166716
 30
0.0
 41
1.0
 10
34.31458503230379
 20
5.811194382545602
 30
0.0
 41
0.999999667885489
 10
34.35393013592514
 20
5.774948705767084
 30
0.0
 41
0.999999667885489
 10
34.39323904059981
 20
5.73866377394431
 30
0.0
 41
1.0
 10
34.42791400718603
 20
5.70665498472484
 30
0.0
 41
0.999999699239023
 10
34.46255855343971
 20
5.674613272693057
 30
0.0
 41
0.999999699239023
 10
34.4971726481017
 20
5.642538666759651
 30
0.0
 41
1.0
 10
34.52811794273446
 20
5.613860702408736
 30
0.0
 41
0.9999998327760106
 10
34.55904291734672
 20
5.585160827070125
 30
0.0
 41
0.9999998327760106
 10
34.58994755642431
 20
5.556439055141746
 30
0.0
 41
1.0
 10
34.61812255233716
 20
5.530254524648877
 30
0.0
 41
0.9999999502498923
 10
34.64628743029645
 20
5.504059111283969
 30
0.0
 41
0.9999999502498923
 10
34.67444218609859
 20
5.477852818956692
 30
0.0
 41
1.0
 10
34.70018852322954
 20
5.45388830369312
 30
0.0
 41
0.99999999545524
 10
34.72593206194632
 20
5.429920782298198
 30
0.0
 41
0.99999999545524
 10
34.75167280189793
 20
5.405950255098703
 30
0.0
 41
1.0
 10
34.77489466201399
 20
5.384325616024017
 30
0.0
 41
0.999999995859245
 10
34.79811893216466
 20
5.362703565281088
 30
0.0
 41
0.999999995859245
 10
34.82134561206144
 20
5.341084103138515
 30
0.0
 41
1.0
 10
34.84380425282306
 20
5.320179572894915
 30
0.0
 41
0.9999999670982848
 10
34.86626946013088
 20
5.299282099598348
 30
0.0
 41
0.9999999670982848
 10
34.88874123176751
 20
5.278391685311497
 30
0.0
 41
1.0
 10
34.91223096927376
 20
5.256554791100155
 30
0.0
 41
0.9999998989130324
 10
34.93573272860534
 20
5.234730835793425
 30
0.0
 41
0.9999998989130324
 10
34.95924650263508
 20
5.212919826009659
 30
0.0
 41
1.0
 10
34.98452564709202
 20
5.189471060064353
 30
0.0
 41
0.9999997629665537
 10
35.00982455614508
 20
5.16604361953925
 30
0.0
 41
0.9999997629665537
 10
35.03514321180421
 20
5.142637521093619
 30
0.0
 41
1.0
 10
35.06294551126136
 20
5.116935082432869
 30
0.0
 41
0.9999995083541204
 10
35.09077900505284
 20
5.091266427782213
 30
0.0
 41
0.9999995083541204
 10
35.11864365212598
 20
5.065631595001313
 30
0.0
 41
1.0
 10
35.14957039392237
 20
5.037179286682207
 30
0.0
 41
0.9999990578452033
 10
35.18054492627784
 20
5.008779012877429
 30
0.0
 41
0.9999990578452033
 10
35.21156716164397
 20
4.980430853859337
 30
0.0
 41
1.0
 10
35.24589083113955
 20
4.949065205712803
 30
0.0
 41
0.9999983132978641
 10
35.28028496977247
 20
4.917776846871315
 30
0.0
 41
0.9999983132978641
 10
35.31474940350473
 20
4.886565935657296
 30
0.0
 41
1.0
 10
35.35268881434501
 20
4.85220681810806
 30
0.0
 41
0.9999970787486121
 10
35.39072977431776
 20
4.817960165453814
 30
0.0
 41
0.9999970787486121
 10
35.42887195004138
 20
4.783826277823799
 30
0.0
 41
1.0
 10
35.44461543283059
 20
4.770318975289536
 30
0.0
 41
1.0
 10
35.47260887752877
 20
4.740364066580188
 30
0.0
 41
1.0
 10
35.52286530480761
 20
4.673269989122312
 30
0.0
 41
1.0
 10
35.59933703642297
 20
4.482272844015074
 30
0.0
 41
1.0
 10
35.6182323812786
 20
4.297370105759209
 30
0.0
 41
1.0
 10
35.63401847852381
 20
4.156803944640091
 30
0.0
 41
1.0
 10
35.67325364511292
 20
3.728427195248249
 30
0.0
 41
1.0
 10
35.71248881170203
 20
3.300050445856407
 30
0.0
 41
1.0
 10
35.75172397829114
 20
2.871673696464565
 30
0.0
 41
1.0
 10
35.753827081069
 20
2.828641012906881
 30
0.0
 41
0.821179619231046
 10
35.78469506968677
 20
2.798584385118736
 30
0.0
 41
0.821179619231046
 10
35.82776846770984
 20
2.797628025977252
 30
0.0
 41
1.0
 10
36.09772562945729
 20
2.797628025702174
 30
0.0
 41
1.0
 10
36.36768279120474
 20
2.797628025427096
 30
0.0
 41
1.0
 10
36.6376399529522
 20
2.797628025152018
 30
0.0
 41
1.0
 10
36.68262343685757
 20
2.798498258740414
 30
0.0
 41
0.810632612347623
 10
36.71488071561267
 20
2.830514227845586
 30
0.0
 41
0.8104835437483224
 10
36.71608689879771
 20
2.875507712516931
 30
0.0
 41
0.9995527942020983
 10
36.73265713843211
 20
3.139386792024426
 30
0.0
 41
0.9995170985293412
 10
36.74597209322685
 20
3.40344316123518
 30
0.0
 41
0.9995170987031624
 10
36.76813916041172
 20
3.980269323241044
 30
0.0
 41
0.9995527947235614
 10
36.77105620615043
 20
4.069460898109091
 30
0.0
 41
0.9995527947235614
 10
36.77739695335222
 20
4.219893461083903
 30
0.0
 41
0.9995527947235614
 10
36.77867579990561
 20
4.463200601708396
 30
0.0
 41
0.9995527947235614
 10
36.77093641234762
 20
4.683874461326607
 30
0.0
 41
0.9995527947235614
 10
36.71530169741812
 20
4.903506700683912
 30
0.0
 41
0.9995527947235614
 10
36.63611382547557
 20
5.011871873799791
 30
0.0
 41
0.9995527947235614
 10
36.58790846518643
 20
5.064079833321532
 30
0.0
 41
0.9995527947235614
  0
POLYLINE
  5
234
330
1F
100
AcDbEntity
  8
Default
100
AcDb2dPolyline
 66
     1
 10
0.0
 20
0.0
 30
0.0
  0
VERTEX
  5
235
330
234
100
AcDbEntity
  8
Default
100
AcDbVertex
100
AcDb2dVertex
 10
45.12193363738669
 20
4.156803872363363
 30
0.0
  0
VERTEX
  5
236
330
234
100
AcDbEntity
  8
Default
100
AcDbVertex
100
AcDb2dVertex
 10
45.22066992845946
 20
2.871673724042822
 30
0.0
  0
SEQEND
  5
237
330
234
100
AcDbEntity
  8
Default
  0
SPLINE
  5
238
330
1F
100
AcDbEntity
  8
Default
100
AcDbSpline
210
0.0
220
0.0
230
1.0
 70
     8
 71
     3
 72
    12
 73
     8
 74
     0
 42
0.0000000001
 43
0.0000000001
 40
0.0
 40
0.0
 40
0.0
 40
0.0
 40
0.1245054723453157
 40
0.2413273762647093
 40
0.4315707206684852
 40
0.6394371882203365
 40
0.8804962673654844
 40
0.8804962673654844
 40
0.8804962673654844
 40
0.8804962673654844
 10
44.60768534504705
 20
4.783826277837631
 30
0.0
 10
44.64758815653452
 20
4.772475176240733
 30
0.0
 10
44.72369793067955
 20
4.745882894730065
 30
0.0
 10
44.8553845145566
 20
4.688207446322028
 30
0.0
 10
44.99391466592292
 20
4.580602170461681
 30
0.0
 10
45.08917222553013
 20
4.384496529964149
 30
0.0
 10
45.11368278558858
 20
4.237034668860033
 30
0.0
 10
45.12193363738669
 20
4.156803872363363
 30
0.0
  0
SPLINE
  5
239
330
1F
100
AcDbEntity
  8
Default
100
AcDbSpline
210
0.0
220
0.0
230
1.0
 70
    12
 71
     2
 72
    62
 73
    59
 74
     0
 42
0.0000000001
 43
0.0000000001
 40
0.0
 40
0.0
 40
0.0
 40
0.6184054404401294
 40
0.6184054404401294
 40
1.180649438783555
 40
1.180649438783555
 40
1.692508393041381
 40
1.692508393041381
 40
2.15976000210519
 40
2.15976000210519
 40
2.588181952938579
 40
2.588181952938579
 40
2.983551981286177
 40
2.983551981286177
 40
3.351647896208854
 40
3.351647896208854
 40
3.698247587859326
 40
3.698247587859326
 40
4.029129028344915
 40
4.029129028344915
 40
4.350496780611262
 40
4.350496780611262
 40
4.673607771371805
 40
4.673607771371805
 40
5.023592475738506
 40
5.023592475738506
 40
5.42494813722723
 40
5.42494813722723
 40
5.867992920405847
 40
5.867992920405847
 40
6.322288925956288
 40
6.322288925956288
 40
6.74184192320089
 40
6.74184192320089
 40
7.11164052522493
 40
7.11164052522493
 40
7.43727616268221
 40
7.43727616268221
 40
7.727963133355509
 40
7.727963133355509
 40
7.992712383415606
 40
7.992712383415606
 40
8.234702534034597
 40
8.234702534034597
 40
8.453009359387318
 40
8.453009359387318
 40
8.664176248763125
 40
8.664176248763125
 40
8.885078501225738
 40
8.885078501225738
 40
9.122860596227445
 40
9.122860596227445
 40
9.384446754815686
 40
9.384446754815686
 40
9.675526912957592
 40
9.675526912957592
 40
9.998706567434892
 40
9.998706567434892
 40
10.35610649630829
 40
10.35610649630829
 40
10.35610649630829
 10
34.69846493910768
 20
7.79465555423727
 30
0.0
 41
1.0
 10
34.99510358506465
 20
7.70568143581973
 30
0.0
 41
0.9999999999237557
 10
35.2912730738887
 20
7.616856011022229
 30
0.0
 41
1.0
 10
35.560545635125
 20
7.536097939034999
 30
0.0
 41
0.9999999999314689
 10
35.82981630535913
 20
7.455333562128402
 30
0.0
 41
1.0
 10
36.0749564646315
 20
7.381806698763212
 30
0.0
 41
0.9999999992950748
 10
36.32009110164361
 20
7.308261426570476
 30
0.0
 41
1.0
 10
36.54386281766445
 20
7.241125476560694
 30
0.0
 41
0.9999999981939572
 10
36.76762646224319
 20
7.173962629394753
 30
0.0
 41
1.0
 10
36.97279483412031
 20
7.112381127550816
 30
0.0
 41
0.999999996747018
 10
37.17795326905444
 20
7.050766528929081
 30
0.0
 41
1.0
 10
37.36728412088506
 20
6.993905350344161
 30
0.0
 41
0.9999999950861412
 10
37.5566036951459
 20
6.937006634307444
 30
0.0
 41
1.0
 10
37.73286328636046
 20
6.88403298560985
 30
0.0
 41
0.9999999932299585
 10
37.90911054457705
 20
6.831018318558252
 30
0.0
 41
1.0
 10
38.07506523790269
 20
6.781099617833018
 30
0.0
 41
0.9999999911134075
 10
38.24100661539553
 20
6.73113667001481
 30
0.0
 41
1.0
 10
38.39942257583989
 20
6.683439544228492
 30
0.0
 41
0.9999999885647883
 10
38.55782410259395
 20
6.635694506227271
 30
0.0
 41
1.0
 10
38.71167118952154
 20
6.589322290395958
 30
0.0
 41
0.9999999852430541
 10
38.86550233423868
 20
6.542897216651008
 30
0.0
 41
1.0
 10
39.02016795144298
 20
6.496220395420777
 30
0.0
 41
0.9999999799486056
 10
39.17481486154028
 20
6.449481632250191
 30
0.0
 41
1.0
 10
39.34232410669214
 20
6.398855775174767
 30
0.0
 41
0.9999999683244029
 10
39.5098078459058
 20
6.34814560149156
 30
0.0
 41
1.0
 10
39.70187513161999
 20
6.289992763249154
 30
0.0
 41
0.9999999425463864
 10
39.89390294793552
 20
6.231709724564241
 30
0.0
 41
1.0
 10
40.10587709179802
 20
6.167373585393965
 30
0.0
 41
0.9999999007462101
 10
40.31779382262
 20
6.102848585066163
 30
0.0
 41
1.0
 10
40.53509243617165
 20
6.036685619602933
 30
0.0
 41
0.9999998504892871
 10
40.7523185601905
 20
5.970285043595574
 30
0.0
 41
1.0
 10
40.9529318876865
 20
5.908962269726532
 30
0.0
 41
0.9999998229262198
 10
41.15347208637392
 20
5.847400768165642
 30
0.0
 41
1.0
 10
41.330230401291
 20
5.793139750367468
 30
0.0
 41
0.9999998150635834
 10
41.50692258543478
 20
5.738663773943767
 30
0.0
 41
1.0
 10
41.66251281513324
 20
5.690691610298843
 30
0.0
 41
0.9999998311887319
 10
41.81804719104709
 20
5.64253866675976
 30
0.0
 41
1.0
 10
41.95688754031601
 20
5.599549263287522
 30
0.0
 41
0.9999999053407153
 10
42.09569042699221
 20
5.556439055141876
 30
0.0
 41
1.0
 10
42.22210823365612
 20
5.517176093269775
 30
0.0
 41
0.9999999715441407
 10
42.34850729264797
 20
5.477852818957144
 30
0.0
 41
1.0
 10
42.46404050027526
 20
5.441909999968237
 30
0.0
 41
0.9999999973170125
 10
42.57956844083731
 20
5.405950255099605
 30
0.0
 41
1.0
 10
42.68378988850335
 20
5.373510196823895
 30
0.0
 41
0.9999999977559418
 10
42.78801568177383
 20
5.341084103138626
 30
0.0
 41
1.0
 10
42.88883268967826
 20
5.309718596900151
 30
0.0
 41
0.9999999816833968
 10
42.98966169678823
 20
5.278391685312228
 30
0.0
 41
1.0
 10
43.09513913051602
 20
5.245620307887301
 30
0.0
 41
0.9999999435403457
 10
43.20063856506033
 20
5.21291982601059
 30
0.0
 41
1.0
 10
43.31419945572125
 20
5.177720283703248
 30
0.0
 41
0.9999998678555648
 10
43.42779647783925
 20
5.142637521094422
 30
0.0
 41
1.0
 10
43.5527654388462
 20
5.104042254610556
 30
0.0
 41
0.999999727351153
 10
43.67779126433258
 20
5.06563159500195
 30
0.0
 41
1.0
 10
43.81691368961189
 20
5.022889577857184
 30
0.0
 41
0.9999994820153766
 10
43.95612283443268
 20
4.980430853860094
 30
0.0
 41
1.0
 10
44.11068337700237
 20
4.933289122517299
 30
0.0
 41
0.9999990841201515
 10
44.26537095880244
 20
4.886565935657962
 30
0.0
 41
1.0
 10
44.43643741612436
 20
4.83489378756084
 30
0.0
 41
0.9999984400520827
 10
44.60768534504705
 20
4.783826277837631
 30
0.0
 41
1.0
  0
SPLINE
  5
23A
330
1F
100
AcDbEntity
  8
Default
100
AcDbSpline
210
0.0
220
0.0
230
1.0
 70
    12
 71
     2
 72
     6
 73
     3
 74
     0
 42
0.0000000001
 43
0.0000000001
 40
0.0
 40
0.0
 40
0.0
 40
0.7839841532077829
 40
0.7839841532077829
 40
0.7839841532077829
 10
33.93499494284325
 20
7.96878984968296
 30
0.0
 41
1.0
 10
34.32552886477133
 20
7.921412171125171
 30
0.0
 41
0.9946507974764314
 10
34.69846493910768
 20
7.79465555423727
 30
0.0
 41
1.0
  0
POLYLINE
  5
23B
330
1F
100
AcDbEntity
  8
Default
100
AcDb2dPolyline
 66
     1
 10
0.0
 20
0.0
 30
0.0
  0
VERTEX
  5
23C
330
23B
100
AcDbEntity
  8
Default
100
AcDbVertex
100
AcDb2dVertex
 10
35.71876461884426
 20
3.97714803864715
 30
0.0
  0
VERTEX
  5
23D
330
23B
100
AcDbEntity
  8
Default
100
AcDbVertex
100
AcDb2dVertex
 10
35.83450382693118
 20
2.869918271327752
 30
0.0
  0
SEQEND
  5
23E
330
23B
100
AcDbEntity
  8
Default
  0
SPLINE
  5
23F
330
1F
100
AcDbEntity
  8
Default
100
AcDbSpline
210
0.0
220
0.0
230
1.0
 70
     8
 71
     3
 72
    12
 73
     8
 74
     0
 42
0.0000000001
 43
0.0000000001
 40
0.0
 40
0.0
 40
0.0
 40
0.0
 40
0.0953524345761149
 40
0.1850447261750815
 40
0.3691093846634697
 40
0.6346086668541302
 40
1.087401577496831
 40
1.087401577496831
 40
1.087401577496831
 40
1.087401577496831
 10
35.43194980384435
 20
4.998730077056498
 30
0.0
 10
35.45561169481832
 20
4.977223398443263
 30
0.0
 10
35.49827508664072
 20
4.933191157592608
 30
0.0
 10
35.57155285557455
 20
4.832970834056886
 30
0.0
 10
35.63500849353652
 20
4.66332171152356
 30
0.0
 10
35.68332886658695
 20
4.365823075632997
 30
0.0
 10
35.70472938024677
 20
4.127481230241858
 30
0.0
 10
35.71876461884426
 20
3.97714803864715
 30
0.0
  0
SPLINE
  5
240
330
1F
100
AcDbEntity
  8
Default
100
AcDbSpline
210
0.0
220
0.0
230
1.0
 70
    12
 71
     2
 72
     6
 73
     3
 74
     0
 42
0.0000000001
 43
0.0000000001
 40
-4.513904088397499
 40
-4.513904088397499
 40
-4.513904088397499
 40
0.0
 40
0.0
 40
0.0
 10
32.12790710868698
 20
8.074218610035917
 30
0.0
 41
1.0
 10
33.7790391864128
 20
6.535518987826336
 30
0.0
 41
0.9999998327874763
 10
35.43194980384435
 20
4.998730077056498
 30
0.0
 41
1.0
  0
SPLINE
  5
241
330
1F
100
AcDbEntity
  8
Default
100
AcDbSpline
210
0.0
220
0.0
230
1.0
 70
     8
 71
     3
 72
    10
 73
     6
 74
     0
 42
0.0000000001
 43
0.0000000001
 40
-3.0
 40
-3.0
 40
-3.0
 40
-3.0
 40
-2.0
 40
-1.0
 40
0.0
 40
0.0
 40
0.0
 40
0.0
 10
30.53760001432101
 20
8.074218611459017
 30
0.0
 10
30.71039413046235
 20
8.141579769240021
 30
0.0
 10
31.06523467500388
 20
8.250025971496187
 30
0.0
 10
31.62220192709586
 20
8.319950084390777
 30
0.0
 10
31.99032737340234
 20
8.201931523840592
 30
0.0
 10
32.12790710868698
 20
8.074218610035917
 30
0.0
  0
SPLINE
  5
242
330
1F
100
AcDbEntity
  8
Default
100
AcDbSpline
210
0.0
220
0.0
230
1.0
 70
    12
 71
     2
 72
     6
 73
     3
 74
     0
 42
0.0000000001
 43
0.0000000001
 40
-8.715030808154548
 40
-8.715030808154548
 40
-8.715030808154548
 40
0.0
 40
0.0
 40
0.0
 10
22.38304642888006
 20
4.998646606849308
 30
0.0
 41
1.0
 10
26.46104898454329
 20
6.534843990876261
 30
0.0
 41
0.9999999200503594
 10
30.53760001432101
 20
8.074218611459017
 30
0.0
 41
1.0
  0
SPLINE
  5
243
330
1F
100
AcDbEntity
  8
Default
100
AcDbSpline
210
0.0
220
0.0
230
1.0
 70
    12
 71
     2
 72
    52
 73
    49
 74
     0
 42
0.0000000001
 43
0.0000000001
 40
-1.294232290270076
 40
-1.294232290270076
 40
-1.294232290270076
 40
-1.253095473203663
 40
-1.253095473203663
 40
-1.214650021572872
 40
-1.214650021572872
 40
-1.174867922551375
 40
-1.174867922551375
 40
-1.130563027848315
 40
-1.130563027848315
 40
-1.081728720931424
 40
-1.081728720931424
 40
-1.028122138866094
 40
-1.028122138866094
 40
-0.969676050428578
 40
-0.969676050428578
 40
-0.9075252447280195
 40
-0.9075252447280195
 40
-0.8446293413024997
 40
-0.8446293413024997
 40
-0.784460066963401
 40
-0.784460066963401
 40
-0.7277525143212366
 40
-0.7277525143212366
 40
-0.6724555739068382
 40
-0.6724555739068382
 40
-0.6171797522681789
 40
-0.6171797522681789
 40
-0.5623169099249737
 40
-0.5623169099249737
 40
-0.5097695074723185
 40
-0.5097695074723185
 40
-0.4603146106421259
 40
-0.4603146106421259
 40
-0.4105922183281818
 40
-0.4105922183281818
 40
-0.3578485669373858
 40
-0.3578485669373858
 40
-0.3028471247672735
 40
-0.3028471247672735
 40
-0.2472005518257413
 40
-0.2472005518257413
 40
-0.1911573759736196
 40
-0.1911573759736196
 40
-0.1324227995290864
 40
-0.1324227995290864
 40
-0.0689375520178781
 40
-0.0689375520178781
 40
0.0
 40
0.0
 40
0.0
 10
21.76510548495729
 20
3.977148038570611
 30
0.0
 41
1.0
 10
21.76744393806423
 20
3.997583092134779
 30
0.0
 41
0.999999383925838
 10
21.76982775208215
 20
4.018012903877225
 30
0.0
 41
1.0
 10
21.77205552532709
 20
4.037106111995924
 30
0.0
 41
0.9999992244110139
 10
21.77433085138135
 20
4.056193711668001
 30
0.0
 41
1.0
 10
21.77668471733666
 20
4.075945011512224
 30
0.0
 41
0.9999987113133476
 10
21.77910198931895
 20
4.095688651668882
 30
0.0
 41
1.0
 10
21.7817944827898
 20
4.117676896758663
 30
0.0
 41
0.9999976776194981
 10
21.7845817278193
 20
4.139653332055687
 30
0.0
 41
1.0
 10
21.78764875859695
 20
4.163877185643911
 30
0.0
 41
0.9999944933376803
 10
21.79087650086895
 20
4.188080149104621
 30
0.0
 41
1.0
 10
21.79441399683739
 20
4.214649293801159
 30
0.0
 41
0.9999823392164429
 10
21.79826704715364
 20
4.241174514457979
 30
0.0
 41
1.0
 10
21.80246531270043
 20
4.270095357891028
 30
0.0
 41
0.9999523103872862
 10
21.80722763888689
 20
4.298928687004643
 30
0.0
 41
1.0
 10
21.81229001648367
 20
4.329591073421716
 30
0.0
 41
0.9998998670303381
 10
21.81821809757751
 20
4.360097916297812
 30
0.0
 41
1.0
 10
21.82421811378778
 20
4.390971705504946
 30
0.0
 41
0.9998351768377977
 10
21.83133504280201
 20
4.421607311846858
 30
0.0
 41
1.0
 10
21.83814496421632
 20
4.450915600467652
 30
0.0
 41
0.9997801240122366
 10
21.84617776421258
 20
4.47991258196175
 30
0.0
 41
1.0
 10
21.85374283104618
 20
4.507244110596383
 30
0.0
 41
0.9997145778074973
 10
21.86260482511408
 20
4.534183074103598
 30
0.0
 41
1.0
 10
21.87123805223584
 20
4.560457491210531
 30
0.0
 41
0.9995688463387136
 10
21.88139866218152
 20
4.586179847447404
 30
0.0
 41
1.0
 10
21.89155020559053
 20
4.611899852022075
 30
0.0
 41
0.9992953205395431
 10
21.90360257539037
 20
4.636785849111069
 30
0.0
 41
1.0
 10
21.91558399110946
 20
4.66148269916809
 30
0.0
 41
0.9989987658384212
 10
21.92972499632414
 20
4.685009719737867
 30
0.0
 41
1.0
 10
21.94328226761515
 20
4.707537489707798
 30
0.0
 41
0.9989230244694153
 10
21.95886941063563
 20
4.728711553964224
 30
0.0
 41
1.0
 10
21.97353245944215
 20
4.748645080685852
 30
0.0
 41
0.9988930160839273
 10
21.99000387924518
 20
4.767112425311868
 30
0.0
 41
1.0
 10
22.00658945296888
 20
4.785658525881473
 30
0.0
 41
0.9988368282484759
 10
22.0248843412637
 20
4.802520796320599
 30
0.0
 41
1.0
 10
22.04430275059551
 20
4.820390781879436
 30
0.0
 41
0.9989899865257376
 10
22.06524704310851
 20
4.83644530198994
 30
0.0
 41
1.0
 10
22.08708402109381
 20
4.85318367225375
 30
0.0
 41
0.9992698364100728
 10
22.11013536441286
 20
4.868205729962527
 30
0.0
 41
1.0
 10
22.13344543119449
 20
4.883413963397632
 30
0.0
 41
0.9995020495959951
 10
22.1576683627956
 20
4.897121594929991
 30
0.0
 41
1.0
 10
22.18206263219725
 20
4.910923159814281
 30
0.0
 41
0.9996618475526493
 10
22.20714145104535
 20
4.923437807954735
 30
0.0
 41
1.0
 10
22.23342176124498
 20
4.936554210341815
 30
0.0
 41
0.9997764851077564
 10
22.26023306521077
 20
4.948547904327481
 30
0.0
 41
1.0
 10
22.2892094419237
 20
4.961515791249731
 30
0.0
 41
0.9998494214131346
 10
22.31861836867267
 20
4.973470352141302
 30
0.0
 41
1.0
 10
22.350553600104
 20
4.986446461961365
 30
0.0
 41
0.9999104261187409
 10
22.38304642888006
 20
4.998646606849308
 30
0.0
 41
1.0
  0
POLYLINE
  5
244
330
1F
100
AcDbEntity
  8
Default
100
AcDb2dPolyline
 66
     1
 10
0.0
 20
0.0
 30
0.0
  0
VERTEX
  5
245
330
244
100
AcDbEntity
  8
Default
100
AcDbVertex
100
AcDb2dVertex
 10
21.62762830801226
 20
2.86991826762012
 30
0.0
  0
VERTEX
  5
246
330
244
100
AcDbEntity
  8
Default
100
AcDbVertex
100
AcDb2dVertex
 10
21.76510548495729
 20
3.977148038570611
 30
0.0
  0
SEQEND
  5
247
330
244
100
AcDbEntity
  8
Default
  0
SPLINE
  5
248
330
1F
100
AcDbEntity
  8
Default
100
AcDbSpline
210
0.0
220
0.0
230
1.0
 70
    12
 71
     3
 72
    39
 73
    35
 74
     0
 42
0.0000000001
 43
0.0000000001
 40
-16.36077517510557
 40
-16.36077517510557
 40
-16.36077517510557
 40
-16.36077517510557
 40
-15.58494580865526
 40
-15.58494580865526
 40
-15.58494580865526
 40
-15.46472695315422
 40
-15.46472695315422
 40
-15.46472695315422
 40
-14.69499392822398
 40
-14.69499392822398
 40
-14.69499392822398
 40
-14.63049516037877
 40
-14.63049516037877
 40
-14.63049516037877
 40
-14.56599639253355
 40
-14.56599639253355
 40
-14.56599639253355
 40
-13.37149128302095
 40
-13.37149128302095
 40
-13.37149128302095
 40
-12.37149128302095
 40
-11.37149128302095
 40
-10.37149128302095
 40
-9.371491283020955
 40
-8.371491283020955
 40
-8.371491283020955
 40
-8.371491283020955
 40
-6.656364997229339
 40
-6.656364997229339
 40
-6.656364997229339
 40
-0.0000000000000001
 40
-0.0000000000000001
 40
-0.0000000000000001
 40
1.73841728715722
 40
1.73841728715722
 40
1.73841728715722
 40
1.73841728715722
 10
22.03351562009473
 20
4.01754606244542
 30
0.0
 41
1.0
 10
21.98766347824671
 20
3.38832946832843
 30
0.0
 41
0.9999983011882083
 10
21.96961344542015
 20
3.130340622004089
 30
0.0
 41
0.9999983011882083
 10
21.95214500225248
 20
2.87230222617917
 30
0.0
 41
1.0
 10
21.94905547051144
 20
2.828049474749517
 30
0.0
 41
0.8214976320034447
 10
21.91666685004144
 20
2.797749447856934
 30
0.0
 41
0.8214976320034447
 10
21.87232347719258
 20
2.797628025153477
 30
0.0
 41
1.0
 10
21.61574580221584
 20
2.797628025155147
 30
0.0
 41
1.0
 10
21.3591681272391
 20
2.797628025156817
 30
0.0
 41
1.0
 10
21.10259045226235
 20
2.797628025158487
 30
0.0
 41
1.0
 10
21.08048792796237
 20
2.797642224829109
 30
0.0
 41
0.9466152317066463
 10
21.06016087855266
 20
2.806321674371429
 30
0.0
 41
0.9466152317066463
 10
21.0448647685017
 20
2.822276322577254
 30
0.0
 41
1.0
 10
21.02956865845074
 20
2.838230970783079
 30
0.0
 41
0.9466152317066463
 10
21.02176258423454
 20
2.859166644960912
 30
0.0
 41
0.9466152317066463
 10
21.02269672224305
 20
2.881730406765608
 30
0.0
 41
1.0
 10
21.04032023121198
 20
3.298049330545511
 30
0.0
 41
0.9999999193704774
 10
21.05739909630541
 20
3.705121311857801
 30
0.0
 41
0.9999999193704774
 10
21.07393331339216
 20
4.102946252236418
 30
0.0
 41
1.0
 10
21.07755449334093
 20
4.1900743992578
 30
0.0
 41
1.0
 10
21.09801360836153
 20
4.363146524035519
 30
0.0
 41
1.0
 10
21.1453106197006
 20
4.62077898452936
 30
0.0
 41
1.0
 10
21.26653784414357
 20
4.860167112246184
 30
0.0
 41
1.0
 10
21.4911490520732
 20
5.005044570703957
 30
0.0
 41
1.0
 10
21.65093115836137
 20
5.070986326604128
 30
0.0
 41
1.0
 10
21.73237848454822
 20
5.102864850617636
 30
0.0
 41
1.0
 10
22.2647607689134
 20
5.311239541734778
 30
0.0
 41
0.9999999989518763
 10
22.79713136789558
 20
5.519644085695552
 30
0.0
 41
0.9999999989518763
 10
23.32949027982079
 20
5.728078481844658
 30
0.0
 41
1.0
 10
25.39537737916807
 20
6.537480772028997
 30
0.0
 41
1.0
 10
27.46126447851535
 20
7.346883062213336
 30
0.0
 41
1.0
 10
29.52715157786263
 20
8.156285352397674
 30
0.0
 41
1.0
 10
30.06706809498353
 20
8.367821435663831
 30
0.0
 41
0.9986053366051751
 10
30.61953090285373
 20
8.544009420224935
 30
0.0
 41
0.9986053366051751
 10
31.18222850250784
 20
8.684112137282959
 30
0.0
 41
1.0
  0
SPLINE
  5
249
330
1F
100
AcDbEntity
  8
Default
100
AcDbSpline
210
0.0
220
0.0
230
1.0
 70
     8
 71
     3
 72
    10
 73
     6
 74
     0
 42
0.0000000001
 43
0.0000000001
 40
-3.0
 40
-3.0
 40
-3.0
 40
-3.0
 40
-2.0
 40
-1.0
 40
0.0
 40
0.0
 40
0.0
 40
0.0
 10
22.22825818285946
 20
4.251716946612691
 30
0.0
 10
22.19209463348834
 20
4.242386583919905
 30
0.0
 10
22.11084586856028
 20
4.229275786884489
 30
0.0
 10
22.0392498645819
 20
4.135264119217789
 30
0.0
 10
22.03826873930208
 20
4.054916205106182
 30
0.0
 10
22.03351562009473
 20
4.01754606244542
 30
0.0
  0
SPLINE
  5
24A
330
1F
100
AcDbEntity
  8
Default
100
AcDbSpline
210
0.0
220
0.0
230
1.0
 70
    12
 71
     2
 72
     6
 73
     3
 74
     0
 42
0.0000000001
 43
0.0000000001
 40
-8.46052248394801
 40
-8.46052248394801
 40
-8.46052248394801
 40
0.0
 40
0.0
 40
0.0
 10
30.53009612153124
 20
6.074840305183503
 30
0.0
 41
1.0
 10
26.39796848402785
 20
5.168952416187536
 30
0.0
 41
0.9999999369366167
 10
22.22825818285946
 20
4.251716946612691
 30
0.0
 41
1.0
  0
SPLINE
  5
24B
330
1F
100
AcDbEntity
  8
Default
100
AcDbSpline
210
0.0
220
0.0
230
1.0
 70
    12
 71
     3
 72
     9
 73
     5
 74
     0
 42
0.0000000001
 43
0.0000000001
 40
0.0
 40
0.0
 40
0.0
 40
0.0
 40
1.0
 40
2.0
 40
2.0
 40
2.0
 40
2.0
 10
32.66815067429118
 20
6.107397211333152
 30
0.0
 41
1.0
 10
32.4583361156739
 20
6.233329310493151
 30
0.0
 41
1.0
 10
31.97297638115084
 20
6.270650751403392
 30
0.0
 41
1.0
 10
31.25659211749246
 20
6.247020098496215
 30
0.0
 41
1.0
 10
30.53009612153124
 20
6.074840305183503
 30
0.0
 41
1.0
  0
ARC
  5
24C
330
1F
100
AcDbEntity
  8
Default
100
AcDbCircle
 10
-106.9962980853988
 20
-239.8575387252984
 30
0.0
 40
282.8513884669109
100
AcDbArc
 50
59.8029988944563
 51
60.41111059524263
  0
ARC
  5
24D
330
1F
100
AcDbEntity
  8
Default
100
AcDbCircle
 10
-96.0877848804498
 20
-221.1125797722694
 30
0.0
 40
261.1633930202752
100
AcDbArc
 50
59.7198322002989
 51
59.80299889445411
  0
SPLINE
  5
24E
330
1F
100
AcDbEntity
  8
Default
100
AcDbSpline
210
0.0
220
0.0
230
1.0
 70
    24
 71
     2
 72
     6
 73
     3
 74
     0
 42
0.0000000001
 43
0.0000000001
 40
-8.622153220319356
 40
-8.622153220319356
 40
-8.622153220319356
 40
0.0
 40
0.0
 40
0.0
 10
44.44407382052869
 20
4.249251949448002
 30
0.0
 10
40.19939228090421
 20
5.002949611536046
 30
0.0
 10
35.95471074127973
 20
5.75664727362409
 30
0.0
  0
SPLINE
  5
24F
330
1F
100
AcDbEntity
  8
Default
100
AcDbSpline
210
0.0
220
0.0
230
1.0
 70
    12
 71
     3
 72
    12
 73
     8
 74
     0
 42
0.0000000001
 43
0.0000000001
 40
-0.4083096461004087
 40
-0.4083096461004087
 40
-0.4083096461004087
 40
-0.4083096461004087
 40
-0.307368640433
 40
-0.2049124269553
 40
-0.1536843202165
 40
-0.1024562134777
 40
0.0000000000013162
 40
0.0000000000013162
 40
0.0000000000013162
 40
0.0000000000013162
 10
44.82676307577367
 20
3.859491459199583
 30
0.0
 41
1.0
 10
44.82375202356047
 20
3.919670988896247
 30
0.0
 41
1.0
 10
44.80247745336794
 20
4.027195996805899
 30
0.0
 41
1.0
 10
44.74042801348985
 20
4.124303478504178
 30
0.0
 41
1.0
 10
44.67069760161456
 20
4.178063964505988
 30
0.0
 41
1.0
 10
44.58665105211749
 20
4.218815720363416
 30
0.0
 41
1.0
 10
44.50634391120022
 20
4.238195095997433
 30
0.0
 41
1.0
 10
44.44407382052869
 20
4.249251949448002
 30
0.0
 41
1.0
  0
SPLINE
  5
250
330
1F
100
AcDbEntity
  8
Default
100
AcDbSpline
210
0.0
220
0.0
230
1.0
 70
    12
 71
     3
 72
    36
 73
    32
 74
     0
 42
0.0000000001
 43
0.0000000001
 40
-16.55483111394787
 40
-16.55483111394787
 40
-16.55483111394787
 40
-16.55483111394787
 40
-14.78474122499406
 40
-14.78474122499406
 40
-14.78474122499406
 40
-4.427741199101156
 40
-4.427741199101156
 40
-4.427741199101156
 40
-3.964233634689816
 40
-3.66510497785364
 40
-3.327190270585053
 40
-3.143897205818782
 40
-2.95610500415754
 40
-2.95610500415754
 40
-2.95610500415754
 40
-1.649520864455969
 40
-1.649520864455969
 40
-1.649520864455969
 40
-1.583413789326747
 40
-1.583413789326747
 40
-1.583413789326747
 40
-1.517306714197525
 40
-1.517306714197525
 40
-1.517306714197525
 40
-0.7704572788702901
 40
-0.7704572788702901
 40
-0.7704572788702901
 40
-0.6484798130474948
 40
-0.6484798130474948
 40
-0.6484798130474948
 40
0.0
 40
0.0
 40
0.0
 40
0.0
 10
33.11915410918955
 20
8.684112137282948
 30
0.0
 41
1.0
 10
33.68662142899123
 20
8.522472910395084
 30
0.0
 41
0.9999682850671209
 10
34.25248510725881
 20
8.355306238090762
 30
0.0
 41
0.9999682850671209
 10
34.81669130500654
 20
8.182628025409365
 30
0.0
 41
1.0
 10
38.11787446927808
 20
7.17228391572763
 30
0.0
 41
1.0
 10
41.41905763354961
 20
6.161939806045896
 30
0.0
 41
1.0
 10
44.72024079782115
 20
5.151595696364161
 30
0.0
 41
1.0
 10
44.86681818685082
 20
5.103879467931784
 30
0.0
 41
1.0
 10
45.11519777960187
 20
5.040470248621999
 30
0.0
 41
1.0
 10
45.42904675755548
 20
4.839220820973986
 30
0.0
 41
1.0
 10
45.57624051601985
 20
4.599500998929359
 30
0.0
 41
1.0
 10
45.64805225125139
 20
4.376002063338233
 30
0.0
 41
1.0
 10
45.66634717846759
 20
4.251746090207169
 30
0.0
 41
1.0
 10
45.67169128962456
 20
4.188276501647576
 30
0.0
 41
1.0
 10
45.70740246094634
 20
3.753095758280441
 30
0.0
 41
0.9999999999990051
 10
45.74307192547592
 20
3.318432460959281
 30
0.0
 41
0.9999999999990051
 10
45.7786996832132
 20
2.884286609685393
 30
0.0
 41
1.0
 10
45.78056134121089
 20
2.861601177601957
 30
0.0
 41
0.9439019591877447
 10
45.77318554997138
 20
2.8401072640405
 30
0.0
 41
0.9439019591877447
 10
45.75781361180859
 20
2.823422168321581
 30
0.0
 41
1.0
 10
45.74244167364579
 20
2.806737072602661
 30
0.0
 41
0.9439019591877447
 10
45.72166394141151
 20
2.797628025164471
 30
0.0
 41
0.9439019591877447
 10
45.69897718531836
 20
2.797628025151855
 30
0.0
 41
1.0
 10
45.45002737354261
 20
2.797628025151854
 30
0.0
 41
1.0
 10
45.20107756176687
 20
2.797628025151853
 30
0.0
 41
1.0
 10
44.95212774999112
 20
2.797628025151852
 30
0.0
 41
1.0
 10
44.90695936482657
 20
2.797628025135668
 30
0.0
 41
0.8154724787694593
 10
44.87429319487944
 20
2.828822645815507
 30
0.0
 41
0.8154724787694593
 10
44.87221266225506
 20
2.873943089102031
 30
0.0
 41
1.0
 10
44.86225596792158
 20
3.08987359388737
 30
0.0
 41
1.0
 10
44.83756501589496
 20
3.643601587393336
 30
0.0
 41
1.0
 10
44.82676307577367
 20
3.859491459199583
 30
0.0
 41
1.0
  0
SPLINE
  5
251
330
1F
100
AcDbEntity
  8
Default
100
AcDbSpline
210
0.0
220
0.0
230
1.0
 70
    24
 71
     2
 72
     6
 73
     3
 74
     0
 42
0.0000000001
 43
0.0000000001
 40
0.0
 40
0.0
 40
0.0
 40
0.0829573442458962
 40
0.0829573442458962
 40
0.0829573442458962
 10
44.97412106986727
 20
2.780796952353342
 30
0.0
 10
44.98057124612793
 20
2.739212488752595
 30
0.0
 10
44.98702142238859
 20
2.697628025151849
 30
0.0
  0
SPLINE
  5
252
330
1F
100
AcDbEntity
  8
Default
100
AcDbSpline
210
0.0
220
0.0
230
1.0
 70
    24
 71
     2
 72
     6
 73
     3
 74
     0
 42
0.0000000001
 43
0.0000000001
 40
-0.7134880180845968
 40
-0.7134880180845968
 40
-0.7134880180845968
 40
0.0
 40
0.0
 40
0.0
 10
45.68742177491012
 20
2.780796952353342
 30
0.0
 10
45.33077142238869
 20
2.780796952353342
 30
0.0
 10
44.97412106986727
 20
2.780796952353342
 30
0.0
  0
SPLINE
  5
253
330
1F
100
AcDbEntity
  8
Default
100
AcDbSpline
210
0.0
220
0.0
230
1.0
 70
    24
 71
     2
 72
     6
 73
     3
 74
     0
 42
0.0000000001
 43
0.0000000001
 40
0.0
 40
0.0
 40
0.0
 40
0.0829573442458962
 40
0.0829573442458962
 40
0.0829573442458962
 10
45.67452142238879
 20
2.697628025151849
 30
0.0
 10
45.68097159864946
 20
2.739212488752595
 30
0.0
 10
45.68742177491012
 20
2.780796952353342
 30
0.0
  0
SPLINE
  5
254
330
1F
100
AcDbEntity
  8
Default
100
AcDbSpline
210
0.0
220
0.0
230
1.0
 70
    24
 71
     2
 72
     6
 73
     3
 74
     0
 42
0.0000000001
 43
0.0000000001
 40
-1.164986319490936
 40
-1.164986319490936
 40
-1.164986319490936
 40
0.0
 40
0.0
 40
0.0
 10
45.69014642238869
 20
2.697628025151856
 30
0.0
 10
45.69014642238869
 20
2.115134865406388
 30
0.0
 10
45.69014642238869
 20
1.53264170566092
 30
0.0
  0
LINE
  5
255
330
1F
100
AcDbEntity
  8
Default
100
AcDbLine
 10
44.52516010289776
 20
2.697628025151856
 30
0.0
 11
45.69014642238869
 21
2.697628025151856
 31
0.0
  0
POLYLINE
  5
256
330
1F
100
AcDbEntity
  8
Default
100
AcDb2dPolyline
 66
     1
 10
0.0
 20
0.0
 30
0.0
  0
VERTEX
  5
257
330
256
100
AcDbEntity
  8
Default
100
AcDbVertex
100
AcDb2dVertex
 10
31.18222850250783
 20
8.684112137282957
 30
0.0
  0
VERTEX
  5
258
330
256
100
AcDbEntity
  8
Default
100
AcDbVertex
100
AcDb2dVertex
 10
33.11915410918955
 20
8.684112137282957
 30
0.0
  0
SEQEND
  5
259
330
256
100
AcDbEntity
  8
Default
  0
SPLINE
  5
25A
330
1F
100
AcDbEntity
  8
Default
100
AcDbSpline
210
0.0
220
0.0
230
1.0
 70
    24
 71
     2
 72
     6
 73
     3
 74
     0
 42
0.0000000001
 43
0.0000000001
 40
0.0
 40
0.0
 40
0.0
 40
1.188757649323311
 40
1.188757649323311
 40
1.188757649323311
 10
33.05785383498322
 20
4.679109380553343
 30
0.0
 10
33.07277047140948
 20
5.273324116869704
 30
0.0
 10
33.08768710783573
 20
5.867538853186065
 30
0.0
  0
SPLINE
  5
25B
330
1F
100
AcDbEntity
  8
Default
100
AcDbSpline
210
0.0
220
0.0
230
1.0
 70
    12
 71
     2
 72
     6
 73
     3
 74
     0
 42
0.0000000001
 43
0.0000000001
 40
0.0
 40
0.0
 40
0.0
 40
0.3807238872087119
 40
0.3807238872087119
 40
0.3807238872087119
 10
33.0266755578172
 20
4.299628025151854
 30
0.0
 41
1.0
 10
33.03987966832965
 20
4.489541524307318
 30
0.0
 41
0.999921026972745
 10
33.05785383498322
 20
4.679109380553343
 30
0.0
 41
1.0
  0
SPLINE
  5
25C
330
1F
100
AcDbEntity
  8
Default
100
AcDbSpline
210
0.0
220
0.0
230
1.0
 70
    24
 71
     2
 72
     6
 73
     3
 74
     0
 42
0.0000000001
 43
0.0000000001
 40
0.0
 40
0.0
 40
0.0
 40
3.274999999999999
 40
3.274999999999999
 40
3.274999999999999
 10
33.02667555781719
 20
1.024628025151856
 30
0.0
 10
33.02667555781719
 20
2.662128025151855
 30
0.0
 10
33.0266755578172
 20
4.299628025151854
 30
0.0
  0
SPLINE
  5
25D
330
1F
100
AcDbEntity
  8
Default
100
AcDbSpline
210
0.0
220
0.0
230
1.0
 70
    12
 71
     2
 72
     8
 73
     5
 74
     0
 42
0.0000000001
 43
0.0000000001
 40
0.0
 40
0.0
 40
0.0
 40
0.0981783641242503
 40
0.0981783641242503
 40
0.1963567282485005
 40
0.1963567282485005
 40
0.1963567282485005
 10
32.90167549815349
 20
0.8996280251518698
 30
0.0
 41
1.0
 10
32.95345505978787
 20
0.8996211220224277
 30
0.0
 41
0.9238540669030071
 10
32.9900687480098
 20
0.9362347927683091
 30
0.0
 41
1.0
 10
33.02668243623175
 20
0.9728484635141905
 30
0.0
 41
0.9238540669030071
 10
33.02667555781719
 20
1.024628025151856
 30
0.0
 41
1.0
  0
POLYLINE
  5
25E
330
1F
100
AcDbEntity
  8
Default
100
AcDb2dPolyline
 66
     1
 10
0.0
 20
0.0
 30
0.0
  0
VERTEX
  5
25F
330
25E
100
AcDbEntity
  8
Default
100
AcDbVertex
100
AcDb2dVertex
 10
31.3997071135439
 20
0.8996280251518699
 30
0.0
  0
VERTEX
  5
260
330
25E
100
AcDbEntity
  8
Default
100
AcDbVertex
100
AcDb2dVertex
 10
32.90167549815349
 20
0.8996280251518698
 30
0.0
  0
SEQEND
  5
261
330
25E
100
AcDbEntity
  8
Default
  0
SPLINE
  5
262
330
1F
100
AcDbEntity
  8
Default
100
AcDbSpline
210
0.0
220
0.0
230
1.0
 70
    12
 71
     2
 72
     6
 73
     3
 74
     0
 42
0.0000000001
 43
0.0000000001
 40
0.0
 40
0.0
 40
0.0
 40
0.1963011075951075
 40
0.1963011075951075
 40
0.1963011075951075
 10
31.27470705388019
 20
1.024628025151856
 30
0.0
 41
1.0
 10
31.27482002002666
 20
0.899740931688524
 30
0.0
 41
0.7077459338001277
 10
31.3997071135439
 20
0.8996280251518699
 30
0.0
 41
1.0
  0
SPLINE
  5
263
330
1F
100
AcDbEntity
  8
Default
100
AcDbSpline
210
0.0
220
0.0
230
1.0
 70
    24
 71
     2
 72
     6
 73
     3
 74
     0
 42
0.0000000001
 43
0.0000000001
 40
0.0
 40
0.0
 40
0.0
 40
3.274999999999999
 40
3.274999999999999
 40
3.274999999999999
 10
31.27470705388019
 20
4.299628025151854
 30
0.0
 10
31.27470705388019
 20
2.662128025151855
 30
0.0
 10
31.27470705388019
 20
1.024628025151856
 30
0.0
  0
SPLINE
  5
264
330
1F
100
AcDbEntity
  8
Default
100
AcDbSpline
210
0.0
220
0.0
230
1.0
 70
    12
 71
     2
 72
     6
 73
     3
 74
     0
 42
0.0000000001
 43
0.0000000001
 40
0.0
 40
0.0
 40
0.0
 40
0.3807238872087119
 40
0.3807238872087119
 40
0.3807238872087119
 10
31.24352877671416
 20
4.679109380553343
 30
0.0
 41
1.0
 10
31.26150294336772
 20
4.489541524307316
 30
0.0
 41
0.9999210269727449
 10
31.27470705388019
 20
4.299628025151854
 30
0.0
 41
1.0
  0
SPLINE
  5
265
330
1F
100
AcDbEntity
  8
Default
100
AcDbSpline
210
0.0
220
0.0
230
1.0
 70
    24
 71
     2
 72
     6
 73
     3
 74
     0
 42
0.0000000001
 43
0.0000000001
 40
0.0
 40
0.0
 40
0.0
 40
1.538033179691817
 40
1.538033179691817
 40
1.538033179691817
 10
31.20493036461845
 20
6.216704384772802
 30
0.0
 10
31.2242295706663
 20
5.447906882663073
 30
0.0
 10
31.24352877671416
 20
4.679109380553343
 30
0.0
  0
SPLINE
  5
266
330
1F
100
AcDbEntity
  8
Default
100
AcDbSpline
210
0.0
220
0.0
230
1.0
 70
    24
 71
     2
 72
     6
 73
     3
 74
     0
 42
0.0000000001
 43
0.0000000001
 40
0.0
 40
0.0
 40
0.0
 40
1.164986319490939
 40
1.164986319490939
 40
1.164986319490939
 10
36.5829350490817
 20
1.532641705660916
 30
0.0
 10
36.5829350490817
 20
2.115134865406386
 30
0.0
 10
36.5829350490817
 20
2.697628025151856
 30
0.0
  0
SPLINE
  5
267
330
1F
100
AcDbEntity
  8
Default
100
AcDbSpline
210
0.0
220
0.0
230
1.0
 70
    24
 71
     2
 72
     6
 73
     3
 74
     0
 42
0.0000000001
 43
0.0000000001
 40
0.0
 40
0.0
 40
0.0
 40
1.164986319490934
 40
1.164986319490934
 40
1.164986319490934
 10
21.84715750434869
 20
1.532641705660922
 30
0.0
 10
21.84715750434869
 20
2.115134865406389
 30
0.0
 10
21.84715750434869
 20
2.697628025151856
 30
0.0
  0
SPLINE
  5
268
330
1F
100
AcDbEntity
  8
Default
100
AcDbSpline
210
0.0
220
0.0
230
1.0
 70
    12
 71
     2
 72
     6
 73
     3
 74
     0
 42
0.0000000001
 43
0.0000000001
 40
0.0
 40
0.0
 40
0.0
 40
0.0267213526072519
 40
0.0267213526072519
 40
0.0267213526072519
 10
33.73220105652122
 20
6.3103380959937
 30
0.0
 41
1.0
 10
33.72236276605287
 20
6.319377770386266
 30
0.0
 41
0.9999999950723483
 10
33.71252268097136
 20
6.328415491230114
 30
0.0
 41
1.0
  0
SPLINE
  5
269
330
1F
100
AcDbEntity
  8
Default
100
AcDbSpline
210
0.0
220
0.0
230
1.0
 70
    24
 71
     2
 72
     6
 73
     3
 74
     0
 42
0.0000000001
 43
0.0000000001
 40
0.0
 40
0.0
 40
0.0
 40
0.359375
 40
0.359375
 40
0.359375
 10
36.5829350490817
 20
2.697628025151856
 30
0.0
 10
36.4032475490817
 20
2.697628025151856
 30
0.0
 10
36.2235600490817
 20
2.697628025151856
 30
0.0
  0
SPLINE
  5
26A
330
1F
100
AcDbEntity
  8
Default
100
AcDbSpline
210
0.0
220
0.0
230
1.0
 70
    24
 71
     2
 72
     6
 73
     3
 74
     0
 42
0.0000000001
 43
0.0000000001
 40
0.0
 40
0.0
 40
0.0
 40
0.8056113194909358
 40
0.8056113194909358
 40
0.8056113194909358
 10
36.2235600490817
 20
2.697628025151856
 30
0.0
 10
35.82075438933623
 20
2.697628025151856
 30
0.0
 10
35.41794872959076
 20
2.697628025151856
 30
0.0
  0
SPLINE
  5
26B
330
1F
100
AcDbEntity
  8
Default
100
AcDbSpline
210
0.0
220
0.0
230
1.0
 70
    24
 71
     2
 72
     6
 73
     3
 74
     0
 42
0.0000000001
 43
0.0000000001
 40
0.0
 40
0.0
 40
0.0
 40
0.0829573442458951
 40
0.0829573442458951
 40
0.0829573442458951
 10
35.86700335308117
 20
2.77959087955483
 30
0.0
 10
35.87340670108139
 20
2.738609452353339
 30
0.0
 10
35.87981004908161
 20
2.697628025151849
 30
0.0
  0
SPLINE
  5
26C
330
1F
100
AcDbEntity
  8
Default
100
AcDbSpline
210
0.0
220
0.0
230
1.0
 70
    24
 71
     2
 72
     6
 73
     3
 74
     0
 42
0.0000000001
 43
0.0000000001
 40
0.0
 40
0.0
 40
0.0
 40
0.0829573442458951
 40
0.0829573442458951
 40
0.0829573442458951
 10
36.56731004908177
 20
2.697628025151849
 30
0.0
 10
36.57371339708199
 20
2.738609452353339
 30
0.0
 10
36.58011674508221
 20
2.77959087955483
 30
0.0
  0
SPLINE
  5
26D
330
1F
100
AcDbEntity
  8
Default
100
AcDbSpline
210
0.0
220
0.0
230
1.0
 70
    24
 71
     2
 72
     6
 73
     3
 74
     0
 42
0.0000000001
 43
0.0000000001
 40
0.0
 40
0.0
 40
0.0
 40
0.7134880180845968
 40
0.7134880180845968
 40
0.7134880180845968
 10
35.8668160400394
 20
2.782003025151855
 30
0.0
 10
36.22356004908169
 20
2.782003025151855
 30
0.0
 10
36.58030405812399
 20
2.782003025151855
 30
0.0
  0
SPLINE
  5
26E
330
1F
100
AcDbEntity
  8
Default
100
AcDbSpline
210
0.0
220
0.0
230
1.0
 70
    24
 71
     2
 72
     6
 73
     3
 74
     0
 42
0.0000000001
 43
0.0000000001
 40
0.0
 40
0.0
 40
0.0
 40
0.359375
 40
0.359375
 40
0.359375
 10
21.84715750434869
 20
2.697628025151856
 30
0.0
 10
21.66747000434869
 20
2.697628025151856
 30
0.0
 10
21.48778250434869
 20
2.697628025151856
 30
0.0
  0
SPLINE
  5
26F
330
1F
100
AcDbEntity
  8
Default
100
AcDbSpline
210
0.0
220
0.0
230
1.0
 70
    24
 71
     2
 72
     6
 73
     3
 74
     0
 42
0.0000000001
 43
0.0000000001
 40
0.0
 40
0.0
 40
0.0
 40
0.8056113194909358
 40
0.8056113194909358
 40
0.8056113194909358
 10
21.48778250434869
 20
2.697628025151856
 30
0.0
 10
21.08497684460322
 20
2.697628025151856
 30
0.0
 10
20.68217118485775
 20
2.697628025151856
 30
0.0
  0
SPLINE
  5
270
330
1F
100
AcDbEntity
  8
Default
100
AcDbSpline
210
0.0
220
0.0
230
1.0
 70
    24
 71
     2
 72
     6
 73
     3
 74
     0
 42
0.0000000001
 43
0.0000000001
 40
0.0
 40
0.0
 40
0.0
 40
0.0829573442458973
 40
0.0829573442458973
 40
0.0829573442458973
 10
21.13122580834813
 20
2.77959087955483
 30
0.0
 10
21.13762915634836
 20
2.738609452353339
 30
0.0
 10
21.14403250434859
 20
2.697628025151849
 30
0.0
  0
SPLINE
  5
271
330
1F
100
AcDbEntity
  8
Default
100
AcDbSpline
210
0.0
220
0.0
230
1.0
 70
    24
 71
     2
 72
     6
 73
     3
 74
     0
 42
0.0000000001
 43
0.0000000001
 40
0.0
 40
0.0
 40
0.0
 40
0.0829573442458973
 40
0.0829573442458973
 40
0.0829573442458973
 10
21.83153250434879
 20
2.697628025151849
 30
0.0
 10
21.83793585234901
 20
2.738609452353339
 30
0.0
 10
21.84433920034924
 20
2.77959087955483
 30
0.0
  0
SPLINE
  5
272
330
1F
100
AcDbEntity
  8
Default
100
AcDbSpline
210
0.0
220
0.0
230
1.0
 70
    24
 71
     2
 72
     6
 73
     3
 74
     0
 42
0.0000000001
 43
0.0000000001
 40
0.0
 40
0.0
 40
0.0
 40
0.7134880180846039
 40
0.7134880180846039
 40
0.7134880180846039
 10
21.13103849530638
 20
2.782003025151855
 30
0.0
 10
21.48778250434869
 20
2.782003025151855
 30
0.0
 10
21.84452651339099
 20
2.782003025151855
 30
0.0
  0
ENDSEC
  0
SECTION
  2
OBJECTS
  0
DICTIONARY
  5
C
330
0
100
AcDbDictionary
281
     1
  3
ACAD_GROUP
350
D
  3
ACAD_LAYOUT
350
1A
  3
ACAD_MLEADERSTYLE
350
274
  3
ACAD_MLINESTYLE
350
17
  3
ACAD_PLOTSETTINGS
350
19
  3
ACAD_PLOTSTYLENAME
350
E
  3
ACAD_TABLESTYLE
350
273
  3
ACAD_VISUALSTYLE
350
2A
  0
DICTIONARY
  5
D
102
{ACAD_REACTORS
330
C
102
}
330
C
100
AcDbDictionary
281
     1
  0
DICTIONARY
  5
1A
102
{ACAD_REACTORS
330
C
102
}
330
C
100
AcDbDictionary
281
     1
  3
Layout1
350
1E
  3
Layout2
350
26
  3
Model
350
22
  0
DICTIONARY
  5
274
102
{ACAD_REACTORS
330
C
102
}
330
C
100
AcDbDictionary
281
     1
  0
DICTIONARY
  5
17
102
{ACAD_REACTORS
330
C
102
}
330
C
100
AcDbDictionary
281
     1
  3
Standard
350
18
  0
DICTIONARY
  5
19
102
{ACAD_REACTORS
330
C
102
}
330
C
100
AcDbDictionary
281
     1
  0
ACDBDICTIONARYWDFLT
  5
E
102
{ACAD_REACTORS
330
C
102
}
330
C
100
AcDbDictionary
281
     1
  3
Normal
350
F
100
AcDbDictionaryWithDefault
340
F
  0
DICTIONARY
  5
273
102
{ACAD_REACTORS
330
C
102
}
330
C
100
AcDbDictionary
281
     1
  0
DICTIONARY
  5
2A
102
{ACAD_REACTORS
330
C
102
}
330
C
100
AcDbDictionary
281
     1
  3
2dWireframe
350
2F
  3
3D Hidden
350
31
  3
3dWireframe
350
30
  3
Basic
350
32
  3
Brighten
350
36
  3
ColorChange
350
3A
  3
Conceptual
350
34
  3
Dim
350
35
  3
Facepattern
350
39
  3
Flat
350
2B
  3
FlatWithEdges
350
2C
  3
Gouraud
350
2D
  3
GouraudWithEdges
350
2E
  3
Linepattern
350
38
  3
Realistic
350
33
  3
Thicken
350
37
  0
LAYOUT
  5
1E
102
{ACAD_REACTORS
330
1A
102
}
330
1A
100
AcDbPlotSettings
  1

  2
none_device
  4

  6

 40
0.0
 41
0.0
 42
0.0
 43
0.0
 44
0.0
 45
0.0
 46
0.0
 47
0.0
 48
0.0
 49
0.0
140
0.0
141
0.0
142
1.0
143
1.0
 70
   688
 72
     0
 73
     0
 74
     5
  7

 75
    16
 76
     0
 77
     2
 78
   300
147
1.0
148
0.0
149
0.0
100
AcDbLayout
  1
Layout1
 70
     1
 71
     1
 10
0.0
 20
0.0
 11
12.0
 21
9.0
 12
0.0
 22
0.0
 32
0.0
 14
1.000000000000000E+20
 24
1.000000000000000E+20
 34
1.000000000000000E+20
 15
-1.000000000000000E+20
 25
-1.000000000000000E+20
 35
-1.000000000000000E+20
146
0.0
 13
0.0
 23
0.0
 33
0.0
 16
1.0
 26
0.0
 36
0.0
 17
0.0
 27
1.0
 37
0.0
 76
     0
330
1B
  0
LAYOUT
  5
26
102
{ACAD_REACTORS
330
1A
102
}
330
1A
100
AcDbPlotSettings
  1

  2
none_device
  4

  6

 40
0.0
 41
0.0
 42
0.0
 43
0.0
 44
0.0
 45
0.0
 46
0.0
 47
0.0
 48
0.0
 49
0.0
140
0.0
141
0.0
142
1.0
143
1.0
 70
   688
 72
     0
 73
     0
 74
     5
  7

 75
    16
 76
     0
 77
     2
 78
   300
147
1.0
148
0.0
149
0.0
100
AcDbLayout
  1
Layout2
 70
     1
 71
     2
 10
0.0
 20
0.0
 11
0.0
 21
0.0
 12
0.0
 22
0.0
 32
0.0
 14
0.0
 24
0.0
 34
0.0
 15
0.0
 25
0.0
 35
0.0
146
0.0
 13
0.0
 23
0.0
 33
0.0
 16
1.0
 26
0.0
 36
0.0
 17
0.0
 27
1.0
 37
0.0
 76
     0
330
23
  0
LAYOUT
  5
22
102
{ACAD_REACTORS
330
1A
102
}
330
1A
100
AcDbPlotSettings
  1

  2
none_device
  4

  6

 40
0.0
 41
0.0
 42
0.0
 43
0.0
 44
0.0
 45
0.0
 46
0.0
 47
0.0
 48
0.0
 49
0.0
140
0.0
141
0.0
142
1.0
143
1.0
 70
  1712
 72
     0
 73
     0
 74
     0
  7

 75
     0
 76
     0
 77
     2
 78
   300
147
1.0
148
0.0
149
0.0
100
AcDbLayout
  1
Model
 70
     1
 71
     0
 10
0.0
 20
0.0
 11
12.0
 21
9.0
 12
0.0
 22
0.0
 32
0.0
 14
-13.41000108009499
 24
0.137628025151855
 34
0.0
 15
45.7786996832132
 25
68.13741192005081
 35
0.0
146
0.0
 13
0.0
 23
0.0
 33
0.0
 16
1.0
 26
0.0
 36
0.0
 17
0.0
 27
1.0
 37
0.0
 76
     0
330
1F
331
29
  0
MLINESTYLE
  5
18
102
{ACAD_REACTORS
330
17
102
}
330
17
100
AcDbMlineStyle
  2
Standard
 70
     0
  3

 62
   256
 51
90.0
 52
90.0
 71
     2
 49
0.5
 62
   256
  6
BYLAYER
 49
-0.5
 62
   256
  6
BYLAYER
  0
ACDBPLACEHOLDER
  5
F
102
{ACAD_REACTORS
330
E
102
}
330
E
  0
VISUALSTYLE
  5
2F
102
{ACAD_REACTORS
330
2A
102
}
330
2A
100
AcDbVisualStyle
  2
2dWireframe
 70
     4
 71
     0
 72
     2
 73
     0
 90
        0
 40
-0.6
 41
-30.0
 62
     5
 63
     7
421
 16777215
 74
     1
 91
        4
 64
     7
 65
   257
 75
     1
175
     1
 42
1.0
 92
        0
 66
   257
 43
1.0
 76
     1
 77
     6
 78
     2
 67
     7
 79
     5
170
     0
171
     0
290
     0
174
     0
 93
        1
 44
0.0
173
     0
291
     0
 45
0.0
1001
ACAD
1000
AcDbSavedByObjectVersion
1070
     0
  0
VISUALSTYLE
  5
31
102
{ACAD_REACTORS
330
2A
102
}
330
2A
100
AcDbVisualStyle
  2
3D Hidden
 70
     6
 71
     1
 72
     2
 73
     2
 90
        0
 40
-0.6
 41
-30.0
 62
     5
 63
     7
421
 16777215
 74
     2
 91
        2
 64
     7
 65
   257
 75
     2
175
     1
 42
40.0
 92
        0
 66
   257
 43
1.0
 76
     1
 77
     6
 78
     2
 67
     7
 79
     3
170
     0
171
     0
290
     0
174
     0
 93
        1
 44
0.0
173
     0
291
     0
 45
0.0
1001
ACAD
1000
AcDbSavedByObjectVersion
1070
     0
  0
VISUALSTYLE
  5
30
102
{ACAD_REACTORS
330
2A
102
}
330
2A
100
AcDbVisualStyle
  2
3dWireframe
 70
     5
 71
     0
 72
     2
 73
     0
 90
        0
 40
-0.6
 41
-30.0
 62
     5
 63
     7
421
 16777215
 74
     1
 91
        4
 64
     7
 65
   257
 75
     1
175
     1
 42
1.0
 92
        0
 66
   257
 43
1.0
 76
     1
 77
     6
 78
     2
 67
     7
 79
     5
170
     0
171
     0
290
     0
174
     0
 93
        1
 44
0.0
173
     0
291
     0
 45
0.0
1001
ACAD
1000
AcDbSavedByObjectVersion
1070
     0
  0
VISUALSTYLE
  5
32
102
{ACAD_REACTORS
330
2A
102
}
330
2A
100
AcDbVisualStyle
  2
Basic
 70
     7
 71
     1
 72
     0
 73
     1
 90
        0
 40
-0.6
 41
-30.0
 62
     5
 63
     7
421
 16777215
 74
     0
 91
        4
 64
     7
 65
   257
 75
     1
175
     1
 42
1.0
 92
        8
 66
     7
 43
1.0
 76
     1
 77
     6
 78
     2
 67
     7
 79
     5
170
     0
171
     0
290
     0
174
     0
 93
        1
 44
0.0
173
     0
291
     1
 45
0.0
1001
ACAD
1000
AcDbSavedByObjectVersion
1070
     0
  0
VISUALSTYLE
  5
36
102
{ACAD_REACTORS
330
2A
102
}
330
2A
100
AcDbVisualStyle
  2
Brighten
 70
    12
 71
     2
 72
     2
 73
     0
 90
        0
 40
-0.6
 41
-30.0
 62
     5
 63
     7
421
 16777215
 74
     1
 91
        4
 64
     7
 65
   257
 75
     1
175
     1
 42
1.0
 92
        8
 66
     7
 43
1.0
 76
     1
 77
     6
 78
     2
 67
     7
 79
     5
170
     0
171
     0
290
     0
174
     0
 93
        1
 44
50.0
173
     0
291
     1
 45
0.0
1001
ACAD
1000
AcDbSavedByObjectVersion
1070
     0
  0
VISUALSTYLE
  5
3A
102
{ACAD_REACTORS
330
2A
102
}
330
2A
100
AcDbVisualStyle
  2
ColorChange
 70
    16
 71
     2
 72
     2
 73
     3
 90
        0
 40
-0.6
 41
-30.0
 62
     5
 63
     8
421
  8421504
 74
     1
 91
        4
 64
     7
 65
   257
 75
     1
175
     1
 42
1.0
 92
        8
 66
     8
424
  8421504
 43
1.0
 76
     1
 77
     6
 78
     2
 67
     7
 79
     5
170
     0
171
     0
290
     0
174
     0
 93
        1
 44
0.0
173
     0
291
     1
 45
0.0
1001
ACAD
1000
AcDbSavedByObjectVersion
1070
     0
  0
VISUALSTYLE
  5
34
102
{ACAD_REACTORS
330
2A
102
}
330
2A
100
AcDbVisualStyle
  2
Conceptual
 70
     9
 71
     3
 72
     2
 73
     0
 90
        0
 40
-0.6
 41
-30.0
 62
     5
 63
     7
421
 16777215
 74
     2
 91
        2
 64
     7
 65
   257
 75
     1
175
     1
 42
40.0
 92
        8
 66
     7
 43
1.0
 76
     1
 77
     6
 78
     2
 67
     7
 79
     3
170
     0
171
     0
290
     0
174
     0
 93
        1
 44
0.0
173
     0
291
     0
 45
0.0
1001
ACAD
1000
AcDbSavedByObjectVersion
1070
     0
  0
VISUALSTYLE
  5
35
102
{ACAD_REACTORS
330
2A
102
}
330
2A
100
AcDbVisualStyle
  2
Dim
 70
    11
 71
     2
 72
     2
 73
     0
 90
        0
 40
-0.6
 41
-30.0
 62
     5
 63
     7
421
 16777215
 74
     1
 91
        4
 64
     7
 65
   257
 75
     1
175
     1
 42
1.0
 92
        8
 66
     7
 43
1.0
 76
     1
 77
     6
 78
     2
 67
     7
 79
     5
170
     0
171
     0
290
     0
174
     0
 93
        1
 44
-50.0
173
     0
291
     1
 45
0.0
1001
ACAD
1000
AcDbSavedByObjectVersion
1070
     0
  0
VISUALSTYLE
  5
39
102
{ACAD_REACTORS
330
2A
102
}
330
2A
100
AcDbVisualStyle
  2
Facepattern
 70
    15
 71
     2
 72
     2
 73
     0
 90
        0
 40
-0.6
 41
-30.0
 62
     5
 63
     7
421
 16777215
 74
     1
 91
        4
 64
     7
 65
   257
 75
     1
175
     1
 42
1.0
 92
        8
 66
     7
 43
1.0
 76
     1
 77
     6
 78
     2
 67
     7
 79
     5
170
     0
171
     0
290
     0
174
     0
 93
        1
 44
0.0
173
     0
291
     1
 45
0.0
1001
ACAD
1000
AcDbSavedByObjectVersion
1070
     0
  0
VISUALSTYLE
  5
2B
102
{ACAD_REACTORS
330
2A
102
}
330
2A
100
AcDbVisualStyle
  2
Flat
 70
     0
 71
     2
 72
     1
 73
     1
 90
        2
 40
-0.6
 41
30.0
 62
     5
 63
     7
421
 16777215
 74
     0
 91
        4
 64
     7
 65
   257
 75
     1
175
     1
 42
1.0
 92
        8
 66
     7
 43
1.0
 76
     1
 77
     6
 78
     2
 67
     7
 79
     5
170
     0
171
     0
290
     0
174
     0
 93
       13
 44
0.0
173
     0
291
     1
 45
0.0
1001
ACAD
1000
AcDbSavedByObjectVersion
1070
     0
  0
VISUALSTYLE
  5
2C
102
{ACAD_REACTORS
330
2A
102
}
330
2A
100
AcDbVisualStyle
  2
FlatWithEdges
 70
     1
 71
     2
 72
     1
 73
     1
 90
        2
 40
-0.6
 41
30.0
 62
     5
 63
     7
421
 16777215
 74
     1
 91
        4
 64
     7
 65
   257
 75
     1
175
     1
 42
1.0
 92
        0
 66
   257
 43
1.0
 76
     1
 77
     6
 78
     2
 67
     7
 79
     5
170
     0
171
     0
290
     0
174
     0
 93
       13
 44
0.0
173
     0
291
     1
 45
0.0
1001
ACAD
1000
AcDbSavedByObjectVersion
1070
     0
  0
VISUALSTYLE
  5
2D
102
{ACAD_REACTORS
330
2A
102
}
330
2A
100
AcDbVisualStyle
  2
Gouraud
 70
     2
 71
     2
 72
     2
 73
     1
 90
        2
 40
-0.6
 41
30.0
 62
     5
 63
     7
421
 16777215
 74
     0
 91
        4
 64
     7
 65
   257
 75
     1
175
     1
 42
1.0
 92
        0
 66
     7
 43
1.0
 76
     1
 77
     6
 78
     2
 67
     7
 79
     5
170
     0
171
     0
290
     0
174
     0
 93
       13
 44
0.0
173
     0
291
     1
 45
0.0
1001
ACAD
1000
AcDbSavedByObjectVersion
1070
     0
  0
VISUALSTYLE
  5
2E
102
{ACAD_REACTORS
330
2A
102
}
330
2A
100
AcDbVisualStyle
  2
GouraudWithEdges
 70
     3
 71
     2
 72
     2
 73
     1
 90
        2
 40
-0.6
 41
30.0
 62
     5
 63
     7
421
 16777215
 74
     1
 91
        4
 64
     7
 65
   257
 75
     1
175
     1
 42
1.0
 92
        0
 66
   257
 43
1.0
 76
     1
 77
     6
 78
     2
 67
     7
 79
     5
170
     0
171
     0
290
     0
174
     0
 93
       13
 44
0.0
173
     0
291
     1
 45
0.0
1001
ACAD
1000
AcDbSavedByObjectVersion
1070
     0
  0
VISUALSTYLE
  5
38
102
{ACAD_REACTORS
330
2A
102
}
330
2A
100
AcDbVisualStyle
  2
Linepattern
 70
    14
 71
     2
 72
     2
 73
     0
 90
        0
 40
-0.6
 41
-30.0
 62
     5
 63
     7
421
 16777215
 74
     1
 91
        4
 64
     7
 65
   257
 75
     7
175
     7
 42
1.0
 92
        8
 66
     7
 43
1.0
 76
     1
 77
     6
 78
     2
 67
     7
 79
     5
170
     0
171
     0
290
     0
174
     0
 93
        1
 44
0.0
173
     0
291
     1
 45
0.0
1001
ACAD
1000
AcDbSavedByObjectVersion
1070
     0
  0
VISUALSTYLE
  5
33
102
{ACAD_REACTORS
330
2A
102
}
330
2A
100
AcDbVisualStyle
  2
Realistic
 70
     8
 71
     2
 72
     2
 73
     0
 90
        0
 40
-0.6
 41
-30.0
 62
     5
 63
     7
421
 16777215
 74
     1
 91
        0
 64
     7
 65
   257
 75
     1
175
     1
 42
1.0
 92
        8
 66
     8
424
  7895160
 43
1.0
 76
     1
 77
     6
 78
     2
 67
     7
 79
     5
170
     0
171
     0
290
     0
174
     0
 93
       13
 44
0.0
173
     0
291
     0
 45
0.0
1001
ACAD
1000
AcDbSavedByObjectVersion
1070
     0
  0
VISUALSTYLE
  5
37
102
{ACAD_REACTORS
330
2A
102
}
330
2A
100
AcDbVisualStyle
  2
Thicken
 70
    13
 71
     2
 72
     2
 73
     0
 90
        0
 40
-0.6
 41
-30.0
 62
     5
 63
     7
421
 16777215
 74
     1
 91
        4
 64
     7
 65
   257
 75
     1
175
     1
 42
1.0
 92
       12
 66
     7
 43
1.0
 76
     1
 77
     6
 78
     2
 67
     7
 79
     5
170
     0
171
     0
290
     0
174
     0
 93
        1
 44
0.0
173
     0
291
     1
 45
0.0
1001
ACAD
1000
AcDbSavedByObjectVersion
1070
     0
  0
ENDSEC
  0
EOF
