  0
SECTION
  2
HEADER
  9
$ACADVER
  1
AC1018
  9
$ACADMAINTVER
 70
     0
  9
$DWGCODEPAGE
  3
ANSI_1252
  9
$INSBASE
 10
0.0
 20
0.0
 30
0.0
  9
$EXTMIN
 10
-13.5349248847
 20
-0.000004893899991
 30
0.0
  9
$EXTMAX
 10
45.70451655581088
 20
67.19939232534989
 30
0.0
  9
$LIMMIN
 10
0.0
 20
0.0
  9
$LIMMAX
 10
12.0
 20
9.0
  9
$ORTHOMODE
 70
     0
  9
$REGENMODE
 70
     1
  9
$FILLMODE
 70
     1
  9
$QTEXTMODE
 70
     0
  9
$MIRRTEXT
 70
     1
  9
$LTSCALE
 40
0.0393700787401575
  9
$ATTMODE
 70
     1
  9
$TEXTSIZE
 40
0.2
  9
$TRACEWID
 40
0.05
  9
$TEXTSTYLE
  7
Standard
  9
$CLAYER
  8
Default
  9
$CELTYPE
  6
ByLayer
  9
$CECOLOR
 62
   256
  9
$CELTSCALE
 40
1.0
  9
$DISPSILH
 70
     0
  9
$DIMSCALE
 40
1.0
  9
$DIMASZ
 40
0.18
  9
$DIMEXO
 40
0.0625
  9
$DIMDLI
 40
0.38
  9
$DIMRND
 40
0.0
  9
$DIMDLE
 40
0.0
  9
$DIMEXE
 40
0.18
  9
$DIMTP
 40
0.0
  9
$DIMTM
 40
0.0
  9
$DIMTXT
 40
0.18
  9
$DIMCEN
 40
0.09
  9
$DIMTSZ
 40
0.0
  9
$DIMTOL
 70
     0
  9
$DIMLIM
 70
     0
  9
$DIMTIH
 70
     1
  9
$DIMTOH
 70
     1
  9
$DIMSE1
 70
     0
  9
$DIMSE2
 70
     0
  9
$DIMTAD
 70
     0
  9
$DIMZIN
 70
     0
  9
$DIMBLK
  1

  9
$DIMASO
 70
     1
  9
$DIMSHO
 70
     1
  9
$DIMPOST
  1

  9
$DIMAPOST
  1

  9
$DIMALT
 70
     0
  9
$DIMALTD
 70
     2
  9
$DIMALTF
 40
25.4
  9
$DIMLFAC
 40
1.0
  9
$DIMTOFL
 70
     0
  9
$DIMTVP
 40
0.0
  9
$DIMTIX
 70
     0
  9
$DIMSOXD
 70
     0
  9
$DIMSAH
 70
     0
  9
$DIMBLK1
  1

  9
$DIMBLK2
  1

  9
$DIMSTYLE
  2
Standard
  9
$DIMCLRD
 70
     0
  9
$DIMCLRE
 70
     0
  9
$DIMCLRT
 70
     0
  9
$DIMTFAC
 40
1.0
  9
$DIMGAP
 40
0.09
  9
$DIMJUST
 70
     0
  9
$DIMSD1
 70
     0
  9
$DIMSD2
 70
     0
  9
$DIMTOLJ
 70
     1
  9
$DIMTZIN
 70
     0
  9
$DIMALTZ
 70
     0
  9
$DIMALTTZ
 70
     0
  9
$DIMUPT
 70
     0
  9
$DIMDEC
 70
     4
  9
$DIMTDEC
 70
     4
  9
$DIMALTU
 70
     2
  9
$DIMALTTD
 70
     2
  9
$DIMTXSTY
  7
Standard
  9
$DIMAUNIT
 70
     0
  9
$DIMADEC
 70
     0
  9
$DIMALTRND
 40
0.0
  9
$DIMAZIN
 70
     0
  9
$DIMDSEP
 70
    46
  9
$DIMATFIT
 70
     3
  9
$DIMFRAC
 70
     0
  9
$DIMLDRBLK
  1

  9
$DIMLUNIT
 70
     2
  9
$DIMLWD
 70
    -2
  9
$DIMLWE
 70
    -2
  9
$DIMTMOVE
 70
     2
  9
$LUNITS
 70
     2
  9
$LUPREC
 70
     4
  9
$SKETCHINC
 40
0.1
  9
$FILLETRAD
 40
0.5
  9
$AUNITS
 70
     0
  9
$AUPREC
 70
     0
  9
$MENU
  1
.
  9
$ELEVATION
 40
0.0
  9
$PELEVATION
 40
0.0
  9
$THICKNESS
 40
0.0
  9
$LIMCHECK
 70
     0
  9
$CHAMFERA
 40
0.5
  9
$CHAMFERB
 40
0.5
  9
$CHAMFERC
 40
1.0
  9
$CHAMFERD
 40
0.0
  9
$SKPOLY
 70
     0
  9
$TDCREATE
 40
2457212.425953738
  9
$TDUCREATE
 40
2457212.592620405
  9
$TDUPDATE
 40
2457212.42595375
  9
$TDUUPDATE
 40
2457212.592620417
  9
$TDINDWG
 40
0.0000000116
  9
$TDUSRTIMER
 40
0.0000000116
  9
$USRTIMER
 70
     1
  9
$ANGBASE
 50
0.0
  9
$ANGDIR
 70
     0
  9
$PDMODE
 70
     0
  9
$PDSIZE
 40
0.0
  9
$PLINEWID
 40
0.0
  9
$SPLFRAME
 70
     0
  9
$SPLINETYPE
 70
     6
  9
$SPLINESEGS
 70
     8
  9
$HANDSEED
  5
2D7
  9
$SURFTAB1
 70
     6
  9
$SURFTAB2
 70
     6
  9
$SURFTYPE
 70
     6
  9
$SURFU
 70
     6
  9
$SURFV
 70
     6
  9
$UCSBASE
  2

  9
$UCSNAME
  2

  9
$UCSORG
 10
0.0
 20
0.0
 30
0.0
  9
$UCSXDIR
 10
1.0
 20
0.0
 30
0.0
  9
$UCSYDIR
 10
0.0
 20
1.0
 30
0.0
  9
$UCSORTHOREF
  2

  9
$UCSORTHOVIEW
 70
     0
  9
$UCSORGTOP
 10
0.0
 20
0.0
 30
0.0
  9
$UCSORGBOTTOM
 10
0.0
 20
0.0
 30
0.0
  9
$UCSORGLEFT
 10
0.0
 20
0.0
 30
0.0
  9
$UCSORGRIGHT
 10
0.0
 20
0.0
 30
0.0
  9
$UCSORGFRONT
 10
0.0
 20
0.0
 30
0.0
  9
$UCSORGBACK
 10
0.0
 20
0.0
 30
0.0
  9
$PUCSBASE
  2

  9
$PUCSNAME
  2

  9
$PUCSORG
 10
0.0
 20
0.0
 30
0.0
  9
$PUCSXDIR
 10
1.0
 20
0.0
 30
0.0
  9
$PUCSYDIR
 10
0.0
 20
1.0
 30
0.0
  9
$PUCSORTHOREF
  2

  9
$PUCSORTHOVIEW
 70
     0
  9
$PUCSORGTOP
 10
0.0
 20
0.0
 30
0.0
  9
$PUCSORGBOTTOM
 10
0.0
 20
0.0
 30
0.0
  9
$PUCSORGLEFT
 10
0.0
 20
0.0
 30
0.0
  9
$PUCSORGRIGHT
 10
0.0
 20
0.0
 30
0.0
  9
$PUCSORGFRONT
 10
0.0
 20
0.0
 30
0.0
  9
$PUCSORGBACK
 10
0.0
 20
0.0
 30
0.0
  9
$USERI1
 70
     0
  9
$USERI2
 70
     0
  9
$USERI3
 70
     0
  9
$USERI4
 70
     0
  9
$USERI5
 70
     0
  9
$USERR1
 40
0.0
  9
$USERR2
 40
0.0
  9
$USERR3
 40
0.0
  9
$USERR4
 40
0.0
  9
$USERR5
 40
0.0
  9
$WORLDVIEW
 70
     1
  9
$SHADEDGE
 70
     3
  9
$SHADEDIF
 70
    70
  9
$TILEMODE
 70
     1
  9
$MAXACTVP
 70
    64
  9
$PINSBASE
 10
0.0
 20
0.0
 30
0.0
  9
$PLIMCHECK
 70
     0
  9
$PEXTMIN
 10
1.000000000000000E+20
 20
1.000000000000000E+20
 30
1.000000000000000E+20
  9
$PEXTMAX
 10
-1.000000000000000E+20
 20
-1.000000000000000E+20
 30
-1.000000000000000E+20
  9
$PLIMMIN
 10
0.0
 20
0.0
  9
$PLIMMAX
 10
12.0
 20
9.0
  9
$UNITMODE
 70
     0
  9
$VISRETAIN
 70
     1
  9
$PLINEGEN
 70
     0
  9
$PSLTSCALE
 70
     1
  9
$TREEDEPTH
 70
  3020
  9
$CMLSTYLE
  2
Standard
  9
$CMLJUST
 70
     0
  9
$CMLSCALE
 40
1.0
  9
$PROXYGRAPHICS
 70
     1
  9
$MEASUREMENT
 70
     0
  9
$CELWEIGHT
370
    -1
  9
$ENDCAPS
280
     0
  9
$JOINSTYLE
280
     0
  9
$LWDISPLAY
290
     0
  9
$INSUNITS
 70
     1
  9
$HYPERLINKBASE
  1

  9
$STYLESHEET
  1

  9
$XEDIT
290
     1
  9
$CEPSNTYPE
380
     0
  9
$PSTYLEMODE
290
     1
  9
$FINGERPRINTGUID
  2
{9D74A191-24E1-4959-B8D1-18E60A64A391}
  9
$VERSIONGUID
  2
{FAEB1C32-E019-11D5-929B-00C0DF256EC4}
  9
$EXTNAMES
290
     1
  9
$PSVPSCALE
 40
0.0
  9
$OLESTARTUP
290
     0
  9
$SORTENTS
280
   127
  9
$INDEXCTL
280
     0
  9
$HIDETEXT
280
     1
  9
$XCLIPFRAME
290
     0
  9
$HALOGAP
280
     0
  9
$OBSCOLOR
 70
   257
  9
$OBSLTYPE
280
     0
  9
$INTERSECTIONDISPLAY
280
     0
  9
$INTERSECTIONCOLOR
 70
   257
  9
$DIMASSOC
280
     2
  9
$PROJECTNAME
  1

  0
ENDSEC
  0
SECTION
  2
CLASSES
  0
CLASS
  1
ACDBDICTIONARYWDFLT
  2
AcDbDictionaryWithDefault
  3
ObjectDBX Classes
 90
        0
 91
        4
280
     0
281
     0
  0
CLASS
  1
VISUALSTYLE
  2
AcDbVisualStyle
  3
ObjectDBX Classes
 90
     4095
 91
        4
280
     0
281
     0
  0
ENDSEC
  0
SECTION
  2
TABLES
  0
TABLE
  2
VPORT
  5
8
330
0
100
AcDbSymbolTable
 70
     1
  0
VPORT
  5
29
330
8
100
AcDbSymbolTableRecord
100
AcDbViewportTableRecord
  2
*Active
 70
     0
 10
0.0
 20
0.0
 11
1.0
 21
1.0
 12
16.08479583555544
 22
33.59969371572495
 13
0.0
 23
0.0
 14
0.5
 24
0.5
 15
0.5
 25
0.5
 16
0.0
 26
0.0
 36
1.0
 17
0.0
 27
0.0
 37
0.0
 40
68.54338516363487
 41
0.8815472145863418
 42
50.0
 43
0.0
 44
0.0
 50
0.0
 51
0.0
 71
     0
 72
   100
 73
     1
 74
     3
 75
     0
 76
     0
 77
     0
 78
     0
281
     0
 65
     1
110
0.0
120
0.0
130
0.0
111
1.0
121
0.0
131
0.0
112
0.0
122
1.0
132
0.0
 79
     0
146
0.0
  0
ENDTAB
  0
TABLE
  2
LTYPE
  5
5
330
0
100
AcDbSymbolTable
 70
     1
  0
LTYPE
  5
14
330
5
100
AcDbSymbolTableRecord
100
AcDbLinetypeTableRecord
  2
ByBlock
 70
     0
  3

 72
    65
 73
     0
 40
0.0
  0
LTYPE
  5
15
330
5
100
AcDbSymbolTableRecord
100
AcDbLinetypeTableRecord
  2
ByLayer
 70
     0
  3

 72
    65
 73
     0
 40
0.0
  0
LTYPE
  5
16
330
5
100
AcDbSymbolTableRecord
100
AcDbLinetypeTableRecord
  2
Continuous
 70
     0
  3
Solid line
 72
    65
 73
     0
 40
0.0
  0
ENDTAB
  0
TABLE
  2
LAYER
  5
2
330
0
100
AcDbSymbolTable
 70
     2
  0
LAYER
  5
10
330
2
100
AcDbSymbolTableRecord
100
AcDbLayerTableRecord
  2
0
 70
     0
 62
     7
  6
Continuous
370
    -3
390
F
  0
LAYER
  5
3B
330
2
100
AcDbSymbolTableRecord
100
AcDbLayerTableRecord
  2
Default
 70
     0
 62
     7
  6
Continuous
370
    -3
390
F
  0
ENDTAB
  0
TABLE
  2
STYLE
  5
3
330
0
100
AcDbSymbolTable
 70
     1
  0
STYLE
  5
11
330
3
100
AcDbSymbolTableRecord
100
AcDbTextStyleTableRecord
  2
Standard
 70
     0
 40
0.0
 41
1.0
 50
0.0
 71
     0
 42
0.2
  3
txt
  4

  0
ENDTAB
  0
TABLE
  2
VIEW
  5
6
330
0
100
AcDbSymbolTable
 70
     0
  0
ENDTAB
  0
TABLE
  2
UCS
  5
7
330
0
100
AcDbSymbolTable
 70
     0
  0
ENDTAB
  0
TABLE
  2
APPID
  5
9
330
0
100
AcDbSymbolTable
 70
     1
  0
APPID
  5
12
330
9
100
AcDbSymbolTableRecord
100
AcDbRegAppTableRecord
  2
ACAD
 70
     0
  0
ENDTAB
  0
TABLE
  2
DIMSTYLE
  5
A
330
0
100
AcDbSymbolTable
 70
     1
100
AcDbDimStyleTable
  0
DIMSTYLE
105
27
330
A
100
AcDbSymbolTableRecord
100
AcDbDimStyleTableRecord
  2
Standard
 70
     0
340
11
  0
ENDTAB
  0
TABLE
  2
BLOCK_RECORD
  5
1
330
0
100
AcDbSymbolTable
 70
     1
  0
BLOCK_RECORD
  5
1F
330
1
100
AcDbSymbolTableRecord
100
AcDbBlockTableRecord
  2
*Model_Space
340
22
  0
BLOCK_RECORD
  5
1B
330
1
100
AcDbSymbolTableRecord
100
AcDbBlockTableRecord
  2
*Paper_Space
340
1E
  0
BLOCK_RECORD
  5
23
330
1
100
AcDbSymbolTableRecord
100
AcDbBlockTableRecord
  2
*Paper_Space0
340
26
  0
ENDTAB
  0
ENDSEC
  0
SECTION
  2
BLOCKS
  0
BLOCK
  5
20
330
1F
100
AcDbEntity
  8
0
100
AcDbBlockBegin
  2
*Model_Space
 70
     0
 10
0.0
 20
0.0
 30
0.0
  3
*Model_Space
  1

  0
ENDBLK
  5
21
330
1F
100
AcDbEntity
  8
0
100
AcDbBlockEnd
  0
BLOCK
  5
1C
330
1B
100
AcDbEntity
 67
     1
  8
0
100
AcDbBlockBegin
  2
*Paper_Space
 70
     0
 10
0.0
 20
0.0
 30
0.0
  3
*Paper_Space
  1

  0
ENDBLK
  5
1D
330
1B
100
AcDbEntity
 67
     1
  8
0
100
AcDbBlockEnd
  0
BLOCK
  5
24
330
23
100
AcDbEntity
  8
0
100
AcDbBlockBegin
  2
*Paper_Space0
 70
     0
 10
0.0
 20
0.0
 30
0.0
  3
*Paper_Space0
  1

  0
ENDBLK
  5
25
330
23
100
AcDbEntity
  8
0
100
AcDbBlockEnd
  0
ENDSEC
  0
SECTION
  2
ENTITIES
  0
SPLINE
  5
3C
330
1F
100
AcDbEntity
  8
Default
100
AcDbSpline
210
0.0
220
0.0
230
1.0
 70
    12
 71
     2
 72
     6
 73
     3
 74
     0
 42
0.0000000001
 43
0.0000000001
 40
0.0
 40
0.0
 40
0.0
 40
0.3141592653589774
 40
0.3141592653589774
 40
0.3141592653589774
 10
-13.53491558285485
 20
52.25821082458245
 30
0.0
 41
1.0
 10
-13.53491558285485
 20
52.45821082458244
 30
0.0
 41
0.7071067811865365
 10
-13.33491558285485
 20
52.45821082458244
 30
0.0
 41
1.0
  0
SPLINE
  5
3D
330
1F
100
AcDbEntity
  8
Default
100
AcDbSpline
210
0.0
220
0.0
230
1.0
 70
    24
 71
     2
 72
     6
 73
     3
 74
     0
 42
0.0000000001
 43
0.0000000001
 40
0.0
 40
0.0
 40
0.0
 40
2.16
 40
2.16
 40
2.16
 10
-13.53491558285485
 20
52.25821082458245
 30
0.0
 10
-13.53491558285485
 20
51.17821082458245
 30
0.0
 10
-13.53491558285485
 20
50.09821082458244
 30
0.0
  0
SPLINE
  5
3E
330
1F
100
AcDbEntity
  8
Default
100
AcDbSpline
210
0.0
220
0.0
230
1.0
 70
    24
 71
     2
 72
     6
 73
     3
 74
     0
 42
0.0000000001
 43
0.0000000001
 40
0.0
 40
0.0
 40
0.0
 40
0.0512878304208932
 40
0.0512878304208932
 40
0.0512878304208932
 10
-8.166500323299845
 20
64.68518662672534
 30
0.0
 10
-8.166500323299845
 20
64.65954271151489
 30
0.0
 10
-8.166500323299845
 20
64.63389879630444
 30
0.0
  0
SPLINE
  5
3F
330
1F
100
AcDbEntity
  8
Default
100
AcDbSpline
210
0.0
220
0.0
230
1.0
 70
    12
 71
     2
 72
     6
 73
     3
 74
     0
 42
0.0000000001
 43
0.0000000001
 40
0.0
 40
0.0
 40
0.0
 40
0.3141592653589815
 40
0.3141592653589815
 40
0.3141592653589815
 10
-8.547000323299843
 20
64.63389879630444
 30
0.0
 41
1.0
 10
-8.747000323299847
 20
64.63389879630445
 30
0.0
 41
0.7071067811865318
 10
-8.747000323299844
 20
64.83389879630445
 30
0.0
 41
1.0
  0
SPLINE
  5
40
330
1F
100
AcDbEntity
  8
Default
100
AcDbSpline
210
0.0
220
0.0
230
1.0
 70
    24
 71
     2
 72
     6
 73
     3
 74
     0
 42
0.0000000001
 43
0.0000000001
 40
0.0
 40
0.0
 40
0.0
 40
2.16
 40
2.16
 40
2.16
 10
-8.747000323299845
 20
66.99389879630445
 30
0.0
 10
-8.747000323299845
 20
65.91389879630445
 30
0.0
 10
-8.747000323299845
 20
64.83389879630445
 30
0.0
  0
SPLINE
  5
41
330
1F
100
AcDbEntity
  8
Default
100
AcDbSpline
210
0.0
220
0.0
230
1.0
 70
    24
 71
     2
 72
     6
 73
     3
 74
     0
 42
0.0000000001
 43
0.0000000001
 40
0.0
 40
0.0
 40
0.0
 40
2.160892209350461
 40
2.160892209350461
 40
2.160892209350461
 10
-8.166500323299845
 20
67.19389879630444
 30
0.0
 10
-8.166500323299843
 20
66.1134526916292
 30
0.0
 10
-8.166500323299843
 20
65.03300658695397
 30
0.0
  0
SPLINE
  5
42
330
1F
100
AcDbEntity
  8
Default
100
AcDbSpline
210
0.0
220
0.0
230
1.0
 70
    24
 71
     2
 72
     6
 73
     3
 74
     0
 42
0.0000000001
 43
0.0000000001
 40
0.0
 40
0.0
 40
0.0
 40
0.3804999999999978
 40
0.3804999999999978
 40
0.3804999999999978
 10
-8.547000323299843
 20
64.63389879630444
 30
0.0
 10
-8.356750323299844
 20
64.63389879630444
 30
0.0
 10
-8.166500323299845
 20
64.63389879630444
 30
0.0
  0
SPLINE
  5
43
330
1F
100
AcDbEntity
  8
Default
100
AcDbSpline
210
0.0
220
0.0
230
1.0
 70
    24
 71
     2
 72
     6
 73
     3
 74
     0
 42
0.0000000001
 43
0.0000000001
 40
0.0
 40
0.0
 40
0.0
 40
0.1245692438752711
 40
0.1245692438752711
 40
0.1245692438752711
 10
-0.4194906980848465
 20
40.91562405431972
 30
0.0
 10
-0.4194906980848456
 20
40.85333943238209
 30
0.0
 10
-0.4194906980848447
 20
40.79105481044445
 30
0.0
  0
SPLINE
  5
44
330
1F
100
AcDbEntity
  8
Default
100
AcDbSpline
210
0.0
220
0.0
230
1.0
 70
    24
 71
     2
 72
     6
 73
     3
 74
     0
 42
0.0000000001
 43
0.0000000001
 40
0.0
 40
0.0
 40
0.0
 40
0.3804999999999978
 40
0.3804999999999978
 40
0.3804999999999978
 10
-8.166500323299845
 20
67.19389879630444
 30
0.0
 10
-8.356750323299844
 20
67.19389879630444
 30
0.0
 10
-8.547000323299843
 20
67.19389879630444
 30
0.0
  0
SPLINE
  5
45
330
1F
100
AcDbEntity
  8
Default
100
AcDbSpline
210
0.0
220
0.0
230
1.0
 70
    12
 71
     2
 72
     6
 73
     3
 74
     0
 42
0.0000000001
 43
0.0000000001
 40
0.0
 40
0.0
 40
0.0
 40
0.3141592653589843
 40
0.3141592653589843
 40
0.3141592653589843
 10
-8.747000323299845
 20
66.99389879630445
 30
0.0
 41
1.0
 10
-8.747000323299849
 20
67.19389879630445
 30
0.0
 41
0.7071067811865318
 10
-8.547000323299843
 20
67.19389879630444
 30
0.0
 41
1.0
  0
SPLINE
  5
46
330
1F
100
AcDbEntity
  8
Default
100
AcDbSpline
210
0.0
220
0.0
230
1.0
 70
    24
 71
     2
 72
     6
 73
     3
 74
     0
 42
0.0000000001
 43
0.0000000001
 40
0.0
 40
0.0
 40
0.0
 40
0.3804999999999978
 40
0.3804999999999978
 40
0.3804999999999978
 10
-0.7999906980848426
 20
40.79105481044445
 30
0.0
 10
-0.6097406980848437
 20
40.79105481044445
 30
0.0
 10
-0.4194906980848447
 20
40.79105481044445
 30
0.0
  0
SPLINE
  5
47
330
1F
100
AcDbEntity
  8
Default
100
AcDbSpline
210
0.0
220
0.0
230
1.0
 70
    12
 71
     2
 72
     6
 73
     3
 74
     0
 42
0.0000000001
 43
0.0000000001
 40
0.0
 40
0.0
 40
0.0
 40
0.3141592653589783
 40
0.3141592653589783
 40
0.3141592653589783
 10
-0.7999906980848426
 20
40.79105481044445
 30
0.0
 41
1.0
 10
-0.9999906980848405
 20
40.79105481044445
 30
0.0
 41
0.7071067811865563
 10
-0.9999906980848436
 20
40.99105481044445
 30
0.0
 41
1.0
  0
SPLINE
  5
48
330
1F
100
AcDbEntity
  8
Default
100
AcDbSpline
210
0.0
220
0.0
230
1.0
 70
    12
 71
     2
 72
     6
 73
     3
 74
     0
 42
0.0000000001
 43
0.0000000001
 40
0.0
 40
0.0
 40
0.0
 40
0.1223465729308164
 40
0.1223465729308164
 40
0.1223465729308164
 10
-0.9999906980848454
 20
43.15105481044445
 30
0.0
 41
1.0
 10
-0.9999906980848409
 20
43.21420996928406
 30
0.0
 41
0.9535864108568972
 10
-0.9637215152732104
 20
43.26591219811642
 30
0.0
 41
1.0
  0
SPLINE
  5
49
330
1F
100
AcDbEntity
  8
Default
100
AcDbSpline
210
0.0
220
0.0
230
1.0
 70
    24
 71
     2
 72
     6
 73
     3
 74
     0
 42
0.0000000001
 43
0.0000000001
 40
0.0
 40
0.0
 40
0.0
 40
2.16
 40
2.16
 40
2.16
 10
-0.9999906980848454
 20
43.15105481044445
 30
0.0
 10
-0.9999906980848454
 20
42.07105481044445
 30
0.0
 10
-0.9999906980848454
 20
40.99105481044445
 30
0.0
  0
SPLINE
  5
4A
330
1F
100
AcDbEntity
  8
Default
100
AcDbSpline
210
0.0
220
0.0
230
1.0
 70
    24
 71
     2
 72
     6
 73
     3
 74
     0
 42
0.0000000001
 43
0.0000000001
 40
0.0
 40
0.0
 40
0.0
 40
1.048547311645034
 40
1.048547311645034
 40
1.048547311645034
 10
-6.747000323299845
 20
66.99389879630445
 30
0.0
 10
-6.747000323299845
 20
66.46962514048192
 30
0.0
 10
-6.747000323299845
 20
65.94535148465941
 30
0.0
  0
SPLINE
  5
4B
330
1F
100
AcDbEntity
  8
Default
100
AcDbSpline
210
0.0
220
0.0
230
1.0
 70
    12
 71
     2
 72
     6
 73
     3
 74
     0
 42
0.0000000001
 43
0.0000000001
 40
0.0
 40
0.0
 40
0.0
 40
0.3141592653589782
 40
0.3141592653589782
 40
0.3141592653589782
 10
-6.747000323299845
 20
66.99389879630445
 30
0.0
 41
1.0
 10
-6.747000323299853
 20
67.19389879630444
 30
0.0
 41
0.7071067811865648
 10
-6.947000323299848
 20
67.19389879630444
 30
0.0
 41
1.0
  0
SPLINE
  5
4C
330
1F
100
AcDbEntity
  8
Default
100
AcDbSpline
210
0.0
220
0.0
230
1.0
 70
    12
 71
     2
 72
     6
 73
     3
 74
     0
 42
0.0000000001
 43
0.0000000001
 40
0.0
 40
0.0
 40
0.0
 40
0.1891273662466463
 40
0.1891273662466463
 40
0.1891273662466463
 10
-11.73491558285485
 20
49.89821082458245
 30
0.0
 41
1.0
 10
-11.6326122549403
 20
49.89821082458245
 30
0.0
 41
0.8902883270368307
 10
-11.57274162510036
 20
49.98116550247924
 30
0.0
 41
1.0
  0
LINE
  5
4D
330
1F
100
AcDbEntity
  8
Default
100
AcDbLine
 10
-7.392500323299844
 20
67.19389879630444
 30
0.0
 11
-7.392500323299844
 21
65.47244339314838
 31
0.0
  0
SPLINE
  5
4E
330
1F
100
AcDbEntity
  8
Default
100
AcDbSpline
210
0.0
220
0.0
230
1.0
 70
     8
 71
     3
 72
    21
 73
    17
 74
     0
 42
0.0000000001
 43
0.0000000001
 40
0.0
 40
0.0
 40
0.0
 40
0.0
 40
1.0
 40
2.0
 40
3.0
 40
4.0
 40
5.0
 40
6.0
 40
7.0
 40
8.0
 40
9.0
 40
10.0
 40
11.0
 40
12.0
 40
13.0
 40
14.0
 40
14.0
 40
14.0
 40
14.0
 10
-8.111357489076415
 20
64.59153117435953
 30
0.0
 10
-8.128094097995286
 20
64.61870668650376
 30
0.0
 10
-8.161374667684242
 20
64.67375372926901
 30
0.0
 10
-8.204707203298403
 20
64.75805390829797
 30
0.0
 10
-8.245420110648093
 20
64.84960905070785
 30
0.0
 10
-8.218399454670447
 20
64.9440587585629
 30
0.0
 10
-8.172162652449842
 20
65.02820416598655
 30
0.0
 10
-8.116672891180674
 20
65.1065338951635
 30
0.0
 10
-8.065768770323958
 20
65.18779534802233
 30
0.0
 10
-8.006472748436874
 20
65.26362245948232
 30
0.0
 10
-7.927737750989865
 20
65.32070161667687
 30
0.0
 10
-7.837184143700986
 20
65.35335384285975
 30
0.0
 10
-7.74422734758971
 20
65.37675246515782
 30
0.0
 10
-7.652377197754718
 20
65.4050263540081
 30
0.0
 10
-7.557994031335198
 20
65.4211567357232
 30
0.0
 10
-7.492942869837945
 20
65.42457292755083
 30
0.0
 10
-7.463916716696964
 20
65.40842971952523
 30
0.0
  0
SPLINE
  5
4F
330
1F
100
AcDbEntity
  8
Default
100
AcDbSpline
210
0.0
220
0.0
230
1.0
 70
    12
 71
     2
 72
     6
 73
     3
 74
     0
 42
0.0000000001
 43
0.0000000001
 40
0.0
 40
0.0
 40
0.0
 40
0.3141592653589816
 40
0.3141592653589816
 40
0.3141592653589816
 10
-11.53491558285485
 20
52.25821082458245
 30
0.0
 41
1.0
 10
-11.53491558285485
 20
52.45821082458245
 30
0.0
 41
0.7071067811865409
 10
-11.73491558285485
 20
52.45821082458244
 30
0.0
 41
1.0
  0
SPLINE
  5
50
330
1F
100
AcDbEntity
  8
Default
100
AcDbSpline
210
0.0
220
0.0
230
1.0
 70
    24
 71
     2
 72
     6
 73
     3
 74
     0
 42
0.0000000001
 43
0.0000000001
 40
0.0
 40
0.0
 40
0.0
 40
0.3804999999999978
 40
0.3804999999999978
 40
0.3804999999999978
 10
-7.327500323299846
 20
67.19389879630444
 30
0.0
 10
-7.137250323299847
 20
67.19389879630444
 30
0.0
 10
-6.947000323299848
 20
67.19389879630444
 30
0.0
  0
SPLINE
  5
51
330
1F
100
AcDbEntity
  8
Default
100
AcDbSpline
210
0.0
220
0.0
230
1.0
 70
    24
 71
     2
 72
     6
 73
     3
 74
     0
 42
0.0000000001
 43
0.0000000001
 40
0.0
 40
0.0
 40
0.0
 40
1.661319089249826
 40
1.661319089249826
 40
1.661319089249826
 10
-7.327500323299846
 20
67.19389879630444
 30
0.0
 10
-7.327500323299846
 20
66.36323925167953
 30
0.0
 10
-7.327500323299847
 20
65.53257970705462
 30
0.0
  0
SPLINE
  5
52
330
1F
100
AcDbEntity
  8
Default
100
AcDbSpline
210
0.0
220
0.0
230
1.0
 70
     8
 71
     3
 72
    29
 73
    25
 74
     0
 42
0.0000000001
 43
0.0000000001
 40
0.0
 40
0.0
 40
0.0
 40
0.0
 40
0.0988422393250357
 40
0.1942210121717855
 40
0.4382617758584238
 40
0.5893346744175345
 40
0.7697521439540331
 40
1.116426481293132
 40
1.792982890921901
 40
2.463154345427246
 40
3.032167325833857
 40
3.652042690128299
 40
4.213991072924498
 40
4.491209792613959
 40
4.830881114654314
 40
5.115183906264332
 40
5.428239998287118
 40
5.730782641826128
 40
6.098772718345308
 40
7.516939192782874
 40
7.999503083483516
 40
8.534954238045774
 40
9.609884778501197
 40
11.77076998503533
 40
11.77076998503533
 40
11.77076998503533
 40
11.77076998503533
 10
8.308976278282856
 20
60.3963138017103
 30
0.0
 10
8.3238429408987
 20
60.42571146181992
 30
0.0
 10
8.350872490916885
 20
60.484618435528
 30
0.0
 10
8.398540424873346
 20
60.62292229219002
 30
0.0
 10
8.429204720442328
 20
60.7841152524205
 30
0.0
 10
8.446843888826791
 20
60.97510298687266
 30
0.0
 10
8.457711235128045
 20
61.20099495287999
 30
0.0
 10
8.452373614856796
 20
61.60247411434552
 30
0.0
 10
8.381201873547383
 20
62.16392159564676
 30
0.0
 10
8.208336052429658
 20
62.78075940961866
 30
0.0
 10
7.943664783006952
 20
63.34350602330696
 30
0.0
 10
7.607735633718832
 20
63.82310634057129
 30
0.0
 10
7.277921102144049
 20
64.1817457915659
 30
0.0
 10
6.974868391523003
 20
64.43321083595407
 30
0.0
 10
6.732338193164836
 20
64.61009188994737
 30
0.0
 10
6.467690355794332
 20
64.77678438752184
 30
0.0
 10
6.205390416951346
 20
64.92215021167377
 30
0.0
 10
5.910392610665639
 20
65.06558674586947
 30
0.0
 10
5.268444144922483
 20
65.33675957496573
 30
0.0
 10
4.534132217291074
 20
65.53001020898233
 30
0.0
 10
3.736094770461179
 20
65.67709465348754
 30
0.0
 10
3.046934549332605
 20
65.78728437049944
 30
0.0
 10
1.798797990894428
 20
65.93888186181917
 30
0.0
 10
0.720355374531465
 20
65.99482108289195
 30
0.0
 10
0.0000130960178666
 20
65.9927879729716
 30
0.0
  0
SPLINE
  5
53
330
1F
100
AcDbEntity
  8
Default
100
AcDbSpline
210
0.0
220
0.0
230
1.0
 70
     8
 71
     3
 72
    29
 73
    25
 74
     0
 42
0.0000000001
 43
0.0000000001
 40
-11.77076998503533
 40
-11.77076998503533
 40
-11.77076998503533
 40
-11.77076998503533
 40
-9.609884778501197
 40
-8.534954238045774
 40
-7.999503083483516
 40
-7.516939192782874
 40
-6.098772718345308
 40
-5.730782641826128
 40
-5.428239998287118
 40
-5.115183906264332
 40
-4.830881114654314
 40
-4.491209792613959
 40
-4.213991072924498
 40
-3.652042690128299
 40
-3.032167325833857
 40
-2.463154345427246
 40
-1.792982890921901
 40
-1.116426481293132
 40
-0.7697521439540331
 40
-0.5893346744175345
 40
-0.4382617758584238
 40
-0.1942210121717855
 40
-0.0988422393250357
 40
0.0
 40
0.0
 40
0.0
 40
0.0
 10
0.0000130960178666
 20
65.9927879729716
 30
0.0
 10
-0.7203291824957319
 20
65.99482108289195
 30
0.0
 10
-1.798771798858695
 20
65.93888186181917
 30
0.0
 10
-3.046908357296871
 20
65.78728437049944
 30
0.0
 10
-3.736068578425446
 20
65.67709465348754
 30
0.0
 10
-4.53410602525534
 20
65.53001020898233
 30
0.0
 10
-5.26841795288675
 20
65.33675957496573
 30
0.0
 10
-5.910366418629906
 20
65.06558674586947
 30
0.0
 10
-6.205364224915613
 20
64.92215021167377
 30
0.0
 10
-6.467664163758599
 20
64.77678438752184
 30
0.0
 10
-6.732312001129102
 20
64.61009188994737
 30
0.0
 10
-6.97484219948727
 20
64.43321083595407
 30
0.0
 10
-7.277894910108316
 20
64.1817457915659
 30
0.0
 10
-7.607709441683099
 20
63.82310634057129
 30
0.0
 10
-7.943638590971219
 20
63.34350602330696
 30
0.0
 10
-8.208309860393925
 20
62.78075940961866
 30
0.0
 10
-8.38117568151165
 20
62.16392159564676
 30
0.0
 10
-8.452347422821063
 20
61.60247411434552
 30
0.0
 10
-8.457685043092312
 20
61.20099495287999
 30
0.0
 10
-8.446817696791058
 20
60.97510298687266
 30
0.0
 10
-8.429178528406595
 20
60.7841152524205
 30
0.0
 10
-8.398514232837613
 20
60.62292229219002
 30
0.0
 10
-8.350846298881152
 20
60.484618435528
 30
0.0
 10
-8.323816748862967
 20
60.42571146181992
 30
0.0
 10
-8.308950086247123
 20
60.3963138017103
 30
0.0
  0
LINE
  5
54
330
1F
100
AcDbEntity
  8
Default
100
AcDbLine
 10
-12.18041558285484
 20
52.45821082458244
 30
0.0
 11
-12.18041558285484
 21
50.94316993086058
 31
0.0
  0
SPLINE
  5
55
330
1F
100
AcDbEntity
  8
Default
100
AcDbSpline
210
0.0
220
0.0
230
1.0
 70
    12
 71
     2
 72
     6
 73
     3
 74
     0
 42
0.0000000001
 43
0.0000000001
 40
0.0
 40
0.0
 40
0.0
 40
0.1891273662466463
 40
0.1891273662466463
 40
0.1891273662466463
 10
11.73491558285485
 20
49.89821082458245
 30
0.0
 41
1.0
 10
11.6326122549403
 20
49.89821082458245
 30
0.0
 41
0.8902883270368307
 10
11.57274162510036
 20
49.98116550247924
 30
0.0
 41
1.0
  0
SPLINE
  5
56
330
1F
100
AcDbEntity
  8
Default
100
AcDbSpline
210
0.0
220
0.0
230
1.0
 70
    24
 71
     2
 72
     6
 73
     3
 74
     0
 42
0.0000000001
 43
0.0000000001
 40
0.0
 40
0.0
 40
0.0
 40
0.3805000000000049
 40
0.3805000000000049
 40
0.3805000000000049
 10
12.95441558285484
 20
52.45821082458244
 30
0.0
 10
13.14466558285485
 20
52.45821082458244
 30
0.0
 10
13.33491558285485
 20
52.45821082458244
 30
0.0
  0
LINE
  5
57
330
1F
100
AcDbEntity
  8
Default
100
AcDbLine
 10
-8.101500323299847
 20
67.19389879630444
 30
0.0
 11
-8.101500323299847
 21
65.13124810429798
 31
0.0
  0
SPLINE
  5
58
330
1F
100
AcDbEntity
  8
Default
100
AcDbSpline
210
0.0
220
0.0
230
1.0
 70
    24
 71
     2
 72
     6
 73
     3
 74
     0
 42
0.0000000001
 43
0.0000000001
 40
0.0
 40
0.0
 40
0.0
 40
1.082213855853043
 40
1.082213855853043
 40
1.082213855853043
 10
11.53491558285485
 20
52.25821082458245
 30
0.0
 10
11.53491558285485
 20
51.71710389665593
 30
0.0
 10
11.53491558285485
 20
51.1759969687294
 30
0.0
  0
SPLINE
  5
59
330
1F
100
AcDbEntity
  8
Default
100
AcDbSpline
210
0.0
220
0.0
230
1.0
 70
    24
 71
     2
 72
     6
 73
     3
 74
     0
 42
0.0000000001
 43
0.0000000001
 40
0.0
 40
0.0
 40
0.0
 40
0.1253715456655553
 40
0.1253715456655553
 40
0.1253715456655553
 10
11.73491558285485
 20
49.89821082458245
 30
0.0
 10
11.79760135568763
 20
49.89821082458245
 30
0.0
 10
11.8602871285204
 20
49.89821082458245
 30
0.0
  0
LINE
  5
5A
330
1F
100
AcDbEntity
  8
Default
100
AcDbLine
 10
12.88941558285485
 20
52.45821082458244
 30
0.0
 11
12.88941558285485
 21
50.54650978510977
 31
0.0
  0
SPLINE
  5
5B
330
1F
100
AcDbEntity
  8
Default
100
AcDbSpline
210
0.0
220
0.0
230
1.0
 70
    12
 71
     2
 72
     6
 73
     3
 74
     0
 42
0.0000000001
 43
0.0000000001
 40
0.0
 40
0.0
 40
0.0
 40
2.73253212015308
 40
2.73253212015308
 40
2.73253212015308
 10
-9.461340479082972
 20
50.59026975332495
 30
0.0
 41
1.0
 10
-10.79008598604723
 20
50.20387664394134
 30
0.0
 41
0.9999999999539387
 10
-12.10363822258792
 20
49.82802631613483
 30
0.0
 41
1.0
  0
SPLINE
  5
5C
330
1F
100
AcDbEntity
  8
Default
100
AcDbSpline
210
0.0
220
0.0
230
1.0
 70
     8
 71
     3
 72
    12
 73
     8
 74
     0
 42
0.0000000001
 43
0.0000000001
 40
0.0
 40
0.0
 40
0.0
 40
0.0
 40
0.1162180248747688
 40
0.2154290235538308
 40
0.3669769682121267
 40
0.4580031112084329
 40
0.5235533338373171
 40
0.5235533338373171
 40
0.5235533338373171
 40
0.5235533338373171
 10
-12.10363822258792
 20
49.82802631613483
 30
0.0
 10
-12.14097048531093
 20
49.81734433273754
 30
0.0
 10
-12.2099825110098
 20
49.79835321816466
 30
0.0
 10
-12.32899543433742
 20
49.7687438929018
 30
0.0
 10
-12.44048171394244
 20
49.74665535064528
 30
0.0
 10
-12.54385030143724
 20
49.73996450686868
 30
0.0
 10
-12.59462634187523
 20
49.75738926007179
 30
0.0
 10
-12.61151350067397
 20
49.77168290671515
 30
0.0
  0
SPLINE
  5
5D
330
1F
100
AcDbEntity
  8
Default
100
AcDbSpline
210
0.0
220
0.0
230
1.0
 70
    12
 71
     2
 72
    16
 73
    13
 74
     0
 42
0.0000000001
 43
0.0000000001
 40
0.0
 40
0.0
 40
0.0
 40
0.2339804761890241
 40
0.2339804761890241
 40
0.3072603264849227
 40
0.3072603264849227
 40
0.458772415234735
 40
0.458772415234735
 40
0.6102094760246852
 40
0.6102094760246852
 40
0.6834908694524092
 40
0.6834908694524092
 40
0.917643360764454
 40
0.917643360764454
 40
0.917643360764454
 10
-12.61151350067397
 20
49.77168290671515
 30
0.0
 41
1.0
 10
-12.70330269812569
 20
49.85266536347304
 30
0.0
 41
0.9928265896018188
 10
-12.77058612742302
 20
49.94905127728033
 30
0.0
 41
0.9999991698948607
 10
-12.79288424238658
 20
49.97813541300371
 30
0.0
 41
0.9996006178801937
 10
-12.81675809116921
 20
50.00594036957
 30
0.0
 41
0.9999992157331364
 10
-12.86662528419665
 20
50.0642548612752
 30
0.0
 41
0.9810956691158734
 10
-12.89043376789452
 20
50.13719609342991
 30
0.0
 41
0.9999992157331364
 10
-12.91386790466054
 20
50.21022045254976
 30
0.0
 41
0.9810610926679
 10
-12.90779033883916
 20
50.28667179093423
 30
0.0
 41
0.9999992157331364
 10
-12.90501009178444
 20
50.32321501076558
 30
0.0
 41
0.9996021275032755
 10
-12.90406370515143
 20
50.35985215375222
 30
0.0
 41
0.9999991777350697
 10
-12.90628625934905
 20
50.47746578151155
 30
0.0
 41
0.9928164143219762
 10
-12.87890193677536
 20
50.59944675306284
 30
0.0
 41
0.9999999631020651
  0
SPLINE
  5
5E
330
1F
100
AcDbEntity
  8
Default
100
AcDbSpline
210
0.0
220
0.0
230
1.0
 70
     8
 71
     3
 72
    12
 73
     8
 74
     0
 42
0.0000000001
 43
0.0000000001
 40
0.0
 40
0.0
 40
0.0
 40
0.0
 40
0.0310619806761226
 40
0.0654142986564375
 40
0.1569362395307842
 40
0.3068810816538221
 40
0.5207389257221606
 40
0.5207389257221606
 40
0.5207389257221606
 40
0.5207389257221606
 10
-12.87890193677536
 20
50.59944675306284
 30
0.0
 10
-12.87588587368233
 20
50.60933722654242
 30
0.0
 10
-12.86694748790612
 20
50.62945448533497
 30
0.0
 10
-12.83233934387012
 20
50.66946466618429
 30
0.0
 10
-12.75396521929584
 20
50.71870222061698
 30
0.0
 10
-12.61615548363129
 20
50.78197661058859
 30
0.0
 10
-12.50258494202554
 20
50.82526310322022
 30
0.0
 10
-12.43573748304308
 20
50.84974638542293
 30
0.0
  0
SPLINE
  5
5F
330
1F
100
AcDbEntity
  8
Default
100
AcDbSpline
210
0.0
220
0.0
230
1.0
 70
    12
 71
     2
 72
     6
 73
     3
 74
     0
 42
0.0000000001
 43
0.0000000001
 40
0.0
 40
0.0
 40
0.0
 40
3.187595651248603
 40
3.187595651248603
 40
3.187595651248603
 10
-12.43573748304308
 20
50.84974638542293
 30
0.0
 41
1.0
 10
-10.93915990026476
 20
51.39787688813992
 30
0.0
 41
0.9999999999060932
 10
-9.422156068822504
 20
51.94115646728169
 30
0.0
 41
1.0
  0
LINE
  5
60
330
1F
100
AcDbEntity
  8
Default
100
AcDbLine
 10
-12.88941558285485
 20
52.45821082458244
 30
0.0
 11
-12.88941558285485
 21
50.54650978510977
 31
0.0
  0
SPLINE
  5
61
330
1F
100
AcDbEntity
  8
Default
100
AcDbSpline
210
0.0
220
0.0
230
1.0
 70
    12
 71
     2
 72
     6
 73
     3
 74
     0
 42
0.0000000001
 43
0.0000000001
 40
0.0
 40
0.0
 40
0.0
 40
0.3141592653589816
 40
0.3141592653589816
 40
0.3141592653589816
 10
11.53491558285485
 20
52.25821082458245
 30
0.0
 41
1.0
 10
11.53491558285485
 20
52.45821082458245
 30
0.0
 41
0.7071067811865409
 10
11.73491558285485
 20
52.45821082458244
 30
0.0
 41
1.0
  0
SPLINE
  5
62
330
1F
100
AcDbEntity
  8
Default
100
AcDbSpline
210
0.0
220
0.0
230
1.0
 70
    24
 71
     2
 72
     6
 73
     3
 74
     0
 42
0.0000000001
 43
0.0000000001
 40
0.0
 40
0.0
 40
0.0
 40
0.1253715456655553
 40
0.1253715456655553
 40
0.1253715456655553
 10
-11.73491558285485
 20
49.89821082458245
 30
0.0
 10
-11.79760135568763
 20
49.89821082458245
 30
0.0
 10
-11.8602871285204
 20
49.89821082458245
 30
0.0
  0
SPLINE
  5
63
330
1F
100
AcDbEntity
  8
Default
100
AcDbSpline
210
0.0
220
0.0
230
1.0
 70
    24
 71
     2
 72
     6
 73
     3
 74
     0
 42
0.0000000001
 43
0.0000000001
 40
0.0
 40
0.0
 40
0.0
 40
0.3804999999999978
 40
0.3804999999999978
 40
0.3804999999999978
 10
-12.11541558285485
 20
52.45821082458244
 30
0.0
 10
-11.92516558285485
 20
52.45821082458244
 30
0.0
 10
-11.73491558285485
 20
52.45821082458244
 30
0.0
  0
SPLINE
  5
64
330
1F
100
AcDbEntity
  8
Default
100
AcDbSpline
210
0.0
220
0.0
230
1.0
 70
    24
 71
     2
 72
     6
 73
     3
 74
     0
 42
0.0000000001
 43
0.0000000001
 40
0.0
 40
0.0
 40
0.0
 40
1.492440452610266
 40
1.492440452610266
 40
1.492440452610266
 10
-12.11541558285485
 20
52.45821082458244
 30
0.0
 10
-12.11541558285485
 20
51.71199059827731
 30
0.0
 10
-12.11541558285485
 20
50.96577037197218
 30
0.0
  0
SPLINE
  5
65
330
1F
100
AcDbEntity
  8
Default
100
AcDbSpline
210
0.0
220
0.0
230
1.0
 70
    24
 71
     2
 72
     6
 73
     3
 74
     0
 42
0.0000000001
 43
0.0000000001
 40
0.0
 40
0.0
 40
0.0
 40
0.7090000000000032
 40
0.7090000000000032
 40
0.7090000000000032
 10
-12.88941558285485
 20
52.45821082458244
 30
0.0
 10
-12.53491558285485
 20
52.45821082458244
 30
0.0
 10
-12.18041558285484
 20
52.45821082458244
 30
0.0
  0
SPLINE
  5
66
330
1F
100
AcDbEntity
  8
Default
100
AcDbSpline
210
0.0
220
0.0
230
1.0
 70
    24
 71
     2
 72
     6
 73
     3
 74
     0
 42
0.0000000001
 43
0.0000000001
 40
0.0
 40
0.0
 40
0.0
 40
2.559999999999999
 40
2.559999999999999
 40
2.559999999999999
 10
-12.95441558285484
 20
52.45821082458244
 30
0.0
 10
-12.95441558285484
 20
51.17821082458245
 30
0.0
 10
-12.95441558285484
 20
49.89821082458245
 30
0.0
  0
SPLINE
  5
67
330
1F
100
AcDbEntity
  8
Default
100
AcDbSpline
210
0.0
220
0.0
230
1.0
 70
    24
 71
     2
 72
     6
 73
     3
 74
     0
 42
0.0000000001
 43
0.0000000001
 40
0.0
 40
0.0
 40
0.0
 40
0.3804999999999978
 40
0.3804999999999978
 40
0.3804999999999978
 10
12.11541558285485
 20
52.45821082458244
 30
0.0
 10
11.92516558285485
 20
52.45821082458244
 30
0.0
 10
11.73491558285485
 20
52.45821082458244
 30
0.0
  0
SPLINE
  5
68
330
1F
100
AcDbEntity
  8
Default
100
AcDbSpline
210
0.0
220
0.0
230
1.0
 70
    24
 71
     2
 72
     6
 73
     3
 74
     0
 42
0.0000000001
 43
0.0000000001
 40
0.0
 40
0.0
 40
0.0
 40
1.492440452610266
 40
1.492440452610266
 40
1.492440452610266
 10
12.11541558285485
 20
52.45821082458244
 30
0.0
 10
12.11541558285485
 20
51.71199059827731
 30
0.0
 10
12.11541558285485
 20
50.96577037197218
 30
0.0
  0
SPLINE
  5
69
330
1F
100
AcDbEntity
  8
Default
100
AcDbSpline
210
0.0
220
0.0
230
1.0
 70
    24
 71
     2
 72
     6
 73
     3
 74
     0
 42
0.0000000001
 43
0.0000000001
 40
0.0
 40
0.0
 40
0.0
 40
0.7090000000000032
 40
0.7090000000000032
 40
0.7090000000000032
 10
12.88941558285485
 20
52.45821082458244
 30
0.0
 10
12.53491558285485
 20
52.45821082458244
 30
0.0
 10
12.18041558285484
 20
52.45821082458244
 30
0.0
  0
SPLINE
  5
6A
330
1F
100
AcDbEntity
  8
Default
100
AcDbSpline
210
0.0
220
0.0
230
1.0
 70
    24
 71
     2
 72
     6
 73
     3
 74
     0
 42
0.0000000001
 43
0.0000000001
 40
0.0
 40
0.0
 40
0.0
 40
2.559999999999999
 40
2.559999999999999
 40
2.559999999999999
 10
12.95441558285484
 20
52.45821082458244
 30
0.0
 10
12.95441558285484
 20
51.17821082458245
 30
0.0
 10
12.95441558285484
 20
49.89821082458245
 30
0.0
  0
SPLINE
  5
6B
330
1F
100
AcDbEntity
  8
Default
100
AcDbSpline
210
0.0
220
0.0
230
1.0
 70
    24
 71
     2
 72
     6
 73
     3
 74
     0
 42
0.0000000001
 43
0.0000000001
 40
0.0
 40
0.0
 40
0.0
 40
0.3805000000000049
 40
0.3805000000000049
 40
0.3805000000000049
 10
13.33491558285485
 20
49.89821082458245
 30
0.0
 10
13.14466558285485
 20
49.89821082458245
 30
0.0
 10
12.95441558285484
 20
49.89821082458245
 30
0.0
  0
SPLINE
  5
6C
330
1F
100
AcDbEntity
  8
Default
100
AcDbSpline
210
0.0
220
0.0
230
1.0
 70
    12
 71
     2
 72
     6
 73
     3
 74
     0
 42
0.0000000001
 43
0.0000000001
 40
0.0
 40
0.0
 40
0.0
 40
0.3141592653589735
 40
0.3141592653589735
 40
0.3141592653589735
 10
13.33491558285485
 20
49.89821082458245
 30
0.0
 41
1.0
 10
13.53491558285484
 20
49.89821082458245
 30
0.0
 41
0.7071067811865658
 10
13.53491558285485
 20
50.09821082458244
 30
0.0
 41
1.0
  0
SPLINE
  5
6D
330
1F
100
AcDbEntity
  8
Default
100
AcDbSpline
210
0.0
220
0.0
230
1.0
 70
    12
 71
     2
 72
     6
 73
     3
 74
     0
 42
0.0000000001
 43
0.0000000001
 40
0.0
 40
0.0
 40
0.0
 40
0.3141592653589774
 40
0.3141592653589774
 40
0.3141592653589774
 10
13.53491558285485
 20
52.25821082458245
 30
0.0
 41
1.0
 10
13.53491558285485
 20
52.45821082458244
 30
0.0
 41
0.7071067811865365
 10
13.33491558285485
 20
52.45821082458244
 30
0.0
 41
1.0
  0
SPLINE
  5
6E
330
1F
100
AcDbEntity
  8
Default
100
AcDbSpline
210
0.0
220
0.0
230
1.0
 70
    24
 71
     2
 72
     6
 73
     3
 74
     0
 42
0.0000000001
 43
0.0000000001
 40
0.0
 40
0.0
 40
0.0
 40
2.16
 40
2.16
 40
2.16
 10
13.53491558285485
 20
52.25821082458245
 30
0.0
 10
13.53491558285485
 20
51.17821082458245
 30
0.0
 10
13.53491558285485
 20
50.09821082458244
 30
0.0
  0
SPLINE
  5
6F
330
1F
100
AcDbEntity
  8
Default
100
AcDbSpline
210
0.0
220
0.0
230
1.0
 70
    12
 71
     2
 72
     6
 73
     3
 74
     0
 42
0.0000000001
 43
0.0000000001
 40
0.0
 40
0.0
 40
0.0
 40
2.73253212015308
 40
2.73253212015308
 40
2.73253212015308
 10
9.461340479082972
 20
50.59026975332495
 30
0.0
 41
1.0
 10
10.79008598604723
 20
50.20387664394134
 30
0.0
 41
0.9999999999539387
 10
12.10363822258792
 20
49.82802631613483
 30
0.0
 41
1.0
  0
SPLINE
  5
70
330
1F
100
AcDbEntity
  8
Default
100
AcDbSpline
210
0.0
220
0.0
230
1.0
 70
     8
 71
     3
 72
    12
 73
     8
 74
     0
 42
0.0000000001
 43
0.0000000001
 40
0.0
 40
0.0
 40
0.0
 40
0.0
 40
0.1162180248747688
 40
0.2154290235538308
 40
0.3669769682121267
 40
0.4580031112084329
 40
0.5235533338373171
 40
0.5235533338373171
 40
0.5235533338373171
 40
0.5235533338373171
 10
12.10363822258792
 20
49.82802631613483
 30
0.0
 10
12.14097048531093
 20
49.81734433273754
 30
0.0
 10
12.2099825110098
 20
49.79835321816466
 30
0.0
 10
12.32899543433742
 20
49.7687438929018
 30
0.0
 10
12.44048171394244
 20
49.74665535064528
 30
0.0
 10
12.54385030143724
 20
49.73996450686868
 30
0.0
 10
12.59462634187523
 20
49.75738926007179
 30
0.0
 10
12.61151350067397
 20
49.77168290671515
 30
0.0
  0
SPLINE
  5
71
330
1F
100
AcDbEntity
  8
Default
100
AcDbSpline
210
0.0
220
0.0
230
1.0
 70
    12
 71
     2
 72
    16
 73
    13
 74
     0
 42
0.0000000001
 43
0.0000000001
 40
0.0
 40
0.0
 40
0.0
 40
0.2339804761890241
 40
0.2339804761890241
 40
0.3072603264849227
 40
0.3072603264849227
 40
0.458772415234735
 40
0.458772415234735
 40
0.6102094760246852
 40
0.6102094760246852
 40
0.6834908694524092
 40
0.6834908694524092
 40
0.917643360764454
 40
0.917643360764454
 40
0.917643360764454
 10
12.61151350067397
 20
49.77168290671515
 30
0.0
 41
1.0
 10
12.70330269812569
 20
49.85266536347304
 30
0.0
 41
0.9928265896018188
 10
12.77058612742302
 20
49.94905127728033
 30
0.0
 41
0.9999991698948607
 10
12.79288424238658
 20
49.97813541300371
 30
0.0
 41
0.9996006178801937
 10
12.81675809116921
 20
50.00594036957
 30
0.0
 41
0.9999992157331364
 10
12.86662528419665
 20
50.0642548612752
 30
0.0
 41
0.9810956691158734
 10
12.89043376789452
 20
50.13719609342991
 30
0.0
 41
0.9999992157331364
 10
12.91386790466054
 20
50.21022045254976
 30
0.0
 41
0.9810610926679
 10
12.90779033883916
 20
50.28667179093423
 30
0.0
 41
0.9999992157331364
 10
12.90501009178444
 20
50.32321501076558
 30
0.0
 41
0.9996021275032755
 10
12.90406370515143
 20
50.35985215375222
 30
0.0
 41
0.9999991777350697
 10
12.90628625934905
 20
50.47746578151155
 30
0.0
 41
0.9928164143219762
 10
12.87890193677536
 20
50.59944675306284
 30
0.0
 41
0.9999999631020651
  0
SPLINE
  5
72
330
1F
100
AcDbEntity
  8
Default
100
AcDbSpline
210
0.0
220
0.0
230
1.0
 70
     8
 71
     3
 72
    12
 73
     8
 74
     0
 42
0.0000000001
 43
0.0000000001
 40
0.0
 40
0.0
 40
0.0
 40
0.0
 40
0.0310619806761226
 40
0.0654142986564375
 40
0.1569362395307842
 40
0.3068810816538221
 40
0.5207389257221606
 40
0.5207389257221606
 40
0.5207389257221606
 40
0.5207389257221606
 10
12.87890193677536
 20
50.59944675306284
 30
0.0
 10
12.87588587368233
 20
50.60933722654242
 30
0.0
 10
12.86694748790612
 20
50.62945448533497
 30
0.0
 10
12.83233934387012
 20
50.66946466618429
 30
0.0
 10
12.75396521929584
 20
50.71870222061698
 30
0.0
 10
12.61615548363129
 20
50.78197661058859
 30
0.0
 10
12.50258494202554
 20
50.82526310322022
 30
0.0
 10
12.43573748304308
 20
50.84974638542293
 30
0.0
  0
SPLINE
  5
73
330
1F
100
AcDbEntity
  8
Default
100
AcDbSpline
210
0.0
220
0.0
230
1.0
 70
    12
 71
     2
 72
     6
 73
     3
 74
     0
 42
0.0000000001
 43
0.0000000001
 40
0.0
 40
0.0
 40
0.0
 40
3.187595651248603
 40
3.187595651248603
 40
3.187595651248603
 10
12.43573748304308
 20
50.84974638542293
 30
0.0
 41
1.0
 10
10.93915990026476
 20
51.39787688813992
 30
0.0
 41
0.9999999999060932
 10
9.422156068822504
 20
51.94115646728169
 30
0.0
 41
1.0
  0
LINE
  5
74
330
1F
100
AcDbEntity
  8
Default
100
AcDbLine
 10
12.18041558285484
 20
52.45821082458244
 30
0.0
 11
12.18041558285484
 21
50.94316993086058
 31
0.0
  0
SPLINE
  5
75
330
1F
100
AcDbEntity
  8
Default
100
AcDbSpline
210
0.0
220
0.0
230
1.0
 70
     8
 71
     3
 72
    23
 73
    19
 74
     0
 42
0.0000000001
 43
0.0000000001
 40
-12.11765493802799
 40
-12.11765493802799
 40
-12.11765493802799
 40
-12.11765493802799
 40
-9.959346312934244
 40
-8.860195888103046
 40
-7.798380653698081
 40
-6.272702611381541
 40
-5.611004823335814
 40
-4.992826723597618
 40
-4.405605207943766
 40
-4.145663581386537
 40
-3.850853675673826
 40
-3.242169926739764
 40
-2.636382543990066
 40
-1.954704949636548
 40
-1.268575205064484
 40
-0.521329265525629
 40
-0.2238709213952738
 40
0.0
 40
0.0
 40
0.0
 40
0.0
 10
0.0000130960178666
 20
67.19939232534989
 30
0.0
 10
-0.7194182791947554
 20
67.19935731111116
 30
0.0
 10
-1.805252758054138
 20
67.14816953203227
 30
0.0
 10
-3.235439297109849
 20
66.97747888066294
 30
0.0
 10
-4.447864886020938
 20
66.77906123890781
 30
0.0
 10
-5.502785869672863
 20
66.52021371530276
 30
0.0
 10
-6.368028202019218
 20
66.1600482022852
 30
0.0
 10
-6.912565902454006
 20
65.85683113411804
 30
0.0
 10
-7.304726740445034
 20
65.5629782924079
 30
0.0
 10
-7.576370396211516
 20
65.29553530803807
 30
0.0
 10
-7.830036254288174
 20
65.00249098718541
 30
0.0
 10
-8.126338619916822
 20
64.59361918055313
 30
0.0
 10
-8.410822248875931
 20
64.02761045959852
 30
0.0
 10
-8.628085271438792
 20
63.40514857424981
 30
0.0
 10
-8.774291786255247
 20
62.71401571613411
 30
0.0
 10
-8.822695269904003
 20
62.13807710671306
 30
0.0
 10
-8.818439292531139
 20
61.71478461740514
 30
0.0
 10
-8.792864701056274
 20
61.54233916830515
 30
0.0
 10
-8.773174325588542
 20
61.47025657615124
 30
0.0
  0
SPLINE
  5
76
330
1F
100
AcDbEntity
  8
Default
100
AcDbSpline
210
0.0
220
0.0
230
1.0
 70
    12
 71
     2
 72
     6
 73
     3
 74
     0
 42
0.0000000001
 43
0.0000000001
 40
-1.07391244906266
 40
-1.07391244906266
 40
-1.07391244906266
 40
0.0
 40
0.0
 40
0.0
 10
-8.773174325588542
 20
61.47025657615124
 30
0.0
 41
1.0
 10
-8.55650507663215
 20
60.87356823929772
 30
0.0
 41
0.9980945187465091
 10
-8.308530975221046
 20
60.39574042606946
 30
0.0
 41
1.0
  0
SPLINE
  5
77
330
1F
100
AcDbEntity
  8
Default
100
AcDbSpline
210
0.0
220
0.0
230
1.0
 70
     8
 71
     3
 72
    21
 73
    17
 74
     0
 42
0.0000000001
 43
0.0000000001
 40
-8.572929914728228
 40
-8.572929914728228
 40
-8.572929914728228
 40
-8.572929914728228
 40
-8.415726605621757
 40
-8.269320540832858
 40
-8.0958160748408
 40
-7.888587830494002
 40
-7.642176893345443
 40
-7.340565610368325
 40
-7.044026917533134
 40
-6.027746982053883
 40
-5.404733600712757
 40
-4.206162410790602
 40
-3.447312224111049
 40
-2.464651665222287
 40
-1.120545043659075
 40
0.0
 40
0.0
 40
0.0
 40
0.0
 10
-8.308530975221046
 20
60.39574042606946
 30
0.0
 10
-8.284484972966581
 20
60.34892051597571
 30
0.0
 10
-8.228622001661549
 20
60.2613676802415
 30
0.0
 10
-8.090157270471707
 20
60.17646353365073
 30
0.0
 10
-7.915488607049426
 20
60.14351926957789
 30
0.0
 10
-7.705913550761437
 20
60.15518819596916
 30
0.0
 10
-7.459413101629266
 20
60.20808144066664
 30
0.0
 10
-7.18939947662372
 20
60.28839809116837
 30
0.0
 10
-6.682093066345388
 20
60.46785711619524
 30
0.0
 10
-6.079332441212543
 20
60.6987753982286
 30
0.0
 10
-5.180237993514737
 20
60.99343607012774
 30
0.0
 10
-4.34102893202477
 20
61.18985738257097
 30
0.0
 10
-3.368363874942986
 20
61.31450665566389
 30
0.0
 10
-2.342289656899069
 20
61.38752779138348
 30
0.0
 10
-1.194951775544297
 20
61.45201718280338
 30
0.0
 10
-0.3735066903369102
 20
61.47232243882167
 30
0.0
 10
0.0000130960178666
 20
61.4728338088858
 30
0.0
  0
SPLINE
  5
78
330
1F
100
AcDbEntity
  8
Default
100
AcDbSpline
210
0.0
220
0.0
230
1.0
 70
     8
 71
     3
 72
    21
 73
    17
 74
     0
 42
0.0000000001
 43
0.0000000001
 40
0.0
 40
0.0
 40
0.0
 40
0.0
 40
1.120545043659075
 40
2.464651665222287
 40
3.447312224111049
 40
4.206162410790602
 40
5.404733600712757
 40
6.027746982053883
 40
7.044026917533134
 40
7.340565610368325
 40
7.642176893345443
 40
7.888587830494002
 40
8.0958160748408
 40
8.269320540832858
 40
8.415726605621757
 40
8.572929914728228
 40
8.572929914728228
 40
8.572929914728228
 40
8.572929914728228
 10
0.0000130960178666
 20
61.4728338088858
 30
0.0
 10
0.3735328823726434
 20
61.47232243882167
 30
0.0
 10
1.19497796758003
 20
61.45201718280338
 30
0.0
 10
2.342315848934803
 20
61.38752779138348
 30
0.0
 10
3.368390066978719
 20
61.31450665566389
 30
0.0
 10
4.341055124060503
 20
61.18985738257097
 30
0.0
 10
5.18026418555047
 20
60.99343607012774
 30
0.0
 10
6.079358633248276
 20
60.6987753982286
 30
0.0
 10
6.682119258381121
 20
60.46785711619524
 30
0.0
 10
7.189425668659453
 20
60.28839809116837
 30
0.0
 10
7.459439293665
 20
60.20808144066664
 30
0.0
 10
7.70593974279717
 20
60.15518819596916
 30
0.0
 10
7.915514799085159
 20
60.14351926957789
 30
0.0
 10
8.09018346250744
 20
60.17646353365073
 30
0.0
 10
8.228648193697282
 20
60.2613676802415
 30
0.0
 10
8.284511165002314
 20
60.34892051597571
 30
0.0
 10
8.30855716725678
 20
60.39574042606946
 30
0.0
  0
SPLINE
  5
79
330
1F
100
AcDbEntity
  8
Default
100
AcDbSpline
210
0.0
220
0.0
230
1.0
 70
    12
 71
     2
 72
     6
 73
     3
 74
     0
 42
0.0000000001
 43
0.0000000001
 40
0.0
 40
0.0
 40
0.0
 40
1.07391244906266
 40
1.07391244906266
 40
1.07391244906266
 10
8.30855716725678
 20
60.39574042606946
 30
0.0
 41
1.0
 10
8.55653126866788
 20
60.87356823929772
 30
0.0
 41
0.9980945187465091
 10
8.773200517624275
 20
61.47025657615124
 30
0.0
 41
1.0
  0
SPLINE
  5
7A
330
1F
100
AcDbEntity
  8
Default
100
AcDbSpline
210
0.0
220
0.0
230
1.0
 70
     8
 71
     3
 72
    23
 73
    19
 74
     0
 42
0.0000000001
 43
0.0000000001
 40
0.0
 40
0.0
 40
0.0
 40
0.0
 40
0.2238709213952738
 40
0.521329265525629
 40
1.268575205064484
 40
1.954704949636548
 40
2.636382543990066
 40
3.242169926739764
 40
3.850853675673826
 40
4.145663581386537
 40
4.405605207943766
 40
4.992826723597618
 40
5.611004823335814
 40
6.272702611381541
 40
7.798380653698081
 40
8.860195888103046
 40
9.959346312934244
 40
12.11765493802799
 40
12.11765493802799
 40
12.11765493802799
 40
12.11765493802799
 10
8.773200517624275
 20
61.47025657615124
 30
0.0
 10
8.792890893092007
 20
61.54233916830515
 30
0.0
 10
8.818465484566872
 20
61.71478461740514
 30
0.0
 10
8.822721461939736
 20
62.13807710671306
 30
0.0
 10
8.77431797829098
 20
62.71401571613411
 30
0.0
 10
8.628111463474525
 20
63.40514857424981
 30
0.0
 10
8.410848440911664
 20
64.02761045959852
 30
0.0
 10
8.126364811952556
 20
64.59361918055313
 30
0.0
 10
7.830062446323907
 20
65.00249098718541
 30
0.0
 10
7.576396588247249
 20
65.29553530803807
 30
0.0
 10
7.304752932480767
 20
65.5629782924079
 30
0.0
 10
6.912592094489739
 20
65.85683113411804
 30
0.0
 10
6.368054394054951
 20
66.1600482022852
 30
0.0
 10
5.502812061708596
 20
66.52021371530276
 30
0.0
 10
4.447891078056671
 20
66.77906123890781
 30
0.0
 10
3.235465489145582
 20
66.97747888066294
 30
0.0
 10
1.805278950089871
 20
67.14816953203227
 30
0.0
 10
0.7194444712304886
 20
67.19935731111116
 30
0.0
 10
0.0000130960178666
 20
67.19939232534989
 30
0.0
  0
SPLINE
  5
7B
330
1F
100
AcDbEntity
  8
Default
100
AcDbSpline
210
0.0
220
0.0
230
1.0
 70
     8
 71
     3
 72
    42
 73
    38
 74
     0
 42
0.0000000001
 43
0.0000000001
 40
0.0
 40
0.0
 40
0.0
 40
0.0
 40
1.541497374587808
 40
2.851384615401141
 40
4.939418693591196
 40
5.877612648694915
 40
6.677256588586643
 40
7.382340769121686
 40
8.021804470455628
 40
8.595760610397573
 40
9.13341851675078
 40
10.27310334035815
 40
10.55871548889437
 40
10.90105658608137
 40
11.39607483796483
 40
11.86920431584046
 40
12.77184938058234
 40
13.84928946295565
 40
15.56633459196268
 40
17.34098918640463
 40
19.02790418592421
 40
19.78360694278379
 40
20.33606925514989
 40
21.22343992901799
 40
22.03826866517793
 40
22.79487326645472
 40
23.53678803523399
 40
24.30756197318831
 40
25.07821381365109
 40
25.87076894409001
 40
26.70345791053316
 40
27.14381919304531
 40
27.65305253994346
 40
28.81759513768598
 40
30.33174389017705
 40
31.14691026504493
 40
31.87439353502379
 40
31.87439353502379
 40
31.87439353502379
 40
31.87439353502379
 10
0.0000130960178666
 20
43.24379277181513
 30
0.0
 10
0.5138402082267248
 20
43.24354109037214
 30
0.0
 10
1.464334025698705
 20
43.25285737097454
 30
0.0
 10
3.109864561357554
 20
43.31171561432459
 30
0.0
 10
4.550206405090961
 20
43.45166153557613
 30
0.0
 10
5.803140885071997
 20
43.69576055464394
 30
0.0
 10
6.587844630395253
 20
43.91571868932544
 30
0.0
 10
7.251061641677239
 20
44.18667540732665
 30
0.0
 10
7.806266192578505
 20
44.5070663212934
 30
0.0
 10
8.259994274457071
 20
44.87790585985257
 30
0.0
 10
8.755783269510403
 20
45.44453718156191
 30
0.0
 10
9.049450846116045
 20
46.04033950205069
 30
0.0
 10
9.201012569501117
 20
46.60956788817336
 30
0.0
 10
9.268123229037087
 20
46.97826267810979
 30
0.0
 10
9.334981882904373
 20
47.40974220783157
 30
0.0
 10
9.406415053014626
 20
48.02951205630291
 30
0.0
 10
9.459404490173114
 20
48.84579105408275
 30
0.0
 10
9.474304590286934
 20
50.07840397085138
 30
0.0
 10
9.44357653822938
 20
51.601231193221
 30
0.0
 10
9.355665312662865
 20
53.32546838751533
 30
0.0
 10
9.237416412552705
 20
54.72644438594155
 30
0.0
 10
9.121550817940985
 20
55.71817188125454
 30
0.0
 10
9.014970768316388
 20
56.44232440270554
 30
0.0
 10
8.845915436619677
 20
57.17587163442401
 30
0.0
 10
8.572758738220372
 20
57.95003287152563
 30
0.0
 10
8.222812091374891
 20
58.63934229052416
 30
0.0
 10
7.78752069725202
 20
59.26038028988829
 30
0.0
 10
7.256683539117191
 20
59.80953480995212
 30
0.0
 10
6.629142670446143
 20
60.27371684615729
 30
0.0
 10
5.917822685158768
 20
60.64194806210806
 30
0.0
 10
5.265114207516277
 20
60.86651355911918
 30
0.0
 10
4.686788704115116
 20
61.00318456713003
 30
0.0
 10
3.993154006201337
 20
61.12945893860839
 30
0.0
 10
2.937173510254183
 20
61.2526161639157
 30
0.0
 10
1.774891840738505
 20
61.33004002200722
 30
0.0
 10
0.7566864087991405
 20
61.36937849501015
 30
0.0
 10
0.2425117005833926
 20
61.37879567264897
 30
0.0
 10
0.0000130960178666
 20
61.37901234314219
 30
0.0
  0
SPLINE
  5
7C
330
1F
100
AcDbEntity
  8
Default
100
AcDbSpline
210
0.0
220
0.0
230
1.0
 70
     8
 71
     3
 72
    42
 73
    38
 74
     0
 42
0.0000000001
 43
0.0000000001
 40
-31.87439353502379
 40
-31.87439353502379
 40
-31.87439353502379
 40
-31.87439353502379
 40
-31.14691026504493
 40
-30.33174389017705
 40
-28.81759513768598
 40
-27.65305253994346
 40
-27.14381919304531
 40
-26.70345791053316
 40
-25.87076894409001
 40
-25.07821381365109
 40
-24.30756197318831
 40
-23.53678803523399
 40
-22.79487326645472
 40
-22.03826866517793
 40
-21.22343992901799
 40
-20.33606925514989
 40
-19.78360694278379
 40
-19.02790418592421
 40
-17.34098918640463
 40
-15.56633459196268
 40
-13.84928946295565
 40
-12.77184938058234
 40
-11.86920431584046
 40
-11.39607483796483
 40
-10.90105658608137
 40
-10.55871548889437
 40
-10.27310334035815
 40
-9.13341851675078
 40
-8.595760610397573
 40
-8.021804470455628
 40
-7.382340769121686
 40
-6.677256588586643
 40
-5.877612648694915
 40
-4.939418693591196
 40
-2.851384615401141
 40
-1.541497374587808
 40
0.0
 40
0.0
 40
0.0
 40
0.0
 10
0.0000130960178666
 20
61.37901234314219
 30
0.0
 10
-0.2424855085476594
 20
61.37879567264897
 30
0.0
 10
-0.7566602167634073
 20
61.36937849501015
 30
0.0
 10
-1.774865648702772
 20
61.33004002200722
 30
0.0
 10
-2.93714731821845
 20
61.2526161639157
 30
0.0
 10
-3.993127814165604
 20
61.12945893860839
 30
0.0
 10
-4.686762512079383
 20
61.00318456713003
 30
0.0
 10
-5.265088015480544
 20
60.86651355911918
 30
0.0
 10
-5.917796493123035
 20
60.64194806210806
 30
0.0
 10
-6.62911647841041
 20
60.27371684615729
 30
0.0
 10
-7.256657347081457
 20
59.80953480995212
 30
0.0
 10
-7.787494505216287
 20
59.26038028988829
 30
0.0
 10
-8.222785899339158
 20
58.63934229052416
 30
0.0
 10
-8.572732546184639
 20
57.95003287152563
 30
0.0
 10
-8.845889244583944
 20
57.17587163442401
 30
0.0
 10
-9.014944576280655
 20
56.44232440270554
 30
0.0
 10
-9.121524625905252
 20
55.71817188125454
 30
0.0
 10
-9.237390220516971
 20
54.72644438594155
 30
0.0
 10
-9.355639120627131
 20
53.32546838751533
 30
0.0
 10
-9.443550346193646
 20
51.601231193221
 30
0.0
 10
-9.4742783982512
 20
50.07840397085138
 30
0.0
 10
-9.45937829813738
 20
48.84579105408275
 30
0.0
 10
-9.406388860978893
 20
48.02951205630291
 30
0.0
 10
-9.33495569086864
 20
47.40974220783157
 30
0.0
 10
-9.268097037001354
 20
46.97826267810979
 30
0.0
 10
-9.200986377465384
 20
46.60956788817336
 30
0.0
 10
-9.049424654080312
 20
46.04033950205069
 30
0.0
 10
-8.75575707747467
 20
45.44453718156191
 30
0.0
 10
-8.259968082421338
 20
44.87790585985257
 30
0.0
 10
-7.806240000542772
 20
44.5070663212934
 30
0.0
 10
-7.251035449641506
 20
44.18667540732665
 30
0.0
 10
-6.58781843835952
 20
43.91571868932544
 30
0.0
 10
-5.803114693036264
 20
43.69576055464394
 30
0.0
 10
-4.550180213055228
 20
43.45166153557613
 30
0.0
 10
-3.109838369321821
 20
43.31171561432459
 30
0.0
 10
-1.464307833662971
 20
43.25285737097454
 30
0.0
 10
-0.5138140161909917
 20
43.24354109037214
 30
0.0
 10
0.0000130960178666
 20
43.24379277181513
 30
0.0
  0
SPLINE
  5
7D
330
1F
100
AcDbEntity
  8
Default
100
AcDbSpline
210
0.0
220
0.0
230
1.0
 70
    24
 71
     2
 72
     6
 73
     3
 74
     0
 42
0.0000000001
 43
0.0000000001
 40
0.0
 40
0.0
 40
0.0
 40
2.16
 40
2.16
 40
2.16
 10
8.747000323299845
 20
66.99389879630445
 30
0.0
 10
8.747000323299845
 20
65.91389879630445
 30
0.0
 10
8.747000323299845
 20
64.83389879630445
 30
0.0
  0
SPLINE
  5
7E
330
1F
100
AcDbEntity
  8
Default
100
AcDbSpline
210
0.0
220
0.0
230
1.0
 70
    24
 71
     2
 72
     6
 73
     3
 74
     0
 42
0.0000000001
 43
0.0000000001
 40
0.0
 40
0.0
 40
0.0
 40
1.048547311645034
 40
1.048547311645034
 40
1.048547311645034
 10
6.747000323299845
 20
66.99389879630445
 30
0.0
 10
6.747000323299845
 20
66.46962514048192
 30
0.0
 10
6.747000323299845
 20
65.94535148465941
 30
0.0
  0
SPLINE
  5
7F
330
1F
100
AcDbEntity
  8
Default
100
AcDbSpline
210
0.0
220
0.0
230
1.0
 70
    12
 71
     2
 72
     6
 73
     3
 74
     0
 42
0.0000000001
 43
0.0000000001
 40
0.0
 40
0.0
 40
0.0
 40
0.3141592653589782
 40
0.3141592653589782
 40
0.3141592653589782
 10
6.747000323299845
 20
66.99389879630445
 30
0.0
 41
1.0
 10
6.747000323299853
 20
67.19389879630444
 30
0.0
 41
0.7071067811865648
 10
6.947000323299848
 20
67.19389879630444
 30
0.0
 41
1.0
  0
SPLINE
  5
80
330
1F
100
AcDbEntity
  8
Default
100
AcDbSpline
210
0.0
220
0.0
230
1.0
 70
    24
 71
     2
 72
     6
 73
     3
 74
     0
 42
0.0000000001
 43
0.0000000001
 40
0.0
 40
0.0
 40
0.0
 40
0.3804999999999978
 40
0.3804999999999978
 40
0.3804999999999978
 10
7.327500323299846
 20
67.19389879630444
 30
0.0
 10
7.137250323299847
 20
67.19389879630444
 30
0.0
 10
6.947000323299848
 20
67.19389879630444
 30
0.0
  0
SPLINE
  5
81
330
1F
100
AcDbEntity
  8
Default
100
AcDbSpline
210
0.0
220
0.0
230
1.0
 70
    24
 71
     2
 72
     6
 73
     3
 74
     0
 42
0.0000000001
 43
0.0000000001
 40
0.0
 40
0.0
 40
0.0
 40
1.661319089249826
 40
1.661319089249826
 40
1.661319089249826
 10
7.327500323299846
 20
67.19389879630444
 30
0.0
 10
7.327500323299846
 20
66.36323925167953
 30
0.0
 10
7.327500323299847
 20
65.53257970705462
 30
0.0
  0
SPLINE
  5
82
330
1F
100
AcDbEntity
  8
Default
100
AcDbSpline
210
0.0
220
0.0
230
1.0
 70
     8
 71
     3
 72
    21
 73
    17
 74
     0
 42
0.0000000001
 43
0.0000000001
 40
0.0
 40
0.0
 40
0.0
 40
0.0
 40
1.0
 40
2.0
 40
3.0
 40
4.0
 40
5.0
 40
6.0
 40
7.0
 40
8.0
 40
9.0
 40
10.0
 40
11.0
 40
12.0
 40
13.0
 40
14.0
 40
14.0
 40
14.0
 40
14.0
 10
8.111357489076415
 20
64.59153117435953
 30
0.0
 10
8.128094097995286
 20
64.61870668650376
 30
0.0
 10
8.161374667684242
 20
64.67375372926901
 30
0.0
 10
8.204707203298403
 20
64.75805390829797
 30
0.0
 10
8.245420110648093
 20
64.84960905070785
 30
0.0
 10
8.218399454670447
 20
64.9440587585629
 30
0.0
 10
8.172162652449842
 20
65.02820416598655
 30
0.0
 10
8.116672891180674
 20
65.1065338951635
 30
0.0
 10
8.065768770323958
 20
65.18779534802233
 30
0.0
 10
8.006472748436874
 20
65.26362245948232
 30
0.0
 10
7.927737750989865
 20
65.32070161667687
 30
0.0
 10
7.837184143700986
 20
65.35335384285975
 30
0.0
 10
7.74422734758971
 20
65.37675246515782
 30
0.0
 10
7.652377197754718
 20
65.4050263540081
 30
0.0
 10
7.557994031335198
 20
65.4211567357232
 30
0.0
 10
7.492942869837945
 20
65.42457292755083
 30
0.0
 10
7.463916716696964
 20
65.40842971952523
 30
0.0
  0
SPLINE
  5
83
330
1F
100
AcDbEntity
  8
Default
100
AcDbSpline
210
0.0
220
0.0
230
1.0
 70
    24
 71
     2
 72
     6
 73
     3
 74
     0
 42
0.0000000001
 43
0.0000000001
 40
0.0
 40
0.0
 40
0.0
 40
0.3804999999999978
 40
0.3804999999999978
 40
0.3804999999999978
 10
0.7999906980848426
 20
40.79105481044445
 30
0.0
 10
0.6097406980848437
 20
40.79105481044445
 30
0.0
 10
0.4194906980848447
 20
40.79105481044445
 30
0.0
  0
SPLINE
  5
84
330
1F
100
AcDbEntity
  8
Default
100
AcDbSpline
210
0.0
220
0.0
230
1.0
 70
    12
 71
     2
 72
     6
 73
     3
 74
     0
 42
0.0000000001
 43
0.0000000001
 40
0.0
 40
0.0
 40
0.0
 40
0.3141592653589783
 40
0.3141592653589783
 40
0.3141592653589783
 10
0.7999906980848426
 20
40.79105481044445
 30
0.0
 41
1.0
 10
0.9999906980848405
 20
40.79105481044445
 30
0.0
 41
0.7071067811865563
 10
0.9999906980848436
 20
40.99105481044445
 30
0.0
 41
1.0
  0
SPLINE
  5
85
330
1F
100
AcDbEntity
  8
Default
100
AcDbSpline
210
0.0
220
0.0
230
1.0
 70
    12
 71
     2
 72
     6
 73
     3
 74
     0
 42
0.0000000001
 43
0.0000000001
 40
0.0
 40
0.0
 40
0.0
 40
0.1223465729308164
 40
0.1223465729308164
 40
0.1223465729308164
 10
0.9999906980848454
 20
43.15105481044445
 30
0.0
 41
1.0
 10
0.9999906980848409
 20
43.21420996928406
 30
0.0
 41
0.9535864108568972
 10
0.9637215152732104
 20
43.26591219811642
 30
0.0
 41
1.0
  0
SPLINE
  5
86
330
1F
100
AcDbEntity
  8
Default
100
AcDbSpline
210
0.0
220
0.0
230
1.0
 70
    24
 71
     2
 72
     6
 73
     3
 74
     0
 42
0.0000000001
 43
0.0000000001
 40
0.0
 40
0.0
 40
0.0
 40
2.16
 40
2.16
 40
2.16
 10
0.9999906980848454
 20
43.15105481044445
 30
0.0
 10
0.9999906980848454
 20
42.07105481044445
 30
0.0
 10
0.9999906980848454
 20
40.99105481044445
 30
0.0
  0
SPLINE
  5
87
330
1F
100
AcDbEntity
  8
Default
100
AcDbSpline
210
0.0
220
0.0
230
1.0
 70
    12
 71
     3
 72
    10
 73
     6
 74
     0
 42
0.0000000001
 43
0.0000000001
 40
5.840617081523052
 40
5.840617081523052
 40
5.840617081523052
 40
5.840617081523052
 40
6.782380598752975
 40
6.782380598752975
 40
7.7161633322116
 40
7.7161633322116
 40
7.7161633322116
 40
7.7161633322116
 10
2.655270467219879
 20
61.06962214957124
 30
0.0
 41
1.0
 10
2.905783972338327
 20
61.04989801688289
 30
0.0
 41
1.0
 10
3.150030661729062
 20
61.02906086954714
 30
0.0
 41
1.0
 10
3.64726470777336
 20
60.97303323474767
 30
0.0
 41
1.0
 10
3.893979709923286
 20
60.93922935041885
 30
0.0
 41
1.0
 10
4.140142795373933
 20
60.90005897023007
 30
0.0
 41
1.0
  0
SPLINE
  5
88
330
1F
100
AcDbEntity
  8
Default
100
AcDbSpline
210
0.0
220
0.0
230
1.0
 70
     8
 71
     3
 72
    36
 73
    32
 74
     0
 42
0.0000000001
 43
0.0000000001
 40
-23.83475433039732
 40
-23.83475433039732
 40
-23.83475433039732
 40
-23.83475433039732
 40
-22.98200672795109
 40
-22.28453458113185
 40
-20.95409187325373
 40
-20.33449818087862
 40
-19.67087195866193
 40
-18.94050557296364
 40
-18.26840446478735
 40
-16.83243599640812
 40
-15.96925157373182
 40
-14.70995262980568
 40
-11.51296717130436
 40
-10.04469783440959
 40
-8.929842840700308
 40
-8.57491879166004
 40
-8.281353825240656
 40
-7.918382670296524
 40
-7.782263749687275
 40
-7.600787219376496
 40
-7.290780040416171
 40
-7.082115576556376
 40
-6.672766676210213
 40
-5.838734109645466
 40
-5.409708366711644
 40
-4.985216878559912
 40
-4.073751858443948
 40
-2.986984620547964
 40
-2.348733944583401
 40
-1.607764415090916
 40
0.0
 40
0.0
 40
0.0
 40
0.0
 10
4.140142795373933
 20
60.90005897023007
 30
0.0
 10
4.420703602509846
 20
60.85518771040162
 30
0.0
 10
4.929079721102127
 20
60.75784904105922
 30
0.0
 10
5.846470209141657
 20
60.46968276318589
 30
0.0
 10
6.631264403220385
 20
60.04819827540495
 30
0.0
 10
7.293450958942046
 20
59.47829500582424
 30
0.0
 10
7.735282461296151
 20
58.97032673808132
 30
0.0
 10
8.106022353937036
 20
58.38834419349478
 30
0.0
 10
8.50541465984108
 20
57.52769420768482
 30
0.0
 10
8.761738077516753
 20
56.56631072297957
 30
0.0
 10
8.920607336672276
 20
55.39049753556746
 30
0.0
 10
9.097796164787596
 20
53.62595682441752
 30
0.0
 10
9.202217092550626
 20
51.6530224775549
 30
0.0
 10
9.226451656209775
 20
49.72629448391611
 30
0.0
 10
9.202254357165458
 20
48.74697672271461
 30
0.0
 10
9.15951062461258
 20
48.16061462436294
 30
0.0
 10
9.127372121119251
 20
47.82501368840568
 30
0.0
 10
9.095490214012742
 20
47.5626399294876
 30
0.0
 10
9.064020718626878
 20
47.33806125042824
 30
0.0
 10
9.032405701099322
 20
47.1310961195358
 30
0.0
 10
8.993587266149888
 20
46.90117730447969
 30
0.0
 10
8.931578587402427
 20
46.59774351648633
 30
0.0
 10
8.792722821430502
 20
46.13363451221746
 30
0.0
 10
8.533367179696299
 20
45.63409162326985
 30
0.0
 10
8.174689282154958
 20
45.1993127708664
 30
0.0
 10
7.739114733373015
 20
44.80074810437905
 30
0.0
 10
7.040118751847729
 20
44.38552994120894
 30
0.0
 10
6.205793425426691
 20
44.09930171366929
 30
0.0
 10
5.405133597330376
 20
43.91265892314316
 30
0.0
 10
4.424169029319884
 20
43.73991734592178
 30
0.0
 10
3.64461579491757
 20
43.65996247056098
 30
0.0
 10
3.110039455907113
 20
43.6227722759528
 30
0.0
  0
SPLINE
  5
89
330
1F
100
AcDbEntity
  8
Default
100
AcDbSpline
210
0.0
220
0.0
230
1.0
 70
     8
 71
     3
 72
     8
 73
     4
 74
     0
 42
0.0000000001
 43
0.0000000001
 40
27.47610604272704
 40
27.47610604272704
 40
27.47610604272704
 40
27.47610604272704
 40
31.06643827780845
 40
31.06643827780845
 40
31.06643827780845
 40
31.06643827780845
 10
3.110039455907113
 20
43.6227722759528
 30
0.0
 10
2.098259186511243
 20
43.55158434345517
 30
0.0
 10
1.083039419461485
 20
43.53750459653391
 30
0.0
 10
0.0683916684147192
 20
43.53682853011104
 30
0.0
  0
LINE
  5
8A
330
1F
100
AcDbEntity
  8
Default
100
AcDbLine
 10
0.0683916684147192
 20
43.53682853011104
 30
0.0
 11
0.0000130960178666
 21
43.53678296798422
 31
0.0
  0
LINE
  5
8B
330
1F
100
AcDbEntity
  8
Default
100
AcDbLine
 10
0.0000130960178666
 20
43.53678296798422
 30
0.0
 11
-0.068365476378986
 21
43.53682853011104
 31
0.0
  0
SPLINE
  5
8C
330
1F
100
AcDbEntity
  8
Default
100
AcDbSpline
210
0.0
220
0.0
230
1.0
 70
     8
 71
     3
 72
     8
 73
     4
 74
     0
 42
0.0000000001
 43
0.0000000001
 40
-31.06643827780845
 40
-31.06643827780845
 40
-31.06643827780845
 40
-31.06643827780845
 40
-27.47610604272704
 40
-27.47610604272704
 40
-27.47610604272704
 40
-27.47610604272704
 10
-0.068365476378986
 20
43.53682853011104
 30
0.0
 10
-1.083013227425752
 20
43.53750459653391
 30
0.0
 10
-2.098232994475509
 20
43.55158434345517
 30
0.0
 10
-3.11001326387138
 20
43.6227722759528
 30
0.0
  0
SPLINE
  5
8D
330
1F
100
AcDbEntity
  8
Default
100
AcDbSpline
210
0.0
220
0.0
230
1.0
 70
     8
 71
     3
 72
    36
 73
    32
 74
     0
 42
0.0000000001
 43
0.0000000001
 40
0.0
 40
0.0
 40
0.0
 40
0.0
 40
1.607764415090916
 40
2.348733944583401
 40
2.986984620547964
 40
4.073751858443948
 40
4.985216878559912
 40
5.409708366711644
 40
5.838734109645466
 40
6.672766676210213
 40
7.082115576556376
 40
7.290780040416171
 40
7.600787219376496
 40
7.782263749687275
 40
7.918382670296524
 40
8.281353825240656
 40
8.57491879166004
 40
8.929842840700308
 40
10.04469783440959
 40
11.51296717130436
 40
14.70995262980568
 40
15.96925157373182
 40
16.83243599640812
 40
18.26840446478735
 40
18.94050557296364
 40
19.67087195866193
 40
20.33449818087862
 40
20.95409187325373
 40
22.28453458113185
 40
22.98200672795109
 40
23.83475433039732
 40
23.83475433039732
 40
23.83475433039732
 40
23.83475433039732
 10
-3.11001326387138
 20
43.6227722759528
 30
0.0
 10
-3.644589602881837
 20
43.65996247056098
 30
0.0
 10
-4.424142837284151
 20
43.73991734592178
 30
0.0
 10
-5.405107405294643
 20
43.91265892314316
 30
0.0
 10
-6.205767233390958
 20
44.09930171366929
 30
0.0
 10
-7.040092559811995
 20
44.38552994120894
 30
0.0
 10
-7.739088541337281
 20
44.80074810437905
 30
0.0
 10
-8.174663090119225
 20
45.1993127708664
 30
0.0
 10
-8.533340987660566
 20
45.63409162326985
 30
0.0
 10
-8.792696629394769
 20
46.13363451221746
 30
0.0
 10
-8.931552395366694
 20
46.59774351648633
 30
0.0
 10
-8.993561074114155
 20
46.90117730447969
 30
0.0
 10
-9.032379509063588
 20
47.1310961195358
 30
0.0
 10
-9.063994526591145
 20
47.33806125042824
 30
0.0
 10
-9.095464021977008
 20
47.5626399294876
 30
0.0
 10
-9.127345929083518
 20
47.82501368840568
 30
0.0
 10
-9.159484432576846
 20
48.16061462436294
 30
0.0
 10
-9.202228165129725
 20
48.74697672271461
 30
0.0
 10
-9.226425464174042
 20
49.72629448391611
 30
0.0
 10
-9.202190900514893
 20
51.6530224775549
 30
0.0
 10
-9.097769972751863
 20
53.62595682441752
 30
0.0
 10
-8.920581144636543
 20
55.39049753556746
 30
0.0
 10
-8.76171188548102
 20
56.56631072297957
 30
0.0
 10
-8.505388467805346
 20
57.52769420768482
 30
0.0
 10
-8.105996161901302
 20
58.38834419349478
 30
0.0
 10
-7.735256269260418
 20
58.97032673808132
 30
0.0
 10
-7.293424766906313
 20
59.47829500582424
 30
0.0
 10
-6.631238211184652
 20
60.04819827540495
 30
0.0
 10
-5.846444017105924
 20
60.46968276318589
 30
0.0
 10
-4.929053529066394
 20
60.75784904105922
 30
0.0
 10
-4.420677410474113
 20
60.85518771040162
 30
0.0
 10
-4.1401166033382
 20
60.90005897023007
 30
0.0
  0
SPLINE
  5
8E
330
1F
100
AcDbEntity
  8
Default
100
AcDbSpline
210
0.0
220
0.0
230
1.0
 70
    12
 71
     3
 72
    10
 73
     6
 74
     0
 42
0.0000000001
 43
0.0000000001
 40
-7.7161633322116
 40
-7.7161633322116
 40
-7.7161633322116
 40
-7.7161633322116
 40
-6.782380598752975
 40
-6.782380598752975
 40
-5.840617081523052
 40
-5.840617081523052
 40
-5.840617081523052
 40
-5.840617081523052
 10
-4.1401166033382
 20
60.90005897023007
 30
0.0
 41
1.0
 10
-3.893953517887553
 20
60.93922935041885
 30
0.0
 41
1.0
 10
-3.647238515737627
 20
60.97303323474767
 30
0.0
 41
1.0
 10
-3.150004469693329
 20
61.02906086954714
 30
0.0
 41
1.0
 10
-2.905757780302594
 20
61.04989801688289
 30
0.0
 41
1.0
 10
-2.655244275184145
 20
61.06962214957124
 30
0.0
 41
1.0
  0
ARC
  5
8F
330
1F
100
AcDbEntity
  8
Default
100
AcDbCircle
 10
0.2958571132801779
 20
23.64601289707094
 30
0.0
 40
37.53978594623074
100
AcDbArc
 50
91.03976333536296
 51
94.50882425201762
  0
LINE
  5
90
330
1F
100
AcDbEntity
  8
Default
100
AcDbLine
 10
-0.3853510144398626
 20
61.17961763170241
 30
0.0
 11
0.0000130960178666
 21
61.18661174752899
 31
0.0
  0
LINE
  5
91
330
1F
100
AcDbEntity
  8
Default
100
AcDbLine
 10
0.0000130960178666
 20
61.18661174752899
 30
0.0
 11
0.3853772064755958
 21
61.17961763170241
 31
0.0
  0
ARC
  5
92
330
1F
100
AcDbEntity
  8
Default
100
AcDbCircle
 10
-0.29583092124426
 20
23.64601289707592
 30
0.0
 40
37.53978594622574
100
AcDbArc
 50
85.49117574798193
 51
88.96023666463705
  0
LINE
  5
93
330
1F
100
AcDbEntity
  8
Default
100
AcDbLine
 10
7.392500323299844
 20
67.19389879630444
 30
0.0
 11
7.392500323299844
 21
65.47244339314838
 31
0.0
  0
LINE
  5
94
330
1F
100
AcDbEntity
  8
Default
100
AcDbLine
 10
8.101500323299847
 20
67.19389879630444
 30
0.0
 11
8.101500323299847
 21
65.13124810429798
 31
0.0
  0
SPLINE
  5
95
330
1F
100
AcDbEntity
  8
Default
100
AcDbSpline
210
0.0
220
0.0
230
1.0
 70
    12
 71
     2
 72
     6
 73
     3
 74
     0
 42
0.0000000001
 43
0.0000000001
 40
-1.821133459291622
 40
-1.821133459291622
 40
-1.821133459291622
 40
0.0
 40
0.0
 40
0.0
 10
0.5983909064172828
 20
43.26201934857549
 30
0.0
 41
1.0
 10
0.5680695741630941
 20
42.35195760013308
 30
0.0
 41
0.9999999999740955
 10
0.5371557770275448
 20
41.42432356638675
 30
0.0
 41
1.0
  0
SPLINE
  5
96
330
1F
100
AcDbEntity
  8
Default
100
AcDbSpline
210
0.0
220
0.0
230
1.0
 70
     8
 71
     3
 72
    12
 73
     8
 74
     0
 42
0.0000000001
 43
0.0000000001
 40
-0.520898341475631
 40
-0.520898341475631
 40
-0.520898341475631
 40
-0.520898341475631
 40
-0.3071144418879915
 40
-0.1566779994900354
 40
-0.0656571259808817
 40
-0.0313124450111553
 40
0.0
 40
0.0
 40
0.0
 40
0.0
 10
0.5371557770275448
 20
41.42432356638675
 30
0.0
 10
0.5345351488779269
 20
41.35320341687719
 30
0.0
 10
0.5284358204088981
 20
41.23168500940928
 30
0.0
 10
0.5108596011552713
 20
41.08108432308313
 30
0.0
 10
0.488188808240718
 20
40.99135755867522
 30
0.0
 10
0.4608748353548648
 20
40.94615605312885
 30
0.0
 10
0.4444388256739149
 20
40.93138742458117
 30
0.0
 10
0.4358810834873843
 20
40.92543429098188
 30
0.0
  0
SPLINE
  5
97
330
1F
100
AcDbEntity
  8
Default
100
AcDbSpline
210
0.0
220
0.0
230
1.0
 70
    12
 71
     2
 72
    10
 73
     7
 74
     0
 42
0.0000000001
 43
0.0000000001
 40
-0.3062567043280478
 40
-0.3062567043280478
 40
-0.3062567043280478
 40
-0.0732766842944304
 40
-0.0732766842944304
 40
0.0000061808985748
 40
0.0000061808985748
 40
0.1514370731734687
 40
0.1514370731734687
 40
0.1514370731734687
 10
0.4358810834873844
 20
40.92543429098189
 30
0.0
 41
1.000000743607975
 10
0.3279337950937645
 20
40.86164064694814
 30
0.0
 41
0.992887556879331
 10
0.2159612007423295
 20
40.82758257481174
 30
0.0
 41
0.9999999620018156
 10
0.1814096600565328
 20
40.81536100920668
 30
0.0
 41
0.9996029113842436
 10
0.1475141452307946
 20
40.80142434914488
 30
0.0
 41
1.0
 10
0.0766870698554088
 20
40.77202130768664
 30
0.0
 41
0.9810630296443672
 10
0.0
 20
40.77174090887387
 30
0.0
 41
0.9999976898480677
  0
SPLINE
  5
98
330
1F
100
AcDbEntity
  8
Default
100
AcDbSpline
210
0.0
220
0.0
230
1.0
 70
    12
 71
     2
 72
    10
 73
     7
 74
     0
 42
0.0000000001
 43
0.0000000001
 40
-0.1514370731734687
 40
-0.1514370731734687
 40
-0.1514370731734687
 40
-0.0000061808985748
 40
-0.0000061808985748
 40
0.0732766842944304
 40
0.0732766842944304
 40
0.3062567043280478
 40
0.3062567043280478
 40
0.3062567043280478
 10
0.0
 20
40.77174090887387
 30
0.0
 41
0.9999976898480677
 10
-0.0766870698554088
 20
40.77202130768664
 30
0.0
 41
0.9810630296443672
 10
-0.1475141452307946
 20
40.80142434914488
 30
0.0
 41
1.0
 10
-0.1814096600565328
 20
40.81536100920668
 30
0.0
 41
0.9996029113842436
 10
-0.2159612007423295
 20
40.82758257481174
 30
0.0
 41
0.9999999620018156
 10
-0.3279337950937645
 20
40.86164064694814
 30
0.0
 41
0.992887556879331
 10
-0.4358810834873844
 20
40.92543429098189
 30
0.0
 41
1.000000743607975
  0
SPLINE
  5
99
330
1F
100
AcDbEntity
  8
Default
100
AcDbSpline
210
0.0
220
0.0
230
1.0
 70
     8
 71
     3
 72
    12
 73
     8
 74
     0
 42
0.0000000001
 43
0.0000000001
 40
0.0
 40
0.0
 40
0.0
 40
0.0
 40
0.0313124450111553
 40
0.0656571259808817
 40
0.1566779994900354
 40
0.3071144418879915
 40
0.520898341475631
 40
0.520898341475631
 40
0.520898341475631
 40
0.520898341475631
 10
-0.4358810834873843
 20
40.92543429098188
 30
0.0
 10
-0.4444388256739149
 20
40.93138742458117
 30
0.0
 10
-0.4608748353548648
 20
40.94615605312885
 30
0.0
 10
-0.488188808240718
 20
40.99135755867522
 30
0.0
 10
-0.5108596011552713
 20
41.08108432308313
 30
0.0
 10
-0.5284358204088981
 20
41.23168500940928
 30
0.0
 10
-0.5345351488779269
 20
41.35320341687719
 30
0.0
 10
-0.5371557770275448
 20
41.42432356638675
 30
0.0
  0
SPLINE
  5
9A
330
1F
100
AcDbEntity
  8
Default
100
AcDbSpline
210
0.0
220
0.0
230
1.0
 70
    12
 71
     2
 72
     6
 73
     3
 74
     0
 42
0.0000000001
 43
0.0000000001
 40
0.0
 40
0.0
 40
0.0
 40
1.821133459291622
 40
1.821133459291622
 40
1.821133459291622
 10
-0.5371557770275448
 20
41.42432356638675
 30
0.0
 41
1.0
 10
-0.5680695741630941
 20
42.35195760013308
 30
0.0
 41
0.9999999999740955
 10
-0.5983909064172828
 20
43.26201934857549
 30
0.0
 41
1.0
  0
SPLINE
  5
9B
330
1F
100
AcDbEntity
  8
Default
100
AcDbSpline
210
0.0
220
0.0
230
1.0
 70
    24
 71
     2
 72
     6
 73
     3
 74
     0
 42
0.0000000001
 43
0.0000000001
 40
0.0
 40
0.0
 40
0.0
 40
0.1245692438752711
 40
0.1245692438752711
 40
0.1245692438752711
 10
0.4194906980848465
 20
40.91562405431972
 30
0.0
 10
0.4194906980848456
 20
40.85333943238209
 30
0.0
 10
0.4194906980848447
 20
40.79105481044445
 30
0.0
  0
SPLINE
  5
9C
330
1F
100
AcDbEntity
  8
Default
100
AcDbSpline
210
0.0
220
0.0
230
1.0
 70
    24
 71
     2
 72
     6
 73
     3
 74
     0
 42
0.0000000001
 43
0.0000000001
 40
0.0
 40
0.0
 40
0.0
 40
0.0512878304208932
 40
0.0512878304208932
 40
0.0512878304208932
 10
8.166500323299845
 20
64.68518662672534
 30
0.0
 10
8.166500323299845
 20
64.65954271151489
 30
0.0
 10
8.166500323299845
 20
64.63389879630444
 30
0.0
  0
SPLINE
  5
9D
330
1F
100
AcDbEntity
  8
Default
100
AcDbSpline
210
0.0
220
0.0
230
1.0
 70
    24
 71
     2
 72
     6
 73
     3
 74
     0
 42
0.0000000001
 43
0.0000000001
 40
0.0
 40
0.0
 40
0.0
 40
0.3804999999999978
 40
0.3804999999999978
 40
0.3804999999999978
 10
8.166500323299845
 20
67.19389879630444
 30
0.0
 10
8.356750323299844
 20
67.19389879630444
 30
0.0
 10
8.547000323299843
 20
67.19389879630444
 30
0.0
  0
SPLINE
  5
9E
330
1F
100
AcDbEntity
  8
Default
100
AcDbSpline
210
0.0
220
0.0
230
1.0
 70
    24
 71
     2
 72
     6
 73
     3
 74
     0
 42
0.0000000001
 43
0.0000000001
 40
0.0
 40
0.0
 40
0.0
 40
0.3805000000000049
 40
0.3805000000000049
 40
0.3805000000000049
 10
-12.95441558285484
 20
52.45821082458244
 30
0.0
 10
-13.14466558285485
 20
52.45821082458244
 30
0.0
 10
-13.33491558285485
 20
52.45821082458244
 30
0.0
  0
SPLINE
  5
9F
330
1F
100
AcDbEntity
  8
Default
100
AcDbSpline
210
0.0
220
0.0
230
1.0
 70
    24
 71
     2
 72
     6
 73
     3
 74
     0
 42
0.0000000001
 43
0.0000000001
 40
0.0
 40
0.0
 40
0.0
 40
0.3804999999999978
 40
0.3804999999999978
 40
0.3804999999999978
 10
8.547000323299843
 20
64.63389879630444
 30
0.0
 10
8.356750323299844
 20
64.63389879630444
 30
0.0
 10
8.166500323299845
 20
64.63389879630444
 30
0.0
  0
SPLINE
  5
A0
330
1F
100
AcDbEntity
  8
Default
100
AcDbSpline
210
0.0
220
0.0
230
1.0
 70
    12
 71
     2
 72
     6
 73
     3
 74
     0
 42
0.0000000001
 43
0.0000000001
 40
0.0
 40
0.0
 40
0.0
 40
0.3141592653589815
 40
0.3141592653589815
 40
0.3141592653589815
 10
8.547000323299843
 20
64.63389879630444
 30
0.0
 41
1.0
 10
8.747000323299847
 20
64.63389879630445
 30
0.0
 41
0.7071067811865318
 10
8.747000323299844
 20
64.83389879630445
 30
0.0
 41
1.0
  0
SPLINE
  5
A1
330
1F
100
AcDbEntity
  8
Default
100
AcDbSpline
210
0.0
220
0.0
230
1.0
 70
    12
 71
     2
 72
     6
 73
     3
 74
     0
 42
0.0000000001
 43
0.0000000001
 40
0.0
 40
0.0
 40
0.0
 40
0.3141592653589843
 40
0.3141592653589843
 40
0.3141592653589843
 10
8.747000323299845
 20
66.99389879630445
 30
0.0
 41
1.0
 10
8.747000323299849
 20
67.19389879630445
 30
0.0
 41
0.7071067811865318
 10
8.547000323299843
 20
67.19389879630444
 30
0.0
 41
1.0
  0
SPLINE
  5
A2
330
1F
100
AcDbEntity
  8
Default
100
AcDbSpline
210
0.0
220
0.0
230
1.0
 70
    24
 71
     2
 72
     6
 73
     3
 74
     0
 42
0.0000000001
 43
0.0000000001
 40
0.0
 40
0.0
 40
0.0
 40
0.7090000000000032
 40
0.7090000000000032
 40
0.7090000000000032
 10
8.101500323299847
 20
67.19389879630444
 30
0.0
 10
7.747000323299845
 20
67.19389879630444
 30
0.0
 10
7.392500323299844
 20
67.19389879630444
 30
0.0
  0
SPLINE
  5
A3
330
1F
100
AcDbEntity
  8
Default
100
AcDbSpline
210
0.0
220
0.0
230
1.0
 70
    24
 71
     2
 72
     6
 73
     3
 74
     0
 42
0.0000000001
 43
0.0000000001
 40
0.0
 40
0.0
 40
0.0
 40
2.160892209350461
 40
2.160892209350461
 40
2.160892209350461
 10
8.166500323299845
 20
67.19389879630444
 30
0.0
 10
8.166500323299843
 20
66.1134526916292
 30
0.0
 10
8.166500323299843
 20
65.03300658695397
 30
0.0
  0
SPLINE
  5
A4
330
1F
100
AcDbEntity
  8
Default
100
AcDbSpline
210
0.0
220
0.0
230
1.0
 70
    24
 71
     2
 72
     6
 73
     3
 74
     0
 42
0.0000000001
 43
0.0000000001
 40
0.0
 40
0.0
 40
0.0
 40
0.3805000000000049
 40
0.3805000000000049
 40
0.3805000000000049
 10
-13.33491558285485
 20
49.89821082458245
 30
0.0
 10
-13.14466558285485
 20
49.89821082458245
 30
0.0
 10
-12.95441558285484
 20
49.89821082458245
 30
0.0
  0
SPLINE
  5
A5
330
1F
100
AcDbEntity
  8
Default
100
AcDbSpline
210
0.0
220
0.0
230
1.0
 70
    24
 71
     2
 72
     6
 73
     3
 74
     0
 42
0.0000000001
 43
0.0000000001
 40
0.0
 40
0.0
 40
0.0
 40
0.7090000000000032
 40
0.7090000000000032
 40
0.7090000000000032
 10
-8.101500323299847
 20
67.19389879630444
 30
0.0
 10
-7.747000323299845
 20
67.19389879630444
 30
0.0
 10
-7.392500323299844
 20
67.19389879630444
 30
0.0
  0
SPLINE
  5
A6
330
1F
100
AcDbEntity
  8
Default
100
AcDbSpline
210
0.0
220
0.0
230
1.0
 70
    12
 71
     2
 72
     6
 73
     3
 74
     0
 42
0.0000000001
 43
0.0000000001
 40
0.0
 40
0.0
 40
0.0
 40
0.3141592653589735
 40
0.3141592653589735
 40
0.3141592653589735
 10
-13.33491558285485
 20
49.89821082458245
 30
0.0
 41
1.0
 10
-13.53491558285484
 20
49.89821082458245
 30
0.0
 41
0.7071067811865658
 10
-13.53491558285485
 20
50.09821082458244
 30
0.0
 41
1.0
  0
SPLINE
  5
A7
330
1F
100
AcDbEntity
  8
Default
100
AcDbSpline
210
0.0
220
0.0
230
1.0
 70
    24
 71
     2
 72
     6
 73
     3
 74
     0
 42
0.0000000001
 43
0.0000000001
 40
0.0
 40
0.0
 40
0.0
 40
1.082213855853043
 40
1.082213855853043
 40
1.082213855853043
 10
-11.53491558285485
 20
52.25821082458245
 30
0.0
 10
-11.53491558285485
 20
51.71710389665593
 30
0.0
 10
-11.53491558285485
 20
51.1759969687294
 30
0.0
  0
ARC
  5
A8
330
1F
100
AcDbEntity
  8
Default
100
AcDbCircle
 10
-3.218766684599984
 20
16.78842849107064
 30
0.0
 40
2.852408316770632
100
AcDbArc
 50
261.8122299911685
 51
270.0
  0
LINE
  5
A9
330
1F
100
AcDbEntity
  8
Default
100
AcDbLine
 10
-2.768512969076795
 20
13.9360201743
 30
0.0
 11
-3.218766684599984
 21
13.9360201743
 31
0.0
  0
LINE
  5
AA
330
1F
100
AcDbEntity
  8
Default
100
AcDbLine
 10
3.2187666847
 20
13.9360201743
 30
0.0
 11
2.768512969076767
 21
13.9360201743
 31
0.0
  0
ARC
  5
AB
330
1F
100
AcDbEntity
  8
Default
100
AcDbCircle
 10
3.2187666847
 20
16.78842848967328
 30
0.0
 40
2.852408315373275
100
AcDbArc
 50
270.0
 51
278.1877700108407
  0
SPLINE
  5
AC
330
1F
100
AcDbEntity
  8
Default
  6
Continuous
100
AcDbSpline
210
0.0
220
0.0
230
1.0
 70
    12
 71
     3
 72
    18
 73
    14
 74
     0
 42
0.0000000001
 43
0.0000000001
 40
0.0
 40
0.0
 40
0.0
 40
0.0
 40
1.0
 40
2.0
 40
3.0
 40
4.0
 40
5.0
 40
6.0
 40
7.0
 40
8.0
 40
8.0
 40
8.0
 40
8.201000012088924
 40
8.201000012088924
 40
8.201000012088924
 40
8.201000012088924
 10
22.04394309301088
 20
4.901539019900007
 30
0.0
 41
1.0
 10
21.95740354033268
 20
4.869197970691744
 30
0.0
 41
1.0
 10
21.79151547428887
 20
4.752607621303362
 30
0.0
 41
1.0
 10
21.66514567122283
 20
4.499846090948544
 30
0.0
 41
1.0
 10
21.61948971229539
 20
4.226123591058297
 30
0.0
 41
1.0
 10
21.5986012531871
 20
3.95026252333642
 30
0.0
 41
1.0
 10
21.57011637017482
 20
3.675064242282033
 30
0.0
 41
1.0
 10
21.54172274178688
 20
3.399883628345947
 30
0.0
 41
1.0
 10
21.51103345027963
 20
3.12494001447071
 30
0.0
 41
1.0
 10
21.48948881175269
 20
2.941771675188122
 30
0.0
 41
1.0
 10
21.47853049371088
 20
2.850209369900007
 30
0.0
 41
1.0
 10
21.47632787159081
 20
2.831805344919081
 30
0.0
 41
0.9999999444557278
 10
21.47411773700572
 20
2.813402220596894
 30
0.0
 41
0.9999999444557278
 10
21.47190009032389
 20
2.795000000000009
 30
0.0
 41
1.0
  0
LINE
  5
AD
330
1F
100
AcDbEntity
  8
Default
  6
Continuous
100
AcDbLine
 10
30.53489909836088
 20
8.074728831400009
 30
0.0
 11
22.04394309301088
 21
4.901539019900007
 31
0.0
  0
SPLINE
  5
AE
330
1F
100
AcDbEntity
  8
Default
  6
Continuous
100
AcDbSpline
210
0.0
220
0.0
230
1.0
 70
     8
 71
     3
 72
    13
 73
     9
 74
     0
 42
0.0000000001
 43
0.0000000001
 40
0.0
 40
0.0
 40
0.0
 40
0.0
 40
1.0
 40
2.0
 40
3.0
 40
4.0
 40
5.0
 40
6.0
 40
6.0
 40
6.0
 40
6.0
 10
32.12900871746089
 20
8.074728831400009
 30
0.0
 10
32.06067201526511
 20
8.137751435690014
 30
0.0
 10
31.89656800143707
 20
8.23071951546946
 30
0.0
 10
31.62102815654123
 20
8.284340335806668
 30
0.0
 10
31.34209218420801
 20
8.280192393834952
 30
0.0
 10
31.0666353357378
 20
8.237789175664957
 30
0.0
 10
30.79708331363867
 20
8.16799638647639
 30
0.0
 10
30.62171514606136
 20
8.107289034688065
 30
0.0
 10
30.53489909836088
 20
8.074728831400009
 30
0.0
  0
LINE
  5
AF
330
1F
100
AcDbEntity
  8
Default
  6
Continuous
100
AcDbLine
 10
35.62042096783178
 20
4.901560372139116
 30
0.0
 11
32.12900871746089
 21
8.074728831400009
 31
0.0
  0
ARC
  5
B0
330
1F
100
AcDbEntity
  8
Default
  6
Continuous
100
AcDbCircle
 10
35.48683680311088
 20
4.754178392700013
 30
0.0
 40
0.1989124856
100
AcDbArc
 50
45.85479849559961
 51
47.81144889319941
  0
SPLINE
  5
B1
330
1F
100
AcDbEntity
  8
Default
  6
Continuous
100
AcDbSpline
210
0.0
220
0.0
230
1.0
 70
     8
 71
     3
 72
    13
 73
     9
 74
     0
 42
0.0000000001
 43
0.0000000001
 40
0.0
 40
0.0
 40
0.0
 40
0.0
 40
1.000031345733356
 40
2.000062691466711
 40
3.000094037200066
 40
4.000125382933422
 40
5.000156728666777
 40
6.0
 40
6.0
 40
6.0
 40
6.0
 10
36.01617740930601
 20
2.795000000000009
 30
0.0
 10
35.99876372126042
 20
2.913513427287505
 30
0.0
 10
35.96522313166935
 20
3.15072057160625
 30
0.0
 10
35.91931241941519
 20
3.507164292487012
 30
0.0
 10
35.87534484020357
 20
3.863709854486004
 30
0.0
 10
35.8375494158967
 20
4.221524707467317
 30
0.0
 10
35.78403541827849
 20
4.575436487870157
 30
0.0
 10
35.7094422506723
 20
4.808911620369017
 30
0.0
 10
35.62537519616482
 20
4.896913428965107
 30
0.0
  0
LINE
  5
B2
330
1F
100
AcDbEntity
  8
Default
  6
Continuous
100
AcDbLine
 10
33.05785499701088
 20
4.679160310500009
 30
0.0
 11
33.10421067911088
 21
6.525771749100009
 31
0.0
  0
SPLINE
  5
B3
330
1F
100
AcDbEntity
  8
Default
  6
Continuous
100
AcDbSpline
210
0.0
220
0.0
230
1.0
 70
     8
 71
     3
 72
     8
 73
     4
 74
     0
 42
0.0000000001
 43
0.0000000001
 40
-1.0
 40
-1.0
 40
-1.0
 40
-1.0
 40
0.0
 40
0.0
 40
0.0
 40
0.0
 10
33.02667555781088
 20
4.299632751400011
 30
0.0
 10
33.02667555781088
 20
4.426568135500005
 30
0.0
 10
33.05466952821088
 20
4.552264902700003
 30
0.0
 10
33.05785499701088
 20
4.679160310500009
 30
0.0
  0
LINE
  5
B4
330
1F
100
AcDbEntity
  8
Default
  6
Continuous
100
AcDbLine
 10
33.02667555781088
 20
1.024632751400013
 30
0.0
 11
33.02667555781088
 21
4.299632751400011
 31
0.0
  0
ARC
  5
B5
330
1F
100
AcDbEntity
  8
Default
  6
Continuous
100
AcDbCircle
 10
32.90167555781088
 20
1.024632751400006
 30
0.0
 40
0.125
100
AcDbArc
 50
269.9998275005005
 51
0.0000000000005089
  0
LINE
  5
B6
330
1F
100
AcDbEntity
  8
Default
  6
Continuous
100
AcDbLine
 10
31.39970743024642
 20
0.8996327514005742
 30
0.0
 11
32.90167518147535
 21
0.8996327514005742
 31
0.0
  0
ARC
  5
B7
330
1F
100
AcDbEntity
  8
Default
  6
Continuous
100
AcDbCircle
 10
31.39970705391089
 20
1.024632751400006
 30
0.0
 40
0.125
100
AcDbArc
 50
180.0
 51
270.0001724994995
  0
LINE
  5
B8
330
1F
100
AcDbEntity
  8
Default
  6
Continuous
100
AcDbLine
 10
31.27470705391089
 20
4.299632751400011
 30
0.0
 11
31.27470705391089
 21
1.024632751400006
 31
0.0
  0
SPLINE
  5
B9
330
1F
100
AcDbEntity
  8
Default
  6
Continuous
100
AcDbSpline
210
0.0
220
0.0
230
1.0
 70
     8
 71
     3
 72
     8
 73
     4
 74
     0
 42
0.0000000001
 43
0.0000000001
 40
0.0
 40
0.0
 40
0.0
 40
0.0
 40
1.0
 40
1.0
 40
1.0
 40
1.0
 10
31.24352761461088
 20
4.679160310500009
 30
0.0
 10
31.24671308351088
 20
4.552264902700003
 30
0.0
 10
31.27470705391089
 20
4.426568135500005
 30
0.0
 10
31.27470705391089
 20
4.299632751400011
 30
0.0
  0
LINE
  5
BA
330
1F
100
AcDbEntity
  8
Default
  6
Continuous
100
AcDbLine
 10
31.19719130581088
 20
6.525000000000006
 30
0.0
 11
31.24352761461088
 21
4.679160310500009
 31
0.0
  0
ARC
  5
BB
330
1F
100
AcDbEntity
  8
Default
  6
Continuous
100
AcDbCircle
 10
21.21434732001087
 20
2.785000000000011
 30
0.0
 40
0.01
100
AcDbArc
 50
90.0
 51
180.0
  0
LINE
  5
BC
330
1F
100
AcDbEntity
  8
Default
  6
Continuous
100
AcDbLine
 10
21.20434732001088
 20
2.725000000000009
 30
0.0
 11
21.20434732001087
 21
2.785000000000011
 31
0.0
  0
SPLINE
  5
BD
330
1F
100
AcDbEntity
  8
Default
  6
Continuous
100
AcDbSpline
210
0.0
220
0.0
230
1.0
 70
    12
 71
     2
 72
    12
 73
     9
 74
     0
 42
0.0000000001
 43
0.0000000001
 40
0.0
 40
0.0
 40
0.0
 40
1.0
 40
1.0
 40
1.226307585885151
 40
1.226307585885151
 40
1.335957896141694
 40
1.335957896141694
 40
3.555481491541693
 40
3.555481491541693
 40
3.555481491541693
 10
30.87586163491088
 20
7.198155184100003
 30
0.0
 41
1.0
 10
30.97269939527251
 20
6.9964935652879
 30
0.0
 41
0.9804785856807045
 10
30.96989975401088
 20
6.821000000000005
 30
0.0
 41
1.0
 10
30.97039347898566
 20
6.707847284175038
 30
0.0
 41
1.0
 10
30.97088720396044
 20
6.594694568350072
 30
0.0
 41
1.0
 10
30.97119130581243
 20
6.525000000000008
 30
0.0
 41
0.708647764860917
 10
31.04088653761089
 20
6.525000000000006
 30
0.0
 41
1.0
 10
32.15064836431088
 20
6.525000000000006
 30
0.0
 41
1.0
 10
33.26041019101088
 20
6.525000000000006
 30
0.0
 41
1.0
  0
SPLINE
  5
BE
330
1F
100
AcDbEntity
  8
Default
  6
Continuous
100
AcDbSpline
210
0.0
220
0.0
230
1.0
 70
     8
 71
     3
 72
     9
 73
     5
 74
     0
 42
0.0000000001
 43
0.0000000001
 40
0.0
 40
0.0
 40
0.0
 40
0.0
 40
0.999835278763089
 40
2.0
 40
2.0
 40
2.0
 40
2.0
 10
30.59713431965793
 20
7.204097877673583
 30
0.0
 10
30.6409859570137
 20
7.219490781459392
 30
0.0
 10
30.7371800963173
 20
7.233392447159389
 30
0.0
 10
30.83102945460269
 20
7.213621175911989
 30
0.0
 10
30.87586163491088
 20
7.198155184100003
 30
0.0
  0
POLYLINE
  5
BF
330
1F
100
AcDbEntity
  8
Default
  6
Continuous
100
AcDb2dPolyline
 66
     1
 10
0.0
 20
0.0
 30
0.0
  0
VERTEX
  5
C0
330
BF
100
AcDbEntity
  8
Default
  6
Continuous
100
AcDbVertex
100
AcDb2dVertex
 10
22.28233559921088
 20
4.400971281300009
 30
0.0
  0
VERTEX
  5
C1
330
BF
100
AcDbEntity
  8
Default
  6
Continuous
100
AcDbVertex
100
AcDb2dVertex
 10
30.35823420551088
 20
7.123105093600003
 30
0.0
  0
VERTEX
  5
C2
330
BF
100
AcDbEntity
  8
Default
  6
Continuous
100
AcDbVertex
100
AcDb2dVertex
 10
30.59713431965793
 20
7.204097877673583
 30
0.0
  0
SEQEND
  5
C3
330
BF
100
AcDbEntity
  8
Default
  6
Continuous
  0
SPLINE
  5
C4
330
1F
100
AcDbEntity
  8
Default
  6
Continuous
100
AcDbSpline
210
0.0
220
0.0
230
1.0
 70
     8
 71
     3
 72
     9
 73
     5
 74
     0
 42
0.0000000001
 43
0.0000000001
 40
0.0
 40
0.0
 40
0.0
 40
0.0
 40
0.9999998002205869
 40
2.0
 40
2.0
 40
2.0
 40
2.0
 10
21.96770683696087
 20
3.936998485350003
 30
0.0
 10
21.97304954586302
 20
4.035975480052144
 30
0.0
 10
22.00197404485397
 20
4.251900006370626
 30
0.0
 10
22.18963035362012
 20
4.370874055584942
 30
0.0
 10
22.28233559921088
 20
4.400971281300009
 30
0.0
  0
SPLINE
  5
C5
330
1F
100
AcDbEntity
  8
Default
  6
Continuous
100
AcDbSpline
210
0.0
220
0.0
230
1.0
 70
     8
 71
     3
 72
     8
 73
     4
 74
     0
 42
0.0000000001
 43
0.0000000001
 40
0.0
 40
0.0
 40
0.0
 40
0.0
 40
1.0
 40
1.0
 40
1.0
 40
1.0
 10
21.86786926663143
 20
2.849512945137583
 30
0.0
 10
21.9094302986089
 20
3.301934248806354
 30
0.0
 10
21.93896029213752
 20
3.619431533316131
 30
0.0
 10
21.96770683696087
 20
3.936998485350003
 30
0.0
  0
SPLINE
  5
C6
330
1F
100
AcDbEntity
  8
Default
  6
Continuous
100
AcDbSpline
210
0.0
220
0.0
230
1.0
 70
     8
 71
     3
 72
     8
 73
     4
 74
     0
 42
0.0000000001
 43
0.0000000001
 40
-1.0
 40
-1.0
 40
-1.0
 40
-1.0
 40
0.0
 40
0.0
 40
0.0
 40
0.0
 10
21.80814708631088
 20
2.795000000000009
 30
0.0
 10
21.83510054415916
 20
2.795000000000009
 30
0.0
 10
21.86540360789903
 20
2.822672501456552
 30
0.0
 10
21.86786926663143
 20
2.849512945137583
 30
0.0
  0
LINE
  5
C7
330
1F
100
AcDbEntity
  8
Default
  6
Continuous
100
AcDbLine
 10
21.17146605521089
 20
2.795000000000009
 30
0.0
 11
21.80814708631088
 21
2.795000000000009
 31
0.0
  0
SPLINE
  5
C8
330
1F
100
AcDbEntity
  8
Default
  6
Continuous
100
AcDbSpline
210
0.0
220
0.0
230
1.0
 70
     8
 71
     3
 72
     8
 73
     4
 74
     0
 42
0.0000000001
 43
0.0000000001
 40
0.0
 40
0.0
 40
0.0
 40
0.0
 40
1.0
 40
1.0
 40
1.0
 40
1.0
 10
21.11150603591088
 20
2.853132289100003
 30
0.0
 10
21.11266015559156
 20
2.825318265817728
 30
0.0
 10
21.14362809761006
 20
2.795000000000009
 30
0.0
 10
21.17146605521089
 20
2.795000000000009
 30
0.0
  0
POLYLINE
  5
C9
330
1F
100
AcDbEntity
  8
Default
  6
Continuous
100
AcDb2dPolyline
 66
     1
 10
0.0
 20
0.0
 30
0.0
  0
VERTEX
  5
CA
330
C9
100
AcDbEntity
  8
Default
  6
Continuous
100
AcDbVertex
100
AcDb2dVertex
 10
21.05508307961088
 20
4.212912775000007
 30
0.0
  0
VERTEX
  5
CB
330
C9
100
AcDbEntity
  8
Default
  6
Continuous
100
AcDbVertex
100
AcDb2dVertex
 10
21.11150603591088
 20
2.853132289100003
 30
0.0
  0
SEQEND
  5
CC
330
C9
100
AcDbEntity
  8
Default
  6
Continuous
  0
SPLINE
  5
CD
330
1F
100
AcDbEntity
  8
Default
  6
Continuous
100
AcDbSpline
210
0.0
220
0.0
230
1.0
 70
     8
 71
     3
 72
     8
 73
     4
 74
     0
 42
0.0000000001
 43
0.0000000001
 40
0.0
 40
0.0
 40
0.0
 40
0.0
 40
1.0
 40
1.0
 40
1.0
 40
1.0
 10
21.52498623361087
 20
5.034043048700006
 30
0.0
 10
21.13887900731737
 20
4.885534046481837
 30
0.0
 10
21.03932786461063
 20
4.592609893219006
 30
0.0
 10
21.05508307961088
 20
4.212912775000007
 30
0.0
  0
SPLINE
  5
CE
330
1F
100
AcDbEntity
  8
Default
  6
Continuous
100
AcDbSpline
210
0.0
220
0.0
230
1.0
 70
     8
 71
     3
 72
     8
 73
     4
 74
     0
 42
0.0000000001
 43
0.0000000001
 40
0.0000000000000001
 40
0.0000000000000001
 40
0.0000000000000001
 40
0.0000000000000001
 40
1.0
 40
1.0
 40
1.0
 40
1.0
 10
29.93285489551091
 20
8.322366449299757
 30
0.0
 10
27.13421465377181
 20
7.216135391159469
 30
0.0
 10
24.33563711135733
 20
6.109525844636167
 30
0.0
 10
21.52498623361087
 20
5.034043048700006
 30
0.0
  0
ARC
  5
CF
330
1F
100
AcDbEntity
  8
Default
  6
Continuous
100
AcDbCircle
 10
32.61461640473897
 20
1.537811248788572
 30
0.0
 40
7.295343313454174
100
AcDbArc
 50
101.9239748335887
 51
111.5676224846568
  0
POLYLINE
  5
D0
330
1F
100
AcDbEntity
  8
Default
  6
Continuous
100
AcDb2dPolyline
 66
     1
 10
0.0
 20
0.0
 30
0.0
  0
VERTEX
  5
D1
330
D0
100
AcDbEntity
  8
Default
  6
Continuous
100
AcDbVertex
100
AcDb2dVertex
 10
33.17584051029741
 20
8.675740133816362
 30
0.0
  0
VERTEX
  5
D2
330
D0
100
AcDbEntity
  8
Default
  6
Continuous
100
AcDbVertex
100
AcDb2dVertex
 10
31.10729915430812
 20
8.675740133816362
 30
0.0
  0
SEQEND
  5
D3
330
D0
100
AcDbEntity
  8
Default
  6
Continuous
  0
LINE
  5
D4
330
1F
100
AcDbEntity
  8
Default
  6
Continuous
100
AcDbLine
 10
33.19414536681089
 20
8.671339611400008
 30
0.0
 11
33.17584051029741
 21
8.675740133816362
 31
0.0
  0
SPLINE
  5
D5
330
1F
100
AcDbEntity
  8
Default
  6
Continuous
100
AcDbSpline
210
0.0
220
0.0
230
1.0
 70
     8
 71
     3
 72
     8
 73
     4
 74
     0
 42
0.0000000001
 43
0.0000000001
 40
-0.0000000000000006
 40
-0.0000000000000006
 40
-0.0000000000000006
 40
-0.0000000000000006
 40
1.0
 40
1.0
 40
1.0
 40
1.0
 10
34.82569130582131
 20
8.201999999986405
 30
0.0
 10
34.28382844259622
 20
8.365097595284915
 30
0.0
 10
33.74464974283575
 20
8.538997309497205
 30
0.0
 10
33.19414536681089
 20
8.671339611400008
 30
0.0
  0
LINE
  5
D6
330
1F
100
AcDbEntity
  8
Default
  6
Continuous
100
AcDbLine
 10
45.09736068961088
 20
5.061635519600003
 30
0.0
 11
34.82569130582131
 21
8.201999999986405
 31
0.0
  0
SPLINE
  5
D7
330
1F
100
AcDbEntity
  8
Default
  6
Continuous
100
AcDbSpline
210
0.0
220
0.0
230
1.0
 70
     8
 71
     3
 72
    11
 73
     7
 74
     0
 42
0.0000000001
 43
0.0000000001
 40
-4.0
 40
-4.0
 40
-4.0
 40
-4.0
 40
-3.0
 40
-2.0
 40
-1.0
 40
0.0
 40
0.0
 40
0.0
 40
0.0
 10
45.61917730951087
 20
4.573662997200003
 30
0.0
 10
45.5981177024991
 20
4.631805264468902
 30
0.0
 10
45.54293538842782
 20
4.743355520292056
 30
0.0
 10
45.4233127163243
 20
4.88706525417259
 30
0.0
 10
45.27138121140572
 20
4.995902775789133
 30
0.0
 10
45.15646263392836
 20
5.043520553573565
 30
0.0
 10
45.09736068961088
 20
5.061635519600003
 30
0.0
  0
SPLINE
  5
D8
330
1F
100
AcDbEntity
  8
Default
  6
Continuous
100
AcDbSpline
210
0.0
220
0.0
230
1.0
 70
     8
 71
     3
 72
    15
 73
    11
 74
     0
 42
0.0000000001
 43
0.0000000001
 40
-8.0
 40
-8.0
 40
-8.0
 40
-8.0
 40
-7.000000000072458
 40
-6.000000000062107
 40
-5.000000000051756
 40
-4.000000000041404
 40
-3.000000000031054
 40
-2.000000000020703
 40
-1.000000000010351
 40
0.0
 40
0.0
 40
0.0
 40
0.0
 10
45.70450520746525
 20
2.856166907318915
 30
0.0
 10
45.70310760814711
 20
2.928000570435444
 30
0.0
 10
45.70028705843501
 20
3.071667754707548
 30
0.0
 10
45.69608049229517
 20
3.28716795138223
 30
0.0
 10
45.69203801868301
 20
3.502674315932701
 30
0.0
 10
45.68814039301165
 20
3.718172387315732
 30
0.0
 10
45.68308659221479
 20
3.933689544762103
 30
0.0
 10
45.68023281448937
 20
4.149093146021727
 30
0.0
 10
45.67577407595303
 20
4.36504133095508
 30
0.0
 10
45.64379321784872
 20
4.506146485631653
 30
0.0
 10
45.61917730951087
 20
4.573662997200003
 30
0.0
  0
ARC
  5
D9
330
1F
100
AcDbEntity
  8
Default
  6
Continuous
100
AcDbCircle
 10
45.64451655581088
 20
2.855000000000004
 30
0.0
 40
0.06
100
AcDbArc
 50
269.9999999818971
 51
1.114384666396758
  0
LINE
  5
DA
330
1F
100
AcDbEntity
  8
Default
  6
Continuous
100
AcDbLine
 10
45.01128442391088
 20
2.795000000000009
 30
0.0
 11
45.64451655579192
 21
2.795000000000009
 31
0.0
  0
ARC
  5
DB
330
1F
100
AcDbEntity
  8
Default
  6
Continuous
100
AcDbCircle
 10
45.01128442391088
 20
2.855000000000004
 30
0.0
 40
0.06
100
AcDbArc
 50
184.3662105939002
 51
270.0
  0
SPLINE
  5
DC
330
1F
100
AcDbEntity
  8
Default
  6
Continuous
100
AcDbSpline
210
0.0
220
0.0
230
1.0
 70
     8
 71
     3
 72
    19
 73
    15
 74
     0
 42
0.0000000001
 43
0.0000000001
 40
-12.0
 40
-12.0
 40
-12.0
 40
-12.0
 40
-10.99999999994036
 40
-9.999999999880723
 40
-8.999999999821085
 40
-7.999999999761447
 40
-6.999999999701808
 40
-5.999999999642171
 40
-4.999999999582532
 40
-3.999999999522894
 40
-2.999999999463256
 40
-1.999999999403618
 40
-0.9999999993439794
 40
0.0
 40
0.0
 40
0.0
 40
0.0
 10
44.43018092121088
 20
4.390668571100008
 30
0.0
 10
44.47764327140186
 20
4.377748923146143
 30
0.0
 10
44.57115805879332
 20
4.346258240409149
 30
0.0
 10
44.70087893256891
 20
4.27386596344148
 30
0.0
 10
44.80614704141786
 20
4.167395684799388
 30
0.0
 10
44.86483043889095
 20
4.028762891724384
 30
0.0
 10
44.87213636674669
 20
3.880396996156882
 30
0.0
 10
44.88421130992494
 20
3.733528723694789
 30
0.0
 10
44.89517691415628
 20
3.586271664472982
 30
0.0
 10
44.90650606024573
 20
3.439123804296074
 30
0.0
 10
44.91774640651099
 20
3.291947368653972
 30
0.0
 10
44.9289887199227
 20
3.144776921518883
 30
0.0
 10
44.94022290300515
 20
2.997604288099168
 30
0.0
 10
44.94771293564428
 20
2.899489488458769
 30
0.0
 10
44.95145855454018
 20
2.850432139008184
 30
0.0
  0
LINE
  5
DD
330
1F
100
AcDbEntity
  8
Default
  6
Continuous
100
AcDbLine
 10
34.78038485761088
 20
7.019876556300005
 30
0.0
 11
44.43018092121088
 21
4.390668571100008
 31
0.0
  0
LINE
  5
DE
330
1F
100
AcDbEntity
  8
Default
  6
Continuous
100
AcDbLine
 10
36.55353529171089
 20
2.685000000000009
 30
0.0
 11
36.55353529171089
 21
2.560000000000009
 31
0.0
  0
LINE
  5
DF
330
1F
100
AcDbEntity
  8
Default
  6
Continuous
100
AcDbLine
 10
36.50703529171088
 20
2.785000000000011
 30
0.0
 11
36.50703529171088
 21
2.725000000000009
 31
0.0
  0
ARC
  5
E0
330
1F
100
AcDbEntity
  8
Default
  6
Continuous
100
AcDbCircle
 10
46.83142268170445
 20
1.954575392891613
 30
0.0
 40
25.07637053655775
100
AcDbArc
 50
177.9532109015227
 51
178.0793950262395
  0
SPLINE
  5
E1
330
1F
100
AcDbEntity
  8
Default
  6
Continuous
100
AcDbSpline
210
0.0
220
0.0
230
1.0
 70
     8
 71
     3
 72
    15
 73
    11
 74
     0
 42
0.0000000001
 43
0.0000000001
 40
0.0
 40
0.0
 40
0.0
 40
0.0
 40
0.999999999213247
 40
1.99999999932564
 40
2.999999999438034
 40
3.999999999550427
 40
4.999999999662821
 40
5.999999999775214
 40
6.999999999887606
 40
8.0
 40
8.0
 40
8.0
 40
8.0
 10
22.14428636596088
 20
4.698415030750006
 30
0.0
 10
22.06821803265757
 20
4.667207130720037
 30
0.0
 10
21.93765100223544
 20
4.558630111521062
 30
0.0
 10
21.84397978345874
 20
4.324619002714137
 30
0.0
 10
21.83663527634707
 20
4.077602041794783
 30
0.0
 10
21.81899763623025
 20
3.832631552309714
 30
0.0
 10
21.80559923180694
 20
3.587022832429341
 30
0.0
 10
21.79230634808977
 20
3.341515327049272
 30
0.0
 10
21.78063622658271
 20
3.095894921730576
 30
0.0
 10
21.77397839845368
 20
2.932104577082058
 30
0.0
 10
21.77105101931087
 20
2.850193296600011
 30
0.0
  0
SPLINE
  5
E2
330
1F
100
AcDbEntity
  8
Default
  6
Continuous
100
AcDbSpline
210
0.0
220
0.0
230
1.0
 70
     8
 71
     3
 72
     8
 73
     4
 74
     0
 42
0.0000000001
 43
0.0000000001
 40
0.0
 40
0.0
 40
0.0
 40
0.0
 40
1.0
 40
1.0
 40
1.0
 40
1.0
 10
30.60099858636087
 20
7.746451667500004
 30
0.0
 10
27.78208919648962
 20
6.730454150284075
 30
0.0
 10
24.960712564144
 20
5.721083344511761
 30
0.0
 10
22.14428636596088
 20
4.698415030750006
 30
0.0
  0
SPLINE
  5
E3
330
1F
100
AcDbEntity
  8
Default
  6
Continuous
100
AcDbSpline
210
0.0
220
0.0
230
1.0
 70
     8
 71
     3
 72
    10
 73
     6
 74
     0
 42
0.0000000001
 43
0.0000000001
 40
0.0
 40
0.0
 40
0.0
 40
0.0
 40
0.9999830270837577
 40
1.999994727963678
 40
3.0
 40
3.0
 40
3.0
 40
3.0
 10
32.12242190026089
 20
7.746451667500004
 30
0.0
 10
31.99062303303728
 20
7.869777399744819
 30
0.0
 10
31.64006107446986
 20
7.983028022236567
 30
0.0
 10
31.10483426459678
 20
7.92029057412406
 30
0.0
 10
30.76809180362824
 20
7.806230014239027
 30
0.0
 10
30.60099858636087
 20
7.746451667500004
 30
0.0
  0
LINE
  5
E4
330
1F
100
AcDbEntity
  8
Default
  6
Continuous
100
AcDbLine
 10
35.46013206531089
 20
4.811295720400011
 30
0.0
 11
32.12242190026089
 21
7.746451667500004
 31
0.0
  0
SPLINE
  5
E5
330
1F
100
AcDbEntity
  8
Default
  6
Continuous
100
AcDbSpline
210
0.0
220
0.0
230
1.0
 70
     8
 71
     3
 72
     9
 73
     5
 74
     0
 42
0.0000000001
 43
0.0000000001
 40
0.0
 40
0.0
 40
0.0
 40
0.0
 40
1.0
 40
2.0
 40
2.0
 40
2.0
 40
2.0
 10
35.69713095941088
 20
4.438105422300012
 30
0.0
 10
35.67834668417673
 20
4.510023598275261
 30
0.0
 10
35.64185811040605
 20
4.665847718451076
 30
0.0
 10
35.51434568773455
 20
4.759871387177412
 30
0.0
 10
35.46013206531089
 20
4.811295720400011
 30
0.0
  0
ARC
  5
E6
330
1F
100
AcDbEntity
  8
Default
  6
Continuous
100
AcDbCircle
 10
-65.06951541047884
 20
-2.464445559021009
 30
0.0
 40
110.7581952364712
100
AcDbArc
 50
2.7217615624958
 51
2.750344800226912
  0
SPLINE
  5
E7
330
1F
100
AcDbEntity
  8
Default
  6
Continuous
100
AcDbSpline
210
0.0
220
0.0
230
1.0
 70
     8
 71
     3
 72
    15
 73
    11
 74
     0
 42
0.0000000001
 43
0.0000000001
 40
-8.0
 40
-8.0
 40
-8.0
 40
-8.0
 40
-7.0
 40
-6.0
 40
-5.0
 40
-4.0
 40
-3.0
 40
-2.0
 40
-1.0
 40
0.0
 40
0.0
 40
0.0
 40
0.0
 10
45.04855872221088
 20
4.897017344300011
 30
0.0
 10
45.13763935983872
 20
4.869436739867439
 30
0.0
 10
45.30740679788386
 20
4.777359278071714
 30
0.0
 10
45.4609890055419
 20
4.532255799979289
 30
0.0
 10
45.50550610741834
 20
4.25254630740109
 30
0.0
 10
45.50819638359125
 20
3.971869472938096
 30
0.0
 10
45.52167015568969
 20
3.69141890270464
 30
0.0
 10
45.53367808461043
 20
3.410967654057146
 30
0.0
 10
45.547390203698
 20
3.130576476975264
 30
0.0
 10
45.55660713987164
 20
2.943657400372537
 30
0.0
 10
45.56109721051088
 20
2.850191130800006
 30
0.0
  0
SPLINE
  5
E8
330
1F
100
AcDbEntity
  8
Default
  6
Continuous
100
AcDbSpline
210
0.0
220
0.0
230
1.0
 70
    24
 71
     2
 72
     6
 73
     3
 74
     0
 42
0.0000000001
 43
0.0000000001
 40
-10.72730918129547
 40
-10.72730918129547
 40
-10.72730918129547
 40
0.0
 40
0.0
 40
0.0
 10
34.78678060471088
 20
8.074728831400009
 30
0.0
 10
39.91766966346088
 20
6.48587308785001
 30
0.0
 10
45.04855872221088
 20
4.897017344300011
 30
0.0
  0
SPLINE
  5
E9
330
1F
100
AcDbEntity
  8
Default
  6
Continuous
100
AcDbSpline
210
0.0
220
0.0
230
1.0
 70
     8
 71
     3
 72
    11
 73
     7
 74
     0
 42
0.0000000001
 43
0.0000000001
 40
-4.0
 40
-4.0
 40
-4.0
 40
-4.0
 40
-3.0
 40
-2.0
 40
-1.0
 40
0.0
 40
0.0
 40
0.0
 40
0.0
 10
33.89818194321089
 20
8.280373613100004
 30
0.0
 10
33.97433529900621
 20
8.276800257454475
 30
0.0
 10
34.12524256044107
 20
8.253983894781122
 30
0.0
 10
34.34802635359861
 20
8.202816533433378
 30
0.0
 10
34.56827105441971
 20
8.141671575647159
 30
0.0
 10
34.71403153192134
 20
8.097325503124218
 30
0.0
 10
34.78678060471088
 20
8.074728831400009
 30
0.0
  0
SPLINE
  5
EA
330
1F
100
AcDbEntity
  8
Default
  6
Continuous
100
AcDbSpline
210
0.0
220
0.0
230
1.0
 70
     8
 71
     3
 72
     8
 73
     4
 74
     0
 42
0.0000000001
 43
0.0000000001
 40
-1.0
 40
-1.0
 40
-1.0
 40
-1.0
 40
0.0
 40
0.0
 40
0.0
 40
0.0
 10
33.78549255811087
 20
8.134125822300007
 30
0.0
 10
33.70497740499984
 20
8.224334031212408
 30
0.0
 10
33.7782245336854
 20
8.28495005534814
 30
0.0
 10
33.89818194321089
 20
8.280373613100004
 30
0.0
  0
SPLINE
  5
EB
330
1F
100
AcDbEntity
  8
Default
  6
Continuous
100
AcDbSpline
210
0.0
220
0.0
230
1.0
 70
     8
 71
     3
 72
     8
 73
     4
 74
     0
 42
0.0000000001
 43
0.0000000001
 40
0.0
 40
0.0
 40
0.0
 40
0.0
 40
1.0
 40
1.0
 40
1.0
 40
1.0
 10
36.62618396661088
 20
4.956644391400005
 30
0.0
 10
35.67810775844171
 20
6.014750016826461
 30
0.0
 10
34.73149729387356
 20
7.074168141884051
 30
0.0
 10
33.78549255811087
 20
8.134125822300007
 30
0.0
  0
SPLINE
  5
EC
330
1F
100
AcDbEntity
  8
Default
  6
Continuous
100
AcDbSpline
210
0.0
220
0.0
230
1.0
 70
     8
 71
     3
 72
     8
 73
     4
 74
     0
 42
0.0000000001
 43
0.0000000001
 40
0.0
 40
0.0
 40
0.0
 40
0.0
 40
1.0
 40
1.0
 40
1.0
 40
1.0
 10
36.71537434071088
 20
4.192311419800006
 30
0.0
 10
36.73189901867045
 20
4.426508813147088
 30
0.0
 10
36.78718935278727
 20
4.776953451611348
 30
0.0
 10
36.62618396661088
 20
4.956644391400005
 30
0.0
  0
SPLINE
  5
ED
330
1F
100
AcDbEntity
  8
Default
  6
Continuous
100
AcDbSpline
210
0.0
220
0.0
230
1.0
 70
     8
 71
     3
 72
     8
 73
     4
 74
     0
 42
0.0000000001
 43
0.0000000001
 40
0.0
 40
0.0
 40
0.0
 40
0.0
 40
1.0
 40
1.0
 40
1.0
 40
1.0
 10
36.60148326591089
 20
2.851213848500009
 30
0.0
 10
36.62766969477386
 20
3.299191666089094
 30
0.0
 10
36.6736796907939
 20
3.745611497127207
 30
0.0
 10
36.71537434071088
 20
4.192311419800006
 30
0.0
  0
SPLINE
  5
EE
330
1F
100
AcDbEntity
  8
Default
  6
Continuous
100
AcDbSpline
210
0.0
220
0.0
230
1.0
 70
     8
 71
     3
 72
     8
 73
     4
 74
     0
 42
0.0000000001
 43
0.0000000001
 40
0.0
 40
0.0
 40
0.0
 40
0.0
 40
1.0
 40
1.0
 40
1.0
 40
1.0
 10
36.54159806081088
 20
2.795000000000009
 30
0.0
 10
36.5689765490271
 20
2.795000000000009
 30
0.0
 10
36.59988559064399
 20
2.823882016312119
 30
0.0
 10
36.60148326591089
 20
2.851213848500009
 30
0.0
  0
LINE
  5
EF
330
1F
100
AcDbEntity
  8
Default
  6
Continuous
100
AcDbLine
 10
35.90389002581088
 20
2.795000000000009
 30
0.0
 11
36.54159806081088
 21
2.795000000000009
 31
0.0
  0
SPLINE
  5
F0
330
1F
100
AcDbEntity
  8
Default
  6
Continuous
100
AcDbSpline
210
0.0
220
0.0
230
1.0
 70
     8
 71
     3
 72
     8
 73
     4
 74
     0
 42
0.0000000001
 43
0.0000000001
 40
-1.0
 40
-1.0
 40
-1.0
 40
-1.0
 40
0.0
 40
0.0
 40
0.0
 40
0.0
 10
35.84399925451088
 20
2.84998822850001
 30
0.0
 10
35.84627257757722
 20
2.822981855218046
 30
0.0
 10
35.87678814034864
 20
2.795000000000009
 30
0.0
 10
35.90389002581088
 20
2.795000000000009
 30
0.0
  0
SPLINE
  5
F1
330
1F
100
AcDbEntity
  8
Default
  6
Continuous
100
AcDbSpline
210
0.0
220
0.0
230
1.0
 70
     8
 71
     3
 72
     8
 73
     4
 74
     0
 42
0.0000000001
 43
0.0000000001
 40
0.0
 40
0.0
 40
0.0
 40
0.0
 40
1.0
 40
1.0
 40
1.0
 40
1.0
 10
35.73114964461088
 20
4.087181772450009
 30
0.0
 10
35.77123278799039
 20
3.675013204103173
 30
0.0
 10
35.80939966101546
 20
3.262653898548614
 30
0.0
 10
35.84399925451088
 20
2.84998822850001
 30
0.0
  0
SPLINE
  5
F2
330
1F
100
AcDbEntity
  8
Default
  6
Continuous
100
AcDbSpline
210
0.0
220
0.0
230
1.0
 70
     8
 71
     3
 72
    11
 73
     7
 74
     0
 42
0.0000000001
 43
0.0000000001
 40
0.0
 40
0.0
 40
0.0
 40
0.0
 40
0.9996201856003022
 40
1.999746790400201
 40
2.999873395200101
 40
4.0
 40
4.0
 40
4.0
 40
4.0
 10
35.61770110756089
 20
4.507131243450004
 30
0.0
 10
35.64246730725672
 20
4.482411271754899
 30
0.0
 10
35.68041566809336
 20
4.416389171819048
 30
0.0
 10
35.70540920021045
 20
4.30785369549627
 30
0.0
 10
35.72112701663922
 20
4.197861712306533
 30
0.0
 10
35.72760824595797
 20
4.124044566886205
 30
0.0
 10
35.73114964461088
 20
4.087181772450009
 30
0.0
  0
SPLINE
  5
F3
330
1F
100
AcDbEntity
  8
Default
  6
Continuous
100
AcDbSpline
210
0.0
220
0.0
230
1.0
 70
     8
 71
     3
 72
     8
 73
     4
 74
     0
 42
0.0000000001
 43
0.0000000001
 40
0.0
 40
0.0
 40
0.0
 40
0.0
 40
1.0
 40
1.0
 40
1.0
 40
1.0
 10
32.44528679471088
 20
7.289633347600009
 30
0.0
 10
33.50292258983505
 20
6.362320048735889
 30
0.0
 10
34.56038345265539
 20
5.434807166685204
 30
0.0
 10
35.61770110756089
 20
4.507131243450004
 30
0.0
  0
LINE
  5
F4
330
1F
100
AcDbEntity
  8
Default
100
AcDbLine
 10
36.73178854011088
 20
13.7654086934
 30
0.0
 11
36.77668147001089
 21
14.2316347806
 31
0.0
  0
SPLINE
  5
F5
330
1F
100
AcDbEntity
  8
Default
100
AcDbSpline
210
0.0
220
0.0
230
1.0
 70
     8
 71
     3
 72
     8
 73
     4
 74
     0
 42
0.0000000001
 43
0.0000000001
 40
0.0
 40
0.0
 40
0.0
 40
0.0
 40
1.0
 40
1.0
 40
1.0
 40
1.0
 10
36.69092145615805
 20
13.72220167540419
 30
0.0
 10
36.71042188222907
 20
13.72576951636881
 30
0.0
 10
36.72988846206493
 20
13.74567583224104
 30
0.0
 10
36.73178854011088
 20
13.7654086934
 30
0.0
  0
ARC
  5
F6
330
1F
100
AcDbEntity
  8
Default
100
AcDbCircle
 10
32.01155429854504
 20
39.29779605333881
 30
0.0
 40
26.00014432229922
100
AcDbArc
 50
270.9800022455709
 51
280.3682838781992
  0
ARC
  5
F7
330
1F
100
AcDbEntity
  8
Default
100
AcDbCircle
 10
32.4553908242539
 20
13.35144757249087
 30
0.0
 40
0.0499999999422856
100
AcDbArc
 50
189.1083557522009
 51
270.9800022879447
  0
LINE
  5
F8
330
1F
100
AcDbEntity
  8
Default
100
AcDbLine
 10
32.37285422033258
 20
13.550408196426
 30
0.0
 11
32.40602128775049
 21
13.34353246922765
 31
0.0
  0
ARC
  5
F9
330
1F
100
AcDbEntity
  8
Default
100
AcDbCircle
 10
32.15069130581088
 20
13.5147902317
 30
0.0
 40
0.225
100
AcDbArc
 50
9.108355752300183
 51
170.8916442477003
  0
LINE
  5
FA
330
1F
100
AcDbEntity
  8
Default
100
AcDbLine
 10
31.89483797227125
 20
13.34026812382748
 30
0.0
 11
31.92852839128918
 21
13.550408196426
 31
0.0
  0
ARC
  5
FB
330
1F
100
AcDbEntity
  8
Default
100
AcDbCircle
 10
31.84546843571911
 20
13.34818322709869
 30
0.0
 40
0.049999999991672
100
AcDbArc
 50
269.633293552224
 51
350.8916442475994
  0
ARC
  5
FC
330
1F
100
AcDbEntity
  8
Default
100
AcDbCircle
 10
32.01155429938444
 20
39.29779605154779
 30
0.0
 40
26.00014432045592
100
AcDbArc
 50
264.6317114663
 51
269.6332936003186
  0
SPLINE
  5
FD
330
1F
100
AcDbEntity
  8
Default
100
AcDbSpline
210
0.0
220
0.0
230
1.0
 70
     8
 71
     3
 72
     8
 73
     4
 74
     0
 42
0.0000000001
 43
0.0000000001
 40
-1.0
 40
-1.0
 40
-1.0
 40
-1.0
 40
0.0
 40
0.0
 40
0.0
 40
0.0
 10
29.53442736981089
 20
13.45234543880001
 30
0.0
 10
29.53809432801992
 20
13.43256030286083
 30
0.0
 10
29.55901754303063
 20
13.41357357836046
 30
0.0
 10
29.57905136759541
 20
13.41169101097875
 30
0.0
  0
LINE
  5
FE
330
1F
100
AcDbEntity
  8
Default
100
AcDbLine
 10
29.44928635251088
 20
13.91172525860001
 30
0.0
 11
29.53442736981089
 21
13.45234543880001
 31
0.0
  0
LINE
  5
FF
330
1F
100
AcDbEntity
  8
Default
  6
Continuous
100
AcDbLine
 10
36.84264427151088
 20
14.2345262366
 30
0.0
 11
36.83446563641088
 21
14.4218477782
 31
0.0
  0
LINE
  5
100
330
1F
100
AcDbEntity
  8
Default
  6
Continuous
100
AcDbLine
 10
29.44928551211088
 20
13.91172522190001
 30
0.0
 11
36.84264427151088
 21
14.2345262366
 31
0.0
  0
ARC
  5
101
330
1F
100
AcDbEntity
  8
Default
  6
Continuous
100
AcDbCircle
 10
31.5535023384207
 20
-2.778381312147573
 30
0.0
 40
10.98124727967684
100
AcDbArc
 50
73.42337538366012
 51
77.32515280360322
  0
LINE
  5
102
330
1F
100
AcDbEntity
  8
Default
  6
Continuous
100
AcDbLine
 10
44.54697804321088
 20
4.811295720400011
 30
0.0
 11
34.68642330311089
 21
7.746474888600005
 31
0.0
  0
ARC
  5
103
330
1F
100
AcDbEntity
  8
Default
  6
Continuous
100
AcDbCircle
 10
40.30121937253811
 20
-9.452070631813228
 30
0.0
 40
14.88187106472307
100
AcDbArc
 50
71.96247656972996
 51
73.42337538365845
  0
SPLINE
  5
104
330
1F
100
AcDbEntity
  8
Default
  6
Continuous
100
AcDbSpline
210
0.0
220
0.0
230
1.0
 70
     8
 71
     3
 72
    14
 73
    10
 74
     0
 42
0.0000000001
 43
0.0000000001
 40
0.0
 40
0.0
 40
0.0
 40
0.0
 40
1.0
 40
2.0
 40
3.0
 40
4.0
 40
5.0
 40
6.0
 40
7.0
 40
7.0
 40
7.0
 40
7.0
 10
45.25146114252607
 20
2.933344138150545
 30
0.0
 10
45.25313489559535
 20
3.099657240389213
 30
0.0
 10
45.25336764085915
 20
3.349159880345567
 30
0.0
 10
45.25200311549227
 20
3.598587193797542
 30
0.0
 10
45.25071719771876
 20
3.848272326193523
 30
0.0
 10
45.24593834306515
 20
4.096973766899879
 30
0.0
 10
45.25076587932648
 20
4.349311519924804
 30
0.0
 10
45.13418187552362
 20
4.580930770251193
 30
0.0
 10
44.98772927958487
 20
4.671556093438014
 30
0.0
 10
44.90923868501088
 20
4.69841502780001
 30
0.0
  0
ARC
  5
105
330
1F
100
AcDbEntity
  8
Default
  6
Continuous
100
AcDbCircle
 10
8.824477534993505
 20
3.299940484425633
 30
0.0
 40
36.42882824940365
100
AcDbArc
 50
359.2057969871743
 51
359.4234023169068
  0
ARC
  5
106
330
1F
100
AcDbEntity
  8
Default
  6
Continuous
100
AcDbCircle
 10
21.76134732001088
 20
2.785000000000011
 30
0.0
 40
0.01
100
AcDbArc
 50
0.0
 51
90.00000000010178
  0
LINE
  5
107
330
1F
100
AcDbEntity
  8
Default
  6
Continuous
100
AcDbLine
 10
21.77134732001088
 20
2.725000000000009
 30
0.0
 11
21.77134732001088
 21
2.785000000000011
 31
0.0
  0
ARC
  5
108
330
1F
100
AcDbEntity
  8
Default
  6
Continuous
100
AcDbCircle
 10
21.76134732001088
 20
2.725000000000009
 30
0.0
 40
0.01
100
AcDbArc
 50
270.0
 51
0.0
  0
LINE
  5
109
330
1F
100
AcDbEntity
  8
Default
  6
Continuous
100
AcDbLine
 10
21.21434732001087
 20
2.715000000000011
 30
0.0
 11
21.76134732001088
 21
2.715000000000011
 31
0.0
  0
ARC
  5
10A
330
1F
100
AcDbEntity
  8
Default
  6
Continuous
100
AcDbCircle
 10
21.21434732001087
 20
2.725000000000009
 30
0.0
 40
0.01
100
AcDbArc
 50
180.0
 51
270.0
  0
LINE
  5
10B
330
1F
100
AcDbEntity
  8
Default
  6
Continuous
100
AcDbLine
 10
36.57803529171088
 20
2.560000000000009
 30
0.0
 11
36.57803529171088
 21
1.280000000000008
 31
0.0
  0
LINE
  5
10C
330
1F
100
AcDbEntity
  8
Default
  6
Continuous
100
AcDbLine
 10
31.29144209401088
 20
8.793331113700006
 30
0.0
 11
31.17229129771088
 21
8.67417959880001
 31
0.0
  0
LINE
  5
10D
330
1F
100
AcDbEntity
  8
Default
  6
Continuous
100
AcDbLine
 10
31.59951020351087
 20
10.79979023170001
 30
0.0
 11
31.59951020351087
 21
8.793333538800006
 31
0.0
  0
LINE
  5
10E
330
1F
100
AcDbEntity
  8
Default
  6
Continuous
100
AcDbLine
 10
31.61431562391088
 20
11.3895746435
 30
0.0
 11
31.59951020351087
 21
10.79979023170001
 31
0.0
  0
SPLINE
  5
10F
330
1F
100
AcDbEntity
  8
Default
100
AcDbSpline
210
0.0
220
0.0
230
1.0
 70
    15
 71
     2
 72
    12
 73
     9
 74
     0
 42
0.0000000001
 43
0.0000000001
 40
0.0
 40
0.0
 40
0.0
 40
1.570796326794897
 40
1.570796326794897
 40
3.141592653589793
 40
3.141592653589793
 40
4.71238898038469
 40
4.71238898038469
 40
6.283185307179586
 40
6.283185307179586
 40
6.283185307179586
 10
32.46215863102088
 20
13.01450304374117
 30
0.0
 41
1.0
 10
32.46200975767555
 20
12.85327785179153
 30
0.0
 41
0.7071067811865475
 10
32.15054317112308
 20
12.85356545617974
 30
0.0
 41
1.0
 10
31.83907658457057
 20
12.85385306056796
 30
0.0
 41
0.7071067811865475
 10
31.83922545791589
 20
13.0150782525176
 30
0.0
 41
1.0
 10
31.8393743312612
 20
13.17630344446724
 30
0.0
 41
0.7071067811865475
 10
32.1508409178137
 20
13.17601584007902
 30
0.0
 41
1.0
 10
32.46230750436619
 20
13.17572823569081
 30
0.0
 41
0.7071067811865475
 10
32.46215863102088
 20
13.01450304374117
 30
0.0
 41
1.0
  0
LINE
  5
110
330
1F
100
AcDbEntity
  8
Default
  6
Continuous
100
AcDbLine
 10
32.70187240821087
 20
10.79979023170001
 30
0.0
 11
32.70187240821087
 21
8.793333538800006
 31
0.0
  0
LINE
  5
111
330
1F
100
AcDbEntity
  8
Default
  6
Continuous
100
AcDbLine
 10
32.68706698781088
 20
11.3895746435
 30
0.0
 11
32.70187240821087
 21
10.79979023170001
 31
0.0
  0
LINE
  5
112
330
1F
100
AcDbEntity
  8
Default
  6
Continuous
100
AcDbLine
 10
25.65695690081088
 20
6.636605762900004
 30
0.0
 11
25.65699650831088
 21
6.636621328200007
 31
0.0
  0
SPLINE
  5
113
330
1F
100
AcDbEntity
  8
Default
  6
Continuous
100
AcDbSpline
210
0.0
220
0.0
230
1.0
 70
     8
 71
     3
 72
    15
 73
    11
 74
     0
 42
0.0000000001
 43
0.0000000001
 40
0.0
 40
0.0
 40
0.0
 40
0.0
 40
1.0
 40
2.0
 40
3.0
 40
4.0
 40
5.0
 40
6.0
 40
7.0
 40
8.0
 40
8.0
 40
8.0
 40
8.0
 10
33.05069365221088
 20
11.3897902317
 30
0.0
 10
33.08510921438958
 20
11.5607704030349
 30
0.0
 10
33.37910800831807
 20
11.75741783715142
 30
0.0
 10
33.81075511109655
 20
11.99754005491091
 30
0.0
 10
34.26254439551056
 20
12.21992820451987
 30
0.0
 10
34.71042608480508
 20
12.44414377988383
 30
0.0
 10
35.1528001282752
 20
12.68076442572471
 30
0.0
 10
35.58086620059419
 20
12.94246592901501
 30
0.0
 10
35.98073130518968
 20
13.24685668375252
 30
0.0
 10
36.20206977874624
 20
13.50192620557358
 30
0.0
 10
36.28011833101088
 20
13.65045653110001
 30
0.0
  0
LINE
  5
114
330
1F
100
AcDbEntity
  8
Default
  6
Continuous
100
AcDbLine
 10
31.25068880011088
 20
11.3897902317
 30
0.0
 11
33.05069365221088
 21
11.3897902317
 31
0.0
  0
SPLINE
  5
115
330
1F
100
AcDbEntity
  8
Default
  6
Continuous
100
AcDbSpline
210
0.0
220
0.0
230
1.0
 70
     8
 71
     3
 72
    11
 73
     7
 74
     0
 42
0.0000000001
 43
0.0000000001
 40
0.0
 40
0.0
 40
0.0
 40
0.0
 40
1.0
 40
2.0
 40
3.0
 40
4.0
 40
4.0
 40
4.0
 40
4.0
 10
29.93581401111088
 20
13.38065868370001
 30
0.0
 10
30.02641885022813
 20
13.20235674775952
 30
0.0
 10
30.24019096922549
 20
12.86409228481595
 30
0.0
 10
30.60310048439239
 20
12.38557900058775
 30
0.0
 10
30.9673689920653
 20
11.91363857461869
 30
0.0
 10
31.21404636962417
 20
11.58876943638701
 30
0.0
 10
31.25068880011088
 20
11.3897902317
 30
0.0
  0
CIRCLE
  5
116
330
1F
100
AcDbEntity
  8
Default
  6
Continuous
100
AcDbCircle
 10
35.29803529171087
 20
1.280000000000008
 30
0.0
 40
1.08
  0
ARC
  5
117
330
1F
100
AcDbEntity
  8
Default
  6
Continuous
100
AcDbCircle
 10
36.49703529171089
 20
2.785000000000011
 30
0.0
 40
0.01
100
AcDbArc
 50
0.0
 51
90.00000000008143
  0
ARC
  5
118
330
1F
100
AcDbEntity
  8
Default
  6
Continuous
100
AcDbCircle
 10
35.95003529171088
 20
2.785000000000011
 30
0.0
 40
0.01
100
AcDbArc
 50
90.0
 51
180.0
  0
ARC
  5
119
330
1F
100
AcDbEntity
  8
Default
  6
Continuous
100
AcDbCircle
 10
35.95003529171088
 20
2.725000000000009
 30
0.0
 40
0.01
100
AcDbArc
 50
180.0
 51
270.0
  0
ARC
  5
11A
330
1F
100
AcDbEntity
  8
Default
  6
Continuous
100
AcDbCircle
 10
36.49703529171089
 20
2.725000000000009
 30
0.0
 40
0.01
100
AcDbArc
 50
270.0
 51
0.0
  0
CIRCLE
  5
11B
330
1F
100
AcDbEntity
  8
Default
  6
Continuous
100
AcDbCircle
 10
44.40519130581089
 20
1.280000000000008
 30
0.0
 40
1.28
  0
CIRCLE
  5
11C
330
1F
100
AcDbEntity
  8
Default
  6
Continuous
100
AcDbCircle
 10
44.40519130581089
 20
1.280000000000008
 30
0.0
 40
1.08
  0
ARC
  5
11D
330
1F
100
AcDbEntity
  8
Default
  6
Continuous
100
AcDbCircle
 10
45.05719130581087
 20
2.785000000000011
 30
0.0
 40
0.01
100
AcDbArc
 50
90.0
 51
180.0
  0
ARC
  5
11E
330
1F
100
AcDbEntity
  8
Default
  6
Continuous
100
AcDbCircle
 10
45.05719130581087
 20
2.725000000000009
 30
0.0
 40
0.01
100
AcDbArc
 50
180.0
 51
270.0000000000814
  0
ARC
  5
11F
330
1F
100
AcDbEntity
  8
Default
  6
Continuous
100
AcDbCircle
 10
45.60419130581089
 20
2.785000000000011
 30
0.0
 40
0.01
100
AcDbArc
 50
0.0
 51
90.00000000008143
  0
CIRCLE
  5
120
330
1F
100
AcDbEntity
  8
Default
  6
Continuous
100
AcDbCircle
 10
35.29803529171087
 20
1.280000000000008
 30
0.0
 40
1.28
  0
LINE
  5
121
330
1F
100
AcDbEntity
  8
Default
  6
Continuous
100
AcDbLine
 10
45.61419130581088
 20
2.785000000000011
 30
0.0
 11
45.61419130581088
 21
2.725000000000009
 31
0.0
  0
ARC
  5
122
330
1F
100
AcDbEntity
  8
Default
  6
Continuous
100
AcDbCircle
 10
30.39739948711087
 20
11.3890934643
 30
0.0
 40
1.2193874361
100
AcDbArc
 50
0.0327392560001277
 51
1.067967634200175
  0
ARC
  5
123
330
1F
100
AcDbEntity
  8
Default
  6
Continuous
100
AcDbCircle
 10
33.26049607401089
 20
6.595000000000006
 30
0.0
 40
0.07
100
AcDbArc
 50
270.0
 51
306.2054291481011
  0
LINE
  5
124
330
1F
100
AcDbEntity
  8
Default
  6
Continuous
100
AcDbLine
 10
45.66069130581089
 20
2.685000000000009
 30
0.0
 11
45.66069130581089
 21
2.560000000000009
 31
0.0
  0
ARC
  5
125
330
1F
100
AcDbEntity
  8
Default
  6
Continuous
100
AcDbCircle
 10
45.60419130581089
 20
2.725000000000009
 30
0.0
 40
0.01
100
AcDbArc
 50
270.0
 51
0.0
  0
LINE
  5
126
330
1F
100
AcDbEntity
  8
Default
  6
Continuous
100
AcDbLine
 10
35.29803529171087
 20
2.560000000000009
 30
0.0
 11
36.57802562911088
 21
2.560000000000009
 31
0.0
  0
LINE
  5
127
330
1F
100
AcDbEntity
  8
Default
  6
Continuous
100
AcDbLine
 10
35.89353529171088
 20
2.685000000000009
 30
0.0
 11
36.55353529171089
 21
2.685000000000009
 31
0.0
  0
LINE
  5
128
330
1F
100
AcDbEntity
  8
Default
  6
Continuous
100
AcDbLine
 10
45.00069130581088
 20
2.685000000000009
 30
0.0
 11
45.66069130581089
 21
2.685000000000009
 31
0.0
  0
LINE
  5
129
330
1F
100
AcDbEntity
  8
Default
  6
Continuous
100
AcDbLine
 10
21.15784732001087
 20
2.685000000000009
 30
0.0
 11
21.15784732001087
 21
2.560000000000009
 31
0.0
  0
LINE
  5
12A
330
1F
100
AcDbEntity
  8
Default
  6
Continuous
100
AcDbLine
 10
31.29145219711089
 20
8.793333538800006
 30
0.0
 11
33.00993041461088
 21
8.793333538800006
 31
0.0
  0
LINE
  5
12B
330
1F
100
AcDbEntity
  8
Default
  6
Continuous
100
AcDbLine
 10
20.56234732001087
 20
2.560000000000009
 30
0.0
 11
21.84233765731088
 21
2.560000000000009
 31
0.0
  0
LINE
  5
12C
330
1F
100
AcDbEntity
  8
Default
  6
Continuous
100
AcDbLine
 10
21.15784732001087
 20
2.685000000000009
 30
0.0
 11
21.81784732001088
 21
2.685000000000009
 31
0.0
  0
LINE
  5
12D
330
1F
100
AcDbEntity
  8
Default
  6
Continuous
100
AcDbLine
 10
36.49703529171089
 20
2.715000000000003
 30
0.0
 11
35.95003529171088
 21
2.715000000000003
 31
0.0
  0
LINE
  5
12E
330
1F
100
AcDbEntity
  8
Default
  6
Continuous
100
AcDbLine
 10
21.84234732001087
 20
2.560000000000009
 30
0.0
 11
21.84234732001087
 21
1.280000000000008
 31
0.0
  0
LINE
  5
12F
330
1F
100
AcDbEntity
  8
Default
  6
Continuous
100
AcDbLine
 10
45.04719130581088
 20
2.725000000000009
 30
0.0
 11
45.04719130581088
 21
2.785000000000011
 31
0.0
  0
LINE
  5
130
330
1F
100
AcDbEntity
  8
Default
  6
Continuous
100
AcDbLine
 10
44.40519130581089
 20
2.560000000000009
 30
0.0
 11
45.68518164321088
 21
2.560000000000009
 31
0.0
  0
LINE
  5
131
330
1F
100
AcDbEntity
  8
Default
  6
Continuous
100
AcDbLine
 10
29.49963984291088
 20
13.91392373950001
 30
0.0
 11
29.49146120781089
 21
14.10124528110001
 31
0.0
  0
LINE
  5
132
330
1F
100
AcDbEntity
  8
Default
  6
Continuous
100
AcDbLine
 10
45.60419130581089
 20
2.715000000000003
 30
0.0
 11
45.05719130581087
 21
2.715000000000003
 31
0.0
  0
LINE
  5
133
330
1F
100
AcDbEntity
  8
Default
  6
Continuous
100
AcDbLine
 10
21.81784732001088
 20
2.685000000000009
 30
0.0
 11
21.81784732001088
 21
2.560000000000009
 31
0.0
  0
LINE
  5
134
330
1F
100
AcDbEntity
  8
Default
  6
Continuous
100
AcDbLine
 10
33.00994051771089
 20
8.793331113700006
 30
0.0
 11
33.12864873231088
 21
8.674622183200007
 31
0.0
  0
LINE
  5
135
330
1F
100
AcDbEntity
  8
Default
  6
Continuous
100
AcDbLine
 10
45.68519130581087
 20
2.560000000000009
 30
0.0
 11
45.68519130581087
 21
1.280000000000008
 31
0.0
  0
LINE
  5
136
330
1F
100
AcDbEntity
  8
Default
  6
Continuous
100
AcDbLine
 10
45.00069130581088
 20
2.685000000000009
 30
0.0
 11
45.00069130581088
 21
2.560000000000009
 31
0.0
  0
LINE
  5
137
330
1F
100
AcDbEntity
  8
Default
  6
Continuous
100
AcDbLine
 10
45.04719130581088
 20
2.785000000000011
 30
0.0
 11
45.04719130581088
 21
2.725000000000009
 31
0.0
  0
CIRCLE
  5
138
330
1F
100
AcDbEntity
  8
Default
  6
Continuous
100
AcDbCircle
 10
20.56234732001087
 20
1.280000000000008
 30
0.0
 40
1.08
  0
CIRCLE
  5
139
330
1F
100
AcDbEntity
  8
Default
  6
Continuous
100
AcDbCircle
 10
20.56234732001087
 20
1.280000000000008
 30
0.0
 40
1.28
  0
LINE
  5
13A
330
1F
100
AcDbEntity
  8
Default
  6
Continuous
100
AcDbLine
 10
35.89353529171088
 20
2.685000000000009
 30
0.0
 11
35.89353529171088
 21
2.560000000000009
 31
0.0
  0
LINE
  5
13B
330
1F
100
AcDbEntity
  8
Default
  6
Continuous
100
AcDbLine
 10
35.94003529171088
 20
2.785000000000011
 30
0.0
 11
35.94003529171088
 21
2.725000000000009
 31
0.0
  0
LINE
  5
13C
330
1F
100
AcDbEntity
  8
Default
  6
Continuous
100
AcDbLine
 10
35.94003529171088
 20
2.725000000000009
 30
0.0
 11
35.94003529171088
 21
2.785000000000011
 31
0.0
  0
LINE
  5
13D
330
1F
100
AcDbEntity
  8
Default
100
AcDbLine
 10
1.109804768199979
 20
6.524995106100008
 30
0.0
 11
0.7265515378999794
 21
6.524995106100008
 31
0.0
  0
ARC
  5
13E
330
1F
100
AcDbEntity
  8
Default
100
AcDbCircle
 10
1.109804768199979
 20
6.594995106100008
 30
0.0
 40
0.07
100
AcDbArc
 50
270.0000000000011
 51
359.7500000000011
  0
LINE
  5
13F
330
1F
100
AcDbEntity
  8
Default
100
AcDbLine
 10
1.180791523450011
 20
6.820988784050009
 30
0.0
 11
1.179804101850436
 21
6.594689674450073
 31
0.0
  0
SPLINE
  5
140
330
1F
100
AcDbEntity
  8
Default
100
AcDbSpline
210
0.0
220
0.0
230
1.0
 70
     8
 71
     3
 72
    11
 73
     7
 74
     0
 42
0.0000000001
 43
0.0000000001
 40
0.0
 40
0.0
 40
0.0
 40
0.0
 40
1.0
 40
2.0
 40
3.0
 40
4.0
 40
4.0
 40
4.0
 40
4.0
 10
1.857655873999988
 20
7.201633368500005
 30
0.0
 10
1.783762284201316
 20
7.22321601346998
 30
0.0
 10
1.627795442990475
 20
7.233296581149823
 30
0.0
 10
1.40285630883551
 20
7.190118486398987
 30
0.0
 10
1.185860340872694
 20
7.069676721930264
 30
0.0
 10
1.183401655086925
 20
6.894411026196167
 30
0.0
 10
1.180791523450011
 20
6.820988784050009
 30
0.0
  0
SPLINE
  5
141
330
1F
100
AcDbEntity
  8
Default
100
AcDbSpline
210
0.0
220
0.0
230
1.0
 70
     8
 71
     3
 72
     9
 73
     5
 74
     0
 42
0.0000000001
 43
0.0000000001
 40
0.0
 40
0.0
 40
0.0
 40
0.0
 40
0.9999851745436164
 40
2.0
 40
2.0
 40
2.0
 40
2.0
 10
11.66185738649999
 20
4.392941643500009
 30
0.0
 10
10.02792861142775
 20
4.861331424882053
 30
0.0
 10
6.759844832358027
 20
5.797505143502953
 30
0.0
 10
3.491952803121336
 20
6.734349222797555
 30
0.0
 10
1.857655873999988
 20
7.201633368500005
 30
0.0
  0
SPLINE
  5
142
330
1F
100
AcDbEntity
  8
Default
100
AcDbSpline
210
0.0
220
0.0
230
1.0
 70
     8
 71
     3
 72
    12
 73
     8
 74
     0
 42
0.0000000001
 43
0.0000000001
 40
0.0
 40
0.0
 40
0.0
 40
0.0
 40
1.000170254820936
 40
2.000340509641872
 40
3.000510764462808
 40
4.000681019283745
 40
5.0
 40
5.0
 40
5.0
 40
5.0
 10
12.0844900406
 20
3.708945137800015
 30
0.0
 10
12.07971025685289
 20
3.76805916706585
 30
0.0
 10
12.06844421996048
 20
3.885452663700235
 30
0.0
 10
12.06009108447536
 20
4.064848282390059
 30
0.0
 10
11.97499730314522
 20
4.226761072480116
 30
0.0
 10
11.82995366374621
 20
4.334396880464851
 30
0.0
 10
11.71869392560868
 20
4.376507300975454
 30
0.0
 10
11.66185738649999
 20
4.392941643500009
 30
0.0
  0
SPLINE
  5
143
330
1F
100
AcDbEntity
  8
Default
100
AcDbSpline
210
0.0
220
0.0
230
1.0
 70
     8
 71
     3
 72
     8
 73
     4
 74
     0
 42
0.0000000001
 43
0.0000000001
 40
0.0
 40
0.0
 40
0.0
 40
0.0
 40
1.0
 40
1.0
 40
1.0
 40
1.0
 10
12.15540933999999
 20
2.850086476200005
 30
0.0
 10
12.13194791772355
 20
3.136387440867082
 30
0.0
 10
12.10809264045707
 20
3.422655845220433
 30
0.0
 10
12.0844900406
 20
3.708945137800015
 30
0.0
  0
SPLINE
  5
144
330
1F
100
AcDbEntity
  8
Default
100
AcDbSpline
210
0.0
220
0.0
230
1.0
 70
     8
 71
     3
 72
     8
 73
     4
 74
     0
 42
0.0000000001
 43
0.0000000001
 40
0.0
 40
0.0
 40
0.0
 40
0.0
 40
1.0
 40
1.0
 40
1.0
 40
1.0
 10
12.2152381508
 20
2.794995106100011
 30
0.0
 10
12.1881281984224
 20
2.794995106100011
 30
0.0
 10
12.15762348956036
 20
2.823067093164127
 30
0.0
 10
12.15540933999999
 20
2.850086476200005
 30
0.0
  0
LINE
  5
145
330
1F
100
AcDbEntity
  8
Default
100
AcDbLine
 10
12.8491337721
 20
2.794995106100011
 30
0.0
 11
12.2152381508
 21
2.794995106100011
 31
0.0
  0
SPLINE
  5
146
330
1F
100
AcDbEntity
  8
Default
100
AcDbSpline
210
0.0
220
0.0
230
1.0
 70
     8
 71
     3
 72
     8
 73
     4
 74
     0
 42
0.0000000001
 43
0.0000000001
 40
0.0
 40
0.0
 40
0.0
 40
0.0
 40
1.0
 40
1.0
 40
1.0
 40
1.0
 10
12.9089806179
 20
2.855417227200007
 30
0.0
 10
12.90925483807187
 20
2.815978304220927
 30
0.0
 10
12.88854161862612
 20
2.794995106100011
 30
0.0
 10
12.8491337721
 20
2.794995106100011
 30
0.0
  0
SPLINE
  5
147
330
1F
100
AcDbEntity
  8
Default
100
AcDbSpline
210
0.0
220
0.0
230
1.0
 70
     8
 71
     3
 72
     8
 73
     4
 74
     0
 42
0.0000000001
 43
0.0000000001
 40
0.0
 40
0.0
 40
0.0
 40
0.0
 40
1.0
 40
1.0
 40
1.0
 40
1.0
 10
12.9057229618
 20
3.435323524800012
 30
0.0
 10
12.90644516811693
 20
3.242019578361628
 30
0.0
 10
12.90763659281954
 20
3.04871774651857
 30
0.0
 10
12.9089806179
 20
2.855417227200007
 30
0.0
  0
SPLINE
  5
148
330
1F
100
AcDbEntity
  8
Default
100
AcDbSpline
210
0.0
220
0.0
230
1.0
 70
     8
 71
     3
 72
    13
 73
     9
 74
     0
 42
0.0000000001
 43
0.0000000001
 40
0.0
 40
0.0
 40
0.0
 40
0.0
 40
1.0
 40
2.0
 40
3.0
 40
4.0
 40
5.0
 40
6.0
 40
6.0
 40
6.0
 40
6.0
 10
12.35631429425
 20
5.053592463750007
 30
0.0
 10
12.45334407821046
 20
5.020661781313443
 30
0.0
 10
12.64681382749183
 20
4.919246113313719
 30
0.0
 10
12.835162349315
 20
4.665329959030117
 30
0.0
 10
12.90910342954815
 20
4.361509810235539
 30
0.0
 10
12.90244185947874
 20
4.052198004830025
 30
0.0
 10
12.90496671017061
 20
3.743897032119527
 30
0.0
 10
12.90529764337974
 20
3.538153445473434
 30
0.0
 10
12.9057229618
 20
3.435323524800012
 30
0.0
  0
SPLINE
  5
149
330
1F
100
AcDbEntity
  8
Default
100
AcDbSpline
210
0.0
220
0.0
230
1.0
 70
     8
 71
     3
 72
    12
 73
     8
 74
     0
 42
0.0000000001
 43
0.0000000001
 40
0.0
 40
0.0
 40
0.0
 40
0.0
 40
1.0
 40
2.0
 40
3.0
 40
4.0
 40
5.0
 40
5.0
 40
5.0
 40
5.0
 10
1.042461644900015
 20
8.67406825830001
 30
0.0
 10
1.811257779830044
 20
8.484242885673794
 30
0.0
 10
3.312337062768648
 20
7.979227481966014
 30
0.0
 10
5.571202431292477
 20
7.24858390360103
 30
0.0
 10
7.829625278829099
 20
6.515346367683307
 30
0.0
 10
10.08897954118056
 20
5.785316963885109
 30
0.0
 10
11.60683940954512
 20
5.307954767931321
 30
0.0
 10
12.35631429425
 20
5.053592463750007
 30
0.0
  0
POLYLINE
  5
14A
330
1F
100
AcDbEntity
  8
Default
100
AcDb2dPolyline
 66
     1
 10
0.0
 20
0.0
 30
0.0
  0
VERTEX
  5
14B
330
14A
100
AcDbEntity
  8
Default
100
AcDbVertex
100
AcDb2dVertex
 10
-1.042461644900015
 20
8.67406825830001
 30
0.0
  0
VERTEX
  5
14C
330
14A
100
AcDbEntity
  8
Default
100
AcDbVertex
100
AcDb2dVertex
 10
1.042461644900015
 20
8.67406825830001
 30
0.0
  0
SEQEND
  5
14D
330
14A
100
AcDbEntity
  8
Default
  0
SPLINE
  5
14E
330
1F
100
AcDbEntity
  8
Default
100
AcDbSpline
210
0.0
220
0.0
230
1.0
 70
     8
 71
     3
 72
    12
 73
     8
 74
     0
 42
0.0000000001
 43
0.0000000001
 40
-5.0
 40
-5.0
 40
-5.0
 40
-5.0
 40
-4.0
 40
-3.0
 40
-2.0
 40
-1.0
 40
0.0
 40
0.0
 40
0.0
 40
0.0
 10
-12.35631429425001
 20
5.053592463750007
 30
0.0
 10
-11.6068394095451
 20
5.307954767931321
 30
0.0
 10
-10.08897954118055
 20
5.785316963885109
 30
0.0
 10
-7.829625278829099
 20
6.515346367683307
 30
0.0
 10
-5.571202431292477
 20
7.24858390360103
 30
0.0
 10
-3.312337062768648
 20
7.979227481966014
 30
0.0
 10
-1.811257779830044
 20
8.484242885673794
 30
0.0
 10
-1.042461644900015
 20
8.67406825830001
 30
0.0
  0
SPLINE
  5
14F
330
1F
100
AcDbEntity
  8
Default
100
AcDbSpline
210
0.0
220
0.0
230
1.0
 70
     8
 71
     3
 72
    13
 73
     9
 74
     0
 42
0.0000000001
 43
0.0000000001
 40
-6.0
 40
-6.0
 40
-6.0
 40
-6.0
 40
-5.0
 40
-4.0
 40
-3.0
 40
-2.0
 40
-1.0
 40
0.0
 40
0.0
 40
0.0
 40
0.0
 10
-12.9057229618
 20
3.435323524800012
 30
0.0
 10
-12.90529764337975
 20
3.538153445473434
 30
0.0
 10
-12.90496671017061
 20
3.743897032119527
 30
0.0
 10
-12.90244185947876
 20
4.052198004830025
 30
0.0
 10
-12.90910342954817
 20
4.361509810235539
 30
0.0
 10
-12.835162349315
 20
4.665329959030117
 30
0.0
 10
-12.64681382749183
 20
4.919246113313719
 30
0.0
 10
-12.45334407821048
 20
5.020661781313443
 30
0.0
 10
-12.35631429425001
 20
5.053592463750007
 30
0.0
  0
SPLINE
  5
150
330
1F
100
AcDbEntity
  8
Default
100
AcDbSpline
210
0.0
220
0.0
230
1.0
 70
     8
 71
     3
 72
     8
 73
     4
 74
     0
 42
0.0000000001
 43
0.0000000001
 40
-1.0
 40
-1.0
 40
-1.0
 40
-1.0
 40
0.0
 40
0.0
 40
0.0
 40
0.0
 10
-12.9089806179
 20
2.855417227200007
 30
0.0
 10
-12.90763659281953
 20
3.04871774651857
 30
0.0
 10
-12.90644516811693
 20
3.242019578361628
 30
0.0
 10
-12.9057229618
 20
3.435323524800012
 30
0.0
  0
SPLINE
  5
151
330
1F
100
AcDbEntity
  8
Default
100
AcDbSpline
210
0.0
220
0.0
230
1.0
 70
     8
 71
     3
 72
     8
 73
     4
 74
     0
 42
0.0000000001
 43
0.0000000001
 40
-1.0
 40
-1.0
 40
-1.0
 40
-1.0
 40
0.0
 40
0.0
 40
0.0
 40
0.0
 10
-12.8491337721
 20
2.794995106100011
 30
0.0
 10
-12.88854161862611
 20
2.794995106100011
 30
0.0
 10
-12.90925483807189
 20
2.815978304220927
 30
0.0
 10
-12.9089806179
 20
2.855417227200007
 30
0.0
  0
LINE
  5
152
330
1F
100
AcDbEntity
  8
Default
100
AcDbLine
 10
-12.21523815080002
 20
2.794995106100011
 30
0.0
 11
-12.8491337721
 21
2.794995106100011
 31
0.0
  0
SPLINE
  5
153
330
1F
100
AcDbEntity
  8
Default
100
AcDbSpline
210
0.0
220
0.0
230
1.0
 70
     8
 71
     3
 72
     8
 73
     4
 74
     0
 42
0.0000000001
 43
0.0000000001
 40
-1.0
 40
-1.0
 40
-1.0
 40
-1.0
 40
0.0
 40
0.0
 40
0.0
 40
0.0
 10
-12.15540934000001
 20
2.850086476200005
 30
0.0
 10
-12.15762348956036
 20
2.823067093164127
 30
0.0
 10
-12.18812819842242
 20
2.794995106100011
 30
0.0
 10
-12.21523815080002
 20
2.794995106100011
 30
0.0
  0
SPLINE
  5
154
330
1F
100
AcDbEntity
  8
Default
100
AcDbSpline
210
0.0
220
0.0
230
1.0
 70
     8
 71
     3
 72
     8
 73
     4
 74
     0
 42
0.0000000001
 43
0.0000000001
 40
-1.0
 40
-1.0
 40
-1.0
 40
-1.0
 40
0.0
 40
0.0
 40
0.0
 40
0.0
 10
-12.0844900406
 20
3.708945137800015
 30
0.0
 10
-12.10809264045707
 20
3.422655845220433
 30
0.0
 10
-12.13194791772355
 20
3.136387440867082
 30
0.0
 10
-12.15540934000001
 20
2.850086476200005
 30
0.0
  0
SPLINE
  5
155
330
1F
100
AcDbEntity
  8
Default
100
AcDbSpline
210
0.0
220
0.0
230
1.0
 70
     8
 71
     3
 72
    12
 73
     8
 74
     0
 42
0.0000000001
 43
0.0000000001
 40
-5.0
 40
-5.0
 40
-5.0
 40
-5.0
 40
-4.000681019283745
 40
-3.000510764462808
 40
-2.000340509641872
 40
-1.000170254820936
 40
0.0
 40
0.0
 40
0.0
 40
0.0
 10
-11.6618573865
 20
4.392941643500009
 30
0.0
 10
-11.71869392560868
 20
4.376507300975454
 30
0.0
 10
-11.82995366374621
 20
4.334396880464851
 30
0.0
 10
-11.97499730314522
 20
4.226761072480116
 30
0.0
 10
-12.06009108447535
 20
4.064848282390059
 30
0.0
 10
-12.0684442199605
 20
3.885452663700235
 30
0.0
 10
-12.07971025685288
 20
3.76805916706585
 30
0.0
 10
-12.0844900406
 20
3.708945137800015
 30
0.0
  0
SPLINE
  5
156
330
1F
100
AcDbEntity
  8
Default
100
AcDbSpline
210
0.0
220
0.0
230
1.0
 70
     8
 71
     3
 72
     9
 73
     5
 74
     0
 42
0.0000000001
 43
0.0000000001
 40
-2.0
 40
-2.0
 40
-2.0
 40
-2.0
 40
-0.9999851745436164
 40
0.0
 40
0.0
 40
0.0
 40
0.0
 10
-1.857655873999988
 20
7.201633368500005
 30
0.0
 10
-3.491952803121336
 20
6.734349222797555
 30
0.0
 10
-6.759844832358027
 20
5.797505143502953
 30
0.0
 10
-10.02792861142774
 20
4.861331424882053
 30
0.0
 10
-11.6618573865
 20
4.392941643500009
 30
0.0
  0
SPLINE
  5
157
330
1F
100
AcDbEntity
  8
Default
100
AcDbSpline
210
0.0
220
0.0
230
1.0
 70
     8
 71
     3
 72
    11
 73
     7
 74
     0
 42
0.0000000001
 43
0.0000000001
 40
-4.0
 40
-4.0
 40
-4.0
 40
-4.0
 40
-3.0
 40
-2.0
 40
-1.0
 40
0.0
 40
0.0
 40
0.0
 40
0.0
 10
-1.180791523450011
 20
6.820988784050009
 30
0.0
 10
-1.183401655086925
 20
6.894411026196167
 30
0.0
 10
-1.185860340872694
 20
7.069676721930264
 30
0.0
 10
-1.40285630883551
 20
7.190118486398987
 30
0.0
 10
-1.627795442990475
 20
7.233296581149823
 30
0.0
 10
-1.783762284201316
 20
7.22321601346998
 30
0.0
 10
-1.857655873999988
 20
7.201633368500005
 30
0.0
  0
LINE
  5
158
330
1F
100
AcDbEntity
  8
Default
100
AcDbLine
 10
-1.179804101850436
 20
6.594689674450073
 30
0.0
 11
-1.180791523450011
 21
6.820988784050009
 31
0.0
  0
ARC
  5
159
330
1F
100
AcDbEntity
  8
Default
100
AcDbCircle
 10
-1.109804768199979
 20
6.594995106100008
 30
0.0
 40
0.07
100
AcDbArc
 50
180.2499999999989
 51
269.9999999999989
  0
LINE
  5
15A
330
1F
100
AcDbEntity
  8
Default
100
AcDbLine
 10
-0.7265515378999794
 20
6.524995106100008
 30
0.0
 11
-1.109804768199979
 21
6.524995106100008
 31
0.0
  0
ARC
  5
15B
330
1F
100
AcDbEntity
  8
Default
  6
Continuous
100
AcDbCircle
 10
0.2735000001000003
 20
2.784995106100013
 30
0.0
 40
0.01
100
AcDbArc
 50
0.0
 51
90.0
  0
LINE
  5
15C
330
1F
100
AcDbEntity
  8
Default
  6
Continuous
100
AcDbLine
 10
0.2835000000000036
 20
2.72499510610001
 30
0.0
 11
0.2835000001000196
 21
2.784995106100013
 31
0.0
  0
ARC
  5
15D
330
1F
100
AcDbEntity
  8
Default
  6
Continuous
100
AcDbCircle
 10
0.2735000000000127
 20
2.72499510610001
 30
0.0
 40
0.01
100
AcDbArc
 50
270.0
 51
0.0
  0
LINE
  5
15E
330
1F
100
AcDbEntity
  8
Default
  6
Continuous
100
AcDbLine
 10
-0.2735000000000127
 20
2.714995106100012
 30
0.0
 11
0.2735000000000127
 21
2.714995106100012
 31
0.0
  0
ARC
  5
15F
330
1F
100
AcDbEntity
  8
Default
  6
Continuous
100
AcDbCircle
 10
-0.2735000000000127
 20
2.72499510610001
 30
0.0
 40
0.01
100
AcDbArc
 50
180.0
 51
270.0
  0
LINE
  5
160
330
1F
100
AcDbEntity
  8
Default
  6
Continuous
100
AcDbLine
 10
-0.2835000000000036
 20
2.784995106100013
 30
0.0
 11
-0.2835000000000036
 21
2.72499510610001
 31
0.0
  0
ARC
  5
161
330
1F
100
AcDbEntity
  8
Default
  6
Continuous
100
AcDbCircle
 10
-0.2735000000000127
 20
2.784995106100013
 30
0.0
 40
0.01
100
AcDbArc
 50
90.0
 51
180.0
  0
LINE
  5
162
330
1F
100
AcDbEntity
  8
Default
  6
Continuous
100
AcDbLine
 10
0.8592452125000136
 20
8.793327392750008
 30
0.0
 11
0.9804499708000094
 21
8.672124730000007
 31
0.0
  0
LINE
  5
163
330
1F
100
AcDbEntity
  8
Default
  6
Continuous
100
AcDbLine
 10
-0.8592452124499914
 20
8.793327392750008
 30
0.0
 11
0.8592452125000136
 21
8.793327392750008
 31
0.0
  0
LINE
  5
164
330
1F
100
AcDbEntity
  8
Default
  6
Continuous
100
AcDbLine
 10
-0.9804472303999887
 20
8.672127470300005
 30
0.0
 11
-0.8592452124499914
 21
8.793327392750008
 31
0.0
  0
LINE
  5
165
330
1F
100
AcDbEntity
  8
Default
  6
Continuous
100
AcDbLine
 10
-12.11542488470002
 20
2.559987607100012
 30
0.0
 11
-12.11542488470002
 21
0.0000026051000077
 31
0.0
  0
LINE
  5
166
330
1F
100
AcDbEntity
  8
Default
  6
Continuous
100
AcDbLine
 10
-11.73492488469998
 20
2.559995106100011
 30
0.0
 11
-12.11542488470002
 21
2.559987607100012
 31
0.0
  0
ARC
  5
167
330
1F
100
AcDbEntity
  8
Default
  6
Continuous
100
AcDbCircle
 10
-11.73492488469998
 20
2.359995106100008
 30
0.0
 40
0.2
100
AcDbArc
 50
0.0
 51
90.0
  0
LINE
  5
168
330
1F
100
AcDbEntity
  8
Default
  6
Continuous
100
AcDbLine
 10
-11.53492488469999
 20
0.1999951061000118
 30
0.0
 11
-11.53492488469999
 21
2.359995106100008
 31
0.0
  0
ARC
  5
169
330
1F
100
AcDbEntity
  8
Default
  6
Continuous
100
AcDbCircle
 10
-11.73492488469998
 20
0.1999951061000118
 30
0.0
 40
0.2
100
AcDbArc
 50
270.0
 51
0.0
  0
LINE
  5
16A
330
1F
100
AcDbEntity
  8
Default
  6
Continuous
100
AcDbLine
 10
-12.11542488470002
 20
0.0000026051000077
 30
0.0
 11
-11.73492488469998
 21
-0.000004893899991
 31
0.0
  0
POLYLINE
  5
16B
330
1F
100
AcDbEntity
  8
Default
100
AcDb2dPolyline
 66
     1
 10
0.0
 20
0.0
 30
0.0
  0
VERTEX
  5
16C
330
16B
100
AcDbEntity
  8
Default
100
AcDbVertex
100
AcDb2dVertex
 10
-2.632957016446795
 20
13.30102818113606
 30
0.0
  0
VERTEX
  5
16D
330
16B
100
AcDbEntity
  8
Default
100
AcDbVertex
100
AcDb2dVertex
 10
-2.170331625100403
 20
13.30102818113606
 30
0.0
  0
SEQEND
  5
16E
330
16B
100
AcDbEntity
  8
Default
  0
ARC
  5
16F
330
1F
100
AcDbEntity
  8
Default
  6
Continuous
100
AcDbCircle
 10
-13.3349248847
 20
0.1999951061000118
 30
0.0
 40
0.1999999999999886
100
AcDbArc
 50
180.0
 51
270.0000000000041
  0
LINE
  5
170
330
1F
100
AcDbEntity
  8
Default
  6
Continuous
100
AcDbLine
 10
-13.53492488469999
 20
2.359995106100008
 30
0.0
 11
-13.53492488469999
 21
0.1999951061000118
 31
0.0
  0
ARC
  5
171
330
1F
100
AcDbEntity
  8
Default
  6
Continuous
100
AcDbCircle
 10
-13.3349248847
 20
2.359995106100008
 30
0.0
 40
0.2
100
AcDbArc
 50
90.0
 51
180.0
  0
LINE
  5
172
330
1F
100
AcDbEntity
  8
Default
  6
Continuous
100
AcDbLine
 10
-12.95442488470002
 20
2.559987607100012
 30
0.0
 11
-13.3349248847
 21
2.559995106100011
 31
0.0
  0
LINE
  5
173
330
1F
100
AcDbEntity
  8
Default
  6
Continuous
100
AcDbLine
 10
-12.95442488470002
 20
0.0000026051000077
 30
0.0
 11
-12.95442488470002
 21
2.559987607100012
 31
0.0
  0
LINE
  5
174
330
1F
100
AcDbEntity
  8
Default
  6
Continuous
100
AcDbLine
 10
-13.3349248847
 20
-0.000004893899991
 30
0.0
 11
-12.95442488470002
 21
0.0000026051000077
 31
0.0
  0
SPLINE
  5
175
330
1F
100
AcDbEntity
  8
Default
100
AcDbSpline
210
0.0
220
0.0
230
1.0
 70
     8
 71
     3
 72
    12
 73
     8
 74
     0
 42
0.0000000001
 43
0.0000000001
 40
0.0
 40
0.0
 40
0.0
 40
0.0
 40
0.9999999985670698
 40
1.999999998925302
 40
2.999999999283535
 40
3.999999999641767
 40
5.0
 40
5.0
 40
5.0
 40
5.0
 10
11.96824370095
 20
4.698410136850008
 30
0.0
 10
12.09799163249573
 20
4.655465069847892
 30
0.0
 10
12.31217810982653
 20
4.443714974561125
 30
0.0
 10
12.30648617010674
 20
4.019607608746796
 30
0.0
 10
12.32741104334328
 20
3.614491852101686
 30
0.0
 10
12.33791382001139
 20
3.204111672131368
 30
0.0
 10
12.34312356536597
 20
2.93151910649074
 30
0.0
 10
12.34426560133178
 20
2.794995106100011
 30
0.0
  0
SPLINE
  5
176
330
1F
100
AcDbEntity
  8
Default
100
AcDbSpline
210
0.0
220
0.0
230
1.0
 70
     8
 71
     3
 72
     8
 73
     4
 74
     0
 42
0.0000000001
 43
0.0000000001
 40
0.0
 40
0.0
 40
0.0
 40
0.0
 40
1.0
 40
1.0
 40
1.0
 40
1.0
 10
2.147831147399984
 20
7.746446773600006
 30
0.0
 10
5.421306572844799
 20
6.730449905766072
 30
0.0
 10
8.69697918470736
 20
5.721303500045714
 30
0.0
 10
11.96824370095
 20
4.698410136850008
 30
0.0
  0
SPLINE
  5
177
330
1F
100
AcDbEntity
  8
Default
100
AcDbSpline
210
0.0
220
0.0
230
1.0
 70
     8
 71
     3
 72
    12
 73
     8
 74
     0
 42
0.0000000001
 43
0.0000000001
 40
0.0
 40
0.0
 40
0.0
 40
0.0
 40
1.000000663065333
 40
2.000001326130667
 40
3.000001989196
 40
4.000002652261333
 40
5.0
 40
5.0
 40
5.0
 40
5.0
 10
0.8536293587999921
 20
7.746423552500005
 30
0.0
 10
0.8585296482291938
 20
7.850258689756132
 30
0.0
 10
1.036516303620601
 20
7.963400123573741
 30
0.0
 10
1.322763771802954
 20
7.948901119100121
 30
0.0
 10
1.602624667860937
 20
7.904569600638276
 30
0.0
 10
1.876637960074362
 20
7.829347003635966
 30
0.0
 10
2.057461080041264
 20
7.774344971779875
 30
0.0
 10
2.147831147399984
 20
7.746446773600006
 30
0.0
  0
SPLINE
  5
178
330
1F
100
AcDbEntity
  8
Default
100
AcDbSpline
210
0.0
220
0.0
230
1.0
 70
     8
 71
     3
 72
    65
 73
    61
 74
     0
 42
0.0000000001
 43
0.0000000001
 40
-14.96974100552813
 40
-14.96974100552813
 40
-14.96974100552813
 40
-14.96974100552813
 40
-13.96986341876611
 40
-13.96986341876611
 40
-13.96986341876611
 40
-12.96985465602399
 40
-12.96985465602399
 40
-12.96985465602399
 40
-11.96984589328186
 40
-11.96984589328186
 40
-11.96984589328186
 40
-10.96983713053974
 40
-10.96983713053974
 40
-10.96983713053974
 40
-9.969828367797614
 40
-9.969828367797614
 40
-9.969828367797614
 40
-8.96981960505549
 40
-8.96981960505549
 40
-8.96981960505549
 40
-7.969810842313364
 40
-7.969810842313364
 40
-7.969810842313364
 40
-6.969802079571238
 40
-6.969802079571238
 40
-6.969802079571238
 40
-5.969793316829113
 40
-5.969793316829113
 40
-5.969793316829113
 40
-5.827813812910235
 40
-5.685837609120275
 40
-5.543860566022961
 40
-5.472868041039223
 40
-5.401958231680294
 40
-5.331750873876713
 40
-5.263417518194386
 40
-5.198341842358016
 40
-5.137982188746572
 40
-5.083931186015723
 40
-5.03751217106143
 40
-4.999388072292711
 40
-4.969784554086988
 40
-4.969784554086988
 40
-4.969784554086988
 40
-4.675504312021513
 40
-4.675504312021513
 40
-4.675504312021513
 40
-3.675495549279388
 40
-3.675495549279388
 40
-3.675495549279388
 40
-2.675486786537263
 40
-2.675486786537263
 40
-2.675486786537263
 40
-2.00001752548425
 40
-2.00001752548425
 40
-2.00001752548425
 40
-1.000008762742125
 40
-1.000008762742125
 40
-1.000008762742125
 40
0.0
 40
0.0
 40
0.0
 40
0.0
 10
0.3183639671499918
 20
2.794995106100011
 30
0.0
 10
0.3457279872496883
 20
2.795002665909607
 30
0.0
 10
0.3764846536830078
 20
2.823814565103547
 30
0.0
 10
0.3782742454000072
 20
2.851119110700012
 30
0.0
 10
0.3797444656666471
 20
2.873550873166678
 30
0.0
 10
0.3812146859333438
 20
2.895982635633345
 30
0.0
 10
0.3826849061999837
 20
2.918414398100012
 30
0.0
 10
0.3855520760000104
 20
2.960699410100005
 30
0.0
 10
0.3884192457999802
 20
3.002984422100013
 30
0.0
 10
0.3912864156000069
 20
3.045269434100007
 30
0.0
 10
0.3941747618000022
 20
3.086086269066676
 30
0.0
 10
0.3970631079999976
 20
3.126903104033346
 30
0.0
 10
0.3999514541999929
 20
3.167719939000008
 30
0.0
 10
0.4028473544666724
 20
3.207012336266672
 30
0.0
 10
0.4057432547333519
 20
3.246304733533343
 30
0.0
 10
0.408639155000003
 20
3.285597130800014
 30
0.0
 10
0.4115316734000203
 20
3.32333217723334
 30
0.0
 10
0.4144241918000091
 20
3.36106722366668
 30
0.0
 10
0.4173167101999979
 20
3.398802270100006
 30
0.0
 10
0.4201909493000073
 20
3.434877587533343
 30
0.0
 10
0.4230651884000167
 20
3.47095290496668
 30
0.0
 10
0.4259394274999977
 20
3.50702822240001
 30
0.0
 10
0.4292897645894982
 20
3.547387842304737
 30
0.0
 10
0.4326401016790271
 20
3.587747462209464
 30
0.0
 10
0.435990438768556
 20
3.628107082114198
 30
0.0
 10
0.4377366493290253
 20
3.648305623942804
 30
0.0
 10
0.4394828598895231
 20
3.668504165771402
 30
0.0
 10
0.4412290704499924
 20
3.688702707600008
 30
0.0
 10
0.4452613952140894
 20
3.73534489512128
 30
0.0
 10
0.4551308568999843
 20
3.846890806000005
 30
0.0
 10
0.4677535735000049
 20
3.986769136100008
 30
0.0
 10
0.4785348062000025
 20
4.103310979800014
 30
0.0
 10
0.4871847672999934
 20
4.196516550200009
 30
0.0
 10
0.4938223423999943
 20
4.266141809700009
 30
0.0
 10
0.5005864430000031
 20
4.334873819700007
 30
0.0
 10
0.5072443516999954
 20
4.401683132500011
 30
0.0
 10
0.5136116257999959
 20
4.465258153000008
 30
0.0
 10
0.5195510131999868
 20
4.524143002500011
 30
0.0
 10
0.5248431819999837
 20
4.57691008070001
 30
0.0
 10
0.529356292999978
 20
4.622386588000012
 30
0.0
 10
0.5330295060999788
 20
4.65984546140001
 30
0.0
 10
0.5397011545410066
 20
4.724917165515542
 30
0.0
 10
0.5406578828000193
 20
4.734631598850008
 30
0.0
 10
0.5502720381954873
 20
4.832251869577583
 30
0.0
 10
0.5598861935909838
 20
4.929872140305157
 30
0.0
 10
0.5695003489864803
 20
5.027492411032732
 30
0.0
 10
0.5818834015242942
 20
5.141977097888493
 30
0.0
 10
0.5942664540621649
 20
5.256461784744253
 30
0.0
 10
0.6066495065999788
 20
5.370946471600007
 30
0.0
 10
0.6285109394000017
 20
5.581502933766679
 30
0.0
 10
0.6503723721999961
 20
5.792059395933343
 30
0.0
 10
0.672233805000019
 20
6.002615858100015
 30
0.0
 10
0.6955220378999911
 20
6.22656268970001
 30
0.0
 10
0.7188102707999917
 20
6.450509521300006
 30
0.0
 10
0.7420985036999923
 20
6.674456352900009
 30
0.0
 10
0.7542754647000152
 20
6.791467391566677
 30
0.0
 10
0.7664524257000096
 20
6.908478430233345
 30
0.0
 10
0.778629386700004
 20
7.025489468900005
 30
0.0
 10
0.8034964588666753
 20
7.264367581066672
 30
0.0
 10
0.8283635310333466
 20
7.503245693233339
 30
0.0
 10
0.8536293587999921
 20
7.746423552500005
 30
0.0
  0
LINE
  5
179
330
1F
100
AcDbEntity
  8
Default
100
AcDbLine
 10
-0.3183531975000164
 20
2.794995106100011
 30
0.0
 11
0.3183639671499918
 21
2.794995106100011
 31
0.0
  0
SPLINE
  5
17A
330
1F
100
AcDbEntity
  8
Default
100
AcDbSpline
210
0.0
220
0.0
230
1.0
 70
     8
 71
     3
 72
    65
 73
    61
 74
     0
 42
0.0000000001
 43
0.0000000001
 40
0.0
 40
0.0
 40
0.0
 40
0.0
 40
1.0
 40
1.0
 40
1.0
 40
2.0
 40
2.0
 40
2.0
 40
2.675463342141931
 40
2.675463342141931
 40
2.675463342141931
 40
3.675463342141931
 40
3.675463342141931
 40
3.675463342141931
 40
4.675463342141931
 40
4.675463342141931
 40
4.675463342141931
 40
4.96974100552813
 40
4.96974100552813
 40
4.96974100552813
 40
4.99934426432813
 40
5.03746802902813
 40
5.08388663722813
 40
5.13793716632813
 40
5.19829629102813
 40
5.26337139662813
 40
5.33170415352813
 40
5.40191089612813
 40
5.47282008412813
 40
5.54381198702813
 40
5.68578778602813
 40
5.82776274572813
 40
5.96974100552813
 40
5.96974100552813
 40
5.96974100552813
 40
6.96974100552813
 40
6.96974100552813
 40
6.96974100552813
 40
7.96974100552813
 40
7.96974100552813
 40
7.96974100552813
 40
8.96974100552813
 40
8.96974100552813
 40
8.96974100552813
 40
9.96974100552813
 40
9.96974100552813
 40
9.96974100552813
 40
10.96974100552813
 40
10.96974100552813
 40
10.96974100552813
 40
11.96974100552813
 40
11.96974100552813
 40
11.96974100552813
 40
12.96974100552813
 40
12.96974100552813
 40
12.96974100552813
 40
13.96974100552813
 40
13.96974100552813
 40
13.96974100552813
 40
14.96974100552813
 40
14.96974100552813
 40
14.96974100552813
 40
14.96974100552813
 10
-0.8536293587999921
 20
7.746423552500005
 30
0.0
 10
-0.8283635310333466
 20
7.503245693233339
 30
0.0
 10
-0.8034964588666753
 20
7.264367581066672
 30
0.0
 10
-0.778629386700004
 20
7.025489468900005
 30
0.0
 10
-0.7664524257000096
 20
6.908478430233345
 30
0.0
 10
-0.7542754647000152
 20
6.791467391566677
 30
0.0
 10
-0.7420985036999923
 20
6.674456352900009
 30
0.0
 10
-0.7188102707999917
 20
6.450509521300006
 30
0.0
 10
-0.6955220378999911
 20
6.22656268970001
 30
0.0
 10
-0.672233805000019
 20
6.002615858100015
 30
0.0
 10
-0.6503723721999961
 20
5.792059395933343
 30
0.0
 10
-0.6285109394000017
 20
5.581502933766679
 30
0.0
 10
-0.6066495065999788
 20
5.370946471600007
 30
0.0
 10
-0.5942664540621649
 20
5.256461784744253
 30
0.0
 10
-0.5818834015242942
 20
5.141977097888493
 30
0.0
 10
-0.5695003489864803
 20
5.027492411032732
 30
0.0
 10
-0.5598861935909838
 20
4.929872140305157
 30
0.0
 10
-0.5502720381954873
 20
4.832251869577583
 30
0.0
 10
-0.5406578828000193
 20
4.734631598850008
 30
0.0
 10
-0.5397011545410066
 20
4.724917165515542
 30
0.0
 10
-0.5330295060999788
 20
4.65984546140001
 30
0.0
 10
-0.529356292999978
 20
4.622386588000012
 30
0.0
 10
-0.5248431819999837
 20
4.57691008070001
 30
0.0
 10
-0.5195510131999868
 20
4.524143002500011
 30
0.0
 10
-0.5136116257999959
 20
4.465258153000008
 30
0.0
 10
-0.5072443516999954
 20
4.401683132500011
 30
0.0
 10
-0.5005864430000031
 20
4.334873819700007
 30
0.0
 10
-0.4938223423999943
 20
4.266141809700009
 30
0.0
 10
-0.4871847672999934
 20
4.196516550200009
 30
0.0
 10
-0.4785348062000025
 20
4.103310979800014
 30
0.0
 10
-0.4677535735000049
 20
3.986769136100008
 30
0.0
 10
-0.4551308568999843
 20
3.846890806000005
 30
0.0
 10
-0.4452613952140894
 20
3.73534489512128
 30
0.0
 10
-0.4412290704499924
 20
3.688702707600008
 30
0.0
 10
-0.4394828598895231
 20
3.668504165771402
 30
0.0
 10
-0.4377366493290253
 20
3.648305623942804
 30
0.0
 10
-0.435990438768556
 20
3.628107082114198
 30
0.0
 10
-0.4326401016790271
 20
3.587747462209464
 30
0.0
 10
-0.4292897645894982
 20
3.547387842304737
 30
0.0
 10
-0.4259394274999977
 20
3.50702822240001
 30
0.0
 10
-0.4230651884000167
 20
3.47095290496668
 30
0.0
 10
-0.4201909493000073
 20
3.434877587533343
 30
0.0
 10
-0.4173167101999979
 20
3.398802270100006
 30
0.0
 10
-0.4144241918000091
 20
3.36106722366668
 30
0.0
 10
-0.4115316734000203
 20
3.32333217723334
 30
0.0
 10
-0.408639155000003
 20
3.285597130800014
 30
0.0
 10
-0.4057432547333519
 20
3.246304733533343
 30
0.0
 10
-0.4028473544666724
 20
3.207012336266672
 30
0.0
 10
-0.3999514541999929
 20
3.167719939000008
 30
0.0
 10
-0.3970631079999976
 20
3.126903104033346
 30
0.0
 10
-0.3941747618000022
 20
3.086086269066676
 30
0.0
 10
-0.3912864156000069
 20
3.045269434100007
 30
0.0
 10
-0.3884192457999802
 20
3.002984422100013
 30
0.0
 10
-0.3855520760000104
 20
2.960699410100005
 30
0.0
 10
-0.3826849061999837
 20
2.918414398100012
 30
0.0
 10
-0.3812146859333438
 20
2.895982635633345
 30
0.0
 10
-0.3797444656666471
 20
2.873550873166678
 30
0.0
 10
-0.3782742454000072
 20
2.851119110700012
 30
0.0
 10
-0.3764844189028054
 20
2.82381098296451
 30
0.0
 10
-0.3457199166915359
 20
2.794995106100011
 30
0.0
 10
-0.3183531975000164
 20
2.794995106100011
 30
0.0
  0
SPLINE
  5
17B
330
1F
100
AcDbEntity
  8
Default
100
AcDbSpline
210
0.0
220
0.0
230
1.0
 70
     8
 71
     3
 72
    12
 73
     8
 74
     0
 42
0.0000000001
 43
0.0000000001
 40
-5.0
 40
-5.0
 40
-5.0
 40
-5.0
 40
-4.000002652261333
 40
-3.000001989196
 40
-2.000001326130667
 40
-1.000000663065333
 40
0.0
 40
0.0
 40
0.0
 40
0.0
 10
-2.147831147399984
 20
7.746446773600006
 30
0.0
 10
-2.057461080041264
 20
7.774344971779875
 30
0.0
 10
-1.876637960074362
 20
7.829347003635966
 30
0.0
 10
-1.602624667860937
 20
7.904569600638276
 30
0.0
 10
-1.322763771802954
 20
7.948901119100121
 30
0.0
 10
-1.036516303620601
 20
7.963400123573741
 30
0.0
 10
-0.8585296482291938
 20
7.850258689756132
 30
0.0
 10
-0.8536293587999921
 20
7.746423552500005
 30
0.0
  0
SPLINE
  5
17C
330
1F
100
AcDbEntity
  8
Default
100
AcDbSpline
210
0.0
220
0.0
230
1.0
 70
     8
 71
     3
 72
     8
 73
     4
 74
     0
 42
0.0000000001
 43
0.0000000001
 40
-1.0
 40
-1.0
 40
-1.0
 40
-1.0
 40
0.0
 40
0.0
 40
0.0
 40
0.0
 10
-11.96824370094998
 20
4.698410136850008
 30
0.0
 10
-8.696979184707345
 20
5.721303500045714
 30
0.0
 10
-5.421306572844799
 20
6.730449905766072
 30
0.0
 10
-2.147831147399984
 20
7.746446773600006
 30
0.0
  0
SPLINE
  5
17D
330
1F
100
AcDbEntity
  8
Default
100
AcDbSpline
210
0.0
220
0.0
230
1.0
 70
     8
 71
     3
 72
    12
 73
     8
 74
     0
 42
0.0000000001
 43
0.0000000001
 40
-5.0
 40
-5.0
 40
-5.0
 40
-5.0
 40
-3.999999999641767
 40
-2.999999999283535
 40
-1.999999998925302
 40
-0.9999999985670698
 40
0.0
 40
0.0
 40
0.0
 40
0.0
 10
-12.34426560133178
 20
2.794995106100011
 30
0.0
 10
-12.34312356536597
 20
2.93151910649074
 30
0.0
 10
-12.33791382001141
 20
3.204111672131368
 30
0.0
 10
-12.32741104334326
 20
3.614491852101686
 30
0.0
 10
-12.30648617010672
 20
4.019607608746796
 30
0.0
 10
-12.31217810982653
 20
4.443714974561125
 30
0.0
 10
-12.09799163249573
 20
4.655465069847892
 30
0.0
 10
-11.96824370094998
 20
4.698410136850008
 30
0.0
  0
LINE
  5
17E
330
1F
100
AcDbEntity
  8
Default
  6
Continuous
100
AcDbLine
 10
-12.8649248847
 20
2.684995106100011
 30
0.0
 11
-12.8649248847
 21
2.559995106100011
 31
0.0
  0
LINE
  5
17F
330
1F
100
AcDbEntity
  8
Default
  6
Continuous
100
AcDbLine
 10
-12.20492488470001
 20
2.684995106100011
 30
0.0
 11
-12.8649248847
 21
2.684995106100011
 31
0.0
  0
LINE
  5
180
330
1F
100
AcDbEntity
  8
Default
  6
Continuous
100
AcDbLine
 10
-12.20492488470001
 20
2.559995106100011
 30
0.0
 11
-12.20492488470001
 21
2.684995106100011
 31
0.0
  0
SPLINE
  5
181
330
1F
100
AcDbEntity
  8
Default
  6
Continuous
100
AcDbSpline
210
0.0
220
0.0
230
1.0
 70
     8
 71
     3
 72
    12
 73
     8
 74
     0
 42
0.0000000001
 43
0.0000000001
 40
-5.0
 40
-5.0
 40
-5.0
 40
-5.0
 40
-4.000000738231605
 40
-3.000000553673703
 40
-2.000000369115802
 40
-1.000000184557901
 40
0.0
 40
0.0
 40
0.0
 40
0.0
 10
0.900010901249999
 20
11.38978533780001
 30
0.0
 10
0.9244857805122138
 20
11.56223701573008
 30
0.0
 10
1.127204347767389
 20
11.84812163505114
 30
0.0
 10
1.438311841803454
 20
12.25451297512208
 30
0.0
 10
1.755464012514892
 20
12.66109576887873
 30
0.0
 10
2.049243674994727
 20
13.08354441623464
 30
0.0
 10
2.221376195418429
 20
13.38169703327639
 30
0.0
 10
2.281808148399989
 20
13.54273976260001
 30
0.0
  0
LINE
  5
182
330
1F
100
AcDbEntity
  8
Default
  6
Continuous
100
AcDbLine
 10
-0.9000143339000033
 20
11.38978533780001
 30
0.0
 11
0.900010901249999
 21
11.38978533780001
 31
0.0
  0
SPLINE
  5
183
330
1F
100
AcDbEntity
  8
Default
  6
Continuous
100
AcDbSpline
210
0.0
220
0.0
230
1.0
 70
     8
 71
     3
 72
    12
 73
     8
 74
     0
 42
0.0000000001
 43
0.0000000001
 40
0.0
 40
0.0
 40
0.0
 40
0.0
 40
1.0
 40
2.0
 40
3.0
 40
4.0
 40
5.0
 40
5.0
 40
5.0
 40
5.0
 10
-2.281815014599999
 20
13.54273976260001
 30
0.0
 10
-2.22138306161844
 20
13.38169703327639
 30
0.0
 10
-2.049250541194738
 20
13.08354441623464
 30
0.0
 10
-1.755470878714902
 20
12.66109576887873
 30
0.0
 10
-1.438318708003465
 20
12.25451297512208
 30
0.0
 10
-1.127211118271816
 20
11.84812151004657
 30
0.0
 10
-0.9244924596455917
 20
11.56223675191868
 30
0.0
 10
-0.9000143339000033
 20
11.38978533780001
 30
0.0
  0
LINE
  5
184
330
1F
100
AcDbEntity
  8
Default
  6
Continuous
100
AcDbLine
 10
-12.18042488470002
 20
2.559995106100011
 30
0.0
 11
-12.18042488470002
 21
1.27999510610001
 31
0.0
  0
LINE
  5
185
330
1F
100
AcDbEntity
  8
Default
  6
Continuous
100
AcDbLine
 10
-12.88942488470002
 20
2.559995106100011
 30
0.0
 11
-12.18042488470002
 21
2.559995106100011
 31
0.0
  0
LINE
  5
186
330
1F
100
AcDbEntity
  8
Default
  6
Continuous
100
AcDbLine
 10
-12.88942488470002
 20
1.27999510610001
 30
0.0
 11
-12.88942488470002
 21
2.559995106100011
 31
0.0
  0
LINE
  5
187
330
1F
100
AcDbEntity
  8
Default
  6
Continuous
100
AcDbLine
 10
-12.18042488470002
 20
1.27999510610001
 30
0.0
 11
-12.88942488470002
 21
1.27999510610001
 31
0.0
  0
LINE
  5
188
330
1F
100
AcDbEntity
  8
Default
  6
Continuous
100
AcDbLine
 10
8.166509625199993
 20
-0.000004893899991
 30
0.0
 11
8.547009625200005
 21
-0.000004893899991
 31
0.0
  0
LINE
  5
189
330
1F
100
AcDbEntity
  8
Default
  6
Continuous
100
AcDbLine
 10
6.947009625199996
 20
-0.000004893899991
 30
0.0
 11
7.327509625199994
 21
-0.000004893899991
 31
0.0
  0
LINE
  5
18A
330
1F
100
AcDbEntity
  8
Default
  6
Continuous
100
AcDbLine
 10
12.8649248847
 20
2.684995106100011
 30
0.0
 11
12.8649248847
 21
2.559995106100011
 31
0.0
  0
LINE
  5
18B
330
1F
100
AcDbEntity
  8
Default
  6
Continuous
100
AcDbLine
 10
12.20492488469999
 20
2.684995106100011
 30
0.0
 11
12.8649248847
 21
2.684995106100011
 31
0.0
  0
LINE
  5
18C
330
1F
100
AcDbEntity
  8
Default
  6
Continuous
100
AcDbLine
 10
12.20492488469999
 20
2.559995106100011
 30
0.0
 11
12.20492488469999
 21
2.684995106100011
 31
0.0
  0
POLYLINE
  5
18D
330
1F
100
AcDbEntity
  8
Default
100
AcDb2dPolyline
 66
     1
 10
0.0
 20
0.0
 30
0.0
  0
VERTEX
  5
18E
330
18D
100
AcDbEntity
  8
Default
100
AcDbVertex
100
AcDb2dVertex
 10
0.8793157574999952
 20
8.074723946700004
 30
0.0
  0
VERTEX
  5
18F
330
18D
100
AcDbEntity
  8
Default
100
AcDbVertex
100
AcDb2dVertex
 10
0.8536293587999921
 20
7.746423552500005
 30
0.0
  0
SEQEND
  5
190
330
18D
100
AcDbEntity
  8
Default
  0
SPLINE
  5
191
330
1F
100
AcDbEntity
  8
Default
100
AcDbSpline
210
0.0
220
0.0
230
1.0
 70
     8
 71
     3
 72
    11
 73
     7
 74
     0
 42
0.0000000001
 43
0.0000000001
 40
-4.0
 40
-4.0
 40
-4.0
 40
-4.0
 40
-3.0
 40
-2.0
 40
-1.0
 40
0.0
 40
0.0
 40
0.0
 40
0.0
 10
2.235346392950021
 20
8.07472393750001
 30
0.0
 10
2.118111103737306
 20
8.112444646477236
 30
0.0
 10
1.883055291766453
 20
8.184910168632882
 30
0.0
 10
1.520179093938566
 20
8.263003295811757
 30
0.0
 10
1.158253964542894
 20
8.304795038978874
 30
0.0
 10
0.8940842479468074
 20
8.213964668719704
 30
0.0
 10
0.8793157574999952
 20
8.074723946700004
 30
0.0
  0
SPLINE
  5
192
330
1F
100
AcDbEntity
  8
Default
100
AcDbSpline
210
0.0
220
0.0
230
1.0
 70
     8
 71
     3
 72
     8
 73
     4
 74
     0
 42
0.0000000001
 43
0.0000000001
 40
-1.0
 40
-1.0
 40
-1.0
 40
-1.0
 40
0.0
 40
0.0
 40
0.0
 40
0.0
 10
12.0866016107
 20
4.901534126000008
 30
0.0
 10
8.802849870633366
 20
5.959264060100004
 30
0.0
 10
5.519098130566647
 20
7.016993994200007
 30
0.0
 10
2.235346392950021
 20
8.07472393750001
 30
0.0
  0
SPLINE
  5
193
330
1F
100
AcDbEntity
  8
Default
100
AcDbSpline
210
0.0
220
0.0
230
1.0
 70
     8
 71
     3
 72
    12
 73
     8
 74
     0
 42
0.0000000001
 43
0.0000000001
 40
-5.0
 40
-5.0
 40
-5.0
 40
-5.0
 40
-4.0
 40
-3.0
 40
-2.0
 40
-1.0
 40
0.0
 40
0.0
 40
0.0
 40
0.0
 10
12.66567596555774
 20
2.794995106099393
 30
0.0
 10
12.65216538412071
 20
2.947715013466073
 30
0.0
 10
12.62614001026026
 20
3.252886738063467
 30
0.0
 10
12.58687608460718
 20
3.711952926887228
 30
0.0
 10
12.56371405151728
 20
4.168091012586117
 30
0.0
 10
12.49954182360966
 20
4.636383228022972
 30
0.0
 10
12.23281877526945
 20
4.854436085683112
 30
0.0
 10
12.0866016107
 20
4.901534126000008
 30
0.0
  0
POLYLINE
  5
194
330
1F
100
AcDbEntity
  8
Default
100
AcDb2dPolyline
 66
     1
 10
0.0
 20
0.0
 30
0.0
  0
VERTEX
  5
195
330
194
100
AcDbEntity
  8
Default
100
AcDbVertex
100
AcDb2dVertex
 10
-0.8793157574999952
 20
8.074723946700004
 30
0.0
  0
VERTEX
  5
196
330
194
100
AcDbEntity
  8
Default
100
AcDbVertex
100
AcDb2dVertex
 10
-0.8536293587999921
 20
7.746423552500005
 30
0.0
  0
SEQEND
  5
197
330
194
100
AcDbEntity
  8
Default
  0
SPLINE
  5
198
330
1F
100
AcDbEntity
  8
Default
100
AcDbSpline
210
0.0
220
0.0
230
1.0
 70
     8
 71
     3
 72
    11
 73
     7
 74
     0
 42
0.0000000001
 43
0.0000000001
 40
-4.0
 40
-4.0
 40
-4.0
 40
-4.0
 40
-3.0
 40
-2.0
 40
-1.0
 40
0.0
 40
0.0
 40
0.0
 40
0.0
 10
-2.235346392950021
 20
8.07472393750001
 30
0.0
 10
-2.118111103737306
 20
8.112444646477236
 30
0.0
 10
-1.883055291766453
 20
8.184910168632882
 30
0.0
 10
-1.520179093938566
 20
8.263003295811757
 30
0.0
 10
-1.158253964542894
 20
8.304795038978874
 30
0.0
 10
-0.8940842479468074
 20
8.213964668719704
 30
0.0
 10
-0.8793157574999952
 20
8.074723946700004
 30
0.0
  0
SPLINE
  5
199
330
1F
100
AcDbEntity
  8
Default
100
AcDbSpline
210
0.0
220
0.0
230
1.0
 70
     8
 71
     3
 72
     8
 73
     4
 74
     0
 42
0.0000000001
 43
0.0000000001
 40
-1.0
 40
-1.0
 40
-1.0
 40
-1.0
 40
0.0
 40
0.0
 40
0.0
 40
0.0
 10
-12.0866016107
 20
4.901534126000008
 30
0.0
 10
-8.802849870633366
 20
5.959264060100004
 30
0.0
 10
-5.519098130566647
 20
7.016993994200007
 30
0.0
 10
-2.235346392950021
 20
8.07472393750001
 30
0.0
  0
SPLINE
  5
19A
330
1F
100
AcDbEntity
  8
Default
100
AcDbSpline
210
0.0
220
0.0
230
1.0
 70
     8
 71
     3
 72
    12
 73
     8
 74
     0
 42
0.0000000001
 43
0.0000000001
 40
-5.0
 40
-5.0
 40
-5.0
 40
-5.0
 40
-4.0
 40
-3.0
 40
-2.0
 40
-1.0
 40
0.0
 40
0.0
 40
0.0
 40
0.0
 10
-12.66567596555774
 20
2.794995106099393
 30
0.0
 10
-12.65216538412071
 20
2.947715013466073
 30
0.0
 10
-12.62614001026026
 20
3.252886738063467
 30
0.0
 10
-12.58687608460718
 20
3.711952926887228
 30
0.0
 10
-12.56371405151728
 20
4.168091012586117
 30
0.0
 10
-12.49954182360966
 20
4.636383228022972
 30
0.0
 10
-12.23281877526944
 20
4.854436085683112
 30
0.0
 10
-12.0866016107
 20
4.901534126000008
 30
0.0
  0
ARC
  5
19B
330
1F
100
AcDbEntity
  8
Default
  6
Continuous
100
AcDbCircle
 10
2.875
 20
5.808390997971657
 30
0.0
 40
8.61345188632835
100
AcDbArc
 50
85.0047528664826
 51
90.0
  0
LINE
  5
19C
330
1F
100
AcDbEntity
  8
Default
  6
Continuous
100
AcDbLine
 10
-2.875
 20
14.42184288430001
 30
0.0
 11
2.875
 21
14.42184288430001
 31
0.0
  0
ARC
  5
19D
330
1F
100
AcDbEntity
  8
Default
  6
Continuous
100
AcDbCircle
 10
-2.875
 20
5.808390997971657
 30
0.0
 40
8.613451886328349
100
AcDbArc
 50
90.0
 51
94.99524713351741
  0
ARC
  5
19E
330
1F
100
AcDbEntity
  8
Default
  6
Continuous
100
AcDbCircle
 10
2.548024721997365
 20
13.09679526129653
 30
0.0
 40
1.076136964404298
100
AcDbArc
 50
77.27867840899646
 51
86.41238546390618
  0
LINE
  5
19F
330
1F
100
AcDbEntity
  8
Default
  6
Continuous
100
AcDbLine
 10
2.785000000000025
 20
14.05321764597825
 30
0.0
 11
2.784999999999997
 21
14.14651593070001
 31
0.0
  0
LINE
  5
1A0
330
1F
100
AcDbEntity
  8
Default
  6
Continuous
100
AcDbLine
 10
2.685823578549986
 20
13.34822558900001
 30
0.0
 11
2.785000000000025
 21
14.05321764597825
 31
0.0
  0
SPLINE
  5
1A1
330
1F
100
AcDbEntity
  8
Default
  6
Continuous
100
AcDbSpline
210
0.0
220
0.0
230
1.0
 70
     8
 71
     3
 72
    12
 73
     8
 74
     0
 42
0.0000000001
 43
0.0000000001
 40
-5.0
 40
-5.0
 40
-5.0
 40
-5.0
 40
-3.99999076252709
 40
-2.99998152505418
 40
-1.99997228758127
 40
-0.99996305010836
 40
0.0
 40
0.0
 40
0.0
 40
0.0
 10
2.580844924004737
 20
13.34451805679777
 30
0.0
 10
2.582229268289552
 20
13.33450915620807
 30
0.0
 10
2.591354822129347
 20
13.31522957935802
 30
0.0
 10
2.618941983967716
 20
13.29992178716802
 30
0.0
 10
2.650584546951904
 20
13.30081926749996
 30
0.0
 10
2.6769426598336
 20
13.31842426098748
 30
0.0
 10
2.68440671752046
 20
13.33826736155393
 30
0.0
 10
2.685823578549986
 20
13.34822558900001
 30
0.0
  0
LINE
  5
1A2
330
1F
100
AcDbEntity
  8
Default
  6
Continuous
100
AcDbLine
 10
2.559476689447933
 20
13.49399666943623
 30
0.0
 11
2.580844924004737
 21
13.34451805679777
 31
0.0
  0
LINE
  5
1A3
330
1F
100
AcDbEntity
  8
Default
  6
Continuous
100
AcDbLine
 10
2.397301632899996
 20
13.52338365730001
 30
0.0
 11
2.559476689447933
 21
13.49399666943623
 31
0.0
  0
POLYLINE
  5
1A4
330
1F
100
AcDbEntity
  8
Default
  6
Continuous
100
AcDb2dPolyline
 66
     1
 10
0.0
 20
0.0
 30
0.0
  0
VERTEX
  5
1A5
330
1A4
100
AcDbEntity
  8
Default
  6
Continuous
100
AcDbVertex
100
AcDb2dVertex
 10
-0.0000034331000052
 20
13.70877619966378
 30
0.0
  0
VERTEX
  5
1A6
330
1A4
100
AcDbEntity
  8
Default
  6
Continuous
100
AcDbVertex
100
AcDb2dVertex
 10
0.0766060025000002
 20
13.70877074240001
 30
0.0
  0
VERTEX
  5
1A7
330
1A4
100
AcDbEntity
  8
Default
  6
Continuous
100
AcDbVertex
100
AcDb2dVertex
 10
0.2277688080000075
 20
13.70740220370001
 30
0.0
  0
VERTEX
  5
1A8
330
1A4
100
AcDbEntity
  8
Default
  6
Continuous
100
AcDbVertex
100
AcDb2dVertex
 10
0.3774271007999914
 20
13.70470792300001
 30
0.0
  0
VERTEX
  5
1A9
330
1A4
100
AcDbEntity
  8
Default
  6
Continuous
100
AcDbVertex
100
AcDb2dVertex
 10
0.5255404174999967
 20
13.70072435150001
 30
0.0
  0
VERTEX
  5
1AA
330
1A4
100
AcDbEntity
  8
Default
  6
Continuous
100
AcDbVertex
100
AcDb2dVertex
 10
0.6721741422999798
 20
13.69547629750001
 30
0.0
  0
VERTEX
  5
1AB
330
1A4
100
AcDbEntity
  8
Default
  6
Continuous
100
AcDbVertex
100
AcDb2dVertex
 10
0.8173084190999873
 20
13.68898727120001
 30
0.0
  0
VERTEX
  5
1AC
330
1A4
100
AcDbEntity
  8
Default
  6
Continuous
100
AcDbVertex
100
AcDb2dVertex
 10
0.9609205120999889
 20
13.68128004410001
 30
0.0
  0
VERTEX
  5
1AD
330
1A4
100
AcDbEntity
  8
Default
  6
Continuous
100
AcDbVertex
100
AcDb2dVertex
 10
1.103014289099974
 20
13.67237576370001
 30
0.0
  0
VERTEX
  5
1AE
330
1A4
100
AcDbEntity
  8
Default
  6
Continuous
100
AcDbVertex
100
AcDb2dVertex
 10
1.242375787500009
 20
13.6623843385
 30
0.0
  0
VERTEX
  5
1AF
330
1A4
100
AcDbEntity
  8
Default
  6
Continuous
100
AcDbVertex
100
AcDb2dVertex
 10
1.377817051099981
 20
13.65144402750001
 30
0.0
  0
VERTEX
  5
1B0
330
1A4
100
AcDbEntity
  8
Default
  6
Continuous
100
AcDbVertex
100
AcDb2dVertex
 10
1.509252293599985
 20
13.63962874320001
 30
0.0
  0
VERTEX
  5
1B1
330
1A4
100
AcDbEntity
  8
Default
  6
Continuous
100
AcDbVertex
100
AcDb2dVertex
 10
1.636696846000007
 20
13.62700051180001
 30
0.0
  0
VERTEX
  5
1B2
330
1A4
100
AcDbEntity
  8
Default
  6
Continuous
100
AcDbVertex
100
AcDb2dVertex
 10
1.760170017500002
 20
13.61361953910001
 30
0.0
  0
VERTEX
  5
1B3
330
1A4
100
AcDbEntity
  8
Default
  6
Continuous
100
AcDbVertex
100
AcDb2dVertex
 10
1.879508686199983
 20
13.59955946480001
 30
0.0
  0
VERTEX
  5
1B4
330
1A4
100
AcDbEntity
  8
Default
  6
Continuous
100
AcDbVertex
100
AcDb2dVertex
 10
1.994559043499976
 20
13.58488494240001
 30
0.0
  0
VERTEX
  5
1B5
330
1A4
100
AcDbEntity
  8
Default
  6
Continuous
100
AcDbVertex
100
AcDb2dVertex
 10
2.104088131699996
 20
13.56981759680001
 30
0.0
  0
VERTEX
  5
1B6
330
1A4
100
AcDbEntity
  8
Default
  6
Continuous
100
AcDbVertex
100
AcDb2dVertex
 10
2.207663197499983
 20
13.55449848600001
 30
0.0
  0
VERTEX
  5
1B7
330
1A4
100
AcDbEntity
  8
Default
  6
Continuous
100
AcDbVertex
100
AcDb2dVertex
 10
2.305385256600005
 20
13.53900064500001
 30
0.0
  0
VERTEX
  5
1B8
330
1A4
100
AcDbEntity
  8
Default
  6
Continuous
100
AcDbVertex
100
AcDb2dVertex
 10
2.397301632899996
 20
13.52338365730001
 30
0.0
  0
SEQEND
  5
1B9
330
1A4
100
AcDbEntity
  8
Default
  6
Continuous
  0
POLYLINE
  5
1BA
330
1F
100
AcDbEntity
  8
Default
  6
Continuous
100
AcDb2dPolyline
 66
     1
 10
0.0
 20
0.0
 30
0.0
  0
VERTEX
  5
1BB
330
1BA
100
AcDbEntity
  8
Default
  6
Continuous
100
AcDbVertex
100
AcDb2dVertex
 10
-2.397308499100006
 20
13.52338365730001
 30
0.0
  0
VERTEX
  5
1BC
330
1BA
100
AcDbEntity
  8
Default
  6
Continuous
100
AcDbVertex
100
AcDb2dVertex
 10
-2.305392122800015
 20
13.53900064500001
 30
0.0
  0
VERTEX
  5
1BD
330
1BA
100
AcDbEntity
  8
Default
  6
Continuous
100
AcDbVertex
100
AcDb2dVertex
 10
-2.207670063699993
 20
13.55449848600001
 30
0.0
  0
VERTEX
  5
1BE
330
1BA
100
AcDbEntity
  8
Default
  6
Continuous
100
AcDbVertex
100
AcDb2dVertex
 10
-2.104094997900006
 20
13.56981759680001
 30
0.0
  0
VERTEX
  5
1BF
330
1BA
100
AcDbEntity
  8
Default
  6
Continuous
100
AcDbVertex
100
AcDb2dVertex
 10
-1.994565909699986
 20
13.58488494240001
 30
0.0
  0
VERTEX
  5
1C0
330
1BA
100
AcDbEntity
  8
Default
  6
Continuous
100
AcDbVertex
100
AcDb2dVertex
 10
-1.879515552399994
 20
13.59955946480001
 30
0.0
  0
VERTEX
  5
1C1
330
1BA
100
AcDbEntity
  8
Default
  6
Continuous
100
AcDbVertex
100
AcDb2dVertex
 10
-1.760176883700012
 20
13.61361953910001
 30
0.0
  0
VERTEX
  5
1C2
330
1BA
100
AcDbEntity
  8
Default
  6
Continuous
100
AcDbVertex
100
AcDb2dVertex
 10
-1.636703712200017
 20
13.62700051180001
 30
0.0
  0
VERTEX
  5
1C3
330
1BA
100
AcDbEntity
  8
Default
  6
Continuous
100
AcDbVertex
100
AcDb2dVertex
 10
-1.509259159799996
 20
13.63962874320001
 30
0.0
  0
VERTEX
  5
1C4
330
1BA
100
AcDbEntity
  8
Default
  6
Continuous
100
AcDbVertex
100
AcDb2dVertex
 10
-1.377823917299992
 20
13.65144402750001
 30
0.0
  0
VERTEX
  5
1C5
330
1BA
100
AcDbEntity
  8
Default
  6
Continuous
100
AcDbVertex
100
AcDb2dVertex
 10
-1.24238265370002
 20
13.6623843385
 30
0.0
  0
VERTEX
  5
1C6
330
1BA
100
AcDbEntity
  8
Default
  6
Continuous
100
AcDbVertex
100
AcDb2dVertex
 10
-1.103021155299984
 20
13.67237576370001
 30
0.0
  0
VERTEX
  5
1C7
330
1BA
100
AcDbEntity
  8
Default
  6
Continuous
100
AcDbVertex
100
AcDb2dVertex
 10
-0.9609273782999992
 20
13.68128004410001
 30
0.0
  0
VERTEX
  5
1C8
330
1BA
100
AcDbEntity
  8
Default
  6
Continuous
100
AcDbVertex
100
AcDb2dVertex
 10
-0.8173152852999976
 20
13.68898727120001
 30
0.0
  0
VERTEX
  5
1C9
330
1BA
100
AcDbEntity
  8
Default
  6
Continuous
100
AcDbVertex
100
AcDb2dVertex
 10
-0.6721810084999902
 20
13.69547629750001
 30
0.0
  0
VERTEX
  5
1CA
330
1BA
100
AcDbEntity
  8
Default
  6
Continuous
100
AcDbVertex
100
AcDb2dVertex
 10
-0.525547283700007
 20
13.70072435150001
 30
0.0
  0
VERTEX
  5
1CB
330
1BA
100
AcDbEntity
  8
Default
  6
Continuous
100
AcDbVertex
100
AcDb2dVertex
 10
-0.3774339670000018
 20
13.70470792300001
 30
0.0
  0
VERTEX
  5
1CC
330
1BA
100
AcDbEntity
  8
Default
  6
Continuous
100
AcDbVertex
100
AcDb2dVertex
 10
-0.2277756742000179
 20
13.70740220370001
 30
0.0
  0
VERTEX
  5
1CD
330
1BA
100
AcDbEntity
  8
Default
  6
Continuous
100
AcDbVertex
100
AcDb2dVertex
 10
-0.0766128687000105
 20
13.70877074240001
 30
0.0
  0
VERTEX
  5
1CE
330
1BA
100
AcDbEntity
  8
Default
  6
Continuous
100
AcDbVertex
100
AcDb2dVertex
 10
-0.0000034331000052
 20
13.70877619966378
 30
0.0
  0
SEQEND
  5
1CF
330
1BA
100
AcDbEntity
  8
Default
  6
Continuous
  0
LINE
  5
1D0
330
1F
100
AcDbEntity
  8
Default
  6
Continuous
100
AcDbLine
 10
-2.559483555647944
 20
13.49399666943623
 30
0.0
 11
-2.397308499100006
 21
13.52338365730001
 31
0.0
  0
LINE
  5
1D1
330
1F
100
AcDbEntity
  8
Default
  6
Continuous
100
AcDbLine
 10
-2.580848357104742
 20
13.34451805679777
 30
0.0
 11
-2.559483555647944
 21
13.49399666943623
 31
0.0
  0
SPLINE
  5
1D2
330
1F
100
AcDbEntity
  8
Default
  6
Continuous
100
AcDbSpline
210
0.0
220
0.0
230
1.0
 70
     8
 71
     3
 72
    12
 73
     8
 74
     0
 42
0.0000000001
 43
0.0000000001
 40
0.0
 40
0.0
 40
0.0
 40
0.0
 40
0.9999630501083864
 40
1.99997228758129
 40
2.999981525054193
 40
3.999990762527097
 40
5.0
 40
5.0
 40
5.0
 40
5.0
 10
-2.685823578550014
 20
13.34822558900001
 30
0.0
 10
-2.68440671752046
 20
13.33826736155393
 30
0.0
 10
-2.676942659833628
 20
13.31842426098748
 30
0.0
 10
-2.650584546951904
 20
13.30081926749996
 30
0.0
 10
-2.618941983967716
 20
13.29992178716802
 30
0.0
 10
-2.591354822129347
 20
13.31522957935802
 30
0.0
 10
-2.582229268289552
 20
13.33450915620807
 30
0.0
 10
-2.580848357104742
 20
13.34451805679777
 30
0.0
  0
LINE
  5
1D3
330
1F
100
AcDbEntity
  8
Default
  6
Continuous
100
AcDbLine
 10
-2.785000000000025
 20
14.05321764597825
 30
0.0
 11
-2.685823578550014
 21
13.34822558900001
 31
0.0
  0
LINE
  5
1D4
330
1F
100
AcDbEntity
  8
Default
  6
Continuous
100
AcDbLine
 10
-2.784999999999997
 20
14.14651593070001
 30
0.0
 11
-2.785000000000025
 21
14.05321764597825
 31
0.0
  0
ARC
  5
1D5
330
1F
100
AcDbEntity
  8
Default
  6
Continuous
100
AcDbCircle
 10
-2.54802472962524
 20
13.09679530657934
 30
0.0
 40
1.076136918553346
100
AcDbArc
 50
93.58761463965162
 51
102.721321725761
  0
SPLINE
  5
1D6
330
1F
100
AcDbEntity
  8
Default
  6
Continuous
100
AcDbSpline
210
0.0
220
0.0
230
1.0
 70
     8
 71
     3
 72
    12
 73
     8
 74
     0
 42
0.0000000001
 43
0.0000000001
 40
0.0
 40
0.0
 40
0.0
 40
0.0
 40
1.0
 40
2.0
 40
3.0
 40
4.0
 40
5.0
 40
5.0
 40
5.0
 40
5.0
 10
2.615363753099984
 20
14.17082329680001
 30
0.0
 10
2.267168323664151
 20
14.19265433107238
 30
0.0
 10
1.569784057244703
 20
14.21683086119529
 30
0.0
 10
0.5233046498392184
 20
14.23231264087772
 30
0.0
 10
-0.523304700662095
 20
14.23231264319179
 30
0.0
 10
-1.569784023824553
 20
14.21683086128222
 30
0.0
 10
-2.267168321939238
 20
14.19265433163243
 30
0.0
 10
-2.615363759800005
 20
14.17082329620001
 30
0.0
  0
SPLINE
  5
1D7
330
1F
100
AcDbEntity
  8
Default
  6
Continuous
100
AcDbSpline
210
0.0
220
0.0
230
1.0
 70
     8
 71
     3
 72
     8
 73
     4
 74
     0
 42
0.0000000001
 43
0.0000000001
 40
0.0
 40
0.0
 40
0.0
 40
0.0
 40
1.0
 40
1.0
 40
1.0
 40
1.0
 10
-8.199906202750014
 20
12.85488622045001
 30
0.0
 10
-6.0968117780032
 20
12.85878767781139
 30
0.0
 10
-3.993712047419081
 20
12.85973251335454
 30
0.0
 10
-1.890614957499992
 20
12.85757108960001
 30
0.0
  0
SPLINE
  5
1D8
330
1F
100
AcDbEntity
  8
Default
  6
Continuous
100
AcDbSpline
210
0.0
220
0.0
230
1.0
 70
     8
 71
     3
 72
     8
 73
     4
 74
     0
 42
0.0000000001
 43
0.0000000001
 40
0.0
 40
0.0
 40
0.0
 40
0.0
 40
1.0
 40
1.0
 40
1.0
 40
1.0
 10
-8.25
 20
12.90489713000001
 30
0.0
 10
-8.250525083661898
 20
12.87816503806705
 30
0.0
 10
-8.226627098073237
 20
12.85430332630995
 30
0.0
 10
-8.199906202750014
 20
12.85488622045001
 30
0.0
  0
LINE
  5
1D9
330
1F
100
AcDbEntity
  8
Default
  6
Continuous
100
AcDbLine
 10
-8.25
 20
13.12468026225001
 30
0.0
 11
-8.25
 21
12.90489713000001
 31
0.0
  0
SPLINE
  5
1DA
330
1F
100
AcDbEntity
  8
Default
  6
Continuous
100
AcDbSpline
210
0.0
220
0.0
230
1.0
 70
     8
 71
     3
 72
     8
 73
     4
 74
     0
 42
0.0000000001
 43
0.0000000001
 40
0.0
 40
0.0
 40
0.0
 40
0.0
 40
1.0
 40
1.0
 40
1.0
 40
1.0
 10
-8.199906210150004
 20
13.17469085700001
 30
0.0
 10
-8.226627091291164
 20
13.1752802035509
 30
0.0
 10
-8.250525090123318
 20
13.1514183463781
 30
0.0
 10
-8.25
 20
13.12468026225001
 30
0.0
  0
SPLINE
  5
1DB
330
1F
100
AcDbEntity
  8
Default
  6
Continuous
100
AcDbSpline
210
0.0
220
0.0
230
1.0
 70
     8
 71
     3
 72
     8
 73
     4
 74
     0
 42
0.0000000001
 43
0.0000000001
 40
0.0
 40
0.0
 40
0.0
 40
0.0
 40
1.0
 40
1.0
 40
1.0
 40
1.0
 10
-2.095443113300007
 20
13.17179405190001
 30
0.0
 10
-4.13026401948764
 20
13.16992128408987
 30
0.0
 10
-6.165087932660356
 20
13.17088679400509
 30
0.0
 10
-8.199906210150004
 20
13.17469085700001
 30
0.0
  0
ARC
  5
1DC
330
1F
100
AcDbEntity
  8
Default
  6
Continuous
100
AcDbCircle
 10
-7.473509625199995
 20
2.784995106100013
 30
0.0
 40
0.01
100
AcDbArc
 50
0.0
 51
90.0
  0
LINE
  5
1DD
330
1F
100
AcDbEntity
  8
Default
  6
Continuous
100
AcDbLine
 10
-7.463509625200004
 20
2.72499510610001
 30
0.0
 11
-7.463509625200004
 21
2.784995106100013
 31
0.0
  0
ARC
  5
1DE
330
1F
100
AcDbEntity
  8
Default
  6
Continuous
100
AcDbCircle
 10
-7.473509625199995
 20
2.72499510610001
 30
0.0
 40
0.01
100
AcDbArc
 50
270.0
 51
0.0
  0
LINE
  5
1DF
330
1F
100
AcDbEntity
  8
Default
  6
Continuous
100
AcDbLine
 10
-8.02050962520002
 20
2.714995106100012
 30
0.0
 11
-7.473509625199995
 21
2.714995106100012
 31
0.0
  0
ARC
  5
1E0
330
1F
100
AcDbEntity
  8
Default
  6
Continuous
100
AcDbCircle
 10
-8.02050962520002
 20
2.72499510610001
 30
0.0
 40
0.01
100
AcDbArc
 50
180.0
 51
270.0
  0
LINE
  5
1E1
330
1F
100
AcDbEntity
  8
Default
  6
Continuous
100
AcDbLine
 10
-8.030509625200011
 20
2.784995106100013
 30
0.0
 11
-8.030509625200011
 21
2.72499510610001
 31
0.0
  0
ARC
  5
1E2
330
1F
100
AcDbEntity
  8
Default
  6
Continuous
100
AcDbCircle
 10
-8.02050962520002
 20
2.784995106100013
 30
0.0
 40
0.01
100
AcDbArc
 50
90.0
 51
180.0
  0
ARC
  5
1E3
330
1F
100
AcDbEntity
  8
Default
  6
Continuous
100
AcDbCircle
 10
-12.26142488469998
 20
2.784995106100013
 30
0.0
 40
0.01
100
AcDbArc
 50
0.0
 51
90.0
  0
LINE
  5
1E4
330
1F
100
AcDbEntity
  8
Default
  6
Continuous
100
AcDbLine
 10
-12.25142488469999
 20
2.72499510610001
 30
0.0
 11
-12.25142488469999
 21
2.784995106100013
 31
0.0
  0
ARC
  5
1E5
330
1F
100
AcDbEntity
  8
Default
  6
Continuous
100
AcDbCircle
 10
-12.26142488469998
 20
2.72499510610001
 30
0.0
 40
0.01
100
AcDbArc
 50
270.0
 51
0.0
  0
LINE
  5
1E6
330
1F
100
AcDbEntity
  8
Default
  6
Continuous
100
AcDbLine
 10
-12.8084248847
 20
2.714995106100012
 30
0.0
 11
-12.26142488469998
 21
2.714995106100012
 31
0.0
  0
ARC
  5
1E7
330
1F
100
AcDbEntity
  8
Default
  6
Continuous
100
AcDbCircle
 10
-12.8084248847
 20
2.72499510610001
 30
0.0
 40
0.01
100
AcDbArc
 50
180.0
 51
270.0
  0
LINE
  5
1E8
330
1F
100
AcDbEntity
  8
Default
  6
Continuous
100
AcDbLine
 10
-12.81842488469999
 20
2.784995106100013
 30
0.0
 11
-12.81842488469999
 21
2.72499510610001
 31
0.0
  0
ARC
  5
1E9
330
1F
100
AcDbEntity
  8
Default
  6
Continuous
100
AcDbCircle
 10
-12.8084248847
 20
2.784995106100013
 30
0.0
 40
0.01
100
AcDbArc
 50
90.0
 51
180.0
  0
ARC
  5
1EA
330
1F
100
AcDbEntity
  8
Default
  6
Continuous
100
AcDbCircle
 10
-0.8000000000000114
 20
0.1999951061000118
 30
0.0
 40
0.2000000000000028
100
AcDbArc
 50
180.0
 51
270.0
  0
LINE
  5
1EB
330
1F
100
AcDbEntity
  8
Default
  6
Continuous
100
AcDbLine
 10
-1.0
 20
2.359995106100008
 30
0.0
 11
-1.0
 21
0.1999951061000118
 31
0.0
  0
ARC
  5
1EC
330
1F
100
AcDbEntity
  8
Default
  6
Continuous
100
AcDbCircle
 10
-0.8000000000000114
 20
2.359995106100008
 30
0.0
 40
0.2
100
AcDbArc
 50
90.0
 51
180.0
  0
LINE
  5
1ED
330
1F
100
AcDbEntity
  8
Default
  6
Continuous
100
AcDbLine
 10
-0.4194999999999993
 20
2.559987607100012
 30
0.0
 11
-0.8000000000000114
 21
2.559995106100011
 31
0.0
  0
LINE
  5
1EE
330
1F
100
AcDbEntity
  8
Default
  6
Continuous
100
AcDbLine
 10
-0.4194999999999993
 20
0.0000026051000077
 30
0.0
 11
-0.4194999999999993
 21
2.559987607100012
 31
0.0
  0
LINE
  5
1EF
330
1F
100
AcDbEntity
  8
Default
  6
Continuous
100
AcDbLine
 10
-0.8000000000000114
 20
-0.000004893899991
 30
0.0
 11
-0.4194999999999993
 21
0.0000026051000077
 31
0.0
  0
LINE
  5
1F0
330
1F
100
AcDbEntity
  8
Default
  6
Continuous
100
AcDbLine
 10
0.4194999999999993
 20
2.559987607100012
 30
0.0
 11
0.4194999999999993
 21
0.0000026051000077
 31
0.0
  0
LINE
  5
1F1
330
1F
100
AcDbEntity
  8
Default
  6
Continuous
100
AcDbLine
 10
0.8000000000000114
 20
2.559995106100011
 30
0.0
 11
0.4194999999999993
 21
2.559987607100012
 31
0.0
  0
ARC
  5
1F2
330
1F
100
AcDbEntity
  8
Default
  6
Continuous
100
AcDbCircle
 10
0.8000000000000114
 20
2.359995106100008
 30
0.0
 40
0.2
100
AcDbArc
 50
0.0
 51
90.0
  0
LINE
  5
1F3
330
1F
100
AcDbEntity
  8
Default
  6
Continuous
100
AcDbLine
 10
1.0
 20
0.1999951061000118
 30
0.0
 11
1.0
 21
2.359995106100008
 31
0.0
  0
ARC
  5
1F4
330
1F
100
AcDbEntity
  8
Default
  6
Continuous
100
AcDbCircle
 10
0.8000000000000114
 20
0.1999951061000118
 30
0.0
 40
0.2
100
AcDbArc
 50
270.0
 51
0.0
  0
LINE
  5
1F5
330
1F
100
AcDbEntity
  8
Default
  6
Continuous
100
AcDbLine
 10
0.4194999999999993
 20
0.0000026051000077
 30
0.0
 11
0.8000000000000114
 21
-0.000004893899991
 31
0.0
  0
LINE
  5
1F6
330
1F
100
AcDbEntity
  8
Default
  6
Continuous
100
AcDbLine
 10
-0.3299999999999841
 20
2.684995106100011
 30
0.0
 11
-0.3299999999999841
 21
2.559995106100011
 31
0.0
  0
LINE
  5
1F7
330
1F
100
AcDbEntity
  8
Default
  6
Continuous
100
AcDbLine
 10
0.3299999999999841
 20
2.684995106100011
 30
0.0
 11
-0.3299999999999841
 21
2.684995106100011
 31
0.0
  0
LINE
  5
1F8
330
1F
100
AcDbEntity
  8
Default
  6
Continuous
100
AcDbLine
 10
0.3299999999999841
 20
2.559995106100011
 30
0.0
 11
0.3299999999999841
 21
2.684995106100011
 31
0.0
  0
LINE
  5
1F9
330
1F
100
AcDbEntity
  8
Default
  6
Continuous
100
AcDbLine
 10
0.3545000000000016
 20
2.559995106100011
 30
0.0
 11
0.3545000000000016
 21
1.27999510610001
 31
0.0
  0
LINE
  5
1FA
330
1F
100
AcDbEntity
  8
Default
  6
Continuous
100
AcDbLine
 10
-0.3545000000000016
 20
2.559995106100011
 30
0.0
 11
0.3545000000000016
 21
2.559995106100011
 31
0.0
  0
LINE
  5
1FB
330
1F
100
AcDbEntity
  8
Default
  6
Continuous
100
AcDbLine
 10
-0.3545000000000016
 20
1.27999510610001
 30
0.0
 11
-0.3545000000000016
 21
2.559995106100011
 31
0.0
  0
LINE
  5
1FC
330
1F
100
AcDbEntity
  8
Default
  6
Continuous
100
AcDbLine
 10
0.3545000000000016
 20
1.27999510610001
 30
0.0
 11
-0.3545000000000016
 21
1.27999510610001
 31
0.0
  0
LINE
  5
1FD
330
1F
100
AcDbEntity
  8
Default
  6
Continuous
100
AcDbLine
 10
-0.4194999999999993
 20
0.8996278575000076
 30
0.0
 11
0.4194999999999993
 21
0.8996278575000076
 31
0.0
  0
POLYLINE
  5
1FE
330
1F
100
AcDbEntity
  8
Default
100
AcDb2dPolyline
 66
     1
 10
0.0
 20
0.0
 30
0.0
  0
VERTEX
  5
1FF
330
1FE
100
AcDbEntity
  8
Default
100
AcDbVertex
100
AcDb2dVertex
 10
2.632957016446795
 20
13.30102818113606
 30
0.0
  0
VERTEX
  5
200
330
1FE
100
AcDbEntity
  8
Default
100
AcDbVertex
100
AcDb2dVertex
 10
2.170331625100403
 20
13.30102818113606
 30
0.0
  0
SEQEND
  5
201
330
1FE
100
AcDbEntity
  8
Default
  0
LINE
  5
202
330
1F
100
AcDbEntity
  8
Default
  6
Continuous
100
AcDbLine
 10
-3.625
 20
13.96509576200001
 30
0.0
 11
-3.625
 21
14.38912834380001
 31
0.0
  0
LINE
  5
203
330
1F
100
AcDbEntity
  8
Default
  6
Continuous
100
AcDbLine
 10
-6.747009625200008
 20
0.1999951061000118
 30
0.0
 11
-6.747009625200008
 21
2.359995106100008
 31
0.0
  0
LINE
  5
204
330
1F
100
AcDbEntity
  8
Default
  6
Continuous
100
AcDbLine
 10
-7.32750962519998
 20
0.0000101041000136
 30
0.0
 11
-7.32750962519998
 21
2.559980108100007
 31
0.0
  0
LINE
  5
205
330
1F
100
AcDbEntity
  8
Default
  6
Continuous
100
AcDbLine
 10
-7.392509625199978
 20
2.559995106100011
 30
0.0
 11
-7.392509625199978
 21
1.27999510610001
 31
0.0
  0
LINE
  5
206
330
1F
100
AcDbEntity
  8
Default
  6
Continuous
100
AcDbLine
 10
-7.417009625199995
 20
2.684995106100011
 30
0.0
 11
-7.417009625199995
 21
2.559995106100011
 31
0.0
  0
LINE
  5
207
330
1F
100
AcDbEntity
  8
Default
  6
Continuous
100
AcDbLine
 10
-0.5511811023000064
 20
10.79978533780001
 30
0.0
 11
-0.5511811023000064
 21
8.793328644900008
 31
0.0
  0
LINE
  5
208
330
1F
100
AcDbEntity
  8
Default
  6
Continuous
100
AcDbLine
 10
0.5363702700000204
 20
11.38978533780001
 30
0.0
 11
0.551181102399994
 21
10.79978533780001
 31
0.0
  0
LINE
  5
209
330
1F
100
AcDbEntity
  8
Default
  6
Continuous
100
AcDbLine
 10
-2.875
 20
14.23452134270001
 30
0.0
 11
2.875
 21
14.23452134270001
 31
0.0
  0
LINE
  5
20A
330
1F
100
AcDbEntity
  8
Default
  6
Continuous
100
AcDbLine
 10
3.625
 20
14.38912834380001
 30
0.0
 11
3.625
 21
13.96509576200001
 31
0.0
  0
LINE
  5
20B
330
1F
100
AcDbEntity
  8
Default
  6
Continuous
100
AcDbLine
 10
-0.5363702699999919
 20
11.38978533780001
 30
0.0
 11
-0.5511811023000064
 21
10.79978533780001
 31
0.0
  0
LINE
  5
20C
330
1F
100
AcDbEntity
  8
Default
  6
Continuous
100
AcDbLine
 10
0.551181102399994
 20
10.79978533780001
 30
0.0
 11
0.551181102399994
 21
8.793328644900008
 31
0.0
  0
LINE
  5
20D
330
1F
100
AcDbEntity
  8
Default
  6
Continuous
100
AcDbLine
 10
-11.66171216239999
 20
4.392983729000008
 30
0.0
 11
-11.66200261059998
 21
4.392899558000011
 31
0.0
  0
LINE
  5
20E
330
1F
100
AcDbEntity
  8
Default
  6
Continuous
100
AcDbLine
 10
-2.740095644099995
 20
8.171381142400008
 30
0.0
 11
-2.740856324499987
 21
8.171131109700006
 31
0.0
  0
ARC
  5
20F
330
1F
100
AcDbEntity
  8
Default
  6
Continuous
100
AcDbCircle
 10
-6.947009625199996
 20
2.359995106100008
 30
0.0
 40
0.2
100
AcDbArc
 50
0.0
 51
90.0
  0
ARC
  5
210
330
1F
100
AcDbEntity
  8
Default
  6
Continuous
100
AcDbCircle
 10
-8.547009625200019
 20
2.359995106100008
 30
0.0
 40
0.2
100
AcDbArc
 50
90.0
 51
180.0
  0
ARC
  5
211
330
1F
100
AcDbEntity
  8
Default
  6
Continuous
100
AcDbCircle
 10
-8.547009625200019
 20
0.1999951061000118
 30
0.0
 40
0.2
100
AcDbArc
 50
180.0
 51
270.0
  0
ARC
  5
212
330
1F
100
AcDbEntity
  8
Default
  6
Continuous
100
AcDbCircle
 10
-6.947009625199996
 20
0.1999951061000118
 30
0.0
 40
0.2
100
AcDbArc
 50
270.0
 51
0.0
  0
LINE
  5
213
330
1F
100
AcDbEntity
  8
Default
  6
Continuous
100
AcDbLine
 10
-7.417009625199995
 20
2.684995106100011
 30
0.0
 11
-8.077009625199992
 21
2.684995106100011
 31
0.0
  0
LINE
  5
214
330
1F
100
AcDbEntity
  8
Default
  6
Continuous
100
AcDbLine
 10
-8.166509625199978
 20
2.559995106100011
 30
0.0
 11
-8.547009625200019
 21
2.559995106100011
 31
0.0
  0
LINE
  5
215
330
1F
100
AcDbEntity
  8
Default
  6
Continuous
100
AcDbLine
 10
-6.947009625199996
 20
2.559995106100011
 30
0.0
 11
-7.32750962519998
 21
2.559995106100011
 31
0.0
  0
LINE
  5
216
330
1F
100
AcDbEntity
  8
Default
  6
Continuous
100
AcDbLine
 10
-8.10150962519998
 20
2.559995106100011
 30
0.0
 11
-7.392509625199978
 21
2.559995106100011
 31
0.0
  0
LINE
  5
217
330
1F
100
AcDbEntity
  8
Default
  6
Continuous
100
AcDbLine
 10
-7.392509625199978
 20
1.27999510610001
 30
0.0
 11
-8.10150962519998
 21
1.27999510610001
 31
0.0
  0
LINE
  5
218
330
1F
100
AcDbEntity
  8
Default
  6
Continuous
100
AcDbLine
 10
-8.166509625199978
 20
-0.000004893899991
 30
0.0
 11
-8.547009625200019
 21
-0.000004893899991
 31
0.0
  0
LINE
  5
219
330
1F
100
AcDbEntity
  8
Default
  6
Continuous
100
AcDbLine
 10
-6.947009625199996
 20
-0.000004893899991
 30
0.0
 11
-7.32750962519998
 21
-0.000004893899991
 31
0.0
  0
LINE
  5
21A
330
1F
100
AcDbEntity
  8
Default
  6
Continuous
100
AcDbLine
 10
-8.077009625199992
 20
2.684995106100011
 30
0.0
 11
-8.077009625199992
 21
2.559995106100011
 31
0.0
  0
LINE
  5
21B
330
1F
100
AcDbEntity
  8
Default
  6
Continuous
100
AcDbLine
 10
-8.10150962519998
 20
2.559995106100011
 30
0.0
 11
-8.10150962519998
 21
1.27999510610001
 31
0.0
  0
LINE
  5
21C
330
1F
100
AcDbEntity
  8
Default
  6
Continuous
100
AcDbLine
 10
-8.166509625199978
 20
0.0000101041000136
 30
0.0
 11
-8.166509625199978
 21
2.559980108100007
 31
0.0
  0
LINE
  5
21D
330
1F
100
AcDbEntity
  8
Default
  6
Continuous
100
AcDbLine
 10
-8.747009625200008
 20
0.1999951061000118
 30
0.0
 11
-8.747009625200008
 21
2.359995106100008
 31
0.0
  0
SPLINE
  5
21E
330
1F
100
AcDbEntity
  8
Default
  6
Continuous
100
AcDbSpline
210
0.0
220
0.0
230
1.0
 70
     8
 71
     3
 72
    35
 73
    31
 74
     0
 42
0.0000000001
 43
0.0000000001
 40
0.0
 40
0.0
 40
0.0
 40
0.0
 40
0.0005377668
 40
0.0011161301
 40
0.0017678783
 40
0.0025161064
 40
0.0043557189
 40
0.0067077113
 40
0.0096033388
 40
0.0130583904
 40
0.0170814357
 40
0.0216773103
 40
0.0268482916
 40
0.0325935447
 40
0.0457974437
 40
0.0612668117
 40
0.0789742913
 40
0.0988865742
 40
0.1209547729
 40
0.1451255489
 40
0.1713449744
 40
0.2296862033
 40
0.2954125359
 40
0.36790822
 40
0.4464717455
 40
0.5303598857
 40
0.618749988
 40
0.7107972084
 40
0.8056481507
 40
1.0
 40
1.0
 40
1.0
 40
1.0
 10
3.625
 20
14.20180680220001
 30
0.0
 10
3.625
 20
14.20194175600001
 30
0.0
 10
3.624958636799988
 20
14.20222316180001
 30
0.0
 10
3.624778666800012
 20
14.2026331146
 30
0.0
 10
3.624485752800013
 20
14.20303755420001
 30
0.0
 10
3.623906495499995
 20
14.20361170190001
 30
0.0
 10
3.622870584200001
 20
14.20430834930001
 30
0.0
 10
3.621272442800006
 20
14.20509351570001
 30
0.0
 10
3.619232429500016
 20
14.20587983250001
 30
0.0
 10
3.616749766999988
 20
14.20666636780001
 30
0.0
 10
3.613822600300011
 20
14.20745209400001
 30
0.0
 10
3.610451411700012
 20
14.20823583370001
 30
0.0
 10
3.606637346699983
 20
14.20901663670001
 30
0.0
 10
3.600682451400019
 20
14.21010399440001
 30
0.0
 10
3.5921455278
 20
14.21142703030001
 30
0.0
 10
3.580603400100017
 20
14.21293363590001
 30
0.0
 10
3.567362826800007
 20
14.21441732550001
 30
0.0
 10
3.552454564199991
 20
14.21587351280001
 30
0.0
 10
3.535914715300009
 20
14.21729830670001
 30
0.0
 10
3.517784062000004
 20
14.21868786710001
 30
0.0
 10
3.490561396299995
 20
14.22055514860001
 30
0.0
 10
3.452908780900003
 20
14.22273894370001
 30
0.0
 10
3.403636058500012
 20
14.22508650160001
 30
0.0
 10
3.349274400199988
 20
14.22721653310001
 30
0.0
 10
3.290343819300006
 20
14.22910946040001
 30
0.0
 10
3.227415376099998
 20
14.23074348110001
 30
0.0
 10
3.161095975899997
 20
14.23210416680001
 30
0.0
 10
3.092019807300005
 20
14.23317641270001
 30
0.0
 10
2.996349684100011
 20
14.23421607560001
 30
0.0
 10
2.923773030599989
 20
14.23452134270001
 30
0.0
 10
2.875
 20
14.23452134270001
 30
0.0
  0
SPLINE
  5
21F
330
1F
100
AcDbEntity
  8
Default
  6
Continuous
100
AcDbSpline
210
0.0
220
0.0
230
1.0
 70
     8
 71
     3
 72
    35
 73
    31
 74
     0
 42
0.0000000001
 43
0.0000000001
 40
0.0
 40
0.0
 40
0.0
 40
0.0
 40
0.1943518493
 40
0.2892027916
 40
0.381250012
 40
0.4696401143
 40
0.5535282545
 40
0.63209178
 40
0.7045874641
 40
0.7703137967
 40
0.8286550256
 40
0.8548744511
 40
0.8790452271
 40
0.9011134258
 40
0.9210257087
 40
0.9387331883
 40
0.9542025563
 40
0.9674064553
 40
0.9731517084
 40
0.9783226897
 40
0.9829185643
 40
0.9869416096
 40
0.9903966612
 40
0.9932922887
 40
0.9956442811
 40
0.9974838936
 40
0.9982321217
 40
0.9988838699
 40
0.9994622332
 40
1.0
 40
1.0
 40
1.0
 40
1.0
 10
-2.875
 20
14.23452134270001
 30
0.0
 10
-2.923773030599989
 20
14.23452134270001
 30
0.0
 10
-2.996349683999995
 20
14.23421607560001
 30
0.0
 10
-3.092019807200018
 20
14.23317641270001
 30
0.0
 10
-3.161095975899997
 20
14.23210416680001
 30
0.0
 10
-3.22741537600001
 20
14.23074348110001
 30
0.0
 10
-3.290343819200018
 20
14.22910946040001
 30
0.0
 10
-3.349274400100001
 20
14.22721653310001
 30
0.0
 10
-3.403636058399997
 20
14.22508650160001
 30
0.0
 10
-3.452908780799987
 20
14.22273894370001
 30
0.0
 10
-3.490561396200007
 20
14.22055514860001
 30
0.0
 10
-3.517784062000004
 20
14.21868786710001
 30
0.0
 10
-3.535914715199993
 20
14.21729830670001
 30
0.0
 10
-3.552454564100003
 20
14.21587351280001
 30
0.0
 10
-3.567362826699991
 20
14.21441732550001
 30
0.0
 10
-3.580603400000001
 20
14.21293363590001
 30
0.0
 10
-3.5921455278
 20
14.21142703030001
 30
0.0
 10
-3.600682451300003
 20
14.21010399440001
 30
0.0
 10
-3.606637346599996
 20
14.20901663670001
 30
0.0
 10
-3.610451411599996
 20
14.20823583370001
 30
0.0
 10
-3.613822600199995
 20
14.20745209400001
 30
0.0
 10
-3.6167497669
 20
14.20666636780001
 30
0.0
 10
-3.6192324294
 20
14.20587983250001
 30
0.0
 10
-3.62127244269999
 20
14.20509351570001
 30
0.0
 10
-3.622870584099985
 20
14.20430834930001
 30
0.0
 10
-3.623906495399979
 20
14.20361170190001
 30
0.0
 10
-3.624485752699997
 20
14.20303755420001
 30
0.0
 10
-3.624778666800012
 20
14.2026331146
 30
0.0
 10
-3.624958636700001
 20
14.20222316180001
 30
0.0
 10
-3.625
 20
14.20194175600001
 30
0.0
 10
-3.625
 20
14.20180680220001
 30
0.0
  0
ARC
  5
220
330
1F
100
AcDbEntity
  8
Default
  6
Continuous
100
AcDbCircle
 10
8.547009625200005
 20
0.1999951061000118
 30
0.0
 40
0.2
100
AcDbArc
 50
270.0
 51
0.0
  0
LINE
  5
221
330
1F
100
AcDbEntity
  8
Default
  6
Continuous
100
AcDbLine
 10
7.327509625199994
 20
0.0000101041000136
 30
0.0
 11
7.327509625199994
 21
2.559980108100007
 31
0.0
  0
LINE
  5
222
330
1F
100
AcDbEntity
  8
Default
  6
Continuous
100
AcDbLine
 10
7.417009625199995
 20
2.684995106100011
 30
0.0
 11
7.417009625199995
 21
2.559995106100011
 31
0.0
  0
LINE
  5
223
330
1F
100
AcDbEntity
  8
Default
  6
Continuous
100
AcDbLine
 10
8.166509625199993
 20
0.0000101041000136
 30
0.0
 11
8.166509625199993
 21
2.559980108100007
 31
0.0
  0
LINE
  5
224
330
1F
100
AcDbEntity
  8
Default
  6
Continuous
100
AcDbLine
 10
8.747009625199993
 20
0.1999951061000118
 30
0.0
 11
8.747009625199993
 21
2.359995106100008
 31
0.0
  0
LINE
  5
225
330
1F
100
AcDbEntity
  8
Default
  6
Continuous
100
AcDbLine
 10
7.417009625199995
 20
2.684995106100011
 30
0.0
 11
8.077009625200006
 21
2.684995106100011
 31
0.0
  0
LINE
  5
226
330
1F
100
AcDbEntity
  8
Default
  6
Continuous
100
AcDbLine
 10
8.166509625199993
 20
2.559995106100011
 30
0.0
 11
8.547009625200005
 21
2.559995106100011
 31
0.0
  0
LINE
  5
227
330
1F
100
AcDbEntity
  8
Default
  6
Continuous
100
AcDbLine
 10
6.947009625199996
 20
2.559995106100011
 30
0.0
 11
7.327509625199994
 21
2.559995106100011
 31
0.0
  0
LINE
  5
228
330
1F
100
AcDbEntity
  8
Default
  6
Continuous
100
AcDbLine
 10
8.101509625199995
 20
2.559995106100011
 30
0.0
 11
7.392509625199992
 21
2.559995106100011
 31
0.0
  0
LINE
  5
229
330
1F
100
AcDbEntity
  8
Default
  6
Continuous
100
AcDbLine
 10
7.392509625199992
 20
1.27999510610001
 30
0.0
 11
8.101509625199995
 21
1.27999510610001
 31
0.0
  0
ARC
  5
22A
330
1F
100
AcDbEntity
  8
Default
  6
Continuous
100
AcDbCircle
 10
6.947009625199996
 20
2.359995106100008
 30
0.0
 40
0.2
100
AcDbArc
 50
90.0
 51
180.0
  0
LINE
  5
22B
330
1F
100
AcDbEntity
  8
Default
  6
Continuous
100
AcDbLine
 10
8.077009625200006
 20
2.684995106100011
 30
0.0
 11
8.077009625200006
 21
2.559995106100011
 31
0.0
  0
LINE
  5
22C
330
1F
100
AcDbEntity
  8
Default
  6
Continuous
100
AcDbLine
 10
8.101509625199995
 20
2.559995106100011
 30
0.0
 11
8.101509625199995
 21
1.27999510610001
 31
0.0
  0
LINE
  5
22D
330
1F
100
AcDbEntity
  8
Default
  6
Continuous
100
AcDbLine
 10
7.392509625199992
 20
2.559995106100011
 30
0.0
 11
7.392509625199992
 21
1.27999510610001
 31
0.0
  0
ARC
  5
22E
330
1F
100
AcDbEntity
  8
Default
  6
Continuous
100
AcDbCircle
 10
8.547009625200005
 20
2.359995106100008
 30
0.0
 40
0.2
100
AcDbArc
 50
0.0
 51
90.0
  0
LINE
  5
22F
330
1F
100
AcDbEntity
  8
Default
  6
Continuous
100
AcDbLine
 10
6.747009625200008
 20
0.1999951061000118
 30
0.0
 11
6.747009625200008
 21
2.359995106100008
 31
0.0
  0
ARC
  5
230
330
1F
100
AcDbEntity
  8
Default
  6
Continuous
100
AcDbCircle
 10
48.99757543608877
 20
7.025630894040752
 30
0.0
 40
57.15057931661978
100
AcDbArc
 50
184.0839514580406
 51
184.2452676826755
  0
SPLINE
  5
231
330
1F
100
AcDbEntity
  8
Default
  6
Continuous
100
AcDbSpline
210
0.0
220
0.0
230
1.0
 70
     8
 71
     3
 72
    12
 73
     8
 74
     0
 42
0.0000000001
 43
0.0000000001
 40
3.531675544472805
 40
3.531675544472805
 40
3.531675544472805
 40
3.531675544472805
 40
4.531675544472805
 40
5.531675544472805
 40
6.531675544472805
 40
7.531675544472805
 40
9.531675544472805
 40
9.531675544472805
 40
9.531675544472805
 40
9.531675544472805
 10
-7.9335024369
 20
4.698410133900012
 30
0.0
 10
-8.025418175492916
 20
4.639815792546486
 30
0.0
 10
-8.109621004108988
 20
4.431349556257629
 30
0.0
 10
-8.085585763266863
 20
4.114548095374928
 30
0.0
 10
-8.064676572416687
 20
3.798595411081116
 30
0.0
 10
-8.043743031386839
 20
3.482359705503136
 30
0.0
 10
-8.022930392724618
 20
3.166193279281117
 30
0.0
 10
-8.007885428152747
 20
2.955477594633045
 30
0.0
  0
ARC
  5
232
330
1F
100
AcDbEntity
  8
Default
  6
Continuous
100
AcDbCircle
 10
-4.841067341911952
 20
-0.6436203208061855
 30
0.0
 40
6.172555726416912
100
AcDbArc
 50
117.9035992872047
 51
120.0660171933992
  0
LINE
  5
233
330
1F
100
AcDbEntity
  8
Default
  6
Continuous
100
AcDbLine
 10
-4.81453873869998
 20
6.35504114710001
 30
0.0
 11
-7.729732876500009
 21
4.811290826500013
 31
0.0
  0
ARC
  5
234
330
1F
100
AcDbEntity
  8
Default
  6
Continuous
100
AcDbCircle
 10
6.947009625199996
 20
0.1999951061000118
 30
0.0
 40
0.2
100
AcDbArc
 50
180.0
 51
270.0
  0
LINE
  5
235
330
1F
100
AcDbEntity
  8
Default
100
AcDbLine
 10
-2.571415348500011
 20
6.508909690700008
 30
0.0
 11
-1.277005502790075
 21
7.109193073651952
 31
0.0
  0
POLYLINE
  5
236
330
1F
100
AcDbEntity
  8
Default
100
AcDb2dPolyline
 66
     1
 10
0.0
 20
0.0
 30
0.0
  0
VERTEX
  5
237
330
236
100
AcDbEntity
  8
Default
100
AcDbVertex
100
AcDb2dVertex
 10
-7.060060678199989
 20
4.423589496400012
 30
0.0
  0
VERTEX
  5
238
330
236
100
AcDbEntity
  8
Default
100
AcDbVertex
100
AcDb2dVertex
 10
-6.474785493799999
 20
4.696014616000014
 30
0.0
  0
VERTEX
  5
239
330
236
100
AcDbEntity
  8
Default
100
AcDbVertex
100
AcDb2dVertex
 10
-5.846902189800005
 20
4.988058763400005
 30
0.0
  0
VERTEX
  5
23A
330
236
100
AcDbEntity
  8
Default
100
AcDbVertex
100
AcDb2dVertex
 10
-5.210035888300013
 20
5.284078704600006
 30
0.0
  0
VERTEX
  5
23B
330
236
100
AcDbEntity
  8
Default
100
AcDbVertex
100
AcDb2dVertex
 10
-4.564093818900005
 20
5.584136219000008
 30
0.0
  0
VERTEX
  5
23C
330
236
100
AcDbEntity
  8
Default
100
AcDbVertex
100
AcDb2dVertex
 10
-3.909020999299997
 20
5.888276422100006
 30
0.0
  0
VERTEX
  5
23D
330
236
100
AcDbEntity
  8
Default
100
AcDbVertex
100
AcDb2dVertex
 10
-3.244809580500004
 20
6.196521721100012
 30
0.0
  0
VERTEX
  5
23E
330
236
100
AcDbEntity
  8
Default
100
AcDbVertex
100
AcDb2dVertex
 10
-2.571415348500011
 20
6.508909690700008
 30
0.0
  0
SEQEND
  5
23F
330
236
100
AcDbEntity
  8
Default
  0
SPLINE
  5
240
330
1F
100
AcDbEntity
  8
Default
100
AcDbSpline
210
0.0
220
0.0
230
1.0
 70
     8
 71
     3
 72
    10
 73
     6
 74
     0
 42
0.0000000001
 43
0.0000000001
 40
0.0
 40
0.0
 40
0.0
 40
0.0
 40
1.0
 40
2.0
 40
3.0
 40
3.0
 40
3.0
 40
3.0
 10
-7.253451095199978
 20
4.048731042100009
 30
0.0
 10
-7.248765755008151
 20
4.097952641521545
 30
0.0
 10
-7.238072770302153
 20
4.196506724448668
 30
0.0
 10
-7.181926324862644
 20
4.337032593288818
 30
0.0
 10
-7.102433624790478
 20
4.403325979168976
 30
0.0
 10
-7.060060678199989
 20
4.423589496400012
 30
0.0
  0
POLYLINE
  5
241
330
1F
100
AcDbEntity
  8
Default
100
AcDb2dPolyline
 66
     1
 10
0.0
 20
0.0
 30
0.0
  0
VERTEX
  5
242
330
241
100
AcDbEntity
  8
Default
100
AcDbVertex
100
AcDb2dVertex
 10
-7.367216624099996
 20
2.849452973400005
 30
0.0
  0
VERTEX
  5
243
330
241
100
AcDbEntity
  8
Default
100
AcDbVertex
100
AcDb2dVertex
 10
-7.253451095199978
 20
4.048731042100009
 30
0.0
  0
SEQEND
  5
244
330
241
100
AcDbEntity
  8
Default
  0
SPLINE
  5
245
330
1F
100
AcDbEntity
  8
Default
100
AcDbSpline
210
0.0
220
0.0
230
1.0
 70
     8
 71
     3
 72
     8
 73
     4
 74
     0
 42
0.0000000001
 43
0.0000000001
 40
0.0
 40
0.0
 40
0.0
 40
0.0
 40
1.0
 40
1.0
 40
1.0
 40
1.0
 10
-7.427001699599998
 20
2.794995106100011
 30
0.0
 10
-7.400045120185837
 20
2.794995106100011
 30
0.0
 10
-7.369762341961092
 20
2.822616869094738
 30
0.0
 10
-7.367216624099996
 20
2.849452973400005
 30
0.0
  0
LINE
  5
246
330
1F
100
AcDbEntity
  8
Default
100
AcDbLine
 10
-8.066474249400017
 20
2.794995106100011
 30
0.0
 11
-7.427001699599998
 21
2.794995106100011
 31
0.0
  0
SPLINE
  5
247
330
1F
100
AcDbEntity
  8
Default
100
AcDbSpline
210
0.0
220
0.0
230
1.0
 70
     8
 71
     3
 72
     8
 73
     4
 74
     0
 42
0.0000000001
 43
0.0000000001
 40
-1.0
 40
-1.0
 40
-1.0
 40
-1.0
 40
0.0
 40
0.0
 40
0.0
 40
0.0
 10
-8.128695812913065
 20
2.850057516456125
 30
0.0
 10
-8.126639479765174
 20
2.822438409852793
 30
0.0
 10
-8.094169800587537
 20
2.794995106100011
 30
0.0
 10
-8.066474249400017
 20
2.794995106100011
 30
0.0
  0
LINE
  5
248
330
1F
100
AcDbEntity
  8
Default
100
AcDbLine
 10
-8.179031832299984
 20
3.52613273650001
 30
0.0
 11
-8.128695812913065
 21
2.850057516456125
 31
0.0
  0
SPLINE
  5
249
330
1F
100
AcDbEntity
  8
Default
100
AcDbSpline
210
0.0
220
0.0
230
1.0
 70
     8
 71
     3
 72
    13
 73
     9
 74
     0
 42
0.0000000001
 43
0.0000000001
 40
2.929385373386227
 40
2.929385373386227
 40
2.929385373386227
 40
2.929385373386227
 40
3.929385373386227
 40
4.929385373386227
 40
5.929385373386227
 40
6.929385373386227
 40
7.929385373386227
 40
8.929385373386227
 40
8.929385373386227
 40
8.929385373386227
 40
8.929385373386227
 10
-7.98845731091626
 20
4.968781446870828
 30
0.0
 10
-8.063706881376675
 20
4.927859708785952
 30
0.0
 10
-8.174290581084449
 20
4.79137376084536
 30
0.0
 10
-8.234475287917007
 20
4.540869734441969
 30
0.0
 10
-8.237901311636364
 20
4.286335771257562
 30
0.0
 10
-8.21602528898768
 20
4.033021899988306
 30
0.0
 10
-8.198345848683743
 20
3.779535475573674
 30
0.0
 10
-8.185321251162975
 20
3.610607438582647
 30
0.0
 10
-8.179031832299984
 20
3.52613273650001
 30
0.0
  0
LINE
  5
24A
330
1F
100
AcDbEntity
  8
Default
100
AcDbLine
 10
-6.859743370499984
 20
5.592107710200011
 30
0.0
 11
-7.98845731091626
 21
4.968781446870828
 31
0.0
  0
POLYLINE
  5
24B
330
1F
100
AcDbEntity
  8
Default
100
AcDb2dPolyline
 66
     1
 10
0.0
 20
0.0
 30
0.0
  0
VERTEX
  5
24C
330
24B
100
AcDbEntity
  8
Default
100
AcDbVertex
100
AcDb2dVertex
 10
-6.194673657799996
 20
5.959622189700013
 30
0.0
  0
VERTEX
  5
24D
330
24B
100
AcDbEntity
  8
Default
100
AcDbVertex
100
AcDb2dVertex
 10
-6.859743370499984
 20
5.592107710200011
 30
0.0
  0
SEQEND
  5
24E
330
24B
100
AcDbEntity
  8
Default
  0
ARC
  5
24F
330
1F
100
AcDbEntity
  8
Default
  6
Continuous
100
AcDbCircle
 10
0.4592762692461463
 20
4.896582602079597
 30
0.0
 40
0.0779854678024526
100
AcDbArc
 50
0.2394630867358816
 51
68.55683022030495
  0
ARC
  5
250
330
1F
100
AcDbEntity
  8
Default
  6
Continuous
100
AcDbCircle
 10
-0.0005402966578743
 20
3.725866276099495
 30
0.0
 40
1.33576445880051
100
AcDbArc
 50
68.55683022030478
 51
89.9768247141966
  0
ARC
  5
251
330
1F
100
AcDbEntity
  8
Default
  6
Continuous
100
AcDbCircle
 10
0.0005402968000965
 20
3.725866276099495
 30
0.0
 40
1.33576445880051
100
AcDbArc
 50
90.02317528580343
 51
111.4431697796952
  0
ARC
  5
252
330
1F
100
AcDbEntity
  8
Default
  6
Continuous
100
AcDbCircle
 10
-0.4592762691039241
 20
4.896582602079597
 30
0.0
 40
0.0779854678024526
100
AcDbArc
 50
111.443169779695
 51
179.7605369132641
  0
LINE
  5
253
330
1F
100
AcDbEntity
  8
Default
  6
Continuous
100
AcDbLine
 10
0.875984251899979
 20
4.299627857500013
 30
0.0
 11
0.875984251899979
 21
2.544897597500011
 31
0.0
  0
SPLINE
  5
254
330
1F
100
AcDbEntity
  8
Default
  6
Continuous
100
AcDbSpline
210
0.0
220
0.0
230
1.0
 70
     8
 71
     3
 72
     8
 73
     4
 74
     0
 42
0.0000000001
 43
0.0000000001
 40
0.0
 40
0.0
 40
0.0
 40
0.0
 40
1.0
 40
1.0
 40
1.0
 40
1.0
 10
0.9071636910999814
 20
4.679155416600011
 30
0.0
 10
0.9039782222999975
 20
4.552260008800005
 30
0.0
 10
0.875984251899979
 20
4.426563241600007
 30
0.0
 10
0.875984251899979
 20
4.299627857500013
 30
0.0
  0
LINE
  5
255
330
1F
100
AcDbEntity
  8
Default
  6
Continuous
100
AcDbLine
 10
0.9535000000000196
 20
6.524995106100008
 30
0.0
 11
0.9071636910999814
 21
4.679155416600011
 31
0.0
  0
SPLINE
  5
256
330
1F
100
AcDbEntity
  8
Default
  6
Continuous
100
AcDbSpline
210
0.0
220
0.0
230
1.0
 70
     8
 71
     3
 72
    12
 73
     8
 74
     0
 42
0.0000000001
 43
0.0000000001
 40
0.0
 40
0.0
 40
0.0
 40
0.0
 40
0.9999999985670698
 40
1.999999998925302
 40
2.999999999283535
 40
3.999999999641767
 40
5.0
 40
5.0
 40
5.0
 40
5.0
 10
11.96824370095
 20
4.698410136850008
 30
0.0
 10
12.09799163249573
 20
4.655465069847892
 30
0.0
 10
12.31217810982653
 20
4.443714974561125
 30
0.0
 10
12.30648617010674
 20
4.019607608746796
 30
0.0
 10
12.32741104334328
 20
3.614491852101686
 30
0.0
 10
12.33791382001139
 20
3.204111672131368
 30
0.0
 10
12.34312356536597
 20
2.93151910649074
 30
0.0
 10
12.34426560133178
 20
2.794995106100011
 30
0.0
  0
SPLINE
  5
257
330
1F
100
AcDbEntity
  8
Default
  6
Continuous
100
AcDbSpline
210
0.0
220
0.0
230
1.0
 70
     8
 71
     3
 72
     8
 73
     4
 74
     0
 42
0.0000000001
 43
0.0000000001
 40
0.0
 40
0.0
 40
0.0
 40
0.0
 40
1.0
 40
1.0
 40
1.0
 40
1.0
 10
2.147831147399984
 20
7.746446773600006
 30
0.0
 10
5.421306572844799
 20
6.730449905766072
 30
0.0
 10
8.69697918470736
 20
5.721303500045714
 30
0.0
 10
11.96824370095
 20
4.698410136850008
 30
0.0
  0
SPLINE
  5
258
330
1F
100
AcDbEntity
  8
Default
  6
Continuous
100
AcDbSpline
210
0.0
220
0.0
230
1.0
 70
     8
 71
     3
 72
    12
 73
     8
 74
     0
 42
0.0000000001
 43
0.0000000001
 40
0.0
 40
0.0
 40
0.0
 40
0.0
 40
1.000000663065333
 40
2.000001326130667
 40
3.000001989196
 40
4.000002652261333
 40
5.0
 40
5.0
 40
5.0
 40
5.0
 10
0.8536293587999921
 20
7.746423552500005
 30
0.0
 10
0.8585296482291938
 20
7.850258689756132
 30
0.0
 10
1.036516303620601
 20
7.963400123573741
 30
0.0
 10
1.322763771802954
 20
7.948901119100121
 30
0.0
 10
1.602624667860937
 20
7.904569600638276
 30
0.0
 10
1.876637960074362
 20
7.829347003635966
 30
0.0
 10
2.057461080041264
 20
7.774344971779875
 30
0.0
 10
2.147831147399984
 20
7.746446773600006
 30
0.0
  0
LINE
  5
259
330
1F
100
AcDbEntity
  8
Default
  6
Continuous
100
AcDbLine
 10
12.1804248847
 20
2.559995106100011
 30
0.0
 11
12.1804248847
 21
1.27999510610001
 31
0.0
  0
LINE
  5
25A
330
1F
100
AcDbEntity
  8
Default
  6
Continuous
100
AcDbLine
 10
12.88942488470001
 20
2.559995106100011
 30
0.0
 11
12.1804248847
 21
2.559995106100011
 31
0.0
  0
LINE
  5
25B
330
1F
100
AcDbEntity
  8
Default
  6
Continuous
100
AcDbLine
 10
12.88942488470001
 20
1.27999510610001
 30
0.0
 11
12.88942488470001
 21
2.559995106100011
 31
0.0
  0
LINE
  5
25C
330
1F
100
AcDbEntity
  8
Default
  6
Continuous
100
AcDbLine
 10
12.1804248847
 20
1.27999510610001
 30
0.0
 11
12.88942488470001
 21
1.27999510610001
 31
0.0
  0
ARC
  5
25D
330
1F
100
AcDbEntity
  8
Default
  6
Continuous
100
AcDbCircle
 10
13.33492488470002
 20
0.1999951061000118
 30
0.0
 40
0.1999999999999886
100
AcDbArc
 50
269.9999999999959
 51
0.0
  0
LINE
  5
25E
330
1F
100
AcDbEntity
  8
Default
  6
Continuous
100
AcDbLine
 10
13.5349248847
 20
2.359995106100008
 30
0.0
 11
13.5349248847
 21
0.1999951061000118
 31
0.0
  0
ARC
  5
25F
330
1F
100
AcDbEntity
  8
Default
  6
Continuous
100
AcDbCircle
 10
13.3349248847
 20
2.359995106100008
 30
0.0
 40
0.2
100
AcDbArc
 50
0.0
 51
90.0
  0
LINE
  5
260
330
1F
100
AcDbEntity
  8
Default
  6
Continuous
100
AcDbLine
 10
12.9544248847
 20
2.559987607100012
 30
0.0
 11
13.3349248847
 21
2.559995106100011
 31
0.0
  0
LINE
  5
261
330
1F
100
AcDbEntity
  8
Default
  6
Continuous
100
AcDbLine
 10
12.9544248847
 20
0.0000026051000077
 30
0.0
 11
12.9544248847
 21
2.559987607100012
 31
0.0
  0
LINE
  5
262
330
1F
100
AcDbEntity
  8
Default
  6
Continuous
100
AcDbLine
 10
13.3349248847
 20
-0.000004893899991
 30
0.0
 11
12.9544248847
 21
0.0000026051000077
 31
0.0
  0
LINE
  5
263
330
1F
100
AcDbEntity
  8
Default
  6
Continuous
100
AcDbLine
 10
12.1154248847
 20
2.559987607100012
 30
0.0
 11
12.1154248847
 21
0.0000026051000077
 31
0.0
  0
LINE
  5
264
330
1F
100
AcDbEntity
  8
Default
  6
Continuous
100
AcDbLine
 10
11.73492488469999
 20
2.559995106100011
 30
0.0
 11
12.1154248847
 21
2.559987607100012
 31
0.0
  0
ARC
  5
265
330
1F
100
AcDbEntity
  8
Default
  6
Continuous
100
AcDbCircle
 10
11.73492488469999
 20
2.359995106100008
 30
0.0
 40
0.2
100
AcDbArc
 50
90.0
 51
180.0
  0
LINE
  5
266
330
1F
100
AcDbEntity
  8
Default
  6
Continuous
100
AcDbLine
 10
11.53492488469999
 20
0.1999951061000118
 30
0.0
 11
11.53492488469999
 21
2.359995106100008
 31
0.0
  0
ARC
  5
267
330
1F
100
AcDbEntity
  8
Default
  6
Continuous
100
AcDbCircle
 10
11.73492488469999
 20
0.1999951061000118
 30
0.0
 40
0.2
100
AcDbArc
 50
180.0
 51
270.0
  0
LINE
  5
268
330
1F
100
AcDbEntity
  8
Default
  6
Continuous
100
AcDbLine
 10
12.1154248847
 20
0.0000026051000077
 30
0.0
 11
11.73492488469999
 21
-0.000004893899991
 31
0.0
  0
ARC
  5
269
330
1F
100
AcDbEntity
  8
Default
  6
Continuous
100
AcDbCircle
 10
7.473509625199995
 20
2.784995106100013
 30
0.0
 40
0.01
100
AcDbArc
 50
90.0
 51
180.0
  0
LINE
  5
26A
330
1F
100
AcDbEntity
  8
Default
  6
Continuous
100
AcDbLine
 10
7.46350962519999
 20
2.72499510610001
 30
0.0
 11
7.46350962519999
 21
2.784995106100013
 31
0.0
  0
ARC
  5
26B
330
1F
100
AcDbEntity
  8
Default
  6
Continuous
100
AcDbCircle
 10
7.473509625199995
 20
2.72499510610001
 30
0.0
 40
0.01
100
AcDbArc
 50
180.0
 51
270.0
  0
LINE
  5
26C
330
1F
100
AcDbEntity
  8
Default
  6
Continuous
100
AcDbLine
 10
8.020509625200006
 20
2.714995106100012
 30
0.0
 11
7.473509625199995
 21
2.714995106100012
 31
0.0
  0
ARC
  5
26D
330
1F
100
AcDbEntity
  8
Default
  6
Continuous
100
AcDbCircle
 10
8.020509625200006
 20
2.72499510610001
 30
0.0
 40
0.01
100
AcDbArc
 50
270.0
 51
0.0
  0
LINE
  5
26E
330
1F
100
AcDbEntity
  8
Default
  6
Continuous
100
AcDbLine
 10
8.030509625200011
 20
2.784995106100013
 30
0.0
 11
8.030509625200011
 21
2.72499510610001
 31
0.0
  0
ARC
  5
26F
330
1F
100
AcDbEntity
  8
Default
  6
Continuous
100
AcDbCircle
 10
8.020509625200006
 20
2.784995106100013
 30
0.0
 40
0.01
100
AcDbArc
 50
0.0
 51
90.0
  0
ARC
  5
270
330
1F
100
AcDbEntity
  8
Default
  6
Continuous
100
AcDbCircle
 10
12.26142488469999
 20
2.784995106100013
 30
0.0
 40
0.01
100
AcDbArc
 50
90.0
 51
180.0
  0
LINE
  5
271
330
1F
100
AcDbEntity
  8
Default
  6
Continuous
100
AcDbLine
 10
12.25142488469999
 20
2.72499510610001
 30
0.0
 11
12.25142488469999
 21
2.784995106100013
 31
0.0
  0
ARC
  5
272
330
1F
100
AcDbEntity
  8
Default
  6
Continuous
100
AcDbCircle
 10
12.26142488469999
 20
2.72499510610001
 30
0.0
 40
0.01
100
AcDbArc
 50
180.0
 51
270.0
  0
LINE
  5
273
330
1F
100
AcDbEntity
  8
Default
  6
Continuous
100
AcDbLine
 10
12.8084248847
 20
2.714995106100012
 30
0.0
 11
12.26142488469999
 21
2.714995106100012
 31
0.0
  0
ARC
  5
274
330
1F
100
AcDbEntity
  8
Default
  6
Continuous
100
AcDbCircle
 10
12.8084248847
 20
2.72499510610001
 30
0.0
 40
0.01
100
AcDbArc
 50
270.0
 51
0.0
  0
LINE
  5
275
330
1F
100
AcDbEntity
  8
Default
  6
Continuous
100
AcDbLine
 10
12.81842488470001
 20
2.784995106100013
 30
0.0
 11
12.81842488470001
 21
2.72499510610001
 31
0.0
  0
ARC
  5
276
330
1F
100
AcDbEntity
  8
Default
  6
Continuous
100
AcDbCircle
 10
12.8084248847
 20
2.784995106100013
 30
0.0
 40
0.01
100
AcDbArc
 50
0.0
 51
90.0
  0
LINE
  5
277
330
1F
100
AcDbEntity
  8
Default
100
AcDbLine
 10
2.571415348500011
 20
6.508909690700008
 30
0.0
 11
1.277005502790075
 21
7.109193073651952
 31
0.0
  0
POLYLINE
  5
278
330
1F
100
AcDbEntity
  8
Default
100
AcDb2dPolyline
 66
     1
 10
0.0
 20
0.0
 30
0.0
  0
VERTEX
  5
279
330
278
100
AcDbEntity
  8
Default
100
AcDbVertex
100
AcDb2dVertex
 10
7.060060678200003
 20
4.423589496400012
 30
0.0
  0
VERTEX
  5
27A
330
278
100
AcDbEntity
  8
Default
100
AcDbVertex
100
AcDb2dVertex
 10
6.474785493799999
 20
4.696014616000014
 30
0.0
  0
VERTEX
  5
27B
330
278
100
AcDbEntity
  8
Default
100
AcDbVertex
100
AcDb2dVertex
 10
5.846902189800005
 20
4.988058763400005
 30
0.0
  0
VERTEX
  5
27C
330
278
100
AcDbEntity
  8
Default
100
AcDbVertex
100
AcDb2dVertex
 10
5.210035888300013
 20
5.284078704600006
 30
0.0
  0
VERTEX
  5
27D
330
278
100
AcDbEntity
  8
Default
100
AcDbVertex
100
AcDb2dVertex
 10
4.564093818900005
 20
5.584136219000008
 30
0.0
  0
VERTEX
  5
27E
330
278
100
AcDbEntity
  8
Default
100
AcDbVertex
100
AcDb2dVertex
 10
3.909020999299997
 20
5.888276422100006
 30
0.0
  0
VERTEX
  5
27F
330
278
100
AcDbEntity
  8
Default
100
AcDbVertex
100
AcDb2dVertex
 10
3.244809580500004
 20
6.196521721100012
 30
0.0
  0
VERTEX
  5
280
330
278
100
AcDbEntity
  8
Default
100
AcDbVertex
100
AcDb2dVertex
 10
2.571415348500011
 20
6.508909690700008
 30
0.0
  0
SEQEND
  5
281
330
278
100
AcDbEntity
  8
Default
  0
SPLINE
  5
282
330
1F
100
AcDbEntity
  8
Default
100
AcDbSpline
210
0.0
220
0.0
230
1.0
 70
     8
 71
     3
 72
    10
 73
     6
 74
     0
 42
0.0000000001
 43
0.0000000001
 40
0.0
 40
0.0
 40
0.0
 40
0.0
 40
1.0
 40
2.0
 40
3.0
 40
3.0
 40
3.0
 40
3.0
 10
7.253451095199992
 20
4.048731042100009
 30
0.0
 10
7.248765755008151
 20
4.097952641521545
 30
0.0
 10
7.238072770302153
 20
4.196506724448668
 30
0.0
 10
7.181926324862644
 20
4.337032593288818
 30
0.0
 10
7.102433624790493
 20
4.403325979168976
 30
0.0
 10
7.060060678200003
 20
4.423589496400012
 30
0.0
  0
POLYLINE
  5
283
330
1F
100
AcDbEntity
  8
Default
100
AcDb2dPolyline
 66
     1
 10
0.0
 20
0.0
 30
0.0
  0
VERTEX
  5
284
330
283
100
AcDbEntity
  8
Default
100
AcDbVertex
100
AcDb2dVertex
 10
7.367216624099996
 20
2.849452973400005
 30
0.0
  0
VERTEX
  5
285
330
283
100
AcDbEntity
  8
Default
100
AcDbVertex
100
AcDb2dVertex
 10
7.253451095199992
 20
4.048731042100009
 30
0.0
  0
SEQEND
  5
286
330
283
100
AcDbEntity
  8
Default
  0
SPLINE
  5
287
330
1F
100
AcDbEntity
  8
Default
100
AcDbSpline
210
0.0
220
0.0
230
1.0
 70
     8
 71
     3
 72
     8
 73
     4
 74
     0
 42
0.0000000001
 43
0.0000000001
 40
0.0
 40
0.0
 40
0.0
 40
0.0
 40
1.0
 40
1.0
 40
1.0
 40
1.0
 10
7.427001699599998
 20
2.794995106100011
 30
0.0
 10
7.400045120185837
 20
2.794995106100011
 30
0.0
 10
7.369762341961092
 20
2.822616869094738
 30
0.0
 10
7.367216624099996
 20
2.849452973400005
 30
0.0
  0
LINE
  5
288
330
1F
100
AcDbEntity
  8
Default
100
AcDbLine
 10
8.066474249400002
 20
2.794995106100011
 30
0.0
 11
7.427001699599998
 21
2.794995106100011
 31
0.0
  0
SPLINE
  5
289
330
1F
100
AcDbEntity
  8
Default
100
AcDbSpline
210
0.0
220
0.0
230
1.0
 70
     8
 71
     3
 72
     8
 73
     4
 74
     0
 42
0.0000000001
 43
0.0000000001
 40
-1.0
 40
-1.0
 40
-1.0
 40
-1.0
 40
0.0
 40
0.0
 40
0.0
 40
0.0
 10
8.128695812913051
 20
2.850057516456125
 30
0.0
 10
8.126639479765174
 20
2.822438409852793
 30
0.0
 10
8.094169800587537
 20
2.794995106100011
 30
0.0
 10
8.066474249400002
 20
2.794995106100011
 30
0.0
  0
LINE
  5
28A
330
1F
100
AcDbEntity
  8
Default
100
AcDbLine
 10
8.179031832299998
 20
3.52613273650001
 30
0.0
 11
8.128695812913051
 21
2.850057516456125
 31
0.0
  0
SPLINE
  5
28B
330
1F
100
AcDbEntity
  8
Default
100
AcDbSpline
210
0.0
220
0.0
230
1.0
 70
     8
 71
     3
 72
    13
 73
     9
 74
     0
 42
0.0000000001
 43
0.0000000001
 40
2.929385373386227
 40
2.929385373386227
 40
2.929385373386227
 40
2.929385373386227
 40
3.929385373386227
 40
4.929385373386227
 40
5.929385373386227
 40
6.929385373386227
 40
7.929385373386227
 40
8.929385373386227
 40
8.929385373386227
 40
8.929385373386227
 40
8.929385373386227
 10
7.988457310916246
 20
4.968781446870828
 30
0.0
 10
8.06370688137666
 20
4.927859708785952
 30
0.0
 10
8.174290581084463
 20
4.79137376084536
 30
0.0
 10
8.234475287916993
 20
4.540869734441969
 30
0.0
 10
8.237901311636364
 20
4.286335771257562
 30
0.0
 10
8.216025288987666
 20
4.033021899988306
 30
0.0
 10
8.198345848683743
 20
3.779535475573674
 30
0.0
 10
8.185321251162975
 20
3.610607438582647
 30
0.0
 10
8.179031832299998
 20
3.52613273650001
 30
0.0
  0
LINE
  5
28C
330
1F
100
AcDbEntity
  8
Default
100
AcDbLine
 10
6.859743370499984
 20
5.592107710200011
 30
0.0
 11
7.988457310916246
 21
4.968781446870828
 31
0.0
  0
POLYLINE
  5
28D
330
1F
100
AcDbEntity
  8
Default
100
AcDb2dPolyline
 66
     1
 10
0.0
 20
0.0
 30
0.0
  0
VERTEX
  5
28E
330
28D
100
AcDbEntity
  8
Default
100
AcDbVertex
100
AcDb2dVertex
 10
6.194673657799996
 20
5.959622189700013
 30
0.0
  0
VERTEX
  5
28F
330
28D
100
AcDbEntity
  8
Default
100
AcDbVertex
100
AcDb2dVertex
 10
6.859743370499984
 20
5.592107710200011
 30
0.0
  0
SEQEND
  5
290
330
28D
100
AcDbEntity
  8
Default
  0
ARC
  5
291
330
1F
100
AcDbEntity
  8
Default
  6
Continuous
100
AcDbCircle
 10
-48.99757543608877
 20
7.025630894040752
 30
0.0
 40
57.15057931661978
100
AcDbArc
 50
355.7547323173247
 51
355.9160485419598
  0
SPLINE
  5
292
330
1F
100
AcDbEntity
  8
Default
  6
Continuous
100
AcDbSpline
210
0.0
220
0.0
230
1.0
 70
     8
 71
     3
 72
    12
 73
     8
 74
     0
 42
0.0000000001
 43
0.0000000001
 40
3.531675544472805
 40
3.531675544472805
 40
3.531675544472805
 40
3.531675544472805
 40
4.531675544472805
 40
5.531675544472805
 40
6.531675544472805
 40
7.531675544472805
 40
9.531675544472805
 40
9.531675544472805
 40
9.531675544472805
 40
9.531675544472805
 10
7.9335024369
 20
4.698410133900012
 30
0.0
 10
8.025418175492916
 20
4.639815792546486
 30
0.0
 10
8.109621004108988
 20
4.431349556257629
 30
0.0
 10
8.085585763266849
 20
4.114548095374928
 30
0.0
 10
8.064676572416687
 20
3.798595411081116
 30
0.0
 10
8.043743031386825
 20
3.482359705503136
 30
0.0
 10
8.022930392724632
 20
3.166193279281117
 30
0.0
 10
8.007885428152733
 20
2.955477594633045
 30
0.0
  0
ARC
  5
293
330
1F
100
AcDbEntity
  8
Default
  6
Continuous
100
AcDbCircle
 10
4.841067341911952
 20
-0.6436203208061855
 30
0.0
 40
6.172555726416912
100
AcDbArc
 50
59.93398280660085
 51
62.09640071279527
  0
LINE
  5
294
330
1F
100
AcDbEntity
  8
Default
  6
Continuous
100
AcDbLine
 10
4.81453873869998
 20
6.35504114710001
 30
0.0
 11
7.729732876499995
 21
4.811290826500013
 31
0.0
  0
LINE
  5
295
330
1F
100
AcDbEntity
  8
Default
  6
Continuous
100
AcDbLine
 10
-0.875984251899979
 20
4.299627857500013
 30
0.0
 11
-0.875984251899979
 21
2.544897597500011
 31
0.0
  0
SPLINE
  5
296
330
1F
100
AcDbEntity
  8
Default
  6
Continuous
100
AcDbSpline
210
0.0
220
0.0
230
1.0
 70
     8
 71
     3
 72
     8
 73
     4
 74
     0
 42
0.0000000001
 43
0.0000000001
 40
0.0
 40
0.0
 40
0.0
 40
0.0
 40
1.0
 40
1.0
 40
1.0
 40
1.0
 10
-0.9071636910999814
 20
4.679155416600011
 30
0.0
 10
-0.9039782222999975
 20
4.552260008800005
 30
0.0
 10
-0.875984251899979
 20
4.426563241600007
 30
0.0
 10
-0.875984251899979
 20
4.299627857500013
 30
0.0
  0
LINE
  5
297
330
1F
100
AcDbEntity
  8
Default
  6
Continuous
100
AcDbLine
 10
-0.9535000000000196
 20
6.524995106100008
 30
0.0
 11
-0.9071636910999814
 21
4.679155416600011
 31
0.0
  0
SPLINE
  5
298
330
1F
100
AcDbEntity
  8
Default
  6
Continuous
100
AcDbSpline
210
0.0
220
0.0
230
1.0
 70
     8
 71
     3
 72
    23
 73
    19
 74
     0
 42
0.0000000001
 43
0.0000000001
 40
0.0
 40
0.0
 40
0.0
 40
0.0
 40
0.128020826
 40
0.1917972498
 40
0.2553939323
 40
0.3187763919
 40
0.3819076955
 40
0.4447515122
 40
0.5072714596
 40
0.5694307198
 40
0.6312019755
 40
0.6925962373
 40
0.7537632737
 40
0.8148124992
 40
0.8760095614
 40
0.9376191131
 40
0.9686750212
 40
1.0
 40
1.0
 40
1.0
 40
1.0
 10
-2.729646515525019
 20
13.6590048106
 30
0.0
 10
-2.955426410458358
 20
13.66568705246667
 30
0.0
 10
-3.293648394191678
 20
13.67695282820001
 30
0.0
 10
-3.743919940858348
 20
13.69455583353334
 30
0.0
 10
-4.080178005124992
 20
13.70899927913334
 30
0.0
 10
-4.415253286191671
 20
13.72440935193334
 30
0.0
 10
-4.748956240858348
 20
13.74072498553334
 30
0.0
 10
-5.081060004591677
 20
13.75852272206667
 30
0.0
 10
-5.411382186191673
 20
13.77744047086667
 30
0.0
 10
-5.739838957125016
 20
13.79587385246668
 30
0.0
 10
-6.066223836325008
 20
13.81558628446667
 30
0.0
 10
-6.390651504058326
 20
13.83912128633334
 30
0.0
 10
-6.71262630939168
 20
13.87581587566667
 30
0.0
 10
-7.032177132058337
 20
13.92835648446667
 30
0.0
 10
-7.34724741179167
 20
14.00754253113334
 30
0.0
 10
-7.601927048858357
 20
14.10438734793334
 30
0.0
 10
-7.795774153391704
 20
14.20631153086667
 30
0.0
 10
-7.888337265658379
 20
14.26620525486667
 30
0.0
 10
-7.93331838592502
 20
14.29832093140001
 30
0.0
  0
SPLINE
  5
299
330
1F
100
AcDbEntity
  8
Default
  6
Continuous
100
AcDbSpline
210
0.0
220
0.0
230
1.0
 70
     8
 71
     3
 72
    23
 73
    19
 74
     0
 42
0.0000000001
 43
0.0000000001
 40
0.0
 40
0.0
 40
0.0
 40
0.0
 40
0.1280208413
 40
0.1917972736
 40
0.2553939674
 40
0.3187764418
 40
0.3819077624
 40
0.4447515973
 40
0.5072715633
 40
0.5694308409
 40
0.6312021107
 40
0.6925963746
 40
0.7537633981
 40
0.8148126023
 40
0.8760096275
 40
0.9376191448
 40
0.9686750355
 40
1.0
 40
1.0
 40
1.0
 40
1.0
 10
2.729563639674979
 20
13.65900245940001
 30
0.0
 10
2.955346957008345
 20
13.6656846058
 30
0.0
 10
3.293574069541677
 20
13.67695027380001
 30
0.0
 10
3.743852451408344
 20
13.6945531946
 30
0.0
 10
4.080115634074986
 20
13.70899664233334
 30
0.0
 10
4.415196028208328
 20
13.72440680473334
 30
0.0
 10
4.748904089808349
 20
13.74072249806667
 30
0.0
 10
5.081012947408311
 20
13.75852026500001
 30
0.0
 10
5.411340185275009
 20
13.77743827086667
 30
0.0
 10
5.73980197514166
 20
13.79587193460001
 30
0.0
 10
6.066191824741651
 20
13.81558445966667
 30
0.0
 10
6.390624418341673
 20
13.83911908260001
 30
0.0
 10
6.712604107941672
 20
13.8758132578
 30
0.0
 10
7.032159779941679
 20
13.92835354446667
 30
0.0
 10
7.347234926341656
 20
14.00753955700001
 30
0.0
 10
7.601918564208319
 20
14.10438496633334
 30
0.0
 10
7.795768677808326
 20
14.20631025460001
 30
0.0
 10
7.888333177541682
 20
14.26620478740001
 30
0.0
 10
7.933314952475001
 20
14.29832093140001
 30
0.0
  0
LINE
  5
29A
330
1F
100
AcDbEntity
  8
Default
  6
Continuous
100
AcDbLine
 10
37.11720168122756
 20
14.43419230263334
 30
0.0
 11
37.12767483376089
 21
14.43465201223334
 31
0.0
  0
LINE
  5
29B
330
1F
100
AcDbEntity
  8
Default
  6
Continuous
100
AcDbLine
 10
26.87593098282755
 20
13.9870488533
 30
0.0
 11
26.86149566282755
 21
13.98644260103334
 31
0.0
  0
LINE
  5
29C
330
1F
100
AcDbEntity
  8
Default
  6
Continuous
100
AcDbLine
 10
29.42692269269422
 20
14.09842746876667
 30
0.0
 11
29.44057556096088
 21
13.78572537543334
 31
0.0
  0
LINE
  5
29D
330
1F
100
AcDbEntity
  8
Default
  6
Continuous
100
AcDbLine
 10
19.25632010789421
 20
32.56723023143336
 30
0.0
 11
23.55538549402755
 21
13.61880188503334
 31
0.0
  0
SPLINE
  5
29E
330
1F
100
AcDbEntity
  8
Default
  6
Continuous
100
AcDbSpline
210
0.0
220
0.0
230
1.0
 70
     8
 71
     3
 72
    24
 73
    20
 74
     0
 42
0.0000000001
 43
0.0000000001
 40
-17.0
 40
-17.0
 40
-17.0
 40
-17.0
 40
-16.0
 40
-15.0
 40
-14.0
 40
-13.0
 40
-12.0
 40
-11.0
 40
-10.0
 40
-9.0
 40
-8.0
 40
-7.0
 40
-6.0
 40
-5.0
 40
-4.0
 40
-3.0
 40
-2.0
 40
-1.0
 40
0.0
 40
0.0
 40
0.0
 40
0.0
 10
-0.0000017168583497
 20
32.87313289353334
 30
0.0
 10
-0.4169276018453729
 20
32.87308959360585
 30
0.0
 10
-1.250538713499765
 20
32.85892339484222
 30
0.0
 10
-2.49980453130928
 20
32.77494455267143
 30
0.0
 10
-3.738620835827135
 20
32.62829977129665
 30
0.0
 10
-4.983697109988327
 20
32.40320415061224
 30
0.0
 10
-6.037056780087312
 20
31.67877865458219
 30
0.0
 10
-6.767220970964104
 20
30.64865772416492
 30
0.0
 10
-7.266145596925128
 20
29.49760217748027
 30
0.0
 10
-7.602799288629001
 20
28.2914180695867
 30
0.0
 10
-7.871166459254624
 20
27.06962227099483
 30
0.0
 10
-8.063596699675827
 20
25.83324581407392
 30
0.0
 10
-8.200288008946302
 20
24.58986845861907
 30
0.0
 10
-8.294173634611667
 20
23.34256569753345
 30
0.0
 10
-8.355610072264028
 20
22.09331132828693
 30
0.0
 10
-8.387091137444656
 20
20.84293606218346
 30
0.0
 10
-8.390993287893195
 20
19.59221435821551
 30
0.0
 10
-8.373559003984155
 20
18.34158439104175
 30
0.0
 10
-8.33716755946611
 20
17.50843293424982
 30
0.0
 10
-8.306129793658357
 20
17.09266628153334
 30
0.0
  0
SPLINE
  5
29F
330
1F
100
AcDbEntity
  8
Default
  6
Continuous
100
AcDbSpline
210
0.0
220
0.0
230
1.0
 70
     8
 71
     3
 72
    24
 73
    20
 74
     0
 42
0.0000000001
 43
0.0000000001
 40
0.0
 40
0.0
 40
0.0
 40
0.0
 40
1.0
 40
2.0
 40
3.0
 40
4.0
 40
5.0
 40
6.0
 40
7.0
 40
8.0
 40
9.0
 40
10.0
 40
11.0
 40
12.0
 40
13.0
 40
14.0
 40
15.0
 40
16.0
 40
17.0
 40
17.0
 40
17.0
 40
17.0
 10
8.306126359941658
 20
17.09266628153334
 30
0.0
 10
8.33716412574941
 20
17.50843293424982
 30
0.0
 10
8.373555570267456
 20
18.34158439104175
 30
0.0
 10
8.390989854176496
 20
19.59221435821551
 30
0.0
 10
8.387087703727957
 20
20.84293606218346
 30
0.0
 10
8.355606638547329
 20
22.09331132828693
 30
0.0
 10
8.294170200894968
 20
23.34256569753345
 30
0.0
 10
8.200284575229603
 20
24.58986845861907
 30
0.0
 10
8.063593265959128
 20
25.83324581407392
 30
0.0
 10
7.871163025537925
 20
27.06962227099483
 30
0.0
 10
7.602795854912301
 20
28.2914180695867
 30
0.0
 10
7.266142163208428
 20
29.49760217748027
 30
0.0
 10
6.767217537247404
 20
30.64865772416492
 30
0.0
 10
6.037053346370612
 20
31.67877865458219
 30
0.0
 10
4.983693676271628
 20
32.40320415061224
 30
0.0
 10
3.738617402110435
 20
32.62829977129665
 30
0.0
 10
2.499801097592581
 20
32.77494455267143
 30
0.0
 10
1.250535279783065
 20
32.85892339484222
 30
0.0
 10
0.4169241681286735
 20
32.87308959360585
 30
0.0
 10
-0.0000017168583497
 20
32.87313289353334
 30
0.0
  0
SPLINE
  5
2A0
330
1F
100
AcDbEntity
  8
Default
  6
Continuous
100
AcDbSpline
210
0.0
220
0.0
230
1.0
 70
     8
 71
     3
 72
    12
 73
     8
 74
     0
 42
0.0000000001
 43
0.0000000001
 40
-5.0
 40
-5.0
 40
-5.0
 40
-5.0
 40
-4.000000348560924
 40
-3.000000261420693
 40
-2.000000174280462
 40
-1.000000087140231
 40
0.0
 40
0.0
 40
0.0
 40
0.0
 10
-8.696456108724988
 20
22.28519730966668
 30
0.0
 10
-8.719676232279568
 20
21.93984219215082
 30
0.0
 10
-8.759923951228103
 20
21.24872405575991
 30
0.0
 10
-8.804297782934924
 20
20.21123690791768
 30
0.0
 10
-8.832326503437884
 20
19.1731868897759
 30
0.0
 10
-8.846464011762492
 20
18.13486068307042
 30
0.0
 10
-8.844398675873435
 20
17.44254237738921
 30
0.0
 10
-8.835579693124998
 20
17.09650576713334
 30
0.0
  0
SPLINE
  5
2A1
330
1F
100
AcDbEntity
  8
Default
  6
Continuous
100
AcDbSpline
210
0.0
220
0.0
230
1.0
 70
     8
 71
     3
 72
    18
 73
    14
 74
     0
 42
0.0000000001
 43
0.0000000001
 40
0.0
 40
0.0
 40
0.0
 40
0.0
 40
1.000000027760901
 40
2.000000055521801
 40
3.000000083282702
 40
4.000000111043603
 40
5.000000138804504
 40
6.000000166565403
 40
7.000000194326304
 40
8.000000222087206
 40
9.000000249848105
 40
10.00000027760901
 40
11.0
 40
11.0
 40
11.0
 40
11.0
 10
-0.0000017168583497
 20
32.88290008526668
 30
0.0
 10
-0.4937165362288454
 20
32.88107031460601
 30
0.0
 10
-1.482352197226447
 20
32.86643485161888
 30
0.0
 10
-2.957487191467777
 20
32.73315893492652
 30
0.0
 10
-4.433025317634616
 20
32.56856388029074
 30
0.0
 10
-5.841257297545894
 20
32.03243055993001
 30
0.0
 10
-6.878203589942927
 20
30.92711197706632
 30
0.0
 10
-7.525331129005338
 20
29.58513941243467
 30
0.0
 10
-7.919220817979863
 20
28.15354549100819
 30
0.0
 10
-8.227298920779788
 20
26.70436503141998
 30
0.0
 10
-8.436982920302796
 20
25.23683207056125
 30
0.0
 10
-8.588835565880402
 20
23.76296627724427
 30
0.0
 10
-8.662478281149987
 20
22.77788568723555
 30
0.0
 10
-8.696456108724988
 20
22.28519730966668
 30
0.0
  0
SPLINE
  5
2A2
330
1F
100
AcDbEntity
  8
Default
  6
Continuous
100
AcDbSpline
210
0.0
220
0.0
230
1.0
 70
     8
 71
     3
 72
    18
 73
    14
 74
     0
 42
0.0000000001
 43
0.0000000001
 40
-11.0
 40
-11.0
 40
-11.0
 40
-11.0
 40
-10.00000027760901
 40
-9.000000249848105
 40
-8.000000222087206
 40
-7.000000194326304
 40
-6.000000166565403
 40
-5.000000138804504
 40
-4.000000111043603
 40
-3.000000083282702
 40
-2.000000055521801
 40
-1.000000027760901
 40
0.0
 40
0.0
 40
0.0
 40
0.0
 10
8.696452675008288
 20
22.28519730966668
 30
0.0
 10
8.662474847433288
 20
22.77788568723555
 30
0.0
 10
8.588832132163702
 20
23.76296627724427
 30
0.0
 10
8.436979486586097
 20
25.23683207056125
 30
0.0
 10
8.227295487063088
 20
26.70436503141998
 30
0.0
 10
7.919217384263163
 20
28.15354549100819
 30
0.0
 10
7.525327695288638
 20
29.58513941243467
 30
0.0
 10
6.878200156226228
 20
30.92711197706632
 30
0.0
 10
5.841253863829195
 20
32.03243055993001
 30
0.0
 10
4.433021883917917
 20
32.56856388029074
 30
0.0
 10
2.957483757751078
 20
32.73315893492652
 30
0.0
 10
1.482348763509748
 20
32.86643485161888
 30
0.0
 10
0.493713102512146
 20
32.88107031460601
 30
0.0
 10
-0.0000017168583497
 20
32.88290008526668
 30
0.0
  0
SPLINE
  5
2A3
330
1F
100
AcDbEntity
  8
Default
  6
Continuous
100
AcDbSpline
210
0.0
220
0.0
230
1.0
 70
     8
 71
     3
 72
    12
 73
     8
 74
     0
 42
0.0000000001
 43
0.0000000001
 40
0.0
 40
0.0
 40
0.0
 40
0.0
 40
1.000000087140231
 40
2.000000174280462
 40
3.000000261420693
 40
4.000000348560924
 40
5.0
 40
5.0
 40
5.0
 40
5.0
 10
8.835576259408299
 20
17.09650576713334
 30
0.0
 10
8.844395242156736
 20
17.44254237738921
 30
0.0
 10
8.846460578045793
 20
18.13486068307042
 30
0.0
 10
8.832323069721184
 20
19.1731868897759
 30
0.0
 10
8.804294349218225
 20
20.21123690791768
 30
0.0
 10
8.759920517511404
 20
21.24872405575991
 30
0.0
 10
8.719672798562868
 20
21.93984219215082
 30
0.0
 10
8.696452675008288
 20
22.28519730966668
 30
0.0
  0
SPLINE
  5
2A4
330
1F
100
AcDbEntity
  8
Default
  6
Continuous
100
AcDbSpline
210
0.0
220
0.0
230
1.0
 70
     8
 71
     3
 72
    17
 73
    13
 74
     0
 42
0.0000000001
 43
0.0000000001
 40
-10.0
 40
-10.0
 40
-10.0
 40
-10.0
 40
-9.0
 40
-8.0
 40
-7.0
 40
-6.0
 40
-5.0
 40
-4.0
 40
-3.0
 40
-2.0
 40
-1.0
 40
0.0
 40
0.0
 40
0.0
 40
0.0
 10
-9.346883800191677
 20
14.78622985646668
 30
0.0
 10
-9.246158171124023
 20
14.61569322158887
 30
0.0
 10
-8.874143392910128
 20
14.44256343085241
 30
0.0
 10
-8.29879548379543
 20
14.34843109218074
 30
0.0
 10
-7.717055664393371
 20
14.26865409453045
 30
0.0
 10
-7.134518239875916
 20
14.20444287866738
 30
0.0
 10
-6.550778176265567
 20
14.14934808776815
 30
0.0
 10
-5.966335915680787
 20
14.10321966158175
 30
0.0
 10
-5.381356131941317
 20
14.064294051485
 30
0.0
 10
-4.795994953366687
 20
14.03173278372412
 30
0.0
 10
-4.210377411351345
 20
14.00419363635369
 30
0.0
 10
-3.819845341535711
 20
13.98862958704561
 30
0.0
 10
-3.624555248325009
 20
13.98150196073334
 30
0.0
  0
POLYLINE
  5
2A5
330
1F
100
AcDbEntity
  8
Default
  6
Continuous
100
AcDb2dPolyline
 66
     1
 10
0.0
 20
0.0
 30
0.0
  0
VERTEX
  5
2A6
330
2A5
100
AcDbEntity
  8
Default
  6
Continuous
100
AcDbVertex
100
AcDb2dVertex
 10
-9.34733968565834
 20
16.98224109846667
 30
0.0
  0
VERTEX
  5
2A7
330
2A5
100
AcDbEntity
  8
Default
  6
Continuous
100
AcDbVertex
100
AcDb2dVertex
 10
-9.384554095258352
 20
16.79875069780001
 30
0.0
  0
VERTEX
  5
2A8
330
2A5
100
AcDbEntity
  8
Default
  6
Continuous
100
AcDbVertex
100
AcDb2dVertex
 10
-9.425331463791679
 20
16.53780554606667
 30
0.0
  0
VERTEX
  5
2A9
330
2A5
100
AcDbEntity
  8
Default
  6
Continuous
100
AcDbVertex
100
AcDb2dVertex
 10
-9.452356983791674
 20
16.27556918180001
 30
0.0
  0
VERTEX
  5
2AA
330
2A5
100
AcDbEntity
  8
Default
  6
Continuous
100
AcDbVertex
100
AcDb2dVertex
 10
-9.465719986724991
 20
16.01268226873334
 30
0.0
  0
VERTEX
  5
2AB
330
2A5
100
AcDbEntity
  8
Default
  6
Continuous
100
AcDbVertex
100
AcDb2dVertex
 10
-9.465492230991686
 20
15.74993064313334
 30
0.0
  0
VERTEX
  5
2AC
330
2A5
100
AcDbEntity
  8
Default
  6
Continuous
100
AcDbVertex
100
AcDb2dVertex
 10
-9.451771622991657
 20
15.48824515833334
 30
0.0
  0
VERTEX
  5
2AD
330
2A5
100
AcDbEntity
  8
Default
  6
Continuous
100
AcDbVertex
100
AcDb2dVertex
 10
-9.424683926191676
 20
15.22838644313334
 30
0.0
  0
VERTEX
  5
2AE
330
2A5
100
AcDbEntity
  8
Default
  6
Continuous
100
AcDbVertex
100
AcDb2dVertex
 10
-9.384342756591678
 20
14.97094520393334
 30
0.0
  0
VERTEX
  5
2AF
330
2A5
100
AcDbEntity
  8
Default
  6
Continuous
100
AcDbVertex
100
AcDb2dVertex
 10
-9.346883800191677
 20
14.78622985646668
 30
0.0
  0
SEQEND
  5
2B0
330
2A5
100
AcDbEntity
  8
Default
  6
Continuous
  0
SPLINE
  5
2B1
330
1F
100
AcDbEntity
  8
Default
  6
Continuous
100
AcDbSpline
210
0.0
220
0.0
230
1.0
 70
     8
 71
     3
 72
    29
 73
    25
 74
     0
 42
0.0000000001
 43
0.0000000001
 40
-1.0
 40
-1.0
 40
-1.0
 40
-1.0
 40
-0.8222315030636721
 40
-0.6447099330346175
 40
-0.5562751132296919
 40
-0.4683182067388437
 40
-0.3812166439731903
 40
-0.2958912236598547
 40
-0.2145024675624771
 40
-0.1765351133441152
 40
-0.1413718597083505
 40
-0.1098695728804229
 40
-0.0828314253839904
 40
-0.0606413267303614
 40
-0.0434872304250724
 40
-0.0367914495278423
 40
-0.0313731989682429
 40
-0.0231795004268903
 40
-0.0165015217301845
 40
-0.0111974032739471
 40
-0.0071392599544109
 40
-0.004122924865562
 40
-0.0018649516990515
 40
0.0
 40
0.0
 40
0.0
 40
0.0
 10
-0.0000017168583497
 20
16.86012705006668
 30
0.0
 10
-0.5558845112583413
 20
16.86012705006668
 30
0.0
 10
-1.666890851258358
 20
16.86780987140001
 30
0.0
 10
-3.054180352591658
 20
16.89553041566668
 30
0.0
 10
-4.160410855525015
 20
16.92750669940001
 30
0.0
 10
-4.983884413125026
 20
16.95547797726667
 30
0.0
 10
-5.797481719791705
 20
16.98743592020001
 30
0.0
 10
-6.590419193391682
 20
17.02185644500001
 30
0.0
 10
-7.229788391791686
 20
17.05115489540001
 30
0.0
 10
-7.712517341925036
 20
17.07210137860001
 30
0.0
 10
-8.039458665124982
 20
17.08484201753334
 30
0.0
 10
-8.332333638991656
 20
17.09393611273335
 30
0.0
 10
-8.58475022352502
 20
17.09846794420001
 30
0.0
 10
-8.79233890085834
 20
17.09826665806668
 30
0.0
 10
-8.936288454991683
 20
17.09421465460001
 30
0.0
 10
-9.027630577391676
 20
17.08835768740001
 30
0.0
 10
-9.090854306991673
 20
17.08216025646668
 30
0.0
 10
-9.153476418991687
 20
17.07168859566667
 30
0.0
 10
-9.215292749924998
 20
17.05898639726668
 30
0.0
 10
-9.263665349658368
 20
17.04549471886668
 30
0.0
 10
-9.299783152858367
 20
17.03131951913334
 30
0.0
 10
-9.325090621658347
 20
17.01639446606667
 30
0.0
 10
-9.340938076006665
 20
17.00012073001051
 30
0.0
 10
-9.3460729120211
 20
16.98793356367381
 30
0.0
 10
-9.34733968565834
 20
16.98224109846667
 30
0.0
  0
SPLINE
  5
2B2
330
1F
100
AcDbEntity
  8
Default
  6
Continuous
100
AcDbSpline
210
0.0
220
0.0
230
1.0
 70
     8
 71
     3
 72
    29
 73
    25
 74
     0
 42
0.0000000001
 43
0.0000000001
 40
0.0
 40
0.0
 40
0.0
 40
0.0
 40
0.0018649516990507
 40
0.0041229248655613
 40
0.0071392599544101
 40
0.0111974032739463
 40
0.0165015217301838
 40
0.0231795004268895
 40
0.0313731989682422
 40
0.0367914495278415
 40
0.0434872304250717
 40
0.0606413267303607
 40
0.0828314253839897
 40
0.1098695728804222
 40
0.1413718597083498
 40
0.1765351133441145
 40
0.2145024675624765
 40
0.2958912236598542
 40
0.3812166439731898
 40
0.4683182067388432
 40
0.5562751132296916
 40
0.6447099330346173
 40
0.822231503063672
 40
1.0
 40
1.0
 40
1.0
 40
1.0
 10
9.347336252208322
 20
16.98224109846667
 30
0.0
 10
9.346069478571067
 20
16.98793356367381
 30
0.0
 10
9.340934642289952
 20
17.00012073001051
 30
0.0
 10
9.325087188208329
 20
17.01639446606667
 30
0.0
 10
9.29977971940832
 20
17.03131951913334
 30
0.0
 10
9.26366191620832
 20
17.04549471886668
 30
0.0
 10
9.215289316474994
 20
17.05898639726668
 30
0.0
 10
9.153472985541669
 20
17.07168859566667
 30
0.0
 10
9.090850873541655
 20
17.08216025646668
 30
0.0
 10
9.027627143941658
 20
17.08835768740001
 30
0.0
 10
8.936285021274983
 20
17.09421465460001
 30
0.0
 10
8.792335467408321
 20
17.09826665806668
 30
0.0
 10
8.584746790075002
 20
17.09846794420001
 30
0.0
 10
8.332330205541666
 20
17.09393611273335
 30
0.0
 10
8.039455231674992
 20
17.08484201753334
 30
0.0
 10
7.712513908474989
 20
17.07210137860001
 30
0.0
 10
7.229784958341668
 20
17.05115489540001
 30
0.0
 10
6.590415759941664
 20
17.02185644500001
 30
0.0
 10
5.797478286341658
 20
16.98743592020001
 30
0.0
 10
4.983880979674979
 20
16.95547797726667
 30
0.0
 10
4.160407422074996
 20
16.92750669940001
 30
0.0
 10
3.054176919141668
 20
16.89553041566668
 30
0.0
 10
1.66688741780834
 20
16.86780987140001
 30
0.0
 10
0.5558810778083227
 20
16.86012705006668
 30
0.0
 10
-0.0000017168583497
 20
16.86012705006668
 30
0.0
  0
POLYLINE
  5
2B3
330
1F
100
AcDbEntity
  8
Default
  6
Continuous
100
AcDb2dPolyline
 66
     1
 10
0.0
 20
0.0
 30
0.0
  0
VERTEX
  5
2B4
330
2B3
100
AcDbEntity
  8
Default
  6
Continuous
100
AcDbVertex
100
AcDb2dVertex
 10
9.346880367141651
 20
14.78622985646668
 30
0.0
  0
VERTEX
  5
2B5
330
2B3
100
AcDbEntity
  8
Default
  6
Continuous
100
AcDbVertex
100
AcDb2dVertex
 10
9.38433932314166
 20
14.97094520393334
 30
0.0
  0
VERTEX
  5
2B6
330
2B3
100
AcDbEntity
  8
Default
  6
Continuous
100
AcDbVertex
100
AcDb2dVertex
 10
9.424680492741658
 20
15.22838644313334
 30
0.0
  0
VERTEX
  5
2B7
330
2B3
100
AcDbEntity
  8
Default
  6
Continuous
100
AcDbVertex
100
AcDb2dVertex
 10
9.451768189541667
 20
15.48824515833334
 30
0.0
  0
VERTEX
  5
2B8
330
2B3
100
AcDbEntity
  8
Default
  6
Continuous
100
AcDbVertex
100
AcDb2dVertex
 10
9.465488797541653
 20
15.74993064313334
 30
0.0
  0
VERTEX
  5
2B9
330
2B3
100
AcDbEntity
  8
Default
  6
Continuous
100
AcDbVertex
100
AcDb2dVertex
 10
9.465716553275001
 20
16.01268226873334
 30
0.0
  0
VERTEX
  5
2BA
330
2B3
100
AcDbEntity
  8
Default
  6
Continuous
100
AcDbVertex
100
AcDb2dVertex
 10
9.452353550341655
 20
16.27556918180001
 30
0.0
  0
VERTEX
  5
2BB
330
2B3
100
AcDbEntity
  8
Default
  6
Continuous
100
AcDbVertex
100
AcDb2dVertex
 10
9.42532803034166
 20
16.53780554606667
 30
0.0
  0
VERTEX
  5
2BC
330
2B3
100
AcDbEntity
  8
Default
  6
Continuous
100
AcDbVertex
100
AcDb2dVertex
 10
9.38455066180832
 20
16.79875069780001
 30
0.0
  0
VERTEX
  5
2BD
330
2B3
100
AcDbEntity
  8
Default
  6
Continuous
100
AcDbVertex
100
AcDb2dVertex
 10
9.347336252208322
 20
16.98224109846667
 30
0.0
  0
SEQEND
  5
2BE
330
2B3
100
AcDbEntity
  8
Default
  6
Continuous
  0
SPLINE
  5
2BF
330
1F
100
AcDbEntity
  8
Default
  6
Continuous
100
AcDbSpline
210
0.0
220
0.0
230
1.0
 70
     8
 71
     3
 72
    17
 73
    13
 74
     0
 42
0.0000000001
 43
0.0000000001
 40
0.0
 40
0.0
 40
0.0
 40
0.0
 40
1.0
 40
2.0
 40
3.0
 40
4.0
 40
5.0
 40
6.0
 40
7.0
 40
8.0
 40
9.0
 40
10.0
 40
10.0
 40
10.0
 40
10.0
 10
3.624551815674977
 20
13.98150196073334
 30
0.0
 10
3.819841908885678
 20
13.98862958704561
 30
0.0
 10
4.210373978701313
 20
14.00419363635369
 30
0.0
 10
4.795991520716655
 20
14.03173278372412
 30
0.0
 10
5.381352699291284
 20
14.064294051485
 30
0.0
 10
5.966332483030754
 20
14.10321966158175
 30
0.0
 10
6.550774743615534
 20
14.14934808776815
 30
0.0
 10
7.134514807225884
 20
14.20444287866738
 30
0.0
 10
7.717052231743338
 20
14.26865409453045
 30
0.0
 10
8.298792051145398
 20
14.34843109218074
 30
0.0
 10
8.874139960260095
 20
14.44256343085241
 30
0.0
 10
9.24615473847399
 20
14.61569322158887
 30
0.0
 10
9.346880367141651
 20
14.78622985646668
 30
0.0
  0
SPLINE
  5
2C0
330
1F
100
AcDbEntity
  8
Default
  6
Continuous
100
AcDbSpline
210
0.0
220
0.0
230
1.0
 70
     8
 71
     3
 72
    31
 73
    27
 74
     0
 42
0.0000000001
 43
0.0000000001
 40
-1.0
 40
-1.0
 40
-1.0
 40
-1.0
 40
-0.8098782232
 40
-0.7148941532
 40
-0.6200879568
 40
-0.5257189732
 40
-0.4319896428
 40
-0.3396850359
 40
-0.2507580647
 40
-0.1698072455
 40
-0.1345135264
 40
-0.1038098573
 40
-0.0781277012
 40
-0.057463594
 40
-0.0490267908
 40
-0.0418707346
 40
-0.0359859202
 40
-0.0312218642
 40
-0.0271613998
 40
-0.0234385228
 40
-0.0170447498
 40
-0.0121337093
 40
-0.0084688316
 40
-0.0057924638
 40
-0.0037220821
 40
0.0
 40
0.0
 40
0.0
 40
0.0
 10
-0.0000017168583497
 20
14.69718540526667
 30
0.0
 10
0.596294595141643
 20
14.69718540526667
 30
0.0
 10
1.490514260741662
 20
14.70365996766667
 30
0.0
 10
2.681888019675
 20
14.72461684713334
 30
0.0
 10
3.572874446875005
 20
14.74592228126667
 30
0.0
 10
4.459778573541655
 20
14.77255489673334
 30
0.0
 10
5.338687392741662
 20
14.80361089060001
 30
0.0
 10
6.200368565541652
 20
14.83853424926667
 30
0.0
 10
7.021876415141662
 20
14.87474400153334
 30
0.0
 10
7.664748021274988
 20
14.90322876446668
 30
0.0
 10
8.12533047514168
 20
14.92006674046667
 30
0.0
 10
8.412773638341662
 20
14.92792924820001
 30
0.0
 10
8.654422142074992
 20
14.93097013620001
 30
0.0
 10
8.826261603674993
 20
14.92962605833334
 30
0.0
 10
8.93992101780833
 20
14.92583580313334
 30
0.0
 10
9.007188598608323
 20
14.92214409060001
 30
0.0
 10
9.062846745541663
 20
14.9174570306
 30
0.0
 10
9.108629146608337
 20
14.91163348766667
 30
0.0
 10
9.147413945274991
 20
14.90492363486667
 30
0.0
 10
9.19108151807498
 20
14.89655036873334
 30
0.0
 10
9.237076161274985
 20
14.88608481966667
 30
0.0
 10
9.281837964741669
 20
14.87162945833334
 30
0.0
 10
9.313888207408326
 20
14.85654491886667
 30
0.0
 10
9.335090488208323
 20
14.84023745326667
 30
0.0
 10
9.349616484474979
 20
14.81722957220001
 30
0.0
 10
9.349419959941656
 20
14.79762259700001
 30
0.0
 10
9.346880031674985
 20
14.78622835006667
 30
0.0
  0
SPLINE
  5
2C1
330
1F
100
AcDbEntity
  8
Default
  6
Continuous
100
AcDbSpline
210
0.0
220
0.0
230
1.0
 70
     8
 71
     3
 72
    31
 73
    27
 74
     0
 42
0.0000000001
 43
0.0000000001
 40
0.0
 40
0.0
 40
0.0
 40
0.0
 40
0.0037220821
 40
0.0057924638
 40
0.0084688316
 40
0.0121337093
 40
0.0170447498
 40
0.0234385228
 40
0.0271613998
 40
0.0312218642
 40
0.0359859202
 40
0.0418707346
 40
0.0490267908
 40
0.057463594
 40
0.0781277012
 40
0.1038098573
 40
0.1345135264
 40
0.1698072455
 40
0.2507580647
 40
0.3396850359
 40
0.4319896428
 40
0.5257189732
 40
0.6200879568
 40
0.7148941532
 40
0.8098782232
 40
1.0
 40
1.0
 40
1.0
 40
1.0
 10
-9.346883465125018
 20
14.78622835006667
 30
0.0
 10
-9.349423393391703
 20
14.79762259700001
 30
0.0
 10
-9.349619917925025
 20
14.81722957220001
 30
0.0
 10
-9.335093921658341
 20
14.84023745326667
 30
0.0
 10
-9.313891640858344
 20
14.85654491886667
 30
0.0
 10
-9.281841398191688
 20
14.87162945833334
 30
0.0
 10
-9.237079594725003
 20
14.88608481966667
 30
0.0
 10
-9.191084951525028
 20
14.89655036873334
 30
0.0
 10
-9.14741737899169
 20
14.90492363486667
 30
0.0
 10
-9.108632580058327
 20
14.91163348766667
 30
0.0
 10
-9.062850178991681
 20
14.9174570306
 30
0.0
 10
-9.007192032058356
 20
14.92214409060001
 30
0.0
 10
-8.93992445125835
 20
14.92583580313334
 30
0.0
 10
-8.82626503712504
 20
14.92962605833334
 30
0.0
 10
-8.65442557552501
 20
14.93097013620001
 30
0.0
 10
-8.41277707179168
 20
14.92792924820001
 30
0.0
 10
-8.12533390859167
 20
14.92006674046667
 30
0.0
 10
-7.664751454725007
 20
14.90322876446668
 30
0.0
 10
-7.021879848591681
 20
14.87474400153334
 30
0.0
 10
-6.20037199899167
 20
14.83853424926667
 30
0.0
 10
-5.33869082619168
 20
14.80361089060001
 30
0.0
 10
-4.459782006991674
 20
14.77255489673334
 30
0.0
 10
-3.572877880325024
 20
14.74592228126667
 30
0.0
 10
-2.681891453125019
 20
14.72461684713334
 30
0.0
 10
-1.490517694191681
 20
14.70365996766667
 30
0.0
 10
-0.5962980285916615
 20
14.69718540526667
 30
0.0
 10
-0.0000017168583497
 20
14.69718540526667
 30
0.0
  0
LINE
  5
2C2
330
1F
100
AcDbEntity
  8
Default
  6
Continuous
100
AcDbLine
 10
43.14091730384771
 20
14.69727744556121
 30
0.0
 11
25.07182011448016
 21
13.9082795836911
 31
0.0
  0
ARC
  5
2C3
330
1F
100
AcDbEntity
  8
Default
  6
Continuous
100
AcDbCircle
 10
38.19699759802755
 20
15.56486831863334
 30
0.0
 40
5.019467698933335
100
AcDbArc
 50
350.0467139070005
 51
14.95427158620057
  0
SPLINE
  5
2C4
330
1F
100
AcDbEntity
  8
Default
  6
Continuous
100
AcDbSpline
210
0.0
220
0.0
230
1.0
 70
     8
 71
     3
 72
    36
 73
    32
 74
     0
 42
0.0000000001
 43
0.0000000001
 40
0.0
 40
0.0
 40
0.0
 40
0.0
 40
0.0268293352558578
 40
0.0595097548675145
 40
0.0970237093252662
 40
0.1380956546169486
 40
0.1815031125309036
 40
0.2263067799581736
 40
0.2718427483924272
 40
0.3176192565289746
 40
0.3634947203664658
 40
0.4094370792045949
 40
0.5014498873820746
 40
0.593563853160519
 40
0.6856946055391234
 40
0.7316409500772907
 40
0.777323086212938
 40
0.822333118342176
 40
0.8643548613429163
 40
0.9006659570891968
 40
0.9292564473618499
 40
0.9502818266623583
 40
0.9653869687064084
 40
0.9762731215102243
 40
0.9843452085872036
 40
0.990262839743637
 40
0.9944180083832629
 40
0.9971389310092109
 40
0.9988199332252418
 40
0.9997248131338712
 40
1.0
 40
1.0
 40
1.0
 40
1.0
 10
26.21051855269421
 20
16.31003451303334
 30
0.0
 10
26.36000780442755
 20
16.33145400236667
 30
0.0
 10
26.69217216389423
 20
16.37491770396667
 30
0.0
 10
27.23502449856089
 20
16.43490040850001
 30
0.0
 10
27.85871798256089
 20
16.49220779756667
 30
0.0
 10
28.54330624416089
 20
16.54581484716667
 30
0.0
 10
29.26923627589422
 20
16.59666138023334
 30
0.0
 10
30.0205050481609
 20
16.64518702103334
 30
0.0
 10
30.78532363882756
 20
16.69063896983334
 30
0.0
 10
31.55630328816089
 20
16.73402480183334
 30
0.0
 10
32.32968649269422
 20
16.77535945570001
 30
0.0
 10
33.3630872713609
 20
16.82798861570001
 30
0.0
 10
34.65663873056089
 20
16.88941961036667
 30
0.0
 10
36.21017458229423
 20
16.95671492530001
 30
0.0
 10
37.50488173242755
 20
17.00730704343334
 30
0.0
 10
38.53856882042756
 20
17.04404279756668
 30
0.0
 10
39.30726793749422
 20
17.06898787116667
 30
0.0
 10
40.05395257749423
 20
17.09160974956667
 30
0.0
 10
40.74820834602755
 20
17.10078337916667
 30
0.0
 10
41.35010329829421
 20
17.09435112423334
 30
0.0
 10
41.83340499189423
 20
17.07282561463335
 30
0.0
 10
42.19650757482755
 20
17.04216999810001
 30
0.0
 10
42.45917218896088
 20
17.00916139596667
 30
0.0
 10
42.64820980362755
 20
16.97679796983334
 30
0.0
 10
42.78527161402755
 20
16.94801721516667
 30
0.0
 10
42.88435761962755
 20
16.92312444183334
 30
0.0
 10
42.95327462922755
 20
16.9021019317
 30
0.0
 10
42.99831962469422
 20
16.88489756930001
 30
0.0
 10
43.02534534522756
 20
16.87214469810001
 30
0.0
 10
43.03955498159743
 20
16.86452994748144
 30
0.0
 10
43.04517247256743
 20
16.86098504899494
 30
0.0
 10
43.04646639186167
 20
16.8601321520913
 30
0.0
  0
SPLINE
  5
2C5
330
1F
100
AcDbEntity
  8
Default
  6
Continuous
100
AcDbSpline
210
0.0
220
0.0
230
1.0
 70
     8
 71
     3
 72
    17
 73
    13
 74
     0
 42
0.0000000001
 43
0.0000000001
 40
0.0
 40
0.0
 40
0.0
 40
0.0
 40
1.0
 40
2.0
 40
3.0
 40
4.0
 40
5.0
 40
6.0
 40
7.0
 40
8.0
 40
9.0
 40
10.0
 40
10.0
 40
10.0
 40
10.0
 10
25.80438269829422
 20
14.06314472316667
 30
0.0
 10
26.37516934937884
 20
14.16565747027415
 30
0.0
 10
27.52793782271419
 20
14.29681100840112
 30
0.0
 10
29.26241120372535
 20
14.42556824014603
 30
0.0
 10
30.99843633391619
 20
14.53188691355868
 30
0.0
 10
32.73518716564153
 20
14.62520220845762
 30
0.0
 10
34.47237868908694
 20
14.70940571673788
 30
0.0
 10
36.21002254551681
 20
14.78589088516186
 30
0.0
 10
37.94771526193817
 20
14.85264385809931
 30
0.0
 10
39.68683702046872
 20
14.91586415670222
 30
0.0
 10
41.42235941991193
 20
14.942714597827
 30
0.0
 10
42.59078414658781
 20
14.88547267382825
 30
0.0
 10
43.14090193296089
 20
14.69719029916667
 30
0.0
  0
ARC
  5
2C6
330
1F
100
AcDbEntity
  8
Default
  6
Continuous
100
AcDbCircle
 10
27.96531100523066
 20
2.031187075430609
 30
0.0
 40
12.22446792235284
100
AcDbArc
 50
100.181721045446
 51
103.6916569885555
  0
ARC
  5
2C7
330
1F
100
AcDbEntity
  8
Default
  6
Continuous
100
AcDbCircle
 10
24.91738838762755
 20
14.40201329143334
 30
0.0
 40
0.813
100
AcDbArc
 50
229.9855880265004
 51
272.5000000000005
  0
LINE
  5
2C8
330
1F
100
AcDbEntity
  8
Default
  6
Continuous
100
AcDbLine
 10
29.44057556096088
 20
13.78572537543334
 30
0.0
 11
24.95285094955557
 21
13.58978708728729
 31
0.0
  0
ARC
  5
2C9
330
1F
100
AcDbEntity
  8
Default
  6
Continuous
100
AcDbCircle
 10
20.39180735696088
 20
30.68290841543335
 30
0.0
 40
2.199999999999999
100
AcDbArc
 50
84.59830240049946
 51
121.0730536916996
  0
SPLINE
  5
2CA
330
1F
100
AcDbEntity
  8
Default
  6
Continuous
100
AcDbSpline
210
0.0
220
0.0
230
1.0
 70
     8
 71
     3
 72
    25
 73
    21
 74
     0
 42
0.0000000001
 43
0.0000000001
 40
0.0
 40
0.0
 40
0.0
 40
0.0
 40
1.0
 40
2.0
 40
3.0
 40
4.0
 40
5.0
 40
6.0
 40
7.0
 40
8.0
 40
9.0
 40
10.0
 40
11.0
 40
12.0
 40
13.0
 40
14.0
 40
15.0
 40
16.0
 40
17.0
 40
18.0
 40
18.0
 40
18.0
 40
18.0
 10
25.73564706789422
 20
14.08360964610001
 30
0.0
 10
26.15276484602506
 20
14.13858384136977
 30
0.0
 10
26.47051611119248
 20
14.9160846928877
 30
0.0
 10
26.27739599277508
 20
16.02077725854315
 30
0.0
 10
26.03712199276643
 20
17.11481276616427
 30
0.0
 10
25.779888742796
 20
18.20515783319055
 30
0.0
 10
25.50490647622281
 20
19.29111336218164
 30
0.0
 10
25.21757274383276
 20
20.3738604881584
 30
0.0
 10
24.92013757126982
 20
21.45386913702468
 30
0.0
 10
24.61499713381743
 20
22.53172464571718
 30
0.0
 10
24.30178439104115
 20
23.60726393212974
 30
0.0
 10
23.97995308653424
 20
24.68025508048065
 30
0.0
 10
23.64964991223241
 20
25.75067199915171
 30
0.0
 10
23.31146299069046
 20
26.81860838889268
 30
0.0
 10
22.96443122696382
 20
27.8837663630775
 30
0.0
 10
22.61101846726191
 20
28.94657880538811
 30
0.0
 10
22.24624976784739
 20
30.0064914195658
 30
0.0
 10
21.83346943423172
 20
31.04599367004815
 30
0.0
 10
21.39542660605878
 20
32.0846506299636
 30
0.0
 10
20.91481370556485
 20
32.66643823595724
 30
0.0
 10
20.59891054002711
 20
32.87313860232327
 30
0.0
  0
POLYLINE
  5
2CB
330
1F
100
AcDbEntity
  8
Default
100
AcDb2dPolyline
 66
     1
 10
0.0
 20
0.0
 30
0.0
  0
VERTEX
  5
2CC
330
2CB
100
AcDbEntity
  8
Default
100
AcDbVertex
100
AcDb2dVertex
 10
23.55538966522757
 20
13.6188026645
 30
0.0
  0
VERTEX
  5
2CD
330
2CB
100
AcDbEntity
  8
Default
100
AcDbVertex
100
AcDb2dVertex
 10
25.07182011448016
 20
13.9082795836911
 30
0.0
  0
SEQEND
  5
2CE
330
2CB
100
AcDbEntity
  8
Default
  0
SPLINE
  5
2CF
330
1F
100
AcDbEntity
  8
Default
  6
Continuous
100
AcDbSpline
210
0.0
220
0.0
230
1.0
 70
     8
 71
     3
 72
    25
 73
    21
 74
     0
 42
0.0000000001
 43
0.0000000001
 40
0.0
 40
0.0
 40
0.0
 40
0.0
 40
1.0
 40
2.0
 40
3.0
 40
4.0
 40
5.0
 40
6.0
 40
7.0
 40
8.0
 40
9.0
 40
10.0
 40
11.0
 40
12.0
 40
13.0
 40
14.0
 40
15.0
 40
16.0
 40
17.0
 40
18.0
 40
18.0
 40
18.0
 40
18.0
 10
24.92846411762756
 20
14.04751947650001
 30
0.0
 10
25.16906343030388
 20
14.33683404482883
 30
0.0
 10
25.18097291023165
 20
15.11973683518108
 30
0.0
 10
24.96888976526373
 20
16.18498234034476
 30
0.0
 10
24.70545824533589
 20
17.24819580607274
 30
0.0
 10
24.42882500112358
 20
18.30525337718884
 30
0.0
 10
24.13743686449122
 20
19.35908456018618
 30
0.0
 10
23.84151131024605
 20
20.41142942657925
 30
0.0
 10
23.54374296374841
 20
21.46331259293002
 30
0.0
 10
23.24125488468503
 20
22.51383580022974
 30
0.0
 10
22.93238937473755
 20
23.56250853009726
 30
0.0
 10
22.61623323525406
 20
24.60900439433284
 30
0.0
 10
22.29209442945752
 20
25.6530633790485
 30
0.0
 10
21.95975558280863
 20
26.69451801504435
 30
0.0
 10
21.61967141671543
 20
27.73355218055222
 30
0.0
 10
21.27100584015022
 20
28.76943360455897
 30
0.0
 10
20.91661111368862
 20
29.80449298168958
 30
0.0
 10
20.5107534829328
 20
30.81726099110104
 30
0.0
 10
20.06466777430924
 20
31.82512100770502
 30
0.0
 10
19.56310953222322
 20
32.3668193137098
 30
0.0
 10
19.25632352896089
 20
32.56723229303334
 30
0.0
  0
SPLINE
  5
2D0
330
1F
100
AcDbEntity
  8
Default
  6
Continuous
100
AcDbSpline
210
0.0
220
0.0
230
1.0
 70
     8
 71
     3
 72
     9
 73
     5
 74
     0
 42
0.0000000001
 43
0.0000000001
 40
0.0
 40
0.0
 40
0.0
 40
0.0
 40
1.0
 40
2.0
 40
2.0
 40
2.0
 40
2.0
 10
24.48903306176088
 20
13.81993316183334
 30
0.0
 10
24.56857196169663
 20
13.83670948583664
 30
0.0
 10
24.72610725244073
 20
13.88333594178523
 30
0.0
 10
24.8762656409712
 20
13.98475213284772
 30
0.0
 10
24.92846411762756
 20
14.04751947650001
 30
0.0
  0
POLYLINE
  5
2D1
330
1F
100
AcDbEntity
  8
Default
100
AcDb2dPolyline
 66
     1
 10
0.0
 20
0.0
 30
0.0
  0
VERTEX
  5
2D2
330
2D1
100
AcDbEntity
  8
Default
100
AcDbVertex
100
AcDb2dVertex
 10
25.73564706789422
 20
14.08360964610001
 30
0.0
  0
VERTEX
  5
2D3
330
2D1
100
AcDbEntity
  8
Default
100
AcDbVertex
100
AcDb2dVertex
 10
23.55538966522757
 20
13.6188026645
 30
0.0
  0
SEQEND
  5
2D4
330
2D1
100
AcDbEntity
  8
Default
  0
ENDSEC
  0
SECTION
  2
OBJECTS
  0
DICTIONARY
  5
C
330
0
100
AcDbDictionary
281
     1
  3
ACAD_GROUP
350
D
  3
ACAD_LAYOUT
350
1A
  3
ACAD_MLEADERSTYLE
350
2D6
  3
ACAD_MLINESTYLE
350
17
  3
ACAD_PLOTSETTINGS
350
19
  3
ACAD_PLOTSTYLENAME
350
E
  3
ACAD_TABLESTYLE
350
2D5
  3
ACAD_VISUALSTYLE
350
2A
  0
DICTIONARY
  5
D
102
{ACAD_REACTORS
330
C
102
}
330
C
100
AcDbDictionary
281
     1
  0
DICTIONARY
  5
1A
102
{ACAD_REACTORS
330
C
102
}
330
C
100
AcDbDictionary
281
     1
  3
Layout1
350
1E
  3
Layout2
350
26
  3
Model
350
22
  0
DICTIONARY
  5
2D6
102
{ACAD_REACTORS
330
C
102
}
330
C
100
AcDbDictionary
281
     1
  0
DICTIONARY
  5
17
102
{ACAD_REACTORS
330
C
102
}
330
C
100
AcDbDictionary
281
     1
  3
Standard
350
18
  0
DICTIONARY
  5
19
102
{ACAD_REACTORS
330
C
102
}
330
C
100
AcDbDictionary
281
     1
  0
ACDBDICTIONARYWDFLT
  5
E
102
{ACAD_REACTORS
330
C
102
}
330
C
100
AcDbDictionary
281
     1
  3
Normal
350
F
100
AcDbDictionaryWithDefault
340
F
  0
DICTIONARY
  5
2D5
102
{ACAD_REACTORS
330
C
102
}
330
C
100
AcDbDictionary
281
     1
  0
DICTIONARY
  5
2A
102
{ACAD_REACTORS
330
C
102
}
330
C
100
AcDbDictionary
281
     1
  3
2dWireframe
350
2F
  3
3D Hidden
350
31
  3
3dWireframe
350
30
  3
Basic
350
32
  3
Brighten
350
36
  3
ColorChange
350
3A
  3
Conceptual
350
34
  3
Dim
350
35
  3
Facepattern
350
39
  3
Flat
350
2B
  3
FlatWithEdges
350
2C
  3
Gouraud
350
2D
  3
GouraudWithEdges
350
2E
  3
Linepattern
350
38
  3
Realistic
350
33
  3
Thicken
350
37
  0
LAYOUT
  5
1E
102
{ACAD_REACTORS
330
1A
102
}
330
1A
100
AcDbPlotSettings
  1

  2
none_device
  4

  6

 40
0.0
 41
0.0
 42
0.0
 43
0.0
 44
0.0
 45
0.0
 46
0.0
 47
0.0
 48
0.0
 49
0.0
140
0.0
141
0.0
142
1.0
143
1.0
 70
   688
 72
     0
 73
     0
 74
     5
  7

 75
    16
 76
     0
 77
     2
 78
   300
147
1.0
148
0.0
149
0.0
100
AcDbLayout
  1
Layout1
 70
     1
 71
     1
 10
0.0
 20
0.0
 11
12.0
 21
9.0
 12
0.0
 22
0.0
 32
0.0
 14
1.000000000000000E+20
 24
1.000000000000000E+20
 34
1.000000000000000E+20
 15
-1.000000000000000E+20
 25
-1.000000000000000E+20
 35
-1.000000000000000E+20
146
0.0
 13
0.0
 23
0.0
 33
0.0
 16
1.0
 26
0.0
 36
0.0
 17
0.0
 27
1.0
 37
0.0
 76
     0
330
1B
  0
LAYOUT
  5
26
102
{ACAD_REACTORS
330
1A
102
}
330
1A
100
AcDbPlotSettings
  1

  2
none_device
  4

  6

 40
0.0
 41
0.0
 42
0.0
 43
0.0
 44
0.0
 45
0.0
 46
0.0
 47
0.0
 48
0.0
 49
0.0
140
0.0
141
0.0
142
1.0
143
1.0
 70
   688
 72
     0
 73
     0
 74
     5
  7

 75
    16
 76
     0
 77
     2
 78
   300
147
1.0
148
0.0
149
0.0
100
AcDbLayout
  1
Layout2
 70
     1
 71
     2
 10
0.0
 20
0.0
 11
0.0
 21
0.0
 12
0.0
 22
0.0
 32
0.0
 14
0.0
 24
0.0
 34
0.0
 15
0.0
 25
0.0
 35
0.0
146
0.0
 13
0.0
 23
0.0
 33
0.0
 16
1.0
 26
0.0
 36
0.0
 17
0.0
 27
1.0
 37
0.0
 76
     0
330
23
  0
LAYOUT
  5
22
102
{ACAD_REACTORS
330
1A
102
}
330
1A
100
AcDbPlotSettings
  1

  2
none_device
  4

  6

 40
0.0
 41
0.0
 42
0.0
 43
0.0
 44
0.0
 45
0.0
 46
0.0
 47
0.0
 48
0.0
 49
0.0
140
0.0
141
0.0
142
1.0
143
1.0
 70
  1712
 72
     0
 73
     0
 74
     0
  7

 75
     0
 76
     0
 77
     2
 78
   300
147
1.0
148
0.0
149
0.0
100
AcDbLayout
  1
Model
 70
     1
 71
     0
 10
0.0
 20
0.0
 11
12.0
 21
9.0
 12
0.0
 22
0.0
 32
0.0
 14
-13.5349248847
 24
-0.000004893899991
 34
0.0
 15
45.70451655581088
 25
67.19939232534989
 35
0.0
146
0.0
 13
0.0
 23
0.0
 33
0.0
 16
1.0
 26
0.0
 36
0.0
 17
0.0
 27
1.0
 37
0.0
 76
     0
330
1F
331
29
  0
MLINESTYLE
  5
18
102
{ACAD_REACTORS
330
17
102
}
330
17
100
AcDbMlineStyle
  2
Standard
 70
     0
  3

 62
   256
 51
90.0
 52
90.0
 71
     2
 49
0.5
 62
   256
  6
BYLAYER
 49
-0.5
 62
   256
  6
BYLAYER
  0
ACDBPLACEHOLDER
  5
F
102
{ACAD_REACTORS
330
E
102
}
330
E
  0
VISUALSTYLE
  5
2F
102
{ACAD_REACTORS
330
2A
102
}
330
2A
100
AcDbVisualStyle
  2
2dWireframe
 70
     4
 71
     0
 72
     2
 73
     0
 90
        0
 40
-0.6
 41
-30.0
 62
     5
 63
     7
421
 16777215
 74
     1
 91
        4
 64
     7
 65
   257
 75
     1
175
     1
 42
1.0
 92
        0
 66
   257
 43
1.0
 76
     1
 77
     6
 78
     2
 67
     7
 79
     5
170
     0
171
     0
290
     0
174
     0
 93
        1
 44
0.0
173
     0
291
     0
 45
0.0
1001
ACAD
1000
AcDbSavedByObjectVersion
1070
     0
  0
VISUALSTYLE
  5
31
102
{ACAD_REACTORS
330
2A
102
}
330
2A
100
AcDbVisualStyle
  2
3D Hidden
 70
     6
 71
     1
 72
     2
 73
     2
 90
        0
 40
-0.6
 41
-30.0
 62
     5
 63
     7
421
 16777215
 74
     2
 91
        2
 64
     7
 65
   257
 75
     2
175
     1
 42
40.0
 92
        0
 66
   257
 43
1.0
 76
     1
 77
     6
 78
     2
 67
     7
 79
     3
170
     0
171
     0
290
     0
174
     0
 93
        1
 44
0.0
173
     0
291
     0
 45
0.0
1001
ACAD
1000
AcDbSavedByObjectVersion
1070
     0
  0
VISUALSTYLE
  5
30
102
{ACAD_REACTORS
330
2A
102
}
330
2A
100
AcDbVisualStyle
  2
3dWireframe
 70
     5
 71
     0
 72
     2
 73
     0
 90
        0
 40
-0.6
 41
-30.0
 62
     5
 63
     7
421
 16777215
 74
     1
 91
        4
 64
     7
 65
   257
 75
     1
175
     1
 42
1.0
 92
        0
 66
   257
 43
1.0
 76
     1
 77
     6
 78
     2
 67
     7
 79
     5
170
     0
171
     0
290
     0
174
     0
 93
        1
 44
0.0
173
     0
291
     0
 45
0.0
1001
ACAD
1000
AcDbSavedByObjectVersion
1070
     0
  0
VISUALSTYLE
  5
32
102
{ACAD_REACTORS
330
2A
102
}
330
2A
100
AcDbVisualStyle
  2
Basic
 70
     7
 71
     1
 72
     0
 73
     1
 90
        0
 40
-0.6
 41
-30.0
 62
     5
 63
     7
421
 16777215
 74
     0
 91
        4
 64
     7
 65
   257
 75
     1
175
     1
 42
1.0
 92
        8
 66
     7
 43
1.0
 76
     1
 77
     6
 78
     2
 67
     7
 79
     5
170
     0
171
     0
290
     0
174
     0
 93
        1
 44
0.0
173
     0
291
     1
 45
0.0
1001
ACAD
1000
AcDbSavedByObjectVersion
1070
     0
  0
VISUALSTYLE
  5
36
102
{ACAD_REACTORS
330
2A
102
}
330
2A
100
AcDbVisualStyle
  2
Brighten
 70
    12
 71
     2
 72
     2
 73
     0
 90
        0
 40
-0.6
 41
-30.0
 62
     5
 63
     7
421
 16777215
 74
     1
 91
        4
 64
     7
 65
   257
 75
     1
175
     1
 42
1.0
 92
        8
 66
     7
 43
1.0
 76
     1
 77
     6
 78
     2
 67
     7
 79
     5
170
     0
171
     0
290
     0
174
     0
 93
        1
 44
50.0
173
     0
291
     1
 45
0.0
1001
ACAD
1000
AcDbSavedByObjectVersion
1070
     0
  0
VISUALSTYLE
  5
3A
102
{ACAD_REACTORS
330
2A
102
}
330
2A
100
AcDbVisualStyle
  2
ColorChange
 70
    16
 71
     2
 72
     2
 73
     3
 90
        0
 40
-0.6
 41
-30.0
 62
     5
 63
     8
421
  8421504
 74
     1
 91
        4
 64
     7
 65
   257
 75
     1
175
     1
 42
1.0
 92
        8
 66
     8
424
  8421504
 43
1.0
 76
     1
 77
     6
 78
     2
 67
     7
 79
     5
170
     0
171
     0
290
     0
174
     0
 93
        1
 44
0.0
173
     0
291
     1
 45
0.0
1001
ACAD
1000
AcDbSavedByObjectVersion
1070
     0
  0
VISUALSTYLE
  5
34
102
{ACAD_REACTORS
330
2A
102
}
330
2A
100
AcDbVisualStyle
  2
Conceptual
 70
     9
 71
     3
 72
     2
 73
     0
 90
        0
 40
-0.6
 41
-30.0
 62
     5
 63
     7
421
 16777215
 74
     2
 91
        2
 64
     7
 65
   257
 75
     1
175
     1
 42
40.0
 92
        8
 66
     7
 43
1.0
 76
     1
 77
     6
 78
     2
 67
     7
 79
     3
170
     0
171
     0
290
     0
174
     0
 93
        1
 44
0.0
173
     0
291
     0
 45
0.0
1001
ACAD
1000
AcDbSavedByObjectVersion
1070
     0
  0
VISUALSTYLE
  5
35
102
{ACAD_REACTORS
330
2A
102
}
330
2A
100
AcDbVisualStyle
  2
Dim
 70
    11
 71
     2
 72
     2
 73
     0
 90
        0
 40
-0.6
 41
-30.0
 62
     5
 63
     7
421
 16777215
 74
     1
 91
        4
 64
     7
 65
   257
 75
     1
175
     1
 42
1.0
 92
        8
 66
     7
 43
1.0
 76
     1
 77
     6
 78
     2
 67
     7
 79
     5
170
     0
171
     0
290
     0
174
     0
 93
        1
 44
-50.0
173
     0
291
     1
 45
0.0
1001
ACAD
1000
AcDbSavedByObjectVersion
1070
     0
  0
VISUALSTYLE
  5
39
102
{ACAD_REACTORS
330
2A
102
}
330
2A
100
AcDbVisualStyle
  2
Facepattern
 70
    15
 71
     2
 72
     2
 73
     0
 90
        0
 40
-0.6
 41
-30.0
 62
     5
 63
     7
421
 16777215
 74
     1
 91
        4
 64
     7
 65
   257
 75
     1
175
     1
 42
1.0
 92
        8
 66
     7
 43
1.0
 76
     1
 77
     6
 78
     2
 67
     7
 79
     5
170
     0
171
     0
290
     0
174
     0
 93
        1
 44
0.0
173
     0
291
     1
 45
0.0
1001
ACAD
1000
AcDbSavedByObjectVersion
1070
     0
  0
VISUALSTYLE
  5
2B
102
{ACAD_REACTORS
330
2A
102
}
330
2A
100
AcDbVisualStyle
  2
Flat
 70
     0
 71
     2
 72
     1
 73
     1
 90
        2
 40
-0.6
 41
30.0
 62
     5
 63
     7
421
 16777215
 74
     0
 91
        4
 64
     7
 65
   257
 75
     1
175
     1
 42
1.0
 92
        8
 66
     7
 43
1.0
 76
     1
 77
     6
 78
     2
 67
     7
 79
     5
170
     0
171
     0
290
     0
174
     0
 93
       13
 44
0.0
173
     0
291
     1
 45
0.0
1001
ACAD
1000
AcDbSavedByObjectVersion
1070
     0
  0
VISUALSTYLE
  5
2C
102
{ACAD_REACTORS
330
2A
102
}
330
2A
100
AcDbVisualStyle
  2
FlatWithEdges
 70
     1
 71
     2
 72
     1
 73
     1
 90
        2
 40
-0.6
 41
30.0
 62
     5
 63
     7
421
 16777215
 74
     1
 91
        4
 64
     7
 65
   257
 75
     1
175
     1
 42
1.0
 92
        0
 66
   257
 43
1.0
 76
     1
 77
     6
 78
     2
 67
     7
 79
     5
170
     0
171
     0
290
     0
174
     0
 93
       13
 44
0.0
173
     0
291
     1
 45
0.0
1001
ACAD
1000
AcDbSavedByObjectVersion
1070
     0
  0
VISUALSTYLE
  5
2D
102
{ACAD_REACTORS
330
2A
102
}
330
2A
100
AcDbVisualStyle
  2
Gouraud
 70
     2
 71
     2
 72
     2
 73
     1
 90
        2
 40
-0.6
 41
30.0
 62
     5
 63
     7
421
 16777215
 74
     0
 91
        4
 64
     7
 65
   257
 75
     1
175
     1
 42
1.0
 92
        0
 66
     7
 43
1.0
 76
     1
 77
     6
 78
     2
 67
     7
 79
     5
170
     0
171
     0
290
     0
174
     0
 93
       13
 44
0.0
173
     0
291
     1
 45
0.0
1001
ACAD
1000
AcDbSavedByObjectVersion
1070
     0
  0
VISUALSTYLE
  5
2E
102
{ACAD_REACTORS
330
2A
102
}
330
2A
100
AcDbVisualStyle
  2
GouraudWithEdges
 70
     3
 71
     2
 72
     2
 73
     1
 90
        2
 40
-0.6
 41
30.0
 62
     5
 63
     7
421
 16777215
 74
     1
 91
        4
 64
     7
 65
   257
 75
     1
175
     1
 42
1.0
 92
        0
 66
   257
 43
1.0
 76
     1
 77
     6
 78
     2
 67
     7
 79
     5
170
     0
171
     0
290
     0
174
     0
 93
       13
 44
0.0
173
     0
291
     1
 45
0.0
1001
ACAD
1000
AcDbSavedByObjectVersion
1070
     0
  0
VISUALSTYLE
  5
38
102
{ACAD_REACTORS
330
2A
102
}
330
2A
100
AcDbVisualStyle
  2
Linepattern
 70
    14
 71
     2
 72
     2
 73
     0
 90
        0
 40
-0.6
 41
-30.0
 62
     5
 63
     7
421
 16777215
 74
     1
 91
        4
 64
     7
 65
   257
 75
     7
175
     7
 42
1.0
 92
        8
 66
     7
 43
1.0
 76
     1
 77
     6
 78
     2
 67
     7
 79
     5
170
     0
171
     0
290
     0
174
     0
 93
        1
 44
0.0
173
     0
291
     1
 45
0.0
1001
ACAD
1000
AcDbSavedByObjectVersion
1070
     0
  0
VISUALSTYLE
  5
33
102
{ACAD_REACTORS
330
2A
102
}
330
2A
100
AcDbVisualStyle
  2
Realistic
 70
     8
 71
     2
 72
     2
 73
     0
 90
        0
 40
-0.6
 41
-30.0
 62
     5
 63
     7
421
 16777215
 74
     1
 91
        0
 64
     7
 65
   257
 75
     1
175
     1
 42
1.0
 92
        8
 66
     8
424
  7895160
 43
1.0
 76
     1
 77
     6
 78
     2
 67
     7
 79
     5
170
     0
171
     0
290
     0
174
     0
 93
       13
 44
0.0
173
     0
291
     0
 45
0.0
1001
ACAD
1000
AcDbSavedByObjectVersion
1070
     0
  0
VISUALSTYLE
  5
37
102
{ACAD_REACTORS
330
2A
102
}
330
2A
100
AcDbVisualStyle
  2
Thicken
 70
    13
 71
     2
 72
     2
 73
     0
 90
        0
 40
-0.6
 41
-30.0
 62
     5
 63
     7
421
 16777215
 74
     1
 91
        4
 64
     7
 65
   257
 75
     1
175
     1
 42
1.0
 92
       12
 66
     7
 43
1.0
 76
     1
 77
     6
 78
     2
 67
     7
 79
     5
170
     0
171
     0
290
     0
174
     0
 93
        1
 44
0.0
173
     0
291
     1
 45
0.0
1001
ACAD
1000
AcDbSavedByObjectVersion
1070
     0
  0
ENDSEC
  0
EOF
