  0
SECTION
  2
HEADER
  9
$ACADVER
  1
AC1018
  9
$ACADMAINTVER
 70
     0
  9
$DWGCODEPAGE
  3
ANSI_1252
  9
$INSBASE
 10
0.0
 20
0.0
 30
0.0
  9
$EXTMIN
 10
-13.53790934395953
 20
-0.0021638778000016
 30
0.0
  9
$EXTMAX
 10
45.43867045267852
 20
65.92728661845096
 30
0.0
  9
$LIMMIN
 10
0.0
 20
0.0
  9
$LIMMAX
 10
12.0
 20
9.0
  9
$ORTHOMODE
 70
     0
  9
$REGENMODE
 70
     1
  9
$FILLMODE
 70
     1
  9
$QTEXTMODE
 70
     0
  9
$MIRRTEXT
 70
     1
  9
$LTSCALE
 40
0.0393700787401575
  9
$ATTMODE
 70
     1
  9
$TEXTSIZE
 40
0.2
  9
$TRACEWID
 40
0.05
  9
$TEXTSTYLE
  7
Standard
  9
$CLAYER
  8
Default
  9
$CELTYPE
  6
ByLayer
  9
$CECOLOR
 62
   256
  9
$CELTSCALE
 40
1.0
  9
$DISPSILH
 70
     0
  9
$DIMSCALE
 40
1.0
  9
$DIMASZ
 40
0.18
  9
$DIMEXO
 40
0.0625
  9
$DIMDLI
 40
0.38
  9
$DIMRND
 40
0.0
  9
$DIMDLE
 40
0.0
  9
$DIMEXE
 40
0.18
  9
$DIMTP
 40
0.0
  9
$DIMTM
 40
0.0
  9
$DIMTXT
 40
0.18
  9
$DIMCEN
 40
0.09
  9
$DIMTSZ
 40
0.0
  9
$DIMTOL
 70
     0
  9
$DIMLIM
 70
     0
  9
$DIMTIH
 70
     1
  9
$DIMTOH
 70
     1
  9
$DIMSE1
 70
     0
  9
$DIMSE2
 70
     0
  9
$DIMTAD
 70
     0
  9
$DIMZIN
 70
     0
  9
$DIMBLK
  1

  9
$DIMASO
 70
     1
  9
$DIMSHO
 70
     1
  9
$DIMPOST
  1

  9
$DIMAPOST
  1

  9
$DIMALT
 70
     0
  9
$DIMALTD
 70
     2
  9
$DIMALTF
 40
25.4
  9
$DIMLFAC
 40
1.0
  9
$DIMTOFL
 70
     0
  9
$DIMTVP
 40
0.0
  9
$DIMTIX
 70
     0
  9
$DIMSOXD
 70
     0
  9
$DIMSAH
 70
     0
  9
$DIMBLK1
  1

  9
$DIMBLK2
  1

  9
$DIMSTYLE
  2
Standard
  9
$DIMCLRD
 70
     0
  9
$DIMCLRE
 70
     0
  9
$DIMCLRT
 70
     0
  9
$DIMTFAC
 40
1.0
  9
$DIMGAP
 40
0.09
  9
$DIMJUST
 70
     0
  9
$DIMSD1
 70
     0
  9
$DIMSD2
 70
     0
  9
$DIMTOLJ
 70
     1
  9
$DIMTZIN
 70
     0
  9
$DIMALTZ
 70
     0
  9
$DIMALTTZ
 70
     0
  9
$DIMUPT
 70
     0
  9
$DIMDEC
 70
     4
  9
$DIMTDEC
 70
     4
  9
$DIMALTU
 70
     2
  9
$DIMALTTD
 70
     2
  9
$DIMTXSTY
  7
Standard
  9
$DIMAUNIT
 70
     0
  9
$DIMADEC
 70
     0
  9
$DIMALTRND
 40
0.0
  9
$DIMAZIN
 70
     0
  9
$DIMDSEP
 70
    46
  9
$DIMATFIT
 70
     3
  9
$DIMFRAC
 70
     0
  9
$DIMLDRBLK
  1

  9
$DIMLUNIT
 70
     2
  9
$DIMLWD
 70
    -2
  9
$DIMLWE
 70
    -2
  9
$DIMTMOVE
 70
     2
  9
$LUNITS
 70
     2
  9
$LUPREC
 70
     4
  9
$SKETCHINC
 40
0.1
  9
$FILLETRAD
 40
0.5
  9
$AUNITS
 70
     0
  9
$AUPREC
 70
     0
  9
$MENU
  1
.
  9
$ELEVATION
 40
0.0
  9
$PELEVATION
 40
0.0
  9
$THICKNESS
 40
0.0
  9
$LIMCHECK
 70
     0
  9
$CHAMFERA
 40
0.5
  9
$CHAMFERB
 40
0.5
  9
$CHAMFERC
 40
1.0
  9
$CHAMFERD
 40
0.0
  9
$SKPOLY
 70
     0
  9
$TDCREATE
 40
2457212.449991088
  9
$TDUCREATE
 40
2457212.616657754
  9
$TDUPDATE
 40
2457212.4499911
  9
$TDUUPDATE
 40
2457212.616657766
  9
$TDINDWG
 40
0.0000000116
  9
$TDUSRTIMER
 40
0.0000000116
  9
$USRTIMER
 70
     1
  9
$ANGBASE
 50
0.0
  9
$ANGDIR
 70
     0
  9
$PDMODE
 70
     0
  9
$PDSIZE
 40
0.0
  9
$PLINEWID
 40
0.0
  9
$SPLFRAME
 70
     0
  9
$SPLINETYPE
 70
     6
  9
$SPLINESEGS
 70
     8
  9
$HANDSEED
  5
159
  9
$SURFTAB1
 70
     6
  9
$SURFTAB2
 70
     6
  9
$SURFTYPE
 70
     6
  9
$SURFU
 70
     6
  9
$SURFV
 70
     6
  9
$UCSBASE
  2

  9
$UCSNAME
  2

  9
$UCSORG
 10
0.0
 20
0.0
 30
0.0
  9
$UCSXDIR
 10
1.0
 20
0.0
 30
0.0
  9
$UCSYDIR
 10
0.0
 20
1.0
 30
0.0
  9
$UCSORTHOREF
  2

  9
$UCSORTHOVIEW
 70
     0
  9
$UCSORGTOP
 10
0.0
 20
0.0
 30
0.0
  9
$UCSORGBOTTOM
 10
0.0
 20
0.0
 30
0.0
  9
$UCSORGLEFT
 10
0.0
 20
0.0
 30
0.0
  9
$UCSORGRIGHT
 10
0.0
 20
0.0
 30
0.0
  9
$UCSORGFRONT
 10
0.0
 20
0.0
 30
0.0
  9
$UCSORGBACK
 10
0.0
 20
0.0
 30
0.0
  9
$PUCSBASE
  2

  9
$PUCSNAME
  2

  9
$PUCSORG
 10
0.0
 20
0.0
 30
0.0
  9
$PUCSXDIR
 10
1.0
 20
0.0
 30
0.0
  9
$PUCSYDIR
 10
0.0
 20
1.0
 30
0.0
  9
$PUCSORTHOREF
  2

  9
$PUCSORTHOVIEW
 70
     0
  9
$PUCSORGTOP
 10
0.0
 20
0.0
 30
0.0
  9
$PUCSORGBOTTOM
 10
0.0
 20
0.0
 30
0.0
  9
$PUCSORGLEFT
 10
0.0
 20
0.0
 30
0.0
  9
$PUCSORGRIGHT
 10
0.0
 20
0.0
 30
0.0
  9
$PUCSORGFRONT
 10
0.0
 20
0.0
 30
0.0
  9
$PUCSORGBACK
 10
0.0
 20
0.0
 30
0.0
  9
$USERI1
 70
     0
  9
$USERI2
 70
     0
  9
$USERI3
 70
     0
  9
$USERI4
 70
     0
  9
$USERI5
 70
     0
  9
$USERR1
 40
0.0
  9
$USERR2
 40
0.0
  9
$USERR3
 40
0.0
  9
$USERR4
 40
0.0
  9
$USERR5
 40
0.0
  9
$WORLDVIEW
 70
     1
  9
$SHADEDGE
 70
     3
  9
$SHADEDIF
 70
    70
  9
$TILEMODE
 70
     1
  9
$MAXACTVP
 70
    64
  9
$PINSBASE
 10
0.0
 20
0.0
 30
0.0
  9
$PLIMCHECK
 70
     0
  9
$PEXTMIN
 10
1.000000000000000E+20
 20
1.000000000000000E+20
 30
1.000000000000000E+20
  9
$PEXTMAX
 10
-1.000000000000000E+20
 20
-1.000000000000000E+20
 30
-1.000000000000000E+20
  9
$PLIMMIN
 10
0.0
 20
0.0
  9
$PLIMMAX
 10
12.0
 20
9.0
  9
$UNITMODE
 70
     0
  9
$VISRETAIN
 70
     1
  9
$PLINEGEN
 70
     0
  9
$PSLTSCALE
 70
     1
  9
$TREEDEPTH
 70
  3020
  9
$CMLSTYLE
  2
Standard
  9
$CMLJUST
 70
     0
  9
$CMLSCALE
 40
1.0
  9
$PROXYGRAPHICS
 70
     1
  9
$MEASUREMENT
 70
     0
  9
$CELWEIGHT
370
    -1
  9
$ENDCAPS
280
     0
  9
$JOINSTYLE
280
     0
  9
$LWDISPLAY
290
     0
  9
$INSUNITS
 70
     1
  9
$HYPERLINKBASE
  1

  9
$STYLESHEET
  1

  9
$XEDIT
290
     1
  9
$CEPSNTYPE
380
     0
  9
$PSTYLEMODE
290
     1
  9
$FINGERPRINTGUID
  2
{3F54FF99-7A3E-479B-9B32-5EC9246DC6C5}
  9
$VERSIONGUID
  2
{FAEB1C32-E019-11D5-929B-00C0DF256EC4}
  9
$EXTNAMES
290
     1
  9
$PSVPSCALE
 40
0.0
  9
$OLESTARTUP
290
     0
  9
$SORTENTS
280
   127
  9
$INDEXCTL
280
     0
  9
$HIDETEXT
280
     1
  9
$XCLIPFRAME
290
     0
  9
$HALOGAP
280
     0
  9
$OBSCOLOR
 70
   257
  9
$OBSLTYPE
280
     0
  9
$INTERSECTIONDISPLAY
280
     0
  9
$INTERSECTIONCOLOR
 70
   257
  9
$DIMASSOC
280
     2
  9
$PROJECTNAME
  1

  0
ENDSEC
  0
SECTION
  2
CLASSES
  0
CLASS
  1
ACDBDICTIONARYWDFLT
  2
AcDbDictionaryWithDefault
  3
ObjectDBX Classes
 90
        0
 91
        4
280
     0
281
     0
  0
CLASS
  1
VISUALSTYLE
  2
AcDbVisualStyle
  3
ObjectDBX Classes
 90
     4095
 91
        4
280
     0
281
     0
  0
ENDSEC
  0
SECTION
  2
TABLES
  0
TABLE
  2
VPORT
  5
8
330
0
100
AcDbSymbolTable
 70
     1
  0
VPORT
  5
29
330
8
100
AcDbSymbolTableRecord
100
AcDbViewportTableRecord
  2
*Active
 70
     0
 10
0.0
 20
0.0
 11
1.0
 21
1.0
 12
15.9503805543595
 22
32.96256137032548
 13
0.0
 23
0.0
 14
0.5
 24
0.5
 15
0.5
 25
0.5
 16
0.0
 26
0.0
 36
1.0
 17
0.0
 27
0.0
 37
0.0
 40
67.24803950617599
 41
0.8945407454896309
 42
50.0
 43
0.0
 44
0.0
 50
0.0
 51
0.0
 71
     0
 72
   100
 73
     1
 74
     3
 75
     0
 76
     0
 77
     0
 78
     0
281
     0
 65
     1
110
0.0
120
0.0
130
0.0
111
1.0
121
0.0
131
0.0
112
0.0
122
1.0
132
0.0
 79
     0
146
0.0
  0
ENDTAB
  0
TABLE
  2
LTYPE
  5
5
330
0
100
AcDbSymbolTable
 70
     1
  0
LTYPE
  5
14
330
5
100
AcDbSymbolTableRecord
100
AcDbLinetypeTableRecord
  2
ByBlock
 70
     0
  3

 72
    65
 73
     0
 40
0.0
  0
LTYPE
  5
15
330
5
100
AcDbSymbolTableRecord
100
AcDbLinetypeTableRecord
  2
ByLayer
 70
     0
  3

 72
    65
 73
     0
 40
0.0
  0
LTYPE
  5
16
330
5
100
AcDbSymbolTableRecord
100
AcDbLinetypeTableRecord
  2
Continuous
 70
     0
  3
Solid line
 72
    65
 73
     0
 40
0.0
  0
ENDTAB
  0
TABLE
  2
LAYER
  5
2
330
0
100
AcDbSymbolTable
 70
     2
  0
LAYER
  5
10
330
2
100
AcDbSymbolTableRecord
100
AcDbLayerTableRecord
  2
0
 70
     0
 62
     7
  6
Continuous
370
    -3
390
F
  0
LAYER
  5
3B
330
2
100
AcDbSymbolTableRecord
100
AcDbLayerTableRecord
  2
Default
 70
     0
 62
     7
  6
Continuous
370
    -3
390
F
  0
ENDTAB
  0
TABLE
  2
STYLE
  5
3
330
0
100
AcDbSymbolTable
 70
     1
  0
STYLE
  5
11
330
3
100
AcDbSymbolTableRecord
100
AcDbTextStyleTableRecord
  2
Standard
 70
     0
 40
0.0
 41
1.0
 50
0.0
 71
     0
 42
0.2
  3
txt
  4

  0
ENDTAB
  0
TABLE
  2
VIEW
  5
6
330
0
100
AcDbSymbolTable
 70
     0
  0
ENDTAB
  0
TABLE
  2
UCS
  5
7
330
0
100
AcDbSymbolTable
 70
     0
  0
ENDTAB
  0
TABLE
  2
APPID
  5
9
330
0
100
AcDbSymbolTable
 70
     1
  0
APPID
  5
12
330
9
100
AcDbSymbolTableRecord
100
AcDbRegAppTableRecord
  2
ACAD
 70
     0
  0
ENDTAB
  0
TABLE
  2
DIMSTYLE
  5
A
330
0
100
AcDbSymbolTable
 70
     1
100
AcDbDimStyleTable
  0
DIMSTYLE
105
27
330
A
100
AcDbSymbolTableRecord
100
AcDbDimStyleTableRecord
  2
Standard
 70
     0
340
11
  0
ENDTAB
  0
TABLE
  2
BLOCK_RECORD
  5
1
330
0
100
AcDbSymbolTable
 70
     1
  0
BLOCK_RECORD
  5
1F
330
1
100
AcDbSymbolTableRecord
100
AcDbBlockTableRecord
  2
*Model_Space
340
22
  0
BLOCK_RECORD
  5
1B
330
1
100
AcDbSymbolTableRecord
100
AcDbBlockTableRecord
  2
*Paper_Space
340
1E
  0
BLOCK_RECORD
  5
23
330
1
100
AcDbSymbolTableRecord
100
AcDbBlockTableRecord
  2
*Paper_Space0
340
26
  0
ENDTAB
  0
ENDSEC
  0
SECTION
  2
BLOCKS
  0
BLOCK
  5
20
330
1F
100
AcDbEntity
  8
0
100
AcDbBlockBegin
  2
*Model_Space
 70
     0
 10
0.0
 20
0.0
 30
0.0
  3
*Model_Space
  1

  0
ENDBLK
  5
21
330
1F
100
AcDbEntity
  8
0
100
AcDbBlockEnd
  0
BLOCK
  5
1C
330
1B
100
AcDbEntity
 67
     1
  8
0
100
AcDbBlockBegin
  2
*Paper_Space
 70
     0
 10
0.0
 20
0.0
 30
0.0
  3
*Paper_Space
  1

  0
ENDBLK
  5
1D
330
1B
100
AcDbEntity
 67
     1
  8
0
100
AcDbBlockEnd
  0
BLOCK
  5
24
330
23
100
AcDbEntity
  8
0
100
AcDbBlockBegin
  2
*Paper_Space0
 70
     0
 10
0.0
 20
0.0
 30
0.0
  3
*Paper_Space0
  1

  0
ENDBLK
  5
25
330
23
100
AcDbEntity
  8
0
100
AcDbBlockEnd
  0
ENDSEC
  0
SECTION
  2
ENTITIES
  0
SPLINE
  5
3C
330
1F
100
AcDbEntity
  8
Default
100
AcDbSpline
210
0.0
220
0.0
230
1.0
 70
    12
 71
     2
 72
     6
 73
     3
 74
     0
 42
0.0000000001
 43
0.0000000001
 40
0.0
 40
0.0
 40
0.0
 40
0.031775865958752
 40
0.031775865958752
 40
0.031775865958752
 10
-9.156334185641393
 20
39.94553485799731
 30
0.0
 41
1.0
 10
-9.168723422491148
 20
39.9355717858801
 30
0.0
 41
0.9990220049606279
 10
-9.18194440457993
 20
39.92674219764847
 30
0.0
 41
1.0
  0
SPLINE
  5
3D
330
1F
100
AcDbEntity
  8
Default
100
AcDbSpline
210
0.0
220
0.0
230
1.0
 70
    12
 71
     2
 72
     8
 73
     5
 74
     0
 42
0.0000000001
 43
0.0000000001
 40
0.0
 40
0.0
 40
0.0
 40
0.5858996793595914
 40
0.5858996793595914
 40
0.988463955991528
 40
0.988463955991528
 40
0.988463955991528
 10
-9.805502287319317
 20
40.17792329487836
 30
0.0
 41
1.0
 10
-9.797278824204671
 20
39.80923161372321
 30
0.0
 41
0.7182632240215031
 10
-9.42851211640673
 20
39.80572500304162
 30
0.0
 41
1.0
 10
-9.20372112938107
 20
39.80208011116446
 30
0.0
 41
0.8501034273344681
 10
-9.100346612101124
 20
40.00172475111731
 30
0.0
 41
1.0
  0
SPLINE
  5
3E
330
1F
100
AcDbEntity
  8
Default
100
AcDbSpline
210
0.0
220
0.0
230
1.0
 70
    24
 71
     2
 72
     6
 73
     3
 74
     0
 42
0.0000000001
 43
0.0000000001
 40
0.0
 40
0.0
 40
0.0
 40
0.138044187748528
 40
0.138044187748528
 40
0.138044187748528
 10
-9.439886832637523
 20
50.55458387315279
 30
0.0
 10
-9.370869578684445
 20
50.55376649957594
 30
0.0
 10
-9.301852324731367
 20
50.55294912599908
 30
0.0
  0
SPLINE
  5
3F
330
1F
100
AcDbEntity
  8
Default
100
AcDbSpline
210
0.0
220
0.0
230
1.0
 70
    24
 71
     2
 72
     6
 73
     3
 74
     0
 42
0.0000000001
 43
0.0000000001
 40
0.0
 40
0.0
 40
0.0
 40
0.2371979063935543
 40
0.2371979063935543
 40
0.2371979063935543
 10
-9.691952494624255
 20
47.55873016124502
 30
0.0
 10
-9.573353541562376
 20
47.55872450456837
 30
0.0
 10
-9.4547545885005
 20
47.55871884789173
 30
0.0
  0
SPLINE
  5
40
330
1F
100
AcDbEntity
  8
Default
100
AcDbSpline
210
0.0
220
0.0
230
1.0
 70
    24
 71
     2
 72
     6
 73
     3
 74
     0
 42
0.0000000001
 43
0.0000000001
 40
0.0
 40
0.0
 40
0.0
 40
0.0352410311864575
 40
0.0352410311864575
 40
0.0352410311864575
 10
-9.475127863783896
 20
50.55458555400336
 30
0.0
 10
-9.45750734821071
 20
50.55458471357808
 30
0.0
 10
-9.439886832637523
 20
50.55458387315279
 30
0.0
  0
SPLINE
  5
41
330
1F
100
AcDbEntity
  8
Default
100
AcDbSpline
210
0.0
220
0.0
230
1.0
 70
     8
 71
     3
 72
    16
 73
    12
 74
     0
 42
0.0000000001
 43
0.0000000001
 40
0.0
 40
0.0
 40
0.0
 40
0.0
 40
0.4026246302945599
 40
0.7924890719126686
 40
1.537758985455646
 40
2.293244877191106
 40
3.02698547792797
 40
3.79499540503596
 40
4.583748493344881
 40
5.474873025262559
 40
6.598334301463793
 40
6.598334301463793
 40
6.598334301463793
 40
6.598334301463793
 10
-8.703367853930521
 20
54.48801425721668
 30
0.0
 10
-8.655339661082227
 20
54.61335183786868
 30
0.0
 10
-8.552957172564774
 20
54.85698862512893
 30
0.0
 10
-8.3186275976982
 20
55.31346746392265
 30
0.0
 10
-7.962963095889468
 20
55.83601742843152
 30
0.0
 10
-7.452264836348044
 20
56.38141884704989
 30
0.0
 10
-6.851758007431457
 20
56.83947786969848
 30
0.0
 10
-6.173695274346661
 20
57.19538965656635
 30
0.0
 10
-5.402838985225991
 20
57.4685642410823
 30
0.0
 10
-4.489116822635285
 20
57.67020928836334
 30
0.0
 10
-3.822452925488586
 20
57.75495101197988
 30
0.0
 10
-3.450008911714736
 20
57.79362257332019
 30
0.0
  0
SPLINE
  5
42
330
1F
100
AcDbEntity
  8
Default
100
AcDbSpline
210
0.0
220
0.0
230
1.0
 70
    12
 71
     3
 72
    10
 73
     6
 74
     0
 42
0.0000000001
 43
0.0000000001
 40
-1.0
 40
-1.0
 40
-1.0
 40
-1.0
 40
-0.4999237927867715
 40
-0.4999237927867715
 40
-0.1908301494365861
 40
-0.1908301494365861
 40
-0.1908301494365861
 40
-0.1908301494365861
 10
-9.692833126195701
 20
47.54091209613326
 30
0.0
 41
1.0
 10
-9.666665520854536
 20
48.07119517429562
 30
0.0
 41
1.0
 10
-9.636873477857797
 20
48.60131012582607
 30
0.0
 41
1.0
 10
-9.577223223932243
 20
49.44252800482096
 30
0.0
 41
1.0
 10
-9.551884794046543
 20
49.75976380774985
 30
0.0
 41
1.0
 10
-9.523818779898178
 20
50.07089358855217
 30
0.0
 41
1.0
  0
SPLINE
  5
43
330
1F
100
AcDbEntity
  8
Default
100
AcDbSpline
210
0.0
220
0.0
230
1.0
 70
    12
 71
     2
 72
     6
 73
     3
 74
     0
 42
0.0000000001
 43
0.0000000001
 40
0.0
 40
0.0
 40
0.0
 40
1.996865546301059
 40
1.996865546301059
 40
1.996865546301059
 10
-9.991534407932459
 20
46.12083911819614
 30
0.0
 41
1.0
 10
-10.69154271090164
 20
46.8327775835515
 30
0.0
 41
0.9999999999998159
 10
-11.39155014972624
 20
47.54471689812767
 30
0.0
 41
1.0
  0
SPLINE
  5
44
330
1F
100
AcDbEntity
  8
Default
100
AcDbSpline
210
0.0
220
0.0
230
1.0
 70
    12
 71
     3
 72
    11
 73
     7
 74
     0
 42
0.0000000001
 43
0.0000000001
 40
0.640875809691118
 40
0.640875809691118
 40
0.640875809691118
 40
0.640875809691118
 40
0.6568174083128
 40
0.6727590025993
 40
0.6887005968858
 40
0.7046421827495598
 40
0.7046421827495598
 40
0.7046421827495598
 40
0.7046421827495598
 10
-9.675149666509498
 20
47.30502772700206
 30
0.0
 41
1.0
 10
-9.681154303399687
 20
47.12385421987646
 30
0.0
 41
1.0
 10
-9.695822489034704
 20
46.76295568111775
 30
0.0
 41
1.0
 10
-9.762305634077094
 20
46.32968179534379
 30
0.0
 41
1.0
 10
-9.870664461100986
 20
46.08848225281223
 30
0.0
 41
1.0
 10
-9.956284012095779
 20
46.08498809407849
 30
0.0
 41
1.0
 10
-9.991534408081677
 20
46.12083911805768
 30
0.0
 41
1.0
  0
SPLINE
  5
45
330
1F
100
AcDbEntity
  8
Default
100
AcDbSpline
210
0.0
220
0.0
230
1.0
 70
    12
 71
     3
 72
    11
 73
     7
 74
     0
 42
0.0000000001
 43
0.0000000001
 40
0.917004293082
 40
0.917004293082
 40
0.917004293082
 40
0.917004293082
 40
0.9377532226306
 40
0.9585021484204
 40
0.9792510742102
 40
0.9999999933620917
 40
0.9999999933620917
 40
0.9999999933620917
 40
0.9999999933620917
 10
-11.39155014976438
 20
47.5447168981946
 30
0.0
 41
1.0
 10
-11.43765017396916
 20
47.59160256622903
 30
0.0
 41
1.0
 10
-11.49525363812804
 20
47.77535148920818
 30
0.0
 41
1.0
 10
-11.53045016985163
 20
48.29673603335327
 30
0.0
 41
1.0
 10
-11.52613703200447
 20
48.99098612802462
 30
0.0
 41
1.0
 10
-11.47324366507806
 20
49.49711681585067
 30
0.0
 41
1.0
 10
-11.43200115840846
 20
49.74071069461002
 30
0.0
 41
1.0
  0
SPLINE
  5
46
330
1F
100
AcDbEntity
  8
Default
100
AcDbSpline
210
0.0
220
0.0
230
1.0
 70
    12
 71
     2
 72
     6
 73
     3
 74
     0
 42
0.0000000001
 43
0.0000000001
 40
0.0
 40
0.0
 40
0.0
 40
0.0319605526000053
 40
0.0319605526000053
 40
0.0319605526000053
 10
-9.725942100636328
 20
40.40977358047741
 30
0.0
 41
1.0
 10
-9.71849914530308
 20
40.42392695700968
 30
0.0
 41
0.9989839324624555
 10
-9.709811999146202
 20
40.43735264667561
 30
0.0
 41
1.0
  0
SPLINE
  5
47
330
1F
100
AcDbEntity
  8
Default
100
AcDbSpline
210
0.0
220
0.0
230
1.0
 70
    12
 71
     2
 72
     6
 73
     3
 74
     0
 42
0.0000000001
 43
0.0000000001
 40
0.0
 40
0.0
 40
0.0
 40
0.1109958261616712
 40
0.1109958261616712
 40
0.1109958261616712
 10
-9.762174853737923
 20
40.30153731435088
 30
0.0
 41
1.0
 10
-9.753124628369836
 20
40.35674979902971
 30
0.0
 41
0.9879419355571151
 10
-9.727617906568604
 20
40.40654670843759
 30
0.0
 41
1.0
  0
SPLINE
  5
48
330
1F
100
AcDbEntity
  8
Default
100
AcDbSpline
210
0.0
220
0.0
230
1.0
 70
    12
 71
     2
 72
     6
 73
     3
 74
     0
 42
0.0000000001
 43
0.0000000001
 40
0.0
 40
0.0
 40
0.0
 40
0.0043371591519303
 40
0.0043371591519303
 40
0.0043371591519303
 10
-9.766208313340561
 20
40.26642980608902
 30
0.0
 41
1.0
 10
-9.766065714248214
 20
40.26859371776318
 30
0.0
 41
0.9999823206938716
 10
-9.765897391225938
 20
40.27075578057329
 30
0.0
 41
1.0
  0
SPLINE
  5
49
330
1F
100
AcDbEntity
  8
Default
100
AcDbSpline
210
0.0
220
0.0
230
1.0
 70
    12
 71
     2
 72
     6
 73
     3
 74
     0
 42
0.0000000001
 43
0.0000000001
 40
0.0
 40
0.0
 40
0.0
 40
0.0088132216251207
 40
0.0088132216251207
 40
0.0088132216251207
 10
-9.764035925898977
 20
40.19576973000937
 30
0.0
 41
1.0
 10
-9.764593435937604
 20
40.20014114198882
 30
0.0
 41
0.9999288897077924
 10
-9.7650465330114
 20
40.20452460673476
 30
0.0
 41
1.0
  0
SPLINE
  5
4A
330
1F
100
AcDbEntity
  8
Default
100
AcDbSpline
210
0.0
220
0.0
230
1.0
 70
    12
 71
     2
 72
     6
 73
     3
 74
     0
 42
0.0000000001
 43
0.0000000001
 40
0.0
 40
0.0
 40
0.0
 40
0.1858148263794679
 40
0.1858148263794679
 40
0.1858148263794679
 10
-9.680763964563761
 20
40.00452529191629
 30
0.0
 41
1.0
 10
-9.741384387985244
 20
40.07749374096176
 30
0.0
 41
0.9693432921039179
 10
-9.759926153725754
 20
40.17052832171066
 30
0.0
 41
1.0
  0
SPLINE
  5
4B
330
1F
100
AcDbEntity
  8
Default
100
AcDbSpline
210
0.0
220
0.0
230
1.0
 70
    12
 71
     2
 72
     6
 73
     3
 74
     0
 42
0.0000000001
 43
0.0000000001
 40
0.0
 40
0.0
 40
0.0
 40
0.1150880427705124
 40
0.1150880427705124
 40
0.1150880427705124
 10
-9.079580360509812
 20
40.03063087791644
 30
0.0
 41
1.0
 10
-9.111063433444462
 20
39.98186472098235
 30
0.0
 41
0.9870819617354405
 10
-9.156354602868161
 20
39.94556001170433
 30
0.0
 41
1.0
  0
SPLINE
  5
4C
330
1F
100
AcDbEntity
  8
Default
100
AcDbSpline
210
0.0
220
0.0
230
1.0
 70
    12
 71
     2
 72
     6
 73
     3
 74
     0
 42
0.0000000001
 43
0.0000000001
 40
0.0
 40
0.0
 40
0.0
 40
0.1869642008515543
 40
0.1869642008515543
 40
0.1869642008515543
 10
-9.457792275126657
 20
39.87223935693971
 30
0.0
 41
1.0
 10
-9.55148591447057
 20
39.89020565680229
 30
0.0
 41
0.9701053716359109
 10
-9.625683692560198
 20
39.95017211168183
 30
0.0
 41
1.0
  0
SPLINE
  5
4D
330
1F
100
AcDbEntity
  8
Default
100
AcDbSpline
210
0.0
220
0.0
230
1.0
 70
    12
 71
     2
 72
     6
 73
     3
 74
     0
 42
0.0000000001
 43
0.0000000001
 40
0.0
 40
0.0
 40
0.0
 40
0.1106823209337141
 40
0.1106823209337141
 40
0.1106823209337141
 10
-9.186961173925965
 20
39.92345215934061
 30
0.0
 41
1.0
 10
-9.233873137144746
 20
39.8932835207014
 30
0.0
 41
0.9883664027738622
 10
-9.28768481275382
 20
39.87861441648447
 30
0.0
 41
1.0
  0
SPLINE
  5
4E
330
1F
100
AcDbEntity
  8
Default
100
AcDbSpline
210
0.0
220
0.0
230
1.0
 70
    12
 71
     2
 72
     6
 73
     3
 74
     0
 42
0.0000000001
 43
0.0000000001
 40
0.0
 40
0.0
 40
0.0
 40
0.0310117036644928
 40
0.0310117036644928
 40
0.0310117036644928
 10
9.76212265482106
 20
40.30152867612541
 30
0.0
 41
1.0
 10
9.764655216873809
 20
40.28622141632739
 30
0.0
 41
0.9990820238187402
 10
9.765868217459795
 20
40.2707535560147
 30
0.0
 41
1.0
  0
SPLINE
  5
4F
330
1F
100
AcDbEntity
  8
Default
100
AcDbSpline
210
0.0
220
0.0
230
1.0
 70
    12
 71
     2
 72
     6
 73
     3
 74
     0
 42
0.0000000001
 43
0.0000000001
 40
0.0
 40
0.0
 40
0.0
 40
0.2107005313025996
 40
0.2107005313025996
 40
0.2107005313025996
 10
9.748292855710623
 20
40.37758475824456
 30
0.0
 41
1.0
 10
9.807029363828281
 20
40.28638775428504
 30
0.0
 41
0.9573430636254024
 10
9.805502287319317
 20
40.17792329487836
 30
0.0
 41
1.0
  0
SPLINE
  5
50
330
1F
100
AcDbEntity
  8
Default
100
AcDbSpline
210
0.0
220
0.0
230
1.0
 70
    12
 71
     2
 72
     6
 73
     3
 74
     0
 42
0.0000000001
 43
0.0000000001
 40
0.0
 40
0.0
 40
0.0
 40
0.0255765099974059
 40
0.0255765099974059
 40
0.0255765099974059
 10
9.759880894247873
 20
40.17053717823907
 30
0.0
 41
1.0
 10
9.762382274650124
 20
40.18308364077244
 30
0.0
 41
0.9993989632951448
 10
9.76400830167213
 20
40.19577326890499
 30
0.0
 41
1.0
  0
SPLINE
  5
51
330
1F
100
AcDbEntity
  8
Default
100
AcDbSpline
210
0.0
220
0.0
230
1.0
 70
    12
 71
     2
 72
     8
 73
     5
 74
     0
 42
0.0000000001
 43
0.0000000001
 40
0.0
 40
0.0
 40
0.0
 40
0.1034429179618512
 40
0.1034429179618512
 40
0.1717001579871534
 40
0.1717001579871534
 40
0.1717001579871534
 10
9.287700784267008
 20
39.8786731515152
 30
0.0
 41
1.0
 10
9.337908007150546
 20
39.86492176759986
 30
0.0
 41
0.9903774109518533
 10
9.389961595284156
 20
39.86546005347262
 30
0.0
 41
1.0
 10
9.424181337030339
 20
39.86580417434274
 30
0.0
 41
0.9959350653995875
 10
9.457784064834081
 20
39.87228227811595
 30
0.0
 41
1.0
  0
SPLINE
  5
52
330
1F
100
AcDbEntity
  8
Default
100
AcDbSpline
210
0.0
220
0.0
230
1.0
 70
    12
 71
     2
 72
     6
 73
     3
 74
     0
 42
0.0000000001
 43
0.0000000001
 40
0.0
 40
0.0
 40
0.0
 40
0.0287874950432532
 40
0.0287874950432532
 40
0.0287874950432532
 10
9.766181586412458
 20
40.26642802978649
 30
0.0
 41
1.0
 10
9.767135856668029
 20
40.25205842480981
 30
0.0
 41
0.9992181021449502
 10
9.766951766196748
 20
40.23765834530987
 30
0.0
 41
1.0
  0
SPLINE
  5
53
330
1F
100
AcDbEntity
  8
Default
100
AcDbSpline
210
0.0
220
0.0
230
1.0
 70
    12
 71
     2
 72
     6
 73
     3
 74
     0
 42
0.0000000001
 43
0.0000000001
 40
0.0
 40
0.0
 40
0.0
 40
0.0036347854509338
 40
0.0036347854509338
 40
0.0036347854509338
 10
9.725849068415124
 20
40.40972435756979
 30
0.0
 41
1.0
 10
9.726694036525245
 20
40.4081153198907
 30
0.0
 41
0.9999870477375223
 10
9.72752258225043
 20
40.40649776453117
 30
0.0
 41
1.0
  0
SPLINE
  5
54
330
1F
100
AcDbEntity
  8
Default
100
AcDbSpline
210
0.0
220
0.0
230
1.0
 70
    12
 71
     2
 72
     6
 73
     3
 74
     0
 42
0.0000000001
 43
0.0000000001
 40
0.0
 40
0.0
 40
0.0
 40
0.033195217730056
 40
0.033195217730056
 40
0.033195217730056
 10
9.765023253011238
 20
40.20452694576824
 30
0.0
 41
1.0
 10
9.766739020863382
 20
40.22104707754706
 30
0.0
 41
0.9989722826092285
 10
9.766951719796946
 20
40.23765470749463
 30
0.0
 41
1.0
  0
SPLINE
  5
55
330
1F
100
AcDbEntity
  8
Default
100
AcDbSpline
210
0.0
220
0.0
230
1.0
 70
    12
 71
     2
 72
     6
 73
     3
 74
     0
 42
0.0000000001
 43
0.0000000001
 40
0.0
 40
0.0
 40
0.0
 40
0.0775072285960067
 40
0.0775072285960067
 40
0.0775072285960067
 10
9.625664445817069
 20
39.95019579534229
 30
0.0
 41
1.0
 10
9.655953899202563
 20
39.97458214402651
 30
0.0
 41
0.9948893065873091
 10
9.680726244671636
 20
40.00455673140484
 30
0.0
 41
1.0
  0
SPLINE
  5
56
330
1F
100
AcDbEntity
  8
Default
100
AcDbSpline
210
0.0
220
0.0
230
1.0
 70
    12
 71
     2
 72
     6
 73
     3
 74
     0
 42
0.0000000001
 43
0.0000000001
 40
0.0
 40
0.0
 40
0.0
 40
0.0059983484682731
 40
0.0059983484682731
 40
0.0059983484682731
 10
9.18198407733735
 20
39.92680173882191
 30
0.0
 41
1.0
 10
9.184480025147025
 20
39.92513869818293
 30
0.0
 41
0.9999655201620218
 10
9.187003247964498
 20
39.9235173387999
 30
0.0
 41
1.0
  0
SPLINE
  5
57
330
1F
100
AcDbEntity
  8
Default
100
AcDbSpline
210
0.0
220
0.0
230
1.0
 70
    12
 71
     2
 72
     6
 73
     3
 74
     0
 42
0.0000000001
 43
0.0000000001
 40
0.0
 40
0.0
 40
0.0
 40
0.1150880427705124
 40
0.1150880427705124
 40
0.1150880427705124
 10
9.079580360509812
 20
40.03063087791644
 30
0.0
 41
1.0
 10
9.111063433444462
 20
39.98186472098235
 30
0.0
 41
0.9870819617354405
 10
9.156354602868161
 20
39.94556001170433
 30
0.0
 41
1.0
  0
SPLINE
  5
58
330
1F
100
AcDbEntity
  8
Default
100
AcDbSpline
210
0.0
220
0.0
230
1.0
 70
    12
 71
     2
 72
     8
 73
     5
 74
     0
 42
0.0000000001
 43
0.0000000001
 40
0.0
 40
0.0
 40
0.0
 40
0.5858996793595914
 40
0.5858996793595914
 40
0.988463955991528
 40
0.988463955991528
 40
0.988463955991528
 10
9.805502287319317
 20
40.17792329487836
 30
0.0
 41
1.0
 10
9.797278824204671
 20
39.80923161372321
 30
0.0
 41
0.7182632240215031
 10
9.42851211640673
 20
39.80572500304162
 30
0.0
 41
1.0
 10
9.20372112938107
 20
39.80208011116446
 30
0.0
 41
0.8501034273344681
 10
9.100346612101124
 20
40.00172475111731
 30
0.0
 41
1.0
  0
SPLINE
  5
59
330
1F
100
AcDbEntity
  8
Default
100
AcDbSpline
210
0.0
220
0.0
230
1.0
 70
    24
 71
     2
 72
     6
 73
     3
 74
     0
 42
0.0000000001
 43
0.0000000001
 40
0.0
 40
0.0
 40
0.0
 40
0.2371979063935543
 40
0.2371979063935543
 40
0.2371979063935543
 10
9.691952494624255
 20
47.55873016124502
 30
0.0
 10
9.573353541562376
 20
47.55872450456837
 30
0.0
 10
9.4547545885005
 20
47.55871884789173
 30
0.0
  0
SPLINE
  5
5A
330
1F
100
AcDbEntity
  8
Default
100
AcDbSpline
210
0.0
220
0.0
230
1.0
 70
    24
 71
     2
 72
     6
 73
     3
 74
     0
 42
0.0000000001
 43
0.0000000001
 40
0.0
 40
0.0
 40
0.0
 40
0.138044187748528
 40
0.138044187748528
 40
0.138044187748528
 10
9.439886832637523
 20
50.55458387315279
 30
0.0
 10
9.370869578684445
 20
50.55376649957594
 30
0.0
 10
9.301852324731367
 20
50.55294912599908
 30
0.0
  0
SPLINE
  5
5B
330
1F
100
AcDbEntity
  8
Default
100
AcDbSpline
210
0.0
220
0.0
230
1.0
 70
    24
 71
     2
 72
     6
 73
     3
 74
     0
 42
0.0000000001
 43
0.0000000001
 40
0.0
 40
0.0
 40
0.0
 40
0.0352410311864575
 40
0.0352410311864575
 40
0.0352410311864575
 10
9.475127863783896
 20
50.55458555400336
 30
0.0
 10
9.45750734821071
 20
50.55458471357808
 30
0.0
 10
9.439886832637523
 20
50.55458387315279
 30
0.0
  0
SPLINE
  5
5C
330
1F
100
AcDbEntity
  8
Default
100
AcDbSpline
210
0.0
220
0.0
230
1.0
 70
     8
 71
     3
 72
    16
 73
    12
 74
     0
 42
0.0000000001
 43
0.0000000001
 40
0.0
 40
0.0
 40
0.0
 40
0.0
 40
0.4026246302945599
 40
0.7924890719126686
 40
1.537758985455646
 40
2.293244877191106
 40
3.02698547792797
 40
3.79499540503596
 40
4.583748493344881
 40
5.474873025262559
 40
6.598334301463793
 40
6.598334301463793
 40
6.598334301463793
 40
6.598334301463793
 10
8.703367853930521
 20
54.48801425721668
 30
0.0
 10
8.655339661082227
 20
54.61335183786868
 30
0.0
 10
8.552957172564774
 20
54.85698862512893
 30
0.0
 10
8.3186275976982
 20
55.31346746392265
 30
0.0
 10
7.962963095889468
 20
55.83601742843152
 30
0.0
 10
7.452264836348044
 20
56.38141884704989
 30
0.0
 10
6.851758007431457
 20
56.83947786969848
 30
0.0
 10
6.173695274346661
 20
57.19538965656635
 30
0.0
 10
5.402838985225991
 20
57.4685642410823
 30
0.0
 10
4.489116822635285
 20
57.67020928836334
 30
0.0
 10
3.822452925488586
 20
57.75495101197988
 30
0.0
 10
3.450008911714736
 20
57.79362257332019
 30
0.0
  0
SPLINE
  5
5D
330
1F
100
AcDbEntity
  8
Default
100
AcDbSpline
210
0.0
220
0.0
230
1.0
 70
    12
 71
     3
 72
    10
 73
     6
 74
     0
 42
0.0000000001
 43
0.0000000001
 40
-1.0
 40
-1.0
 40
-1.0
 40
-1.0
 40
-0.4999237927867715
 40
-0.4999237927867715
 40
-0.1908301494365861
 40
-0.1908301494365861
 40
-0.1908301494365861
 40
-0.1908301494365861
 10
9.692833126195701
 20
47.54091209613326
 30
0.0
 41
1.0
 10
9.666665520854536
 20
48.07119517429562
 30
0.0
 41
1.0
 10
9.636873477857797
 20
48.60131012582607
 30
0.0
 41
1.0
 10
9.577223223932243
 20
49.44252800482096
 30
0.0
 41
1.0
 10
9.551884794046543
 20
49.75976380774985
 30
0.0
 41
1.0
 10
9.523818779898178
 20
50.07089358855217
 30
0.0
 41
1.0
  0
SPLINE
  5
5E
330
1F
100
AcDbEntity
  8
Default
100
AcDbSpline
210
0.0
220
0.0
230
1.0
 70
    12
 71
     2
 72
     6
 73
     3
 74
     0
 42
0.0000000001
 43
0.0000000001
 40
0.0
 40
0.0
 40
0.0
 40
1.996865546301059
 40
1.996865546301059
 40
1.996865546301059
 10
9.991534407932459
 20
46.12083911819614
 30
0.0
 41
1.0
 10
10.69154271090164
 20
46.8327775835515
 30
0.0
 41
0.9999999999998159
 10
11.39155014972624
 20
47.54471689812767
 30
0.0
 41
1.0
  0
SPLINE
  5
5F
330
1F
100
AcDbEntity
  8
Default
100
AcDbSpline
210
0.0
220
0.0
230
1.0
 70
    12
 71
     3
 72
    11
 73
     7
 74
     0
 42
0.0000000001
 43
0.0000000001
 40
0.640875809691118
 40
0.640875809691118
 40
0.640875809691118
 40
0.640875809691118
 40
0.6568174083128
 40
0.6727590025993
 40
0.6887005968858
 40
0.7046421827495598
 40
0.7046421827495598
 40
0.7046421827495598
 40
0.7046421827495598
 10
9.675149666509498
 20
47.30502772700206
 30
0.0
 41
1.0
 10
9.681154303399687
 20
47.12385421987646
 30
0.0
 41
1.0
 10
9.695822489034704
 20
46.76295568111775
 30
0.0
 41
1.0
 10
9.762305634077094
 20
46.32968179534379
 30
0.0
 41
1.0
 10
9.870664461100986
 20
46.08848225281223
 30
0.0
 41
1.0
 10
9.956284012095779
 20
46.08498809407849
 30
0.0
 41
1.0
 10
9.991534408081677
 20
46.12083911805768
 30
0.0
 41
1.0
  0
SPLINE
  5
60
330
1F
100
AcDbEntity
  8
Default
100
AcDbSpline
210
0.0
220
0.0
230
1.0
 70
    12
 71
     3
 72
    11
 73
     7
 74
     0
 42
0.0000000001
 43
0.0000000001
 40
0.917004293082
 40
0.917004293082
 40
0.917004293082
 40
0.917004293082
 40
0.9377532226306
 40
0.9585021484204
 40
0.9792510742102
 40
0.9999999933620917
 40
0.9999999933620917
 40
0.9999999933620917
 40
0.9999999933620917
 10
11.39155014976438
 20
47.5447168981946
 30
0.0
 41
1.0
 10
11.43765017396916
 20
47.59160256622903
 30
0.0
 41
1.0
 10
11.49525363812804
 20
47.77535148920818
 30
0.0
 41
1.0
 10
11.53045016985163
 20
48.29673603335327
 30
0.0
 41
1.0
 10
11.52613703200447
 20
48.99098612802462
 30
0.0
 41
1.0
 10
11.47324366507806
 20
49.49711681585067
 30
0.0
 41
1.0
 10
11.43200115840846
 20
49.74071069461002
 30
0.0
 41
1.0
  0
SPLINE
  5
61
330
1F
100
AcDbEntity
  8
Default
100
AcDbSpline
210
0.0
220
0.0
230
1.0
 70
    12
 71
     2
 72
     6
 73
     3
 74
     0
 42
0.0000000001
 43
0.0000000001
 40
0.0
 40
0.0
 40
0.0
 40
0.0319605526000053
 40
0.0319605526000053
 40
0.0319605526000053
 10
9.725942100636328
 20
40.40977358047741
 30
0.0
 41
1.0
 10
9.71849914530308
 20
40.42392695700968
 30
0.0
 41
0.9989839324624555
 10
9.709811999146202
 20
40.43735264667561
 30
0.0
 41
1.0
  0
SPLINE
  5
62
330
1F
100
AcDbEntity
  8
Default
100
AcDbSpline
210
0.0
220
0.0
230
1.0
 70
     8
 71
     5
 72
    12
 73
     6
 74
     0
 42
0.0000000001
 43
0.0000000001
 40
0.0
 40
0.0
 40
0.0
 40
0.0
 40
0.0
 40
0.0
 40
1.0
 40
1.0
 40
1.0
 40
1.0
 40
1.0
 40
1.0
 10
11.25471947392291
 20
46.11717720375275
 30
0.0
 10
11.24386535464991
 20
46.10916791708769
 30
0.0
 10
11.23301074659282
 20
46.10115929281879
 30
0.0
 10
11.21980038083349
 20
46.09469009929488
 30
0.0
 10
11.20661724931348
 20
46.09183144146098
 30
0.0
 10
11.19341775005726
 20
46.08905047086406
 30
0.0
  0
SPLINE
  5
63
330
1F
100
AcDbEntity
  8
Default
100
AcDbSpline
210
0.0
220
0.0
230
1.0
 70
     8
 71
     3
 72
    12
 73
     8
 74
     0
 42
0.0000000001
 43
0.0000000001
 40
0.0
 40
0.0
 40
0.0
 40
0.0
 40
0.3867932544119657
 40
0.8177802007218444
 40
1.809413212430772
 40
3.118809823376807
 40
4.503853331862265
 40
4.503853331862265
 40
4.503853331862265
 40
4.503853331862265
 10
8.703343392352952
 20
54.48800478135528
 30
0.0
 10
8.749518216068967
 20
54.36759636866938
 30
0.0
 10
8.837840102809775
 20
54.10964295791967
 30
0.0
 10
9.002836511594868
 20
53.52923019023102
 30
0.0
 10
9.191476459390143
 20
52.63772128175506
 30
0.0
 10
9.376341792089255
 20
51.42275266796072
 30
0.0
 10
9.48170200200099
 20
50.53067483807304
 30
0.0
 10
9.523801668936335
 20
50.07089204456871
 30
0.0
  0
SPLINE
  5
64
330
1F
100
AcDbEntity
  8
Default
100
AcDbSpline
210
0.0
220
0.0
230
1.0
 70
     8
 71
     3
 72
    11
 73
     7
 74
     0
 42
0.0000000001
 43
0.0000000001
 40
0.0
 40
0.0
 40
0.0
 40
0.0
 40
0.3197744795863026
 40
0.6240233113606278
 40
1.234270588508635
 40
2.345962402636173
 40
2.345962402636173
 40
2.345962402636173
 40
2.345962402636173
 10
1.108722873995072
 20
57.9323887856122
 30
0.0
 10
1.215283076098636
 20
57.92974748217043
 30
0.0
 10
1.423202018473139
 20
57.92374482179265
 30
0.0
 10
1.834356122248359
 20
57.9086043864424
 30
0.0
 10
2.508941132205537
 20
57.87523941578631
 30
0.0
 10
3.081364321804035
 20
57.83140294856541
 30
0.0
 10
3.45000841523485
 20
57.79362015421528
 30
0.0
  0
SPLINE
  5
65
330
1F
100
AcDbEntity
  8
Default
100
AcDbSpline
210
0.0
220
0.0
230
1.0
 70
     8
 71
     3
 72
    11
 73
     7
 74
     0
 42
0.0000000001
 43
0.0000000001
 40
0.0
 40
0.0
 40
0.0
 40
0.0
 40
0.1607882281338878
 40
0.323211429028675
 40
0.6422059554128811
 40
1.268282968510138
 40
1.268282968510138
 40
1.268282968510138
 40
1.268282968510138
 10
9.934201819440853
 20
46.09475211133491
 30
0.0
 10
9.98667872718984
 20
46.08386257266517
 30
0.0
 10
10.09267540861839
 20
46.06439034684502
 30
0.0
 10
10.30492375671787
 20
46.03605648460074
 30
0.0
 10
10.67395872834531
 20
46.01479179170973
 30
0.0
 10
10.98918733867749
 20
46.04602165908723
 30
0.0
 10
11.19341775005726
 20
46.08905047086406
 30
0.0
  0
SPLINE
  5
66
330
1F
100
AcDbEntity
  8
Default
100
AcDbSpline
210
0.0
220
0.0
230
1.0
 70
    12
 71
     2
 72
     6
 73
     3
 74
     0
 42
0.0000000001
 43
0.0000000001
 40
0.0
 40
0.0
 40
0.0
 40
1.914609794935366
 40
1.914609794935366
 40
1.914609794935366
 10
9.709755890054776
 20
40.43731706583172
 30
0.0
 41
1.0
 10
9.190661074656413
 20
41.24166353316897
 30
0.0
 41
0.999999999999819
 10
8.67156722697549
 20
42.04601062490265
 30
0.0
 41
1.0
  0
SPLINE
  5
67
330
1F
100
AcDbEntity
  8
Default
100
AcDbSpline
210
0.0
220
0.0
230
1.0
 70
    12
 71
     2
 72
     6
 73
     3
 74
     0
 42
0.0000000001
 43
0.0000000001
 40
0.0
 40
0.0
 40
0.0
 40
0.1154254289414232
 40
0.1154254289414232
 40
0.1154254289414232
 10
6.749446638760551
 20
56.76636849898213
 30
0.0
 41
1.0
 10
6.802625326592587
 20
56.78879347103202
 30
0.0
 41
0.9999786542317914
 10
6.855506437756124
 20
56.81191143575832
 30
0.0
 41
1.0
  0
SPLINE
  5
68
330
1F
100
AcDbEntity
  8
Default
100
AcDbSpline
210
0.0
220
0.0
230
1.0
 70
    12
 71
     2
 72
     6
 73
     3
 74
     0
 42
0.0000000001
 43
0.0000000001
 40
0.0
 40
0.0
 40
0.0
 40
1.69890250530401
 40
1.69890250530401
 40
1.69890250530401
 10
8.158362500745834
 20
41.45808573678629
 30
0.0
 41
1.0
 10
8.618966206830242
 20
40.7443549355385
 30
0.0
 41
0.9999999999136252
 10
9.079588674492602
 20
40.03063624235685
 30
0.0
 41
1.0
  0
SPLINE
  5
69
330
1F
100
AcDbEntity
  8
Default
100
AcDbSpline
210
0.0
220
0.0
230
1.0
 70
    12
 71
     2
 72
     6
 73
     3
 74
     0
 42
0.0000000001
 43
0.0000000001
 40
0.0
 40
0.0
 40
0.0
 40
0.091920914421484
 40
0.091920914421484
 40
0.091920914421484
 10
5.96962403693372
 20
57.25974555895742
 30
0.0
 41
1.0
 10
5.92696232619791
 20
57.2426475455029
 30
0.0
 41
0.9999999999962704
 10
5.884300522068312
 20
57.22554976507796
 30
0.0
 41
1.0
  0
SPLINE
  5
6A
330
1F
100
AcDbEntity
  8
Default
100
AcDbSpline
210
0.0
220
0.0
230
1.0
 70
     8
 71
     5
 72
    12
 73
     6
 74
     0
 42
0.0000000001
 43
0.0000000001
 40
0.0
 40
0.0
 40
0.0
 40
0.0
 40
0.0
 40
0.0
 40
1.0
 40
1.0
 40
1.0
 40
1.0
 40
1.0
 40
1.0
 10
9.692833126195701
 20
47.54091209613326
 30
0.0
 10
9.695164834368704
 20
47.49366033689752
 30
0.0
 10
9.697472564343848
 20
47.44640739442203
 30
0.0
 10
9.672092182914072
 20
47.39959685592282
 30
0.0
 10
9.67358255546403
 20
47.35231101978975
 30
0.0
 10
9.675149666509498
 20
47.30502772700206
 30
0.0
  0
SPLINE
  5
6B
330
1F
100
AcDbEntity
  8
Default
100
AcDbSpline
210
0.0
220
0.0
230
1.0
 70
     8
 71
     3
 72
    13
 73
     9
 74
     0
 42
0.0000000001
 43
0.0000000001
 40
-2.227932314151448
 40
-2.227932314151448
 40
-2.227932314151448
 40
-2.227932314151448
 40
-1.453762137782131
 40
-0.8568000418749979
 40
-0.5880349582740244
 40
-0.3515879497813756
 40
-0.1527612807301966
 40
0.0
 40
0.0
 40
0.0
 40
0.0
 10
13.48957588346165
 20
49.70886553559473
 30
0.0
 10
13.51380535616296
 20
49.45197671285311
 30
0.0
 10
13.55098807796224
 20
48.99602313068844
 30
0.0
 10
13.52836344578508
 20
48.4483045243291
 30
0.0
 10
13.46283696781499
 20
48.08621723193297
 30
0.0
 10
13.39420885371073
 20
47.86128863426931
 30
0.0
 10
13.30868140728112
 20
47.68404580975903
 30
0.0
 10
13.23415606858271
 20
47.59204224250406
 30
0.0
 10
13.18986598243717
 20
47.55821982101966
 30
0.0
  0
SPLINE
  5
6C
330
1F
100
AcDbEntity
  8
Default
100
AcDbSpline
210
0.0
220
0.0
230
1.0
 70
    12
 71
     2
 72
     6
 73
     3
 74
     0
 42
0.0000000001
 43
0.0000000001
 40
-2.412764561201183
 40
-2.412764561201183
 40
-2.412764561201183
 40
0.0
 40
0.0
 40
0.0
 10
13.18986598243717
 20
47.55821982101966
 30
0.0
 41
1.0
 10
12.22543873084107
 20
46.83347381008223
 30
0.0
 41
0.9999904679061917
 10
11.25471947392291
 20
46.11717720375275
 30
0.0
 41
1.0
  0
SPLINE
  5
6D
330
1F
100
AcDbEntity
  8
Default
100
AcDbSpline
210
0.0
220
0.0
230
1.0
 70
    24
 71
     2
 72
     6
 73
     3
 74
     0
 42
0.0000000001
 43
0.0000000001
 40
0.0
 40
0.0
 40
0.0
 40
0.0675409205343183
 40
0.0675409205343183
 40
0.0675409205343183
 10
9.74829285620755
 20
40.37758475747984
 30
0.0
 10
9.729981031789361
 20
40.40595941295146
 30
0.0
 10
9.71166920737117
 20
40.43433406842308
 30
0.0
  0
SPLINE
  5
6E
330
1F
100
AcDbEntity
  8
Default
100
AcDbSpline
210
0.0
220
0.0
230
1.0
 70
    12
 71
     2
 72
     6
 73
     3
 74
     0
 42
0.0000000001
 43
0.0000000001
 40
0.0
 40
0.0
 40
0.0
 40
0.0287874950432532
 40
0.0287874950432532
 40
0.0287874950432532
 10
-9.766181586412458
 20
40.26642802978649
 30
0.0
 41
1.0
 10
-9.767135856668029
 20
40.25205842480981
 30
0.0
 41
0.9992181021449502
 10
-9.766951766196748
 20
40.23765834530987
 30
0.0
 41
1.0
  0
SPLINE
  5
6F
330
1F
100
AcDbEntity
  8
Default
100
AcDbSpline
210
0.0
220
0.0
230
1.0
 70
    12
 71
     2
 72
     6
 73
     3
 74
     0
 42
0.0000000001
 43
0.0000000001
 40
0.0
 40
0.0
 40
0.0
 40
0.0036347854509338
 40
0.0036347854509338
 40
0.0036347854509338
 10
-9.725849068415124
 20
40.40972435756979
 30
0.0
 41
1.0
 10
-9.726694036525245
 20
40.4081153198907
 30
0.0
 41
0.9999870477375223
 10
-9.72752258225043
 20
40.40649776453117
 30
0.0
 41
1.0
  0
SPLINE
  5
70
330
1F
100
AcDbEntity
  8
Default
100
AcDbSpline
210
0.0
220
0.0
230
1.0
 70
    12
 71
     2
 72
     6
 73
     3
 74
     0
 42
0.0000000001
 43
0.0000000001
 40
0.0
 40
0.0
 40
0.0
 40
0.0310117036644928
 40
0.0310117036644928
 40
0.0310117036644928
 10
-9.76212265482106
 20
40.30152867612541
 30
0.0
 41
1.0
 10
-9.764655216873809
 20
40.28622141632739
 30
0.0
 41
0.9990820238187402
 10
-9.765868217459795
 20
40.2707535560147
 30
0.0
 41
1.0
  0
SPLINE
  5
71
330
1F
100
AcDbEntity
  8
Default
100
AcDbSpline
210
0.0
220
0.0
230
1.0
 70
    12
 71
     2
 72
     6
 73
     3
 74
     0
 42
0.0000000001
 43
0.0000000001
 40
0.0
 40
0.0
 40
0.0
 40
0.091920914421484
 40
0.091920914421484
 40
0.091920914421484
 10
-5.96962403693372
 20
57.25974555895742
 30
0.0
 41
1.0
 10
-5.92696232619791
 20
57.2426475455029
 30
0.0
 41
0.9999999999962704
 10
-5.884300522068312
 20
57.22554976507796
 30
0.0
 41
1.0
  0
SPLINE
  5
72
330
1F
100
AcDbEntity
  8
Default
100
AcDbSpline
210
0.0
220
0.0
230
1.0
 70
     8
 71
     3
 72
    11
 73
     7
 74
     0
 42
0.0000000001
 43
0.0000000001
 40
0.0
 40
0.0
 40
0.0
 40
0.0
 40
0.1607882281338878
 40
0.323211429028675
 40
0.6422059554128811
 40
1.268282968510138
 40
1.268282968510138
 40
1.268282968510138
 40
1.268282968510138
 10
-9.934201819440853
 20
46.09475211133491
 30
0.0
 10
-9.98667872718984
 20
46.08386257266517
 30
0.0
 10
-10.09267540861839
 20
46.06439034684502
 30
0.0
 10
-10.30492375671787
 20
46.03605648460074
 30
0.0
 10
-10.67395872834531
 20
46.01479179170973
 30
0.0
 10
-10.98918733867749
 20
46.04602165908723
 30
0.0
 10
-11.19341775005726
 20
46.08905047086406
 30
0.0
  0
SPLINE
  5
73
330
1F
100
AcDbEntity
  8
Default
100
AcDbSpline
210
0.0
220
0.0
230
1.0
 70
    12
 71
     2
 72
     6
 73
     3
 74
     0
 42
0.0000000001
 43
0.0000000001
 40
0.0
 40
0.0
 40
0.0
 40
1.914609794935366
 40
1.914609794935366
 40
1.914609794935366
 10
-9.709755890054776
 20
40.43731706583172
 30
0.0
 41
1.0
 10
-9.190661074656413
 20
41.24166353316897
 30
0.0
 41
0.999999999999819
 10
-8.67156722697549
 20
42.04601062490265
 30
0.0
 41
1.0
  0
SPLINE
  5
74
330
1F
100
AcDbEntity
  8
Default
100
AcDbSpline
210
0.0
220
0.0
230
1.0
 70
    12
 71
     2
 72
     6
 73
     3
 74
     0
 42
0.0000000001
 43
0.0000000001
 40
0.0
 40
0.0
 40
0.0
 40
0.1154254289414232
 40
0.1154254289414232
 40
0.1154254289414232
 10
-6.749446638760551
 20
56.76636849898213
 30
0.0
 41
1.0
 10
-6.802625326592587
 20
56.78879347103202
 30
0.0
 41
0.9999786542317914
 10
-6.855506437756124
 20
56.81191143575832
 30
0.0
 41
1.0
  0
SPLINE
  5
75
330
1F
100
AcDbEntity
  8
Default
100
AcDbSpline
210
0.0
220
0.0
230
1.0
 70
    12
 71
     2
 72
     6
 73
     3
 74
     0
 42
0.0000000001
 43
0.0000000001
 40
0.0
 40
0.0
 40
0.0
 40
1.69890250530401
 40
1.69890250530401
 40
1.69890250530401
 10
-8.158362500745834
 20
41.45808573678629
 30
0.0
 41
1.0
 10
-8.618966206830242
 20
40.7443549355385
 30
0.0
 41
0.9999999999136252
 10
-9.079588674492602
 20
40.03063624235685
 30
0.0
 41
1.0
  0
SPLINE
  5
76
330
1F
100
AcDbEntity
  8
Default
100
AcDbSpline
210
0.0
220
0.0
230
1.0
 70
     8
 71
     3
 72
    42
 73
    38
 74
     0
 42
0.0000000001
 43
0.0000000001
 40
0.0
 40
0.0
 40
0.0
 40
0.0
 40
1.518225396524252
 40
2.828315045719364
 40
4.931394379171954
 40
5.855456321023096
 40
6.655522770934367
 40
7.368099885743641
 40
8.01462186528339
 40
8.584012925472644
 40
9.145531613735562
 40
10.27357229641922
 40
10.56056322999011
 40
10.89537219037217
 40
11.39656536917387
 40
11.87592282476991
 40
12.78339890598619
 40
13.85622612491522
 40
15.59282609894377
 40
17.35696062352953
 40
19.00492972686498
 40
19.75658226303172
 40
20.30563344622991
 40
21.16974595724957
 40
21.98388451712601
 40
22.76211858591257
 40
23.50408582835124
 40
24.26779127345278
 40
25.03863939938404
 40
25.80936224881703
 40
26.63820306804136
 40
27.08185354690114
 40
27.58358577941639
 40
28.7476668716159
 40
30.27607933262205
 40
31.09129241965158
 40
31.81848238101573
 40
31.81848238101573
 40
31.81848238101573
 40
31.81848238101573
 10
0.0
 20
39.87577093970899
 30
0.0
 10
0.5060682096653277
 20
39.87543605931956
 30
0.0
 10
1.448873929213629
 20
39.8851506378716
 30
0.0
 10
3.091697380075587
 20
39.94498096503899
 30
0.0
 10
4.532246847329384
 20
40.08683557867118
 30
0.0
 10
5.785209404318089
 20
40.33311180069329
 30
0.0
 10
6.567776486946429
 20
40.55315763413134
 30
0.0
 10
7.235549090305216
 20
40.82592679938264
 30
0.0
 10
7.793288724245869
 20
41.1488349126067
 30
0.0
 10
8.253599064794855
 20
41.52530795337866
 30
0.0
 10
8.74992287081384
 20
42.09527362755168
 30
0.0
 10
9.045339749969882
 20
42.69460054247807
 30
0.0
 10
9.197071987671826
 20
43.25780877619535
 30
0.0
 10
9.265522180631853
 20
43.62620683155841
 30
0.0
 10
9.333062364779423
 20
44.05926912228864
 30
0.0
 10
9.406043491006917
 20
44.68459723284873
 30
0.0
 10
9.459405687053874
 20
45.50305001107343
 30
0.0
 10
9.47440294038446
 20
46.74223127780783
 30
0.0
 10
9.442849389745827
 20
48.26654273963894
 30
0.0
 10
9.35391119442251
 20
49.98073782408739
 30
0.0
 10
9.235624691045608
 20
51.36380806400437
 30
0.0
 10
9.120675785309233
 20
52.34005919386533
 30
0.0
 10
9.014535235860551
 20
53.05394036471023
 30
0.0
 10
8.846824085826437
 20
53.77837816295447
 30
0.0
 10
8.574438762612758
 20
54.55197329040447
 30
0.0
 10
8.220158321203183
 20
55.24709215768757
 30
0.0
 10
7.779241497321608
 20
55.87015515260008
 30
0.0
 10
7.24721511676792
 20
56.41499966173642
 30
0.0
 10
6.624926202631571
 20
56.87014389881725
 30
0.0
 10
5.919851001712621
 20
57.23168343172865
 30
0.0
 10
5.273722879787744
 20
57.45237271797008
 30
0.0
 10
4.697658850125881
 20
57.58695691216967
 30
0.0
 10
4.005232226038972
 20
57.71110476511801
 30
0.0
 10
2.946873568533558
 20
57.83194734278804
 30
0.0
 10
1.779851589076811
 20
57.90748947592328
 30
0.0
 10
0.7569409390025168
 20
57.94597148330563
 30
0.0
 10
0.242846661423588
 20
57.95519995463843
 30
0.0
 10
0.0
 20
57.95542525588795
 30
0.0
  0
SPLINE
  5
77
330
1F
100
AcDbEntity
  8
Default
100
AcDbSpline
210
0.0
220
0.0
230
1.0
 70
     8
 71
     3
 72
    42
 73
    38
 74
     0
 42
0.0000000001
 43
0.0000000001
 40
-31.81848238101573
 40
-31.81848238101573
 40
-31.81848238101573
 40
-31.81848238101573
 40
-31.09129241965158
 40
-30.27607933262205
 40
-28.7476668716159
 40
-27.58358577941639
 40
-27.08185354690114
 40
-26.63820306804136
 40
-25.80936224881703
 40
-25.03863939938404
 40
-24.26779127345278
 40
-23.50408582835124
 40
-22.76211858591257
 40
-21.98388451712601
 40
-21.16974595724957
 40
-20.30563344622991
 40
-19.75658226303172
 40
-19.00492972686498
 40
-17.35696062352953
 40
-15.59282609894377
 40
-13.85622612491522
 40
-12.78339890598619
 40
-11.87592282476991
 40
-11.39656536917387
 40
-10.89537219037217
 40
-10.56056322999011
 40
-10.27357229641922
 40
-9.145531613735562
 40
-8.584012925472644
 40
-8.01462186528339
 40
-7.368099885743641
 40
-6.655522770934367
 40
-5.855456321023096
 40
-4.931394379171954
 40
-2.828315045719364
 40
-1.518225396524252
 40
0.0
 40
0.0
 40
0.0
 40
0.0
 10
0.0
 20
57.95542525588795
 30
0.0
 10
-0.242846661423588
 20
57.95519995463843
 30
0.0
 10
-0.7569409390025168
 20
57.94597148330563
 30
0.0
 10
-1.779851589076811
 20
57.90748947592328
 30
0.0
 10
-2.946873568533558
 20
57.83194734278804
 30
0.0
 10
-4.005232226038972
 20
57.71110476511801
 30
0.0
 10
-4.697658850125881
 20
57.58695691216967
 30
0.0
 10
-5.273722879787744
 20
57.45237271797008
 30
0.0
 10
-5.919851001712621
 20
57.23168343172865
 30
0.0
 10
-6.624926202631571
 20
56.87014389881725
 30
0.0
 10
-7.24721511676792
 20
56.41499966173642
 30
0.0
 10
-7.779241497321608
 20
55.87015515260008
 30
0.0
 10
-8.220158321203183
 20
55.24709215768757
 30
0.0
 10
-8.574438762612758
 20
54.55197329040447
 30
0.0
 10
-8.846824085826437
 20
53.77837816295447
 30
0.0
 10
-9.014535235860551
 20
53.05394036471023
 30
0.0
 10
-9.120675785309233
 20
52.34005919386533
 30
0.0
 10
-9.235624691045608
 20
51.36380806400437
 30
0.0
 10
-9.35391119442251
 20
49.98073782408739
 30
0.0
 10
-9.442849389745827
 20
48.26654273963894
 30
0.0
 10
-9.47440294038446
 20
46.74223127780783
 30
0.0
 10
-9.459405687053874
 20
45.50305001107343
 30
0.0
 10
-9.406043491006917
 20
44.68459723284873
 30
0.0
 10
-9.333062364779423
 20
44.05926912228864
 30
0.0
 10
-9.265522180631853
 20
43.62620683155841
 30
0.0
 10
-9.197071987671826
 20
43.25780877619535
 30
0.0
 10
-9.045339749969882
 20
42.69460054247807
 30
0.0
 10
-8.74992287081384
 20
42.09527362755168
 30
0.0
 10
-8.253599064794855
 20
41.52530795337866
 30
0.0
 10
-7.793288724245869
 20
41.1488349126067
 30
0.0
 10
-7.235549090305216
 20
40.82592679938264
 30
0.0
 10
-6.567776486946429
 20
40.55315763413134
 30
0.0
 10
-5.785209404318089
 20
40.33311180069329
 30
0.0
 10
-4.532246847329384
 20
40.08683557867118
 30
0.0
 10
-3.091697380075587
 20
39.94498096503899
 30
0.0
 10
-1.448873929213629
 20
39.8851506378716
 30
0.0
 10
-0.5060682096653277
 20
39.87543605931956
 30
0.0
 10
0.0
 20
39.87577093970899
 30
0.0
  0
SPLINE
  5
78
330
1F
100
AcDbEntity
  8
Default
100
AcDbSpline
210
0.0
220
0.0
230
1.0
 70
    12
 71
     2
 72
     6
 73
     3
 74
     0
 42
0.0000000001
 43
0.0000000001
 40
0.0
 40
0.0
 40
0.0
 40
0.0043371591519303
 40
0.0043371591519303
 40
0.0043371591519303
 10
9.766208313340561
 20
40.26642980608902
 30
0.0
 41
1.0
 10
9.766065714248214
 20
40.26859371776318
 30
0.0
 41
0.9999823206938716
 10
9.765897391225938
 20
40.27075578057329
 30
0.0
 41
1.0
  0
SPLINE
  5
79
330
1F
100
AcDbEntity
  8
Default
100
AcDbSpline
210
0.0
220
0.0
230
1.0
 70
    12
 71
     2
 72
     6
 73
     3
 74
     0
 42
0.0000000001
 43
0.0000000001
 40
0.0
 40
0.0
 40
0.0
 40
0.1858148263794679
 40
0.1858148263794679
 40
0.1858148263794679
 10
9.680763964563761
 20
40.00452529191629
 30
0.0
 41
1.0
 10
9.741384387985244
 20
40.07749374096176
 30
0.0
 41
0.9693432921039179
 10
9.759926153725754
 20
40.17052832171066
 30
0.0
 41
1.0
  0
SPLINE
  5
7A
330
1F
100
AcDbEntity
  8
Default
100
AcDbSpline
210
0.0
220
0.0
230
1.0
 70
    12
 71
     2
 72
     6
 73
     3
 74
     0
 42
0.0000000001
 43
0.0000000001
 40
0.0
 40
0.0
 40
0.0
 40
0.1106823209337141
 40
0.1106823209337141
 40
0.1106823209337141
 10
9.186961173925965
 20
39.92345215934061
 30
0.0
 41
1.0
 10
9.233873137144746
 20
39.8932835207014
 30
0.0
 41
0.9883664027738622
 10
9.28768481275382
 20
39.87861441648447
 30
0.0
 41
1.0
  0
SPLINE
  5
7B
330
1F
100
AcDbEntity
  8
Default
100
AcDbSpline
210
0.0
220
0.0
230
1.0
 70
    24
 71
     2
 72
     6
 73
     3
 74
     0
 42
0.0000000001
 43
0.0000000001
 40
0.0
 40
0.0
 40
0.0
 40
0.0033976215097731
 40
0.0033976215097731
 40
0.0033976215097731
 10
1.375000000468503
 20
57.92488488447351
 30
0.0
 10
1.375000000468503
 20
57.92318607371863
 30
0.0
 10
1.375000000468503
 20
57.92148726296374
 30
0.0
  0
SPLINE
  5
7C
330
1F
100
AcDbEntity
  8
Default
100
AcDbSpline
210
0.0
220
0.0
230
1.0
 70
     8
 71
     3
 72
    13
 73
     9
 74
     0
 42
0.0000000001
 43
0.0000000001
 40
-2.227932314151448
 40
-2.227932314151448
 40
-2.227932314151448
 40
-2.227932314151448
 40
-1.453762137782131
 40
-0.8568000418749979
 40
-0.5880349582740244
 40
-0.3515879497813756
 40
-0.1527612807301966
 40
0.0
 40
0.0
 40
0.0
 40
0.0
 10
-13.48957588346165
 20
49.70886553559473
 30
0.0
 10
-13.51380535616296
 20
49.45197671285311
 30
0.0
 10
-13.55098807796224
 20
48.99602313068844
 30
0.0
 10
-13.52836344578508
 20
48.4483045243291
 30
0.0
 10
-13.46283696781499
 20
48.08621723193297
 30
0.0
 10
-13.39420885371073
 20
47.86128863426931
 30
0.0
 10
-13.30868140728112
 20
47.68404580975903
 30
0.0
 10
-13.23415606858271
 20
47.59204224250406
 30
0.0
 10
-13.18986598243717
 20
47.55821982101966
 30
0.0
  0
SPLINE
  5
7D
330
1F
100
AcDbEntity
  8
Default
100
AcDbSpline
210
0.0
220
0.0
230
1.0
 70
    12
 71
     2
 72
     6
 73
     3
 74
     0
 42
0.0000000001
 43
0.0000000001
 40
-2.412764561201183
 40
-2.412764561201183
 40
-2.412764561201183
 40
0.0
 40
0.0
 40
0.0
 10
-13.18986598243717
 20
47.55821982101966
 30
0.0
 41
1.0
 10
-12.22543873084107
 20
46.83347381008223
 30
0.0
 41
0.9999904679061917
 10
-11.25471947392291
 20
46.11717720375275
 30
0.0
 41
1.0
  0
SPLINE
  5
7E
330
1F
100
AcDbEntity
  8
Default
100
AcDbSpline
210
0.0
220
0.0
230
1.0
 70
    24
 71
     2
 72
     6
 73
     3
 74
     0
 42
0.0000000001
 43
0.0000000001
 40
0.0
 40
0.0
 40
0.0
 40
0.0675409205343183
 40
0.0675409205343183
 40
0.0675409205343183
 10
-9.74829285620755
 20
40.37758475747984
 30
0.0
 10
-9.729981031789361
 20
40.40595941295146
 30
0.0
 10
-9.71166920737117
 20
40.43433406842308
 30
0.0
  0
SPLINE
  5
7F
330
1F
100
AcDbEntity
  8
Default
100
AcDbSpline
210
0.0
220
0.0
230
1.0
 70
     8
 71
     3
 72
    11
 73
     7
 74
     0
 42
0.0000000001
 43
0.0000000001
 40
0.0
 40
0.0
 40
0.0
 40
0.0
 40
0.3197744795863026
 40
0.6240233113606278
 40
1.234270588508635
 40
2.345962402636173
 40
2.345962402636173
 40
2.345962402636173
 40
2.345962402636173
 10
-1.108722873995072
 20
57.9323887856122
 30
0.0
 10
-1.215283076098636
 20
57.92974748217043
 30
0.0
 10
-1.423202018473139
 20
57.92374482179265
 30
0.0
 10
-1.834356122248359
 20
57.9086043864424
 30
0.0
 10
-2.508941132205537
 20
57.87523941578631
 30
0.0
 10
-3.081364321804035
 20
57.83140294856541
 30
0.0
 10
-3.45000841523485
 20
57.79362015421528
 30
0.0
  0
SPLINE
  5
80
330
1F
100
AcDbEntity
  8
Default
100
AcDbSpline
210
0.0
220
0.0
230
1.0
 70
    12
 71
     2
 72
     6
 73
     3
 74
     0
 42
0.0000000001
 43
0.0000000001
 40
0.0
 40
0.0
 40
0.0
 40
0.1109958261616712
 40
0.1109958261616712
 40
0.1109958261616712
 10
9.762174853737923
 20
40.30153731435088
 30
0.0
 41
1.0
 10
9.753124628369836
 20
40.35674979902971
 30
0.0
 41
0.9879419355571151
 10
9.727617906568604
 20
40.40654670843759
 30
0.0
 41
1.0
  0
SPLINE
  5
81
330
1F
100
AcDbEntity
  8
Default
100
AcDbSpline
210
0.0
220
0.0
230
1.0
 70
    12
 71
     2
 72
     6
 73
     3
 74
     0
 42
0.0000000001
 43
0.0000000001
 40
0.0
 40
0.0
 40
0.0
 40
0.0088132216251207
 40
0.0088132216251207
 40
0.0088132216251207
 10
9.764035925898977
 20
40.19576973000937
 30
0.0
 41
1.0
 10
9.764593435937604
 20
40.20014114198882
 30
0.0
 41
0.9999288897077924
 10
9.7650465330114
 20
40.20452460673476
 30
0.0
 41
1.0
  0
SPLINE
  5
82
330
1F
100
AcDbEntity
  8
Default
100
AcDbSpline
210
0.0
220
0.0
230
1.0
 70
    12
 71
     2
 72
     6
 73
     3
 74
     0
 42
0.0000000001
 43
0.0000000001
 40
0.0
 40
0.0
 40
0.0
 40
0.1869642008515543
 40
0.1869642008515543
 40
0.1869642008515543
 10
9.457792275126657
 20
39.87223935693971
 30
0.0
 41
1.0
 10
9.55148591447057
 20
39.89020565680229
 30
0.0
 41
0.9701053716359109
 10
9.625683692560198
 20
39.95017211168183
 30
0.0
 41
1.0
  0
SPLINE
  5
83
330
1F
100
AcDbEntity
  8
Default
100
AcDbSpline
210
0.0
220
0.0
230
1.0
 70
    12
 71
     2
 72
     6
 73
     3
 74
     0
 42
0.0000000001
 43
0.0000000001
 40
0.0
 40
0.0
 40
0.0
 40
0.031775865958752
 40
0.031775865958752
 40
0.031775865958752
 10
9.156334185641393
 20
39.94553485799731
 30
0.0
 41
1.0
 10
9.168723422491148
 20
39.9355717858801
 30
0.0
 41
0.9990220049606279
 10
9.18194440457993
 20
39.92674219764847
 30
0.0
 41
1.0
  0
SPLINE
  5
84
330
1F
100
AcDbEntity
  8
Default
100
AcDbSpline
210
0.0
220
0.0
230
1.0
 70
     8
 71
     5
 72
    12
 73
     6
 74
     0
 42
0.0000000001
 43
0.0000000001
 40
0.0
 40
0.0
 40
0.0
 40
0.0
 40
0.0
 40
0.0
 40
1.0
 40
1.0
 40
1.0
 40
1.0
 40
1.0
 40
1.0
 10
-9.692833126195701
 20
47.54091209613326
 30
0.0
 10
-9.695164834368704
 20
47.49366033689752
 30
0.0
 10
-9.697472564343848
 20
47.44640739442203
 30
0.0
 10
-9.672092182914072
 20
47.39959685592282
 30
0.0
 10
-9.67358255546403
 20
47.35231101978975
 30
0.0
 10
-9.675149666509498
 20
47.30502772700206
 30
0.0
  0
SPLINE
  5
85
330
1F
100
AcDbEntity
  8
Default
100
AcDbSpline
210
0.0
220
0.0
230
1.0
 70
     8
 71
     5
 72
    12
 73
     6
 74
     0
 42
0.0000000001
 43
0.0000000001
 40
0.0
 40
0.0
 40
0.0
 40
0.0
 40
0.0
 40
0.0
 40
1.0
 40
1.0
 40
1.0
 40
1.0
 40
1.0
 40
1.0
 10
-11.25471947392291
 20
46.11717720375275
 30
0.0
 10
-11.24386535464991
 20
46.10916791708769
 30
0.0
 10
-11.23301074659282
 20
46.10115929281879
 30
0.0
 10
-11.21980038083349
 20
46.09469009929488
 30
0.0
 10
-11.20661724931348
 20
46.09183144146098
 30
0.0
 10
-11.19341775005726
 20
46.08905047086406
 30
0.0
  0
SPLINE
  5
86
330
1F
100
AcDbEntity
  8
Default
100
AcDbSpline
210
0.0
220
0.0
230
1.0
 70
     8
 71
     3
 72
    12
 73
     8
 74
     0
 42
0.0000000001
 43
0.0000000001
 40
0.0
 40
0.0
 40
0.0
 40
0.0
 40
0.3867932544119657
 40
0.8177802007218444
 40
1.809413212430772
 40
3.118809823376807
 40
4.503853331862265
 40
4.503853331862265
 40
4.503853331862265
 40
4.503853331862265
 10
-8.703343392352952
 20
54.48800478135528
 30
0.0
 10
-8.749518216068967
 20
54.36759636866938
 30
0.0
 10
-8.837840102809775
 20
54.10964295791967
 30
0.0
 10
-9.002836511594868
 20
53.52923019023102
 30
0.0
 10
-9.191476459390143
 20
52.63772128175506
 30
0.0
 10
-9.376341792089255
 20
51.42275266796072
 30
0.0
 10
-9.48170200200099
 20
50.53067483807304
 30
0.0
 10
-9.523801668936335
 20
50.07089204456871
 30
0.0
  0
SPLINE
  5
87
330
1F
100
AcDbEntity
  8
Default
100
AcDbSpline
210
0.0
220
0.0
230
1.0
 70
     8
 71
     3
 72
    41
 73
    37
 74
     0
 42
0.0000000001
 43
0.0000000001
 40
0.0
 40
0.0
 40
0.0
 40
0.0
 40
0.7334644838335925
 40
1.550252083247214
 40
2.4381168886236
 40
3.083384902836626
 40
3.613090616294691
 40
4.225214604885188
 40
5.090114252596218
 40
5.906282574875513
 40
6.643222241656042
 40
8.124871278728936
 40
8.457049215917213
 40
8.815481065105082
 40
9.573112226322916
 40
10.36178653030276
 40
11.20293490683236
 40
12.39820439341131
 40
14.10003830581897
 40
15.89801642521786
 40
17.60113343959123
 40
18.60608786685293
 40
19.49717071669205
 40
20.42610485946087
 40
21.03628423513447
 40
21.54402243119869
 40
22.09404790741185
 40
22.6057413226409
 40
23.1483243741332
 40
23.77378903386136
 40
24.10647369669179
 40
24.45804832386907
 40
25.26904521069529
 40
26.12856398713881
 40
28.18785996747044
 40
30.9923083681449
 40
30.9923083681449
 40
30.9923083681449
 40
30.9923083681449
 10
0.0
 20
57.81318670403554
 30
0.0
 10
0.2444914160342648
 20
57.81339991896773
 30
0.0
 10
0.7612357222969219
 20
57.80602898505963
 30
0.0
 10
1.573328394619038
 20
57.77312017196446
 30
0.0
 10
2.355377194099949
 20
57.72854026010366
 30
0.0
 10
3.040914240681744
 20
57.6742638407203
 30
0.0
 10
3.633540291466012
 20
57.61354249028497
 30
0.0
 10
4.296028543421652
 20
57.52035571132552
 30
0.0
 10
5.047205387409328
 20
57.37455418232167
 30
0.0
 10
5.813802867649209
 20
57.11774891801868
 30
0.0
 10
6.716698227281288
 20
56.65597433127107
 30
0.0
 10
7.368945264438071
 20
56.09222015156415
 30
0.0
 10
7.808023638427281
 20
55.51575664727233
 30
0.0
 10
8.073257895796317
 20
55.11207619648208
 30
0.0
 10
8.359141674502379
 20
54.54317911741076
 30
0.0
 10
8.622213982188704
 20
53.79070436533169
 30
0.0
 10
8.823951064463582
 20
52.8692624601873
 30
0.0
 10
8.972145270987376
 20
51.63139662368067
 30
0.0
 10
9.108744632071236
 20
50.07239918587594
 30
0.0
 10
9.19580674501711
 20
48.3398119342295
 30
0.0
 10
9.226182229962408
 20
46.83805940670184
 30
0.0
 10
9.210427037645207
 20
45.63814754404396
 30
0.0
 10
9.147106213604703
 20
44.69824271517559
 30
0.0
 10
9.042207445398962
 20
43.89454040195682
 30
0.0
 10
8.905284722626302
 20
43.22518730239887
 30
0.0
 10
8.69999670165481
 20
42.70563054389824
 30
0.0
 10
8.426878512678808
 20
42.25744263355653
 30
0.0
 10
8.072491248171488
 20
41.85409853078718
 30
0.0
 10
7.633994366970261
 20
41.50288684856759
 30
0.0
 10
7.198465745306734
 20
41.2539525950988
 30
0.0
 10
6.798249061114271
 20
41.07898074037975
 30
0.0
 10
6.330651855211083
 20
40.90581849777796
 30
0.0
 10
5.680117982731718
 20
40.72644010687221
 30
0.0
 10
4.457688445722335
 20
40.49478355901047
 30
0.0
 10
2.556872226803735
 20
40.307900894891
 30
0.0
 10
0.9346790120374322
 20
40.28864791756538
 30
0.0
 10
0.0
 20
40.2890320936727
 30
0.0
  0
SPLINE
  5
88
330
1F
100
AcDbEntity
  8
Default
100
AcDbSpline
210
0.0
220
0.0
230
1.0
 70
     8
 71
     3
 72
    41
 73
    37
 74
     0
 42
0.0000000001
 43
0.0000000001
 40
-30.9923083681449
 40
-30.9923083681449
 40
-30.9923083681449
 40
-30.9923083681449
 40
-28.18785996747044
 40
-26.12856398713881
 40
-25.26904521069529
 40
-24.45804832386907
 40
-24.10647369669179
 40
-23.77378903386136
 40
-23.1483243741332
 40
-22.6057413226409
 40
-22.09404790741185
 40
-21.54402243119869
 40
-21.03628423513447
 40
-20.42610485946087
 40
-19.49717071669205
 40
-18.60608786685293
 40
-17.60113343959123
 40
-15.89801642521786
 40
-14.10003830581897
 40
-12.39820439341131
 40
-11.20293490683236
 40
-10.36178653030276
 40
-9.573112226322916
 40
-8.815481065105082
 40
-8.457049215917213
 40
-8.124871278728936
 40
-6.643222241656042
 40
-5.906282574875513
 40
-5.090114252596218
 40
-4.225214604885188
 40
-3.613090616294691
 40
-3.083384902836626
 40
-2.4381168886236
 40
-1.550252083247214
 40
-0.7334644838335925
 40
0.0
 40
0.0
 40
0.0
 40
0.0
 10
0.0
 20
40.2890320936727
 30
0.0
 10
-0.9346790120374322
 20
40.28864791756538
 30
0.0
 10
-2.556872226803735
 20
40.307900894891
 30
0.0
 10
-4.457688445722335
 20
40.49478355901047
 30
0.0
 10
-5.680117982731718
 20
40.72644010687221
 30
0.0
 10
-6.330651855211083
 20
40.90581849777796
 30
0.0
 10
-6.798249061114271
 20
41.07898074037975
 30
0.0
 10
-7.198465745306734
 20
41.2539525950988
 30
0.0
 10
-7.633994366970261
 20
41.50288684856759
 30
0.0
 10
-8.072491248171488
 20
41.85409853078718
 30
0.0
 10
-8.426878512678808
 20
42.25744263355653
 30
0.0
 10
-8.69999670165481
 20
42.70563054389824
 30
0.0
 10
-8.905284722626302
 20
43.22518730239887
 30
0.0
 10
-9.042207445398962
 20
43.89454040195682
 30
0.0
 10
-9.147106213604703
 20
44.69824271517559
 30
0.0
 10
-9.210427037645207
 20
45.63814754404396
 30
0.0
 10
-9.226182229962408
 20
46.83805940670184
 30
0.0
 10
-9.19580674501711
 20
48.3398119342295
 30
0.0
 10
-9.108744632071236
 20
50.07239918587594
 30
0.0
 10
-8.972145270987376
 20
51.63139662368067
 30
0.0
 10
-8.823951064463582
 20
52.8692624601873
 30
0.0
 10
-8.622213982188704
 20
53.79070436533169
 30
0.0
 10
-8.359141674502379
 20
54.54317911741076
 30
0.0
 10
-8.073257895796317
 20
55.11207619648208
 30
0.0
 10
-7.808023638427281
 20
55.51575664727233
 30
0.0
 10
-7.368945264438071
 20
56.09222015156415
 30
0.0
 10
-6.716698227281288
 20
56.65597433127107
 30
0.0
 10
-5.813802867649209
 20
57.11774891801868
 30
0.0
 10
-5.047205387409328
 20
57.37455418232167
 30
0.0
 10
-4.296028543421652
 20
57.52035571132552
 30
0.0
 10
-3.633540291466012
 20
57.61354249028497
 30
0.0
 10
-3.040914240681744
 20
57.6742638407203
 30
0.0
 10
-2.355377194099949
 20
57.72854026010366
 30
0.0
 10
-1.573328394619038
 20
57.77312017196446
 30
0.0
 10
-0.7612357222969219
 20
57.80602898505963
 30
0.0
 10
-0.2444914160342648
 20
57.81339991896773
 30
0.0
 10
0.0
 20
57.81318670403554
 30
0.0
  0
SPLINE
  5
89
330
1F
100
AcDbEntity
  8
Default
100
AcDbSpline
210
0.0
220
0.0
230
1.0
 70
     8
 71
     3
 72
    12
 73
     8
 74
     0
 42
0.0000000001
 43
0.0000000001
 40
0.0
 40
0.0
 40
0.0
 40
0.0
 40
1.067068036872029
 40
2.041496137445806
 40
3.76150622511866
 40
5.175533214283406
 40
6.329134064261641
 40
6.329134064261641
 40
6.329134064261641
 40
6.329134064261641
 10
-0.0013806500260003
 20
61.37160697569551
 30
0.0
 10
-0.3570859511675053
 20
61.37160071579338
 30
0.0
 10
-1.037540562673339
 20
61.36494774592599
 30
0.0
 10
-2.290963172548933
 20
61.32779002944739
 30
0.0
 10
-3.657804503550004
 20
61.23692359774712
 30
0.0
 10
-5.076211642866697
 20
61.05212284843211
 30
0.0
 10
-5.910573768668457
 20
60.85468571525657
 30
0.0
 10
-6.276499944191868
 20
60.73605661332265
 30
0.0
  0
SPLINE
  5
8A
330
1F
100
AcDbEntity
  8
Default
100
AcDbSpline
210
0.0
220
0.0
230
1.0
 70
     8
 71
     3
 72
    18
 73
    14
 74
     0
 42
0.0000000001
 43
0.0000000001
 40
-12.996729394557
 40
-12.996729394557
 40
-12.996729394557
 40
-12.996729394557
 40
-11.70902233993589
 40
-10.52334661769655
 40
-9.419863324281469
 40
-8.33448894304165
 40
-7.506600912544638
 40
-7.06955231228748
 40
-6.619961480435221
 40
-6.014743541742058
 40
-5.293784860928203
 40
-4.562035477800547
 40
0.0
 40
0.0
 40
0.0
 40
0.0
 10
-6.276499944191868
 20
60.73605661332265
 30
0.0
 10
-6.684600397829003
 20
60.60335908967699
 30
0.0
 10
-7.452161913021058
 20
60.2946021675626
 30
0.0
 10
-8.463789013667817
 20
59.65246279564658
 30
0.0
 10
-9.264461029794575
 20
58.8510874179952
 30
0.0
 10
-9.789664316433797
 20
57.98565847941243
 30
0.0
 10
-10.06656619358226
 20
57.25096836253934
 30
0.0
 10
-10.22618003909028
 20
56.70216314757953
 30
0.0
 10
-10.33393203672472
 20
56.21633865423842
 30
0.0
 10
-10.43463573655983
 20
55.63307471076495
 30
0.0
 10
-10.54863864359133
 20
54.95662027537954
 30
0.0
 10
-10.88371674800734
 20
52.97991413531602
 30
0.0
 10
-11.17804842575031
 20
51.24003118490059
 30
0.0
 10
-11.43200115840846
 20
49.74071069461002
 30
0.0
  0
SPLINE
  5
8B
330
1F
100
AcDbEntity
  8
Default
100
AcDbSpline
210
0.0
220
0.0
230
1.0
 70
     8
 71
     3
 72
    12
 73
     8
 74
     0
 42
0.0000000001
 43
0.0000000001
 40
0.0
 40
0.0
 40
0.0
 40
0.0
 40
1.067068036872029
 40
2.041496137445806
 40
3.76150622511866
 40
5.175533214283406
 40
6.329134064261641
 40
6.329134064261641
 40
6.329134064261641
 40
6.329134064261641
 10
0.0013806500260003
 20
61.37160697569551
 30
0.0
 10
0.3570859511675053
 20
61.37160071579338
 30
0.0
 10
1.037540562673339
 20
61.36494774592599
 30
0.0
 10
2.290963172548933
 20
61.32779002944739
 30
0.0
 10
3.657804503550004
 20
61.23692359774712
 30
0.0
 10
5.076211642866697
 20
61.05212284843211
 30
0.0
 10
5.910573768668457
 20
60.85468571525657
 30
0.0
 10
6.276499944191868
 20
60.73605661332265
 30
0.0
  0
SPLINE
  5
8C
330
1F
100
AcDbEntity
  8
Default
100
AcDbSpline
210
0.0
220
0.0
230
1.0
 70
     8
 71
     3
 72
    18
 73
    14
 74
     0
 42
0.0000000001
 43
0.0000000001
 40
-12.996729394557
 40
-12.996729394557
 40
-12.996729394557
 40
-12.996729394557
 40
-11.70902233993589
 40
-10.52334661769655
 40
-9.419863324281469
 40
-8.33448894304165
 40
-7.506600912544638
 40
-7.06955231228748
 40
-6.619961480435221
 40
-6.014743541742058
 40
-5.293784860928203
 40
-4.562035477800547
 40
0.0
 40
0.0
 40
0.0
 40
0.0
 10
6.276499944191868
 20
60.73605661332265
 30
0.0
 10
6.684600397829003
 20
60.60335908967699
 30
0.0
 10
7.452161913021058
 20
60.2946021675626
 30
0.0
 10
8.463789013667817
 20
59.65246279564658
 30
0.0
 10
9.264461029794575
 20
58.8510874179952
 30
0.0
 10
9.789664316433797
 20
57.98565847941243
 30
0.0
 10
10.06656619358226
 20
57.25096836253934
 30
0.0
 10
10.22618003909028
 20
56.70216314757953
 30
0.0
 10
10.33393203672472
 20
56.21633865423842
 30
0.0
 10
10.43463573655983
 20
55.63307471076495
 30
0.0
 10
10.54863864359133
 20
54.95662027537954
 30
0.0
 10
10.88371674800734
 20
52.97991413531602
 30
0.0
 10
11.17804842575031
 20
51.24003118490059
 30
0.0
 10
11.43200115840846
 20
49.74071069461002
 30
0.0
  0
SPLINE
  5
8D
330
1F
100
AcDbEntity
  8
Default
100
AcDbSpline
210
0.0
220
0.0
230
1.0
 70
     8
 71
     3
 72
    17
 73
    13
 74
     0
 42
0.0000000001
 43
0.0000000001
 40
0.0
 40
0.0
 40
0.0
 40
0.0
 40
1.0
 40
2.0
 40
3.0
 40
4.0
 40
5.0
 40
6.0
 40
7.0
 40
8.0
 40
9.0
 40
10.0
 40
10.0
 40
10.0
 40
10.0
 10
13.48955862869296
 20
49.70904842303586
 30
0.0
 10
13.41263691019122
 20
50.5339315805385
 30
0.0
 10
13.25442901214658
 20
52.1826443029543
 30
0.0
 10
13.01329167506779
 20
54.65774566512799
 30
0.0
 10
12.77449391893013
 20
57.1253831478089
 30
0.0
 10
12.4704962273123
 20
59.61475650238503
 30
0.0
 10
11.26992875054809
 20
61.83773002062055
 30
0.0
 10
9.506825226384938
 20
63.61837143241026
 30
0.0
 10
7.342524473424337
 20
64.87408663623746
 30
0.0
 10
4.968538819232301
 20
65.6593646232171
 30
0.0
 10
2.486149495167347
 20
65.90331662116945
 30
0.0
 10
0.8303698854546968
 20
65.92636905852689
 30
0.0
 10
0.0018033671286597
 20
65.92728661845096
 30
0.0
  0
SPLINE
  5
8E
330
1F
100
AcDbEntity
  8
Default
100
AcDbSpline
210
0.0
220
0.0
230
1.0
 70
    12
 71
     2
 72
     6
 73
     3
 74
     0
 42
0.0000000001
 43
0.0000000001
 40
-0.0243282140816022
 40
-0.0243282140816022
 40
-0.0243282140816022
 40
0.0
 40
0.0
 40
0.0
 10
0.0018033671286597
 20
65.92728661845096
 30
0.0
 41
1.0
 10
0.0018034087279338
 20
65.91512251140598
 30
0.0
 41
0.9999999994740266
 10
0.0018026612724888
 20
65.90295840438387
 30
0.0
 41
1.0
  0
SPLINE
  5
8F
330
1F
100
AcDbEntity
  8
Default
100
AcDbSpline
210
0.0
220
0.0
230
1.0
 70
    24
 71
     2
 72
     6
 73
     3
 74
     0
 42
0.0000000001
 43
0.0000000001
 40
0.0
 40
0.0
 40
0.0
 40
0.0033976215097731
 40
0.0033976215097731
 40
0.0033976215097731
 10
-1.375000000468503
 20
57.92488488447351
 30
0.0
 10
-1.375000000468503
 20
57.92318607371863
 30
0.0
 10
-1.375000000468503
 20
57.92148726296374
 30
0.0
  0
SPLINE
  5
90
330
1F
100
AcDbEntity
  8
Default
100
AcDbSpline
210
0.0
220
0.0
230
1.0
 70
     8
 71
     3
 72
    17
 73
    13
 74
     0
 42
0.0000000001
 43
0.0000000001
 40
0.0
 40
0.0
 40
0.0
 40
0.0
 40
1.0
 40
2.0
 40
3.0
 40
4.0
 40
5.0
 40
6.0
 40
7.0
 40
8.0
 40
9.0
 40
10.0
 40
10.0
 40
10.0
 40
10.0
 10
-13.48955862869296
 20
49.70904842303586
 30
0.0
 10
-13.41263691019122
 20
50.5339315805385
 30
0.0
 10
-13.25442901214658
 20
52.1826443029543
 30
0.0
 10
-13.01329167506779
 20
54.65774566512799
 30
0.0
 10
-12.77449391893013
 20
57.1253831478089
 30
0.0
 10
-12.4704962273123
 20
59.61475650238503
 30
0.0
 10
-11.26992875054809
 20
61.83773002062055
 30
0.0
 10
-9.506825226384938
 20
63.61837143241026
 30
0.0
 10
-7.342524473424337
 20
64.87408663623746
 30
0.0
 10
-4.968538819232301
 20
65.6593646232171
 30
0.0
 10
-2.486149495167347
 20
65.90331662116945
 30
0.0
 10
-0.8303698854546968
 20
65.92636905852689
 30
0.0
 10
-0.0018033671286597
 20
65.92728661845096
 30
0.0
  0
SPLINE
  5
91
330
1F
100
AcDbEntity
  8
Default
100
AcDbSpline
210
0.0
220
0.0
230
1.0
 70
    12
 71
     2
 72
     6
 73
     3
 74
     0
 42
0.0000000001
 43
0.0000000001
 40
-0.0243282140816022
 40
-0.0243282140816022
 40
-0.0243282140816022
 40
0.0
 40
0.0
 40
0.0
 10
-0.0018033671286597
 20
65.92728661845096
 30
0.0
 41
1.0
 10
-0.0018034087279338
 20
65.91512251140598
 30
0.0
 41
0.9999999994740266
 10
-0.0018026612724888
 20
65.90295840438387
 30
0.0
 41
1.0
  0
SPLINE
  5
92
330
1F
100
AcDbEntity
  8
Default
100
AcDbSpline
210
0.0
220
0.0
230
1.0
 70
    12
 71
     2
 72
     6
 73
     3
 74
     0
 42
0.0000000001
 43
0.0000000001
 40
0.0
 40
0.0
 40
0.0
 40
0.2107005313025996
 40
0.2107005313025996
 40
0.2107005313025996
 10
-9.748292855710623
 20
40.37758475824456
 30
0.0
 41
1.0
 10
-9.807029363828281
 20
40.28638775428504
 30
0.0
 41
0.9573430636254024
 10
-9.805502287319317
 20
40.17792329487836
 30
0.0
 41
1.0
  0
SPLINE
  5
93
330
1F
100
AcDbEntity
  8
Default
100
AcDbSpline
210
0.0
220
0.0
230
1.0
 70
    12
 71
     2
 72
     8
 73
     5
 74
     0
 42
0.0000000001
 43
0.0000000001
 40
0.0
 40
0.0
 40
0.0
 40
0.1034429179618512
 40
0.1034429179618512
 40
0.1717001579871534
 40
0.1717001579871534
 40
0.1717001579871534
 10
-9.287700784267008
 20
39.8786731515152
 30
0.0
 41
1.0
 10
-9.337908007150546
 20
39.86492176759986
 30
0.0
 41
0.9903774109518533
 10
-9.389961595284156
 20
39.86546005347262
 30
0.0
 41
1.0
 10
-9.424181337030339
 20
39.86580417434274
 30
0.0
 41
0.9959350653995875
 10
-9.457784064834081
 20
39.87228227811595
 30
0.0
 41
1.0
  0
SPLINE
  5
94
330
1F
100
AcDbEntity
  8
Default
100
AcDbSpline
210
0.0
220
0.0
230
1.0
 70
    12
 71
     2
 72
     6
 73
     3
 74
     0
 42
0.0000000001
 43
0.0000000001
 40
0.0
 40
0.0
 40
0.0
 40
0.0059983484682731
 40
0.0059983484682731
 40
0.0059983484682731
 10
-9.18198407733735
 20
39.92680173882191
 30
0.0
 41
1.0
 10
-9.184480025147025
 20
39.92513869818293
 30
0.0
 41
0.9999655201620218
 10
-9.187003247964498
 20
39.9235173387999
 30
0.0
 41
1.0
  0
SPLINE
  5
95
330
1F
100
AcDbEntity
  8
Default
100
AcDbSpline
210
0.0
220
0.0
230
1.0
 70
    12
 71
     2
 72
     6
 73
     3
 74
     0
 42
0.0000000001
 43
0.0000000001
 40
0.0
 40
0.0
 40
0.0
 40
0.0255765099974059
 40
0.0255765099974059
 40
0.0255765099974059
 10
-9.759880894247873
 20
40.17053717823907
 30
0.0
 41
1.0
 10
-9.762382274650124
 20
40.18308364077244
 30
0.0
 41
0.9993989632951448
 10
-9.76400830167213
 20
40.19577326890499
 30
0.0
 41
1.0
  0
SPLINE
  5
96
330
1F
100
AcDbEntity
  8
Default
100
AcDbSpline
210
0.0
220
0.0
230
1.0
 70
    12
 71
     2
 72
     6
 73
     3
 74
     0
 42
0.0000000001
 43
0.0000000001
 40
0.0
 40
0.0
 40
0.0
 40
0.0775072285960067
 40
0.0775072285960067
 40
0.0775072285960067
 10
-9.625664445817069
 20
39.95019579534229
 30
0.0
 41
1.0
 10
-9.655953899202563
 20
39.97458214402651
 30
0.0
 41
0.9948893065873091
 10
-9.680726244671636
 20
40.00455673140484
 30
0.0
 41
1.0
  0
SPLINE
  5
97
330
1F
100
AcDbEntity
  8
Default
100
AcDbSpline
210
0.0
220
0.0
230
1.0
 70
    12
 71
     2
 72
     6
 73
     3
 74
     0
 42
0.0000000001
 43
0.0000000001
 40
0.0
 40
0.0
 40
0.0
 40
0.033195217730056
 40
0.033195217730056
 40
0.033195217730056
 10
-9.765023253011238
 20
40.20452694576824
 30
0.0
 41
1.0
 10
-9.766739020863382
 20
40.22104707754706
 30
0.0
 41
0.9989722826092285
 10
-9.766951719796946
 20
40.23765470749463
 30
0.0
 41
1.0
  0
SPLINE
  5
98
330
1F
100
AcDbEntity
  8
Default
  6
Continuous
100
AcDbSpline
210
0.0
220
0.0
230
1.0
 70
     8
 71
     3
 72
    16
 73
    12
 74
     0
 42
0.0000000001
 43
0.0000000001
 40
0.0
 40
0.0
 40
0.0
 40
0.0
 40
1.0
 40
2.0
 40
3.0
 40
4.0
 40
5.0
 40
6.0
 40
7.0
 40
8.0
 40
9.0
 40
9.0
 40
9.0
 40
9.0
 10
22.98311473296815
 20
27.37442402743002
 30
0.0
 10
22.92335342875839
 20
27.56350576563327
 30
0.0
 10
22.79965696118177
 20
27.94035795773866
 30
0.0
 10
22.59217639215183
 20
28.49810197483325
 30
0.0
 10
22.35101099563093
 20
29.04225301295262
 30
0.0
 10
22.04775610746287
 20
29.55679575489286
 30
0.0
 10
21.63012223361994
 20
29.98828244537156
 30
0.0
 10
21.105625853525
 20
30.28250607531303
 30
0.0
 10
20.52145525322447
 20
30.41868246175704
 30
0.0
 10
19.92394389254522
 20
30.42235282847988
 30
0.0
 10
19.53117615073887
 20
30.36065484664213
 30
0.0
 10
19.33749694138146
 20
30.31826406444373
 30
0.0
  0
SPLINE
  5
99
330
1F
100
AcDbEntity
  8
Default
  6
Continuous
100
AcDbSpline
210
0.0
220
0.0
230
1.0
 70
     8
 71
     3
 72
    16
 73
    12
 74
     0
 42
0.0000000001
 43
0.0000000001
 40
0.0
 40
0.0
 40
0.0
 40
0.0
 40
0.9999843181530425
 40
1.999986351335018
 40
2.999988384516994
 40
3.99999041769897
 40
4.999992450880945
 40
5.99999448406292
 40
6.999996517244895
 40
7.999998550426871
 40
9.0
 40
9.0
 40
9.0
 40
9.0
 10
35.50877976535298
 20
24.41338182982809
 30
0.0
 10
34.99009959105507
 20
24.36486399299449
 30
0.0
 10
33.95309596486356
 20
24.26350594856141
 30
0.0
 10
32.39805942011878
 20
24.10848280583258
 30
0.0
 10
30.84219917107214
 20
23.95600387413576
 30
0.0
 10
29.28908394938253
 20
23.79673654912717
 30
0.0
 10
27.72594427254401
 20
23.66112663784432
 30
0.0
 10
26.16929702110815
 20
23.98205558372785
 30
0.0
 10
24.86899465464785
 20
24.89262481967872
 30
0.0
 10
23.81645952948389
 20
26.05046956948198
 30
0.0
 10
23.22063956042308
 20
26.91019778828631
 30
0.0
 10
22.98311473296815
 20
27.37442402743002
 30
0.0
  0
SPLINE
  5
9A
330
1F
100
AcDbEntity
  8
Default
  6
Continuous
100
AcDbSpline
210
0.0
220
0.0
230
1.0
 70
     8
 71
     3
 72
    13
 73
     9
 74
     0
 42
0.0000000001
 43
0.0000000001
 40
0.0
 40
0.0
 40
0.0
 40
0.0
 40
1.000004818672768
 40
2.000014619859286
 40
3.000024421045805
 40
4.000034222232323
 40
5.00004402341884
 40
6.0
 40
6.0
 40
6.0
 40
6.0
 10
37.76852881342899
 20
22.74456577992291
 30
0.0
 10
37.7305988479016
 20
22.91045105990937
 30
0.0
 10
37.61756615198129
 20
23.23403786031231
 30
0.0
 10
37.33600312910477
 20
23.66428782398874
 30
0.0
 10
36.96167569179178
 20
24.01710210679427
 30
0.0
 10
36.51448791408805
 20
24.27048029934462
 30
0.0
 10
36.02133546172058
 20
24.41654894172081
 30
0.0
 10
35.67834562206644
 20
24.42756773231979
 30
0.0
 10
35.50877976535298
 20
24.41338182982809
 30
0.0
  0
POLYLINE
  5
9B
330
1F
100
AcDbEntity
  8
Default
  6
Continuous
100
AcDb2dPolyline
 66
     1
 10
0.0
 20
0.0
 30
0.0
  0
VERTEX
  5
9C
330
9B
100
AcDbEntity
  8
Default
  6
Continuous
100
AcDbVertex
100
AcDb2dVertex
 10
39.19740965121309
 20
15.49173210786028
 30
0.0
  0
VERTEX
  5
9D
330
9B
100
AcDbEntity
  8
Default
  6
Continuous
100
AcDbVertex
100
AcDb2dVertex
 10
39.08621822657705
 20
16.14223444850819
 30
0.0
  0
VERTEX
  5
9E
330
9B
100
AcDbEntity
  8
Default
  6
Continuous
100
AcDbVertex
100
AcDb2dVertex
 10
38.95320319014871
 20
16.889583904952
 30
0.0
  0
VERTEX
  5
9F
330
9B
100
AcDbEntity
  8
Default
  6
Continuous
100
AcDbVertex
100
AcDb2dVertex
 10
38.81061521851311
 20
17.6599168135321
 30
0.0
  0
VERTEX
  5
A0
330
9B
100
AcDbEntity
  8
Default
  6
Continuous
100
AcDbVertex
100
AcDb2dVertex
 10
38.65779501305093
 20
18.45672511952151
 30
0.0
  0
VERTEX
  5
A1
330
9B
100
AcDbEntity
  8
Default
  6
Continuous
100
AcDbVertex
100
AcDb2dVertex
 10
38.49486269339999
 20
19.27983779865565
 30
0.0
  0
VERTEX
  5
A2
330
9B
100
AcDbEntity
  8
Default
  6
Continuous
100
AcDbVertex
100
AcDb2dVertex
 10
38.32284783126195
 20
20.12539567547586
 30
0.0
  0
VERTEX
  5
A3
330
9B
100
AcDbEntity
  8
Default
  6
Continuous
100
AcDbVertex
100
AcDb2dVertex
 10
38.14210658588235
 20
20.9937687246105
 30
0.0
  0
VERTEX
  5
A4
330
9B
100
AcDbEntity
  8
Default
  6
Continuous
100
AcDbVertex
100
AcDb2dVertex
 10
37.95220005406588
 20
21.88961183936588
 30
0.0
  0
VERTEX
  5
A5
330
9B
100
AcDbEntity
  8
Default
  6
Continuous
100
AcDbVertex
100
AcDb2dVertex
 10
37.76852881342899
 20
22.74456577992291
 30
0.0
  0
SEQEND
  5
A6
330
9B
100
AcDbEntity
  8
Default
  6
Continuous
  0
SPLINE
  5
A7
330
1F
100
AcDbEntity
  8
Default
  6
Continuous
100
AcDbSpline
210
0.0
220
0.0
230
1.0
 70
     8
 71
     3
 72
    11
 73
     7
 74
     0
 42
0.0000000001
 43
0.0000000001
 40
0.0
 40
0.0
 40
0.0
 40
0.0
 40
1.000000462038209
 40
2.000000924076418
 40
3.000001386114628
 40
4.0
 40
4.0
 40
4.0
 40
4.0
 10
38.1785406936836
 20
13.9260069235515
 30
0.0
 10
38.34052250696746
 20
13.97709883839075
 30
0.0
 10
38.64919529975003
 20
14.1299141207096
 30
0.0
 10
39.00933907069
 20
14.50189745764638
 30
0.0
 10
39.21406298560345
 20
14.97839245263668
 30
0.0
 10
39.22454117170201
 20
15.32397830780883
 30
0.0
 10
39.19740965121309
 20
15.49173210786028
 30
0.0
  0
ARC
  5
A8
330
1F
100
AcDbEntity
  8
Default
  6
Continuous
100
AcDbCircle
 10
37.62372201433149
 20
15.68500413491016
 30
0.0
 40
1.844422662115595
100
AcDbArc
 50
278.1577302843831
 51
287.5061916307577
  0
SPLINE
  5
A9
330
1F
100
AcDbEntity
  8
Default
  6
Continuous
100
AcDbSpline
210
0.0
220
0.0
230
1.0
 70
     8
 71
     3
 72
     8
 73
     4
 74
     0
 42
0.0000000001
 43
0.0000000001
 40
0.0
 40
0.0
 40
0.0
 40
0.0
 40
1.0
 40
1.0
 40
1.0
 40
1.0
 10
39.10500290951711
 20
15.46678934729375
 30
0.0
 10
39.25007524494782
 20
14.74382040806656
 30
0.0
 10
38.58034481636167
 20
14.12412397966599
 30
0.0
 10
37.90733961472827
 20
14.04711011540711
 30
0.0
  0
SPLINE
  5
AA
330
1F
100
AcDbEntity
  8
Default
  6
Continuous
100
AcDbSpline
210
0.0
220
0.0
230
1.0
 70
     8
 71
     3
 72
     8
 73
     4
 74
     0
 42
0.0000000001
 43
0.0000000001
 40
0.0
 40
0.0
 40
0.0
 40
0.0
 40
1.0
 40
1.0
 40
1.0
 40
1.0
 10
37.66712178326947
 20
22.72421514155831
 30
0.0
 10
38.15185792285098
 20
20.30615702154952
 30
0.0
 10
38.63334381606074
 20
17.88743584512492
 30
0.0
 10
39.10500290951711
 20
15.46678934729375
 30
0.0
  0
SPLINE
  5
AB
330
1F
100
AcDbEntity
  8
Default
  6
Continuous
100
AcDbSpline
210
0.0
220
0.0
230
1.0
 70
     8
 71
     3
 72
    12
 73
     8
 74
     0
 42
0.0000000001
 43
0.0000000001
 40
0.0
 40
0.0
 40
0.0
 40
0.0
 40
1.0
 40
2.0
 40
3.0
 40
4.0
 40
5.0
 40
5.0
 40
5.0
 40
5.0
 10
35.51990579900408
 20
24.29939093250265
 30
0.0
 10
35.71008223368125
 20
24.31795061802525
 30
0.0
 10
36.10750988905369
 20
24.29626142353911
 30
0.0
 10
36.65259326321868
 20
24.10254262994098
 30
0.0
 10
37.12498719761737
 20
23.7685785017202
 30
0.0
 10
37.48456641516339
 20
23.3142811408537
 30
0.0
 10
37.62950412650753
 20
22.9115157805799
 30
0.0
 10
37.66712178326947
 20
22.72421514155831
 30
0.0
  0
SPLINE
  5
AC
330
1F
100
AcDbEntity
  8
Default
  6
Continuous
100
AcDbSpline
210
0.0
220
0.0
230
1.0
 70
     8
 71
     3
 72
    16
 73
    12
 74
     0
 42
0.0000000001
 43
0.0000000001
 40
-0.0472673743191835
 40
-0.0472673743191835
 40
-0.0472673743191835
 40
-0.0472673743191835
 40
1.0
 40
2.0
 40
3.0
 40
4.0
 40
5.0
 40
6.0
 40
7.0
 40
8.0
 40
9.0
 40
9.0
 40
9.0
 40
9.0
 10
19.31422516858674
 20
30.2932488696078
 30
0.0
 10
19.77391126999527
 20
29.72702467142295
 30
0.0
 10
20.79354283318378
 20
28.73129336346739
 30
0.0
 10
22.20167692204643
 20
27.1444803948336
 30
0.0
 10
23.63865694763979
 20
25.6390661468001
 30
0.0
 10
25.18075133343359
 20
24.19992435127921
 30
0.0
 10
27.19419047607659
 20
23.4781553044512
 30
0.0
 10
29.29645375668554
 20
23.67857299270881
 30
0.0
 10
31.36670862415423
 20
23.87732525469823
 30
0.0
 10
33.4438596966331
 20
24.09465230378668
 30
0.0
 10
34.82758090183029
 20
24.23182560879247
 30
0.0
 10
35.51990579900408
 20
24.29939093250265
 30
0.0
  0
SPLINE
  5
AD
330
1F
100
AcDbEntity
  8
Default
  6
Continuous
100
AcDbSpline
210
0.0
220
0.0
230
1.0
 70
     8
 71
     3
 72
    12
 73
     8
 74
     0
 42
0.0000000001
 43
0.0000000001
 40
0.0
 40
0.0
 40
0.0
 40
0.0
 40
1.0
 40
2.0
 40
3.0
 40
4.0
 40
5.0
 40
5.0
 40
5.0
 40
5.0
 10
38.18226686139664
 20
13.89602565141963
 30
0.0
 10
38.65901689101017
 20
13.9554092226407
 30
0.0
 10
39.61276775056427
 20
14.07306612649633
 30
0.0
 10
41.04404631051744
 20
14.24076737851842
 30
0.0
 10
42.4764960622939
 20
14.40929306956355
 30
0.0
 10
43.91058031416492
 20
14.52198026230483
 30
0.0
 10
44.87984851952578
 20
14.53783322572973
 30
0.0
 10
45.34525823847616
 20
14.40766438504014
 30
0.0
  0
SPLINE
  5
AE
330
1F
100
AcDbEntity
  8
Default
  6
Continuous
100
AcDbSpline
210
0.0
220
0.0
230
1.0
 70
     8
 71
     3
 72
     9
 73
     5
 74
     0
 42
0.0000000001
 43
0.0000000001
 40
0.0
 40
0.0
 40
0.0
 40
0.0
 40
1.0
 40
2.0
 40
2.0
 40
2.0
 40
2.0
 10
26.18415144468742
 20
11.98570676559132
 30
0.0
 10
28.15371581949222
 20
12.46344319815302
 30
0.0
 10
32.14697265929641
 20
13.17066158351706
 30
0.0
 10
36.17255644000102
 20
13.63971843706709
 30
0.0
 10
38.18226686139664
 20
13.89602565141963
 30
0.0
  0
SPLINE
  5
AF
330
1F
100
AcDbEntity
  8
Default
  6
Continuous
100
AcDbSpline
210
0.0
220
0.0
230
1.0
 70
     8
 71
     3
 72
    13
 73
     9
 74
     0
 42
0.0000000001
 43
0.0000000001
 40
-6.0
 40
-6.0
 40
-6.0
 40
-6.0
 40
-5.000000053519237
 40
-4.000000042815389
 40
-3.000000032111542
 40
-2.000000021407695
 40
-1.000000010703847
 40
0.0
 40
0.0
 40
0.0
 40
0.0
 10
45.07402559236348
 20
16.55560671990737
 30
0.0
 10
44.7532639961259
 20
16.6550124320478
 30
0.0
 10
44.0778030166255
 20
16.68084319363271
 30
0.0
 10
43.07480435448156
 20
16.63729084913647
 30
0.0
 10
42.07314020401077
 20
16.54247133264258
 30
0.0
 10
41.07433398397836
 20
16.42844940659982
 30
0.0
 10
40.07556706408789
 20
16.31239289182264
 30
0.0
 10
39.41006639020247
 20
16.23244639767523
 30
0.0
 10
39.07735768790508
 20
16.19206850030143
 30
0.0
  0
SPLINE
  5
B0
330
1F
100
AcDbEntity
  8
Default
  6
Continuous
100
AcDbSpline
210
0.0
220
0.0
230
1.0
 70
     8
 71
     3
 72
    11
 73
     7
 74
     0
 42
0.0000000001
 43
0.0000000001
 40
-1.0
 40
-1.0
 40
-1.0
 40
-1.0
 40
-0.7500046659575906
 40
-0.4999999752147193
 40
-0.2499952866718482
 40
0.0
 40
0.0
 40
0.0
 40
0.0
 10
45.34526616691448
 20
14.40774975265374
 30
0.0
 10
45.36207185027237
 20
14.58871794997971
 30
0.0
 10
45.37564803226996
 20
14.95282664169612
 30
0.0
 10
45.33658041543873
 20
15.4977081281417
 30
0.0
 10
45.23896191967117
 20
16.03519552910794
 30
0.0
 10
45.13529309872564
 20
16.38449798381066
 30
0.0
 10
45.07402559236348
 20
16.55560671990737
 30
0.0
  0
LINE
  5
B1
330
1F
100
AcDbEntity
  8
Default
  6
Continuous
100
AcDbLine
 10
29.19347839605342
 20
12.36808915070026
 30
0.0
 11
45.34526616691448
 21
14.40774975265374
 31
0.0
  0
ARC
  5
B2
330
1F
100
AcDbEntity
  8
Default
  6
Continuous
100
AcDbCircle
 10
12.77050149125415
 20
142.4193522274521
 30
0.0
 40
131.084114973074
100
AcDbArc
 50
276.5041013109689
 51
277.197260088917
  0
ARC
  5
B3
330
1F
100
AcDbEntity
  8
Default
  6
Continuous
100
AcDbCircle
 10
32.26017597339901
 20
13.84206528693518
 30
0.0
 40
4.930197214099278
100
AcDbArc
 50
198.1959379549553
 51
199.7147118507747
  0
LINE
  5
B4
330
1F
100
AcDbEntity
  8
Default
  6
Continuous
100
AcDbLine
 10
28.14405447896439
 20
12.17584931393514
 30
0.0
 11
29.66887059477168
 21
12.41775955029124
 31
0.0
  0
SPLINE
  5
B5
330
1F
100
AcDbEntity
  8
Default
  6
Continuous
100
AcDbSpline
210
0.0
220
0.0
230
1.0
 70
     8
 71
     3
 72
    10
 73
     6
 74
     0
 42
0.0000000001
 43
0.0000000001
 40
0.0
 40
0.0
 40
0.0
 40
0.0
 40
1.0
 40
2.0
 40
3.0
 40
3.0
 40
3.0
 40
3.0
 10
27.32415212094855
 20
10.91614694623934
 30
0.0
 10
27.35603617599651
 20
11.09022363247402
 30
0.0
 10
27.44576119957412
 20
11.43265350126677
 30
0.0
 10
27.67403426862796
 20
11.91816061898674
 30
0.0
 10
27.96535685879803
 20
12.14864741976326
 30
0.0
 10
28.14405447896439
 20
12.17584931393514
 30
0.0
  0
LINE
  5
B6
330
1F
100
AcDbEntity
  8
Default
  6
Continuous
100
AcDbLine
 10
25.36744155442494
 20
0.2596252602552767
 30
0.0
 11
27.32415212094855
 21
10.91614694623934
 31
0.0
  0
SPLINE
  5
B7
330
1F
100
AcDbEntity
  8
Default
  6
Continuous
100
AcDbSpline
210
0.0
220
0.0
230
1.0
 70
     8
 71
     3
 72
     8
 73
     4
 74
     0
 42
0.0000000001
 43
0.0000000001
 40
-1.0
 40
-1.0
 40
-1.0
 40
-1.0
 40
0.0
 40
0.0
 40
0.0
 40
0.0
 10
25.43444372620786
 20
0.1180905998550017
 30
0.0
 10
25.38658841740488
 20
0.1462219375339373
 30
0.0
 10
25.35623136927154
 20
0.2041956358131429
 30
0.0
 10
25.36744155442494
 20
0.2596252602552767
 30
0.0
  0
ARC
  5
B8
330
1F
100
AcDbEntity
  8
Default
  6
Continuous
100
AcDbCircle
 10
25.83932521231912
 20
0.7531246703774599
 30
0.0
 40
0.7531250152
100
AcDbArc
 50
237.4794572367576
 51
281.7114629076574
  0
SPLINE
  5
B9
330
1F
100
AcDbEntity
  8
Default
  6
Continuous
100
AcDbSpline
210
0.0
220
0.0
230
1.0
 70
     8
 71
     3
 72
     8
 73
     4
 74
     0
 42
0.0000000001
 43
0.0000000001
 40
-1.0
 40
-1.0
 40
-1.0
 40
-1.0
 40
0.0
 40
0.0
 40
0.0
 40
0.0
 10
26.10510942743804
 20
0.124177450455484
 30
0.0
 10
26.09589573591796
 20
0.06838208172924
 30
0.0
 10
26.04692590812488
 20
0.0249706925770923
 30
0.0
 10
25.99219693788856
 20
0.0156780458401826
 30
0.0
  0
LINE
  5
BA
330
1F
100
AcDbEntity
  8
Default
  6
Continuous
100
AcDbLine
 10
28.06181999396171
 20
10.78069913643955
 30
0.0
 11
26.10510942743804
 21
0.124177450455484
 31
0.0
  0
SPLINE
  5
BB
330
1F
100
AcDbEntity
  8
Default
  6
Continuous
100
AcDbSpline
210
0.0
220
0.0
230
1.0
 70
     8
 71
     3
 72
     8
 73
     4
 74
     0
 42
0.0000000001
 43
0.0000000001
 40
-1.0
 40
-1.0
 40
-1.0
 40
-1.0
 40
0.0
 40
0.0
 40
0.0
 40
0.0
 10
28.30595546245826
 20
11.44127820262386
 30
0.0
 10
28.16661691334417
 20
11.24752443078232
 30
0.0
 10
28.10792116688305
 20
11.01076723777441
 30
0.0
 10
28.06181999396171
 20
10.78069913643955
 30
0.0
  0
SPLINE
  5
BC
330
1F
100
AcDbEntity
  8
Default
  6
Continuous
100
AcDbSpline
210
0.0
220
0.0
230
1.0
 70
     8
 71
     3
 72
    11
 73
     7
 74
     0
 42
0.0000000001
 43
0.0000000001
 40
-4.0
 40
-4.0
 40
-4.0
 40
-4.0
 40
-2.999998949625213
 40
-1.999997899250425
 40
-0.9999968488756381
 40
0.0
 40
0.0
 40
0.0
 40
0.0
 10
38.4299950597418
 20
12.77802716799412
 30
0.0
 10
37.58567727192226
 20
12.67120426362867
 30
0.0
 10
35.89681822864861
 20
12.45917988950912
 30
0.0
 10
33.36436871044623
 20
12.13506308025249
 30
0.0
 10
30.82923757078601
 20
11.83040346342996
 30
0.0
 10
29.1457573456683
 20
11.57942154628108
 30
0.0
 10
28.30595546245826
 20
11.44127820262386
 30
0.0
  0
SPLINE
  5
BD
330
1F
100
AcDbEntity
  8
Default
  6
Continuous
100
AcDbSpline
210
0.0
220
0.0
230
1.0
 70
     8
 71
     3
 72
     9
 73
     5
 74
     0
 42
0.0000000001
 43
0.0000000001
 40
0.0
 40
0.0
 40
0.0
 40
0.0
 40
1.0
 40
2.0
 40
2.0
 40
2.0
 40
2.0
 10
45.37503945544381
 20
0.1230799256959898
 30
0.0
 10
45.39752740606357
 20
0.1375155600859586
 30
0.0
 10
45.43525968773832
 20
0.1787905551941051
 30
0.0
 10
45.44253072862617
 20
0.2345618171279042
 30
0.0
 10
45.43744143346538
 20
0.2608746657023815
 30
0.0
  0
ARC
  5
BE
330
1F
100
AcDbEntity
  8
Default
  6
Continuous
100
AcDbCircle
 10
44.96243738123343
 20
0.7531250068011275
 30
0.0
 40
0.7531250068
100
AcDbArc
 50
258.2503681483544
 51
303.2198695719546
  0
SPLINE
  5
BF
330
1F
100
AcDbEntity
  8
Default
  6
Continuous
100
AcDbSpline
210
0.0
220
0.0
230
1.0
 70
     8
 71
     3
 72
     9
 73
     5
 74
     0
 42
0.0000000001
 43
0.0000000001
 40
0.0
 40
0.0
 40
0.0
 40
0.0
 40
1.0
 40
2.0
 40
2.0
 40
2.0
 40
2.0
 10
44.70056732774475
 20
0.1211730109943971
 30
0.0
 10
44.70546176609088
 20
0.0948232630986396
 30
0.0
 10
44.73264180067332
 20
0.0455830002763378
 30
0.0
 10
44.78286384561244
 20
0.0209844941094772
 30
0.0
 10
44.8090744237528
 20
0.0157803932449525
 30
0.0
  0
LINE
  5
C0
330
1F
100
AcDbEntity
  8
Default
  6
Continuous
100
AcDbLine
 10
42.34893501025985
 20
12.52515609099032
 30
0.0
 11
44.70056732774475
 21
0.1211730109943971
 31
0.0
  0
SPLINE
  5
C1
330
1F
100
AcDbEntity
  8
Default
  6
Continuous
100
AcDbSpline
210
0.0
220
0.0
230
1.0
 70
     8
 71
     3
 72
     9
 73
     5
 74
     0
 42
0.0000000001
 43
0.0000000001
 40
0.0
 40
0.0
 40
0.0
 40
0.0
 40
1.0
 40
2.0
 40
2.0
 40
2.0
 40
2.0
 10
41.77294568542911
 20
13.15583714568428
 30
0.0
 10
41.93437850157653
 20
13.17196136653153
 30
0.0
 10
42.20677674914208
 20
12.97248170532193
 30
0.0
 10
42.31914630930936
 20
12.67729563364766
 30
0.0
 10
42.34893501025985
 20
12.52515609099032
 30
0.0
  0
LINE
  5
C2
330
1F
100
AcDbEntity
  8
Default
  6
Continuous
100
AcDbLine
 10
38.42755965321575
 20
12.77775192593855
 30
0.0
 11
41.77294568542911
 21
13.15583714568428
 31
0.0
  0
ARC
  5
C3
330
1F
100
AcDbEntity
  8
Default
  6
Continuous
100
AcDbCircle
 10
38.38544640801365
 20
13.15037972224278
 30
0.0
 40
0.375
100
AcDbArc
 50
96.44803212545315
 51
276.4480321254532
  0
LINE
  5
C4
330
1F
100
AcDbEntity
  8
Default
  6
Continuous
100
AcDbLine
 10
41.68871919501072
 20
13.90109273833656
 30
0.0
 11
38.34333316281158
 21
13.52300751854701
 31
0.0
  0
SPLINE
  5
C5
330
1F
100
AcDbEntity
  8
Default
  6
Continuous
100
AcDbSpline
210
0.0
220
0.0
230
1.0
 70
     8
 71
     3
 72
    10
 73
     6
 74
     0
 42
0.0000000001
 43
0.0000000001
 40
-3.0
 40
-3.0
 40
-3.0
 40
-3.0
 40
-2.0
 40
-1.0
 40
0.0
 40
0.0
 40
0.0
 40
0.0
 10
43.08580911593188
 20
12.66485774568879
 30
0.0
 10
43.04313322910548
 20
12.88871775023898
 30
0.0
 10
42.87959962168713
 20
13.32308001168328
 30
0.0
 10
42.38161150522552
 20
13.82275741277852
 30
0.0
 10
41.91583831369894
 20
13.92818782000207
 30
0.0
 10
41.68871919501072
 20
13.90109273833656
 30
0.0
  0
LINE
  5
C6
330
1F
100
AcDbEntity
  8
Default
  6
Continuous
100
AcDbLine
 10
45.43744143346538
 20
0.2608746657023815
 30
0.0
 11
43.08580911593188
 21
12.66485774568879
 31
0.0
  0
ARC
  5
C7
330
1F
100
AcDbEntity
  8
Default
100
AcDbCircle
 10
25.54515448361053
 20
-0.8993157097569977
 30
0.0
 40
1.47998297551889
100
AcDbArc
 50
65.28133723046004
 51
94.63004863583335
  0
ARC
  5
C8
330
1F
100
AcDbEntity
  8
Default
100
AcDbCircle
 10
45.29752304087981
 20
-1.020584938372984
 30
0.0
 40
1.598654297846829
100
AcDbArc
 50
87.12574310835056
 51
114.2567505016077
  0
LINE
  5
C9
330
1F
100
AcDbEntity
  8
Default
  6
Continuous
100
AcDbLine
 10
25.96673267530281
 20
11.95768874481698
 30
0.0
 11
26.18415144468736
 21
11.9857067655914
 31
0.0
  0
ARC
  5
CA
330
1F
100
AcDbEntity
  8
Default
  6
Continuous
100
AcDbCircle
 10
25.93030187791629
 20
12.24035073018251
 30
0.0
 40
0.2850000017
100
AcDbArc
 50
213.5493713091551
 51
277.3440616506547
  0
SPLINE
  5
CB
330
1F
100
AcDbEntity
  8
Default
  6
Continuous
100
AcDbSpline
210
0.0
220
0.0
230
1.0
 70
     8
 71
     3
 72
    28
 73
    24
 74
     0
 42
0.0000000001
 43
0.0000000001
 40
0.0
 40
0.0
 40
0.0
 40
0.0
 40
1.0
 40
2.0
 40
3.0
 40
4.0
 40
5.0
 40
6.0
 40
7.0
 40
8.0
 40
9.0
 40
10.0
 40
11.0
 40
12.0
 40
13.0
 40
14.0
 40
15.0
 40
16.0
 40
17.0
 40
18.0
 40
19.0
 40
20.0
 40
21.0
 40
21.0
 40
21.0
 40
21.0
 10
19.31397190604054
 20
30.29077735405246
 30
0.0
 10
19.32320340054267
 20
29.98325742976282
 30
0.0
 10
19.48715069486471
 20
29.3887160883751
 30
0.0
 10
19.75605309332082
 20
28.51036780841522
 30
0.0
 10
20.04727888826415
 20
27.6373436648337
 30
0.0
 10
20.34446550989827
 20
26.76687997153731
 30
0.0
 10
20.64609923628686
 20
25.89780342001327
 30
0.0
 10
20.94993768269029
 20
25.0295360628371
 30
0.0
 10
21.25512304139329
 20
24.16173079731405
 30
0.0
 10
21.56106915088475
 20
23.29419609760916
 30
0.0
 10
21.86730953179813
 20
22.42676488420504
 30
0.0
 10
22.17333103364129
 20
21.55925638351053
 30
0.0
 10
22.47873856772193
 20
20.69153158892428
 30
0.0
 10
22.78373010182221
 20
19.82366007438613
 30
0.0
 10
23.08851306466445
 20
18.95571596083841
 30
0.0
 10
23.39301073005527
 20
18.08767148294737
 30
0.0
 10
23.697132747963
 20
17.21949515556423
 30
0.0
 10
24.00050165022793
 20
16.3510551025591
 30
0.0
 10
24.30361872498372
 20
15.48252799742966
 30
0.0
 10
24.60871649854238
 20
14.61469188714377
 30
0.0
 10
24.92162930189932
 20
13.74962386947435
 30
0.0
 10
25.25359163390578
 20
12.89159237712498
 30
0.0
 10
25.52522082767376
 20
12.34001120641934
 30
0.0
 10
25.69278005131997
 20
12.08284395934596
 30
0.0
  0
SPLINE
  5
CC
330
1F
100
AcDbEntity
  8
Default
  6
Continuous
100
AcDbSpline
210
0.0
220
0.0
230
1.0
 70
     8
 71
     3
 72
    14
 73
    10
 74
     0
 42
0.0000000001
 43
0.0000000001
 40
-7.0
 40
-7.0
 40
-7.0
 40
-7.0
 40
-6.0
 40
-5.0
 40
-4.0
 40
-3.0
 40
-2.0
 40
-1.0
 40
0.0
 40
0.0
 40
0.0
 40
0.0
 10
0.0
 20
30.4157103636
 30
0.0
 10
-0.6824410252816904
 20
30.41585695552801
 30
0.0
 10
-2.047573149417389
 20
30.38252429079989
 30
0.0
 10
-4.085372281953568
 20
30.15027968429153
 30
0.0
 10
-6.071985648083569
 20
29.63566948086198
 30
0.0
 10
-7.965973706478451
 20
28.83657886123028
 30
0.0
 10
-9.643844713512593
 20
27.64060523147744
 30
0.0
 10
-11.03420655942415
 20
26.12580662885522
 30
0.0
 10
-11.78410298939619
 20
24.98164020520969
 30
0.0
 10
-12.1353864742
 20
24.3968254214
 30
0.0
  0
SPLINE
  5
CD
330
1F
100
AcDbEntity
  8
Default
  6
Continuous
100
AcDbSpline
210
0.0
220
0.0
230
1.0
 70
     8
 71
     3
 72
    14
 73
    10
 74
     0
 42
0.0000000001
 43
0.0000000001
 40
0.0
 40
0.0
 40
0.0
 40
0.0
 40
1.0
 40
2.0
 40
3.0
 40
4.0
 40
5.0
 40
6.0
 40
7.0
 40
7.0
 40
7.0
 40
7.0
 10
12.1353864742
 20
24.3968254214
 30
0.0
 10
11.78410298939616
 20
24.98164020520969
 30
0.0
 10
11.03420655942415
 20
26.12580662885522
 30
0.0
 10
9.643844713512578
 20
27.64060523147744
 30
0.0
 10
7.965973706478451
 20
28.83657886123028
 30
0.0
 10
6.071985648083569
 20
29.63566948086198
 30
0.0
 10
4.085372281953568
 20
30.15027968429153
 30
0.0
 10
2.047573149417389
 20
30.38252429079989
 30
0.0
 10
0.6824410252816904
 20
30.41585695552801
 30
0.0
 10
0.0
 20
30.4157103636
 30
0.0
  0
SPLINE
  5
CE
330
1F
100
AcDbEntity
  8
Default
100
AcDbSpline
210
0.0
220
0.0
230
1.0
 70
     8
 71
     3
 72
    10
 73
     6
 74
     0
 42
0.0000000001
 43
0.0000000001
 40
0.0
 40
0.0
 40
0.0
 40
0.0
 40
1.0
 40
2.0
 40
3.0
 40
3.0
 40
3.0
 40
3.0
 10
-10.4685546182
 20
13.2458490068
 30
0.0
 10
-10.26876180006599
 20
13.08215346996759
 30
0.0
 10
-9.80726351845854
 20
12.84409882763565
 30
0.0
 10
-9.065345631752336
 20
12.62524493560017
 30
0.0
 10
-8.562074382087587
 20
12.51621888595195
 30
0.0
 10
-8.309284377200001
 20
12.4675060904
 30
0.0
  0
SPLINE
  5
CF
330
1F
100
AcDbEntity
  8
Default
100
AcDbSpline
210
0.0
220
0.0
230
1.0
 70
     8
 71
     3
 72
     8
 73
     4
 74
     0
 42
0.0000000001
 43
0.0000000001
 40
0.0
 40
0.0
 40
0.0
 40
0.0
 40
1.0
 40
1.0
 40
1.0
 40
1.0
 10
-10.7858426378
 20
13.631369076
 30
0.0
 10
-10.70742260418503
 20
13.48293983915829
 30
0.0
 10
-10.59532311339049
 20
13.35480031696407
 30
0.0
 10
-10.4685546182
 20
13.2458490068
 30
0.0
  0
SPLINE
  5
D0
330
1F
100
AcDbEntity
  8
Default
100
AcDbSpline
210
0.0
220
0.0
230
1.0
 70
     8
 71
     3
 72
    10
 73
     6
 74
     0
 42
0.0000000001
 43
0.0000000001
 40
-4.0
 40
-4.0
 40
-4.0
 40
-4.0
 40
-3.0
 40
-2.0
 40
-0.9999999999999998
 40
-0.9999999999999998
 40
-0.9999999999999998
 40
-0.9999999999999998
 10
-13.2540578168
 20
22.7398257896
 30
0.0
 10
-13.0231195381038
 20
21.7166786803394
 30
0.0
 10
-12.51925210340896
 20
19.67917061083526
 30
0.0
 10
-11.74876471013221
 20
16.63093023309441
 30
0.0
 10
-11.23398133927614
 20
14.59014842257357
 30
0.0
 10
-10.7858426378
 20
13.631369076
 30
0.0
  0
ARC
  5
D1
330
1F
100
AcDbEntity
  8
Default
100
AcDbCircle
 10
30.23161541060108
 20
32.55513624905024
 30
0.0
 40
44.57963767748344
100
AcDbArc
 50
191.1382917572052
 51
192.7192969464397
  0
ARC
  5
D2
330
1F
100
AcDbEntity
  8
Default
100
AcDbCircle
 10
-12.02726156026311
 20
24.23494093649544
 30
0.0
 40
1.509481735373177
100
AcDbArc
 50
180.148600544274
 51
191.1382917572043
  0
SPLINE
  5
D3
330
1F
100
AcDbEntity
  8
Default
100
AcDbSpline
210
0.0
220
0.0
230
1.0
 70
     8
 71
     3
 72
     8
 73
     4
 74
     0
 42
0.0000000001
 43
0.0000000001
 40
-1.0
 40
-1.0
 40
-1.0
 40
-1.0
 40
0.0
 40
0.0
 40
0.0
 40
0.0
 10
-13.48331546462207
 20
24.33858861485952
 30
0.0
 10
-13.52270033026548
 20
24.33141459676095
 30
0.0
 10
-13.5368420467982
 20
24.27105877523386
 30
0.0
 10
-13.53673821880001
 20
24.2310259962
 30
0.0
  0
ARC
  5
D4
330
1F
100
AcDbEntity
  8
Default
100
AcDbCircle
 10
-12.58751545218948
 20
19.42070819578604
 30
0.0
 40
4.998800403954986
100
AcDbArc
 50
76.94910358566172
 51
100.3233400698251
  0
SPLINE
  5
D5
330
1F
100
AcDbEntity
  8
Default
100
AcDbSpline
210
0.0
220
0.0
230
1.0
 70
     8
 71
     3
 72
    26
 73
    22
 74
     0
 42
0.0000000001
 43
0.0000000001
 40
0.0
 40
0.0
 40
0.0
 40
0.0
 40
1.0
 40
2.0
 40
3.0
 40
4.0
 40
5.0
 40
6.0
 40
7.0
 40
8.0
 40
9.0
 40
10.0
 40
11.0
 40
12.0
 40
13.0
 40
14.0
 40
15.0
 40
16.0
 40
17.0
 40
18.0
 40
19.0
 40
19.0
 40
19.0
 40
19.0
 10
0.0
 20
23.4312386326
 30
0.0
 10
-0.2060591358548436
 20
23.43123872617286
 30
0.0
 10
-0.6181770726894342
 20
23.42941417446225
 30
0.0
 10
-1.236311361847186
 20
23.42174835500416
 30
0.0
 10
-1.85437501389714
 20
23.40970325228291
 30
0.0
 10
-2.472351866916114
 20
23.39385539287089
 30
0.0
 10
-3.090236365416047
 20
23.3747673740959
 30
0.0
 10
-3.708028809128677
 20
23.35292241399523
 30
0.0
 10
-4.325744266095967
 20
23.32900160968971
 30
0.0
 10
-4.94340766996487
 20
23.30379750193394
 30
0.0
 10
-5.56105902799311
 20
23.27831277435494
 30
0.0
 10
-6.178746168990301
 20
23.25360578595945
 30
0.0
 10
-6.796501544163249
 20
23.23106318899277
 30
0.0
 10
-7.414430884703094
 20
23.21185892003505
 30
0.0
 10
-8.032324074847509
 20
23.19929449768996
 30
0.0
 10
-8.651142921570951
 20
23.1959747643961
 30
0.0
 10
-9.26693749858859
 20
23.22058871575575
 30
0.0
 10
-9.891407815331348
 20
23.25482381461776
 30
0.0
 10
-10.46141101010484
 20
23.50448485937646
 30
0.0
 10
-10.9285660928896
 20
23.91756361229475
 30
0.0
 10
-11.26671457255675
 20
24.15194623995468
 30
0.0
 10
-11.45870380000001
 20
24.290388856
 30
0.0
  0
SPLINE
  5
D6
330
1F
100
AcDbEntity
  8
Default
100
AcDbSpline
210
0.0
220
0.0
230
1.0
 70
     8
 71
     3
 72
    26
 73
    22
 74
     0
 42
0.0000000001
 43
0.0000000001
 40
-19.0
 40
-19.0
 40
-19.0
 40
-19.0
 40
-18.0
 40
-17.0
 40
-16.0
 40
-15.0
 40
-14.0
 40
-13.0
 40
-12.0
 40
-11.0
 40
-10.0
 40
-9.0
 40
-8.0
 40
-7.0
 40
-6.0
 40
-5.0
 40
-4.0
 40
-3.0
 40
-2.0
 40
-1.0
 40
0.0
 40
0.0
 40
0.0
 40
0.0
 10
11.45870380000002
 20
24.290388856
 30
0.0
 10
11.26671457255674
 20
24.15194623995468
 30
0.0
 10
10.92856609288958
 20
23.91756361229475
 30
0.0
 10
10.46141101010483
 20
23.50448485937646
 30
0.0
 10
9.89140781533132
 20
23.25482381461776
 30
0.0
 10
9.26693749858859
 20
23.22058871575575
 30
0.0
 10
8.651142921570965
 20
23.1959747643961
 30
0.0
 10
8.032324074847509
 20
23.19929449768996
 30
0.0
 10
7.414430884703108
 20
23.21185892003505
 30
0.0
 10
6.79650154416322
 20
23.23106318899277
 30
0.0
 10
6.178746168990301
 20
23.25360578595945
 30
0.0
 10
5.56105902799311
 20
23.27831277435494
 30
0.0
 10
4.94340766996487
 20
23.30379750193394
 30
0.0
 10
4.325744266095967
 20
23.32900160968971
 30
0.0
 10
3.708028809128677
 20
23.35292241399523
 30
0.0
 10
3.090236365416047
 20
23.3747673740959
 30
0.0
 10
2.472351866916114
 20
23.39385539287089
 30
0.0
 10
1.85437501389714
 20
23.40970325228291
 30
0.0
 10
1.236311361847186
 20
23.42174835500416
 30
0.0
 10
0.6181770726894342
 20
23.42941417446225
 30
0.0
 10
0.2060591358548436
 20
23.43123872617286
 30
0.0
 10
0.0
 20
23.4312386326
 30
0.0
  0
ARC
  5
D7
330
1F
100
AcDbEntity
  8
Default
100
AcDbCircle
 10
12.58751545218948
 20
19.42070819578604
 30
0.0
 40
4.998800403954986
100
AcDbArc
 50
79.67665993017413
 51
103.0508964143375
  0
SPLINE
  5
D8
330
1F
100
AcDbEntity
  8
Default
100
AcDbSpline
210
0.0
220
0.0
230
1.0
 70
     8
 71
     3
 72
     8
 73
     4
 74
     0
 42
0.0000000001
 43
0.0000000001
 40
0.0
 40
0.0
 40
0.0
 40
0.0
 40
1.0
 40
1.0
 40
1.0
 40
1.0
 10
13.5367382188
 20
24.2310259962
 30
0.0
 10
13.5368420467982
 20
24.27105877523386
 30
0.0
 10
13.52270033026548
 20
24.33141459676095
 30
0.0
 10
13.48331546462208
 20
24.33858861485952
 30
0.0
  0
ARC
  5
D9
330
1F
100
AcDbEntity
  8
Default
100
AcDbCircle
 10
12.02726156026313
 20
24.23494093649544
 30
0.0
 40
1.509481735373177
100
AcDbArc
 50
348.861708242795
 51
359.8513994557253
  0
ARC
  5
DA
330
1F
100
AcDbEntity
  8
Default
100
AcDbCircle
 10
-30.23161541060109
 20
32.55513624905024
 30
0.0
 40
44.57963767748344
100
AcDbArc
 50
347.2807030535608
 51
348.8617082427953
  0
SPLINE
  5
DB
330
1F
100
AcDbEntity
  8
Default
100
AcDbSpline
210
0.0
220
0.0
230
1.0
 70
     8
 71
     3
 72
    10
 73
     6
 74
     0
 42
0.0000000001
 43
0.0000000001
 40
0.9999999999999998
 40
0.9999999999999998
 40
0.9999999999999998
 40
0.9999999999999998
 40
2.0
 40
3.0
 40
4.0
 40
4.0
 40
4.0
 40
4.0
 10
10.78584263779999
 20
13.631369076
 30
0.0
 10
11.23398133927611
 20
14.59014842257357
 30
0.0
 10
11.74876471013221
 20
16.63093023309441
 30
0.0
 10
12.51925210340897
 20
19.67917061083526
 30
0.0
 10
13.0231195381038
 20
21.7166786803394
 30
0.0
 10
13.25405781680001
 20
22.7398257896
 30
0.0
  0
SPLINE
  5
DC
330
1F
100
AcDbEntity
  8
Default
100
AcDbSpline
210
0.0
220
0.0
230
1.0
 70
     8
 71
     3
 72
     8
 73
     4
 74
     0
 42
0.0000000001
 43
0.0000000001
 40
-1.0
 40
-1.0
 40
-1.0
 40
-1.0
 40
0.0
 40
0.0
 40
0.0
 40
0.0
 10
10.46855461820002
 20
13.2458490068
 30
0.0
 10
10.59532311339049
 20
13.35480031696407
 30
0.0
 10
10.70742260418501
 20
13.48293983915829
 30
0.0
 10
10.78584263779999
 20
13.631369076
 30
0.0
  0
SPLINE
  5
DD
330
1F
100
AcDbEntity
  8
Default
100
AcDbSpline
210
0.0
220
0.0
230
1.0
 70
     8
 71
     3
 72
    10
 73
     6
 74
     0
 42
0.0000000001
 43
0.0000000001
 40
-3.0
 40
-3.0
 40
-3.0
 40
-3.0
 40
-2.0
 40
-1.0
 40
0.0
 40
0.0
 40
0.0
 40
0.0
 10
8.309284377200015
 20
12.4675060904
 30
0.0
 10
8.562074382087587
 20
12.51621888595195
 30
0.0
 10
9.065345631752336
 20
12.62524493560017
 30
0.0
 10
9.80726351845854
 20
12.84409882763565
 30
0.0
 10
10.26876180006599
 20
13.08215346996759
 30
0.0
 10
10.46855461820002
 20
13.2458490068
 30
0.0
  0
SPLINE
  5
DE
330
1F
100
AcDbEntity
  8
Default
  6
Continuous
100
AcDbSpline
210
0.0
220
0.0
230
1.0
 70
     8
 71
     3
 72
    13
 73
     9
 74
     0
 42
0.0000000001
 43
0.0000000001
 40
0.0
 40
0.0
 40
0.0
 40
0.0
 40
0.9999999879525887
 40
1.999999990362071
 40
2.999999992771553
 40
3.999999995181036
 40
4.999999997590518
 40
6.0
 40
6.0
 40
6.0
 40
6.0
 10
11.39096537649999
 20
22.6959191092
 30
0.0
 10
11.40829592916054
 20
22.78507947903222
 30
0.0
 10
11.43853222499408
 20
22.96415582286964
 30
0.0
 10
11.47316219843032
 20
23.23466933215743
 30
0.0
 10
11.4981533648839
 20
23.50521020866418
 30
0.0
 10
11.51970429371966
 20
23.77970397755479
 30
0.0
 10
11.5221707954899
 20
24.04188644391326
 30
0.0
 10
11.53901698100913
 20
24.24874758105072
 30
0.0
 10
11.4586963022
 20
24.2903894616
 30
0.0
  0
LINE
  5
DF
330
1F
100
AcDbEntity
  8
Default
  6
Continuous
100
AcDbLine
 10
9.991216733300007
 20
15.4919988096
 30
0.0
 11
11.39096537649999
 21
22.6959191092
 31
0.0
  0
SPLINE
  5
E0
330
1F
100
AcDbEntity
  8
Default
  6
Continuous
100
AcDbSpline
210
0.0
220
0.0
230
1.0
 70
     8
 71
     3
 72
     8
 73
     4
 74
     0
 42
0.0000000001
 43
0.0000000001
 40
0.0
 40
0.0
 40
0.0
 40
0.0
 40
1.0
 40
1.0
 40
1.0
 40
1.0
 10
9.674808530400014
 20
13.8689238194
 30
0.0
 10
9.751532608233902
 20
14.4152446669056
 30
0.0
 10
9.880452711014982
 20
14.95206557218855
 30
0.0
 10
9.991216733300007
 20
15.4919988096
 30
0.0
  0
LINE
  5
E1
330
1F
100
AcDbEntity
  8
Default
  6
Continuous
100
AcDbLine
 10
6.57122059560001
 20
12.2149857198
 30
0.0
 11
6.306048140600012
 21
12.1887451636
 31
0.0
  0
POLYLINE
  5
E2
330
1F
100
AcDbEntity
  8
Default
  6
Continuous
100
AcDb2dPolyline
 66
     1
 10
0.0
 20
0.0
 30
0.0
  0
VERTEX
  5
E3
330
E2
100
AcDbEntity
  8
Default
  6
Continuous
100
AcDbVertex
100
AcDb2dVertex
 10
7.569140067600017
 20
12.3412302404
 30
0.0
  0
VERTEX
  5
E4
330
E2
100
AcDbEntity
  8
Default
  6
Continuous
100
AcDbVertex
100
AcDb2dVertex
 10
7.281145055000025
 20
12.300002898
 30
0.0
  0
VERTEX
  5
E5
330
E2
100
AcDbEntity
  8
Default
  6
Continuous
100
AcDbVertex
100
AcDb2dVertex
 10
6.937618740400012
 20
12.2562393076
 30
0.0
  0
VERTEX
  5
E6
330
E2
100
AcDbEntity
  8
Default
  6
Continuous
100
AcDbVertex
100
AcDb2dVertex
 10
6.57122059560001
 20
12.2149857198
 30
0.0
  0
SEQEND
  5
E7
330
E2
100
AcDbEntity
  8
Default
  6
Continuous
  0
SPLINE
  5
E8
330
1F
100
AcDbEntity
  8
Default
  6
Continuous
100
AcDbSpline
210
0.0
220
0.0
230
1.0
 70
     8
 71
     3
 72
    13
 73
     9
 74
     0
 42
0.0000000001
 43
0.0000000001
 40
0.0
 40
0.0
 40
0.0
 40
0.0
 40
0.9999999879525887
 40
1.999999990362071
 40
2.999999992771553
 40
3.999999995181036
 40
4.999999997590518
 40
6.0
 40
6.0
 40
6.0
 40
6.0
 10
-11.39096537650001
 20
22.6959191092
 30
0.0
 10
-11.40829592916054
 20
22.78507947903222
 30
0.0
 10
-11.43853222499408
 20
22.96415582286964
 30
0.0
 10
-11.4731621984303
 20
23.23466933215743
 30
0.0
 10
-11.4981533648839
 20
23.50521020866418
 30
0.0
 10
-11.51970429371966
 20
23.77970397755479
 30
0.0
 10
-11.52217079548991
 20
24.04188644391326
 30
0.0
 10
-11.53901698100911
 20
24.24874758105072
 30
0.0
 10
-11.45869630220001
 20
24.2903894616
 30
0.0
  0
LINE
  5
E9
330
1F
100
AcDbEntity
  8
Default
  6
Continuous
100
AcDbLine
 10
-9.991216733300007
 20
15.4919988096
 30
0.0
 11
-11.39096537650001
 21
22.6959191092
 31
0.0
  0
SPLINE
  5
EA
330
1F
100
AcDbEntity
  8
Default
  6
Continuous
100
AcDbSpline
210
0.0
220
0.0
230
1.0
 70
     8
 71
     3
 72
     8
 73
     4
 74
     0
 42
0.0000000001
 43
0.0000000001
 40
0.0
 40
0.0
 40
0.0
 40
0.0
 40
1.0
 40
1.0
 40
1.0
 40
1.0
 10
-9.6748085304
 20
13.8689238194
 30
0.0
 10
-9.751532608233873
 20
14.4152446669056
 30
0.0
 10
-9.880452711014982
 20
14.95206557218855
 30
0.0
 10
-9.991216733300007
 20
15.4919988096
 30
0.0
  0
LINE
  5
EB
330
1F
100
AcDbEntity
  8
Default
  6
Continuous
100
AcDbLine
 10
-6.57122059560001
 20
12.2149857198
 30
0.0
 11
-6.306048140600012
 21
12.1887451636
 31
0.0
  0
POLYLINE
  5
EC
330
1F
100
AcDbEntity
  8
Default
  6
Continuous
100
AcDb2dPolyline
 66
     1
 10
0.0
 20
0.0
 30
0.0
  0
VERTEX
  5
ED
330
EC
100
AcDbEntity
  8
Default
  6
Continuous
100
AcDbVertex
100
AcDb2dVertex
 10
-7.569140067600003
 20
12.3412302404
 30
0.0
  0
VERTEX
  5
EE
330
EC
100
AcDbEntity
  8
Default
  6
Continuous
100
AcDbVertex
100
AcDb2dVertex
 10
-7.28114505500001
 20
12.300002898
 30
0.0
  0
VERTEX
  5
EF
330
EC
100
AcDbEntity
  8
Default
  6
Continuous
100
AcDbVertex
100
AcDb2dVertex
 10
-6.937618740400012
 20
12.2562393076
 30
0.0
  0
VERTEX
  5
F0
330
EC
100
AcDbEntity
  8
Default
  6
Continuous
100
AcDbVertex
100
AcDb2dVertex
 10
-6.57122059560001
 20
12.2149857198
 30
0.0
  0
SEQEND
  5
F1
330
EC
100
AcDbEntity
  8
Default
  6
Continuous
  0
SPLINE
  5
F2
330
1F
100
AcDbEntity
  8
Default
  6
Continuous
100
AcDbSpline
210
0.0
220
0.0
230
1.0
 70
     8
 71
     3
 72
    10
 73
     6
 74
     0
 42
0.0000000001
 43
0.0000000001
 40
0.0
 40
0.0
 40
0.0
 40
0.0
 40
1.0
 40
2.0
 40
3.0
 40
3.0
 40
3.0
 40
3.0
 10
4.581098351399987
 20
12.2980885156
 30
0.0
 10
4.90752040596243
 20
12.31887549238149
 30
0.0
 10
5.559862507278268
 20
12.36865821860353
 30
0.0
 10
6.535337053806188
 20
12.47684302511423
 30
0.0
 10
7.181435931605904
 20
12.58107815945225
 30
0.0
 10
7.502089955200006
 20
12.6457505506
 30
0.0
  0
SPLINE
  5
F3
330
1F
100
AcDbEntity
  8
Default
  6
Continuous
100
AcDbSpline
210
0.0
220
0.0
230
1.0
 70
     8
 71
     3
 72
    10
 73
     6
 74
     0
 42
0.0000000001
 43
0.0000000001
 40
0.0
 40
0.0
 40
0.0
 40
0.0
 40
1.0
 40
2.0
 40
3.0
 40
3.0
 40
3.0
 40
3.0
 10
8.256922490400001
 20
12.8320211746
 30
0.0
 10
8.37364417093329
 20
12.86802099805247
 30
0.0
 10
8.60301464293957
 20
12.94858244638797
 30
0.0
 10
8.933603961395761
 20
13.11763815480825
 30
0.0
 10
9.087159157521228
 20
13.3143562668446
 30
0.0
 10
9.15472092440001
 20
13.4150071318
 30
0.0
  0
SPLINE
  5
F4
330
1F
100
AcDbEntity
  8
Default
  6
Continuous
100
AcDbSpline
210
0.0
220
0.0
230
1.0
 70
     8
 71
     3
 72
    10
 73
     6
 74
     0
 42
0.0000000001
 43
0.0000000001
 40
0.0
 40
0.0
 40
0.0
 40
0.0
 40
1.0
 40
2.0
 40
3.0
 40
3.0
 40
3.0
 40
3.0
 10
-4.581098351399987
 20
12.2980885156
 30
0.0
 10
-4.90752040596243
 20
12.31887549238149
 30
0.0
 10
-5.559862507278268
 20
12.36865821860353
 30
0.0
 10
-6.535337053806217
 20
12.47684302511423
 30
0.0
 10
-7.181435931605918
 20
12.58107815945225
 30
0.0
 10
-7.502089955200006
 20
12.6457505506
 30
0.0
  0
SPLINE
  5
F5
330
1F
100
AcDbEntity
  8
Default
  6
Continuous
100
AcDbSpline
210
0.0
220
0.0
230
1.0
 70
     8
 71
     3
 72
    10
 73
     6
 74
     0
 42
0.0000000001
 43
0.0000000001
 40
0.0
 40
0.0
 40
0.0
 40
0.0
 40
1.0
 40
2.0
 40
3.0
 40
3.0
 40
3.0
 40
3.0
 10
-8.256922490400001
 20
12.8320211746
 30
0.0
 10
-8.373644170933275
 20
12.86802099805247
 30
0.0
 10
-8.60301464293957
 20
12.94858244638797
 30
0.0
 10
-8.933603961395761
 20
13.11763815480825
 30
0.0
 10
-9.087159157521228
 20
13.3143562668446
 30
0.0
 10
-9.15472092440001
 20
13.4150071318
 30
0.0
  0
ARC
  5
F6
330
1F
100
AcDbEntity
  8
Default
  6
Continuous
100
AcDbCircle
 10
9.014530512805436
 20
13.99254115558856
 30
0.0
 40
0.3350977134913334
100
AcDbArc
 50
355.0505136726942
 51
17.48569642051542
  0
SPLINE
  5
F7
330
1F
100
AcDbEntity
  8
Default
  6
Continuous
100
AcDbSpline
210
0.0
220
0.0
230
1.0
 70
     8
 71
     3
 72
    13
 73
     9
 74
     0
 42
0.0000000001
 43
0.0000000001
 40
-6.0
 40
-6.0
 40
-6.0
 40
-6.0
 40
-5.0
 40
-4.0
 40
-3.0
 40
-2.0
 40
-1.0
 40
0.0
 40
0.0
 40
0.0
 40
0.0
 10
7.331031158927658
 20
14.51214623461721
 30
0.0
 10
7.449867217969711
 20
14.51213784361248
 30
0.0
 10
7.687571456139352
 20
14.51086204162875
 30
0.0
 10
8.043941923087743
 20
14.50263239465806
 30
0.0
 10
8.400330870611867
 20
14.48486303831555
 30
0.0
 10
8.754162011528933
 20
14.44686338994978
 30
0.0
 10
9.107523557388305
 20
14.37697313786711
 30
0.0
 10
9.297812811066365
 20
14.208555477116
 30
0.0
 10
9.334144028000026
 20
14.0932271948
 30
0.0
  0
SPLINE
  5
F8
330
1F
100
AcDbEntity
  8
Default
  6
Continuous
100
AcDbSpline
210
0.0
220
0.0
230
1.0
 70
     8
 71
     3
 72
    10
 73
     6
 74
     0
 42
0.0000000001
 43
0.0000000001
 40
-3.0
 40
-3.0
 40
-3.0
 40
-3.0
 40
-2.0
 40
-1.0
 40
0.0
 40
0.0
 40
0.0
 40
0.0
 10
0.0
 20
14.404509968
 30
0.0
 10
0.814668076094506
 20
14.40432816899648
 30
0.0
 10
2.443970899302087
 20
14.41958428598319
 30
0.0
 10
4.887442317098817
 20
14.46989118981093
 30
0.0
 10
6.516336436598266
 20
14.50987514491245
 30
0.0
 10
7.331031158927658
 20
14.51214623461721
 30
0.0
  0
SPLINE
  5
F9
330
1F
100
AcDbEntity
  8
Default
  6
Continuous
100
AcDbSpline
210
0.0
220
0.0
230
1.0
 70
     8
 71
     3
 72
    10
 73
     6
 74
     0
 42
0.0000000001
 43
0.0000000001
 40
0.0
 40
0.0
 40
0.0
 40
0.0
 40
1.0
 40
2.0
 40
3.0
 40
3.0
 40
3.0
 40
3.0
 10
-7.331031158927658
 20
14.51214623461721
 30
0.0
 10
-6.516336436598266
 20
14.50987514491245
 30
0.0
 10
-4.887442317098817
 20
14.46989118981093
 30
0.0
 10
-2.443970899302087
 20
14.41958428598319
 30
0.0
 10
-0.814668076094506
 20
14.40432816899648
 30
0.0
 10
0.0
 20
14.404509968
 30
0.0
  0
SPLINE
  5
FA
330
1F
100
AcDbEntity
  8
Default
  6
Continuous
100
AcDbSpline
210
0.0
220
0.0
230
1.0
 70
     8
 71
     3
 72
    13
 73
     9
 74
     0
 42
0.0000000001
 43
0.0000000001
 40
0.0
 40
0.0
 40
0.0
 40
0.0
 40
1.0
 40
2.0
 40
3.0
 40
4.0
 40
5.0
 40
6.0
 40
6.0
 40
6.0
 40
6.0
 10
-9.334144028000011
 20
14.0932271948
 30
0.0
 10
-9.297812811066365
 20
14.208555477116
 30
0.0
 10
-9.107523557388305
 20
14.37697313786711
 30
0.0
 10
-8.754162011528933
 20
14.44686338994978
 30
0.0
 10
-8.400330870611853
 20
14.48486303831555
 30
0.0
 10
-8.04394192308773
 20
14.50263239465806
 30
0.0
 10
-7.687571456139352
 20
14.51086204162875
 30
0.0
 10
-7.449867217969711
 20
14.51213784361248
 30
0.0
 10
-7.331031158927658
 20
14.51214623461721
 30
0.0
  0
ARC
  5
FB
330
1F
100
AcDbEntity
  8
Default
  6
Continuous
100
AcDbCircle
 10
-9.014530512805436
 20
13.99254115558856
 30
0.0
 40
0.3350977134913334
100
AcDbArc
 50
162.5143035794846
 51
184.9494863273058
  0
ARC
  5
FC
330
1F
100
AcDbEntity
  8
Default
  6
Continuous
100
AcDbCircle
 10
4.840682353280499
 20
14.85968898648072
 30
0.0
 40
4.60793282975964
100
AcDbArc
 50
347.2706892091994
 51
350.2764448142567
  0
SPLINE
  5
FD
330
1F
100
AcDbEntity
  8
Default
  6
Continuous
100
AcDbSpline
210
0.0
220
0.0
230
1.0
 70
     8
 71
     3
 72
    10
 73
     6
 74
     0
 42
0.0000000001
 43
0.0000000001
 40
5.0
 40
5.0
 40
5.0
 40
5.0
 40
5.999999070534106
 40
6.999999535267053
 40
8.0
 40
8.0
 40
8.0
 40
8.0
 10
9.339197433100026
 20
16.2259500541
 30
0.0
 10
9.389679784339819
 20
15.99153710437503
 30
0.0
 10
9.4649401816244
 20
15.51665954225526
 30
0.0
 10
9.475874361339038
 20
14.7954102908463
 30
0.0
 10
9.422930781768258
 20
14.3178573150967
 30
0.0
 10
9.382418159999986
 20
14.081433999
 30
0.0
  0
SPLINE
  5
FE
330
1F
100
AcDbEntity
  8
Default
  6
Continuous
100
AcDbSpline
210
0.0
220
0.0
230
1.0
 70
     8
 71
     3
 72
    12
 73
     8
 74
     0
 42
0.0000000001
 43
0.0000000001
 40
-5.0
 40
-5.0
 40
-5.0
 40
-5.0
 40
-3.999999544191427
 40
-2.999999088382853
 40
-1.99999863257428
 40
-0.9999981767657069
 40
0.0
 40
0.0
 40
0.0
 40
0.0
 10
7.36117856447197
 20
16.6642400231139
 30
0.0
 10
7.503163979551601
 20
16.66429963673265
 30
0.0
 10
7.786984046333089
 20
16.66198794950089
 30
0.0
 10
8.213146845290225
 20
16.65042790855842
 30
0.0
 10
8.636598207435043
 20
16.61431413147433
 30
0.0
 10
9.062656187861649
 20
16.5580510914493
 30
0.0
 10
9.303977813563279
 20
16.36831645476184
 30
0.0
 10
9.339197433100026
 20
16.2259500541
 30
0.0
  0
SPLINE
  5
FF
330
1F
100
AcDbEntity
  8
Default
  6
Continuous
100
AcDbSpline
210
0.0
220
0.0
230
1.0
 70
     8
 71
     3
 72
    10
 73
     6
 74
     0
 42
0.0000000001
 43
0.0000000001
 40
-3.0
 40
-3.0
 40
-3.0
 40
-3.0
 40
-2.0
 40
-1.0
 40
0.0
 40
0.0
 40
0.0
 40
0.0
 10
0.0
 20
16.552482884
 30
0.0
 10
0.8180259188006573
 20
16.55230009055397
 30
0.0
 10
2.454042408556973
 20
16.56802657319429
 30
0.0
 10
4.907552933860131
 20
16.6200612667237
 30
0.0
 10
6.543123613112243
 20
16.66188484487124
 30
0.0
 10
7.36117856447197
 20
16.6642400231139
 30
0.0
  0
SPLINE
  5
100
330
1F
100
AcDbEntity
  8
Default
  6
Continuous
100
AcDbSpline
210
0.0
220
0.0
230
1.0
 70
     8
 71
     3
 72
    10
 73
     6
 74
     0
 42
0.0000000001
 43
0.0000000001
 40
0.0
 40
0.0
 40
0.0
 40
0.0
 40
1.0
 40
2.0
 40
3.0
 40
3.0
 40
3.0
 40
3.0
 10
-7.36117856447197
 20
16.6642400231139
 30
0.0
 10
-6.543123613112243
 20
16.66188484487124
 30
0.0
 10
-4.907552933860131
 20
16.6200612667237
 30
0.0
 10
-2.454042408556973
 20
16.56802657319429
 30
0.0
 10
-0.8180259188006573
 20
16.55230009055397
 30
0.0
 10
0.0
 20
16.552482884
 30
0.0
  0
SPLINE
  5
101
330
1F
100
AcDbEntity
  8
Default
  6
Continuous
100
AcDbSpline
210
0.0
220
0.0
230
1.0
 70
     8
 71
     3
 72
    12
 73
     8
 74
     0
 42
0.0000000001
 43
0.0000000001
 40
0.0
 40
0.0
 40
0.0
 40
0.0
 40
0.9999981767657069
 40
1.99999863257428
 40
2.999999088382853
 40
3.999999544191427
 40
5.0
 40
5.0
 40
5.0
 40
5.0
 10
-9.339197433099997
 20
16.2259500541
 30
0.0
 10
-9.303977813563279
 20
16.36831645476184
 30
0.0
 10
-9.062656187861649
 20
16.5580510914493
 30
0.0
 10
-8.636598207435043
 20
16.61431413147433
 30
0.0
 10
-8.213146845290225
 20
16.65042790855842
 30
0.0
 10
-7.786984046333089
 20
16.66198794950089
 30
0.0
 10
-7.503163979551601
 20
16.66429963673265
 30
0.0
 10
-7.36117856447197
 20
16.6642400231139
 30
0.0
  0
SPLINE
  5
102
330
1F
100
AcDbEntity
  8
Default
  6
Continuous
100
AcDbSpline
210
0.0
220
0.0
230
1.0
 70
     8
 71
     3
 72
    10
 73
     6
 74
     0
 42
0.0000000001
 43
0.0000000001
 40
-8.0
 40
-8.0
 40
-8.0
 40
-8.0
 40
-6.999999535267053
 40
-5.999999070534106
 40
-5.0
 40
-5.0
 40
-5.0
 40
-5.0
 10
-9.38241816
 20
14.081433999
 30
0.0
 10
-9.422930781768258
 20
14.3178573150967
 30
0.0
 10
-9.475874361339038
 20
14.7954102908463
 30
0.0
 10
-9.464940181624385
 20
15.51665954225526
 30
0.0
 10
-9.389679784339819
 20
15.99153710437503
 30
0.0
 10
-9.339197433099997
 20
16.2259500541
 30
0.0
  0
ARC
  5
103
330
1F
100
AcDbEntity
  8
Default
  6
Continuous
100
AcDbCircle
 10
-4.840682353280499
 20
14.85968898648072
 30
0.0
 40
4.60793282975964
100
AcDbArc
 50
189.7235551857434
 51
192.7293107908006
  0
LINE
  5
104
330
1F
100
AcDbEntity
  8
Default
  6
Continuous
100
AcDbLine
 10
9.447822487400003
 20
13.8690902096
 30
0.0
 11
9.671321631199987
 21
13.8691147286
 31
0.0
  0
LINE
  5
105
330
1F
100
AcDbEntity
  8
Default
  6
Continuous
100
AcDbLine
 10
9.338852035999992
 20
13.860211777
 30
0.0
 11
9.447822487400003
 21
13.8690902096
 31
0.0
  0
LINE
  5
106
330
1F
100
AcDbEntity
  8
Default
100
AcDbLine
 10
9.440107036799986
 20
14.0546512698
 30
0.0
 11
9.376669230999994
 21
14.0494826366
 31
0.0
  0
LINE
  5
107
330
1F
100
AcDbEntity
  8
Default
100
AcDbLine
 10
9.686741035400019
 20
14.0546783268
 30
0.0
 11
9.440107036799986
 21
14.0546512698
 31
0.0
  0
POLYLINE
  5
108
330
1F
100
AcDbEntity
  8
Default
100
AcDb2dPolyline
 66
     1
 10
0.0
 20
0.0
 30
0.0
  0
VERTEX
  5
109
330
108
100
AcDbEntity
  8
Default
100
AcDbVertex
100
AcDb2dVertex
 10
9.670559626277452
 20
13.85203840822891
 30
0.0
  0
VERTEX
  5
10A
330
108
100
AcDbEntity
  8
Default
100
AcDbVertex
100
AcDb2dVertex
 10
9.686741035400019
 20
14.0546783268
 30
0.0
  0
SEQEND
  5
10B
330
108
100
AcDbEntity
  8
Default
  0
LINE
  5
10C
330
1F
100
AcDbEntity
  8
Default
100
AcDbLine
 10
10.39516251820001
 20
13.8565079162
 30
0.0
 11
9.670559626277452
 21
13.85203840822891
 31
0.0
  0
ARC
  5
10D
330
1F
100
AcDbEntity
  8
Default
100
AcDbCircle
 10
10.39589647470615
 20
13.74612434496699
 30
0.0
 40
0.1103860112981057
100
AcDbArc
 50
59.16195590477157
 51
90.38096240196053
  0
LINE
  5
10E
330
1F
100
AcDbEntity
  8
Default
100
AcDbLine
 10
10.31491195800001
 20
13.4644400132
 30
0.0
 11
10.4524817898
 21
13.8409039504
 31
0.0
  0
SPLINE
  5
10F
330
1F
100
AcDbEntity
  8
Default
100
AcDbSpline
210
0.0
220
0.0
230
1.0
 70
     8
 71
     3
 72
     8
 73
     4
 74
     0
 42
0.0000000001
 43
0.0000000001
 40
0.0
 40
0.0
 40
0.0
 40
0.0
 40
1.0
 40
1.0
 40
1.0
 40
1.0
 10
10.12766896099998
 20
13.4389375408
 30
0.0
 10
10.19043137232472
 20
13.44151117000844
 30
0.0
 10
10.25814171896428
 20
13.43679702014212
 30
0.0
 10
10.31491195800001
 20
13.4644400132
 30
0.0
  0
LINE
  5
110
330
1F
100
AcDbEntity
  8
Default
100
AcDbLine
 10
9.447823159400002
 20
13.4388629582
 30
0.0
 11
10.12766896099998
 21
13.4389375408
 31
0.0
  0
LINE
  5
111
330
1F
100
AcDbEntity
  8
Default
100
AcDbLine
 10
8.068428538000006
 20
13.326475957
 30
0.0
 11
9.447823159400002
 21
13.4388629582
 31
0.0
  0
POLYLINE
  5
112
330
1F
100
AcDbEntity
  8
Default
100
AcDb2dPolyline
 66
     1
 10
0.0
 20
0.0
 30
0.0
  0
VERTEX
  5
113
330
112
100
AcDbEntity
  8
Default
100
AcDbVertex
100
AcDb2dVertex
 10
9.335361177803605
 20
13.8443529692134
 30
0.0
  0
VERTEX
  5
114
330
112
100
AcDbEntity
  8
Default
100
AcDbVertex
100
AcDb2dVertex
 10
7.743969221200018
 20
13.706969026
 30
0.0
  0
SEQEND
  5
115
330
112
100
AcDbEntity
  8
Default
  0
LINE
  5
116
330
1F
100
AcDbEntity
  8
Default
  6
Continuous
100
AcDbLine
 10
-9.447822487400003
 20
13.8690902096
 30
0.0
 11
-9.671321631200001
 21
13.8691147286
 31
0.0
  0
LINE
  5
117
330
1F
100
AcDbEntity
  8
Default
  6
Continuous
100
AcDbLine
 10
-9.338852036000006
 20
13.860211777
 30
0.0
 11
-9.447822487400003
 21
13.8690902096
 31
0.0
  0
LINE
  5
118
330
1F
100
AcDbEntity
  8
Default
100
AcDbLine
 10
-9.4401070368
 20
14.0546512698
 30
0.0
 11
-9.376669231000008
 21
14.0494826366
 31
0.0
  0
LINE
  5
119
330
1F
100
AcDbEntity
  8
Default
100
AcDbLine
 10
-9.686741035400004
 20
14.0546783268
 30
0.0
 11
-9.4401070368
 21
14.0546512698
 31
0.0
  0
POLYLINE
  5
11A
330
1F
100
AcDbEntity
  8
Default
100
AcDb2dPolyline
 66
     1
 10
0.0
 20
0.0
 30
0.0
  0
VERTEX
  5
11B
330
11A
100
AcDbEntity
  8
Default
100
AcDbVertex
100
AcDb2dVertex
 10
-9.670559626277438
 20
13.85203840822891
 30
0.0
  0
VERTEX
  5
11C
330
11A
100
AcDbEntity
  8
Default
100
AcDbVertex
100
AcDb2dVertex
 10
-9.686741035400004
 20
14.0546783268
 30
0.0
  0
SEQEND
  5
11D
330
11A
100
AcDbEntity
  8
Default
  0
LINE
  5
11E
330
1F
100
AcDbEntity
  8
Default
100
AcDbLine
 10
-10.39516251820001
 20
13.8565079162
 30
0.0
 11
-9.670559626277438
 21
13.85203840822891
 31
0.0
  0
ARC
  5
11F
330
1F
100
AcDbEntity
  8
Default
100
AcDbCircle
 10
-10.39589647470616
 20
13.74612434496699
 30
0.0
 40
0.1103860112981057
100
AcDbArc
 50
89.61903759803855
 51
120.8380440952277
  0
LINE
  5
120
330
1F
100
AcDbEntity
  8
Default
100
AcDbLine
 10
-10.31491195800001
 20
13.4644400132
 30
0.0
 11
-10.4524817898
 21
13.8409039504
 31
0.0
  0
SPLINE
  5
121
330
1F
100
AcDbEntity
  8
Default
100
AcDbSpline
210
0.0
220
0.0
230
1.0
 70
     8
 71
     3
 72
     8
 73
     4
 74
     0
 42
0.0000000001
 43
0.0000000001
 40
0.0
 40
0.0
 40
0.0
 40
0.0
 40
1.0
 40
1.0
 40
1.0
 40
1.0
 10
-10.127668961
 20
13.4389375408
 30
0.0
 10
-10.19043137232474
 20
13.44151117000844
 30
0.0
 10
-10.25814171896425
 20
13.43679702014212
 30
0.0
 10
-10.31491195800001
 20
13.4644400132
 30
0.0
  0
LINE
  5
122
330
1F
100
AcDbEntity
  8
Default
100
AcDbLine
 10
-9.447823159400002
 20
13.4388629582
 30
0.0
 11
-10.127668961
 21
13.4389375408
 31
0.0
  0
LINE
  5
123
330
1F
100
AcDbEntity
  8
Default
100
AcDbLine
 10
-8.068428538000006
 20
13.326475957
 30
0.0
 11
-9.447823159400002
 21
13.4388629582
 31
0.0
  0
POLYLINE
  5
124
330
1F
100
AcDbEntity
  8
Default
100
AcDb2dPolyline
 66
     1
 10
0.0
 20
0.0
 30
0.0
  0
VERTEX
  5
125
330
124
100
AcDbEntity
  8
Default
100
AcDbVertex
100
AcDb2dVertex
 10
-9.335361177803605
 20
13.8443529692134
 30
0.0
  0
VERTEX
  5
126
330
124
100
AcDbEntity
  8
Default
100
AcDbVertex
100
AcDb2dVertex
 10
-7.743969221200004
 20
13.706969026
 30
0.0
  0
SEQEND
  5
127
330
124
100
AcDbEntity
  8
Default
  0
SPLINE
  5
128
330
1F
100
AcDbEntity
  8
Default
100
AcDbSpline
210
0.0
220
0.0
230
1.0
 70
    12
 71
     3
 72
    29
 73
    25
 74
     0
 42
0.0000000001
 43
0.0000000001
 40
0.0
 40
0.0
 40
0.0
 40
0.0
 40
0.2186161258479055
 40
0.2186161258479055
 40
0.2186161258479055
 40
1.218616125847905
 40
2.218616125847905
 40
2.218616125847905
 40
2.218616125847905
 40
7.601048520801277
 40
7.601048520801277
 40
7.601048520801277
 40
8.601048520801278
 40
9.601048520801278
 40
9.601048520801278
 40
9.601048520801278
 40
11.5071215684043
 40
11.5071215684043
 40
11.5071215684043
 40
12.5071215684043
 40
13.5071215684043
 40
13.5071215684043
 40
13.5071215684043
 40
14.5071215684043
 40
14.5071215684043
 40
14.5071215684043
 40
14.5071215684043
 10
9.121174714612721
 20
0.0464342937241398
 30
0.0
 41
1.0
 10
8.982460232474352
 20
-0.0046704069462463
 30
0.0
 41
0.9721094373123367
 10
8.834921839468715
 20
-0.0139343464337171
 30
0.0
 41
0.9721094373123367
 10
8.690904321992605
 20
0.0194176047167645
 30
0.0
 41
1.0
 10
8.661570139867365
 20
0.0259220443881603
 30
0.0
 41
1.0
 10
8.604229387238178
 20
0.0524302808729544
 30
0.0
 41
1.0
 10
8.574035396374285
 20
0.1088107572809491
 30
0.0
 41
1.0
 10
8.569913117770398
 20
0.1387896577957619
 30
0.0
 41
1.0
 10
8.06158463531358
 20
3.690889714730503
 30
0.0
 41
1.0
 10
7.553256152856818
 20
7.24298977166525
 30
0.0
 41
1.0
 10
7.0449276704
 20
10.7950898286
 30
0.0
 41
1.0
 10
7.022351331718085
 20
10.95588985979099
 30
0.0
 41
1.0
 10
6.880503920408955
 20
11.26955606887535
 30
0.0
 41
1.0
 10
6.568092503979756
 20
11.42211970489464
 30
0.0
 41
1.0
 10
6.404628470200009
 20
11.4309688414
 30
0.0
 41
1.0
 10
5.136470543133328
 20
11.51154806353333
 30
0.0
 41
1.0
 10
3.868312616066675
 20
11.59212728566666
 30
0.0
 41
1.0
 10
2.600154689000021
 20
11.6727065078
 30
0.0
 41
1.0
 10
2.404569597405896
 20
11.68649555360391
 30
0.0
 41
1.0
 10
2.024395812476087
 20
11.71563097134685
 30
0.0
 41
1.0
 10
1.627418383081192
 20
11.83708769624851
 30
0.0
 41
1.0
 10
1.538429866800016
 20
12.0259521466
 30
0.0
 41
1.0
 10
1.5
 20
12.13405388134616
 30
0.0
 41
1.0
 10
1.5
 20
12.26288735818819
 30
0.0
 41
1.0
 10
1.5
 20
12.3823878204
 30
0.0
 41
1.0
  0
ARC
  5
129
330
1F
100
AcDbEntity
  8
Default
100
AcDbCircle
 10
8.757131348005771
 20
1.448716245008569
 30
0.0
 40
1.025103421774425
100
AcDbArc
 50
256.9638703884699
 51
285.0035247000769
  0
ARC
  5
12A
330
1F
100
AcDbEntity
  8
Default
  6
Continuous
100
AcDbCircle
 10
8.726731154600003
 20
0.1741892561999947
 30
0.0
 40
0.1588641572
100
AcDbArc
 50
256.9666350997014
 51
257.6573789397012
  0
SPLINE
  5
12B
330
1F
100
AcDbEntity
  8
Default
  6
Continuous
100
AcDbSpline
210
0.0
220
0.0
230
1.0
 70
     8
 71
     3
 72
     8
 73
     4
 74
     0
 42
0.0000000001
 43
0.0000000001
 40
0.0
 40
0.0
 40
0.0
 40
0.0
 40
1.0
 40
1.0
 40
1.0
 40
1.0
 10
6.452187835800004
 20
12.1794593936
 30
0.0
 10
7.013852292882774
 20
12.15227922344901
 30
0.0
 10
7.522332609556088
 20
11.75044222425513
 30
0.0
 10
7.706197761999988
 20
11.2237207258
 30
0.0
  0
LINE
  5
12C
330
1F
100
AcDbEntity
  8
Default
  6
Continuous
100
AcDbLine
 10
2.647714054599987
 20
12.42119706
 30
0.0
 11
6.452187835800004
 21
12.1794593936
 31
0.0
  0
SPLINE
  5
12D
330
1F
100
AcDbEntity
  8
Default
  6
Continuous
100
AcDbSpline
210
0.0
220
0.0
230
1.0
 70
     8
 71
     3
 72
     8
 73
     4
 74
     0
 42
0.0000000001
 43
0.0000000001
 40
0.0
 40
0.0
 40
0.0
 40
0.0
 40
1.0
 40
1.0
 40
1.0
 40
1.0
 10
2.249683389399991
 20
12.4604920082
 30
0.0
 10
2.38166672838463
 20
12.44123496233938
 30
0.0
 10
2.514657934724994
 20
12.42983151063586
 30
0.0
 10
2.647714054599987
 20
12.42119706
 30
0.0
  0
LINE
  5
12E
330
1F
100
AcDbEntity
  8
Default
  6
Continuous
100
AcDbLine
 10
2.25
 20
12.1957070276
 30
0.0
 11
2.25
 21
12.7739601044
 31
0.0
  0
LINE
  5
12F
330
1F
100
AcDbEntity
  8
Default
  6
Continuous
100
AcDbLine
 10
8.52488060280001
 20
0.4534707745999995
 30
0.0
 11
8.525903455399998
 21
0.4500317667999951
 31
0.0
  0
SPLINE
  5
130
330
1F
100
AcDbEntity
  8
Default
100
AcDbSpline
210
0.0
220
0.0
230
1.0
 70
    12
 71
     3
 72
    29
 73
    25
 74
     0
 42
0.0000000001
 43
0.0000000001
 40
0.0
 40
0.0
 40
0.0
 40
0.0
 40
0.2186161258479055
 40
0.2186161258479055
 40
0.2186161258479055
 40
1.218616125847905
 40
2.218616125847905
 40
2.218616125847905
 40
2.218616125847905
 40
7.601048520801277
 40
7.601048520801277
 40
7.601048520801277
 40
8.601048520801278
 40
9.601048520801278
 40
9.601048520801278
 40
9.601048520801278
 40
11.5071215684043
 40
11.5071215684043
 40
11.5071215684043
 40
12.5071215684043
 40
13.5071215684043
 40
13.5071215684043
 40
13.5071215684043
 40
14.5071215684043
 40
14.5071215684043
 40
14.5071215684043
 40
14.5071215684043
 10
-9.121174714612692
 20
0.0464342937241398
 30
0.0
 41
1.0
 10
-8.982460232474352
 20
-0.0046704069462463
 30
0.0
 41
0.9721094373123367
 10
-8.8349218394687
 20
-0.0139343464337171
 30
0.0
 41
0.9721094373123367
 10
-8.690904321992619
 20
0.0194176047167645
 30
0.0
 41
1.0
 10
-8.66157013986735
 20
0.0259220443881603
 30
0.0
 41
1.0
 10
-8.604229387238178
 20
0.0524302808729544
 30
0.0
 41
1.0
 10
-8.574035396374285
 20
0.1088107572809491
 30
0.0
 41
1.0
 10
-8.569913117770398
 20
0.1387896577957619
 30
0.0
 41
1.0
 10
-8.061584635313594
 20
3.690889714730503
 30
0.0
 41
1.0
 10
-7.55325615285679
 20
7.24298977166525
 30
0.0
 41
1.0
 10
-7.0449276704
 20
10.7950898286
 30
0.0
 41
1.0
 10
-7.022351331718085
 20
10.95588985979099
 30
0.0
 41
1.0
 10
-6.880503920408955
 20
11.26955606887535
 30
0.0
 41
1.0
 10
-6.568092503979756
 20
11.42211970489464
 30
0.0
 41
1.0
 10
-6.404628470200009
 20
11.4309688414
 30
0.0
 41
1.0
 10
-5.136470543133328
 20
11.51154806353333
 30
0.0
 41
1.0
 10
-3.868312616066675
 20
11.59212728566666
 30
0.0
 41
1.0
 10
-2.600154689000021
 20
11.6727065078
 30
0.0
 41
1.0
 10
-2.404569597405896
 20
11.68649555360391
 30
0.0
 41
1.0
 10
-2.024395812476087
 20
11.71563097134685
 30
0.0
 41
1.0
 10
-1.627418383081192
 20
11.83708769624851
 30
0.0
 41
1.0
 10
-1.538429866800016
 20
12.0259521466
 30
0.0
 41
1.0
 10
-1.5
 20
12.13405388134616
 30
0.0
 41
1.0
 10
-1.5
 20
12.26288735818819
 30
0.0
 41
1.0
 10
-1.5
 20
12.3823878204
 30
0.0
 41
1.0
  0
ARC
  5
131
330
1F
100
AcDbEntity
  8
Default
100
AcDbCircle
 10
-8.757131348005743
 20
1.448716245008569
 30
0.0
 40
1.025103421774425
100
AcDbArc
 50
254.9964752999216
 51
283.0361296115287
  0
ARC
  5
132
330
1F
100
AcDbEntity
  8
Default
  6
Continuous
100
AcDbCircle
 10
-8.726731154600003
 20
0.1741892561999947
 30
0.0
 40
0.1588641572
100
AcDbArc
 50
282.3426210602988
 51
283.0333649002986
  0
SPLINE
  5
133
330
1F
100
AcDbEntity
  8
Default
  6
Continuous
100
AcDbSpline
210
0.0
220
0.0
230
1.0
 70
     8
 71
     3
 72
     8
 73
     4
 74
     0
 42
0.0000000001
 43
0.0000000001
 40
0.0
 40
0.0
 40
0.0
 40
0.0
 40
1.0
 40
1.0
 40
1.0
 40
1.0
 10
-6.452187835800004
 20
12.1794593936
 30
0.0
 10
-7.013852292882774
 20
12.15227922344901
 30
0.0
 10
-7.522332609556074
 20
11.75044222425513
 30
0.0
 10
-7.706197762000002
 20
11.2237207258
 30
0.0
  0
LINE
  5
134
330
1F
100
AcDbEntity
  8
Default
  6
Continuous
100
AcDbLine
 10
-2.647714054599987
 20
12.42119706
 30
0.0
 11
-6.452187835800004
 21
12.1794593936
 31
0.0
  0
SPLINE
  5
135
330
1F
100
AcDbEntity
  8
Default
  6
Continuous
100
AcDbSpline
210
0.0
220
0.0
230
1.0
 70
     8
 71
     3
 72
     8
 73
     4
 74
     0
 42
0.0000000001
 43
0.0000000001
 40
0.0
 40
0.0
 40
0.0
 40
0.0
 40
1.0
 40
1.0
 40
1.0
 40
1.0
 10
-2.249683389399991
 20
12.4604920082
 30
0.0
 10
-2.38166672838463
 20
12.44123496233938
 30
0.0
 10
-2.514657934724994
 20
12.42983151063586
 30
0.0
 10
-2.647714054599987
 20
12.42119706
 30
0.0
  0
LINE
  5
136
330
1F
100
AcDbEntity
  8
Default
  6
Continuous
100
AcDbLine
 10
1.5
 20
12.07234547279999
 30
0.0
 11
1.5
 21
12.7739601044
 31
0.0
  0
LINE
  5
137
330
1F
100
AcDbEntity
  8
Default
  6
Continuous
100
AcDbLine
 10
-1.5
 20
12.07234547279999
 30
0.0
 11
1.5
 21
12.07234547279999
 31
0.0
  0
LINE
  5
138
330
1F
100
AcDbEntity
  8
Default
  6
Continuous
100
AcDbLine
 10
-1.5
 20
12.7739601044
 30
0.0
 11
-1.5
 21
12.07234547279999
 31
0.0
  0
SPLINE
  5
139
330
1F
100
AcDbEntity
  8
Default
  6
Continuous
100
AcDbSpline
210
0.0
220
0.0
230
1.0
 70
     8
 71
     3
 72
     8
 73
     4
 74
     0
 42
0.0000000001
 43
0.0000000001
 40
-1.0
 40
-1.0
 40
-1.0
 40
-1.0
 40
0.0
 40
0.0
 40
0.0
 40
0.0
 10
-4.644153278200008
 20
12.8243745546
 30
0.0
 10
-4.325320361153047
 20
12.78479374639231
 30
0.0
 10
-4.003634684337555
 20
12.77498965675506
 30
0.0
 10
-3.682624604800026
 20
12.7739601044
 30
0.0
  0
LINE
  5
13A
330
1F
100
AcDbEntity
  8
Default
  6
Continuous
100
AcDbLine
 10
-7.158938160399998
 20
13.1548636386
 30
0.0
 11
-4.644153278200008
 21
12.8243745546
 31
0.0
  0
SPLINE
  5
13B
330
1F
100
AcDbEntity
  8
Default
  6
Continuous
100
AcDbSpline
210
0.0
220
0.0
230
1.0
 70
     8
 71
     3
 72
     8
 73
     4
 74
     0
 42
0.0000000001
 43
0.0000000001
 40
-1.0
 40
-1.0
 40
-1.0
 40
-1.0
 40
0.0
 40
0.0
 40
0.0
 40
0.0
 10
-7.543902794400012
 20
12.5475704116
 30
0.0
 10
-7.506417465058178
 20
12.78387911788908
 30
0.0
 10
-7.428156015789639
 20
13.10382974174079
 30
0.0
 10
-7.158938160399998
 20
13.1548636386
 30
0.0
  0
LINE
  5
13C
330
1F
100
AcDbEntity
  8
Default
  6
Continuous
100
AcDbLine
 10
-9.061054887157113
 20
0.1433212697947468
 30
0.0
 11
-7.543902794400012
 21
12.5475704116
 31
0.0
  0
SPLINE
  5
13D
330
1F
100
AcDbEntity
  8
Default
  6
Continuous
100
AcDbSpline
210
0.0
220
0.0
230
1.0
 70
     8
 71
     3
 72
     8
 73
     4
 74
     0
 42
0.0000000001
 43
0.0000000001
 40
0.0
 40
0.0
 40
0.0
 40
0.0
 40
1.0
 40
1.0
 40
1.0
 40
1.0
 10
-9.181752197841206
 20
0.0203519791466107
 30
0.0
 10
-9.122094027358798
 20
0.0324695539887756
 30
0.0
 10
-9.067412288560007
 20
0.0805846597448436
 30
0.0
 10
-9.061054887157113
 20
0.1433212697947468
 30
0.0
  0
ARC
  5
13E
330
1F
100
AcDbEntity
  8
Default
  6
Continuous
100
AcDbCircle
 10
-9.364529513000008
 20
0.7509611493999984
 30
0.0
 40
0.7531250271999999
100
AcDbArc
 50
242.0082091121002
 51
284.0454708732003
  0
SPLINE
  5
13F
330
1F
100
AcDbEntity
  8
Default
  6
Continuous
100
AcDbSpline
210
0.0
220
0.0
230
1.0
 70
     8
 71
     3
 72
     8
 73
     4
 74
     0
 42
0.0000000001
 43
0.0000000001
 40
0.0
 40
0.0
 40
0.0
 40
0.0
 40
1.0
 40
1.0
 40
1.0
 40
1.0
 10
-9.805507237554536
 20
0.2343745393944374
 30
0.0
 10
-9.81446074628552
 20
0.1719531853404064
 30
0.0
 10
-9.772980309694361
 20
0.1120819932300776
 30
0.0
 10
-9.718005018609205
 20
0.0859405681174934
 30
0.0
  0
LINE
  5
140
330
1F
100
AcDbEntity
  8
Default
  6
Continuous
100
AcDbLine
 10
-8.288355145000011
 20
12.6386236812
 30
0.0
 11
-9.805507237554536
 21
0.2343745393944374
 31
0.0
  0
SPLINE
  5
141
330
1F
100
AcDbEntity
  8
Default
  6
Continuous
100
AcDbSpline
210
0.0
220
0.0
230
1.0
 70
     8
 71
     3
 72
    10
 73
     6
 74
     0
 42
0.0000000001
 43
0.0000000001
 40
0.0
 40
0.0
 40
0.0
 40
0.0
 40
1.0
 40
2.0
 40
3.0
 40
3.0
 40
3.0
 40
3.0
 10
-7.061214606600004
 20
13.8984697892
 30
0.0
 10
-7.277881604030341
 20
13.92939112242976
 30
0.0
 10
-7.72419258899258
 20
13.80855428556643
 30
0.0
 10
-8.14522020674059
 20
13.27963776066536
 30
0.0
 10
-8.2615218173421
 20
12.85451063725132
 30
0.0
 10
-8.288355145000011
 20
12.6386236812
 30
0.0
  0
LINE
  5
142
330
1F
100
AcDbEntity
  8
Default
  6
Continuous
100
AcDbLine
 10
-4.546429724400014
 20
13.567980705
 30
0.0
 11
-7.061214606600004
 21
13.8984697892
 31
0.0
  0
SPLINE
  5
143
330
1F
100
AcDbEntity
  8
Default
  6
Continuous
100
AcDbSpline
210
0.0
220
0.0
230
1.0
 70
     8
 71
     3
 72
     8
 73
     4
 74
     0
 42
0.0000000001
 43
0.0000000001
 40
0.0
 40
0.0
 40
0.0
 40
0.0
 40
1.0
 40
1.0
 40
1.0
 40
1.0
 10
-3.682624604800026
 20
13.5239601044
 30
0.0
 10
-3.970978054395232
 20
13.52496237070009
 30
0.0
 10
-4.259952822576622
 20
13.53305018617114
 30
0.0
 10
-4.546429724400014
 20
13.567980705
 30
0.0
  0
LINE
  5
144
330
1F
100
AcDbEntity
  8
Default
  6
Continuous
100
AcDbLine
 10
3.682624604800026
 20
13.5239601044
 30
0.0
 11
-3.682624604800026
 21
13.5239601044
 31
0.0
  0
SPLINE
  5
145
330
1F
100
AcDbEntity
  8
Default
  6
Continuous
100
AcDbSpline
210
0.0
220
0.0
230
1.0
 70
     8
 71
     3
 72
     8
 73
     4
 74
     0
 42
0.0000000001
 43
0.0000000001
 40
-1.0
 40
-1.0
 40
-1.0
 40
-1.0
 40
0.0
 40
0.0
 40
0.0
 40
0.0
 10
4.546429724400014
 20
13.567980705
 30
0.0
 10
4.259952822576622
 20
13.53305018617114
 30
0.0
 10
3.970978054395232
 20
13.52496237070009
 30
0.0
 10
3.682624604800026
 20
13.5239601044
 30
0.0
  0
LINE
  5
146
330
1F
100
AcDbEntity
  8
Default
  6
Continuous
100
AcDbLine
 10
7.061214606600004
 20
13.8984697892
 30
0.0
 11
4.546429724400014
 21
13.567980705
 31
0.0
  0
SPLINE
  5
147
330
1F
100
AcDbEntity
  8
Default
  6
Continuous
100
AcDbSpline
210
0.0
220
0.0
230
1.0
 70
     8
 71
     3
 72
    10
 73
     6
 74
     0
 42
0.0000000001
 43
0.0000000001
 40
-3.0
 40
-3.0
 40
-3.0
 40
-3.0
 40
-2.0
 40
-1.0
 40
0.0
 40
0.0
 40
0.0
 40
0.0
 10
8.288355145000025
 20
12.6386236812
 30
0.0
 10
8.2615218173421
 20
12.85451063725132
 30
0.0
 10
8.14522020674059
 20
13.27963776066536
 30
0.0
 10
7.724192588992594
 20
13.80855428556643
 30
0.0
 10
7.277881604030341
 20
13.92939112242976
 30
0.0
 10
7.061214606600004
 20
13.8984697892
 30
0.0
  0
LINE
  5
148
330
1F
100
AcDbEntity
  8
Default
  6
Continuous
100
AcDbLine
 10
9.805507237554536
 20
0.2343745393944374
 30
0.0
 11
8.288355145000025
 21
12.6386236812
 31
0.0
  0
SPLINE
  5
149
330
1F
100
AcDbEntity
  8
Default
  6
Continuous
100
AcDbSpline
210
0.0
220
0.0
230
1.0
 70
     8
 71
     3
 72
     8
 73
     4
 74
     0
 42
0.0000000001
 43
0.0000000001
 40
-1.0
 40
-1.0
 40
-1.0
 40
-1.0
 40
0.0
 40
0.0
 40
0.0
 40
0.0
 10
9.718005018609205
 20
0.0859405681174934
 30
0.0
 10
9.77298030969439
 20
0.1120819932300776
 30
0.0
 10
9.814460746285533
 20
0.1719531853404064
 30
0.0
 10
9.805507237554536
 20
0.2343745393944374
 30
0.0
  0
ARC
  5
14A
330
1F
100
AcDbEntity
  8
Default
  6
Continuous
100
AcDbCircle
 10
9.364529513000008
 20
0.7509611493999984
 30
0.0
 40
0.7531250271999999
100
AcDbArc
 50
255.9545291268007
 51
297.9917908879007
  0
SPLINE
  5
14B
330
1F
100
AcDbEntity
  8
Default
  6
Continuous
100
AcDbSpline
210
0.0
220
0.0
230
1.0
 70
     8
 71
     3
 72
     8
 73
     4
 74
     0
 42
0.0000000001
 43
0.0000000001
 40
-1.0
 40
-1.0
 40
-1.0
 40
-1.0
 40
0.0
 40
0.0
 40
0.0
 40
0.0
 10
9.061054887157127
 20
0.1433212697947468
 30
0.0
 10
9.067412288560035
 20
0.0805846597448436
 30
0.0
 10
9.122094027358798
 20
0.0324695539887756
 30
0.0
 10
9.181752197841206
 20
0.0203519791466107
 30
0.0
  0
LINE
  5
14C
330
1F
100
AcDbEntity
  8
Default
  6
Continuous
100
AcDbLine
 10
7.543902794400026
 20
12.5475704116
 30
0.0
 11
9.061054887157127
 21
0.1433212697947468
 31
0.0
  0
SPLINE
  5
14D
330
1F
100
AcDbEntity
  8
Default
  6
Continuous
100
AcDbSpline
210
0.0
220
0.0
230
1.0
 70
     8
 71
     3
 72
     8
 73
     4
 74
     0
 42
0.0000000001
 43
0.0000000001
 40
0.0
 40
0.0
 40
0.0
 40
0.0
 40
1.0
 40
1.0
 40
1.0
 40
1.0
 10
7.158938160399998
 20
13.1548636386
 30
0.0
 10
7.428156015789625
 20
13.10382974174079
 30
0.0
 10
7.506417465058178
 20
12.78387911788908
 30
0.0
 10
7.543902794400026
 20
12.5475704116
 30
0.0
  0
LINE
  5
14E
330
1F
100
AcDbEntity
  8
Default
  6
Continuous
100
AcDbLine
 10
4.644153278200008
 20
12.8243745546
 30
0.0
 11
7.158938160399998
 21
13.1548636386
 31
0.0
  0
SPLINE
  5
14F
330
1F
100
AcDbEntity
  8
Default
  6
Continuous
100
AcDbSpline
210
0.0
220
0.0
230
1.0
 70
     8
 71
     3
 72
     8
 73
     4
 74
     0
 42
0.0000000001
 43
0.0000000001
 40
0.0
 40
0.0
 40
0.0
 40
0.0
 40
1.0
 40
1.0
 40
1.0
 40
1.0
 10
3.682624604800026
 20
12.7739601044
 30
0.0
 10
4.003634684337555
 20
12.77498965675506
 30
0.0
 10
4.325320361153047
 20
12.78479374639231
 30
0.0
 10
4.644153278200008
 20
12.8243745546
 30
0.0
  0
LINE
  5
150
330
1F
100
AcDbEntity
  8
Default
  6
Continuous
100
AcDbLine
 10
-3.682624604800026
 20
12.7739601044
 30
0.0
 11
3.682624604800026
 21
12.7739601044
 31
0.0
  0
ARC
  5
151
330
1F
100
AcDbEntity
  8
Default
100
AcDbCircle
 10
9.51228175044821
 20
-0.4580664675388846
 30
0.0
 40
1.039268725609891
100
AcDbArc
 50
75.81532619895216
 51
118.1165808784191
  0
ARC
  5
152
330
1F
100
AcDbEntity
  8
Default
100
AcDbCircle
 10
-9.512281750448238
 20
-0.4580664675388846
 30
0.0
 40
1.039268725609891
100
AcDbArc
 50
61.88341912157922
 51
104.1846738010461
  0
LINE
  5
153
330
1F
100
AcDbEntity
  8
Default
  6
Continuous
100
AcDbLine
 10
-1.5
 20
12.3823878204
 30
0.0
 11
1.5
 21
12.3823878204
 31
0.0
  0
LINE
  5
154
330
1F
100
AcDbEntity
  8
Default
  6
Continuous
100
AcDbLine
 10
-2.25
 20
12.1957070276
 30
0.0
 11
-2.25
 21
12.7739601044
 31
0.0
  0
LINE
  5
155
330
1F
100
AcDbEntity
  8
Default
  6
Continuous
100
AcDbLine
 10
-2.25
 20
12.1957070276
 30
0.0
 11
-2.249968933200023
 21
12.19091808
 31
0.0
  0
LINE
  5
156
330
1F
100
AcDbEntity
  8
Default
  6
Continuous
100
AcDbLine
 10
-8.52488060280001
 20
0.4534707745999995
 30
0.0
 11
-8.525903455399998
 21
0.4500317667999951
 31
0.0
  0
ENDSEC
  0
SECTION
  2
OBJECTS
  0
DICTIONARY
  5
C
330
0
100
AcDbDictionary
281
     1
  3
ACAD_GROUP
350
D
  3
ACAD_LAYOUT
350
1A
  3
ACAD_MLEADERSTYLE
350
158
  3
ACAD_MLINESTYLE
350
17
  3
ACAD_PLOTSETTINGS
350
19
  3
ACAD_PLOTSTYLENAME
350
E
  3
ACAD_TABLESTYLE
350
157
  3
ACAD_VISUALSTYLE
350
2A
  0
DICTIONARY
  5
D
102
{ACAD_REACTORS
330
C
102
}
330
C
100
AcDbDictionary
281
     1
  0
DICTIONARY
  5
1A
102
{ACAD_REACTORS
330
C
102
}
330
C
100
AcDbDictionary
281
     1
  3
Layout1
350
1E
  3
Layout2
350
26
  3
Model
350
22
  0
DICTIONARY
  5
158
102
{ACAD_REACTORS
330
C
102
}
330
C
100
AcDbDictionary
281
     1
  0
DICTIONARY
  5
17
102
{ACAD_REACTORS
330
C
102
}
330
C
100
AcDbDictionary
281
     1
  3
Standard
350
18
  0
DICTIONARY
  5
19
102
{ACAD_REACTORS
330
C
102
}
330
C
100
AcDbDictionary
281
     1
  0
ACDBDICTIONARYWDFLT
  5
E
102
{ACAD_REACTORS
330
C
102
}
330
C
100
AcDbDictionary
281
     1
  3
Normal
350
F
100
AcDbDictionaryWithDefault
340
F
  0
DICTIONARY
  5
157
102
{ACAD_REACTORS
330
C
102
}
330
C
100
AcDbDictionary
281
     1
  0
DICTIONARY
  5
2A
102
{ACAD_REACTORS
330
C
102
}
330
C
100
AcDbDictionary
281
     1
  3
2dWireframe
350
2F
  3
3D Hidden
350
31
  3
3dWireframe
350
30
  3
Basic
350
32
  3
Brighten
350
36
  3
ColorChange
350
3A
  3
Conceptual
350
34
  3
Dim
350
35
  3
Facepattern
350
39
  3
Flat
350
2B
  3
FlatWithEdges
350
2C
  3
Gouraud
350
2D
  3
GouraudWithEdges
350
2E
  3
Linepattern
350
38
  3
Realistic
350
33
  3
Thicken
350
37
  0
LAYOUT
  5
1E
102
{ACAD_REACTORS
330
1A
102
}
330
1A
100
AcDbPlotSettings
  1

  2
none_device
  4

  6

 40
0.0
 41
0.0
 42
0.0
 43
0.0
 44
0.0
 45
0.0
 46
0.0
 47
0.0
 48
0.0
 49
0.0
140
0.0
141
0.0
142
1.0
143
1.0
 70
   688
 72
     0
 73
     0
 74
     5
  7

 75
    16
 76
     0
 77
     2
 78
   300
147
1.0
148
0.0
149
0.0
100
AcDbLayout
  1
Layout1
 70
     1
 71
     1
 10
0.0
 20
0.0
 11
12.0
 21
9.0
 12
0.0
 22
0.0
 32
0.0
 14
1.000000000000000E+20
 24
1.000000000000000E+20
 34
1.000000000000000E+20
 15
-1.000000000000000E+20
 25
-1.000000000000000E+20
 35
-1.000000000000000E+20
146
0.0
 13
0.0
 23
0.0
 33
0.0
 16
1.0
 26
0.0
 36
0.0
 17
0.0
 27
1.0
 37
0.0
 76
     0
330
1B
  0
LAYOUT
  5
26
102
{ACAD_REACTORS
330
1A
102
}
330
1A
100
AcDbPlotSettings
  1

  2
none_device
  4

  6

 40
0.0
 41
0.0
 42
0.0
 43
0.0
 44
0.0
 45
0.0
 46
0.0
 47
0.0
 48
0.0
 49
0.0
140
0.0
141
0.0
142
1.0
143
1.0
 70
   688
 72
     0
 73
     0
 74
     5
  7

 75
    16
 76
     0
 77
     2
 78
   300
147
1.0
148
0.0
149
0.0
100
AcDbLayout
  1
Layout2
 70
     1
 71
     2
 10
0.0
 20
0.0
 11
0.0
 21
0.0
 12
0.0
 22
0.0
 32
0.0
 14
0.0
 24
0.0
 34
0.0
 15
0.0
 25
0.0
 35
0.0
146
0.0
 13
0.0
 23
0.0
 33
0.0
 16
1.0
 26
0.0
 36
0.0
 17
0.0
 27
1.0
 37
0.0
 76
     0
330
23
  0
LAYOUT
  5
22
102
{ACAD_REACTORS
330
1A
102
}
330
1A
100
AcDbPlotSettings
  1

  2
none_device
  4

  6

 40
0.0
 41
0.0
 42
0.0
 43
0.0
 44
0.0
 45
0.0
 46
0.0
 47
0.0
 48
0.0
 49
0.0
140
0.0
141
0.0
142
1.0
143
1.0
 70
  1712
 72
     0
 73
     0
 74
     0
  7

 75
     0
 76
     0
 77
     2
 78
   300
147
1.0
148
0.0
149
0.0
100
AcDbLayout
  1
Model
 70
     1
 71
     0
 10
0.0
 20
0.0
 11
12.0
 21
9.0
 12
0.0
 22
0.0
 32
0.0
 14
-13.53790934395953
 24
-0.0021638778000016
 34
0.0
 15
45.43867045267852
 25
65.92728661845096
 35
0.0
146
0.0
 13
0.0
 23
0.0
 33
0.0
 16
1.0
 26
0.0
 36
0.0
 17
0.0
 27
1.0
 37
0.0
 76
     0
330
1F
331
29
  0
MLINESTYLE
  5
18
102
{ACAD_REACTORS
330
17
102
}
330
17
100
AcDbMlineStyle
  2
Standard
 70
     0
  3

 62
   256
 51
90.0
 52
90.0
 71
     2
 49
0.5
 62
   256
  6
BYLAYER
 49
-0.5
 62
   256
  6
BYLAYER
  0
ACDBPLACEHOLDER
  5
F
102
{ACAD_REACTORS
330
E
102
}
330
E
  0
VISUALSTYLE
  5
2F
102
{ACAD_REACTORS
330
2A
102
}
330
2A
100
AcDbVisualStyle
  2
2dWireframe
 70
     4
 71
     0
 72
     2
 73
     0
 90
        0
 40
-0.6
 41
-30.0
 62
     5
 63
     7
421
 16777215
 74
     1
 91
        4
 64
     7
 65
   257
 75
     1
175
     1
 42
1.0
 92
        0
 66
   257
 43
1.0
 76
     1
 77
     6
 78
     2
 67
     7
 79
     5
170
     0
171
     0
290
     0
174
     0
 93
        1
 44
0.0
173
     0
291
     0
 45
0.0
1001
ACAD
1000
AcDbSavedByObjectVersion
1070
     0
  0
VISUALSTYLE
  5
31
102
{ACAD_REACTORS
330
2A
102
}
330
2A
100
AcDbVisualStyle
  2
3D Hidden
 70
     6
 71
     1
 72
     2
 73
     2
 90
        0
 40
-0.6
 41
-30.0
 62
     5
 63
     7
421
 16777215
 74
     2
 91
        2
 64
     7
 65
   257
 75
     2
175
     1
 42
40.0
 92
        0
 66
   257
 43
1.0
 76
     1
 77
     6
 78
     2
 67
     7
 79
     3
170
     0
171
     0
290
     0
174
     0
 93
        1
 44
0.0
173
     0
291
     0
 45
0.0
1001
ACAD
1000
AcDbSavedByObjectVersion
1070
     0
  0
VISUALSTYLE
  5
30
102
{ACAD_REACTORS
330
2A
102
}
330
2A
100
AcDbVisualStyle
  2
3dWireframe
 70
     5
 71
     0
 72
     2
 73
     0
 90
        0
 40
-0.6
 41
-30.0
 62
     5
 63
     7
421
 16777215
 74
     1
 91
        4
 64
     7
 65
   257
 75
     1
175
     1
 42
1.0
 92
        0
 66
   257
 43
1.0
 76
     1
 77
     6
 78
     2
 67
     7
 79
     5
170
     0
171
     0
290
     0
174
     0
 93
        1
 44
0.0
173
     0
291
     0
 45
0.0
1001
ACAD
1000
AcDbSavedByObjectVersion
1070
     0
  0
VISUALSTYLE
  5
32
102
{ACAD_REACTORS
330
2A
102
}
330
2A
100
AcDbVisualStyle
  2
Basic
 70
     7
 71
     1
 72
     0
 73
     1
 90
        0
 40
-0.6
 41
-30.0
 62
     5
 63
     7
421
 16777215
 74
     0
 91
        4
 64
     7
 65
   257
 75
     1
175
     1
 42
1.0
 92
        8
 66
     7
 43
1.0
 76
     1
 77
     6
 78
     2
 67
     7
 79
     5
170
     0
171
     0
290
     0
174
     0
 93
        1
 44
0.0
173
     0
291
     1
 45
0.0
1001
ACAD
1000
AcDbSavedByObjectVersion
1070
     0
  0
VISUALSTYLE
  5
36
102
{ACAD_REACTORS
330
2A
102
}
330
2A
100
AcDbVisualStyle
  2
Brighten
 70
    12
 71
     2
 72
     2
 73
     0
 90
        0
 40
-0.6
 41
-30.0
 62
     5
 63
     7
421
 16777215
 74
     1
 91
        4
 64
     7
 65
   257
 75
     1
175
     1
 42
1.0
 92
        8
 66
     7
 43
1.0
 76
     1
 77
     6
 78
     2
 67
     7
 79
     5
170
     0
171
     0
290
     0
174
     0
 93
        1
 44
50.0
173
     0
291
     1
 45
0.0
1001
ACAD
1000
AcDbSavedByObjectVersion
1070
     0
  0
VISUALSTYLE
  5
3A
102
{ACAD_REACTORS
330
2A
102
}
330
2A
100
AcDbVisualStyle
  2
ColorChange
 70
    16
 71
     2
 72
     2
 73
     3
 90
        0
 40
-0.6
 41
-30.0
 62
     5
 63
     8
421
  8421504
 74
     1
 91
        4
 64
     7
 65
   257
 75
     1
175
     1
 42
1.0
 92
        8
 66
     8
424
  8421504
 43
1.0
 76
     1
 77
     6
 78
     2
 67
     7
 79
     5
170
     0
171
     0
290
     0
174
     0
 93
        1
 44
0.0
173
     0
291
     1
 45
0.0
1001
ACAD
1000
AcDbSavedByObjectVersion
1070
     0
  0
VISUALSTYLE
  5
34
102
{ACAD_REACTORS
330
2A
102
}
330
2A
100
AcDbVisualStyle
  2
Conceptual
 70
     9
 71
     3
 72
     2
 73
     0
 90
        0
 40
-0.6
 41
-30.0
 62
     5
 63
     7
421
 16777215
 74
     2
 91
        2
 64
     7
 65
   257
 75
     1
175
     1
 42
40.0
 92
        8
 66
     7
 43
1.0
 76
     1
 77
     6
 78
     2
 67
     7
 79
     3
170
     0
171
     0
290
     0
174
     0
 93
        1
 44
0.0
173
     0
291
     0
 45
0.0
1001
ACAD
1000
AcDbSavedByObjectVersion
1070
     0
  0
VISUALSTYLE
  5
35
102
{ACAD_REACTORS
330
2A
102
}
330
2A
100
AcDbVisualStyle
  2
Dim
 70
    11
 71
     2
 72
     2
 73
     0
 90
        0
 40
-0.6
 41
-30.0
 62
     5
 63
     7
421
 16777215
 74
     1
 91
        4
 64
     7
 65
   257
 75
     1
175
     1
 42
1.0
 92
        8
 66
     7
 43
1.0
 76
     1
 77
     6
 78
     2
 67
     7
 79
     5
170
     0
171
     0
290
     0
174
     0
 93
        1
 44
-50.0
173
     0
291
     1
 45
0.0
1001
ACAD
1000
AcDbSavedByObjectVersion
1070
     0
  0
VISUALSTYLE
  5
39
102
{ACAD_REACTORS
330
2A
102
}
330
2A
100
AcDbVisualStyle
  2
Facepattern
 70
    15
 71
     2
 72
     2
 73
     0
 90
        0
 40
-0.6
 41
-30.0
 62
     5
 63
     7
421
 16777215
 74
     1
 91
        4
 64
     7
 65
   257
 75
     1
175
     1
 42
1.0
 92
        8
 66
     7
 43
1.0
 76
     1
 77
     6
 78
     2
 67
     7
 79
     5
170
     0
171
     0
290
     0
174
     0
 93
        1
 44
0.0
173
     0
291
     1
 45
0.0
1001
ACAD
1000
AcDbSavedByObjectVersion
1070
     0
  0
VISUALSTYLE
  5
2B
102
{ACAD_REACTORS
330
2A
102
}
330
2A
100
AcDbVisualStyle
  2
Flat
 70
     0
 71
     2
 72
     1
 73
     1
 90
        2
 40
-0.6
 41
30.0
 62
     5
 63
     7
421
 16777215
 74
     0
 91
        4
 64
     7
 65
   257
 75
     1
175
     1
 42
1.0
 92
        8
 66
     7
 43
1.0
 76
     1
 77
     6
 78
     2
 67
     7
 79
     5
170
     0
171
     0
290
     0
174
     0
 93
       13
 44
0.0
173
     0
291
     1
 45
0.0
1001
ACAD
1000
AcDbSavedByObjectVersion
1070
     0
  0
VISUALSTYLE
  5
2C
102
{ACAD_REACTORS
330
2A
102
}
330
2A
100
AcDbVisualStyle
  2
FlatWithEdges
 70
     1
 71
     2
 72
     1
 73
     1
 90
        2
 40
-0.6
 41
30.0
 62
     5
 63
     7
421
 16777215
 74
     1
 91
        4
 64
     7
 65
   257
 75
     1
175
     1
 42
1.0
 92
        0
 66
   257
 43
1.0
 76
     1
 77
     6
 78
     2
 67
     7
 79
     5
170
     0
171
     0
290
     0
174
     0
 93
       13
 44
0.0
173
     0
291
     1
 45
0.0
1001
ACAD
1000
AcDbSavedByObjectVersion
1070
     0
  0
VISUALSTYLE
  5
2D
102
{ACAD_REACTORS
330
2A
102
}
330
2A
100
AcDbVisualStyle
  2
Gouraud
 70
     2
 71
     2
 72
     2
 73
     1
 90
        2
 40
-0.6
 41
30.0
 62
     5
 63
     7
421
 16777215
 74
     0
 91
        4
 64
     7
 65
   257
 75
     1
175
     1
 42
1.0
 92
        0
 66
     7
 43
1.0
 76
     1
 77
     6
 78
     2
 67
     7
 79
     5
170
     0
171
     0
290
     0
174
     0
 93
       13
 44
0.0
173
     0
291
     1
 45
0.0
1001
ACAD
1000
AcDbSavedByObjectVersion
1070
     0
  0
VISUALSTYLE
  5
2E
102
{ACAD_REACTORS
330
2A
102
}
330
2A
100
AcDbVisualStyle
  2
GouraudWithEdges
 70
     3
 71
     2
 72
     2
 73
     1
 90
        2
 40
-0.6
 41
30.0
 62
     5
 63
     7
421
 16777215
 74
     1
 91
        4
 64
     7
 65
   257
 75
     1
175
     1
 42
1.0
 92
        0
 66
   257
 43
1.0
 76
     1
 77
     6
 78
     2
 67
     7
 79
     5
170
     0
171
     0
290
     0
174
     0
 93
       13
 44
0.0
173
     0
291
     1
 45
0.0
1001
ACAD
1000
AcDbSavedByObjectVersion
1070
     0
  0
VISUALSTYLE
  5
38
102
{ACAD_REACTORS
330
2A
102
}
330
2A
100
AcDbVisualStyle
  2
Linepattern
 70
    14
 71
     2
 72
     2
 73
     0
 90
        0
 40
-0.6
 41
-30.0
 62
     5
 63
     7
421
 16777215
 74
     1
 91
        4
 64
     7
 65
   257
 75
     7
175
     7
 42
1.0
 92
        8
 66
     7
 43
1.0
 76
     1
 77
     6
 78
     2
 67
     7
 79
     5
170
     0
171
     0
290
     0
174
     0
 93
        1
 44
0.0
173
     0
291
     1
 45
0.0
1001
ACAD
1000
AcDbSavedByObjectVersion
1070
     0
  0
VISUALSTYLE
  5
33
102
{ACAD_REACTORS
330
2A
102
}
330
2A
100
AcDbVisualStyle
  2
Realistic
 70
     8
 71
     2
 72
     2
 73
     0
 90
        0
 40
-0.6
 41
-30.0
 62
     5
 63
     7
421
 16777215
 74
     1
 91
        0
 64
     7
 65
   257
 75
     1
175
     1
 42
1.0
 92
        8
 66
     8
424
  7895160
 43
1.0
 76
     1
 77
     6
 78
     2
 67
     7
 79
     5
170
     0
171
     0
290
     0
174
     0
 93
       13
 44
0.0
173
     0
291
     0
 45
0.0
1001
ACAD
1000
AcDbSavedByObjectVersion
1070
     0
  0
VISUALSTYLE
  5
37
102
{ACAD_REACTORS
330
2A
102
}
330
2A
100
AcDbVisualStyle
  2
Thicken
 70
    13
 71
     2
 72
     2
 73
     0
 90
        0
 40
-0.6
 41
-30.0
 62
     5
 63
     7
421
 16777215
 74
     1
 91
        4
 64
     7
 65
   257
 75
     1
175
     1
 42
1.0
 92
       12
 66
     7
 43
1.0
 76
     1
 77
     6
 78
     2
 67
     7
 79
     5
170
     0
171
     0
290
     0
174
     0
 93
        1
 44
0.0
173
     0
291
     1
 45
0.0
1001
ACAD
1000
AcDbSavedByObjectVersion
1070
     0
  0
ENDSEC
  0
EOF
