  0
SECTION
  2
HEADER
  9
$ACADVER
  1
AC1018
  9
$ACADMAINTVER
 70
     0
  9
$DWGCODEPAGE
  3
ANSI_1252
  9
$INSBASE
 10
0.0
 20
0.0
 30
0.0
  9
$EXTMIN
 10
-13.53790934395953
 20
-0.0000000000000004
 30
0.0
  9
$EXTMAX
 10
45.68268094607193
 20
65.92728661845096
 30
0.0
  9
$LIMMIN
 10
0.0
 20
0.0
  9
$LIMMAX
 10
12.0
 20
9.0
  9
$ORTHOMODE
 70
     0
  9
$REGENMODE
 70
     1
  9
$FILLMODE
 70
     1
  9
$QTEXTMODE
 70
     0
  9
$MIRRTEXT
 70
     1
  9
$LTSCALE
 40
0.0393700787401575
  9
$ATTMODE
 70
     1
  9
$TEXTSIZE
 40
0.2
  9
$TRACEWID
 40
0.05
  9
$TEXTSTYLE
  7
Standard
  9
$CLAYER
  8
Default
  9
$CELTYPE
  6
ByLayer
  9
$CECOLOR
 62
   256
  9
$CELTSCALE
 40
1.0
  9
$DISPSILH
 70
     0
  9
$DIMSCALE
 40
1.0
  9
$DIMASZ
 40
0.18
  9
$DIMEXO
 40
0.0625
  9
$DIMDLI
 40
0.38
  9
$DIMRND
 40
0.0
  9
$DIMDLE
 40
0.0
  9
$DIMEXE
 40
0.18
  9
$DIMTP
 40
0.0
  9
$DIMTM
 40
0.0
  9
$DIMTXT
 40
0.18
  9
$DIMCEN
 40
0.09
  9
$DIMTSZ
 40
0.0
  9
$DIMTOL
 70
     0
  9
$DIMLIM
 70
     0
  9
$DIMTIH
 70
     1
  9
$DIMTOH
 70
     1
  9
$DIMSE1
 70
     0
  9
$DIMSE2
 70
     0
  9
$DIMTAD
 70
     0
  9
$DIMZIN
 70
     0
  9
$DIMBLK
  1

  9
$DIMASO
 70
     1
  9
$DIMSHO
 70
     1
  9
$DIMPOST
  1

  9
$DIMAPOST
  1

  9
$DIMALT
 70
     0
  9
$DIMALTD
 70
     2
  9
$DIMALTF
 40
25.4
  9
$DIMLFAC
 40
1.0
  9
$DIMTOFL
 70
     0
  9
$DIMTVP
 40
0.0
  9
$DIMTIX
 70
     0
  9
$DIMSOXD
 70
     0
  9
$DIMSAH
 70
     0
  9
$DIMBLK1
  1

  9
$DIMBLK2
  1

  9
$DIMSTYLE
  2
Standard
  9
$DIMCLRD
 70
     0
  9
$DIMCLRE
 70
     0
  9
$DIMCLRT
 70
     0
  9
$DIMTFAC
 40
1.0
  9
$DIMGAP
 40
0.09
  9
$DIMJUST
 70
     0
  9
$DIMSD1
 70
     0
  9
$DIMSD2
 70
     0
  9
$DIMTOLJ
 70
     1
  9
$DIMTZIN
 70
     0
  9
$DIMALTZ
 70
     0
  9
$DIMALTTZ
 70
     0
  9
$DIMUPT
 70
     0
  9
$DIMDEC
 70
     4
  9
$DIMTDEC
 70
     4
  9
$DIMALTU
 70
     2
  9
$DIMALTTD
 70
     2
  9
$DIMTXSTY
  7
Standard
  9
$DIMAUNIT
 70
     0
  9
$DIMADEC
 70
     0
  9
$DIMALTRND
 40
0.0
  9
$DIMAZIN
 70
     0
  9
$DIMDSEP
 70
    46
  9
$DIMATFIT
 70
     3
  9
$DIMFRAC
 70
     0
  9
$DIMLDRBLK
  1

  9
$DIMLUNIT
 70
     2
  9
$DIMLWD
 70
    -2
  9
$DIMLWE
 70
    -2
  9
$DIMTMOVE
 70
     2
  9
$LUNITS
 70
     2
  9
$LUPREC
 70
     4
  9
$SKETCHINC
 40
0.1
  9
$FILLETRAD
 40
0.5
  9
$AUNITS
 70
     0
  9
$AUPREC
 70
     0
  9
$MENU
  1
.
  9
$ELEVATION
 40
0.0
  9
$PELEVATION
 40
0.0
  9
$THICKNESS
 40
0.0
  9
$LIMCHECK
 70
     0
  9
$CHAMFERA
 40
0.5
  9
$CHAMFERB
 40
0.5
  9
$CHAMFERC
 40
1.0
  9
$CHAMFERD
 40
0.0
  9
$SKPOLY
 70
     0
  9
$TDCREATE
 40
2457493.513105671
  9
$TDUCREATE
 40
2457493.679772338
  9
$TDUPDATE
 40
2457493.513105683
  9
$TDUUPDATE
 40
2457493.67977235
  9
$TDINDWG
 40
0.0000000116
  9
$TDUSRTIMER
 40
0.0000000116
  9
$USRTIMER
 70
     1
  9
$ANGBASE
 50
0.0
  9
$ANGDIR
 70
     0
  9
$PDMODE
 70
     0
  9
$PDSIZE
 40
0.0
  9
$PLINEWID
 40
0.0
  9
$SPLFRAME
 70
     0
  9
$SPLINETYPE
 70
     6
  9
$SPLINESEGS
 70
     8
  9
$HANDSEED
  5
175
  9
$SURFTAB1
 70
     6
  9
$SURFTAB2
 70
     6
  9
$SURFTYPE
 70
     6
  9
$SURFU
 70
     6
  9
$SURFV
 70
     6
  9
$UCSBASE
  2

  9
$UCSNAME
  2

  9
$UCSORG
 10
0.0
 20
0.0
 30
0.0
  9
$UCSXDIR
 10
1.0
 20
0.0
 30
0.0
  9
$UCSYDIR
 10
0.0
 20
1.0
 30
0.0
  9
$UCSORTHOREF
  2

  9
$UCSORTHOVIEW
 70
     0
  9
$UCSORGTOP
 10
0.0
 20
0.0
 30
0.0
  9
$UCSORGBOTTOM
 10
0.0
 20
0.0
 30
0.0
  9
$UCSORGLEFT
 10
0.0
 20
0.0
 30
0.0
  9
$UCSORGRIGHT
 10
0.0
 20
0.0
 30
0.0
  9
$UCSORGFRONT
 10
0.0
 20
0.0
 30
0.0
  9
$UCSORGBACK
 10
0.0
 20
0.0
 30
0.0
  9
$PUCSBASE
  2

  9
$PUCSNAME
  2

  9
$PUCSORG
 10
0.0
 20
0.0
 30
0.0
  9
$PUCSXDIR
 10
1.0
 20
0.0
 30
0.0
  9
$PUCSYDIR
 10
0.0
 20
1.0
 30
0.0
  9
$PUCSORTHOREF
  2

  9
$PUCSORTHOVIEW
 70
     0
  9
$PUCSORGTOP
 10
0.0
 20
0.0
 30
0.0
  9
$PUCSORGBOTTOM
 10
0.0
 20
0.0
 30
0.0
  9
$PUCSORGLEFT
 10
0.0
 20
0.0
 30
0.0
  9
$PUCSORGRIGHT
 10
0.0
 20
0.0
 30
0.0
  9
$PUCSORGFRONT
 10
0.0
 20
0.0
 30
0.0
  9
$PUCSORGBACK
 10
0.0
 20
0.0
 30
0.0
  9
$USERI1
 70
     0
  9
$USERI2
 70
     0
  9
$USERI3
 70
     0
  9
$USERI4
 70
     0
  9
$USERI5
 70
     0
  9
$USERR1
 40
0.0
  9
$USERR2
 40
0.0
  9
$USERR3
 40
0.0
  9
$USERR4
 40
0.0
  9
$USERR5
 40
0.0
  9
$WORLDVIEW
 70
     1
  9
$SHADEDGE
 70
     3
  9
$SHADEDIF
 70
    70
  9
$TILEMODE
 70
     1
  9
$MAXACTVP
 70
    64
  9
$PINSBASE
 10
0.0
 20
0.0
 30
0.0
  9
$PLIMCHECK
 70
     0
  9
$PEXTMIN
 10
1.000000000000000E+20
 20
1.000000000000000E+20
 30
1.000000000000000E+20
  9
$PEXTMAX
 10
-1.000000000000000E+20
 20
-1.000000000000000E+20
 30
-1.000000000000000E+20
  9
$PLIMMIN
 10
0.0
 20
0.0
  9
$PLIMMAX
 10
12.0
 20
9.0
  9
$UNITMODE
 70
     0
  9
$VISRETAIN
 70
     1
  9
$PLINEGEN
 70
     0
  9
$PSLTSCALE
 70
     1
  9
$TREEDEPTH
 70
  3020
  9
$CMLSTYLE
  2
Standard
  9
$CMLJUST
 70
     0
  9
$CMLSCALE
 40
1.0
  9
$PROXYGRAPHICS
 70
     1
  9
$MEASUREMENT
 70
     0
  9
$CELWEIGHT
370
    -1
  9
$ENDCAPS
280
     0
  9
$JOINSTYLE
280
     0
  9
$LWDISPLAY
290
     0
  9
$INSUNITS
 70
     1
  9
$HYPERLINKBASE
  1

  9
$STYLESHEET
  1

  9
$XEDIT
290
     1
  9
$CEPSNTYPE
380
     0
  9
$PSTYLEMODE
290
     1
  9
$FINGERPRINTGUID
  2
{8EC3CF69-7762-4C8C-9115-14BC71AC5761}
  9
$VERSIONGUID
  2
{FAEB1C32-E019-11D5-929B-00C0DF256EC4}
  9
$EXTNAMES
290
     1
  9
$PSVPSCALE
 40
0.0
  9
$OLESTARTUP
290
     0
  9
$SORTENTS
280
   127
  9
$INDEXCTL
280
     0
  9
$HIDETEXT
280
     1
  9
$XCLIPFRAME
290
     0
  9
$HALOGAP
280
     0
  9
$OBSCOLOR
 70
   257
  9
$OBSLTYPE
280
     0
  9
$INTERSECTIONDISPLAY
280
     0
  9
$INTERSECTIONCOLOR
 70
   257
  9
$DIMASSOC
280
     2
  9
$PROJECTNAME
  1

  0
ENDSEC
  0
SECTION
  2
CLASSES
  0
CLASS
  1
ACDBDICTIONARYWDFLT
  2
AcDbDictionaryWithDefault
  3
ObjectDBX Classes
 90
        0
 91
        4
280
     0
281
     0
  0
CLASS
  1
VISUALSTYLE
  2
AcDbVisualStyle
  3
ObjectDBX Classes
 90
     4095
 91
        4
280
     0
281
     0
  0
ENDSEC
  0
SECTION
  2
TABLES
  0
TABLE
  2
VPORT
  5
8
330
0
100
AcDbSymbolTable
 70
     1
  0
VPORT
  5
29
330
8
100
AcDbSymbolTableRecord
100
AcDbViewportTableRecord
  2
*Active
 70
     0
 10
0.0
 20
0.0
 11
1.0
 21
1.0
 12
16.0723858010562
 22
32.96364330922548
 13
0.0
 23
0.0
 14
0.5
 24
0.5
 15
0.5
 25
0.5
 16
0.0
 26
0.0
 36
1.0
 17
0.0
 27
0.0
 37
0.0
 40
67.24583235081998
 41
0.8982713126473111
 42
50.0
 43
0.0
 44
0.0
 50
0.0
 51
0.0
 71
     0
 72
   100
 73
     1
 74
     3
 75
     0
 76
     0
 77
     0
 78
     0
281
     0
 65
     1
110
0.0
120
0.0
130
0.0
111
1.0
121
0.0
131
0.0
112
0.0
122
1.0
132
0.0
 79
     0
146
0.0
  0
ENDTAB
  0
TABLE
  2
LTYPE
  5
5
330
0
100
AcDbSymbolTable
 70
     1
  0
LTYPE
  5
14
330
5
100
AcDbSymbolTableRecord
100
AcDbLinetypeTableRecord
  2
ByBlock
 70
     0
  3

 72
    65
 73
     0
 40
0.0
  0
LTYPE
  5
15
330
5
100
AcDbSymbolTableRecord
100
AcDbLinetypeTableRecord
  2
ByLayer
 70
     0
  3

 72
    65
 73
     0
 40
0.0
  0
LTYPE
  5
16
330
5
100
AcDbSymbolTableRecord
100
AcDbLinetypeTableRecord
  2
Continuous
 70
     0
  3
Solid line
 72
    65
 73
     0
 40
0.0
  0
ENDTAB
  0
TABLE
  2
LAYER
  5
2
330
0
100
AcDbSymbolTable
 70
     3
  0
LAYER
  5
10
330
2
100
AcDbSymbolTableRecord
100
AcDbLayerTableRecord
  2
0
 70
     0
 62
     7
  6
Continuous
370
    -3
390
F
  0
LAYER
  5
3B
330
2
100
AcDbSymbolTableRecord
100
AcDbLayerTableRecord
  2
Default
 70
     0
 62
     7
  6
Continuous
370
    -3
390
F
  0
LAYER
  5
3E
330
2
100
AcDbSymbolTableRecord
100
AcDbLayerTableRecord
  2
Default - Tangent
 70
     0
 62
     7
  6
Continuous
370
    -3
390
F
  0
ENDTAB
  0
TABLE
  2
STYLE
  5
3
330
0
100
AcDbSymbolTable
 70
     1
  0
STYLE
  5
11
330
3
100
AcDbSymbolTableRecord
100
AcDbTextStyleTableRecord
  2
Standard
 70
     0
 40
0.0
 41
1.0
 50
0.0
 71
     0
 42
0.2
  3
txt
  4

  0
ENDTAB
  0
TABLE
  2
VIEW
  5
6
330
0
100
AcDbSymbolTable
 70
     0
  0
ENDTAB
  0
TABLE
  2
UCS
  5
7
330
0
100
AcDbSymbolTable
 70
     0
  0
ENDTAB
  0
TABLE
  2
APPID
  5
9
330
0
100
AcDbSymbolTable
 70
     1
  0
APPID
  5
12
330
9
100
AcDbSymbolTableRecord
100
AcDbRegAppTableRecord
  2
ACAD
 70
     0
  0
ENDTAB
  0
TABLE
  2
DIMSTYLE
  5
A
330
0
100
AcDbSymbolTable
 70
     1
100
AcDbDimStyleTable
  0
DIMSTYLE
105
27
330
A
100
AcDbSymbolTableRecord
100
AcDbDimStyleTableRecord
  2
Standard
 70
     0
340
11
  0
ENDTAB
  0
TABLE
  2
BLOCK_RECORD
  5
1
330
0
100
AcDbSymbolTable
 70
     1
  0
BLOCK_RECORD
  5
1F
330
1
100
AcDbSymbolTableRecord
100
AcDbBlockTableRecord
  2
*Model_Space
340
22
  0
BLOCK_RECORD
  5
1B
330
1
100
AcDbSymbolTableRecord
100
AcDbBlockTableRecord
  2
*Paper_Space
340
1E
  0
BLOCK_RECORD
  5
23
330
1
100
AcDbSymbolTableRecord
100
AcDbBlockTableRecord
  2
*Paper_Space0
340
26
  0
ENDTAB
  0
ENDSEC
  0
SECTION
  2
BLOCKS
  0
BLOCK
  5
20
330
1F
100
AcDbEntity
  8
0
100
AcDbBlockBegin
  2
*Model_Space
 70
     0
 10
0.0
 20
0.0
 30
0.0
  3
*Model_Space
  1

  0
ENDBLK
  5
21
330
1F
100
AcDbEntity
  8
0
100
AcDbBlockEnd
  0
BLOCK
  5
1C
330
1B
100
AcDbEntity
 67
     1
  8
0
100
AcDbBlockBegin
  2
*Paper_Space
 70
     0
 10
0.0
 20
0.0
 30
0.0
  3
*Paper_Space
  1

  0
ENDBLK
  5
1D
330
1B
100
AcDbEntity
 67
     1
  8
0
100
AcDbBlockEnd
  0
BLOCK
  5
24
330
23
100
AcDbEntity
  8
0
100
AcDbBlockBegin
  2
*Paper_Space0
 70
     0
 10
0.0
 20
0.0
 30
0.0
  3
*Paper_Space0
  1

  0
ENDBLK
  5
25
330
23
100
AcDbEntity
  8
0
100
AcDbBlockEnd
  0
ENDSEC
  0
SECTION
  2
ENTITIES
  0
SPLINE
  5
3C
330
1F
100
AcDbEntity
  8
Default
100
AcDbSpline
210
0.0
220
0.0
230
1.0
 70
     8
 71
     3
 72
    12
 73
     8
 74
     0
 42
0.0000000001
 43
0.0000000001
 40
0.0
 40
0.0
 40
0.0
 40
0.0
 40
1.0
 40
2.0
 40
3.0
 40
4.0
 40
5.0
 40
5.0
 40
5.0
 40
5.0
 10
-9.866273892973908
 20
42.29346009623407
 30
0.0
 10
-9.962742276442851
 20
42.22685812696761
 30
0.0
 10
-10.113553826194
 20
42.03325463171542
 30
0.0
 10
-10.13472975863126
 20
41.66585863429037
 30
0.0
 10
-9.940285540499875
 20
41.3525681242802
 30
0.0
 10
-9.600576428236515
 20
41.20878668093065
 30
0.0
 10
-9.360701076956477
 20
41.25970449364728
 30
0.0
 10
-9.258233993831723
 20
41.31659809476678
 30
0.0
  0
SPLINE
  5
3D
330
1F
100
AcDbEntity
  8
Default
100
AcDbSpline
210
0.0
220
0.0
230
1.0
 70
     8
 71
     3
 72
    12
 73
     8
 74
     0
 42
0.0000000001
 43
0.0000000001
 40
0.0
 40
0.0
 40
0.0
 40
0.0
 40
1.0
 40
2.0
 40
3.0
 40
4.0
 40
5.0
 40
5.0
 40
5.0
 40
5.0
 10
9.86624083113577
 20
42.29346009623407
 30
0.0
 10
9.962709217236311
 20
42.22685812270844
 30
0.0
 10
10.1135207595104
 20
42.03325464327991
 30
0.0
 10
10.13469669809259
 20
41.66585863118898
 30
0.0
 10
9.94025247830934
 20
41.35256812512124
 30
0.0
 10
9.6005433665085
 20
41.20878668066782
 30
0.0
 10
9.36066801509632
 20
41.25970449369984
 30
0.0
 10
9.258200931993585
 20
41.31659809476678
 30
0.0
  0
SPLINE
  5
3F
330
1F
100
AcDbEntity
  8
Default - Tangent
100
AcDbSpline
210
0.0
220
0.0
230
1.0
 70
     8
 71
     2
 72
     6
 73
     3
 74
     0
 42
0.0000000001
 43
0.0000000001
 40
-0.9105733317109584
 40
-0.9105733317109584
 40
-0.9105733317109584
 40
0.0
 40
0.0
 40
0.0
 10
-9.258233993831723
 20
41.31659809476678
 30
0.0
 10
-8.860462756801667
 20
41.53810193896184
 30
0.0
 10
-8.462801330342344
 20
41.7598027487352
 30
0.0
  0
SPLINE
  5
40
330
1F
100
AcDbEntity
  8
Default - Tangent
100
AcDbSpline
210
0.0
220
0.0
230
1.0
 70
     8
 71
     2
 72
     6
 73
     3
 74
     0
 42
0.0000000001
 43
0.0000000001
 40
-0.9576917802574769
 40
-0.9576917802574769
 40
-0.9576917802574769
 40
0.0
 40
0.0
 40
0.0
 10
-9.078673893473436
 20
42.83830901698978
 30
0.0
 10
-9.472511502730569
 20
42.56593918747886
 30
0.0
 10
-9.866273892973908
 20
42.29346009623407
 30
0.0
  0
SPLINE
  5
41
330
1F
100
AcDbEntity
  8
Default - Tangent
100
AcDbSpline
210
0.0
220
0.0
230
1.0
 70
     8
 71
     2
 72
     6
 73
     3
 74
     0
 42
0.0000000001
 43
0.0000000001
 40
-0.9105733317109584
 40
-0.9105733317109584
 40
-0.9105733317109584
 40
0.0
 40
0.0
 40
0.0
 10
9.258200931993585
 20
41.31659809476678
 30
0.0
 10
8.860429694963528
 20
41.53810193896184
 30
0.0
 10
8.462768268504206
 20
41.7598027487352
 30
0.0
  0
SPLINE
  5
42
330
1F
100
AcDbEntity
  8
Default - Tangent
100
AcDbSpline
210
0.0
220
0.0
230
1.0
 70
     8
 71
     2
 72
     6
 73
     3
 74
     0
 42
0.0000000001
 43
0.0000000001
 40
-0.9576917802574769
 40
-0.9576917802574769
 40
-0.9576917802574769
 40
0.0
 40
0.0
 40
0.0
 10
9.078640831635298
 20
42.83830901698978
 30
0.0
 10
9.47247844089243
 20
42.56593918747886
 30
0.0
 10
9.86624083113577
 20
42.29346009623407
 30
0.0
  0
ARC
  5
43
330
1F
100
AcDbEntity
  8
Default
  6
Continuous
100
AcDbCircle
 10
12.77050149125415
 20
142.4193522274521
 30
0.0
 40
131.084114973074
100
AcDbArc
 50
276.5041013109689
 51
277.1658114650165
  0
LINE
  5
44
330
1F
100
AcDbEntity
  8
Default
  6
Continuous
100
AcDbLine
 10
43.04748690398037
 20
14.11758436037144
 30
0.0
 11
45.34526616691448
 21
14.40774975265374
 31
0.0
  0
SPLINE
  5
45
330
1F
100
AcDbEntity
  8
Default
100
AcDbSpline
210
0.0
220
0.0
230
1.0
 70
     8
 71
     3
 72
    12
 73
     8
 74
     0
 42
0.0000000001
 43
0.0000000001
 40
0.0581509953052276
 40
0.0581509953052276
 40
0.0581509953052276
 40
0.0581509953052276
 40
1.0
 40
2.0
 40
3.0
 40
4.0
 40
4.941849020938243
 40
4.941849020938243
 40
4.941849020938243
 40
4.941849020938243
 10
-6.419030985694189
 20
12.19840514428195
 30
0.0
 10
-5.597199280869399
 20
12.11076025034093
 30
0.0
 10
-3.896883105765889
 20
11.99194522125003
 30
0.0
 10
-1.316364708500333
 20
11.91287053743818
 30
0.0
 10
1.3163645350169
 20
11.91287053086264
 30
0.0
 10
3.896883196826274
 20
11.9919452290913
 30
0.0
 10
5.59719905970264
 20
12.11076023064541
 30
0.0
 10
6.419030985585834
 20
12.19840514511026
 30
0.0
  0
SPLINE
  5
46
330
1F
100
AcDbEntity
  8
Default
100
AcDbSpline
210
0.0
220
0.0
230
1.0
 70
     8
 71
     3
 72
    12
 73
     8
 74
     0
 42
0.0000000001
 43
0.0000000001
 40
0.3762234260604364
 40
0.3762234260604364
 40
0.3762234260604364
 40
0.3762234260604364
 40
1.0
 40
2.0
 40
3.0
 40
4.0
 40
4.623776581017388
 40
4.623776581017388
 40
4.623776581017388
 40
4.623776581017388
 10
-6.384181789648619
 20
12.46480942128906
 30
0.0
 10
-5.76361255161326
 20
12.38410896238102
 30
0.0
 10
-4.138098499636978
 20
12.24923124539211
 30
0.0
 10
-1.505520521171419
 20
12.1781368773092
 30
0.0
 10
1.505520460634666
 20
12.17813687859314
 30
0.0
 10
4.138098358074662
 20
12.24923123654292
 30
0.0
 10
5.76361251967326
 20
12.38410895931616
 30
0.0
 10
6.384181789621124
 20
12.46480942149925
 30
0.0
  0
SPLINE
  5
47
330
1F
100
AcDbEntity
  8
Default
  6
Continuous
100
AcDbSpline
210
0.0
220
0.0
230
1.0
 70
     8
 71
     3
 72
     9
 73
     5
 74
     0
 42
0.0000000001
 43
0.0000000001
 40
1.067422986164702
 40
1.067422986164702
 40
1.067422986164702
 40
1.067422986164702
 40
2.0
 40
3.0
 40
3.0
 40
3.0
 40
3.0
 10
-8.623478494206195
 20
12.96650448671278
 30
0.0
 10
-8.727994669783028
 20
13.0126286556204
 30
0.0
 10
-8.938780536327704
 20
13.12426981608134
 30
0.0
 10
-9.087159157521228
 20
13.3143562668446
 30
0.0
 10
-9.15472092440001
 20
13.4150071318
 30
0.0
  0
LINE
  5
48
330
1F
100
AcDbEntity
  8
Default
100
AcDbLine
 10
-8.576743441971782
 20
13.36789121760517
 30
0.0
 11
-9.447823159400002
 21
13.4388629582
 31
0.0
  0
POLYLINE
  5
49
330
1F
100
AcDbEntity
  8
Default
100
AcDb2dPolyline
 66
     1
 10
0.0
 20
0.0
 30
0.0
  0
VERTEX
  5
4A
330
49
100
AcDbEntity
  8
Default
100
AcDbVertex
100
AcDb2dVertex
 10
-9.335361177803605
 20
13.8443529692134
 30
0.0
  0
VERTEX
  5
4B
330
49
100
AcDbEntity
  8
Default
100
AcDbVertex
100
AcDb2dVertex
 10
-8.5293686585005
 20
13.77477210320306
 30
0.0
  0
SEQEND
  5
4C
330
49
100
AcDbEntity
  8
Default
  0
LINE
  5
4D
330
1F
100
AcDbEntity
  8
Default
100
AcDbLine
 10
8.576743441971782
 20
13.36789121760517
 30
0.0
 11
9.447823159400002
 21
13.4388629582
 31
0.0
  0
POLYLINE
  5
4E
330
1F
100
AcDbEntity
  8
Default
100
AcDb2dPolyline
 66
     1
 10
0.0
 20
0.0
 30
0.0
  0
VERTEX
  5
4F
330
4E
100
AcDbEntity
  8
Default
100
AcDbVertex
100
AcDb2dVertex
 10
9.335361177803605
 20
13.8443529692134
 30
0.0
  0
VERTEX
  5
50
330
4E
100
AcDbEntity
  8
Default
100
AcDbVertex
100
AcDb2dVertex
 10
8.5293686585005
 20
13.77477210320306
 30
0.0
  0
SEQEND
  5
51
330
4E
100
AcDbEntity
  8
Default
  0
SPLINE
  5
52
330
1F
100
AcDbEntity
  8
Default
  6
Continuous
100
AcDbSpline
210
0.0
220
0.0
230
1.0
 70
     8
 71
     3
 72
     9
 73
     5
 74
     0
 42
0.0000000001
 43
0.0000000001
 40
1.067422986164693
 40
1.067422986164693
 40
1.067422986164693
 40
1.067422986164693
 40
2.0
 40
3.0
 40
3.0
 40
3.0
 40
3.0
 10
8.623478494206195
 20
12.96650448671278
 30
0.0
 10
8.727994669783028
 20
13.01262865562039
 30
0.0
 10
8.938780536327704
 20
13.12426981608134
 30
0.0
 10
9.087159157521228
 20
13.3143562668446
 30
0.0
 10
9.15472092440001
 20
13.4150071318
 30
0.0
  0
SPLINE
  5
53
330
1F
100
AcDbEntity
  8
Default
100
AcDbSpline
210
0.0
220
0.0
230
1.0
 70
     8
 71
     3
 72
    10
 73
     6
 74
     0
 42
0.0000000001
 43
0.0000000001
 40
-2.519342982604021
 40
-2.519342982604021
 40
-2.519342982604021
 40
-2.519342982604021
 40
-2.0
 40
-1.0
 40
0.0
 40
0.0
 40
0.0
 40
0.0
 10
8.672887945882708
 20
12.5421482912113
 30
0.0
 10
8.803475096388375
 20
12.57075292961598
 30
0.0
 10
9.184214977944647
 20
12.66030948859726
 30
0.0
 10
9.80726351845854
 20
12.84409882763565
 30
0.0
 10
10.26876180006599
 20
13.08215346996759
 30
0.0
 10
10.46855461820002
 20
13.2458490068
 30
0.0
  0
SPLINE
  5
54
330
1F
100
AcDbEntity
  8
Default
100
AcDbSpline
210
0.0
220
0.0
230
1.0
 70
     8
 71
     3
 72
    10
 73
     6
 74
     0
 42
0.0000000001
 43
0.0000000001
 40
0.0
 40
0.0
 40
0.0
 40
0.0
 40
1.0
 40
2.0
 40
2.519342982604019
 40
2.519342982604019
 40
2.519342982604019
 40
2.519342982604019
 10
-10.4685546182
 20
13.2458490068
 30
0.0
 10
-10.26876180006599
 20
13.08215346996759
 30
0.0
 10
-9.80726351845854
 20
12.84409882763565
 30
0.0
 10
-9.184214977944647
 20
12.66030948859726
 30
0.0
 10
-8.803475096388377
 20
12.57075292961598
 30
0.0
 10
-8.672887945882708
 20
12.5421482912113
 30
0.0
  0
LINE
  5
55
330
1F
100
AcDbEntity
  8
Default
100
AcDbLine
 10
-9.447823159400002
 20
13.4388629582
 30
0.0
 11
-10.127668961
 21
13.4389375408
 31
0.0
  0
SPLINE
  5
56
330
1F
100
AcDbEntity
  8
Default
100
AcDbSpline
210
0.0
220
0.0
230
1.0
 70
     8
 71
     3
 72
     8
 73
     4
 74
     0
 42
0.0000000001
 43
0.0000000001
 40
0.0
 40
0.0
 40
0.0
 40
0.0
 40
1.0
 40
1.0
 40
1.0
 40
1.0
 10
-10.127668961
 20
13.4389375408
 30
0.0
 10
-10.19043137232474
 20
13.44151117000844
 30
0.0
 10
-10.25814171896425
 20
13.43679702014212
 30
0.0
 10
-10.31491195800001
 20
13.4644400132
 30
0.0
  0
LINE
  5
57
330
1F
100
AcDbEntity
  8
Default
100
AcDbLine
 10
-10.31491195800001
 20
13.4644400132
 30
0.0
 11
-10.4524817898
 21
13.8409039504
 31
0.0
  0
ARC
  5
58
330
1F
100
AcDbEntity
  8
Default
100
AcDbCircle
 10
-10.39589647470616
 20
13.74612434496699
 30
0.0
 40
0.1103860112981057
100
AcDbArc
 50
89.61903759803855
 51
120.8380440952277
  0
LINE
  5
59
330
1F
100
AcDbEntity
  8
Default
100
AcDbLine
 10
-10.39516251820001
 20
13.8565079162
 30
0.0
 11
-9.670559626277438
 21
13.85203840822891
 31
0.0
  0
POLYLINE
  5
5A
330
1F
100
AcDbEntity
  8
Default
100
AcDb2dPolyline
 66
     1
 10
0.0
 20
0.0
 30
0.0
  0
VERTEX
  5
5B
330
5A
100
AcDbEntity
  8
Default
100
AcDbVertex
100
AcDb2dVertex
 10
-9.670559626277438
 20
13.85203840822891
 30
0.0
  0
VERTEX
  5
5C
330
5A
100
AcDbEntity
  8
Default
100
AcDbVertex
100
AcDb2dVertex
 10
-9.686741035400004
 20
14.0546783268
 30
0.0
  0
SEQEND
  5
5D
330
5A
100
AcDbEntity
  8
Default
  0
LINE
  5
5E
330
1F
100
AcDbEntity
  8
Default
100
AcDbLine
 10
-9.686741035400004
 20
14.0546783268
 30
0.0
 11
-9.4401070368
 21
14.0546512698
 31
0.0
  0
LINE
  5
5F
330
1F
100
AcDbEntity
  8
Default
100
AcDbLine
 10
-9.4401070368
 20
14.0546512698
 30
0.0
 11
-9.376669231000008
 21
14.0494826366
 31
0.0
  0
LINE
  5
60
330
1F
100
AcDbEntity
  8
Default
  6
Continuous
100
AcDbLine
 10
-9.338852036000006
 20
13.860211777
 30
0.0
 11
-9.447822487400003
 21
13.8690902096
 31
0.0
  0
LINE
  5
61
330
1F
100
AcDbEntity
  8
Default
  6
Continuous
100
AcDbLine
 10
-9.447822487400003
 20
13.8690902096
 30
0.0
 11
-9.671321631200001
 21
13.8691147286
 31
0.0
  0
LINE
  5
62
330
1F
100
AcDbEntity
  8
Default
100
AcDbLine
 10
9.447823159400002
 20
13.4388629582
 30
0.0
 11
10.12766896099998
 21
13.4389375408
 31
0.0
  0
SPLINE
  5
63
330
1F
100
AcDbEntity
  8
Default
100
AcDbSpline
210
0.0
220
0.0
230
1.0
 70
     8
 71
     3
 72
     8
 73
     4
 74
     0
 42
0.0000000001
 43
0.0000000001
 40
0.0
 40
0.0
 40
0.0
 40
0.0
 40
1.0
 40
1.0
 40
1.0
 40
1.0
 10
10.12766896099998
 20
13.4389375408
 30
0.0
 10
10.19043137232472
 20
13.44151117000844
 30
0.0
 10
10.25814171896428
 20
13.43679702014212
 30
0.0
 10
10.31491195800001
 20
13.4644400132
 30
0.0
  0
LINE
  5
64
330
1F
100
AcDbEntity
  8
Default
100
AcDbLine
 10
10.31491195800001
 20
13.4644400132
 30
0.0
 11
10.4524817898
 21
13.8409039504
 31
0.0
  0
ARC
  5
65
330
1F
100
AcDbEntity
  8
Default
100
AcDbCircle
 10
10.39589647470615
 20
13.74612434496699
 30
0.0
 40
0.1103860112981057
100
AcDbArc
 50
59.16195590477157
 51
90.38096240196053
  0
LINE
  5
66
330
1F
100
AcDbEntity
  8
Default
100
AcDbLine
 10
10.39516251820001
 20
13.8565079162
 30
0.0
 11
9.670559626277452
 21
13.85203840822891
 31
0.0
  0
POLYLINE
  5
67
330
1F
100
AcDbEntity
  8
Default
100
AcDb2dPolyline
 66
     1
 10
0.0
 20
0.0
 30
0.0
  0
VERTEX
  5
68
330
67
100
AcDbEntity
  8
Default
100
AcDbVertex
100
AcDb2dVertex
 10
9.670559626277452
 20
13.85203840822891
 30
0.0
  0
VERTEX
  5
69
330
67
100
AcDbEntity
  8
Default
100
AcDbVertex
100
AcDb2dVertex
 10
9.686741035400019
 20
14.0546783268
 30
0.0
  0
SEQEND
  5
6A
330
67
100
AcDbEntity
  8
Default
  0
LINE
  5
6B
330
1F
100
AcDbEntity
  8
Default
100
AcDbLine
 10
9.686741035400019
 20
14.0546783268
 30
0.0
 11
9.440107036799986
 21
14.0546512698
 31
0.0
  0
LINE
  5
6C
330
1F
100
AcDbEntity
  8
Default
100
AcDbLine
 10
9.440107036799986
 20
14.0546512698
 30
0.0
 11
9.376669230999994
 21
14.0494826366
 31
0.0
  0
LINE
  5
6D
330
1F
100
AcDbEntity
  8
Default
  6
Continuous
100
AcDbLine
 10
9.338852035999992
 20
13.860211777
 30
0.0
 11
9.447822487400003
 21
13.8690902096
 31
0.0
  0
LINE
  5
6E
330
1F
100
AcDbEntity
  8
Default
  6
Continuous
100
AcDbLine
 10
9.447822487400003
 20
13.8690902096
 30
0.0
 11
9.671321631199987
 21
13.8691147286
 31
0.0
  0
ARC
  5
6F
330
1F
100
AcDbEntity
  8
Default
  6
Continuous
100
AcDbCircle
 10
-4.840682353280499
 20
14.85968898648072
 30
0.0
 40
4.60793282975964
100
AcDbArc
 50
189.7235551857434
 51
192.7293107908006
  0
SPLINE
  5
70
330
1F
100
AcDbEntity
  8
Default
  6
Continuous
100
AcDbSpline
210
0.0
220
0.0
230
1.0
 70
     8
 71
     3
 72
    10
 73
     6
 74
     0
 42
0.0000000001
 43
0.0000000001
 40
-8.0
 40
-8.0
 40
-8.0
 40
-8.0
 40
-6.999999535267053
 40
-5.999999070534106
 40
-5.0
 40
-5.0
 40
-5.0
 40
-5.0
 10
-9.38241816
 20
14.081433999
 30
0.0
 10
-9.422930781768258
 20
14.3178573150967
 30
0.0
 10
-9.475874361339038
 20
14.7954102908463
 30
0.0
 10
-9.464940181624385
 20
15.51665954225526
 30
0.0
 10
-9.389679784339819
 20
15.99153710437503
 30
0.0
 10
-9.339197433099997
 20
16.2259500541
 30
0.0
  0
SPLINE
  5
71
330
1F
100
AcDbEntity
  8
Default
  6
Continuous
100
AcDbSpline
210
0.0
220
0.0
230
1.0
 70
     8
 71
     3
 72
    12
 73
     8
 74
     0
 42
0.0000000001
 43
0.0000000001
 40
0.0
 40
0.0
 40
0.0
 40
0.0
 40
0.9999981767657069
 40
1.99999863257428
 40
2.999999088382853
 40
3.999999544191427
 40
5.0
 40
5.0
 40
5.0
 40
5.0
 10
-9.339197433099997
 20
16.2259500541
 30
0.0
 10
-9.303977813563279
 20
16.36831645476184
 30
0.0
 10
-9.062656187861649
 20
16.5580510914493
 30
0.0
 10
-8.636598207435043
 20
16.61431413147433
 30
0.0
 10
-8.213146845290225
 20
16.65042790855842
 30
0.0
 10
-7.786984046333089
 20
16.66198794950089
 30
0.0
 10
-7.503163979551601
 20
16.66429963673265
 30
0.0
 10
-7.36117856447197
 20
16.6642400231139
 30
0.0
  0
SPLINE
  5
72
330
1F
100
AcDbEntity
  8
Default
  6
Continuous
100
AcDbSpline
210
0.0
220
0.0
230
1.0
 70
     8
 71
     3
 72
    10
 73
     6
 74
     0
 42
0.0000000001
 43
0.0000000001
 40
0.0
 40
0.0
 40
0.0
 40
0.0
 40
1.0
 40
2.0
 40
3.0
 40
3.0
 40
3.0
 40
3.0
 10
-7.36117856447197
 20
16.6642400231139
 30
0.0
 10
-6.543123613112243
 20
16.66188484487124
 30
0.0
 10
-4.907552933860131
 20
16.6200612667237
 30
0.0
 10
-2.454042408556973
 20
16.56802657319429
 30
0.0
 10
-0.8180259188006573
 20
16.55230009055397
 30
0.0
 10
0.0
 20
16.552482884
 30
0.0
  0
SPLINE
  5
73
330
1F
100
AcDbEntity
  8
Default
  6
Continuous
100
AcDbSpline
210
0.0
220
0.0
230
1.0
 70
     8
 71
     3
 72
    10
 73
     6
 74
     0
 42
0.0000000001
 43
0.0000000001
 40
-3.0
 40
-3.0
 40
-3.0
 40
-3.0
 40
-2.0
 40
-1.0
 40
0.0
 40
0.0
 40
0.0
 40
0.0
 10
0.0
 20
16.552482884
 30
0.0
 10
0.8180259188006573
 20
16.55230009055397
 30
0.0
 10
2.454042408556973
 20
16.56802657319429
 30
0.0
 10
4.907552933860131
 20
16.6200612667237
 30
0.0
 10
6.543123613112243
 20
16.66188484487124
 30
0.0
 10
7.36117856447197
 20
16.6642400231139
 30
0.0
  0
SPLINE
  5
74
330
1F
100
AcDbEntity
  8
Default
  6
Continuous
100
AcDbSpline
210
0.0
220
0.0
230
1.0
 70
     8
 71
     3
 72
    12
 73
     8
 74
     0
 42
0.0000000001
 43
0.0000000001
 40
-5.0
 40
-5.0
 40
-5.0
 40
-5.0
 40
-3.999999544191427
 40
-2.999999088382853
 40
-1.99999863257428
 40
-0.9999981767657069
 40
0.0
 40
0.0
 40
0.0
 40
0.0
 10
7.36117856447197
 20
16.6642400231139
 30
0.0
 10
7.503163979551601
 20
16.66429963673265
 30
0.0
 10
7.786984046333089
 20
16.66198794950089
 30
0.0
 10
8.213146845290225
 20
16.65042790855842
 30
0.0
 10
8.636598207435043
 20
16.61431413147433
 30
0.0
 10
9.062656187861649
 20
16.5580510914493
 30
0.0
 10
9.303977813563279
 20
16.36831645476184
 30
0.0
 10
9.339197433100026
 20
16.2259500541
 30
0.0
  0
SPLINE
  5
75
330
1F
100
AcDbEntity
  8
Default
  6
Continuous
100
AcDbSpline
210
0.0
220
0.0
230
1.0
 70
     8
 71
     3
 72
    10
 73
     6
 74
     0
 42
0.0000000001
 43
0.0000000001
 40
5.0
 40
5.0
 40
5.0
 40
5.0
 40
5.999999070534106
 40
6.999999535267053
 40
8.0
 40
8.0
 40
8.0
 40
8.0
 10
9.339197433100026
 20
16.2259500541
 30
0.0
 10
9.389679784339819
 20
15.99153710437503
 30
0.0
 10
9.4649401816244
 20
15.51665954225526
 30
0.0
 10
9.475874361339038
 20
14.7954102908463
 30
0.0
 10
9.422930781768258
 20
14.3178573150967
 30
0.0
 10
9.382418159999986
 20
14.081433999
 30
0.0
  0
ARC
  5
76
330
1F
100
AcDbEntity
  8
Default
  6
Continuous
100
AcDbCircle
 10
4.840682353280499
 20
14.85968898648072
 30
0.0
 40
4.60793282975964
100
AcDbArc
 50
347.2706892091994
 51
350.2764448142567
  0
ARC
  5
77
330
1F
100
AcDbEntity
  8
Default
  6
Continuous
100
AcDbCircle
 10
-9.014530512805436
 20
13.99254115558856
 30
0.0
 40
0.3350977134913334
100
AcDbArc
 50
162.5143035794846
 51
184.9494863273058
  0
SPLINE
  5
78
330
1F
100
AcDbEntity
  8
Default
  6
Continuous
100
AcDbSpline
210
0.0
220
0.0
230
1.0
 70
     8
 71
     3
 72
    13
 73
     9
 74
     0
 42
0.0000000001
 43
0.0000000001
 40
0.0
 40
0.0
 40
0.0
 40
0.0
 40
1.0
 40
2.0
 40
3.0
 40
4.0
 40
5.0
 40
6.0
 40
6.0
 40
6.0
 40
6.0
 10
-9.334144028000011
 20
14.0932271948
 30
0.0
 10
-9.297812811066365
 20
14.208555477116
 30
0.0
 10
-9.107523557388305
 20
14.37697313786711
 30
0.0
 10
-8.754162011528933
 20
14.44686338994978
 30
0.0
 10
-8.400330870611853
 20
14.48486303831555
 30
0.0
 10
-8.04394192308773
 20
14.50263239465806
 30
0.0
 10
-7.687571456139352
 20
14.51086204162875
 30
0.0
 10
-7.449867217969711
 20
14.51213784361248
 30
0.0
 10
-7.331031158927658
 20
14.51214623461721
 30
0.0
  0
SPLINE
  5
79
330
1F
100
AcDbEntity
  8
Default
  6
Continuous
100
AcDbSpline
210
0.0
220
0.0
230
1.0
 70
     8
 71
     3
 72
    10
 73
     6
 74
     0
 42
0.0000000001
 43
0.0000000001
 40
0.0
 40
0.0
 40
0.0
 40
0.0
 40
1.0
 40
2.0
 40
3.0
 40
3.0
 40
3.0
 40
3.0
 10
-7.331031158927658
 20
14.51214623461721
 30
0.0
 10
-6.516336436598266
 20
14.50987514491245
 30
0.0
 10
-4.887442317098817
 20
14.46989118981093
 30
0.0
 10
-2.443970899302087
 20
14.41958428598319
 30
0.0
 10
-0.814668076094506
 20
14.40432816899648
 30
0.0
 10
0.0
 20
14.404509968
 30
0.0
  0
SPLINE
  5
7A
330
1F
100
AcDbEntity
  8
Default
  6
Continuous
100
AcDbSpline
210
0.0
220
0.0
230
1.0
 70
     8
 71
     3
 72
    10
 73
     6
 74
     0
 42
0.0000000001
 43
0.0000000001
 40
-3.0
 40
-3.0
 40
-3.0
 40
-3.0
 40
-2.0
 40
-1.0
 40
0.0
 40
0.0
 40
0.0
 40
0.0
 10
0.0
 20
14.404509968
 30
0.0
 10
0.814668076094506
 20
14.40432816899648
 30
0.0
 10
2.443970899302087
 20
14.41958428598319
 30
0.0
 10
4.887442317098817
 20
14.46989118981093
 30
0.0
 10
6.516336436598266
 20
14.50987514491245
 30
0.0
 10
7.331031158927658
 20
14.51214623461721
 30
0.0
  0
SPLINE
  5
7B
330
1F
100
AcDbEntity
  8
Default
  6
Continuous
100
AcDbSpline
210
0.0
220
0.0
230
1.0
 70
     8
 71
     3
 72
    13
 73
     9
 74
     0
 42
0.0000000001
 43
0.0000000001
 40
-6.0
 40
-6.0
 40
-6.0
 40
-6.0
 40
-5.0
 40
-4.0
 40
-3.0
 40
-2.0
 40
-1.0
 40
0.0
 40
0.0
 40
0.0
 40
0.0
 10
7.331031158927658
 20
14.51214623461721
 30
0.0
 10
7.449867217969711
 20
14.51213784361248
 30
0.0
 10
7.687571456139352
 20
14.51086204162875
 30
0.0
 10
8.043941923087743
 20
14.50263239465806
 30
0.0
 10
8.400330870611867
 20
14.48486303831555
 30
0.0
 10
8.754162011528933
 20
14.44686338994978
 30
0.0
 10
9.107523557388305
 20
14.37697313786711
 30
0.0
 10
9.297812811066365
 20
14.208555477116
 30
0.0
 10
9.334144028000026
 20
14.0932271948
 30
0.0
  0
ARC
  5
7C
330
1F
100
AcDbEntity
  8
Default
  6
Continuous
100
AcDbCircle
 10
9.014530512805436
 20
13.99254115558856
 30
0.0
 40
0.3350977134913334
100
AcDbArc
 50
355.0505136726942
 51
17.48569642051542
  0
SPLINE
  5
7D
330
1F
100
AcDbEntity
  8
Default
  6
Continuous
100
AcDbSpline
210
0.0
220
0.0
230
1.0
 70
     8
 71
     3
 72
     8
 73
     4
 74
     0
 42
0.0000000001
 43
0.0000000001
 40
0.0
 40
0.0
 40
0.0
 40
0.0
 40
1.0
 40
1.0
 40
1.0
 40
1.0
 10
-9.6748085304
 20
13.8689238194
 30
0.0
 10
-9.751532608233873
 20
14.4152446669056
 30
0.0
 10
-9.880452711014982
 20
14.95206557218855
 30
0.0
 10
-9.991216733300007
 20
15.4919988096
 30
0.0
  0
LINE
  5
7E
330
1F
100
AcDbEntity
  8
Default
  6
Continuous
100
AcDbLine
 10
-9.991216733300007
 20
15.4919988096
 30
0.0
 11
-11.39096537650001
 21
22.6959191092
 31
0.0
  0
SPLINE
  5
7F
330
1F
100
AcDbEntity
  8
Default
  6
Continuous
100
AcDbSpline
210
0.0
220
0.0
230
1.0
 70
     8
 71
     3
 72
    13
 73
     9
 74
     0
 42
0.0000000001
 43
0.0000000001
 40
0.0
 40
0.0
 40
0.0
 40
0.0
 40
0.9999999879525887
 40
1.999999990362071
 40
2.999999992771553
 40
3.999999995181036
 40
4.999999997590518
 40
6.0
 40
6.0
 40
6.0
 40
6.0
 10
-11.39096537650001
 20
22.6959191092
 30
0.0
 10
-11.40829592916054
 20
22.78507947903222
 30
0.0
 10
-11.43853222499408
 20
22.96415582286964
 30
0.0
 10
-11.4731621984303
 20
23.23466933215743
 30
0.0
 10
-11.4981533648839
 20
23.50521020866418
 30
0.0
 10
-11.51970429371966
 20
23.77970397755479
 30
0.0
 10
-11.52217079548991
 20
24.04188644391326
 30
0.0
 10
-11.53901698100911
 20
24.24874758105072
 30
0.0
 10
-11.45869630220001
 20
24.2903894616
 30
0.0
  0
SPLINE
  5
80
330
1F
100
AcDbEntity
  8
Default
  6
Continuous
100
AcDbSpline
210
0.0
220
0.0
230
1.0
 70
     8
 71
     3
 72
     8
 73
     4
 74
     0
 42
0.0000000001
 43
0.0000000001
 40
0.0
 40
0.0
 40
0.0
 40
0.0
 40
1.0
 40
1.0
 40
1.0
 40
1.0
 10
9.674808530400014
 20
13.8689238194
 30
0.0
 10
9.751532608233902
 20
14.4152446669056
 30
0.0
 10
9.880452711014982
 20
14.95206557218855
 30
0.0
 10
9.991216733300007
 20
15.4919988096
 30
0.0
  0
LINE
  5
81
330
1F
100
AcDbEntity
  8
Default
  6
Continuous
100
AcDbLine
 10
9.991216733300007
 20
15.4919988096
 30
0.0
 11
11.39096537649999
 21
22.6959191092
 31
0.0
  0
SPLINE
  5
82
330
1F
100
AcDbEntity
  8
Default
  6
Continuous
100
AcDbSpline
210
0.0
220
0.0
230
1.0
 70
     8
 71
     3
 72
    13
 73
     9
 74
     0
 42
0.0000000001
 43
0.0000000001
 40
0.0
 40
0.0
 40
0.0
 40
0.0
 40
0.9999999879525887
 40
1.999999990362071
 40
2.999999992771553
 40
3.999999995181036
 40
4.999999997590518
 40
6.0
 40
6.0
 40
6.0
 40
6.0
 10
11.39096537649999
 20
22.6959191092
 30
0.0
 10
11.40829592916054
 20
22.78507947903222
 30
0.0
 10
11.43853222499408
 20
22.96415582286964
 30
0.0
 10
11.47316219843032
 20
23.23466933215743
 30
0.0
 10
11.4981533648839
 20
23.50521020866418
 30
0.0
 10
11.51970429371966
 20
23.77970397755479
 30
0.0
 10
11.5221707954899
 20
24.04188644391326
 30
0.0
 10
11.53901698100913
 20
24.24874758105072
 30
0.0
 10
11.4586963022
 20
24.2903894616
 30
0.0
  0
SPLINE
  5
83
330
1F
100
AcDbEntity
  8
Default
100
AcDbSpline
210
0.0
220
0.0
230
1.0
 70
     8
 71
     3
 72
     8
 73
     4
 74
     0
 42
0.0000000001
 43
0.0000000001
 40
-1.0
 40
-1.0
 40
-1.0
 40
-1.0
 40
0.0
 40
0.0
 40
0.0
 40
0.0
 10
10.46855461820002
 20
13.2458490068
 30
0.0
 10
10.59532311339049
 20
13.35480031696407
 30
0.0
 10
10.70742260418501
 20
13.48293983915829
 30
0.0
 10
10.78584263779999
 20
13.631369076
 30
0.0
  0
SPLINE
  5
84
330
1F
100
AcDbEntity
  8
Default
100
AcDbSpline
210
0.0
220
0.0
230
1.0
 70
     8
 71
     3
 72
    10
 73
     6
 74
     0
 42
0.0000000001
 43
0.0000000001
 40
0.9999999999999998
 40
0.9999999999999998
 40
0.9999999999999998
 40
0.9999999999999998
 40
2.0
 40
3.0
 40
4.0
 40
4.0
 40
4.0
 40
4.0
 10
10.78584263779999
 20
13.631369076
 30
0.0
 10
11.23398133927611
 20
14.59014842257357
 30
0.0
 10
11.74876471013221
 20
16.63093023309441
 30
0.0
 10
12.51925210340897
 20
19.67917061083526
 30
0.0
 10
13.0231195381038
 20
21.7166786803394
 30
0.0
 10
13.25405781680001
 20
22.7398257896
 30
0.0
  0
ARC
  5
85
330
1F
100
AcDbEntity
  8
Default
100
AcDbCircle
 10
-30.23161541060109
 20
32.55513624905024
 30
0.0
 40
44.57963767748344
100
AcDbArc
 50
347.2807030535608
 51
348.8617082427953
  0
ARC
  5
86
330
1F
100
AcDbEntity
  8
Default
100
AcDbCircle
 10
12.02726156026313
 20
24.23494093649544
 30
0.0
 40
1.509481735373177
100
AcDbArc
 50
348.861708242795
 51
359.8513994557253
  0
SPLINE
  5
87
330
1F
100
AcDbEntity
  8
Default
100
AcDbSpline
210
0.0
220
0.0
230
1.0
 70
     8
 71
     3
 72
     8
 73
     4
 74
     0
 42
0.0000000001
 43
0.0000000001
 40
0.0
 40
0.0
 40
0.0
 40
0.0
 40
1.0
 40
1.0
 40
1.0
 40
1.0
 10
13.5367382188
 20
24.2310259962
 30
0.0
 10
13.5368420467982
 20
24.27105877523386
 30
0.0
 10
13.52270033026548
 20
24.33141459676095
 30
0.0
 10
13.48331546462208
 20
24.33858861485952
 30
0.0
  0
ARC
  5
88
330
1F
100
AcDbEntity
  8
Default
100
AcDbCircle
 10
12.58751545218948
 20
19.42070819578604
 30
0.0
 40
4.998800403954986
100
AcDbArc
 50
79.67665993017413
 51
103.0508964143375
  0
SPLINE
  5
89
330
1F
100
AcDbEntity
  8
Default
100
AcDbSpline
210
0.0
220
0.0
230
1.0
 70
     8
 71
     3
 72
    26
 73
    22
 74
     0
 42
0.0000000001
 43
0.0000000001
 40
-19.0
 40
-19.0
 40
-19.0
 40
-19.0
 40
-18.0
 40
-17.0
 40
-16.0
 40
-15.0
 40
-14.0
 40
-13.0
 40
-12.0
 40
-11.0
 40
-10.0
 40
-9.0
 40
-8.0
 40
-7.0
 40
-6.0
 40
-5.0
 40
-4.0
 40
-3.0
 40
-2.0
 40
-1.0
 40
0.0
 40
0.0
 40
0.0
 40
0.0
 10
11.45870380000002
 20
24.290388856
 30
0.0
 10
11.26671457255674
 20
24.15194623995468
 30
0.0
 10
10.92856609288958
 20
23.91756361229475
 30
0.0
 10
10.46141101010483
 20
23.50448485937646
 30
0.0
 10
9.89140781533132
 20
23.25482381461776
 30
0.0
 10
9.26693749858859
 20
23.22058871575575
 30
0.0
 10
8.651142921570965
 20
23.1959747643961
 30
0.0
 10
8.032324074847509
 20
23.19929449768996
 30
0.0
 10
7.414430884703108
 20
23.21185892003505
 30
0.0
 10
6.79650154416322
 20
23.23106318899277
 30
0.0
 10
6.178746168990301
 20
23.25360578595945
 30
0.0
 10
5.56105902799311
 20
23.27831277435494
 30
0.0
 10
4.94340766996487
 20
23.30379750193394
 30
0.0
 10
4.325744266095967
 20
23.32900160968971
 30
0.0
 10
3.708028809128677
 20
23.35292241399523
 30
0.0
 10
3.090236365416047
 20
23.3747673740959
 30
0.0
 10
2.472351866916114
 20
23.39385539287089
 30
0.0
 10
1.85437501389714
 20
23.40970325228291
 30
0.0
 10
1.236311361847186
 20
23.42174835500416
 30
0.0
 10
0.6181770726894342
 20
23.42941417446225
 30
0.0
 10
0.2060591358548436
 20
23.43123872617286
 30
0.0
 10
0.0
 20
23.4312386326
 30
0.0
  0
SPLINE
  5
8A
330
1F
100
AcDbEntity
  8
Default
100
AcDbSpline
210
0.0
220
0.0
230
1.0
 70
     8
 71
     3
 72
    26
 73
    22
 74
     0
 42
0.0000000001
 43
0.0000000001
 40
0.0
 40
0.0
 40
0.0
 40
0.0
 40
1.0
 40
2.0
 40
3.0
 40
4.0
 40
5.0
 40
6.0
 40
7.0
 40
8.0
 40
9.0
 40
10.0
 40
11.0
 40
12.0
 40
13.0
 40
14.0
 40
15.0
 40
16.0
 40
17.0
 40
18.0
 40
19.0
 40
19.0
 40
19.0
 40
19.0
 10
0.0
 20
23.4312386326
 30
0.0
 10
-0.2060591358548436
 20
23.43123872617286
 30
0.0
 10
-0.6181770726894342
 20
23.42941417446225
 30
0.0
 10
-1.236311361847186
 20
23.42174835500416
 30
0.0
 10
-1.85437501389714
 20
23.40970325228291
 30
0.0
 10
-2.472351866916114
 20
23.39385539287089
 30
0.0
 10
-3.090236365416047
 20
23.3747673740959
 30
0.0
 10
-3.708028809128677
 20
23.35292241399523
 30
0.0
 10
-4.325744266095967
 20
23.32900160968971
 30
0.0
 10
-4.94340766996487
 20
23.30379750193394
 30
0.0
 10
-5.56105902799311
 20
23.27831277435494
 30
0.0
 10
-6.178746168990301
 20
23.25360578595945
 30
0.0
 10
-6.796501544163249
 20
23.23106318899277
 30
0.0
 10
-7.414430884703094
 20
23.21185892003505
 30
0.0
 10
-8.032324074847509
 20
23.19929449768996
 30
0.0
 10
-8.651142921570951
 20
23.1959747643961
 30
0.0
 10
-9.26693749858859
 20
23.22058871575575
 30
0.0
 10
-9.891407815331348
 20
23.25482381461776
 30
0.0
 10
-10.46141101010484
 20
23.50448485937646
 30
0.0
 10
-10.9285660928896
 20
23.91756361229475
 30
0.0
 10
-11.26671457255675
 20
24.15194623995468
 30
0.0
 10
-11.45870380000001
 20
24.290388856
 30
0.0
  0
ARC
  5
8B
330
1F
100
AcDbEntity
  8
Default
100
AcDbCircle
 10
-12.58751545218948
 20
19.42070819578604
 30
0.0
 40
4.998800403954986
100
AcDbArc
 50
76.94910358566172
 51
100.3233400698251
  0
SPLINE
  5
8C
330
1F
100
AcDbEntity
  8
Default
100
AcDbSpline
210
0.0
220
0.0
230
1.0
 70
     8
 71
     3
 72
     8
 73
     4
 74
     0
 42
0.0000000001
 43
0.0000000001
 40
-1.0
 40
-1.0
 40
-1.0
 40
-1.0
 40
0.0
 40
0.0
 40
0.0
 40
0.0
 10
-13.48331546462207
 20
24.33858861485952
 30
0.0
 10
-13.52270033026548
 20
24.33141459676095
 30
0.0
 10
-13.5368420467982
 20
24.27105877523386
 30
0.0
 10
-13.53673821880001
 20
24.2310259962
 30
0.0
  0
ARC
  5
8D
330
1F
100
AcDbEntity
  8
Default
100
AcDbCircle
 10
-12.02726156026311
 20
24.23494093649544
 30
0.0
 40
1.509481735373177
100
AcDbArc
 50
180.148600544274
 51
191.1382917572043
  0
ARC
  5
8E
330
1F
100
AcDbEntity
  8
Default
100
AcDbCircle
 10
30.23161541060108
 20
32.55513624905024
 30
0.0
 40
44.57963767748344
100
AcDbArc
 50
191.1382917572052
 51
192.7192969464397
  0
SPLINE
  5
8F
330
1F
100
AcDbEntity
  8
Default
100
AcDbSpline
210
0.0
220
0.0
230
1.0
 70
     8
 71
     3
 72
    10
 73
     6
 74
     0
 42
0.0000000001
 43
0.0000000001
 40
-4.0
 40
-4.0
 40
-4.0
 40
-4.0
 40
-3.0
 40
-2.0
 40
-0.9999999999999998
 40
-0.9999999999999998
 40
-0.9999999999999998
 40
-0.9999999999999998
 10
-13.2540578168
 20
22.7398257896
 30
0.0
 10
-13.0231195381038
 20
21.7166786803394
 30
0.0
 10
-12.51925210340896
 20
19.67917061083526
 30
0.0
 10
-11.74876471013221
 20
16.63093023309441
 30
0.0
 10
-11.23398133927614
 20
14.59014842257357
 30
0.0
 10
-10.7858426378
 20
13.631369076
 30
0.0
  0
SPLINE
  5
90
330
1F
100
AcDbEntity
  8
Default
100
AcDbSpline
210
0.0
220
0.0
230
1.0
 70
     8
 71
     3
 72
     8
 73
     4
 74
     0
 42
0.0000000001
 43
0.0000000001
 40
0.0
 40
0.0
 40
0.0
 40
0.0
 40
1.0
 40
1.0
 40
1.0
 40
1.0
 10
-10.7858426378
 20
13.631369076
 30
0.0
 10
-10.70742260418503
 20
13.48293983915829
 30
0.0
 10
-10.59532311339049
 20
13.35480031696407
 30
0.0
 10
-10.4685546182
 20
13.2458490068
 30
0.0
  0
SPLINE
  5
91
330
1F
100
AcDbEntity
  8
Default
  6
Continuous
100
AcDbSpline
210
0.0
220
0.0
230
1.0
 70
     8
 71
     3
 72
    14
 73
    10
 74
     0
 42
0.0000000001
 43
0.0000000001
 40
0.0
 40
0.0
 40
0.0
 40
0.0
 40
1.0
 40
2.0
 40
3.0
 40
4.0
 40
5.0
 40
6.0
 40
7.0
 40
7.0
 40
7.0
 40
7.0
 10
12.1353864742
 20
24.3968254214
 30
0.0
 10
11.78410298939616
 20
24.98164020520969
 30
0.0
 10
11.03420655942415
 20
26.12580662885522
 30
0.0
 10
9.643844713512578
 20
27.64060523147744
 30
0.0
 10
7.965973706478451
 20
28.83657886123028
 30
0.0
 10
6.071985648083569
 20
29.63566948086198
 30
0.0
 10
4.085372281953568
 20
30.15027968429153
 30
0.0
 10
2.047573149417389
 20
30.38252429079989
 30
0.0
 10
0.6824410252816904
 20
30.41585695552801
 30
0.0
 10
0.0
 20
30.4157103636
 30
0.0
  0
SPLINE
  5
92
330
1F
100
AcDbEntity
  8
Default
  6
Continuous
100
AcDbSpline
210
0.0
220
0.0
230
1.0
 70
     8
 71
     3
 72
    14
 73
    10
 74
     0
 42
0.0000000001
 43
0.0000000001
 40
-7.0
 40
-7.0
 40
-7.0
 40
-7.0
 40
-6.0
 40
-5.0
 40
-4.0
 40
-3.0
 40
-2.0
 40
-1.0
 40
0.0
 40
0.0
 40
0.0
 40
0.0
 10
0.0
 20
30.4157103636
 30
0.0
 10
-0.6824410252816904
 20
30.41585695552801
 30
0.0
 10
-2.047573149417389
 20
30.38252429079989
 30
0.0
 10
-4.085372281953568
 20
30.15027968429153
 30
0.0
 10
-6.071985648083569
 20
29.63566948086198
 30
0.0
 10
-7.965973706478451
 20
28.83657886123028
 30
0.0
 10
-9.643844713512593
 20
27.64060523147744
 30
0.0
 10
-11.03420655942415
 20
26.12580662885522
 30
0.0
 10
-11.78410298939619
 20
24.98164020520969
 30
0.0
 10
-12.1353864742
 20
24.3968254214
 30
0.0
  0
SPLINE
  5
93
330
1F
100
AcDbEntity
  8
Default
  6
Continuous
100
AcDbSpline
210
0.0
220
0.0
230
1.0
 70
     8
 71
     3
 72
    28
 73
    24
 74
     0
 42
0.0000000001
 43
0.0000000001
 40
0.0
 40
0.0
 40
0.0
 40
0.0
 40
1.0
 40
2.0
 40
3.0
 40
4.0
 40
5.0
 40
6.0
 40
7.0
 40
8.0
 40
9.0
 40
10.0
 40
11.0
 40
12.0
 40
13.0
 40
14.0
 40
15.0
 40
16.0
 40
17.0
 40
18.0
 40
19.0
 40
20.0
 40
21.0
 40
21.0
 40
21.0
 40
21.0
 10
19.31397190604054
 20
30.29077735405246
 30
0.0
 10
19.32320340054267
 20
29.98325742976282
 30
0.0
 10
19.48715069486471
 20
29.3887160883751
 30
0.0
 10
19.75605309332082
 20
28.51036780841522
 30
0.0
 10
20.04727888826415
 20
27.6373436648337
 30
0.0
 10
20.34446550989827
 20
26.76687997153731
 30
0.0
 10
20.64609923628686
 20
25.89780342001327
 30
0.0
 10
20.94993768269029
 20
25.0295360628371
 30
0.0
 10
21.25512304139329
 20
24.16173079731405
 30
0.0
 10
21.56106915088475
 20
23.29419609760916
 30
0.0
 10
21.86730953179813
 20
22.42676488420504
 30
0.0
 10
22.17333103364129
 20
21.55925638351053
 30
0.0
 10
22.47873856772193
 20
20.69153158892428
 30
0.0
 10
22.78373010182221
 20
19.82366007438613
 30
0.0
 10
23.08851306466445
 20
18.95571596083841
 30
0.0
 10
23.39301073005527
 20
18.08767148294737
 30
0.0
 10
23.697132747963
 20
17.21949515556423
 30
0.0
 10
24.00050165022793
 20
16.3510551025591
 30
0.0
 10
24.30361872498372
 20
15.48252799742966
 30
0.0
 10
24.60871649854238
 20
14.61469188714377
 30
0.0
 10
24.92162930189932
 20
13.74962386947435
 30
0.0
 10
25.25359163390578
 20
12.89159237712498
 30
0.0
 10
25.52522082767376
 20
12.34001120641934
 30
0.0
 10
25.69278005131997
 20
12.08284395934596
 30
0.0
  0
ARC
  5
94
330
1F
100
AcDbEntity
  8
Default
  6
Continuous
100
AcDbCircle
 10
25.93030187791629
 20
12.24035073018251
 30
0.0
 40
0.2850000017
100
AcDbArc
 50
213.5493713091551
 51
277.3440616506547
  0
LINE
  5
95
330
1F
100
AcDbEntity
  8
Default
  6
Continuous
100
AcDbLine
 10
25.96673267530281
 20
11.95768874481698
 30
0.0
 11
26.18415144468736
 21
11.9857067655914
 31
0.0
  0
ARC
  5
96
330
1F
100
AcDbEntity
  8
Default
  6
Continuous
100
AcDbCircle
 10
32.26017597339901
 20
13.84206528693518
 30
0.0
 40
4.930197214099278
100
AcDbArc
 50
198.1959379549553
 51
199.7147118507747
  0
SPLINE
  5
97
330
1F
100
AcDbEntity
  8
Default
  6
Continuous
100
AcDbSpline
210
0.0
220
0.0
230
1.0
 70
     8
 71
     3
 72
    11
 73
     7
 74
     0
 42
0.0000000001
 43
0.0000000001
 40
-1.0
 40
-1.0
 40
-1.0
 40
-1.0
 40
-0.7500046659575906
 40
-0.4999999752147193
 40
-0.2499952866718482
 40
0.0
 40
0.0
 40
0.0
 40
0.0
 10
45.34526616691448
 20
14.40774975265374
 30
0.0
 10
45.36207185027237
 20
14.58871794997971
 30
0.0
 10
45.37564803226996
 20
14.95282664169612
 30
0.0
 10
45.33658041543873
 20
15.4977081281417
 30
0.0
 10
45.23896191967117
 20
16.03519552910794
 30
0.0
 10
45.13529309872564
 20
16.38449798381066
 30
0.0
 10
45.07402559236348
 20
16.55560671990737
 30
0.0
  0
SPLINE
  5
98
330
1F
100
AcDbEntity
  8
Default
  6
Continuous
100
AcDbSpline
210
0.0
220
0.0
230
1.0
 70
     8
 71
     3
 72
    13
 73
     9
 74
     0
 42
0.0000000001
 43
0.0000000001
 40
-6.0
 40
-6.0
 40
-6.0
 40
-6.0
 40
-5.000000053519237
 40
-4.000000042815389
 40
-3.000000032111542
 40
-2.000000021407695
 40
-1.000000010703847
 40
0.0
 40
0.0
 40
0.0
 40
0.0
 10
45.07402559236348
 20
16.55560671990737
 30
0.0
 10
44.7532639961259
 20
16.6550124320478
 30
0.0
 10
44.0778030166255
 20
16.68084319363271
 30
0.0
 10
43.07480435448156
 20
16.63729084913647
 30
0.0
 10
42.07314020401077
 20
16.54247133264258
 30
0.0
 10
41.07433398397836
 20
16.42844940659982
 30
0.0
 10
40.07556706408789
 20
16.31239289182264
 30
0.0
 10
39.41006639020247
 20
16.23244639767523
 30
0.0
 10
39.07735768790508
 20
16.19206850030143
 30
0.0
  0
SPLINE
  5
99
330
1F
100
AcDbEntity
  8
Default
  6
Continuous
100
AcDbSpline
210
0.0
220
0.0
230
1.0
 70
     8
 71
     3
 72
     9
 73
     5
 74
     0
 42
0.0000000001
 43
0.0000000001
 40
0.0
 40
0.0
 40
0.0
 40
0.0
 40
1.0
 40
2.0
 40
2.0
 40
2.0
 40
2.0
 10
26.18415144468742
 20
11.98570676559132
 30
0.0
 10
28.15371581949222
 20
12.46344319815302
 30
0.0
 10
32.14697265929641
 20
13.17066158351706
 30
0.0
 10
36.17255644000102
 20
13.63971843706709
 30
0.0
 10
38.18226686139664
 20
13.89602565141963
 30
0.0
  0
SPLINE
  5
9A
330
1F
100
AcDbEntity
  8
Default
  6
Continuous
100
AcDbSpline
210
0.0
220
0.0
230
1.0
 70
     8
 71
     3
 72
    12
 73
     8
 74
     0
 42
0.0000000001
 43
0.0000000001
 40
0.0
 40
0.0
 40
0.0
 40
0.0
 40
1.0
 40
2.0
 40
3.0
 40
4.0
 40
5.0
 40
5.0
 40
5.0
 40
5.0
 10
38.18226686139664
 20
13.89602565141963
 30
0.0
 10
38.65901689101017
 20
13.9554092226407
 30
0.0
 10
39.61276775056427
 20
14.07306612649633
 30
0.0
 10
41.04404631051744
 20
14.24076737851842
 30
0.0
 10
42.4764960622939
 20
14.40929306956355
 30
0.0
 10
43.91058031416492
 20
14.52198026230483
 30
0.0
 10
44.87984851952578
 20
14.53783322572973
 30
0.0
 10
45.34525823847616
 20
14.40766438504014
 30
0.0
  0
SPLINE
  5
9B
330
1F
100
AcDbEntity
  8
Default
  6
Continuous
100
AcDbSpline
210
0.0
220
0.0
230
1.0
 70
     8
 71
     3
 72
    16
 73
    12
 74
     0
 42
0.0000000001
 43
0.0000000001
 40
-0.0472673743191835
 40
-0.0472673743191835
 40
-0.0472673743191835
 40
-0.0472673743191835
 40
1.0
 40
2.0
 40
3.0
 40
4.0
 40
5.0
 40
6.0
 40
7.0
 40
8.0
 40
9.0
 40
9.0
 40
9.0
 40
9.0
 10
19.31422516858674
 20
30.2932488696078
 30
0.0
 10
19.77391126999527
 20
29.72702467142295
 30
0.0
 10
20.79354283318378
 20
28.73129336346739
 30
0.0
 10
22.20167692204643
 20
27.1444803948336
 30
0.0
 10
23.63865694763979
 20
25.6390661468001
 30
0.0
 10
25.18075133343359
 20
24.19992435127921
 30
0.0
 10
27.19419047607659
 20
23.4781553044512
 30
0.0
 10
29.29645375668554
 20
23.67857299270881
 30
0.0
 10
31.36670862415423
 20
23.87732525469823
 30
0.0
 10
33.4438596966331
 20
24.09465230378668
 30
0.0
 10
34.82758090183029
 20
24.23182560879247
 30
0.0
 10
35.51990579900408
 20
24.29939093250265
 30
0.0
  0
SPLINE
  5
9C
330
1F
100
AcDbEntity
  8
Default
  6
Continuous
100
AcDbSpline
210
0.0
220
0.0
230
1.0
 70
     8
 71
     3
 72
    12
 73
     8
 74
     0
 42
0.0000000001
 43
0.0000000001
 40
0.0
 40
0.0
 40
0.0
 40
0.0
 40
1.0
 40
2.0
 40
3.0
 40
4.0
 40
5.0
 40
5.0
 40
5.0
 40
5.0
 10
35.51990579900408
 20
24.29939093250265
 30
0.0
 10
35.71008223368125
 20
24.31795061802525
 30
0.0
 10
36.10750988905369
 20
24.29626142353911
 30
0.0
 10
36.65259326321868
 20
24.10254262994098
 30
0.0
 10
37.12498719761737
 20
23.7685785017202
 30
0.0
 10
37.48456641516339
 20
23.3142811408537
 30
0.0
 10
37.62950412650753
 20
22.9115157805799
 30
0.0
 10
37.66712178326947
 20
22.72421514155831
 30
0.0
  0
SPLINE
  5
9D
330
1F
100
AcDbEntity
  8
Default
  6
Continuous
100
AcDbSpline
210
0.0
220
0.0
230
1.0
 70
     8
 71
     3
 72
     8
 73
     4
 74
     0
 42
0.0000000001
 43
0.0000000001
 40
0.0
 40
0.0
 40
0.0
 40
0.0
 40
1.0
 40
1.0
 40
1.0
 40
1.0
 10
37.66712178326947
 20
22.72421514155831
 30
0.0
 10
38.15185792285098
 20
20.30615702154952
 30
0.0
 10
38.63334381606074
 20
17.88743584512492
 30
0.0
 10
39.10500290951711
 20
15.46678934729375
 30
0.0
  0
SPLINE
  5
9E
330
1F
100
AcDbEntity
  8
Default
  6
Continuous
100
AcDbSpline
210
0.0
220
0.0
230
1.0
 70
     8
 71
     3
 72
     8
 73
     4
 74
     0
 42
0.0000000001
 43
0.0000000001
 40
0.0
 40
0.0
 40
0.0
 40
0.0
 40
1.0
 40
1.0
 40
1.0
 40
1.0
 10
39.10500290951711
 20
15.46678934729375
 30
0.0
 10
39.25007524494782
 20
14.74382040806656
 30
0.0
 10
38.58034481636167
 20
14.12412397966599
 30
0.0
 10
37.90733961472827
 20
14.04711011540711
 30
0.0
  0
ARC
  5
9F
330
1F
100
AcDbEntity
  8
Default
  6
Continuous
100
AcDbCircle
 10
37.62372201433149
 20
15.68500413491016
 30
0.0
 40
1.844422662115595
100
AcDbArc
 50
278.1577302843831
 51
287.5061916307577
  0
SPLINE
  5
A0
330
1F
100
AcDbEntity
  8
Default
  6
Continuous
100
AcDbSpline
210
0.0
220
0.0
230
1.0
 70
     8
 71
     3
 72
    11
 73
     7
 74
     0
 42
0.0000000001
 43
0.0000000001
 40
0.0
 40
0.0
 40
0.0
 40
0.0
 40
1.000000462038209
 40
2.000000924076418
 40
3.000001386114628
 40
4.0
 40
4.0
 40
4.0
 40
4.0
 10
38.1785406936836
 20
13.9260069235515
 30
0.0
 10
38.34052250696746
 20
13.97709883839075
 30
0.0
 10
38.64919529975003
 20
14.1299141207096
 30
0.0
 10
39.00933907069
 20
14.50189745764638
 30
0.0
 10
39.21406298560345
 20
14.97839245263668
 30
0.0
 10
39.22454117170201
 20
15.32397830780883
 30
0.0
 10
39.19740965121309
 20
15.49173210786028
 30
0.0
  0
POLYLINE
  5
A1
330
1F
100
AcDbEntity
  8
Default
  6
Continuous
100
AcDb2dPolyline
 66
     1
 10
0.0
 20
0.0
 30
0.0
  0
VERTEX
  5
A2
330
A1
100
AcDbEntity
  8
Default
  6
Continuous
100
AcDbVertex
100
AcDb2dVertex
 10
39.19740965121309
 20
15.49173210786028
 30
0.0
  0
VERTEX
  5
A3
330
A1
100
AcDbEntity
  8
Default
  6
Continuous
100
AcDbVertex
100
AcDb2dVertex
 10
39.08621822657705
 20
16.14223444850819
 30
0.0
  0
VERTEX
  5
A4
330
A1
100
AcDbEntity
  8
Default
  6
Continuous
100
AcDbVertex
100
AcDb2dVertex
 10
38.95320319014871
 20
16.889583904952
 30
0.0
  0
VERTEX
  5
A5
330
A1
100
AcDbEntity
  8
Default
  6
Continuous
100
AcDbVertex
100
AcDb2dVertex
 10
38.81061521851311
 20
17.6599168135321
 30
0.0
  0
VERTEX
  5
A6
330
A1
100
AcDbEntity
  8
Default
  6
Continuous
100
AcDbVertex
100
AcDb2dVertex
 10
38.65779501305093
 20
18.45672511952151
 30
0.0
  0
VERTEX
  5
A7
330
A1
100
AcDbEntity
  8
Default
  6
Continuous
100
AcDbVertex
100
AcDb2dVertex
 10
38.49486269339999
 20
19.27983779865565
 30
0.0
  0
VERTEX
  5
A8
330
A1
100
AcDbEntity
  8
Default
  6
Continuous
100
AcDbVertex
100
AcDb2dVertex
 10
38.32284783126195
 20
20.12539567547586
 30
0.0
  0
VERTEX
  5
A9
330
A1
100
AcDbEntity
  8
Default
  6
Continuous
100
AcDbVertex
100
AcDb2dVertex
 10
38.14210658588235
 20
20.9937687246105
 30
0.0
  0
VERTEX
  5
AA
330
A1
100
AcDbEntity
  8
Default
  6
Continuous
100
AcDbVertex
100
AcDb2dVertex
 10
37.95220005406588
 20
21.88961183936588
 30
0.0
  0
VERTEX
  5
AB
330
A1
100
AcDbEntity
  8
Default
  6
Continuous
100
AcDbVertex
100
AcDb2dVertex
 10
37.76852881342899
 20
22.74456577992291
 30
0.0
  0
SEQEND
  5
AC
330
A1
100
AcDbEntity
  8
Default
  6
Continuous
  0
SPLINE
  5
AD
330
1F
100
AcDbEntity
  8
Default
  6
Continuous
100
AcDbSpline
210
0.0
220
0.0
230
1.0
 70
     8
 71
     3
 72
    13
 73
     9
 74
     0
 42
0.0000000001
 43
0.0000000001
 40
0.0
 40
0.0
 40
0.0
 40
0.0
 40
1.000004818672768
 40
2.000014619859286
 40
3.000024421045805
 40
4.000034222232323
 40
5.00004402341884
 40
6.0
 40
6.0
 40
6.0
 40
6.0
 10
37.76852881342899
 20
22.74456577992291
 30
0.0
 10
37.7305988479016
 20
22.91045105990937
 30
0.0
 10
37.61756615198129
 20
23.23403786031231
 30
0.0
 10
37.33600312910477
 20
23.66428782398874
 30
0.0
 10
36.96167569179178
 20
24.01710210679427
 30
0.0
 10
36.51448791408805
 20
24.27048029934462
 30
0.0
 10
36.02133546172058
 20
24.41654894172081
 30
0.0
 10
35.67834562206644
 20
24.42756773231979
 30
0.0
 10
35.50877976535298
 20
24.41338182982809
 30
0.0
  0
SPLINE
  5
AE
330
1F
100
AcDbEntity
  8
Default
  6
Continuous
100
AcDbSpline
210
0.0
220
0.0
230
1.0
 70
     8
 71
     3
 72
    16
 73
    12
 74
     0
 42
0.0000000001
 43
0.0000000001
 40
0.0
 40
0.0
 40
0.0
 40
0.0
 40
0.9999843181530425
 40
1.999986351335018
 40
2.999988384516994
 40
3.99999041769897
 40
4.999992450880945
 40
5.99999448406292
 40
6.999996517244895
 40
7.999998550426871
 40
9.0
 40
9.0
 40
9.0
 40
9.0
 10
35.50877976535298
 20
24.41338182982809
 30
0.0
 10
34.99009959105507
 20
24.36486399299449
 30
0.0
 10
33.95309596486356
 20
24.26350594856141
 30
0.0
 10
32.39805942011878
 20
24.10848280583258
 30
0.0
 10
30.84219917107214
 20
23.95600387413576
 30
0.0
 10
29.28908394938253
 20
23.79673654912717
 30
0.0
 10
27.72594427254401
 20
23.66112663784432
 30
0.0
 10
26.16929702110815
 20
23.98205558372785
 30
0.0
 10
24.86899465464785
 20
24.89262481967872
 30
0.0
 10
23.81645952948389
 20
26.05046956948198
 30
0.0
 10
23.22063956042308
 20
26.91019778828631
 30
0.0
 10
22.98311473296815
 20
27.37442402743002
 30
0.0
  0
SPLINE
  5
AF
330
1F
100
AcDbEntity
  8
Default
  6
Continuous
100
AcDbSpline
210
0.0
220
0.0
230
1.0
 70
     8
 71
     3
 72
    16
 73
    12
 74
     0
 42
0.0000000001
 43
0.0000000001
 40
0.0
 40
0.0
 40
0.0
 40
0.0
 40
1.0
 40
2.0
 40
3.0
 40
4.0
 40
5.0
 40
6.0
 40
7.0
 40
8.0
 40
9.0
 40
9.0
 40
9.0
 40
9.0
 10
22.98311473296815
 20
27.37442402743002
 30
0.0
 10
22.92335342875839
 20
27.56350576563327
 30
0.0
 10
22.79965696118177
 20
27.94035795773866
 30
0.0
 10
22.59217639215183
 20
28.49810197483325
 30
0.0
 10
22.35101099563093
 20
29.04225301295262
 30
0.0
 10
22.04775610746287
 20
29.55679575489286
 30
0.0
 10
21.63012223361994
 20
29.98828244537156
 30
0.0
 10
21.105625853525
 20
30.28250607531303
 30
0.0
 10
20.52145525322447
 20
30.41868246175704
 30
0.0
 10
19.92394389254522
 20
30.42235282847988
 30
0.0
 10
19.53117615073887
 20
30.36065484664213
 30
0.0
 10
19.33749694138146
 20
30.31826406444373
 30
0.0
  0
SPLINE
  5
B0
330
1F
100
AcDbEntity
  8
Default
100
AcDbSpline
210
0.0
220
0.0
230
1.0
 70
    12
 71
     2
 72
     6
 73
     3
 74
     0
 42
0.0000000001
 43
0.0000000001
 40
-0.0243282140816022
 40
-0.0243282140816022
 40
-0.0243282140816022
 40
0.0
 40
0.0
 40
0.0
 10
-0.0018033671286597
 20
65.92728661845096
 30
0.0
 41
1.0
 10
-0.0018034087279338
 20
65.915122511406
 30
0.0
 41
0.9999999994740266
 10
-0.0018026612724888
 20
65.90295840438387
 30
0.0
 41
1.0
  0
SPLINE
  5
B1
330
1F
100
AcDbEntity
  8
Default
100
AcDbSpline
210
0.0
220
0.0
230
1.0
 70
     8
 71
     3
 72
    17
 73
    13
 74
     0
 42
0.0000000001
 43
0.0000000001
 40
0.0
 40
0.0
 40
0.0
 40
0.0
 40
1.0
 40
2.0
 40
3.0
 40
4.0
 40
5.0
 40
6.0
 40
7.0
 40
8.0
 40
9.0
 40
10.0
 40
10.0
 40
10.0
 40
10.0
 10
-13.48955862869296
 20
49.70904842303586
 30
0.0
 10
-13.41263691019122
 20
50.5339315805385
 30
0.0
 10
-13.25442901214658
 20
52.1826443029543
 30
0.0
 10
-13.01329167506779
 20
54.65774566512799
 30
0.0
 10
-12.77449391893013
 20
57.1253831478089
 30
0.0
 10
-12.4704962273123
 20
59.61475650238503
 30
0.0
 10
-11.26992875054809
 20
61.83773002062055
 30
0.0
 10
-9.506825226384938
 20
63.61837143241026
 30
0.0
 10
-7.342524473424337
 20
64.87408663623746
 30
0.0
 10
-4.968538819232301
 20
65.6593646232171
 30
0.0
 10
-2.486149495167347
 20
65.90331662116945
 30
0.0
 10
-0.8303698854546968
 20
65.92636905852689
 30
0.0
 10
-0.0018033671286597
 20
65.92728661845096
 30
0.0
  0
SPLINE
  5
B2
330
1F
100
AcDbEntity
  8
Default
100
AcDbSpline
210
0.0
220
0.0
230
1.0
 70
    24
 71
     2
 72
     6
 73
     3
 74
     0
 42
0.0000000001
 43
0.0000000001
 40
0.0
 40
0.0
 40
0.0
 40
0.0033976215097731
 40
0.0033976215097731
 40
0.0033976215097731
 10
-1.375000000468503
 20
57.92488488447351
 30
0.0
 10
-1.375000000468503
 20
57.92318607371863
 30
0.0
 10
-1.375000000468503
 20
57.92148726296374
 30
0.0
  0
SPLINE
  5
B3
330
1F
100
AcDbEntity
  8
Default
100
AcDbSpline
210
0.0
220
0.0
230
1.0
 70
    12
 71
     2
 72
     6
 73
     3
 74
     0
 42
0.0000000001
 43
0.0000000001
 40
-0.0243282140816022
 40
-0.0243282140816022
 40
-0.0243282140816022
 40
0.0
 40
0.0
 40
0.0
 10
0.0018033671286597
 20
65.92728661845096
 30
0.0
 41
1.0
 10
0.0018034087279338
 20
65.915122511406
 30
0.0
 41
0.9999999994740266
 10
0.0018026612724888
 20
65.90295840438387
 30
0.0
 41
1.0
  0
SPLINE
  5
B4
330
1F
100
AcDbEntity
  8
Default
100
AcDbSpline
210
0.0
220
0.0
230
1.0
 70
     8
 71
     3
 72
    17
 73
    13
 74
     0
 42
0.0000000001
 43
0.0000000001
 40
0.0
 40
0.0
 40
0.0
 40
0.0
 40
1.0
 40
2.0
 40
3.0
 40
4.0
 40
5.0
 40
6.0
 40
7.0
 40
8.0
 40
9.0
 40
10.0
 40
10.0
 40
10.0
 40
10.0
 10
13.48955862869296
 20
49.70904842303586
 30
0.0
 10
13.41263691019122
 20
50.5339315805385
 30
0.0
 10
13.25442901214658
 20
52.1826443029543
 30
0.0
 10
13.01329167506779
 20
54.65774566512799
 30
0.0
 10
12.77449391893013
 20
57.1253831478089
 30
0.0
 10
12.4704962273123
 20
59.61475650238503
 30
0.0
 10
11.26992875054809
 20
61.83773002062055
 30
0.0
 10
9.506825226384938
 20
63.61837143241026
 30
0.0
 10
7.342524473424337
 20
64.87408663623746
 30
0.0
 10
4.968538819232301
 20
65.6593646232171
 30
0.0
 10
2.486149495167347
 20
65.90331662116945
 30
0.0
 10
0.8303698854546968
 20
65.92636905852689
 30
0.0
 10
0.0018033671286597
 20
65.92728661845096
 30
0.0
  0
SPLINE
  5
B5
330
1F
100
AcDbEntity
  8
Default
100
AcDbSpline
210
0.0
220
0.0
230
1.0
 70
     8
 71
     3
 72
    18
 73
    14
 74
     0
 42
0.0000000001
 43
0.0000000001
 40
-12.996729394557
 40
-12.996729394557
 40
-12.996729394557
 40
-12.996729394557
 40
-11.70902233993589
 40
-10.52334661769655
 40
-9.419863324281469
 40
-8.33448894304165
 40
-7.506600912544638
 40
-7.06955231228748
 40
-6.619961480435221
 40
-6.014743541742058
 40
-5.293784860928203
 40
-4.562035477800547
 40
0.0
 40
0.0
 40
0.0
 40
0.0
 10
6.276499944191868
 20
60.73605661332265
 30
0.0
 10
6.684600397829003
 20
60.60335908967699
 30
0.0
 10
7.452161913021058
 20
60.2946021675626
 30
0.0
 10
8.463789013667817
 20
59.65246279564658
 30
0.0
 10
9.264461029794575
 20
58.8510874179952
 30
0.0
 10
9.789664316433797
 20
57.98565847941243
 30
0.0
 10
10.06656619358226
 20
57.25096836253934
 30
0.0
 10
10.22618003909028
 20
56.70216314757953
 30
0.0
 10
10.33393203672472
 20
56.21633865423842
 30
0.0
 10
10.43463573655983
 20
55.63307471076495
 30
0.0
 10
10.54863864359133
 20
54.95662027537954
 30
0.0
 10
10.88371674800734
 20
52.97991413531602
 30
0.0
 10
11.17804842575031
 20
51.24003118490059
 30
0.0
 10
11.43200115840846
 20
49.74071069461002
 30
0.0
  0
SPLINE
  5
B6
330
1F
100
AcDbEntity
  8
Default
100
AcDbSpline
210
0.0
220
0.0
230
1.0
 70
     8
 71
     3
 72
    12
 73
     8
 74
     0
 42
0.0000000001
 43
0.0000000001
 40
0.0
 40
0.0
 40
0.0
 40
0.0
 40
1.067068036872029
 40
2.041496137445806
 40
3.76150622511866
 40
5.175533214283406
 40
6.329134064261641
 40
6.329134064261641
 40
6.329134064261641
 40
6.329134064261641
 10
0.0013806500260003
 20
61.37160697569551
 30
0.0
 10
0.3570859511675053
 20
61.37160071579338
 30
0.0
 10
1.037540562673339
 20
61.36494774592599
 30
0.0
 10
2.290963172548933
 20
61.32779002944739
 30
0.0
 10
3.657804503550004
 20
61.23692359774712
 30
0.0
 10
5.076211642866697
 20
61.05212284843211
 30
0.0
 10
5.910573768668457
 20
60.85468571525657
 30
0.0
 10
6.276499944191868
 20
60.73605661332265
 30
0.0
  0
SPLINE
  5
B7
330
1F
100
AcDbEntity
  8
Default
100
AcDbSpline
210
0.0
220
0.0
230
1.0
 70
     8
 71
     3
 72
    18
 73
    14
 74
     0
 42
0.0000000001
 43
0.0000000001
 40
-12.996729394557
 40
-12.996729394557
 40
-12.996729394557
 40
-12.996729394557
 40
-11.70902233993589
 40
-10.52334661769655
 40
-9.419863324281469
 40
-8.33448894304165
 40
-7.506600912544638
 40
-7.06955231228748
 40
-6.619961480435221
 40
-6.014743541742058
 40
-5.293784860928203
 40
-4.562035477800547
 40
0.0
 40
0.0
 40
0.0
 40
0.0
 10
-6.276499944191868
 20
60.73605661332265
 30
0.0
 10
-6.684600397829003
 20
60.60335908967699
 30
0.0
 10
-7.452161913021058
 20
60.2946021675626
 30
0.0
 10
-8.463789013667817
 20
59.65246279564658
 30
0.0
 10
-9.264461029794575
 20
58.8510874179952
 30
0.0
 10
-9.789664316433797
 20
57.98565847941243
 30
0.0
 10
-10.06656619358226
 20
57.25096836253934
 30
0.0
 10
-10.22618003909028
 20
56.70216314757953
 30
0.0
 10
-10.33393203672472
 20
56.21633865423842
 30
0.0
 10
-10.43463573655983
 20
55.63307471076495
 30
0.0
 10
-10.54863864359133
 20
54.95662027537954
 30
0.0
 10
-10.88371674800734
 20
52.97991413531602
 30
0.0
 10
-11.17804842575031
 20
51.24003118490059
 30
0.0
 10
-11.43200115840846
 20
49.74071069461002
 30
0.0
  0
SPLINE
  5
B8
330
1F
100
AcDbEntity
  8
Default
100
AcDbSpline
210
0.0
220
0.0
230
1.0
 70
     8
 71
     3
 72
    12
 73
     8
 74
     0
 42
0.0000000001
 43
0.0000000001
 40
0.0
 40
0.0
 40
0.0
 40
0.0
 40
1.067068036872029
 40
2.041496137445806
 40
3.76150622511866
 40
5.175533214283406
 40
6.329134064261641
 40
6.329134064261641
 40
6.329134064261641
 40
6.329134064261641
 10
-0.0013806500260003
 20
61.37160697569551
 30
0.0
 10
-0.3570859511675053
 20
61.37160071579338
 30
0.0
 10
-1.037540562673339
 20
61.36494774592599
 30
0.0
 10
-2.290963172548933
 20
61.32779002944739
 30
0.0
 10
-3.657804503550004
 20
61.23692359774712
 30
0.0
 10
-5.076211642866697
 20
61.05212284843211
 30
0.0
 10
-5.910573768668457
 20
60.85468571525657
 30
0.0
 10
-6.276499944191868
 20
60.73605661332265
 30
0.0
  0
SPLINE
  5
B9
330
1F
100
AcDbEntity
  8
Default
100
AcDbSpline
210
0.0
220
0.0
230
1.0
 70
     8
 71
     3
 72
    41
 73
    37
 74
     0
 42
0.0000000001
 43
0.0000000001
 40
-30.9923083681449
 40
-30.9923083681449
 40
-30.9923083681449
 40
-30.9923083681449
 40
-28.18785996747044
 40
-26.12856398713881
 40
-25.26904521069529
 40
-24.45804832386907
 40
-24.10647369669179
 40
-23.77378903386136
 40
-23.1483243741332
 40
-22.6057413226409
 40
-22.09404790741185
 40
-21.54402243119869
 40
-21.03628423513447
 40
-20.42610485946087
 40
-19.49717071669205
 40
-18.60608786685293
 40
-17.60113343959123
 40
-15.89801642521786
 40
-14.10003830581897
 40
-12.39820439341131
 40
-11.20293490683236
 40
-10.36178653030276
 40
-9.573112226322916
 40
-8.815481065105082
 40
-8.457049215917213
 40
-8.124871278728936
 40
-6.643222241656042
 40
-5.906282574875513
 40
-5.090114252596218
 40
-4.225214604885188
 40
-3.613090616294691
 40
-3.083384902836626
 40
-2.4381168886236
 40
-1.550252083247214
 40
-0.7334644838335925
 40
0.0
 40
0.0
 40
0.0
 40
0.0
 10
0.0
 20
40.2890320936727
 30
0.0
 10
-0.9346790120374322
 20
40.28864791756538
 30
0.0
 10
-2.556872226803735
 20
40.307900894891
 30
0.0
 10
-4.457688445722335
 20
40.49478355901047
 30
0.0
 10
-5.680117982731718
 20
40.72644010687221
 30
0.0
 10
-6.330651855211083
 20
40.90581849777796
 30
0.0
 10
-6.798249061114271
 20
41.07898074037975
 30
0.0
 10
-7.198465745306734
 20
41.2539525950988
 30
0.0
 10
-7.633994366970261
 20
41.50288684856759
 30
0.0
 10
-8.072491248171488
 20
41.85409853078718
 30
0.0
 10
-8.426878512678808
 20
42.25744263355653
 30
0.0
 10
-8.69999670165481
 20
42.70563054389824
 30
0.0
 10
-8.905284722626302
 20
43.22518730239887
 30
0.0
 10
-9.042207445398962
 20
43.89454040195682
 30
0.0
 10
-9.147106213604703
 20
44.69824271517559
 30
0.0
 10
-9.210427037645207
 20
45.63814754404396
 30
0.0
 10
-9.226182229962408
 20
46.83805940670184
 30
0.0
 10
-9.19580674501711
 20
48.3398119342295
 30
0.0
 10
-9.108744632071236
 20
50.07239918587594
 30
0.0
 10
-8.972145270987376
 20
51.63139662368067
 30
0.0
 10
-8.823951064463582
 20
52.8692624601873
 30
0.0
 10
-8.622213982188704
 20
53.79070436533169
 30
0.0
 10
-8.359141674502379
 20
54.54317911741076
 30
0.0
 10
-8.073257895796317
 20
55.11207619648208
 30
0.0
 10
-7.808023638427281
 20
55.51575664727233
 30
0.0
 10
-7.368945264438071
 20
56.09222015156415
 30
0.0
 10
-6.716698227281288
 20
56.65597433127107
 30
0.0
 10
-5.813802867649209
 20
57.11774891801868
 30
0.0
 10
-5.047205387409328
 20
57.37455418232167
 30
0.0
 10
-4.296028543421652
 20
57.52035571132552
 30
0.0
 10
-3.633540291466012
 20
57.61354249028497
 30
0.0
 10
-3.040914240681744
 20
57.6742638407203
 30
0.0
 10
-2.355377194099949
 20
57.72854026010366
 30
0.0
 10
-1.573328394619038
 20
57.77312017196446
 30
0.0
 10
-0.7612357222969219
 20
57.80602898505963
 30
0.0
 10
-0.2444914160342648
 20
57.81339991896773
 30
0.0
 10
0.0
 20
57.81318670403554
 30
0.0
  0
SPLINE
  5
BA
330
1F
100
AcDbEntity
  8
Default
100
AcDbSpline
210
0.0
220
0.0
230
1.0
 70
     8
 71
     3
 72
    41
 73
    37
 74
     0
 42
0.0000000001
 43
0.0000000001
 40
0.0
 40
0.0
 40
0.0
 40
0.0
 40
0.7334644838335925
 40
1.550252083247214
 40
2.4381168886236
 40
3.083384902836626
 40
3.613090616294691
 40
4.225214604885188
 40
5.090114252596218
 40
5.906282574875513
 40
6.643222241656042
 40
8.124871278728936
 40
8.457049215917213
 40
8.815481065105082
 40
9.573112226322916
 40
10.36178653030276
 40
11.20293490683236
 40
12.39820439341131
 40
14.10003830581897
 40
15.89801642521786
 40
17.60113343959123
 40
18.60608786685293
 40
19.49717071669205
 40
20.42610485946087
 40
21.03628423513447
 40
21.54402243119869
 40
22.09404790741185
 40
22.6057413226409
 40
23.1483243741332
 40
23.77378903386136
 40
24.10647369669179
 40
24.45804832386907
 40
25.26904521069529
 40
26.12856398713881
 40
28.18785996747044
 40
30.9923083681449
 40
30.9923083681449
 40
30.9923083681449
 40
30.9923083681449
 10
0.0
 20
57.81318670403554
 30
0.0
 10
0.2444914160342648
 20
57.81339991896773
 30
0.0
 10
0.7612357222969219
 20
57.80602898505963
 30
0.0
 10
1.573328394619038
 20
57.77312017196446
 30
0.0
 10
2.355377194099949
 20
57.72854026010366
 30
0.0
 10
3.040914240681744
 20
57.6742638407203
 30
0.0
 10
3.633540291466012
 20
57.61354249028497
 30
0.0
 10
4.296028543421652
 20
57.52035571132552
 30
0.0
 10
5.047205387409328
 20
57.37455418232167
 30
0.0
 10
5.813802867649209
 20
57.11774891801868
 30
0.0
 10
6.716698227281288
 20
56.65597433127107
 30
0.0
 10
7.368945264438071
 20
56.09222015156415
 30
0.0
 10
7.808023638427281
 20
55.51575664727233
 30
0.0
 10
8.073257895796317
 20
55.11207619648208
 30
0.0
 10
8.359141674502379
 20
54.54317911741076
 30
0.0
 10
8.622213982188704
 20
53.79070436533169
 30
0.0
 10
8.823951064463582
 20
52.8692624601873
 30
0.0
 10
8.972145270987376
 20
51.63139662368067
 30
0.0
 10
9.108744632071236
 20
50.07239918587594
 30
0.0
 10
9.19580674501711
 20
48.3398119342295
 30
0.0
 10
9.226182229962408
 20
46.83805940670184
 30
0.0
 10
9.210427037645207
 20
45.63814754404396
 30
0.0
 10
9.147106213604703
 20
44.69824271517559
 30
0.0
 10
9.042207445398962
 20
43.89454040195682
 30
0.0
 10
8.905284722626302
 20
43.22518730239887
 30
0.0
 10
8.69999670165481
 20
42.70563054389824
 30
0.0
 10
8.426878512678808
 20
42.25744263355653
 30
0.0
 10
8.072491248171488
 20
41.85409853078718
 30
0.0
 10
7.633994366970261
 20
41.50288684856759
 30
0.0
 10
7.198465745306734
 20
41.2539525950988
 30
0.0
 10
6.798249061114271
 20
41.07898074037975
 30
0.0
 10
6.330651855211083
 20
40.90581849777796
 30
0.0
 10
5.680117982731718
 20
40.72644010687221
 30
0.0
 10
4.457688445722335
 20
40.49478355901047
 30
0.0
 10
2.556872226803735
 20
40.307900894891
 30
0.0
 10
0.9346790120374322
 20
40.28864791756538
 30
0.0
 10
0.0
 20
40.2890320936727
 30
0.0
  0
SPLINE
  5
BB
330
1F
100
AcDbEntity
  8
Default
100
AcDbSpline
210
0.0
220
0.0
230
1.0
 70
     8
 71
     3
 72
    12
 73
     8
 74
     0
 42
0.0000000001
 43
0.0000000001
 40
0.0
 40
0.0
 40
0.0
 40
0.0
 40
0.3867932544119657
 40
0.8177802007218444
 40
1.809413212430772
 40
3.118809823376807
 40
4.503853331862265
 40
4.503853331862265
 40
4.503853331862265
 40
4.503853331862265
 10
-8.703343392352952
 20
54.48800478135528
 30
0.0
 10
-8.749518216068967
 20
54.36759636866938
 30
0.0
 10
-8.837840102809775
 20
54.10964295791967
 30
0.0
 10
-9.002836511594868
 20
53.52923019023102
 30
0.0
 10
-9.191476459390143
 20
52.63772128175506
 30
0.0
 10
-9.376341792089255
 20
51.42275266796072
 30
0.0
 10
-9.48170200200099
 20
50.53067483807304
 30
0.0
 10
-9.523801668936335
 20
50.07089204456871
 30
0.0
  0
SPLINE
  5
BC
330
1F
100
AcDbEntity
  8
Default
100
AcDbSpline
210
0.0
220
0.0
230
1.0
 70
     8
 71
     5
 72
    12
 73
     6
 74
     0
 42
0.0000000001
 43
0.0000000001
 40
0.0
 40
0.0
 40
0.0
 40
0.0
 40
0.0
 40
0.0
 40
1.0
 40
1.0
 40
1.0
 40
1.0
 40
1.0
 40
1.0
 10
-11.25471947392291
 20
46.11717720375275
 30
0.0
 10
-11.24386535464991
 20
46.10916791708769
 30
0.0
 10
-11.23301074659282
 20
46.10115929281879
 30
0.0
 10
-11.21980038083349
 20
46.09469009929488
 30
0.0
 10
-11.20661724931348
 20
46.09183144146098
 30
0.0
 10
-11.19341775005726
 20
46.08905047086406
 30
0.0
  0
SPLINE
  5
BD
330
1F
100
AcDbEntity
  8
Default
100
AcDbSpline
210
0.0
220
0.0
230
1.0
 70
     8
 71
     5
 72
    12
 73
     6
 74
     0
 42
0.0000000001
 43
0.0000000001
 40
0.0
 40
0.0
 40
0.0
 40
0.0
 40
0.0
 40
0.0
 40
1.0
 40
1.0
 40
1.0
 40
1.0
 40
1.0
 40
1.0
 10
-9.692833126195701
 20
47.54091209613326
 30
0.0
 10
-9.695164834368704
 20
47.49366033689752
 30
0.0
 10
-9.697472564343848
 20
47.44640739442203
 30
0.0
 10
-9.672092182914072
 20
47.39959685592282
 30
0.0
 10
-9.67358255546403
 20
47.35231101978975
 30
0.0
 10
-9.675149666509498
 20
47.30502772700206
 30
0.0
  0
SPLINE
  5
BE
330
1F
100
AcDbEntity
  8
Default
100
AcDbSpline
210
0.0
220
0.0
230
1.0
 70
     8
 71
     3
 72
    11
 73
     7
 74
     0
 42
0.0000000001
 43
0.0000000001
 40
0.0
 40
0.0
 40
0.0
 40
0.0
 40
0.3197744795863026
 40
0.6240233113606278
 40
1.234270588508635
 40
2.345962402636173
 40
2.345962402636173
 40
2.345962402636173
 40
2.345962402636173
 10
-1.108722873995072
 20
57.9323887856122
 30
0.0
 10
-1.215283076098636
 20
57.92974748217043
 30
0.0
 10
-1.423202018473139
 20
57.92374482179265
 30
0.0
 10
-1.834356122248359
 20
57.9086043864424
 30
0.0
 10
-2.508941132205537
 20
57.87523941578631
 30
0.0
 10
-3.081364321804035
 20
57.83140294856541
 30
0.0
 10
-3.45000841523485
 20
57.79362015421528
 30
0.0
  0
SPLINE
  5
BF
330
1F
100
AcDbEntity
  8
Default
100
AcDbSpline
210
0.0
220
0.0
230
1.0
 70
    12
 71
     2
 72
     6
 73
     3
 74
     0
 42
0.0000000001
 43
0.0000000001
 40
-2.412764561201183
 40
-2.412764561201183
 40
-2.412764561201183
 40
0.0
 40
0.0
 40
0.0
 10
-13.18986598243717
 20
47.55821982101966
 30
0.0
 41
1.0
 10
-12.22543873084107
 20
46.83347381008224
 30
0.0
 41
0.9999904679061917
 10
-11.25471947392291
 20
46.11717720375275
 30
0.0
 41
1.0
  0
SPLINE
  5
C0
330
1F
100
AcDbEntity
  8
Default
100
AcDbSpline
210
0.0
220
0.0
230
1.0
 70
     8
 71
     3
 72
    13
 73
     9
 74
     0
 42
0.0000000001
 43
0.0000000001
 40
-2.227932314151448
 40
-2.227932314151448
 40
-2.227932314151448
 40
-2.227932314151448
 40
-1.453762137782131
 40
-0.8568000418749979
 40
-0.5880349582740244
 40
-0.3515879497813756
 40
-0.1527612807301966
 40
0.0
 40
0.0
 40
0.0
 40
0.0
 10
-13.48957588346165
 20
49.70886553559473
 30
0.0
 10
-13.51380535616296
 20
49.45197671285311
 30
0.0
 10
-13.55098807796224
 20
48.99602313068844
 30
0.0
 10
-13.52836344578508
 20
48.4483045243291
 30
0.0
 10
-13.46283696781499
 20
48.08621723193297
 30
0.0
 10
-13.39420885371073
 20
47.86128863426931
 30
0.0
 10
-13.30868140728112
 20
47.68404580975903
 30
0.0
 10
-13.23415606858271
 20
47.59204224250406
 30
0.0
 10
-13.18986598243717
 20
47.55821982101966
 30
0.0
  0
SPLINE
  5
C1
330
1F
100
AcDbEntity
  8
Default
100
AcDbSpline
210
0.0
220
0.0
230
1.0
 70
    24
 71
     2
 72
     6
 73
     3
 74
     0
 42
0.0000000001
 43
0.0000000001
 40
0.0
 40
0.0
 40
0.0
 40
0.0033976215097731
 40
0.0033976215097731
 40
0.0033976215097731
 10
1.375000000468503
 20
57.92488488447351
 30
0.0
 10
1.375000000468503
 20
57.92318607371863
 30
0.0
 10
1.375000000468503
 20
57.92148726296374
 30
0.0
  0
SPLINE
  5
C2
330
1F
100
AcDbEntity
  8
Default
100
AcDbSpline
210
0.0
220
0.0
230
1.0
 70
     8
 71
     3
 72
    42
 73
    38
 74
     0
 42
0.0000000001
 43
0.0000000001
 40
-31.81848238101573
 40
-31.81848238101573
 40
-31.81848238101573
 40
-31.81848238101573
 40
-31.09129241965158
 40
-30.27607933262205
 40
-28.7476668716159
 40
-27.58358577941639
 40
-27.08185354690114
 40
-26.63820306804136
 40
-25.80936224881703
 40
-25.03863939938404
 40
-24.26779127345278
 40
-23.50408582835124
 40
-22.76211858591257
 40
-21.98388451712601
 40
-21.16974595724957
 40
-20.30563344622991
 40
-19.75658226303172
 40
-19.00492972686498
 40
-17.35696062352953
 40
-15.59282609894377
 40
-13.85622612491522
 40
-12.78339890598619
 40
-11.87592282476991
 40
-11.39656536917387
 40
-10.89537219037217
 40
-10.56056322999011
 40
-10.27357229641922
 40
-9.145531613735562
 40
-8.584012925472644
 40
-8.01462186528339
 40
-7.368099885743641
 40
-6.655522770934367
 40
-5.855456321023096
 40
-4.931394379171954
 40
-2.828315045719364
 40
-1.518225396524252
 40
0.0
 40
0.0
 40
0.0
 40
0.0
 10
0.0
 20
57.95542525588795
 30
0.0
 10
-0.242846661423588
 20
57.95519995463843
 30
0.0
 10
-0.7569409390025168
 20
57.94597148330563
 30
0.0
 10
-1.779851589076811
 20
57.90748947592328
 30
0.0
 10
-2.946873568533558
 20
57.83194734278804
 30
0.0
 10
-4.005232226038972
 20
57.71110476511801
 30
0.0
 10
-4.697658850125881
 20
57.58695691216967
 30
0.0
 10
-5.273722879787744
 20
57.45237271797008
 30
0.0
 10
-5.919851001712621
 20
57.23168343172865
 30
0.0
 10
-6.624926202631571
 20
56.87014389881725
 30
0.0
 10
-7.24721511676792
 20
56.41499966173642
 30
0.0
 10
-7.779241497321608
 20
55.87015515260008
 30
0.0
 10
-8.220158321203183
 20
55.24709215768757
 30
0.0
 10
-8.574438762612758
 20
54.55197329040447
 30
0.0
 10
-8.846824085826437
 20
53.77837816295447
 30
0.0
 10
-9.014535235860551
 20
53.05394036471023
 30
0.0
 10
-9.120675785309233
 20
52.34005919386533
 30
0.0
 10
-9.235624691045608
 20
51.36380806400437
 30
0.0
 10
-9.35391119442251
 20
49.98073782408739
 30
0.0
 10
-9.442849389745827
 20
48.26654273963894
 30
0.0
 10
-9.47440294038446
 20
46.74223127780783
 30
0.0
 10
-9.459405687053874
 20
45.50305001107343
 30
0.0
 10
-9.406043491006917
 20
44.68459723284873
 30
0.0
 10
-9.333062364779423
 20
44.05926912228864
 30
0.0
 10
-9.265522180631853
 20
43.62620683155841
 30
0.0
 10
-9.197071987671826
 20
43.25780877619535
 30
0.0
 10
-9.045339749969882
 20
42.69460054247807
 30
0.0
 10
-8.74992287081384
 20
42.09527362755168
 30
0.0
 10
-8.253599064794855
 20
41.52530795337866
 30
0.0
 10
-7.793288724245869
 20
41.1488349126067
 30
0.0
 10
-7.235549090305216
 20
40.82592679938264
 30
0.0
 10
-6.567776486946429
 20
40.55315763413134
 30
0.0
 10
-5.785209404318089
 20
40.33311180069329
 30
0.0
 10
-4.532246847329384
 20
40.08683557867118
 30
0.0
 10
-3.091697380075587
 20
39.94498096503899
 30
0.0
 10
-1.448873929213629
 20
39.8851506378716
 30
0.0
 10
-0.5060682096653277
 20
39.87543605931956
 30
0.0
 10
0.0
 20
39.87577093970899
 30
0.0
  0
SPLINE
  5
C3
330
1F
100
AcDbEntity
  8
Default
100
AcDbSpline
210
0.0
220
0.0
230
1.0
 70
     8
 71
     3
 72
    42
 73
    38
 74
     0
 42
0.0000000001
 43
0.0000000001
 40
0.0
 40
0.0
 40
0.0
 40
0.0
 40
1.518225396524252
 40
2.828315045719364
 40
4.931394379171954
 40
5.855456321023096
 40
6.655522770934367
 40
7.368099885743641
 40
8.01462186528339
 40
8.584012925472644
 40
9.145531613735562
 40
10.27357229641922
 40
10.56056322999011
 40
10.89537219037217
 40
11.39656536917387
 40
11.87592282476991
 40
12.78339890598619
 40
13.85622612491522
 40
15.59282609894377
 40
17.35696062352953
 40
19.00492972686498
 40
19.75658226303172
 40
20.30563344622991
 40
21.16974595724957
 40
21.98388451712601
 40
22.76211858591257
 40
23.50408582835124
 40
24.26779127345278
 40
25.03863939938404
 40
25.80936224881703
 40
26.63820306804136
 40
27.08185354690114
 40
27.58358577941639
 40
28.7476668716159
 40
30.27607933262205
 40
31.09129241965158
 40
31.81848238101573
 40
31.81848238101573
 40
31.81848238101573
 40
31.81848238101573
 10
0.0
 20
39.87577093970899
 30
0.0
 10
0.5060682096653277
 20
39.87543605931956
 30
0.0
 10
1.448873929213629
 20
39.8851506378716
 30
0.0
 10
3.091697380075587
 20
39.94498096503899
 30
0.0
 10
4.532246847329384
 20
40.08683557867118
 30
0.0
 10
5.785209404318089
 20
40.33311180069329
 30
0.0
 10
6.567776486946429
 20
40.55315763413134
 30
0.0
 10
7.235549090305216
 20
40.82592679938264
 30
0.0
 10
7.793288724245869
 20
41.1488349126067
 30
0.0
 10
8.253599064794855
 20
41.52530795337866
 30
0.0
 10
8.74992287081384
 20
42.09527362755168
 30
0.0
 10
9.045339749969882
 20
42.69460054247807
 30
0.0
 10
9.197071987671826
 20
43.25780877619535
 30
0.0
 10
9.265522180631853
 20
43.62620683155841
 30
0.0
 10
9.333062364779423
 20
44.05926912228864
 30
0.0
 10
9.406043491006917
 20
44.68459723284873
 30
0.0
 10
9.459405687053874
 20
45.50305001107343
 30
0.0
 10
9.47440294038446
 20
46.74223127780783
 30
0.0
 10
9.442849389745827
 20
48.26654273963894
 30
0.0
 10
9.35391119442251
 20
49.98073782408739
 30
0.0
 10
9.235624691045608
 20
51.36380806400437
 30
0.0
 10
9.120675785309233
 20
52.34005919386533
 30
0.0
 10
9.014535235860551
 20
53.05394036471023
 30
0.0
 10
8.846824085826437
 20
53.77837816295447
 30
0.0
 10
8.574438762612758
 20
54.55197329040447
 30
0.0
 10
8.220158321203183
 20
55.24709215768757
 30
0.0
 10
7.779241497321608
 20
55.87015515260008
 30
0.0
 10
7.24721511676792
 20
56.41499966173642
 30
0.0
 10
6.624926202631571
 20
56.87014389881725
 30
0.0
 10
5.919851001712621
 20
57.23168343172865
 30
0.0
 10
5.273722879787744
 20
57.45237271797008
 30
0.0
 10
4.697658850125881
 20
57.58695691216967
 30
0.0
 10
4.005232226038972
 20
57.71110476511801
 30
0.0
 10
2.946873568533558
 20
57.83194734278804
 30
0.0
 10
1.779851589076811
 20
57.90748947592328
 30
0.0
 10
0.7569409390025168
 20
57.94597148330563
 30
0.0
 10
0.242846661423588
 20
57.95519995463843
 30
0.0
 10
0.0
 20
57.95542525588795
 30
0.0
  0
SPLINE
  5
C4
330
1F
100
AcDbEntity
  8
Default
100
AcDbSpline
210
0.0
220
0.0
230
1.0
 70
    12
 71
     2
 72
     6
 73
     3
 74
     0
 42
0.0000000001
 43
0.0000000001
 40
0.0
 40
0.0
 40
0.0
 40
0.1154254289414232
 40
0.1154254289414232
 40
0.1154254289414232
 10
-6.749446638760551
 20
56.76636849898213
 30
0.0
 41
1.0
 10
-6.802625326592587
 20
56.78879347103202
 30
0.0
 41
0.9999786542317914
 10
-6.855506437756124
 20
56.81191143575832
 30
0.0
 41
1.0
  0
SPLINE
  5
C5
330
1F
100
AcDbEntity
  8
Default
100
AcDbSpline
210
0.0
220
0.0
230
1.0
 70
     8
 71
     3
 72
    11
 73
     7
 74
     0
 42
0.0000000001
 43
0.0000000001
 40
0.0
 40
0.0
 40
0.0
 40
0.0
 40
0.1607882281338878
 40
0.323211429028675
 40
0.6422059554128811
 40
1.268282968510138
 40
1.268282968510138
 40
1.268282968510138
 40
1.268282968510138
 10
-9.934201819440853
 20
46.09475211133491
 30
0.0
 10
-9.98667872718984
 20
46.08386257266517
 30
0.0
 10
-10.09267540861839
 20
46.06439034684502
 30
0.0
 10
-10.30492375671787
 20
46.03605648460074
 30
0.0
 10
-10.67395872834531
 20
46.01479179170973
 30
0.0
 10
-10.98918733867749
 20
46.04602165908723
 30
0.0
 10
-11.19341775005726
 20
46.08905047086406
 30
0.0
  0
SPLINE
  5
C6
330
1F
100
AcDbEntity
  8
Default
100
AcDbSpline
210
0.0
220
0.0
230
1.0
 70
    12
 71
     2
 72
     6
 73
     3
 74
     0
 42
0.0000000001
 43
0.0000000001
 40
0.0
 40
0.0
 40
0.0
 40
0.091920914421484
 40
0.091920914421484
 40
0.091920914421484
 10
-5.96962403693372
 20
57.25974555895742
 30
0.0
 41
1.0
 10
-5.926962326197909
 20
57.24264754550289
 30
0.0
 41
0.9999999999962704
 10
-5.884300522068312
 20
57.22554976507796
 30
0.0
 41
1.0
  0
SPLINE
  5
C7
330
1F
100
AcDbEntity
  8
Default
100
AcDbSpline
210
0.0
220
0.0
230
1.0
 70
    12
 71
     2
 72
     6
 73
     3
 74
     0
 42
0.0000000001
 43
0.0000000001
 40
-2.412764561201183
 40
-2.412764561201183
 40
-2.412764561201183
 40
0.0
 40
0.0
 40
0.0
 10
13.18986598243717
 20
47.55821982101966
 30
0.0
 41
1.0
 10
12.22543873084107
 20
46.83347381008224
 30
0.0
 41
0.9999904679061917
 10
11.25471947392291
 20
46.11717720375275
 30
0.0
 41
1.0
  0
SPLINE
  5
C8
330
1F
100
AcDbEntity
  8
Default
100
AcDbSpline
210
0.0
220
0.0
230
1.0
 70
     8
 71
     3
 72
    13
 73
     9
 74
     0
 42
0.0000000001
 43
0.0000000001
 40
-2.227932314151448
 40
-2.227932314151448
 40
-2.227932314151448
 40
-2.227932314151448
 40
-1.453762137782131
 40
-0.8568000418749979
 40
-0.5880349582740244
 40
-0.3515879497813756
 40
-0.1527612807301966
 40
0.0
 40
0.0
 40
0.0
 40
0.0
 10
13.48957588346165
 20
49.70886553559473
 30
0.0
 10
13.51380535616296
 20
49.45197671285311
 30
0.0
 10
13.55098807796224
 20
48.99602313068844
 30
0.0
 10
13.52836344578508
 20
48.4483045243291
 30
0.0
 10
13.46283696781499
 20
48.08621723193297
 30
0.0
 10
13.39420885371073
 20
47.86128863426931
 30
0.0
 10
13.30868140728112
 20
47.68404580975903
 30
0.0
 10
13.23415606858271
 20
47.59204224250406
 30
0.0
 10
13.18986598243717
 20
47.55821982101966
 30
0.0
  0
SPLINE
  5
C9
330
1F
100
AcDbEntity
  8
Default
100
AcDbSpline
210
0.0
220
0.0
230
1.0
 70
     8
 71
     5
 72
    12
 73
     6
 74
     0
 42
0.0000000001
 43
0.0000000001
 40
0.0
 40
0.0
 40
0.0
 40
0.0
 40
0.0
 40
0.0
 40
1.0
 40
1.0
 40
1.0
 40
1.0
 40
1.0
 40
1.0
 10
9.692833126195701
 20
47.54091209613326
 30
0.0
 10
9.695164834368704
 20
47.49366033689752
 30
0.0
 10
9.697472564343848
 20
47.44640739442203
 30
0.0
 10
9.672092182914072
 20
47.39959685592282
 30
0.0
 10
9.67358255546403
 20
47.35231101978975
 30
0.0
 10
9.675149666509498
 20
47.30502772700206
 30
0.0
  0
SPLINE
  5
CA
330
1F
100
AcDbEntity
  8
Default
100
AcDbSpline
210
0.0
220
0.0
230
1.0
 70
    12
 71
     2
 72
     6
 73
     3
 74
     0
 42
0.0000000001
 43
0.0000000001
 40
0.0
 40
0.0
 40
0.0
 40
0.091920914421484
 40
0.091920914421484
 40
0.091920914421484
 10
5.96962403693372
 20
57.25974555895742
 30
0.0
 41
1.0
 10
5.926962326197909
 20
57.24264754550289
 30
0.0
 41
0.9999999999962704
 10
5.884300522068312
 20
57.22554976507796
 30
0.0
 41
1.0
  0
SPLINE
  5
CB
330
1F
100
AcDbEntity
  8
Default
100
AcDbSpline
210
0.0
220
0.0
230
1.0
 70
    12
 71
     2
 72
     6
 73
     3
 74
     0
 42
0.0000000001
 43
0.0000000001
 40
0.0
 40
0.0
 40
0.0
 40
0.1154254289414232
 40
0.1154254289414232
 40
0.1154254289414232
 10
6.749446638760551
 20
56.76636849898213
 30
0.0
 41
1.0
 10
6.802625326592587
 20
56.78879347103202
 30
0.0
 41
0.9999786542317914
 10
6.855506437756124
 20
56.81191143575832
 30
0.0
 41
1.0
  0
SPLINE
  5
CC
330
1F
100
AcDbEntity
  8
Default
100
AcDbSpline
210
0.0
220
0.0
230
1.0
 70
     8
 71
     3
 72
    11
 73
     7
 74
     0
 42
0.0000000001
 43
0.0000000001
 40
0.0
 40
0.0
 40
0.0
 40
0.0
 40
0.1607882281338878
 40
0.323211429028675
 40
0.6422059554128811
 40
1.268282968510138
 40
1.268282968510138
 40
1.268282968510138
 40
1.268282968510138
 10
9.934201819440853
 20
46.09475211133491
 30
0.0
 10
9.98667872718984
 20
46.08386257266517
 30
0.0
 10
10.09267540861839
 20
46.06439034684502
 30
0.0
 10
10.30492375671787
 20
46.03605648460074
 30
0.0
 10
10.67395872834531
 20
46.01479179170973
 30
0.0
 10
10.98918733867749
 20
46.04602165908723
 30
0.0
 10
11.19341775005726
 20
46.08905047086406
 30
0.0
  0
SPLINE
  5
CD
330
1F
100
AcDbEntity
  8
Default
100
AcDbSpline
210
0.0
220
0.0
230
1.0
 70
     8
 71
     3
 72
    11
 73
     7
 74
     0
 42
0.0000000001
 43
0.0000000001
 40
0.0
 40
0.0
 40
0.0
 40
0.0
 40
0.3197744795863026
 40
0.6240233113606278
 40
1.234270588508635
 40
2.345962402636173
 40
2.345962402636173
 40
2.345962402636173
 40
2.345962402636173
 10
1.108722873995072
 20
57.9323887856122
 30
0.0
 10
1.215283076098636
 20
57.92974748217043
 30
0.0
 10
1.423202018473139
 20
57.92374482179265
 30
0.0
 10
1.834356122248359
 20
57.9086043864424
 30
0.0
 10
2.508941132205537
 20
57.87523941578631
 30
0.0
 10
3.081364321804035
 20
57.83140294856541
 30
0.0
 10
3.45000841523485
 20
57.79362015421528
 30
0.0
  0
SPLINE
  5
CE
330
1F
100
AcDbEntity
  8
Default
100
AcDbSpline
210
0.0
220
0.0
230
1.0
 70
     8
 71
     3
 72
    12
 73
     8
 74
     0
 42
0.0000000001
 43
0.0000000001
 40
0.0
 40
0.0
 40
0.0
 40
0.0
 40
0.3867932544119657
 40
0.8177802007218444
 40
1.809413212430772
 40
3.118809823376807
 40
4.503853331862265
 40
4.503853331862265
 40
4.503853331862265
 40
4.503853331862265
 10
8.703343392352952
 20
54.48800478135528
 30
0.0
 10
8.749518216068967
 20
54.36759636866938
 30
0.0
 10
8.837840102809775
 20
54.10964295791967
 30
0.0
 10
9.002836511594868
 20
53.52923019023102
 30
0.0
 10
9.191476459390143
 20
52.63772128175506
 30
0.0
 10
9.376341792089255
 20
51.42275266796072
 30
0.0
 10
9.48170200200099
 20
50.53067483807304
 30
0.0
 10
9.523801668936335
 20
50.07089204456871
 30
0.0
  0
SPLINE
  5
CF
330
1F
100
AcDbEntity
  8
Default
100
AcDbSpline
210
0.0
220
0.0
230
1.0
 70
     8
 71
     5
 72
    12
 73
     6
 74
     0
 42
0.0000000001
 43
0.0000000001
 40
0.0
 40
0.0
 40
0.0
 40
0.0
 40
0.0
 40
0.0
 40
1.0
 40
1.0
 40
1.0
 40
1.0
 40
1.0
 40
1.0
 10
11.25471947392291
 20
46.11717720375275
 30
0.0
 10
11.24386535464991
 20
46.10916791708769
 30
0.0
 10
11.23301074659282
 20
46.10115929281879
 30
0.0
 10
11.21980038083349
 20
46.09469009929488
 30
0.0
 10
11.20661724931348
 20
46.09183144146098
 30
0.0
 10
11.19341775005726
 20
46.08905047086406
 30
0.0
  0
SPLINE
  5
D0
330
1F
100
AcDbEntity
  8
Default
100
AcDbSpline
210
0.0
220
0.0
230
1.0
 70
    12
 71
     3
 72
    11
 73
     7
 74
     0
 42
0.0000000001
 43
0.0000000001
 40
0.917004293082
 40
0.917004293082
 40
0.917004293082
 40
0.917004293082
 40
0.9377532226306
 40
0.9585021484204
 40
0.9792510742102
 40
0.9999999933620917
 40
0.9999999933620917
 40
0.9999999933620917
 40
0.9999999933620917
 10
11.39155014976438
 20
47.5447168981946
 30
0.0
 41
1.0
 10
11.43765017396916
 20
47.59160256622903
 30
0.0
 41
1.0
 10
11.49525363812804
 20
47.77535148920818
 30
0.0
 41
1.0
 10
11.53045016985163
 20
48.29673603335327
 30
0.0
 41
1.0
 10
11.52613703200447
 20
48.99098612802462
 30
0.0
 41
1.0
 10
11.47324366507806
 20
49.49711681585067
 30
0.0
 41
1.0
 10
11.43200115840846
 20
49.74071069461002
 30
0.0
 41
1.0
  0
SPLINE
  5
D1
330
1F
100
AcDbEntity
  8
Default
100
AcDbSpline
210
0.0
220
0.0
230
1.0
 70
    12
 71
     3
 72
    11
 73
     7
 74
     0
 42
0.0000000001
 43
0.0000000001
 40
0.640875809691118
 40
0.640875809691118
 40
0.640875809691118
 40
0.640875809691118
 40
0.6568174083128
 40
0.6727590025993
 40
0.6887005968858
 40
0.7046421827495598
 40
0.7046421827495598
 40
0.7046421827495598
 40
0.7046421827495598
 10
9.675149666509498
 20
47.30502772700206
 30
0.0
 41
1.0
 10
9.681154303399687
 20
47.12385421987646
 30
0.0
 41
1.0
 10
9.695822489034704
 20
46.76295568111775
 30
0.0
 41
1.0
 10
9.762305634077094
 20
46.32968179534379
 30
0.0
 41
1.0
 10
9.870664461100986
 20
46.08848225281223
 30
0.0
 41
1.0
 10
9.956284012095779
 20
46.08498809407849
 30
0.0
 41
1.0
 10
9.991534408081677
 20
46.12083911805768
 30
0.0
 41
1.0
  0
SPLINE
  5
D2
330
1F
100
AcDbEntity
  8
Default
100
AcDbSpline
210
0.0
220
0.0
230
1.0
 70
    12
 71
     2
 72
     6
 73
     3
 74
     0
 42
0.0000000001
 43
0.0000000001
 40
0.0
 40
0.0
 40
0.0
 40
1.996865546301059
 40
1.996865546301059
 40
1.996865546301059
 10
9.991534407932459
 20
46.12083911819614
 30
0.0
 41
1.0
 10
10.69154271090164
 20
46.8327775835515
 30
0.0
 41
0.9999999999998159
 10
11.39155014972624
 20
47.54471689812767
 30
0.0
 41
1.0
  0
SPLINE
  5
D3
330
1F
100
AcDbEntity
  8
Default
100
AcDbSpline
210
0.0
220
0.0
230
1.0
 70
    12
 71
     3
 72
    10
 73
     6
 74
     0
 42
0.0000000001
 43
0.0000000001
 40
-1.0
 40
-1.0
 40
-1.0
 40
-1.0
 40
-0.4999237927867715
 40
-0.4999237927867715
 40
-0.1908301494365861
 40
-0.1908301494365861
 40
-0.1908301494365861
 40
-0.1908301494365861
 10
9.692833126195701
 20
47.54091209613326
 30
0.0
 41
1.0
 10
9.666665520854536
 20
48.07119517429562
 30
0.0
 41
1.0
 10
9.636873477857797
 20
48.60131012582607
 30
0.0
 41
1.0
 10
9.577223223932243
 20
49.44252800482096
 30
0.0
 41
1.0
 10
9.551884794046543
 20
49.75976380774985
 30
0.0
 41
1.0
 10
9.523818779898178
 20
50.07089358855217
 30
0.0
 41
1.0
  0
SPLINE
  5
D4
330
1F
100
AcDbEntity
  8
Default
100
AcDbSpline
210
0.0
220
0.0
230
1.0
 70
     8
 71
     3
 72
    16
 73
    12
 74
     0
 42
0.0000000001
 43
0.0000000001
 40
0.0
 40
0.0
 40
0.0
 40
0.0
 40
0.4026246302945599
 40
0.7924890719126686
 40
1.537758985455646
 40
2.293244877191106
 40
3.02698547792797
 40
3.79499540503596
 40
4.583748493344881
 40
5.474873025262559
 40
6.598334301463793
 40
6.598334301463793
 40
6.598334301463793
 40
6.598334301463793
 10
8.703367853930521
 20
54.48801425721668
 30
0.0
 10
8.655339661082227
 20
54.61335183786868
 30
0.0
 10
8.552957172564774
 20
54.85698862512893
 30
0.0
 10
8.3186275976982
 20
55.31346746392265
 30
0.0
 10
7.962963095889468
 20
55.83601742843152
 30
0.0
 10
7.452264836348044
 20
56.38141884704989
 30
0.0
 10
6.851758007431457
 20
56.83947786969848
 30
0.0
 10
6.173695274346661
 20
57.19538965656635
 30
0.0
 10
5.402838985225991
 20
57.4685642410823
 30
0.0
 10
4.489116822635285
 20
57.67020928836334
 30
0.0
 10
3.822452925488586
 20
57.75495101197988
 30
0.0
 10
3.450008911714736
 20
57.79362257332019
 30
0.0
  0
SPLINE
  5
D5
330
1F
100
AcDbEntity
  8
Default
100
AcDbSpline
210
0.0
220
0.0
230
1.0
 70
    24
 71
     2
 72
     6
 73
     3
 74
     0
 42
0.0000000001
 43
0.0000000001
 40
0.0
 40
0.0
 40
0.0
 40
0.0352410311864575
 40
0.0352410311864575
 40
0.0352410311864575
 10
9.475127863783896
 20
50.55458555400336
 30
0.0
 10
9.45750734821071
 20
50.55458471357808
 30
0.0
 10
9.439886832637523
 20
50.55458387315279
 30
0.0
  0
SPLINE
  5
D6
330
1F
100
AcDbEntity
  8
Default
100
AcDbSpline
210
0.0
220
0.0
230
1.0
 70
    24
 71
     2
 72
     6
 73
     3
 74
     0
 42
0.0000000001
 43
0.0000000001
 40
0.0
 40
0.0
 40
0.0
 40
0.138044187748528
 40
0.138044187748528
 40
0.138044187748528
 10
9.439886832637523
 20
50.55458387315279
 30
0.0
 10
9.370869578684445
 20
50.55376649957594
 30
0.0
 10
9.301852324731367
 20
50.55294912599908
 30
0.0
  0
SPLINE
  5
D7
330
1F
100
AcDbEntity
  8
Default
100
AcDbSpline
210
0.0
220
0.0
230
1.0
 70
    24
 71
     2
 72
     6
 73
     3
 74
     0
 42
0.0000000001
 43
0.0000000001
 40
0.0
 40
0.0
 40
0.0
 40
0.2371979063935543
 40
0.2371979063935543
 40
0.2371979063935543
 10
9.691952494624255
 20
47.55873016124502
 30
0.0
 10
9.573353541562376
 20
47.55872450456837
 30
0.0
 10
9.4547545885005
 20
47.55871884789173
 30
0.0
  0
SPLINE
  5
D8
330
1F
100
AcDbEntity
  8
Default
100
AcDbSpline
210
0.0
220
0.0
230
1.0
 70
    12
 71
     3
 72
    11
 73
     7
 74
     0
 42
0.0000000001
 43
0.0000000001
 40
0.917004293082
 40
0.917004293082
 40
0.917004293082
 40
0.917004293082
 40
0.9377532226306
 40
0.9585021484204
 40
0.9792510742102
 40
0.9999999933620917
 40
0.9999999933620917
 40
0.9999999933620917
 40
0.9999999933620917
 10
-11.39155014976438
 20
47.5447168981946
 30
0.0
 41
1.0
 10
-11.43765017396916
 20
47.59160256622903
 30
0.0
 41
1.0
 10
-11.49525363812804
 20
47.77535148920818
 30
0.0
 41
1.0
 10
-11.53045016985163
 20
48.29673603335327
 30
0.0
 41
1.0
 10
-11.52613703200447
 20
48.99098612802462
 30
0.0
 41
1.0
 10
-11.47324366507806
 20
49.49711681585067
 30
0.0
 41
1.0
 10
-11.43200115840846
 20
49.74071069461002
 30
0.0
 41
1.0
  0
SPLINE
  5
D9
330
1F
100
AcDbEntity
  8
Default
100
AcDbSpline
210
0.0
220
0.0
230
1.0
 70
    12
 71
     3
 72
    11
 73
     7
 74
     0
 42
0.0000000001
 43
0.0000000001
 40
0.640875809691118
 40
0.640875809691118
 40
0.640875809691118
 40
0.640875809691118
 40
0.6568174083128
 40
0.6727590025993
 40
0.6887005968858
 40
0.7046421827495598
 40
0.7046421827495598
 40
0.7046421827495598
 40
0.7046421827495598
 10
-9.675149666509498
 20
47.30502772700206
 30
0.0
 41
1.0
 10
-9.681154303399687
 20
47.12385421987646
 30
0.0
 41
1.0
 10
-9.695822489034704
 20
46.76295568111775
 30
0.0
 41
1.0
 10
-9.762305634077094
 20
46.32968179534379
 30
0.0
 41
1.0
 10
-9.870664461100986
 20
46.08848225281223
 30
0.0
 41
1.0
 10
-9.956284012095779
 20
46.08498809407849
 30
0.0
 41
1.0
 10
-9.991534408081677
 20
46.12083911805768
 30
0.0
 41
1.0
  0
SPLINE
  5
DA
330
1F
100
AcDbEntity
  8
Default
100
AcDbSpline
210
0.0
220
0.0
230
1.0
 70
    12
 71
     2
 72
     6
 73
     3
 74
     0
 42
0.0000000001
 43
0.0000000001
 40
0.0
 40
0.0
 40
0.0
 40
1.996865546301059
 40
1.996865546301059
 40
1.996865546301059
 10
-9.991534407932459
 20
46.12083911819614
 30
0.0
 41
1.0
 10
-10.69154271090164
 20
46.8327775835515
 30
0.0
 41
0.9999999999998159
 10
-11.39155014972624
 20
47.54471689812767
 30
0.0
 41
1.0
  0
SPLINE
  5
DB
330
1F
100
AcDbEntity
  8
Default
100
AcDbSpline
210
0.0
220
0.0
230
1.0
 70
    12
 71
     3
 72
    10
 73
     6
 74
     0
 42
0.0000000001
 43
0.0000000001
 40
-1.0
 40
-1.0
 40
-1.0
 40
-1.0
 40
-0.4999237927867715
 40
-0.4999237927867715
 40
-0.1908301494365861
 40
-0.1908301494365861
 40
-0.1908301494365861
 40
-0.1908301494365861
 10
-9.692833126195701
 20
47.54091209613326
 30
0.0
 41
1.0
 10
-9.666665520854536
 20
48.07119517429562
 30
0.0
 41
1.0
 10
-9.636873477857797
 20
48.60131012582607
 30
0.0
 41
1.0
 10
-9.577223223932243
 20
49.44252800482096
 30
0.0
 41
1.0
 10
-9.551884794046543
 20
49.75976380774985
 30
0.0
 41
1.0
 10
-9.523818779898178
 20
50.07089358855217
 30
0.0
 41
1.0
  0
SPLINE
  5
DC
330
1F
100
AcDbEntity
  8
Default
100
AcDbSpline
210
0.0
220
0.0
230
1.0
 70
     8
 71
     3
 72
    16
 73
    12
 74
     0
 42
0.0000000001
 43
0.0000000001
 40
0.0
 40
0.0
 40
0.0
 40
0.0
 40
0.4026246302945599
 40
0.7924890719126686
 40
1.537758985455646
 40
2.293244877191106
 40
3.02698547792797
 40
3.79499540503596
 40
4.583748493344881
 40
5.474873025262559
 40
6.598334301463793
 40
6.598334301463793
 40
6.598334301463793
 40
6.598334301463793
 10
-8.703367853930521
 20
54.48801425721668
 30
0.0
 10
-8.655339661082227
 20
54.61335183786868
 30
0.0
 10
-8.552957172564774
 20
54.85698862512893
 30
0.0
 10
-8.3186275976982
 20
55.31346746392265
 30
0.0
 10
-7.962963095889468
 20
55.83601742843152
 30
0.0
 10
-7.452264836348044
 20
56.38141884704989
 30
0.0
 10
-6.851758007431457
 20
56.83947786969848
 30
0.0
 10
-6.173695274346661
 20
57.19538965656635
 30
0.0
 10
-5.402838985225991
 20
57.4685642410823
 30
0.0
 10
-4.489116822635285
 20
57.67020928836334
 30
0.0
 10
-3.822452925488586
 20
57.75495101197988
 30
0.0
 10
-3.450008911714736
 20
57.79362257332019
 30
0.0
  0
SPLINE
  5
DD
330
1F
100
AcDbEntity
  8
Default
100
AcDbSpline
210
0.0
220
0.0
230
1.0
 70
    24
 71
     2
 72
     6
 73
     3
 74
     0
 42
0.0000000001
 43
0.0000000001
 40
0.0
 40
0.0
 40
0.0
 40
0.0352410311864575
 40
0.0352410311864575
 40
0.0352410311864575
 10
-9.475127863783896
 20
50.55458555400336
 30
0.0
 10
-9.45750734821071
 20
50.55458471357808
 30
0.0
 10
-9.439886832637523
 20
50.55458387315279
 30
0.0
  0
SPLINE
  5
DE
330
1F
100
AcDbEntity
  8
Default
100
AcDbSpline
210
0.0
220
0.0
230
1.0
 70
    24
 71
     2
 72
     6
 73
     3
 74
     0
 42
0.0000000001
 43
0.0000000001
 40
0.0
 40
0.0
 40
0.0
 40
0.2371979063935543
 40
0.2371979063935543
 40
0.2371979063935543
 10
-9.691952494624255
 20
47.55873016124502
 30
0.0
 10
-9.573353541562376
 20
47.55872450456837
 30
0.0
 10
-9.4547545885005
 20
47.55871884789173
 30
0.0
  0
SPLINE
  5
DF
330
1F
100
AcDbEntity
  8
Default
100
AcDbSpline
210
0.0
220
0.0
230
1.0
 70
    24
 71
     2
 72
     6
 73
     3
 74
     0
 42
0.0000000001
 43
0.0000000001
 40
0.0
 40
0.0
 40
0.0
 40
0.138044187748528
 40
0.138044187748528
 40
0.138044187748528
 10
-9.439886832637523
 20
50.55458387315279
 30
0.0
 10
-9.370869578684445
 20
50.55376649957594
 30
0.0
 10
-9.301852324731367
 20
50.55294912599908
 30
0.0
  0
LINE
  5
E0
330
1F
100
AcDbEntity
  8
Default
100
AcDbLine
 10
7.175167965383963
 20
6.418124728940745
 30
0.0
 11
8.000514663947456
 21
0.108771416356557
 31
0.0
  0
SPLINE
  5
E1
330
1F
100
AcDbEntity
  8
Default
100
AcDbSpline
210
0.0
220
0.0
230
1.0
 70
    12
 71
     2
 72
    10
 73
     7
 74
     0
 42
0.0000000001
 43
0.0000000001
 40
-1.11196088567113
 40
-1.11196088567113
 40
-1.11196088567113
 40
-0.9340803425249113
 40
-0.9340803425249113
 40
-0.0251051618871498
 40
-0.0251051618871498
 40
0.0
 40
0.0
 40
0.0
 10
8.000514663947456
 20
0.108771416356557
 30
0.0
 41
1.0
 10
8.014492976979751
 20
0.0019143636922764
 30
0.0
 41
0.7574170515802898
 10
8.124612455308522
 20
0.0000000000015627
 30
0.0
 41
1.0
 10
8.579253196351118
 20
-0.0000000000000003
 30
0.0
 41
1.0
 10
9.033740786670009
 20
-0.0000000000000004
 30
0.0
 41
1.0
 10
9.046335805072362
 20
0.0000000079772521
 30
0.0
 41
0.9949535779999519
 10
9.058677224269076
 20
0.0025147367432828
 30
0.0
 41
1.0
  0
LINE
  5
E2
330
1F
100
AcDbEntity
  8
Default
100
AcDbLine
 10
6.953647450240743
 20
8.111535750583927
 30
0.0
 11
7.124356779864711
 21
6.806550250276444
 31
0.0
  0
SPLINE
  5
E3
330
1F
100
AcDbEntity
  8
Default
100
AcDbSpline
210
0.0
220
0.0
230
1.0
 70
    12
 71
     2
 72
     6
 73
     3
 74
     0
 42
0.0000000001
 43
0.0000000001
 40
0.0
 40
0.0
 40
0.0
 40
0.2766949710960268
 40
0.2766949710960268
 40
0.2766949710960268
 10
6.590060281145878
 20
12.717556412127
 30
0.0
 41
1.0
 10
6.468596295178763
 20
12.69231326200561
 30
0.0
 41
0.955419928134244
 10
6.368078251843616
 20
12.58791273020295
 30
0.0
 41
1.0
  0
LINE
  5
E4
330
1F
100
AcDbEntity
  8
Default
100
AcDbLine
 10
6.368078251843616
 20
12.58791273020295
 30
0.0
 11
6.905003380662214
 21
8.4833947791195
 31
0.0
  0
LINE
  5
E5
330
1F
100
AcDbEntity
  8
Default
100
AcDbLine
 10
-7.175167965383963
 20
6.418124728940744
 30
0.0
 11
-8.000514663947456
 21
0.108771416356557
 31
0.0
  0
SPLINE
  5
E6
330
1F
100
AcDbEntity
  8
Default
100
AcDbSpline
210
0.0
220
0.0
230
1.0
 70
    12
 71
     2
 72
    10
 73
     7
 74
     0
 42
0.0000000001
 43
0.0000000001
 40
-1.11196088567113
 40
-1.11196088567113
 40
-1.11196088567113
 40
-0.9340803425249113
 40
-0.9340803425249113
 40
-0.0251051618871498
 40
-0.0251051618871498
 40
0.0
 40
0.0
 40
0.0
 10
-8.000514663947456
 20
0.108771416356557
 30
0.0
 41
1.0
 10
-8.014492976979751
 20
0.0019143636922764
 30
0.0
 41
0.7574170515802898
 10
-8.124612455308522
 20
0.0000000000015627
 30
0.0
 41
1.0
 10
-8.579253196351118
 20
-0.0000000000000003
 30
0.0
 41
1.0
 10
-9.033740786670009
 20
-0.0000000000000004
 30
0.0
 41
1.0
 10
-9.046335805072362
 20
0.0000000079772521
 30
0.0
 41
0.9949535779999519
 10
-9.058677224269076
 20
0.0025147367432828
 30
0.0
 41
1.0
  0
LINE
  5
E7
330
1F
100
AcDbEntity
  8
Default
100
AcDbLine
 10
-6.953647450240743
 20
8.11153575058393
 30
0.0
 11
-7.124356779864711
 21
6.806550250276444
 31
0.0
  0
SPLINE
  5
E8
330
1F
100
AcDbEntity
  8
Default
100
AcDbSpline
210
0.0
220
0.0
230
1.0
 70
    12
 71
     2
 72
     6
 73
     3
 74
     0
 42
0.0000000001
 43
0.0000000001
 40
0.0
 40
0.0
 40
0.0
 40
0.2766949710960268
 40
0.2766949710960268
 40
0.2766949710960268
 10
-6.590060281145878
 20
12.717556412127
 30
0.0
 41
1.0
 10
-6.468596295178763
 20
12.69231326200561
 30
0.0
 41
0.955419928134244
 10
-6.368078251843616
 20
12.58791273020295
 30
0.0
 41
1.0
  0
LINE
  5
E9
330
1F
100
AcDbEntity
  8
Default
100
AcDbLine
 10
-6.368078251843616
 20
12.58791273020295
 30
0.0
 11
-6.905003380662214
 21
8.483394779119504
 31
0.0
  0
SPLINE
  5
EA
330
1F
100
AcDbEntity
  8
Default
100
AcDbSpline
210
0.0
220
0.0
230
1.0
 70
    24
 71
     2
 72
     6
 73
     3
 74
     0
 42
0.0000000001
 43
0.0000000001
 40
1.053142957480607
 40
1.053142957480607
 40
1.053142957480607
 40
5.946969205421087
 40
5.946969205421087
 40
5.946969205421087
 10
-2.797247789168172
 20
7.51941129308234
 30
0.0
 10
-5.166719322679522
 20
7.129057375048515
 30
0.0
 10
-7.536190856190871
 20
6.73870345701469
 30
0.0
  0
SPLINE
  5
EB
330
1F
100
AcDbEntity
  8
Default
100
AcDbSpline
210
0.0
220
0.0
230
1.0
 70
     8
 71
     3
 72
    12
 73
     8
 74
     0
 42
0.0000000001
 43
0.0000000001
 40
0.0
 40
0.0
 40
0.0
 40
0.0
 40
1.0
 40
2.0
 40
3.0
 40
4.0
 40
5.0
 40
5.0
 40
5.0
 40
5.0
 10
-7.536190856190871
 20
6.73870345701469
 30
0.0
 10
-7.571539290973505
 20
6.731012473049268
 30
0.0
 10
-7.63369265032886
 20
6.691964445769055
 30
0.0
 10
-7.694598708550834
 20
6.601100583207818
 30
0.0
 10
-7.717701026979689
 20
6.494906126367384
 30
0.0
 10
-7.690264118519813
 20
6.384948658091623
 30
0.0
 10
-7.620691941906876
 20
6.346912854722182
 30
0.0
 10
-7.584352885774897
 20
6.350714365652581
 30
0.0
  0
POLYLINE
  5
EC
330
1F
100
AcDbEntity
  8
Default
100
AcDb2dPolyline
 66
     1
 10
0.0
 20
0.0
 30
0.0
  0
VERTEX
  5
ED
330
EC
100
AcDbEntity
  8
Default
100
AcDbVertex
100
AcDb2dVertex
 10
-7.584352885774897
 20
6.350714365652581
 30
0.0
  0
VERTEX
  5
EE
330
EC
100
AcDbEntity
  8
Default
100
AcDbVertex
100
AcDb2dVertex
 10
-1.797210313839153
 20
7.304105763365547
 30
0.0
  0
SEQEND
  5
EF
330
EC
100
AcDbEntity
  8
Default
  0
ARC
  5
F0
330
1F
100
AcDbEntity
  8
Default
100
AcDbCircle
 10
-1.634658368995562
 20
6.31740577591872
 30
0.0
 40
1.0
100
AcDbArc
 50
89.99999999999905
 51
99.35505138211808
  0
SPLINE
  5
F1
330
1F
100
AcDbEntity
  8
Default
100
AcDbSpline
210
0.0
220
0.0
230
1.0
 70
    24
 71
     2
 72
     6
 73
     3
 74
     0
 42
0.0000000001
 43
0.0000000001
 40
0.0818200764437058
 40
0.0818200764437058
 40
0.0818200764437058
 40
3.351136814434909
 40
3.351136814434909
 40
3.351136814434909
 10
-1.634658368995545
 20
7.31740577591872
 30
0.0
 10
0.0000000000000564
 20
7.31740577591872
 30
0.0
 10
1.634658368995658
 20
7.317405775918721
 30
0.0
  0
ARC
  5
F2
330
1F
100
AcDbEntity
  8
Default
100
AcDbCircle
 10
1.634658368995658
 20
6.317405775918721
 30
0.0
 40
1.0
100
AcDbArc
 50
80.6449486178939
 51
90.00000000000001
  0
POLYLINE
  5
F3
330
1F
100
AcDbEntity
  8
Default
100
AcDb2dPolyline
 66
     1
 10
0.0
 20
0.0
 30
0.0
  0
VERTEX
  5
F4
330
F3
100
AcDbEntity
  8
Default
100
AcDbVertex
100
AcDb2dVertex
 10
1.797210313839043
 20
7.304105763365581
 30
0.0
  0
VERTEX
  5
F5
330
F3
100
AcDbEntity
  8
Default
100
AcDbVertex
100
AcDb2dVertex
 10
7.584352885774897
 20
6.350714365652581
 30
0.0
  0
SEQEND
  5
F6
330
F3
100
AcDbEntity
  8
Default
  0
SPLINE
  5
F7
330
1F
100
AcDbEntity
  8
Default
100
AcDbSpline
210
0.0
220
0.0
230
1.0
 70
     8
 71
     3
 72
    12
 73
     8
 74
     0
 42
0.0000000001
 43
0.0000000001
 40
-5.0
 40
-5.0
 40
-5.0
 40
-5.0
 40
-4.0
 40
-3.0
 40
-2.0
 40
-1.0
 40
0.0
 40
0.0
 40
0.0
 40
0.0
 10
7.584352885774897
 20
6.350714365652581
 30
0.0
 10
7.620691941906876
 20
6.346912854722182
 30
0.0
 10
7.690264118519813
 20
6.384948658091623
 30
0.0
 10
7.717701026979689
 20
6.494906126367384
 30
0.0
 10
7.694598708550834
 20
6.601100583207818
 30
0.0
 10
7.63369265032886
 20
6.691964445769055
 30
0.0
 10
7.571539290973505
 20
6.731012473049268
 30
0.0
 10
7.536190856190871
 20
6.73870345701469
 30
0.0
  0
SPLINE
  5
F8
330
1F
100
AcDbEntity
  8
Default
100
AcDbSpline
210
0.0
220
0.0
230
1.0
 70
    24
 71
     2
 72
     6
 73
     3
 74
     0
 42
0.0000000001
 43
0.0000000001
 40
-5.946969205421087
 40
-5.946969205421087
 40
-5.946969205421087
 40
-1.053142957480607
 40
-1.053142957480607
 40
-1.053142957480607
 10
7.536190856190871
 20
6.73870345701469
 30
0.0
 10
5.166719322679522
 20
7.129057375048515
 30
0.0
 10
2.797247789168172
 20
7.51941129308234
 30
0.0
  0
POLYLINE
  5
F9
330
1F
100
AcDbEntity
  8
Default
100
AcDb2dPolyline
 66
     1
 10
0.0
 20
0.0
 30
0.0
  0
VERTEX
  5
FA
330
F9
100
AcDbEntity
  8
Default
100
AcDbVertex
100
AcDb2dVertex
 10
-7.897249671216001
 20
8.245962176999354
 30
0.0
  0
VERTEX
  5
FB
330
F9
100
AcDbEntity
  8
Default
100
AcDbVertex
100
AcDb2dVertex
 10
-1.786642692811111
 20
7.375439576398498
 30
0.0
  0
SEQEND
  5
FC
330
F9
100
AcDbEntity
  8
Default
  0
ARC
  5
FD
330
1F
100
AcDbEntity
  8
Default
100
AcDbCircle
 10
-1.645605778833827
 20
8.365443914215138
 30
0.0
 40
1.0
100
AcDbArc
 50
261.8921475774727
 51
269.999999999992
  0
POLYLINE
  5
FE
330
1F
100
AcDbEntity
  8
Default
100
AcDb2dPolyline
 66
     1
 10
0.0
 20
0.0
 30
0.0
  0
VERTEX
  5
FF
330
FE
100
AcDbEntity
  8
Default
100
AcDbVertex
100
AcDb2dVertex
 10
-1.645605778833967
 20
7.365443914215138
 30
0.0
  0
VERTEX
  5
100
330
FE
100
AcDbEntity
  8
Default
100
AcDbVertex
100
AcDb2dVertex
 10
1.645605778833853
 20
7.365443914215152
 30
0.0
  0
SEQEND
  5
101
330
FE
100
AcDbEntity
  8
Default
  0
ARC
  5
102
330
1F
100
AcDbEntity
  8
Default
100
AcDbCircle
 10
1.645605778833942
 20
8.365443914215152
 30
0.0
 40
1.0
100
AcDbArc
 50
269.9999999999949
 51
278.1078524225273
  0
POLYLINE
  5
103
330
1F
100
AcDbEntity
  8
Default
100
AcDb2dPolyline
 66
     1
 10
0.0
 20
0.0
 30
0.0
  0
VERTEX
  5
104
330
103
100
AcDbEntity
  8
Default
100
AcDbVertex
100
AcDb2dVertex
 10
1.786642692811225
 20
7.375439576398512
 30
0.0
  0
VERTEX
  5
105
330
103
100
AcDbEntity
  8
Default
100
AcDbVertex
100
AcDb2dVertex
 10
7.897249671216001
 20
8.245962176999354
 30
0.0
  0
SEQEND
  5
106
330
103
100
AcDbEntity
  8
Default
  0
SPLINE
  5
107
330
1F
100
AcDbEntity
  8
Default
100
AcDbSpline
210
0.0
220
0.0
230
1.0
 70
    24
 71
     2
 72
     6
 73
     3
 74
     0
 42
0.0000000001
 43
0.0000000001
 40
-6.24317590305498
 40
-6.24317590305498
 40
-6.24317590305498
 40
-0.0708726666053962
 40
-0.0708726666053962
 40
-0.0708726666053962
 10
-7.844360453208696
 20
8.617216437847658
 30
0.0
 10
-4.789056964006308
 20
8.181955137547238
 30
0.0
 10
-1.73375347480392
 20
7.746693837246817
 30
0.0
  0
ARC
  5
108
330
1F
100
AcDbEntity
  8
Default
100
AcDbCircle
 10
-1.592716560826638
 20
8.736698175063458
 30
0.0
 40
1.0
100
AcDbArc
 50
261.8921475774728
 51
270.0000000000051
  0
POLYLINE
  5
109
330
1F
100
AcDbEntity
  8
Default
100
AcDb2dPolyline
 66
     1
 10
0.0
 20
0.0
 30
0.0
  0
VERTEX
  5
10A
330
109
100
AcDbEntity
  8
Default
100
AcDbVertex
100
AcDb2dVertex
 10
-1.592716560826549
 20
7.736698175063458
 30
0.0
  0
VERTEX
  5
10B
330
109
100
AcDbEntity
  8
Default
100
AcDbVertex
100
AcDb2dVertex
 10
1.592716560826663
 20
7.73669817506345
 30
0.0
  0
SEQEND
  5
10C
330
109
100
AcDbEntity
  8
Default
  0
ARC
  5
10D
330
1F
100
AcDbEntity
  8
Default
100
AcDbCircle
 10
1.592716560826663
 20
8.73669817506345
 30
0.0
 40
1.0
100
AcDbArc
 50
270.0
 51
278.1078524225193
  0
SPLINE
  5
10E
330
1F
100
AcDbEntity
  8
Default
100
AcDbSpline
210
0.0
220
0.0
230
1.0
 70
    24
 71
     2
 72
     6
 73
     3
 74
     0
 42
0.0000000001
 43
0.0000000001
 40
0.0708726666052814
 40
0.0708726666052814
 40
0.0708726666052814
 40
6.24317590305498
 40
6.24317590305498
 40
6.24317590305498
 10
1.733753474803808
 20
7.746693837246791
 30
0.0
 10
4.789056964006252
 20
8.181955137547224
 30
0.0
 10
7.844360453208696
 20
8.617216437847658
 30
0.0
  0
LINE
  5
10F
330
1F
100
AcDbEntity
  8
Default
100
AcDbLine
 10
-7.393498840092047
 20
6.382156239273448
 30
0.0
 11
-7.445226922059653
 21
5.978206254834359
 31
0.0
  0
SPLINE
  5
110
330
1F
100
AcDbEntity
  8
Default
100
AcDbSpline
210
0.0
220
0.0
230
1.0
 70
    12
 71
     2
 72
     8
 73
     5
 74
     0
 42
0.0000000001
 43
0.0000000001
 40
0.0
 40
0.0
 40
0.0
 40
0.3691371350459142
 40
0.3691371350459142
 40
0.7382742700918284
 40
0.7382742700918284
 40
0.7382742700918284
 10
-7.445226922059653
 20
5.978206254834359
 30
0.0
 41
1.0
 10
-7.474009882719488
 20
5.753437114586603
 30
0.0
 41
0.7071067838207256
 10
-7.661017904345491
 20
5.738195942847669
 30
0.0
 41
1.0
 10
-7.848025925971494
 20
5.722954771108735
 30
0.0
 41
0.7071067838207256
 10
-7.819242967883674
 20
5.947723912803416
 30
0.0
 41
1.0
  0
POLYLINE
  5
111
330
1F
100
AcDbEntity
  8
Default
100
AcDb2dPolyline
 66
     1
 10
0.0
 20
0.0
 30
0.0
  0
VERTEX
  5
112
330
111
100
AcDbEntity
  8
Default
100
AcDbVertex
100
AcDb2dVertex
 10
-7.819242967883674
 20
5.947723912803416
 30
0.0
  0
VERTEX
  5
113
330
111
100
AcDbEntity
  8
Default
100
AcDbVertex
100
AcDb2dVertex
 10
-7.604901769743285
 20
7.621536672919192
 30
0.0
  0
SEQEND
  5
114
330
111
100
AcDbEntity
  8
Default
  0
SPLINE
  5
115
330
1F
100
AcDbEntity
  8
Default
100
AcDbSpline
210
0.0
220
0.0
230
1.0
 70
     8
 71
     3
 72
    12
 73
     8
 74
     0
 42
0.0000000001
 43
0.0000000001
 40
0.0
 40
0.0
 40
0.0
 40
0.0
 40
1.0
 40
2.0
 40
3.0
 40
4.0
 40
5.0
 40
5.0
 40
5.0
 40
5.0
 10
-7.604901769743285
 20
7.621536672919192
 30
0.0
 10
-7.600883455451722
 20
7.664126964082418
 30
0.0
 10
-7.564396524878022
 20
7.744356089649487
 30
0.0
 10
-7.467946088697147
 20
7.826428564628411
 30
0.0
 10
-7.337354332114849
 20
7.881098506814711
 30
0.0
 10
-7.231101465922505
 20
7.78249215387347
 30
0.0
 10
-7.226019645391791
 20
7.693958756905952
 30
0.0
 10
-7.230885724062595
 20
7.652019013826462
 30
0.0
  0
POLYLINE
  5
116
330
1F
100
AcDbEntity
  8
Default
100
AcDb2dPolyline
 66
     1
 10
0.0
 20
0.0
 30
0.0
  0
VERTEX
  5
117
330
116
100
AcDbEntity
  8
Default
100
AcDbVertex
100
AcDb2dVertex
 10
-7.230885724062595
 20
7.652019013826462
 30
0.0
  0
VERTEX
  5
118
330
116
100
AcDbEntity
  8
Default
100
AcDbVertex
100
AcDb2dVertex
 10
-7.343781836666204
 20
6.770401501736585
 30
0.0
  0
SEQEND
  5
119
330
116
100
AcDbEntity
  8
Default
  0
LINE
  5
11A
330
1F
100
AcDbEntity
  8
Default
100
AcDbLine
 10
7.393498840092047
 20
6.382156239273448
 30
0.0
 11
7.445226922059653
 21
5.978206254834359
 31
0.0
  0
SPLINE
  5
11B
330
1F
100
AcDbEntity
  8
Default
100
AcDbSpline
210
0.0
220
0.0
230
1.0
 70
    12
 71
     2
 72
     8
 73
     5
 74
     0
 42
0.0000000001
 43
0.0000000001
 40
0.0
 40
0.0
 40
0.0
 40
0.3691371350459142
 40
0.3691371350459142
 40
0.7382742700918284
 40
0.7382742700918284
 40
0.7382742700918284
 10
7.445226922059653
 20
5.978206254834359
 30
0.0
 41
1.0
 10
7.474009882719488
 20
5.753437114586603
 30
0.0
 41
0.7071067838207256
 10
7.661017904345491
 20
5.738195942847669
 30
0.0
 41
1.0
 10
7.848025925971494
 20
5.722954771108735
 30
0.0
 41
0.7071067838207256
 10
7.819242967883674
 20
5.947723912803416
 30
0.0
 41
1.0
  0
POLYLINE
  5
11C
330
1F
100
AcDbEntity
  8
Default
100
AcDb2dPolyline
 66
     1
 10
0.0
 20
0.0
 30
0.0
  0
VERTEX
  5
11D
330
11C
100
AcDbEntity
  8
Default
100
AcDbVertex
100
AcDb2dVertex
 10
7.819242967883674
 20
5.947723912803416
 30
0.0
  0
VERTEX
  5
11E
330
11C
100
AcDbEntity
  8
Default
100
AcDbVertex
100
AcDb2dVertex
 10
7.604901769743285
 20
7.621536672919192
 30
0.0
  0
SEQEND
  5
11F
330
11C
100
AcDbEntity
  8
Default
  0
SPLINE
  5
120
330
1F
100
AcDbEntity
  8
Default
100
AcDbSpline
210
0.0
220
0.0
230
1.0
 70
     8
 71
     3
 72
    12
 73
     8
 74
     0
 42
0.0000000001
 43
0.0000000001
 40
0.0
 40
0.0
 40
0.0
 40
0.0
 40
1.0
 40
2.0
 40
3.0
 40
4.0
 40
5.0
 40
5.0
 40
5.0
 40
5.0
 10
7.604901769743285
 20
7.621536672919192
 30
0.0
 10
7.600883455451722
 20
7.664126964082418
 30
0.0
 10
7.564396524878022
 20
7.744356089649487
 30
0.0
 10
7.467946088697147
 20
7.826428564628411
 30
0.0
 10
7.337354332114849
 20
7.881098506814711
 30
0.0
 10
7.231101465922505
 20
7.78249215387347
 30
0.0
 10
7.226019645391791
 20
7.693958756905952
 30
0.0
 10
7.230885724062595
 20
7.652019013826462
 30
0.0
  0
POLYLINE
  5
121
330
1F
100
AcDbEntity
  8
Default
100
AcDb2dPolyline
 66
     1
 10
0.0
 20
0.0
 30
0.0
  0
VERTEX
  5
122
330
121
100
AcDbEntity
  8
Default
100
AcDbVertex
100
AcDb2dVertex
 10
7.230885724062595
 20
7.652019013826462
 30
0.0
  0
VERTEX
  5
123
330
121
100
AcDbEntity
  8
Default
100
AcDbVertex
100
AcDb2dVertex
 10
7.343781836666204
 20
6.770401501736585
 30
0.0
  0
SEQEND
  5
124
330
121
100
AcDbEntity
  8
Default
  0
POLYLINE
  5
125
330
1F
100
AcDbEntity
  8
Default
100
AcDb2dPolyline
 66
     1
 10
0.0
 20
0.0
 30
0.0
  0
VERTEX
  5
126
330
125
100
AcDbEntity
  8
Default
100
AcDbVertex
100
AcDb2dVertex
 10
-7.113244531025387
 20
14.25064364948017
 30
0.0
  0
VERTEX
  5
127
330
125
100
AcDbEntity
  8
Default
100
AcDbVertex
100
AcDb2dVertex
 10
-6.590060281145878
 20
12.717556412127
 30
0.0
  0
SEQEND
  5
128
330
125
100
AcDbEntity
  8
Default
  0
POLYLINE
  5
129
330
1F
100
AcDbEntity
  8
Default
100
AcDb2dPolyline
 66
     1
 10
0.0
 20
0.0
 30
0.0
  0
VERTEX
  5
12A
330
129
100
AcDbEntity
  8
Default
100
AcDbVertex
100
AcDb2dVertex
 10
-6.590060281145878
 20
12.717556412127
 30
0.0
  0
VERTEX
  5
12B
330
129
100
AcDbEntity
  8
Default
100
AcDbVertex
100
AcDb2dVertex
 10
-6.791910923930661
 20
11.00946570562646
 30
0.0
  0
SEQEND
  5
12C
330
129
100
AcDbEntity
  8
Default
  0
SPLINE
  5
12D
330
1F
100
AcDbEntity
  8
Default
100
AcDbSpline
210
0.0
220
0.0
230
1.0
 70
     8
 71
     5
 72
    12
 73
     6
 74
     0
 42
0.0000000001
 43
0.0000000001
 40
-1.0
 40
-1.0
 40
-1.0
 40
-1.0
 40
-1.0
 40
-1.0
 40
-0.2317022451376829
 40
-0.2317022451376829
 40
-0.2317022451376829
 40
-0.2317022451376829
 40
-0.2317022451376829
 40
-0.2317022451376829
 10
-6.791910923930661
 20
11.00946570562646
 30
0.0
 10
-6.795140290600859
 20
10.9756714234679
 30
0.0
 10
-6.798369276641143
 20
10.94187710493651
 30
0.0
 10
-6.843957226060244
 20
10.88439820702918
 30
0.0
 10
-6.887576503841164
 20
10.85857767682135
 30
0.0
 10
-6.923005098892535
 20
10.8585776768211
 30
0.0
  0
POLYLINE
  5
12E
330
1F
100
AcDbEntity
  8
Default
100
AcDb2dPolyline
 66
     1
 10
0.0
 20
0.0
 30
0.0
  0
VERTEX
  5
12F
330
12E
100
AcDbEntity
  8
Default
100
AcDbVertex
100
AcDb2dVertex
 10
-6.923005098892535
 20
10.8585776768211
 30
0.0
  0
VERTEX
  5
130
330
12E
100
AcDbEntity
  8
Default
100
AcDbVertex
100
AcDb2dVertex
 10
-7.556131829980092
 20
10.8585776768211
 30
0.0
  0
SEQEND
  5
131
330
12E
100
AcDbEntity
  8
Default
  0
SPLINE
  5
132
330
1F
100
AcDbEntity
  8
Default
100
AcDbSpline
210
0.0
220
0.0
230
1.0
 70
     8
 71
     3
 72
    12
 73
     8
 74
     0
 42
0.0000000001
 43
0.0000000001
 40
0.0898478636032666
 40
0.0898478636032666
 40
0.0898478636032666
 40
0.0898478636032666
 40
1.0
 40
2.0
 40
3.0
 40
4.0
 40
5.0
 40
5.0
 40
5.0
 40
5.0
 10
-7.113244531025387
 20
14.25064364948017
 30
0.0
 10
-7.192343968032407
 20
14.27497253419359
 30
0.0
 10
-7.369393763435315
 20
14.29159686639757
 30
0.0
 10
-7.635481834445306
 20
14.31908563851482
 30
0.0
 10
-7.911725900166081
 20
14.33991393310152
 30
0.0
 10
-8.187149209849883
 20
14.3540764376649
 30
0.0
 10
-8.37305671685447
 20
14.36504585393937
 30
0.0
 10
-8.462527287738201
 20
14.34884245752311
 30
0.0
  0
SPLINE
  5
133
330
1F
100
AcDbEntity
  8
Default
100
AcDbSpline
210
0.0
220
0.0
230
1.0
 70
     8
 71
     2
 72
     6
 73
     3
 74
     0
 42
0.0000000001
 43
0.0000000001
 40
-14.30537820531634
 40
-14.30537820531634
 40
-14.30537820531634
 40
0.0
 40
0.0
 40
0.0
 10
-8.462527287738201
 20
14.34884245752311
 30
0.0
 10
-9.289756682295105
 20
7.24414534486831
 30
0.0
 10
-10.11697550870619
 20
0.1394073325501114
 30
0.0
  0
SPLINE
  5
134
330
1F
100
AcDbEntity
  8
Default
100
AcDbSpline
210
0.0
220
0.0
230
1.0
 70
    12
 71
     2
 72
     8
 73
     5
 74
     0
 42
0.0000000001
 43
0.0000000001
 40
-0.2107227237993517
 40
-0.2107227237993517
 40
-0.2107227237993517
 40
-0.1053613618996758
 40
-0.1053613618996758
 40
0.0
 40
0.0
 40
0.0
 10
-10.11697550870619
 20
0.1394073325501114
 30
0.0
 41
1.0
 10
-10.12341812814003
 20
0.0836746348151844
 30
0.0
 41
0.9125005237042282
 10
-10.08613574885959
 20
0.0418378107028454
 30
0.0
 41
1.0
 10
-10.04885336957913
 20
0.0000009865905062
 30
0.0
 41
0.9125005237042282
 10
-9.99281502863613
 20
0.0000000000074829
 30
0.0
 41
1.0
  0
LINE
  5
135
330
1F
100
AcDbEntity
  8
Default
100
AcDbLine
 10
-9.99281502863613
 20
0.0000000000074829
 30
0.0
 11
-9.083623129039069
 21
0.0
 31
0.0
  0
SPLINE
  5
136
330
1F
100
AcDbEntity
  8
Default
100
AcDbSpline
210
0.0
220
0.0
230
1.0
 70
    12
 71
     2
 72
     6
 73
     3
 74
     0
 42
0.0000000001
 43
0.0000000001
 40
0.0
 40
0.0
 40
0.0
 40
0.180210864739764
 40
0.180210864739764
 40
0.180210864739764
 10
-9.083623129039069
 20
0.0
 30
0.0
 41
1.0
 10
-8.97380131552723
 20
0.0000022237440393
 30
0.0
 41
0.7512335277449608
 10
-8.959669055118027
 20
0.1089109467358247
 30
0.0
 41
1.0
  0
SPLINE
  5
137
330
1F
100
AcDbEntity
  8
Default
100
AcDbSpline
210
0.0
220
0.0
230
1.0
 70
    24
 71
     2
 72
     6
 73
     3
 74
     0
 42
0.0000000001
 43
0.0000000001
 40
0.0
 40
0.0
 40
0.0
 40
14.26176312238566
 40
14.26176312238566
 40
14.26176312238566
 10
-8.959669055118027
 20
0.1089109467358247
 30
0.0
 10
-8.036456793071707
 20
7.179777298107997
 30
0.0
 10
-7.113244531025387
 20
14.25064364948017
 30
0.0
  0
POLYLINE
  5
138
330
1F
100
AcDbEntity
  8
Default
100
AcDb2dPolyline
 66
     1
 10
0.0
 20
0.0
 30
0.0
  0
VERTEX
  5
139
330
138
100
AcDbEntity
  8
Default
100
AcDbVertex
100
AcDb2dVertex
 10
7.113244531025387
 20
14.25064364948017
 30
0.0
  0
VERTEX
  5
13A
330
138
100
AcDbEntity
  8
Default
100
AcDbVertex
100
AcDb2dVertex
 10
6.590060281145878
 20
12.717556412127
 30
0.0
  0
SEQEND
  5
13B
330
138
100
AcDbEntity
  8
Default
  0
POLYLINE
  5
13C
330
1F
100
AcDbEntity
  8
Default
100
AcDb2dPolyline
 66
     1
 10
0.0
 20
0.0
 30
0.0
  0
VERTEX
  5
13D
330
13C
100
AcDbEntity
  8
Default
100
AcDbVertex
100
AcDb2dVertex
 10
6.590060281145878
 20
12.717556412127
 30
0.0
  0
VERTEX
  5
13E
330
13C
100
AcDbEntity
  8
Default
100
AcDbVertex
100
AcDb2dVertex
 10
6.791910923930661
 20
11.00946570562646
 30
0.0
  0
SEQEND
  5
13F
330
13C
100
AcDbEntity
  8
Default
  0
SPLINE
  5
140
330
1F
100
AcDbEntity
  8
Default
100
AcDbSpline
210
0.0
220
0.0
230
1.0
 70
     8
 71
     5
 72
    12
 73
     6
 74
     0
 42
0.0000000001
 43
0.0000000001
 40
-1.0
 40
-1.0
 40
-1.0
 40
-1.0
 40
-1.0
 40
-1.0
 40
-0.2317022451376829
 40
-0.2317022451376829
 40
-0.2317022451376829
 40
-0.2317022451376829
 40
-0.2317022451376829
 40
-0.2317022451376829
 10
6.791910923930661
 20
11.00946570562646
 30
0.0
 10
6.795140290600859
 20
10.9756714234679
 30
0.0
 10
6.798369276641143
 20
10.94187710493651
 30
0.0
 10
6.843957226060244
 20
10.88439820702918
 30
0.0
 10
6.887576503841164
 20
10.85857767682135
 30
0.0
 10
6.923005098892535
 20
10.8585776768211
 30
0.0
  0
POLYLINE
  5
141
330
1F
100
AcDbEntity
  8
Default
100
AcDb2dPolyline
 66
     1
 10
0.0
 20
0.0
 30
0.0
  0
VERTEX
  5
142
330
141
100
AcDbEntity
  8
Default
100
AcDbVertex
100
AcDb2dVertex
 10
6.923005098892535
 20
10.8585776768211
 30
0.0
  0
VERTEX
  5
143
330
141
100
AcDbEntity
  8
Default
100
AcDbVertex
100
AcDb2dVertex
 10
7.556131829980092
 20
10.8585776768211
 30
0.0
  0
SEQEND
  5
144
330
141
100
AcDbEntity
  8
Default
  0
SPLINE
  5
145
330
1F
100
AcDbEntity
  8
Default
100
AcDbSpline
210
0.0
220
0.0
230
1.0
 70
     8
 71
     3
 72
    12
 73
     8
 74
     0
 42
0.0000000001
 43
0.0000000001
 40
0.0898478636032666
 40
0.0898478636032666
 40
0.0898478636032666
 40
0.0898478636032666
 40
1.0
 40
2.0
 40
3.0
 40
4.0
 40
5.0
 40
5.0
 40
5.0
 40
5.0
 10
7.113244531025387
 20
14.25064364948017
 30
0.0
 10
7.192343968032407
 20
14.27497253419359
 30
0.0
 10
7.369393763435315
 20
14.29159686639757
 30
0.0
 10
7.635481834445306
 20
14.31908563851482
 30
0.0
 10
7.911725900166081
 20
14.33991393310152
 30
0.0
 10
8.187149209849883
 20
14.3540764376649
 30
0.0
 10
8.37305671685447
 20
14.36504585393937
 30
0.0
 10
8.462527287738201
 20
14.34884245752311
 30
0.0
  0
SPLINE
  5
146
330
1F
100
AcDbEntity
  8
Default
100
AcDbSpline
210
0.0
220
0.0
230
1.0
 70
     8
 71
     2
 72
     6
 73
     3
 74
     0
 42
0.0000000001
 43
0.0000000001
 40
-14.30537820531634
 40
-14.30537820531634
 40
-14.30537820531634
 40
0.0
 40
0.0
 40
0.0
 10
8.462527287738201
 20
14.34884245752311
 30
0.0
 10
9.289756682295105
 20
7.24414534486831
 30
0.0
 10
10.11697550870619
 20
0.1394073325501114
 30
0.0
  0
SPLINE
  5
147
330
1F
100
AcDbEntity
  8
Default
100
AcDbSpline
210
0.0
220
0.0
230
1.0
 70
    12
 71
     2
 72
     8
 73
     5
 74
     0
 42
0.0000000001
 43
0.0000000001
 40
-0.2107227237993517
 40
-0.2107227237993517
 40
-0.2107227237993517
 40
-0.1053613618996758
 40
-0.1053613618996758
 40
0.0
 40
0.0
 40
0.0
 10
10.11697550870619
 20
0.1394073325501114
 30
0.0
 41
1.0
 10
10.12341812814003
 20
0.0836746348151844
 30
0.0
 41
0.9125005237042282
 10
10.08613574885959
 20
0.0418378107028454
 30
0.0
 41
1.0
 10
10.04885336957913
 20
0.0000009865905062
 30
0.0
 41
0.9125005237042282
 10
9.99281502863613
 20
0.0000000000074829
 30
0.0
 41
1.0
  0
LINE
  5
148
330
1F
100
AcDbEntity
  8
Default
100
AcDbLine
 10
9.99281502863613
 20
0.0000000000074829
 30
0.0
 11
9.083623129039069
 21
0.0
 31
0.0
  0
SPLINE
  5
149
330
1F
100
AcDbEntity
  8
Default
100
AcDbSpline
210
0.0
220
0.0
230
1.0
 70
    12
 71
     2
 72
     6
 73
     3
 74
     0
 42
0.0000000001
 43
0.0000000001
 40
0.0
 40
0.0
 40
0.0
 40
0.180210864739764
 40
0.180210864739764
 40
0.180210864739764
 10
9.083623129039069
 20
0.0
 30
0.0
 41
1.0
 10
8.97380131552723
 20
0.0000022237440393
 30
0.0
 41
0.7512335277449608
 10
8.959669055118027
 20
0.1089109467358247
 30
0.0
 41
1.0
  0
SPLINE
  5
14A
330
1F
100
AcDbEntity
  8
Default
100
AcDbSpline
210
0.0
220
0.0
230
1.0
 70
    24
 71
     2
 72
     6
 73
     3
 74
     0
 42
0.0000000001
 43
0.0000000001
 40
0.0
 40
0.0
 40
0.0
 40
14.26176312238566
 40
14.26176312238566
 40
14.26176312238566
 10
8.959669055118027
 20
0.1089109467358247
 30
0.0
 10
8.036456793071707
 20
7.179777298107997
 30
0.0
 10
7.113244531025387
 20
14.25064364948017
 30
0.0
  0
LINE
  5
14B
330
1F
100
AcDbEntity
  8
Default
100
AcDbLine
 10
35.80698943952319
 20
7.689108596594398
 30
0.0
 11
28.75992596428155
 21
6.748356007105342
 31
0.0
  0
LINE
  5
14C
330
1F
100
AcDbEntity
  8
Default
100
AcDbLine
 10
28.61524008284146
 20
6.350714365652581
 30
0.0
 11
35.85660811648447
 21
7.317405775915395
 31
0.0
  0
POLYLINE
  5
14D
330
1F
100
AcDbEntity
  8
Default
100
AcDb2dPolyline
 66
     1
 10
0.0
 20
0.0
 30
0.0
  0
VERTEX
  5
14E
330
14D
100
AcDbEntity
  8
Default
100
AcDbVertex
100
AcDb2dVertex
 10
29.17747139269544
 20
12.5297017344462
 30
0.0
  0
VERTEX
  5
14F
330
14D
100
AcDbEntity
  8
Default
100
AcDbVertex
100
AcDb2dVertex
 10
25.16134057809769
 20
0.1569582027993901
 30
0.0
  0
SEQEND
  5
150
330
14D
100
AcDbEntity
  8
Default
  0
SPLINE
  5
151
330
1F
100
AcDbEntity
  8
Default
100
AcDbSpline
210
0.0
220
0.0
230
1.0
 70
     8
 71
     3
 72
     8
 73
     4
 74
     0
 42
0.0000000001
 43
0.0000000001
 40
0.0
 40
0.0
 40
0.0
 40
0.0
 40
1.0
 40
1.0
 40
1.0
 40
1.0
 10
25.16134057809769
 20
0.1569582027993901
 30
0.0
 10
25.12841356466897
 20
0.05551790834088
 30
0.0
 10
25.17441325818099
 20
0.0
 30
0.0
 10
25.28217028836384
 20
0.0
 30
0.0
  0
POLYLINE
  5
152
330
1F
100
AcDbEntity
  8
Default
100
AcDb2dPolyline
 66
     1
 10
0.0
 20
0.0
 30
0.0
  0
VERTEX
  5
153
330
152
100
AcDbEntity
  8
Default
100
AcDbVertex
100
AcDb2dVertex
 10
25.28217028836384
 20
0.0
 30
0.0
  0
VERTEX
  5
154
330
152
100
AcDbEntity
  8
Default
100
AcDbVertex
100
AcDb2dVertex
 10
26.21735953166898
 20
0.0
 30
0.0
  0
SEQEND
  5
155
330
152
100
AcDbEntity
  8
Default
  0
SPLINE
  5
156
330
1F
100
AcDbEntity
  8
Default
100
AcDbSpline
210
0.0
220
0.0
230
1.0
 70
    12
 71
     2
 72
     6
 73
     3
 74
     0
 42
0.0000000001
 43
0.0000000001
 40
0.0
 40
0.0
 40
0.0
 40
0.0016010451548092
 40
0.0016010451548092
 40
0.0016010451548092
 10
26.21735953166898
 20
0.0
 30
0.0
 41
1.0
 10
26.21816006506919
 20
0.0000000042223564
 30
0.0
 41
0.9999797187846489
 10
26.21896053308316
 20
0.0000102357586167
 30
0.0
 41
0.9999999999999425
  0
SPLINE
  5
157
330
1F
100
AcDbEntity
  8
Default
100
AcDbSpline
210
0.0
220
0.0
230
1.0
 70
    12
 71
     2
 72
     6
 73
     3
 74
     0
 42
0.0000000001
 43
0.0000000001
 40
0.0
 40
0.0
 40
0.0
 40
0.1607951456562561
 40
0.1607951456562561
 40
0.1607951456562561
 10
26.21896053308316
 20
0.0000102357586167
 30
0.0
 41
1.0
 10
26.31262517140053
 20
0.0012259613735387
 30
0.0
 41
0.800286472176239
 10
26.3377738091917
 20
0.0914594832858867
 30
0.0
 41
0.9999717905399118
  0
SPLINE
  5
158
330
1F
100
AcDbEntity
  8
Default
100
AcDbSpline
210
0.0
220
0.0
230
1.0
 70
    12
 71
     2
 72
     6
 73
     3
 74
     0
 42
0.0000000001
 43
0.0000000001
 40
-0.0000489836486816
 40
-0.0000489836486816
 40
-0.0000489836486816
 40
0.0
 40
0.0
 40
0.0
 10
26.3377738091917
 20
0.0914594832858867
 30
0.0
 41
0.9992355071489254
 10
26.33778000195031
 20
0.0914776812155641
 30
0.0
 41
0.9982318458139088
 10
26.33786009368036
 20
0.0917683780530258
 30
0.0
 41
1.0
  0
POLYLINE
  5
159
330
1F
100
AcDbEntity
  8
Default
100
AcDb2dPolyline
 66
     1
 10
0.0
 20
0.0
 30
0.0
  0
VERTEX
  5
15A
330
159
100
AcDbEntity
  8
Default
100
AcDbVertex
100
AcDb2dVertex
 10
26.33786009368036
 20
0.0917683780530258
 30
0.0
  0
VERTEX
  5
15B
330
159
100
AcDbEntity
  8
Default
100
AcDbVertex
100
AcDb2dVertex
 10
30.25547115674246
 20
10.8585776768211
 30
0.0
  0
SEQEND
  5
15C
330
159
100
AcDbEntity
  8
Default
  0
LINE
  5
15D
330
1F
100
AcDbEntity
  8
Default
100
AcDbLine
 10
42.73544534592236
 20
8.614027587036919
 30
0.0
 11
36.17918715605224
 21
7.738795386965421
 31
0.0
  0
LINE
  5
15E
330
1F
100
AcDbEntity
  8
Default
100
AcDbLine
 10
36.22880545308266
 20
7.367092515567285
 30
0.0
 11
42.81231142455136
 21
8.245962176999354
 31
0.0
  0
LINE
  5
15F
330
1F
100
AcDbEntity
  8
Default
100
AcDbLine
 10
41.93247986690091
 20
12.4589462241448
 30
0.0
 11
44.51772549725775
 21
0.0797601129630961
 31
0.0
  0
SPLINE
  5
160
330
1F
100
AcDbEntity
  8
Default
100
AcDbSpline
210
0.0
220
0.0
230
1.0
 70
     8
 71
     3
 72
     8
 73
     4
 74
     0
 42
0.0000000001
 43
0.0000000001
 40
0.0
 40
0.0
 40
0.0
 40
0.0
 40
1.0
 40
1.0
 40
1.0
 40
1.0
 10
44.51772549725775
 20
0.0797601129630961
 30
0.0
 10
44.53021227582358
 20
0.0199687848997374
 30
0.0
 10
44.58311621383744
 20
0.0003964404035151
 30
0.0
 10
44.65118184274253
 20
0.0003964404035151
 30
0.0
  0
LINE
  5
161
330
1F
100
AcDbEntity
  8
Default
100
AcDbLine
 10
44.65118184274253
 20
0.0003964404035151
 30
0.0
 11
45.55716523470152
 21
0.0003964404035155
 31
0.0
  0
SPLINE
  5
162
330
1F
100
AcDbEntity
  8
Default
100
AcDbSpline
210
0.0
220
0.0
230
1.0
 70
     8
 71
     3
 72
     8
 73
     4
 74
     0
 42
0.0000000001
 43
0.0000000001
 40
-1.0
 40
-1.0
 40
-1.0
 40
-1.0
 40
0.0
 40
0.0
 40
0.0
 40
0.0
 10
45.55716523470152
 20
0.0003964404035155
 30
0.0
 10
45.65497769032406
 20
0.0003964404035156
 30
0.0
 10
45.6972262557622
 20
0.0533589783443542
 30
0.0
 10
45.67850929463498
 20
0.1496962886595204
 30
0.0
  0
LINE
  5
163
330
1F
100
AcDbEntity
  8
Default
100
AcDbLine
 10
45.67850929463498
 20
0.1496962886595204
 30
0.0
 11
43.00392661566031
 21
14.34884245752311
 31
0.0
  0
SPLINE
  5
164
330
1F
100
AcDbEntity
  8
Default
100
AcDbSpline
210
0.0
220
0.0
230
1.0
 70
     8
 71
     3
 72
     8
 73
     4
 74
     0
 42
0.0000000001
 43
0.0000000001
 40
0.0055257090623358
 40
0.0055257090623358
 40
0.0055257090623358
 40
0.0055257090623358
 40
1.0
 40
1.0
 40
1.0
 40
1.0
 10
43.00392661566031
 20
14.34884245752311
 30
0.0
 10
42.61227103867665
 20
14.37289798766873
 30
0.0
 10
42.21283833356419
 20
14.30020911102023
 30
0.0
 10
41.82483715657914
 20
14.22658749323149
 30
0.0
  0
SPLINE
  5
165
330
1F
100
AcDbEntity
  8
Default
100
AcDbSpline
210
0.0
220
0.0
230
1.0
 70
    12
 71
     3
 72
     8
 73
     4
 74
     0
 42
0.0000000001
 43
0.0000000001
 40
0.0
 40
0.0
 40
0.0
 40
0.0
 40
0.4374333186884251
 40
0.4374333186884251
 40
0.4374333186884251
 40
0.4374333186884251
 10
42.00212220586919
 20
12.50486710199612
 30
0.0
 41
1.0
 10
41.95613351634007
 20
12.48774685549234
 30
0.0
 41
1.0
 10
41.93282641944371
 20
12.47202453798843
 30
0.0
 41
1.0
 10
41.93429438123422
 20
12.45932516170318
 30
0.0
 41
1.0
  0
SPLINE
  5
166
330
1F
100
AcDbEntity
  8
Default
100
AcDbSpline
210
0.0
220
0.0
230
1.0
 70
    24
 71
     2
 72
     6
 73
     3
 74
     0
 42
0.0000000001
 43
0.0000000001
 40
0.0
 40
0.0
 40
0.0
 40
11.78959282321999
 40
11.78959282321999
 40
11.78959282321999
 10
30.25547115674246
 20
10.8585776768211
 30
0.0
 10
36.09886486787679
 20
11.63534963242079
 30
0.0
 10
41.94225857901107
 20
12.41212158802049
 30
0.0
  0
POLYLINE
  5
167
330
1F
100
AcDbEntity
  8
Default
100
AcDb2dPolyline
 66
     1
 10
0.0
 20
0.0
 30
0.0
  0
VERTEX
  5
168
330
167
100
AcDbEntity
  8
Default
100
AcDbVertex
100
AcDb2dVertex
 10
41.82483715657937
 20
14.22658749323151
 30
0.0
  0
VERTEX
  5
169
330
167
100
AcDbEntity
  8
Default
100
AcDbVertex
100
AcDb2dVertex
 10
30.27629690693509
 20
12.717556412127
 30
0.0
  0
SEQEND
  5
16A
330
167
100
AcDbEntity
  8
Default
  0
ARC
  5
16B
330
1F
100
AcDbEntity
  8
Default
100
AcDbCircle
 10
35.83179903208984
 20
7.503257220171483
 30
0.0
 40
0.1874999999985691
100
AcDbArc
 50
277.6033946154094
 51
97.60355127869062
  0
ARC
  5
16C
330
1F
100
AcDbEntity
  8
Default
100
AcDbCircle
 10
36.20399602701334
 20
7.55294391421477
 30
0.0
 40
0.1874999999996224
100
AcDbArc
 50
97.60332881626145
 51
277.6034999495933
  0
ARC
  5
16D
330
1F
100
AcDbEntity
  8
Default
100
AcDbCircle
 10
30.40951825376601
 20
8.630671434053678
 30
0.0
 40
4.089055728557979
100
AcDbArc
 50
91.86702564552976
 51
107.5359120387768
  0
SPLINE
  5
16E
330
1F
100
AcDbEntity
  8
Default
100
AcDbSpline
210
0.0
220
0.0
230
1.0
 70
    12
 71
     2
 72
     6
 73
     3
 74
     0
 42
0.0000000001
 43
0.0000000001
 40
0.0
 40
0.0
 40
0.0
 40
1.653939649378442
 40
1.653939649378442
 40
1.653939649378442
 10
30.01148703423118
 20
11.08495431027059
 30
0.0
 41
1.0
 10
30.14523605469822
 20
11.90103734926373
 30
0.0
 41
0.9999986444320038
 10
30.27629690693509
 20
12.717556412127
 30
0.0
 41
1.0
  0
SPLINE
  5
16F
330
1F
100
AcDbEntity
  8
Default
100
AcDbSpline
210
0.0
220
0.0
230
1.0
 70
    12
 71
     3
 72
    10
 73
     6
 74
     0
 42
0.0000000001
 43
0.0000000001
 40
-1.0
 40
-1.0
 40
-1.0
 40
-1.0
 40
-0.4992659508999312
 40
-0.4992659508999312
 40
0.0
 40
0.0
 40
0.0
 40
0.0
 10
30.13063984351531
 20
10.92677138804396
 30
0.0
 41
1.0
 10
30.10200862507529
 20
10.92788505240359
 30
0.0
 41
1.0
 10
30.06881636294288
 20
10.94499546386677
 30
0.0
 41
1.0
 10
30.02011759621761
 20
11.00273677400322
 30
0.0
 41
1.0
 10
30.00461439407524
 20
11.04301995975034
 30
0.0
 41
1.0
 10
30.01148703423118
 20
11.08495431027059
 30
0.0
 41
1.0
  0
SPLINE
  5
170
330
1F
100
AcDbEntity
  8
Default
100
AcDbSpline
210
0.0
220
0.0
230
1.0
 70
     8
 71
     5
 72
    12
 73
     6
 74
     0
 42
0.0000000001
 43
0.0000000001
 40
-1.0
 40
-1.0
 40
-1.0
 40
-1.0
 40
-1.0
 40
-1.0
 40
0.0
 40
0.0
 40
0.0
 40
0.0
 40
0.0
 40
0.0
 10
30.26233527563847
 20
10.89456382554413
 30
0.0
 10
30.26741574700846
 20
10.92119894085513
 30
0.0
 10
30.27249621837845
 20
10.94783405616612
 30
0.0
 10
30.18528802453848
 20
10.93645167681088
 30
0.0
 10
30.15773467409156
 20
10.9257174843407
 30
0.0
 10
30.13063984351531
 20
10.92677138804396
 30
0.0
  0
SPLINE
  5
171
330
1F
100
AcDbEntity
  8
Default
100
AcDbSpline
210
0.0
220
0.0
230
1.0
 70
    12
 71
     3
 72
    10
 73
     6
 74
     0
 42
0.0000000001
 43
0.0000000001
 40
-1.0
 40
-1.0
 40
-1.0
 40
-1.0
 40
-0.500448172180616
 40
-0.500448172180616
 40
0.0
 40
0.0
 40
0.0
 40
0.0
 10
42.08867831786056
 20
12.69039525012059
 30
0.0
 41
1.0
 10
42.09556669264168
 20
12.65031157276394
 30
0.0
 41
1.0
 10
42.08428419704977
 20
12.60644748154158
 30
0.0
 41
1.0
 10
42.04787832605897
 20
12.53738962709338
 30
0.0
 41
1.0
 10
42.02267370870489
 20
12.51251782651521
 30
0.0
 41
1.0
 10
42.00212220586919
 20
12.50486710199612
 30
0.0
 41
1.0
  0
SPLINE
  5
172
330
1F
100
AcDbEntity
  8
Default
100
AcDbSpline
210
0.0
220
0.0
230
1.0
 70
    12
 71
     2
 72
     6
 73
     3
 74
     0
 42
0.0000000001
 43
0.0000000001
 40
0.0
 40
0.0
 40
0.0
 40
1.558684950054495
 40
1.558684950054495
 40
1.558684950054495
 10
41.82483715657914
 20
14.22658749323149
 30
0.0
 41
1.0
 10
41.95668458180663
 20
13.45847880722691
 30
0.0
 41
0.9999999954644307
 10
42.08867831786056
 20
12.69039525012059
 30
0.0
 41
1.0
  0
ENDSEC
  0
SECTION
  2
OBJECTS
  0
DICTIONARY
  5
C
330
0
100
AcDbDictionary
281
     1
  3
ACAD_GROUP
350
D
  3
ACAD_LAYOUT
350
1A
  3
ACAD_MLEADERSTYLE
350
174
  3
ACAD_MLINESTYLE
350
17
  3
ACAD_PLOTSETTINGS
350
19
  3
ACAD_PLOTSTYLENAME
350
E
  3
ACAD_TABLESTYLE
350
173
  3
ACAD_VISUALSTYLE
350
2A
  0
DICTIONARY
  5
D
102
{ACAD_REACTORS
330
C
102
}
330
C
100
AcDbDictionary
281
     1
  0
DICTIONARY
  5
1A
102
{ACAD_REACTORS
330
C
102
}
330
C
100
AcDbDictionary
281
     1
  3
Layout1
350
1E
  3
Layout2
350
26
  3
Model
350
22
  0
DICTIONARY
  5
174
102
{ACAD_REACTORS
330
C
102
}
330
C
100
AcDbDictionary
281
     1
  0
DICTIONARY
  5
17
102
{ACAD_REACTORS
330
C
102
}
330
C
100
AcDbDictionary
281
     1
  3
Standard
350
18
  0
DICTIONARY
  5
19
102
{ACAD_REACTORS
330
C
102
}
330
C
100
AcDbDictionary
281
     1
  0
ACDBDICTIONARYWDFLT
  5
E
102
{ACAD_REACTORS
330
C
102
}
330
C
100
AcDbDictionary
281
     1
  3
Normal
350
F
100
AcDbDictionaryWithDefault
340
F
  0
DICTIONARY
  5
173
102
{ACAD_REACTORS
330
C
102
}
330
C
100
AcDbDictionary
281
     1
  0
DICTIONARY
  5
2A
102
{ACAD_REACTORS
330
C
102
}
330
C
100
AcDbDictionary
281
     1
  3
2dWireframe
350
2F
  3
3D Hidden
350
31
  3
3dWireframe
350
30
  3
Basic
350
32
  3
Brighten
350
36
  3
ColorChange
350
3A
  3
Conceptual
350
34
  3
Dim
350
35
  3
Facepattern
350
39
  3
Flat
350
2B
  3
FlatWithEdges
350
2C
  3
Gouraud
350
2D
  3
GouraudWithEdges
350
2E
  3
Linepattern
350
38
  3
Realistic
350
33
  3
Thicken
350
37
  0
LAYOUT
  5
1E
102
{ACAD_REACTORS
330
1A
102
}
330
1A
100
AcDbPlotSettings
  1

  2
none_device
  4

  6

 40
0.0
 41
0.0
 42
0.0
 43
0.0
 44
0.0
 45
0.0
 46
0.0
 47
0.0
 48
0.0
 49
0.0
140
0.0
141
0.0
142
1.0
143
1.0
 70
   688
 72
     0
 73
     0
 74
     5
  7

 75
    16
 76
     0
 77
     2
 78
   300
147
1.0
148
0.0
149
0.0
100
AcDbLayout
  1
Layout1
 70
     1
 71
     1
 10
0.0
 20
0.0
 11
12.0
 21
9.0
 12
0.0
 22
0.0
 32
0.0
 14
1.000000000000000E+20
 24
1.000000000000000E+20
 34
1.000000000000000E+20
 15
-1.000000000000000E+20
 25
-1.000000000000000E+20
 35
-1.000000000000000E+20
146
0.0
 13
0.0
 23
0.0
 33
0.0
 16
1.0
 26
0.0
 36
0.0
 17
0.0
 27
1.0
 37
0.0
 76
     0
330
1B
  0
LAYOUT
  5
26
102
{ACAD_REACTORS
330
1A
102
}
330
1A
100
AcDbPlotSettings
  1

  2
none_device
  4

  6

 40
0.0
 41
0.0
 42
0.0
 43
0.0
 44
0.0
 45
0.0
 46
0.0
 47
0.0
 48
0.0
 49
0.0
140
0.0
141
0.0
142
1.0
143
1.0
 70
   688
 72
     0
 73
     0
 74
     5
  7

 75
    16
 76
     0
 77
     2
 78
   300
147
1.0
148
0.0
149
0.0
100
AcDbLayout
  1
Layout2
 70
     1
 71
     2
 10
0.0
 20
0.0
 11
0.0
 21
0.0
 12
0.0
 22
0.0
 32
0.0
 14
0.0
 24
0.0
 34
0.0
 15
0.0
 25
0.0
 35
0.0
146
0.0
 13
0.0
 23
0.0
 33
0.0
 16
1.0
 26
0.0
 36
0.0
 17
0.0
 27
1.0
 37
0.0
 76
     0
330
23
  0
LAYOUT
  5
22
102
{ACAD_REACTORS
330
1A
102
}
330
1A
100
AcDbPlotSettings
  1

  2
none_device
  4

  6

 40
0.0
 41
0.0
 42
0.0
 43
0.0
 44
0.0
 45
0.0
 46
0.0
 47
0.0
 48
0.0
 49
0.0
140
0.0
141
0.0
142
1.0
143
1.0
 70
  1712
 72
     0
 73
     0
 74
     0
  7

 75
     0
 76
     0
 77
     2
 78
   300
147
1.0
148
0.0
149
0.0
100
AcDbLayout
  1
Model
 70
     1
 71
     0
 10
0.0
 20
0.0
 11
12.0
 21
9.0
 12
0.0
 22
0.0
 32
0.0
 14
-13.53790934395953
 24
-0.0000000000000004
 34
0.0
 15
45.68268094607193
 25
65.92728661845096
 35
0.0
146
0.0
 13
0.0
 23
0.0
 33
0.0
 16
1.0
 26
0.0
 36
0.0
 17
0.0
 27
1.0
 37
0.0
 76
     0
330
1F
331
29
  0
MLINESTYLE
  5
18
102
{ACAD_REACTORS
330
17
102
}
330
17
100
AcDbMlineStyle
  2
Standard
 70
     0
  3

 62
   256
 51
90.0
 52
90.0
 71
     2
 49
0.5
 62
   256
  6
BYLAYER
 49
-0.5
 62
   256
  6
BYLAYER
  0
ACDBPLACEHOLDER
  5
F
102
{ACAD_REACTORS
330
E
102
}
330
E
  0
VISUALSTYLE
  5
2F
102
{ACAD_REACTORS
330
2A
102
}
330
2A
100
AcDbVisualStyle
  2
2dWireframe
 70
     4
 71
     0
 72
     2
 73
     0
 90
        0
 40
-0.6
 41
-30.0
 62
     5
 63
     7
421
 16777215
 74
     1
 91
        4
 64
     7
 65
   257
 75
     1
175
     1
 42
1.0
 92
        0
 66
   257
 43
1.0
 76
     1
 77
     6
 78
     2
 67
     7
 79
     5
170
     0
171
     0
290
     0
174
     0
 93
        1
 44
0.0
173
     0
291
     0
 45
0.0
1001
ACAD
1000
AcDbSavedByObjectVersion
1070
     0
  0
VISUALSTYLE
  5
31
102
{ACAD_REACTORS
330
2A
102
}
330
2A
100
AcDbVisualStyle
  2
3D Hidden
 70
     6
 71
     1
 72
     2
 73
     2
 90
        0
 40
-0.6
 41
-30.0
 62
     5
 63
     7
421
 16777215
 74
     2
 91
        2
 64
     7
 65
   257
 75
     2
175
     1
 42
40.0
 92
        0
 66
   257
 43
1.0
 76
     1
 77
     6
 78
     2
 67
     7
 79
     3
170
     0
171
     0
290
     0
174
     0
 93
        1
 44
0.0
173
     0
291
     0
 45
0.0
1001
ACAD
1000
AcDbSavedByObjectVersion
1070
     0
  0
VISUALSTYLE
  5
30
102
{ACAD_REACTORS
330
2A
102
}
330
2A
100
AcDbVisualStyle
  2
3dWireframe
 70
     5
 71
     0
 72
     2
 73
     0
 90
        0
 40
-0.6
 41
-30.0
 62
     5
 63
     7
421
 16777215
 74
     1
 91
        4
 64
     7
 65
   257
 75
     1
175
     1
 42
1.0
 92
        0
 66
   257
 43
1.0
 76
     1
 77
     6
 78
     2
 67
     7
 79
     5
170
     0
171
     0
290
     0
174
     0
 93
        1
 44
0.0
173
     0
291
     0
 45
0.0
1001
ACAD
1000
AcDbSavedByObjectVersion
1070
     0
  0
VISUALSTYLE
  5
32
102
{ACAD_REACTORS
330
2A
102
}
330
2A
100
AcDbVisualStyle
  2
Basic
 70
     7
 71
     1
 72
     0
 73
     1
 90
        0
 40
-0.6
 41
-30.0
 62
     5
 63
     7
421
 16777215
 74
     0
 91
        4
 64
     7
 65
   257
 75
     1
175
     1
 42
1.0
 92
        8
 66
     7
 43
1.0
 76
     1
 77
     6
 78
     2
 67
     7
 79
     5
170
     0
171
     0
290
     0
174
     0
 93
        1
 44
0.0
173
     0
291
     1
 45
0.0
1001
ACAD
1000
AcDbSavedByObjectVersion
1070
     0
  0
VISUALSTYLE
  5
36
102
{ACAD_REACTORS
330
2A
102
}
330
2A
100
AcDbVisualStyle
  2
Brighten
 70
    12
 71
     2
 72
     2
 73
     0
 90
        0
 40
-0.6
 41
-30.0
 62
     5
 63
     7
421
 16777215
 74
     1
 91
        4
 64
     7
 65
   257
 75
     1
175
     1
 42
1.0
 92
        8
 66
     7
 43
1.0
 76
     1
 77
     6
 78
     2
 67
     7
 79
     5
170
     0
171
     0
290
     0
174
     0
 93
        1
 44
50.0
173
     0
291
     1
 45
0.0
1001
ACAD
1000
AcDbSavedByObjectVersion
1070
     0
  0
VISUALSTYLE
  5
3A
102
{ACAD_REACTORS
330
2A
102
}
330
2A
100
AcDbVisualStyle
  2
ColorChange
 70
    16
 71
     2
 72
     2
 73
     3
 90
        0
 40
-0.6
 41
-30.0
 62
     5
 63
     8
421
  8421504
 74
     1
 91
        4
 64
     7
 65
   257
 75
     1
175
     1
 42
1.0
 92
        8
 66
     8
424
  8421504
 43
1.0
 76
     1
 77
     6
 78
     2
 67
     7
 79
     5
170
     0
171
     0
290
     0
174
     0
 93
        1
 44
0.0
173
     0
291
     1
 45
0.0
1001
ACAD
1000
AcDbSavedByObjectVersion
1070
     0
  0
VISUALSTYLE
  5
34
102
{ACAD_REACTORS
330
2A
102
}
330
2A
100
AcDbVisualStyle
  2
Conceptual
 70
     9
 71
     3
 72
     2
 73
     0
 90
        0
 40
-0.6
 41
-30.0
 62
     5
 63
     7
421
 16777215
 74
     2
 91
        2
 64
     7
 65
   257
 75
     1
175
     1
 42
40.0
 92
        8
 66
     7
 43
1.0
 76
     1
 77
     6
 78
     2
 67
     7
 79
     3
170
     0
171
     0
290
     0
174
     0
 93
        1
 44
0.0
173
     0
291
     0
 45
0.0
1001
ACAD
1000
AcDbSavedByObjectVersion
1070
     0
  0
VISUALSTYLE
  5
35
102
{ACAD_REACTORS
330
2A
102
}
330
2A
100
AcDbVisualStyle
  2
Dim
 70
    11
 71
     2
 72
     2
 73
     0
 90
        0
 40
-0.6
 41
-30.0
 62
     5
 63
     7
421
 16777215
 74
     1
 91
        4
 64
     7
 65
   257
 75
     1
175
     1
 42
1.0
 92
        8
 66
     7
 43
1.0
 76
     1
 77
     6
 78
     2
 67
     7
 79
     5
170
     0
171
     0
290
     0
174
     0
 93
        1
 44
-50.0
173
     0
291
     1
 45
0.0
1001
ACAD
1000
AcDbSavedByObjectVersion
1070
     0
  0
VISUALSTYLE
  5
39
102
{ACAD_REACTORS
330
2A
102
}
330
2A
100
AcDbVisualStyle
  2
Facepattern
 70
    15
 71
     2
 72
     2
 73
     0
 90
        0
 40
-0.6
 41
-30.0
 62
     5
 63
     7
421
 16777215
 74
     1
 91
        4
 64
     7
 65
   257
 75
     1
175
     1
 42
1.0
 92
        8
 66
     7
 43
1.0
 76
     1
 77
     6
 78
     2
 67
     7
 79
     5
170
     0
171
     0
290
     0
174
     0
 93
        1
 44
0.0
173
     0
291
     1
 45
0.0
1001
ACAD
1000
AcDbSavedByObjectVersion
1070
     0
  0
VISUALSTYLE
  5
2B
102
{ACAD_REACTORS
330
2A
102
}
330
2A
100
AcDbVisualStyle
  2
Flat
 70
     0
 71
     2
 72
     1
 73
     1
 90
        2
 40
-0.6
 41
30.0
 62
     5
 63
     7
421
 16777215
 74
     0
 91
        4
 64
     7
 65
   257
 75
     1
175
     1
 42
1.0
 92
        8
 66
     7
 43
1.0
 76
     1
 77
     6
 78
     2
 67
     7
 79
     5
170
     0
171
     0
290
     0
174
     0
 93
       13
 44
0.0
173
     0
291
     1
 45
0.0
1001
ACAD
1000
AcDbSavedByObjectVersion
1070
     0
  0
VISUALSTYLE
  5
2C
102
{ACAD_REACTORS
330
2A
102
}
330
2A
100
AcDbVisualStyle
  2
FlatWithEdges
 70
     1
 71
     2
 72
     1
 73
     1
 90
        2
 40
-0.6
 41
30.0
 62
     5
 63
     7
421
 16777215
 74
     1
 91
        4
 64
     7
 65
   257
 75
     1
175
     1
 42
1.0
 92
        0
 66
   257
 43
1.0
 76
     1
 77
     6
 78
     2
 67
     7
 79
     5
170
     0
171
     0
290
     0
174
     0
 93
       13
 44
0.0
173
     0
291
     1
 45
0.0
1001
ACAD
1000
AcDbSavedByObjectVersion
1070
     0
  0
VISUALSTYLE
  5
2D
102
{ACAD_REACTORS
330
2A
102
}
330
2A
100
AcDbVisualStyle
  2
Gouraud
 70
     2
 71
     2
 72
     2
 73
     1
 90
        2
 40
-0.6
 41
30.0
 62
     5
 63
     7
421
 16777215
 74
     0
 91
        4
 64
     7
 65
   257
 75
     1
175
     1
 42
1.0
 92
        0
 66
     7
 43
1.0
 76
     1
 77
     6
 78
     2
 67
     7
 79
     5
170
     0
171
     0
290
     0
174
     0
 93
       13
 44
0.0
173
     0
291
     1
 45
0.0
1001
ACAD
1000
AcDbSavedByObjectVersion
1070
     0
  0
VISUALSTYLE
  5
2E
102
{ACAD_REACTORS
330
2A
102
}
330
2A
100
AcDbVisualStyle
  2
GouraudWithEdges
 70
     3
 71
     2
 72
     2
 73
     1
 90
        2
 40
-0.6
 41
30.0
 62
     5
 63
     7
421
 16777215
 74
     1
 91
        4
 64
     7
 65
   257
 75
     1
175
     1
 42
1.0
 92
        0
 66
   257
 43
1.0
 76
     1
 77
     6
 78
     2
 67
     7
 79
     5
170
     0
171
     0
290
     0
174
     0
 93
       13
 44
0.0
173
     0
291
     1
 45
0.0
1001
ACAD
1000
AcDbSavedByObjectVersion
1070
     0
  0
VISUALSTYLE
  5
38
102
{ACAD_REACTORS
330
2A
102
}
330
2A
100
AcDbVisualStyle
  2
Linepattern
 70
    14
 71
     2
 72
     2
 73
     0
 90
        0
 40
-0.6
 41
-30.0
 62
     5
 63
     7
421
 16777215
 74
     1
 91
        4
 64
     7
 65
   257
 75
     7
175
     7
 42
1.0
 92
        8
 66
     7
 43
1.0
 76
     1
 77
     6
 78
     2
 67
     7
 79
     5
170
     0
171
     0
290
     0
174
     0
 93
        1
 44
0.0
173
     0
291
     1
 45
0.0
1001
ACAD
1000
AcDbSavedByObjectVersion
1070
     0
  0
VISUALSTYLE
  5
33
102
{ACAD_REACTORS
330
2A
102
}
330
2A
100
AcDbVisualStyle
  2
Realistic
 70
     8
 71
     2
 72
     2
 73
     0
 90
        0
 40
-0.6
 41
-30.0
 62
     5
 63
     7
421
 16777215
 74
     1
 91
        0
 64
     7
 65
   257
 75
     1
175
     1
 42
1.0
 92
        8
 66
     8
424
  7895160
 43
1.0
 76
     1
 77
     6
 78
     2
 67
     7
 79
     5
170
     0
171
     0
290
     0
174
     0
 93
       13
 44
0.0
173
     0
291
     0
 45
0.0
1001
ACAD
1000
AcDbSavedByObjectVersion
1070
     0
  0
VISUALSTYLE
  5
37
102
{ACAD_REACTORS
330
2A
102
}
330
2A
100
AcDbVisualStyle
  2
Thicken
 70
    13
 71
     2
 72
     2
 73
     0
 90
        0
 40
-0.6
 41
-30.0
 62
     5
 63
     7
421
 16777215
 74
     1
 91
        4
 64
     7
 65
   257
 75
     1
175
     1
 42
1.0
 92
       12
 66
     7
 43
1.0
 76
     1
 77
     6
 78
     2
 67
     7
 79
     5
170
     0
171
     0
290
     0
174
     0
 93
        1
 44
0.0
173
     0
291
     1
 45
0.0
1001
ACAD
1000
AcDbSavedByObjectVersion
1070
     0
  0
ENDSEC
  0
EOF
