  0
SECTION
  2
HEADER
  9
$ACADVER
  1
AC1018
  9
$ACADMAINTVER
 70
     0
  9
$DWGCODEPAGE
  3
ANSI_1252
  9
$INSBASE
 10
0.0
 20
0.0
 30
0.0
  9
$EXTMIN
 10
-13.53892421369574
 20
-0.0048389958000095
 30
0.0
  9
$EXTMAX
 10
44.99010264408204
 20
71.98948961703542
 30
0.0
  9
$LIMMIN
 10
0.0
 20
0.0
  9
$LIMMAX
 10
12.0
 20
9.0
  9
$ORTHOMODE
 70
     0
  9
$REGENMODE
 70
     1
  9
$FILLMODE
 70
     1
  9
$QTEXTMODE
 70
     0
  9
$MIRRTEXT
 70
     1
  9
$LTSCALE
 40
0.0393700787401575
  9
$ATTMODE
 70
     1
  9
$TEXTSIZE
 40
0.2
  9
$TRACEWID
 40
0.05
  9
$TEXTSTYLE
  7
Standard
  9
$CLAYER
  8
Default
  9
$CELTYPE
  6
ByLayer
  9
$CECOLOR
 62
   256
  9
$CELTSCALE
 40
1.0
  9
$DISPSILH
 70
     0
  9
$DIMSCALE
 40
1.0
  9
$DIMASZ
 40
0.18
  9
$DIMEXO
 40
0.0625
  9
$DIMDLI
 40
0.38
  9
$DIMRND
 40
0.0
  9
$DIMDLE
 40
0.0
  9
$DIMEXE
 40
0.18
  9
$DIMTP
 40
0.0
  9
$DIMTM
 40
0.0
  9
$DIMTXT
 40
0.18
  9
$DIMCEN
 40
0.09
  9
$DIMTSZ
 40
0.0
  9
$DIMTOL
 70
     0
  9
$DIMLIM
 70
     0
  9
$DIMTIH
 70
     1
  9
$DIMTOH
 70
     1
  9
$DIMSE1
 70
     0
  9
$DIMSE2
 70
     0
  9
$DIMTAD
 70
     0
  9
$DIMZIN
 70
     0
  9
$DIMBLK
  1

  9
$DIMASO
 70
     1
  9
$DIMSHO
 70
     1
  9
$DIMPOST
  1

  9
$DIMAPOST
  1

  9
$DIMALT
 70
     0
  9
$DIMALTD
 70
     2
  9
$DIMALTF
 40
25.4
  9
$DIMLFAC
 40
1.0
  9
$DIMTOFL
 70
     0
  9
$DIMTVP
 40
0.0
  9
$DIMTIX
 70
     0
  9
$DIMSOXD
 70
     0
  9
$DIMSAH
 70
     0
  9
$DIMBLK1
  1

  9
$DIMBLK2
  1

  9
$DIMSTYLE
  2
Standard
  9
$DIMCLRD
 70
     0
  9
$DIMCLRE
 70
     0
  9
$DIMCLRT
 70
     0
  9
$DIMTFAC
 40
1.0
  9
$DIMGAP
 40
0.09
  9
$DIMJUST
 70
     0
  9
$DIMSD1
 70
     0
  9
$DIMSD2
 70
     0
  9
$DIMTOLJ
 70
     1
  9
$DIMTZIN
 70
     0
  9
$DIMALTZ
 70
     0
  9
$DIMALTTZ
 70
     0
  9
$DIMUPT
 70
     0
  9
$DIMDEC
 70
     4
  9
$DIMTDEC
 70
     4
  9
$DIMALTU
 70
     2
  9
$DIMALTTD
 70
     2
  9
$DIMTXSTY
  7
Standard
  9
$DIMAUNIT
 70
     0
  9
$DIMADEC
 70
     0
  9
$DIMALTRND
 40
0.0
  9
$DIMAZIN
 70
     0
  9
$DIMDSEP
 70
    46
  9
$DIMATFIT
 70
     3
  9
$DIMFRAC
 70
     0
  9
$DIMLDRBLK
  1

  9
$DIMLUNIT
 70
     2
  9
$DIMLWD
 70
    -2
  9
$DIMLWE
 70
    -2
  9
$DIMTMOVE
 70
     2
  9
$LUNITS
 70
     2
  9
$LUPREC
 70
     4
  9
$SKETCHINC
 40
0.1
  9
$FILLETRAD
 40
0.5
  9
$AUNITS
 70
     0
  9
$AUPREC
 70
     0
  9
$MENU
  1
.
  9
$ELEVATION
 40
0.0
  9
$PELEVATION
 40
0.0
  9
$THICKNESS
 40
0.0
  9
$LIMCHECK
 70
     0
  9
$CHAMFERA
 40
0.5
  9
$CHAMFERB
 40
0.5
  9
$CHAMFERC
 40
1.0
  9
$CHAMFERD
 40
0.0
  9
$SKPOLY
 70
     0
  9
$TDCREATE
 40
2457212.45292632
  9
$TDUCREATE
 40
2457212.619592986
  9
$TDUPDATE
 40
2457212.452926331
  9
$TDUUPDATE
 40
2457212.619592998
  9
$TDINDWG
 40
0.0000000116
  9
$TDUSRTIMER
 40
0.0000000116
  9
$USRTIMER
 70
     1
  9
$ANGBASE
 50
0.0
  9
$ANGDIR
 70
     0
  9
$PDMODE
 70
     0
  9
$PDSIZE
 40
0.0
  9
$PLINEWID
 40
0.0
  9
$SPLFRAME
 70
     0
  9
$SPLINETYPE
 70
     6
  9
$SPLINESEGS
 70
     8
  9
$HANDSEED
  5
117
  9
$SURFTAB1
 70
     6
  9
$SURFTAB2
 70
     6
  9
$SURFTYPE
 70
     6
  9
$SURFU
 70
     6
  9
$SURFV
 70
     6
  9
$UCSBASE
  2

  9
$UCSNAME
  2

  9
$UCSORG
 10
0.0
 20
0.0
 30
0.0
  9
$UCSXDIR
 10
1.0
 20
0.0
 30
0.0
  9
$UCSYDIR
 10
0.0
 20
1.0
 30
0.0
  9
$UCSORTHOREF
  2

  9
$UCSORTHOVIEW
 70
     0
  9
$UCSORGTOP
 10
0.0
 20
0.0
 30
0.0
  9
$UCSORGBOTTOM
 10
0.0
 20
0.0
 30
0.0
  9
$UCSORGLEFT
 10
0.0
 20
0.0
 30
0.0
  9
$UCSORGRIGHT
 10
0.0
 20
0.0
 30
0.0
  9
$UCSORGFRONT
 10
0.0
 20
0.0
 30
0.0
  9
$UCSORGBACK
 10
0.0
 20
0.0
 30
0.0
  9
$PUCSBASE
  2

  9
$PUCSNAME
  2

  9
$PUCSORG
 10
0.0
 20
0.0
 30
0.0
  9
$PUCSXDIR
 10
1.0
 20
0.0
 30
0.0
  9
$PUCSYDIR
 10
0.0
 20
1.0
 30
0.0
  9
$PUCSORTHOREF
  2

  9
$PUCSORTHOVIEW
 70
     0
  9
$PUCSORGTOP
 10
0.0
 20
0.0
 30
0.0
  9
$PUCSORGBOTTOM
 10
0.0
 20
0.0
 30
0.0
  9
$PUCSORGLEFT
 10
0.0
 20
0.0
 30
0.0
  9
$PUCSORGRIGHT
 10
0.0
 20
0.0
 30
0.0
  9
$PUCSORGFRONT
 10
0.0
 20
0.0
 30
0.0
  9
$PUCSORGBACK
 10
0.0
 20
0.0
 30
0.0
  9
$USERI1
 70
     0
  9
$USERI2
 70
     0
  9
$USERI3
 70
     0
  9
$USERI4
 70
     0
  9
$USERI5
 70
     0
  9
$USERR1
 40
0.0
  9
$USERR2
 40
0.0
  9
$USERR3
 40
0.0
  9
$USERR4
 40
0.0
  9
$USERR5
 40
0.0
  9
$WORLDVIEW
 70
     1
  9
$SHADEDGE
 70
     3
  9
$SHADEDIF
 70
    70
  9
$TILEMODE
 70
     1
  9
$MAXACTVP
 70
    64
  9
$PINSBASE
 10
0.0
 20
0.0
 30
0.0
  9
$PLIMCHECK
 70
     0
  9
$PEXTMIN
 10
1.000000000000000E+20
 20
1.000000000000000E+20
 30
1.000000000000000E+20
  9
$PEXTMAX
 10
-1.000000000000000E+20
 20
-1.000000000000000E+20
 30
-1.000000000000000E+20
  9
$PLIMMIN
 10
0.0
 20
0.0
  9
$PLIMMAX
 10
12.0
 20
9.0
  9
$UNITMODE
 70
     0
  9
$VISRETAIN
 70
     1
  9
$PLINEGEN
 70
     0
  9
$PSLTSCALE
 70
     1
  9
$TREEDEPTH
 70
  3020
  9
$CMLSTYLE
  2
Standard
  9
$CMLJUST
 70
     0
  9
$CMLSCALE
 40
1.0
  9
$PROXYGRAPHICS
 70
     1
  9
$MEASUREMENT
 70
     0
  9
$CELWEIGHT
370
    -1
  9
$ENDCAPS
280
     0
  9
$JOINSTYLE
280
     0
  9
$LWDISPLAY
290
     0
  9
$INSUNITS
 70
     1
  9
$HYPERLINKBASE
  1

  9
$STYLESHEET
  1

  9
$XEDIT
290
     1
  9
$CEPSNTYPE
380
     0
  9
$PSTYLEMODE
290
     1
  9
$FINGERPRINTGUID
  2
{B7CAF5C8-0017-435E-B3A5-D1DB43123694}
  9
$VERSIONGUID
  2
{FAEB1C32-E019-11D5-929B-00C0DF256EC4}
  9
$EXTNAMES
290
     1
  9
$PSVPSCALE
 40
0.0
  9
$OLESTARTUP
290
     0
  9
$SORTENTS
280
   127
  9
$INDEXCTL
280
     0
  9
$HIDETEXT
280
     1
  9
$XCLIPFRAME
290
     0
  9
$HALOGAP
280
     0
  9
$OBSCOLOR
 70
   257
  9
$OBSLTYPE
280
     0
  9
$INTERSECTIONDISPLAY
280
     0
  9
$INTERSECTIONCOLOR
 70
   257
  9
$DIMASSOC
280
     2
  9
$PROJECTNAME
  1

  0
ENDSEC
  0
SECTION
  2
CLASSES
  0
CLASS
  1
ACDBDICTIONARYWDFLT
  2
AcDbDictionaryWithDefault
  3
ObjectDBX Classes
 90
        0
 91
        4
280
     0
281
     0
  0
CLASS
  1
VISUALSTYLE
  2
AcDbVisualStyle
  3
ObjectDBX Classes
 90
     4095
 91
        4
280
     0
281
     0
  0
ENDSEC
  0
SECTION
  2
TABLES
  0
TABLE
  2
VPORT
  5
8
330
0
100
AcDbSymbolTable
 70
     1
  0
VPORT
  5
29
330
8
100
AcDbSymbolTableRecord
100
AcDbViewportTableRecord
  2
*Active
 70
     0
 10
0.0
 20
0.0
 11
1.0
 21
1.0
 12
15.72558921519315
 22
35.9923253106177
 13
0.0
 23
0.0
 14
0.5
 24
0.5
 15
0.5
 25
0.5
 16
0.0
 26
0.0
 36
1.0
 17
0.0
 27
0.0
 37
0.0
 40
73.43421518509214
 41
0.812967187631263
 42
50.0
 43
0.0
 44
0.0
 50
0.0
 51
0.0
 71
     0
 72
   100
 73
     1
 74
     3
 75
     0
 76
     0
 77
     0
 78
     0
281
     0
 65
     1
110
0.0
120
0.0
130
0.0
111
1.0
121
0.0
131
0.0
112
0.0
122
1.0
132
0.0
 79
     0
146
0.0
  0
ENDTAB
  0
TABLE
  2
LTYPE
  5
5
330
0
100
AcDbSymbolTable
 70
     1
  0
LTYPE
  5
14
330
5
100
AcDbSymbolTableRecord
100
AcDbLinetypeTableRecord
  2
ByBlock
 70
     0
  3

 72
    65
 73
     0
 40
0.0
  0
LTYPE
  5
15
330
5
100
AcDbSymbolTableRecord
100
AcDbLinetypeTableRecord
  2
ByLayer
 70
     0
  3

 72
    65
 73
     0
 40
0.0
  0
LTYPE
  5
16
330
5
100
AcDbSymbolTableRecord
100
AcDbLinetypeTableRecord
  2
Continuous
 70
     0
  3
Solid line
 72
    65
 73
     0
 40
0.0
  0
ENDTAB
  0
TABLE
  2
LAYER
  5
2
330
0
100
AcDbSymbolTable
 70
     2
  0
LAYER
  5
10
330
2
100
AcDbSymbolTableRecord
100
AcDbLayerTableRecord
  2
0
 70
     0
 62
     7
  6
Continuous
370
    -3
390
F
  0
LAYER
  5
3B
330
2
100
AcDbSymbolTableRecord
100
AcDbLayerTableRecord
  2
Default
 70
     0
 62
     7
  6
Continuous
370
    -3
390
F
  0
ENDTAB
  0
TABLE
  2
STYLE
  5
3
330
0
100
AcDbSymbolTable
 70
     1
  0
STYLE
  5
11
330
3
100
AcDbSymbolTableRecord
100
AcDbTextStyleTableRecord
  2
Standard
 70
     0
 40
0.0
 41
1.0
 50
0.0
 71
     0
 42
0.2
  3
txt
  4

  0
ENDTAB
  0
TABLE
  2
VIEW
  5
6
330
0
100
AcDbSymbolTable
 70
     0
  0
ENDTAB
  0
TABLE
  2
UCS
  5
7
330
0
100
AcDbSymbolTable
 70
     0
  0
ENDTAB
  0
TABLE
  2
APPID
  5
9
330
0
100
AcDbSymbolTable
 70
     1
  0
APPID
  5
12
330
9
100
AcDbSymbolTableRecord
100
AcDbRegAppTableRecord
  2
ACAD
 70
     0
  0
ENDTAB
  0
TABLE
  2
DIMSTYLE
  5
A
330
0
100
AcDbSymbolTable
 70
     1
100
AcDbDimStyleTable
  0
DIMSTYLE
105
27
330
A
100
AcDbSymbolTableRecord
100
AcDbDimStyleTableRecord
  2
Standard
 70
     0
340
11
  0
ENDTAB
  0
TABLE
  2
BLOCK_RECORD
  5
1
330
0
100
AcDbSymbolTable
 70
     1
  0
BLOCK_RECORD
  5
1F
330
1
100
AcDbSymbolTableRecord
100
AcDbBlockTableRecord
  2
*Model_Space
340
22
  0
BLOCK_RECORD
  5
1B
330
1
100
AcDbSymbolTableRecord
100
AcDbBlockTableRecord
  2
*Paper_Space
340
1E
  0
BLOCK_RECORD
  5
23
330
1
100
AcDbSymbolTableRecord
100
AcDbBlockTableRecord
  2
*Paper_Space0
340
26
  0
ENDTAB
  0
ENDSEC
  0
SECTION
  2
BLOCKS
  0
BLOCK
  5
20
330
1F
100
AcDbEntity
  8
0
100
AcDbBlockBegin
  2
*Model_Space
 70
     0
 10
0.0
 20
0.0
 30
0.0
  3
*Model_Space
  1

  0
ENDBLK
  5
21
330
1F
100
AcDbEntity
  8
0
100
AcDbBlockEnd
  0
BLOCK
  5
1C
330
1B
100
AcDbEntity
 67
     1
  8
0
100
AcDbBlockBegin
  2
*Paper_Space
 70
     0
 10
0.0
 20
0.0
 30
0.0
  3
*Paper_Space
  1

  0
ENDBLK
  5
1D
330
1B
100
AcDbEntity
 67
     1
  8
0
100
AcDbBlockEnd
  0
BLOCK
  5
24
330
23
100
AcDbEntity
  8
0
100
AcDbBlockBegin
  2
*Paper_Space0
 70
     0
 10
0.0
 20
0.0
 30
0.0
  3
*Paper_Space0
  1

  0
ENDBLK
  5
25
330
23
100
AcDbEntity
  8
0
100
AcDbBlockEnd
  0
ENDSEC
  0
SECTION
  2
ENTITIES
  0
SPLINE
  5
3C
330
1F
100
AcDbEntity
  8
Default
100
AcDbSpline
210
0.0
220
0.0
230
1.0
 70
    24
 71
     2
 72
     6
 73
     3
 74
     0
 42
0.0000000001
 43
0.0000000001
 40
0.0
 40
0.0
 40
0.0
 40
0.2382843168164637
 40
0.2382843168164637
 40
0.2382843168164637
 10
9.691050958401073
 20
55.0104760576383
 30
0.0
 10
9.571908800018875
 20
55.01047356699068
 30
0.0
 10
9.452766641636675
 20
55.01047107634307
 30
0.0
  0
SPLINE
  5
3D
330
1F
100
AcDbEntity
  8
Default
100
AcDbSpline
210
0.0
220
0.0
230
1.0
 70
    24
 71
     2
 72
     6
 73
     3
 74
     0
 42
0.0000000001
 43
0.0000000001
 40
0.0
 40
0.0
 40
0.0
 40
0.1442971035428102
 40
0.1442971035428102
 40
0.1442971035428102
 10
9.439931508267756
 20
58.01632409268767
 30
0.0
 10
9.367783928453976
 20
58.01594959338817
 30
0.0
 10
9.295636348640196
 20
58.01557509408867
 30
0.0
  0
SPLINE
  5
3E
330
1F
100
AcDbEntity
  8
Default
100
AcDbSpline
210
0.0
220
0.0
230
1.0
 70
    24
 71
     2
 72
     6
 73
     3
 74
     0
 42
0.0000000001
 43
0.0000000001
 40
0.0
 40
0.0
 40
0.0
 40
0.032908989532488
 40
0.032908989532488
 40
0.032908989532488
 10
9.472840497793054
 20
58.01632478064479
 30
0.0
 10
9.456386003030406
 20
58.01632443666623
 30
0.0
 10
9.439931508267756
 20
58.01632409268767
 30
0.0
  0
SPLINE
  5
3F
330
1F
100
AcDbEntity
  8
Default
100
AcDbSpline
210
0.0
220
0.0
230
1.0
 70
    12
 71
     2
 72
     6
 73
     3
 74
     0
 42
0.0000000001
 43
0.0000000001
 40
0.0
 40
0.0
 40
0.0
 40
0.3170060776677096
 40
0.3170060776677096
 40
0.3170060776677096
 10
9.902199736528239
 20
48.84400227262867
 30
0.0
 41
1.0
 10
10.02880157564963
 20
48.73194064062496
 30
0.0
 41
0.9088054909560228
 10
10.02634635736053
 20
48.56288500794919
 30
0.0
 41
1.0
  0
SPLINE
  5
40
330
1F
100
AcDbEntity
  8
Default
100
AcDbSpline
210
0.0
220
0.0
230
1.0
 70
    12
 71
     2
 72
     8
 73
     5
 74
     0
 42
0.0000000001
 43
0.0000000001
 40
0.0
 40
0.0
 40
0.0
 40
0.5875848008111578
 40
0.5875848008111578
 40
0.8535129116332818
 40
0.8535129116332818
 40
0.8535129116332818
 10
10.02634635736053
 20
48.56288500794919
 30
0.0
 41
1.0
 10
10.02102220561187
 20
48.19125476608288
 30
0.0
 41
0.7134028865294767
 10
9.649356186447966
 20
48.18993058319751
 30
0.0
 41
1.0
 10
9.51027051889835
 20
48.18974508808779
 30
0.0
 41
0.9352677885701601
 10
9.405909723991567
 20
48.28168899388139
 30
0.0
 41
1.0
  0
SPLINE
  5
41
330
1F
100
AcDbEntity
  8
Default
100
AcDbSpline
210
0.0
220
0.0
230
1.0
 70
    12
 71
     2
 72
    16
 73
    13
 74
     0
 42
0.0000000001
 43
0.0000000001
 40
-2.114394366059408
 40
-2.114394366059408
 40
-2.114394366059408
 40
-1.797968387819482
 40
-1.797968387819482
 40
-1.466504409665124
 40
-1.466504409665124
 40
-1.103448733882449
 40
-1.103448733882449
 40
-0.7375003280355865
 40
-0.7375003280355865
 40
-0.3853840619015161
 40
-0.3853840619015161
 40
0.0
 40
0.0
 40
0.0
 10
-13.18036988805012
 20
54.28656479504237
 30
0.0
 41
1.0
 10
-13.03581513168814
 20
54.22225857116182
 30
0.0
 41
0.9999994579688509
 10
-12.89112677971934
 20
54.15825350244691
 30
0.0
 41
1.0
 10
-12.73956484577298
 20
54.09120064515069
 30
0.0
 41
0.99999963712032
 10
-12.58788888518836
 20
54.02440612086998
 30
0.0
 41
1.0
 10
-12.42175803615701
 20
53.95124252143985
 30
0.0
 41
0.9999996505878544
 10
-12.25550509610922
 20
53.87835678067449
 30
0.0
 41
1.0
 10
-12.08792956232028
 20
53.80488558194988
 30
0.0
 41
0.9999996050303459
 10
-11.92022369310206
 20
53.73171237649559
 30
0.0
 41
1.0
 10
-11.75886143374891
 20
53.66129422246786
 30
0.0
 41
0.9999992997311371
 10
-11.59733295476317
 20
53.59125819147827
 30
0.0
 41
1.0
 10
-11.42056511276292
 20
53.51455399527418
 30
0.0
 41
0.9999962654156107
 10
-11.22381976659881
 20
53.43249990846399
 30
0.0
 41
1.0
  0
SPLINE
  5
42
330
1F
100
AcDbEntity
  8
Default
100
AcDbSpline
210
0.0
220
0.0
230
1.0
 70
     8
 71
     3
 72
    11
 73
     7
 74
     0
 42
0.0000000001
 43
0.0000000001
 40
-1.284838740011289
 40
-1.284838740011289
 40
-1.284838740011289
 40
-1.284838740011289
 40
-0.6484242235604618
 40
-0.3292902039485296
 40
-0.1665485794137476
 40
0.0
 40
0.0
 40
0.0
 40
0.0
 10
-11.22381976659881
 20
53.43249990846399
 30
0.0
 10
-11.01676533487342
 20
53.38622436114044
 30
0.0
 10
-10.69801656860313
 20
53.35274447779476
 30
0.0
 10
-10.32539886326425
 20
53.37532510608769
 30
0.0
 10
-10.11129192596568
 20
53.40541794274111
 30
0.0
 10
-10.00351122064128
 20
53.42640082864333
 30
0.0
 10
-9.949303571593516
 20
53.43837605503142
 30
0.0
  0
SPLINE
  5
43
330
1F
100
AcDbEntity
  8
Default
100
AcDbSpline
210
0.0
220
0.0
230
1.0
 70
    12
 71
     2
 72
     6
 73
     3
 74
     0
 42
0.0000000001
 43
0.0000000001
 40
0.0
 40
0.0
 40
0.0
 40
1.312000710858766
 40
1.312000710858766
 40
1.312000710858766
 10
-9.863650293225023
 20
48.87802752544316
 30
0.0
 41
1.0
 10
-9.371940435016162
 20
49.31226004596579
 30
0.0
 41
0.9999999996229239
 10
-8.880254427191085
 20
49.74651957234391
 30
0.0
 41
1.0
  0
SPLINE
  5
44
330
1F
100
AcDbEntity
  8
Default
100
AcDbSpline
210
0.0
220
0.0
230
1.0
 70
    12
 71
     2
 72
     6
 73
     3
 74
     0
 42
0.0000000001
 43
0.0000000001
 40
0.0
 40
0.0
 40
0.0
 40
0.2190425263140054
 40
0.2190425263140054
 40
0.2190425263140054
 10
-6.585887998493849
 20
64.28795170289729
 30
0.0
 41
1.0
 10
-6.687274703509965
 20
64.32939371945385
 30
0.0
 41
0.9998876182934109
 10
-6.787373402915239
 20
64.37385668232938
 30
0.0
 41
1.0
  0
SPLINE
  5
45
330
1F
100
AcDbEntity
  8
Default
100
AcDbSpline
210
0.0
220
0.0
230
1.0
 70
    12
 71
     2
 72
     6
 73
     3
 74
     0
 42
0.0000000001
 43
0.0000000001
 40
0.0
 40
0.0
 40
0.0
 40
0.2313813716592696
 40
0.2313813716592696
 40
0.2313813716592696
 10
-5.891500948624584
 20
64.81574811886289
 30
0.0
 41
1.0
 10
-5.784255536958963
 20
64.77235737716698
 30
0.0
 41
0.9999999999715007
 10
-5.677010780483552
 20
64.72896501612499
 30
0.0
 41
1.0
  0
SPLINE
  5
46
330
1F
100
AcDbEntity
  8
Default
100
AcDbSpline
210
0.0
220
0.0
230
1.0
 70
    24
 71
     2
 72
     6
 73
     3
 74
     0
 42
0.0000000001
 43
0.0000000001
 40
0.0
 40
0.0
 40
0.0
 40
0.0253549805303407
 40
0.0253549805303407
 40
0.0253549805303407
 10
-9.386899777397145
 20
48.29846686766762
 30
0.0
 10
-9.396404750098199
 20
48.29007793130026
 30
0.0
 10
-9.405909722799251
 20
48.28168899493289
 30
0.0
  0
SPLINE
  5
47
330
1F
100
AcDbEntity
  8
Default
100
AcDbSpline
210
0.0
220
0.0
230
1.0
 70
    12
 71
     2
 72
     8
 73
     5
 74
     0
 42
0.0000000001
 43
0.0000000001
 40
0.0
 40
0.0
 40
0.0
 40
0.3169980401802696
 40
0.3169980401802696
 40
0.9045777852978957
 40
0.9045777852978957
 40
0.9045777852978957
 10
-9.863650266562614
 20
48.87802752394287
 30
0.0
 41
1.0
 10
-9.990249351703062
 20
48.7659688365198
 30
0.0
 41
0.9088033449061143
 10
-9.987792832134717
 20
48.59691723700951
 30
0.0
 41
1.0
 10
-9.982463647841067
 20
48.22529507561001
 30
0.0
 41
0.7134156156498478
 10
-9.610805665997187
 20
48.22396256662522
 30
0.0
 41
1.0
  0
SPLINE
  5
48
330
1F
100
AcDbEntity
  8
Default
100
AcDbSpline
210
0.0
220
0.0
230
1.0
 70
    24
 71
     2
 72
     6
 73
     3
 74
     0
 42
0.0000000001
 43
0.0000000001
 40
0.0
 40
0.0
 40
0.0
 40
0.1442971035428102
 40
0.1442971035428102
 40
0.1442971035428102
 10
-9.439931508267756
 20
58.01632409268767
 30
0.0
 10
-9.367783928453976
 20
58.01594959338817
 30
0.0
 10
-9.295636348640196
 20
58.01557509408867
 30
0.0
  0
SPLINE
  5
49
330
1F
100
AcDbEntity
  8
Default
100
AcDbSpline
210
0.0
220
0.0
230
1.0
 70
    12
 71
     2
 72
     6
 73
     3
 74
     0
 42
0.0000000001
 43
0.0000000001
 40
0.0
 40
0.0
 40
0.0
 40
0.3170060776677096
 40
0.3170060776677096
 40
0.3170060776677096
 10
-9.902199736528239
 20
48.84400227262867
 30
0.0
 41
1.0
 10
-10.02880157564963
 20
48.73194064062496
 30
0.0
 41
0.9088054909560228
 10
-10.02634635736053
 20
48.56288500794919
 30
0.0
 41
1.0
  0
SPLINE
  5
4A
330
1F
100
AcDbEntity
  8
Default
100
AcDbSpline
210
0.0
220
0.0
230
1.0
 70
    12
 71
     2
 72
     6
 73
     3
 74
     0
 42
0.0000000001
 43
0.0000000001
 40
0.0
 40
0.0
 40
0.0
 40
1.214948875897803
 40
1.214948875897803
 40
1.214948875897803
 10
-8.456618386319919
 20
49.12004499763511
 30
0.0
 41
1.0
 10
-8.911942343101806
 20
48.71791903833397
 30
0.0
 41
0.9999999999966886
 10
-9.36726836955303
 20
48.31579542252148
 30
0.0
 41
1.0
  0
SPLINE
  5
4B
330
1F
100
AcDbEntity
  8
Default
100
AcDbSpline
210
0.0
220
0.0
230
1.0
 70
    24
 71
     2
 72
     6
 73
     3
 74
     0
 42
0.0000000001
 43
0.0000000001
 40
0.0
 40
0.0
 40
0.0
 40
0.0452071963732132
 40
0.0452071963732132
 40
0.0452071963732132
 10
-9.902199362183532
 20
48.84400260302011
 30
0.0
 10
-9.885252270983667
 20
48.85895983374124
 30
0.0
 10
-9.8683051797838
 20
48.87391706446236
 30
0.0
  0
SPLINE
  5
4C
330
1F
100
AcDbEntity
  8
Default
100
AcDbSpline
210
0.0
220
0.0
230
1.0
 70
    12
 71
     2
 72
     6
 73
     3
 74
     0
 42
0.0000000001
 43
0.0000000001
 40
0.0
 40
0.0
 40
0.0
 40
0.0076569847848393
 40
0.0076569847848393
 40
0.0076569847848393
 10
-13.18036988805012
 20
54.28656479504237
 30
0.0
 41
1.0
 10
-13.18419193433533
 20
54.28705893562509
 30
0.0
 41
0.990156804630709
 10
-13.18772727587989
 20
54.2885930715008
 30
0.0
 41
1.0
  0
SPLINE
  5
4D
330
1F
100
AcDbEntity
  8
Default
100
AcDbSpline
210
0.0
220
0.0
230
1.0
 70
    12
 71
     2
 72
     6
 73
     3
 74
     0
 42
0.0000000001
 43
0.0000000001
 40
0.0
 40
0.0
 40
0.0
 40
0.2659215729448455
 40
0.2659215729448455
 40
0.2659215729448455
 10
-9.610802492077179
 20
48.22396256623203
 30
0.0
 41
1.0
 10
-9.471720315862978
 20
48.22377479555931
 30
0.0
 41
0.9352684707807751
 10
-9.36736027656332
 20
48.31571428215607
 30
0.0
 41
1.0
  0
SPLINE
  5
4E
330
1F
100
AcDbEntity
  8
Default
100
AcDbSpline
210
0.0
220
0.0
230
1.0
 70
    24
 71
     2
 72
     6
 73
     3
 74
     0
 42
0.0000000001
 43
0.0000000001
 40
0.0
 40
0.0
 40
0.0
 40
0.2382843168164637
 40
0.2382843168164637
 40
0.2382843168164637
 10
-9.691050958401073
 20
55.0104760576383
 30
0.0
 10
-9.571908800018875
 20
55.01047356699068
 30
0.0
 10
-9.452766641636675
 20
55.01047107634307
 30
0.0
  0
SPLINE
  5
4F
330
1F
100
AcDbEntity
  8
Default
100
AcDbSpline
210
0.0
220
0.0
230
1.0
 70
    24
 71
     2
 72
     6
 73
     3
 74
     0
 42
0.0000000001
 43
0.0000000001
 40
0.0
 40
0.0
 40
0.0
 40
0.032908989532488
 40
0.032908989532488
 40
0.032908989532488
 10
-9.472840497793054
 20
58.01632478064479
 30
0.0
 10
-9.456386003030406
 20
58.01632443666623
 30
0.0
 10
-9.439931508267756
 20
58.01632409268767
 30
0.0
  0
SPLINE
  5
50
330
1F
100
AcDbEntity
  8
Default
100
AcDbSpline
210
0.0
220
0.0
230
1.0
 70
    12
 71
     2
 72
     8
 73
     5
 74
     0
 42
0.0000000001
 43
0.0000000001
 40
0.0
 40
0.0
 40
0.0
 40
0.5875848008111578
 40
0.5875848008111578
 40
0.8535129116332818
 40
0.8535129116332818
 40
0.8535129116332818
 10
-10.02634635736053
 20
48.56288500794919
 30
0.0
 41
1.0
 10
-10.02102220561187
 20
48.19125476608288
 30
0.0
 41
0.7134028865294767
 10
-9.649356186447966
 20
48.18993058319751
 30
0.0
 41
1.0
 10
-9.51027051889835
 20
48.18974508808779
 30
0.0
 41
0.9352677885701601
 10
-9.405909723991567
 20
48.28168899388139
 30
0.0
 41
1.0
  0
SPLINE
  5
51
330
1F
100
AcDbEntity
  8
Default
100
AcDbSpline
210
0.0
220
0.0
230
1.0
 70
     8
 71
     3
 72
    42
 73
    38
 74
     0
 42
0.0000000001
 43
0.0000000001
 40
0.0
 40
0.0
 40
0.0
 40
0.0
 40
1.551044901172683
 40
2.845976603285115
 40
4.947894384540212
 40
5.871246665451459
 40
6.670663375664843
 40
7.390036908269015
 40
8.029298667724618
 40
8.60307344965164
 40
9.140565144241553
 40
10.27989825093648
 40
10.56539236605576
 40
10.90767799868423
 40
11.39526821165454
 40
11.87552554897656
 40
12.77788675202223
 40
13.85498602750511
 40
15.60057772989487
 40
17.37466915772369
 40
19.03197680574596
 40
19.78743869979978
 40
20.33973123460568
 40
21.21227764197289
 40
22.02683259032425
 40
22.79776348018979
 40
23.5394437088855
 40
24.30997401435976
 40
25.080383065824
 40
25.87269190687205
 40
26.69416996383476
 40
27.13079865004902
 40
27.63985614134617
 40
28.81858457373552
 40
30.33225668373564
 40
31.14716603187198
 40
31.87442299537353
 40
31.87442299537353
 40
31.87442299537353
 40
31.87442299537353
 10
0.0
 20
47.25571474676078
 30
0.0
 10
0.5170524391837201
 20
47.25546842538916
 30
0.0
 10
1.465749765924636
 20
47.26479793970793
 30
0.0
 10
3.114085673558799
 20
47.32394035411162
 30
0.0
 10
4.549170381066457
 20
47.46334474898273
 30
0.0
 10
5.801663913873453
 20
47.70753080181746
 30
0.0
 10
6.58626905118146
 20
47.92693280529131
 30
0.0
 10
7.253829072539124
 20
48.19956307862483
 30
0.0
 10
7.812540519673767
 20
48.52318180784056
 30
0.0
 10
8.265316400813962
 20
48.89493489789648
 30
0.0
 10
8.759674742116534
 20
49.46247780165177
 30
0.0
 10
9.052028378973034
 20
50.05867719071978
 30
0.0
 10
9.202445727897281
 20
50.62803882302516
 30
0.0
 10
9.268747456621938
 20
50.99427931688631
 30
0.0
 10
9.335592522873998
 20
51.42565844599444
 30
0.0
 10
9.406807060964214
 20
52.04525192695478
 30
0.0
 10
9.4596406920447
 20
52.86371552562675
 30
0.0
 10
9.474372182067032
 20
54.10563635692273
 30
0.0
 10
9.442864999724893
 20
55.63767159304213
 30
0.0
 10
9.353953482897253
 20
57.36131574921396
 30
0.0
 10
9.235923149253853
 20
58.75212975086346
 30
0.0
 10
9.121094790117727
 20
59.73390240434468
 30
0.0
 10
9.015080157802851
 20
60.45300716218118
 30
0.0
 10
8.847313024314008
 20
61.18158773486456
 30
0.0
 10
8.575631592206523
 20
61.95596891039174
 30
0.0
 10
8.224143071467884
 20
62.64974744881395
 30
0.0
 10
7.785871101052861
 20
63.2743431907504
 30
0.0
 10
7.254896728958198
 20
63.82303463736391
 30
0.0
 10
6.627342366522754
 20
64.28677768086526
 30
0.0
 10
5.919341283651206
 20
64.65290505255275
 30
0.0
 10
5.271667011008036
 20
64.87633489929893
 30
0.0
 10
4.698441555337736
 20
65.01273457860688
 30
0.0
 10
4.001573743023993
 20
65.14038431911307
 30
0.0
 10
2.941120627796595
 20
65.2643218137419
 30
0.0
 10
1.774367833761005
 20
65.34200713156687
 30
0.0
 10
0.7564802776798825
 20
65.38133033388944
 30
0.0
 10
0.2424666359045684
 20
65.39074258963812
 30
0.0
 10
0.0
 20
65.39095895595496
 30
0.0
  0
SPLINE
  5
52
330
1F
100
AcDbEntity
  8
Default
100
AcDbSpline
210
0.0
220
0.0
230
1.0
 70
     8
 71
     3
 72
    42
 73
    38
 74
     0
 42
0.0000000001
 43
0.0000000001
 40
-31.87442299537353
 40
-31.87442299537353
 40
-31.87442299537353
 40
-31.87442299537353
 40
-31.14716603187198
 40
-30.33225668373564
 40
-28.81858457373552
 40
-27.63985614134617
 40
-27.13079865004902
 40
-26.69416996383476
 40
-25.87269190687205
 40
-25.080383065824
 40
-24.30997401435976
 40
-23.5394437088855
 40
-22.79776348018979
 40
-22.02683259032425
 40
-21.21227764197289
 40
-20.33973123460568
 40
-19.78743869979978
 40
-19.03197680574596
 40
-17.37466915772369
 40
-15.60057772989487
 40
-13.85498602750511
 40
-12.77788675202223
 40
-11.87552554897656
 40
-11.39526821165454
 40
-10.90767799868423
 40
-10.56539236605576
 40
-10.27989825093648
 40
-9.140565144241553
 40
-8.60307344965164
 40
-8.029298667724618
 40
-7.390036908269015
 40
-6.670663375664843
 40
-5.871246665451459
 40
-4.947894384540212
 40
-2.845976603285115
 40
-1.551044901172683
 40
0.0
 40
0.0
 40
0.0
 40
0.0
 10
0.0
 20
65.39095895595496
 30
0.0
 10
-0.2424666359045684
 20
65.39074258963812
 30
0.0
 10
-0.7564802776798825
 20
65.38133033388944
 30
0.0
 10
-1.774367833761005
 20
65.34200713156687
 30
0.0
 10
-2.941120627796595
 20
65.2643218137419
 30
0.0
 10
-4.001573743023993
 20
65.14038431911307
 30
0.0
 10
-4.698441555337736
 20
65.01273457860688
 30
0.0
 10
-5.271667011008036
 20
64.87633489929893
 30
0.0
 10
-5.919341283651206
 20
64.65290505255275
 30
0.0
 10
-6.627342366522754
 20
64.28677768086526
 30
0.0
 10
-7.254896728958198
 20
63.82303463736391
 30
0.0
 10
-7.785871101052861
 20
63.2743431907504
 30
0.0
 10
-8.224143071467884
 20
62.64974744881395
 30
0.0
 10
-8.575631592206523
 20
61.95596891039174
 30
0.0
 10
-8.847313024314008
 20
61.18158773486456
 30
0.0
 10
-9.015080157802851
 20
60.45300716218118
 30
0.0
 10
-9.121094790117727
 20
59.73390240434468
 30
0.0
 10
-9.235923149253853
 20
58.75212975086346
 30
0.0
 10
-9.353953482897253
 20
57.36131574921396
 30
0.0
 10
-9.442864999724893
 20
55.63767159304213
 30
0.0
 10
-9.474372182067032
 20
54.10563635692273
 30
0.0
 10
-9.4596406920447
 20
52.86371552562675
 30
0.0
 10
-9.406807060964214
 20
52.04525192695478
 30
0.0
 10
-9.335592522873998
 20
51.42565844599444
 30
0.0
 10
-9.268747456621938
 20
50.99427931688631
 30
0.0
 10
-9.202445727897281
 20
50.62803882302516
 30
0.0
 10
-9.052028378973034
 20
50.05867719071978
 30
0.0
 10
-8.759674742116534
 20
49.46247780165177
 30
0.0
 10
-8.265316400813962
 20
48.89493489789648
 30
0.0
 10
-7.812540519673767
 20
48.52318180784056
 30
0.0
 10
-7.253829072539124
 20
48.19956307862483
 30
0.0
 10
-6.58626905118146
 20
47.92693280529131
 30
0.0
 10
-5.801663913873453
 20
47.70753080181746
 30
0.0
 10
-4.549170381066457
 20
47.46334474898273
 30
0.0
 10
-3.114085673558799
 20
47.32394035411162
 30
0.0
 10
-1.465749765924636
 20
47.26479793970793
 30
0.0
 10
-0.5170524391837201
 20
47.25546842538916
 30
0.0
 10
0.0
 20
47.25571474676078
 30
0.0
  0
LINE
  5
53
330
1F
100
AcDbEntity
  8
Default
100
AcDbLine
 10
0.0
 20
47.54847943367187
 30
0.0
 11
0.1734536499911652
 21
47.54864600210613
 31
0.0
  0
SPLINE
  5
54
330
1F
100
AcDbEntity
  8
Default
100
AcDbSpline
210
0.0
220
0.0
230
1.0
 70
     8
 71
     3
 72
     8
 73
     4
 74
     0
 42
0.0000000001
 43
0.0000000001
 40
-30.94152545300249
 40
-30.94152545300249
 40
-30.94152545300249
 40
-30.94152545300249
 40
-27.44699143619457
 40
-27.44699143619457
 40
-27.44699143619457
 40
-27.44699143619457
 10
0.1734536499911652
 20
47.54864600210613
 30
0.0
 10
1.159784510219096
 20
47.54959837234498
 30
0.0
 10
2.139952501596978
 20
47.56561466261863
 30
0.0
 10
3.120855401510063
 20
47.63530776740519
 30
0.0
  0
SPLINE
  5
55
330
1F
100
AcDbEntity
  8
Default
100
AcDbSpline
210
0.0
220
0.0
230
1.0
 70
     8
 71
     3
 72
    33
 73
    29
 74
     0
 42
0.0000000001
 43
0.0000000001
 40
-23.79316047399234
 40
-23.79316047399234
 40
-23.79316047399234
 40
-23.79316047399234
 40
-22.17809831883176
 40
-21.43462546184875
 40
-20.79209098821464
 40
-19.72956810714561
 40
-18.81716287961864
 40
-18.00557218634027
 40
-17.56408408845048
 40
-17.15341465035159
 40
-16.75814035614529
 40
-16.24449162982487
 40
-14.86976243001638
 40
-13.7004405236998
 40
-12.17732562544265
 40
-9.068165616059927
 40
-8.416762400559376
 40
-7.832519451746786
 40
-6.941570257456276
 40
-5.498555021007837
 40
-4.781906561475579
 40
-4.115636469227338
 40
-3.479010108607516
 40
-2.842133754864976
 40
-2.171176333224042
 40
-1.507777537810121
 40
-0.8062708804340141
 40
0.0
 40
0.0
 40
0.0
 40
0.0
 10
3.120855401510063
 20
47.63530776740519
 30
0.0
 10
3.657801251608324
 20
47.6733487875886
 30
0.0
 10
4.440545463172914
 20
47.75434381010665
 30
0.0
 10
5.426064151486417
 20
47.92828921788896
 30
0.0
 10
6.220696802495008
 20
48.11584660834853
 30
0.0
 10
7.047900865178865
 20
48.40129098080374
 30
0.0
 10
7.852500194015128
 20
48.87974261812145
 30
0.0
 10
8.358595884712283
 20
49.4032104000969
 30
0.0
 10
8.653359056711606
 20
49.87498250199113
 30
0.0
 10
8.824269460981059
 20
50.25494557552429
 30
0.0
 10
8.95096015211108
 20
50.67717544244939
 30
0.0
 10
9.088204244838888
 20
51.42625938908085
 30
0.0
 10
9.19555832637967
 20
52.44115181704987
 30
0.0
 10
9.227659394155289
 20
53.79699483893483
 30
0.0
 10
9.19959383799817
 20
55.73072627461966
 30
0.0
 10
9.104247248392435
 20
57.4902210893658
 30
0.0
 10
8.967540826840734
 20
58.93199850718772
 30
0.0
 10
8.889856301121121
 20
59.63681560230383
 30
0.0
 10
8.757638500602102
 20
60.60036592142959
 30
0.0
 10
8.490570220495247
 20
61.58727338323492
 30
0.0
 10
8.083728774960832
 20
62.43937617132566
 30
0.0
 10
7.715335941367687
 20
63.00468244475753
 30
0.0
 10
7.289318311246432
 20
63.49313442687408
 30
0.0
 10
6.797345930972396
 20
63.91777347361464
 30
0.0
 10
6.240936289038903
 20
64.27048937612872
 30
0.0
 10
5.622291171915569
 20
64.55295363517999
 30
0.0
 10
4.930033166197811
 20
64.76833848188966
 30
0.0
 10
4.436004475511028
 20
64.86409953171912
 30
0.0
 10
4.170762148002682
 20
64.90706603208524
 30
0.0
  0
SPLINE
  5
56
330
1F
100
AcDbEntity
  8
Default
100
AcDbSpline
210
0.0
220
0.0
230
1.0
 70
    12
 71
     3
 72
    10
 73
     6
 74
     0
 42
0.0000000001
 43
0.0000000001
 40
-7.761989334011592
 40
-7.761989334011592
 40
-7.761989334011592
 40
-7.761989334011592
 40
-6.810545537714702
 40
-6.810545537714702
 40
-5.859101736172661
 40
-5.859101736172661
 40
-5.859101736172661
 40
-5.859101736172661
 10
4.170762148002682
 20
64.90706603208524
 30
0.0
 41
1.0
 10
3.851188431649808
 20
64.95871455247334
 30
0.0
 41
1.0
 10
3.577627454757907
 20
64.99338009403246
 30
0.0
 41
1.0
 10
3.085250757469952
 20
65.04659326398847
 30
0.0
 41
1.0
 10
2.865883254344025
 20
65.06491935678699
 30
0.0
 41
1.0
 10
2.659784426540394
 20
65.08114414629382
 30
0.0
 41
1.0
  0
ARC
  5
57
330
1F
100
AcDbEntity
  8
Default
100
AcDbCircle
 10
-0.2595674681889618
 20
28.41777485720952
 30
0.0
 40
36.779413577612
100
AcDbArc
 50
85.44738033861522
 51
88.98552396457096
  0
LINE
  5
58
330
1F
100
AcDbEntity
  8
Default
100
AcDbLine
 10
0.3916128538603143
 20
65.1914234020739
 30
0.0
 11
0.0
 21
65.19834125970748
 31
0.0
  0
LINE
  5
59
330
1F
100
AcDbEntity
  8
Default
100
AcDbLine
 10
0.0
 20
65.19834125970748
 30
0.0
 11
-0.3916128538603143
 21
65.1914234020739
 31
0.0
  0
ARC
  5
5A
330
1F
100
AcDbEntity
  8
Default
100
AcDbCircle
 10
0.2595674681889618
 20
28.41777485720952
 30
0.0
 40
36.779413577612
100
AcDbArc
 50
91.01447603542906
 51
94.55261966138478
  0
SPLINE
  5
5B
330
1F
100
AcDbEntity
  8
Default
100
AcDbSpline
210
0.0
220
0.0
230
1.0
 70
    12
 71
     3
 72
    10
 73
     6
 74
     0
 42
0.0000000001
 43
0.0000000001
 40
5.859101736172661
 40
5.859101736172661
 40
5.859101736172661
 40
5.859101736172661
 40
6.810545537714702
 40
6.810545537714702
 40
7.761989334011592
 40
7.761989334011592
 40
7.761989334011592
 40
7.761989334011592
 10
-2.659784426540393
 20
65.08114414629382
 30
0.0
 41
1.0
 10
-2.865883254344025
 20
65.06491935678699
 30
0.0
 41
1.0
 10
-3.085250757469952
 20
65.04659326398847
 30
0.0
 41
1.0
 10
-3.577627454757907
 20
64.99338009403246
 30
0.0
 41
1.0
 10
-3.851188431649808
 20
64.95871455247334
 30
0.0
 41
1.0
 10
-4.170762148002682
 20
64.90706603208524
 30
0.0
 41
1.0
  0
SPLINE
  5
5C
330
1F
100
AcDbEntity
  8
Default
100
AcDbSpline
210
0.0
220
0.0
230
1.0
 70
     8
 71
     3
 72
    33
 73
    29
 74
     0
 42
0.0000000001
 43
0.0000000001
 40
0.0
 40
0.0
 40
0.0
 40
0.0
 40
0.8062708804340141
 40
1.507777537810121
 40
2.171176333224042
 40
2.842133754864976
 40
3.479010108607516
 40
4.115636469227338
 40
4.781906561475579
 40
5.498555021007837
 40
6.941570257456276
 40
7.832519451746786
 40
8.416762400559376
 40
9.068165616059927
 40
12.17732562544265
 40
13.7004405236998
 40
14.86976243001638
 40
16.24449162982487
 40
16.75814035614529
 40
17.15341465035159
 40
17.56408408845048
 40
18.00557218634027
 40
18.81716287961864
 40
19.72956810714561
 40
20.79209098821464
 40
21.43462546184875
 40
22.17809831883176
 40
23.79316047399234
 40
23.79316047399234
 40
23.79316047399234
 40
23.79316047399234
 10
-4.170762148002682
 20
64.90706603208524
 30
0.0
 10
-4.436004475511028
 20
64.86409953171912
 30
0.0
 10
-4.930033166197811
 20
64.76833848188966
 30
0.0
 10
-5.622291171915569
 20
64.55295363517999
 30
0.0
 10
-6.240936289038903
 20
64.27048937612872
 30
0.0
 10
-6.797345930972396
 20
63.91777347361464
 30
0.0
 10
-7.289318311246432
 20
63.49313442687408
 30
0.0
 10
-7.715335941367687
 20
63.00468244475753
 30
0.0
 10
-8.083728774960832
 20
62.43937617132566
 30
0.0
 10
-8.490570220495247
 20
61.58727338323492
 30
0.0
 10
-8.757638500602102
 20
60.60036592142959
 30
0.0
 10
-8.889856301121121
 20
59.63681560230383
 30
0.0
 10
-8.967540826840734
 20
58.93199850718772
 30
0.0
 10
-9.104247248392435
 20
57.4902210893658
 30
0.0
 10
-9.19959383799817
 20
55.73072627461966
 30
0.0
 10
-9.227659394155289
 20
53.79699483893483
 30
0.0
 10
-9.19555832637967
 20
52.44115181704987
 30
0.0
 10
-9.088204244838888
 20
51.42625938908085
 30
0.0
 10
-8.95096015211108
 20
50.67717544244939
 30
0.0
 10
-8.824269460981059
 20
50.25494557552429
 30
0.0
 10
-8.653359056711606
 20
49.87498250199113
 30
0.0
 10
-8.358595884712283
 20
49.4032104000969
 30
0.0
 10
-7.852500194015128
 20
48.87974261812145
 30
0.0
 10
-7.047900865178865
 20
48.40129098080374
 30
0.0
 10
-6.220696802495008
 20
48.11584660834853
 30
0.0
 10
-5.426064151486417
 20
47.92828921788896
 30
0.0
 10
-4.440545463172914
 20
47.75434381010665
 30
0.0
 10
-3.657801251608324
 20
47.6733487875886
 30
0.0
 10
-3.120855401510063
 20
47.63530776740519
 30
0.0
  0
SPLINE
  5
5D
330
1F
100
AcDbEntity
  8
Default
100
AcDbSpline
210
0.0
220
0.0
230
1.0
 70
     8
 71
     3
 72
     8
 73
     4
 74
     0
 42
0.0000000001
 43
0.0000000001
 40
27.44699143619457
 40
27.44699143619457
 40
27.44699143619457
 40
27.44699143619457
 40
30.94152545300249
 40
30.94152545300249
 40
30.94152545300249
 40
30.94152545300249
 10
-3.120855401510063
 20
47.63530776740519
 30
0.0
 10
-2.139952501596978
 20
47.56561466261863
 30
0.0
 10
-1.159784510219096
 20
47.54959837234498
 30
0.0
 10
-0.1734536499911652
 20
47.54864600210613
 30
0.0
  0
LINE
  5
5E
330
1F
100
AcDbEntity
  8
Default
100
AcDbLine
 10
-0.1734536499911652
 20
47.54864600210613
 30
0.0
 11
0.0
 21
47.54847943367187
 31
0.0
  0
SPLINE
  5
5F
330
1F
100
AcDbEntity
  8
Default
100
AcDbSpline
210
0.0
220
0.0
230
1.0
 70
    12
 71
     3
 72
    11
 73
     7
 74
     0
 42
0.0000000001
 43
0.0000000001
 40
-0.7046421827495527
 40
-0.7046421827495527
 40
-0.7046421827495527
 40
-0.7046421827495527
 40
-0.6887005968858
 40
-0.6727590025993
 40
-0.6568174083128
 40
-0.640875809691118
 40
-0.640875809691118
 40
-0.640875809691118
 40
-0.640875809691118
 10
9.991579083712514
 20
53.44594433950744
 30
0.0
 41
1.0
 10
9.956328687741971
 20
53.42489413322654
 30
0.0
 41
1.0
 10
9.870709136785043
 20
53.45918211598
 30
0.0
 41
1.0
 10
9.762350309829676
 20
53.74222615276585
 30
0.0
 41
1.0
 10
9.695867164855121
 20
54.20544506403675
 30
0.0
 41
1.0
 10
9.681198979256935
 20
54.57510913153029
 30
0.0
 41
1.0
 10
9.675194342381657
 20
54.75764248446313
 30
0.0
 41
1.0
  0
SPLINE
  5
60
330
1F
100
AcDbEntity
  8
Default
100
AcDbSpline
210
0.0
220
0.0
230
1.0
 70
     8
 71
     5
 72
    12
 73
     6
 74
     0
 42
0.0000000001
 43
0.0000000001
 40
-1.0
 40
-1.0
 40
-1.0
 40
-1.0
 40
-1.0
 40
-1.0
 40
0.0
 40
0.0
 40
0.0
 40
0.0
 40
0.0
 40
0.0
 10
9.675194342381657
 20
54.75764248446313
 30
0.0
 10
9.673779756527939
 20
54.80064410208862
 30
0.0
 10
9.672423096967533
 20
54.8436476252637
 30
0.0
 10
9.697127735181477
 20
54.88608599242879
 30
0.0
 10
9.695043293032274
 20
54.92906035284582
 30
0.0
 10
9.69293936064795
 20
54.97203375904161
 30
0.0
  0
SPLINE
  5
61
330
1F
100
AcDbEntity
  8
Default
100
AcDbSpline
210
0.0
220
0.0
230
1.0
 70
    12
 71
     3
 72
    10
 73
     6
 74
     0
 42
0.0000000001
 43
0.0000000001
 40
-1.0
 40
-1.0
 40
-1.0
 40
-1.0
 40
-0.4999237927867715
 40
-0.4999237927867715
 40
-0.231666401217781
 40
-0.231666401217781
 40
-0.231666401217781
 40
-0.231666401217781
 10
9.69293936064795
 20
54.97203375904161
 30
0.0
 41
1.0
 10
9.666756140001835
 20
55.50683334895363
 30
0.0
 41
1.0
 10
9.636951078812926
 20
56.04144681100716
 30
0.0
 41
1.0
 10
9.580292910292174
 20
56.84704811721365
 30
0.0
 41
1.0
 10
9.558589035194872
 20
57.12521436122442
 30
0.0
 41
1.0
 10
9.534839017554027
 20
57.39894476354347
 30
0.0
 41
1.0
  0
SPLINE
  5
62
330
1F
100
AcDbEntity
  8
Default
100
AcDbSpline
210
0.0
220
0.0
230
1.0
 70
     8
 71
     3
 72
    13
 73
     9
 74
     0
 42
0.0000000001
 43
0.0000000001
 40
-4.928031510686044
 40
-4.928031510686044
 40
-4.928031510686044
 40
-4.928031510686044
 40
-4.184335838333751
 40
-3.372998874765943
 40
-1.93028926730925
 40
-0.8540393346647905
 40
-0.4050555606325036
 40
0.0
 40
0.0
 40
0.0
 40
0.0
 10
9.534839017554027
 20
57.39894476354347
 30
0.0
 10
9.513031968431513
 20
57.64587605779756
 30
0.0
 10
9.459409775664266
 20
58.16151350054744
 30
0.0
 10
9.333448774876217
 20
59.15277194563029
 30
0.0
 10
9.16434117673783
 20
60.25027590357853
 30
0.0
 10
8.949497050694232
 20
61.21677335799993
 30
0.0
 10
8.760182283182992
 20
61.83219850803682
 30
0.0
 10
8.65865067216578
 20
62.09824374147051
 30
0.0
 10
8.60531189672392
 20
62.22232790728634
 30
0.0
  0
SPLINE
  5
63
330
1F
100
AcDbEntity
  8
Default
100
AcDbSpline
210
0.0
220
0.0
230
1.0
 70
     8
 71
     3
 72
    12
 73
     8
 74
     0
 42
0.0000000001
 43
0.0000000001
 40
0.0
 40
0.0
 40
0.0
 40
0.0
 40
0.5196578597132497
 40
1.025819755318302
 40
2.082980974268395
 40
3.07474015106851
 40
4.126227411192869
 40
4.126227411192869
 40
4.126227411192869
 40
4.126227411192869
 10
8.60531189672392
 20
62.22232790728634
 30
0.0
 10
8.536820117575049
 20
62.38127961474498
 30
0.0
 10
8.387397319094326
 20
62.68977212697204
 30
0.0
 10
8.01553708700169
 20
63.27672977005809
 30
0.0
 10
7.450117192184057
 20
63.92126359972288
 30
0.0
 10
6.60403223025731
 20
64.52587818588687
 30
0.0
 10
5.973915162355018
 20
64.79402518318659
 30
0.0
 10
5.641652576825587
 20
64.90488978609844
 30
0.0
  0
SPLINE
  5
64
330
1F
100
AcDbEntity
  8
Default
100
AcDbSpline
210
0.0
220
0.0
230
1.0
 70
     8
 71
     3
 72
    12
 73
     8
 74
     0
 42
0.0000000001
 43
0.0000000001
 40
-5.689789529157578
 40
-5.689789529157578
 40
-5.689789529157578
 40
-5.689789529157578
 40
-4.676502378090539
 40
-3.416981998059886
 40
-1.854294743171002
 40
-0.9769966782440209
 40
0.0
 40
0.0
 40
0.0
 40
0.0
 10
5.641652576825587
 20
64.90488978609844
 30
0.0
 10
5.321260648790622
 20
65.01228432650466
 30
0.0
 10
4.58335168707581
 20
65.19054671319601
 30
0.0
 10
3.314205503840716
 20
65.35388014053612
 30
0.0
 10
2.083363902158146
 20
65.43456223235351
 30
0.0
 10
0.9446869071897499
 20
65.4666652684384
 30
0.0
 10
0.3266295297872812
 20
65.47153952760789
 30
0.0
 10
0.0
 20
65.47159494508314
 30
0.0
  0
SPLINE
  5
65
330
1F
100
AcDbEntity
  8
Default
100
AcDbSpline
210
0.0
220
0.0
230
1.0
 70
     8
 71
     3
 72
    12
 73
     8
 74
     0
 42
0.0000000001
 43
0.0000000001
 40
0.0
 40
0.0
 40
0.0
 40
0.0
 40
0.9769966782440209
 40
1.854294743171002
 40
3.416981998059886
 40
4.676502378090539
 40
5.689789529157578
 40
5.689789529157578
 40
5.689789529157578
 40
5.689789529157578
 10
0.0
 20
65.47159494508314
 30
0.0
 10
-0.3266295297872812
 20
65.47153952760789
 30
0.0
 10
-0.9446869071897499
 20
65.4666652684384
 30
0.0
 10
-2.083363902158146
 20
65.43456223235351
 30
0.0
 10
-3.314205503840716
 20
65.35388014053612
 30
0.0
 10
-4.58335168707581
 20
65.19054671319601
 30
0.0
 10
-5.321260648790622
 20
65.01228432650466
 30
0.0
 10
-5.641652576825587
 20
64.90488978609844
 30
0.0
  0
SPLINE
  5
66
330
1F
100
AcDbEntity
  8
Default
100
AcDbSpline
210
0.0
220
0.0
230
1.0
 70
     8
 71
     3
 72
    12
 73
     8
 74
     0
 42
0.0000000001
 43
0.0000000001
 40
-4.126227411192869
 40
-4.126227411192869
 40
-4.126227411192869
 40
-4.126227411192869
 40
-3.07474015106851
 40
-2.082980974268395
 40
-1.025819755318302
 40
-0.5196578597132497
 40
0.0
 40
0.0
 40
0.0
 40
0.0
 10
-5.641652576825587
 20
64.90488978609844
 30
0.0
 10
-5.973915162355018
 20
64.79402518318659
 30
0.0
 10
-6.60403223025731
 20
64.52587818588687
 30
0.0
 10
-7.450117192184057
 20
63.92126359972288
 30
0.0
 10
-8.01553708700169
 20
63.27672977005809
 30
0.0
 10
-8.387397319094326
 20
62.68977212697204
 30
0.0
 10
-8.536820117575049
 20
62.38127961474498
 30
0.0
 10
-8.60531189672392
 20
62.22232790728634
 30
0.0
  0
SPLINE
  5
67
330
1F
100
AcDbEntity
  8
Default
100
AcDbSpline
210
0.0
220
0.0
230
1.0
 70
     8
 71
     3
 72
    13
 73
     9
 74
     0
 42
0.0000000001
 43
0.0000000001
 40
0.0
 40
0.0
 40
0.0
 40
0.0
 40
0.4050555606325036
 40
0.8540393346647905
 40
1.93028926730925
 40
3.372998874765943
 40
4.184335838333751
 40
4.928031510686044
 40
4.928031510686044
 40
4.928031510686044
 40
4.928031510686044
 10
-8.60531189672392
 20
62.22232790728634
 30
0.0
 10
-8.65865067216578
 20
62.09824374147051
 30
0.0
 10
-8.760182283182992
 20
61.83219850803682
 30
0.0
 10
-8.949497050694232
 20
61.21677335799993
 30
0.0
 10
-9.16434117673783
 20
60.25027590357853
 30
0.0
 10
-9.333448774876217
 20
59.15277194563029
 30
0.0
 10
-9.459409775664266
 20
58.16151350054744
 30
0.0
 10
-9.513031968431513
 20
57.64587605779756
 30
0.0
 10
-9.534839017554027
 20
57.39894476354347
 30
0.0
  0
SPLINE
  5
68
330
1F
100
AcDbEntity
  8
Default
100
AcDbSpline
210
0.0
220
0.0
230
1.0
 70
    12
 71
     3
 72
    10
 73
     6
 74
     0
 42
0.0000000001
 43
0.0000000001
 40
0.231666401217781
 40
0.231666401217781
 40
0.231666401217781
 40
0.231666401217781
 40
0.4999237927867715
 40
0.4999237927867715
 40
1.0
 40
1.0
 40
1.0
 40
1.0
 10
-9.534839017554027
 20
57.39894476354347
 30
0.0
 41
1.0
 10
-9.558589035194872
 20
57.12521436122442
 30
0.0
 41
1.0
 10
-9.580292910292174
 20
56.84704811721365
 30
0.0
 41
1.0
 10
-9.636951078812926
 20
56.04144681100716
 30
0.0
 41
1.0
 10
-9.666756140001835
 20
55.50683334895363
 30
0.0
 41
1.0
 10
-9.69293936064795
 20
54.97203375904161
 30
0.0
 41
1.0
  0
SPLINE
  5
69
330
1F
100
AcDbEntity
  8
Default
100
AcDbSpline
210
0.0
220
0.0
230
1.0
 70
     8
 71
     5
 72
    12
 73
     6
 74
     0
 42
0.0000000001
 43
0.0000000001
 40
0.0
 40
0.0
 40
0.0
 40
0.0
 40
0.0
 40
0.0
 40
1.0
 40
1.0
 40
1.0
 40
1.0
 40
1.0
 40
1.0
 10
-9.69293936064795
 20
54.97203375904161
 30
0.0
 10
-9.695043293032274
 20
54.92906035284582
 30
0.0
 10
-9.697127735181477
 20
54.88608599242879
 30
0.0
 10
-9.672423096967533
 20
54.8436476252637
 30
0.0
 10
-9.673779756527939
 20
54.80064410208862
 30
0.0
 10
-9.675194342381657
 20
54.75764248446313
 30
0.0
  0
SPLINE
  5
6A
330
1F
100
AcDbEntity
  8
Default
100
AcDbSpline
210
0.0
220
0.0
230
1.0
 70
    12
 71
     3
 72
    11
 73
     7
 74
     0
 42
0.0000000001
 43
0.0000000001
 40
0.640875809691118
 40
0.640875809691118
 40
0.640875809691118
 40
0.640875809691118
 40
0.6568174083128
 40
0.6727590025993
 40
0.6887005968858
 40
0.7046421827495527
 40
0.7046421827495527
 40
0.7046421827495527
 40
0.7046421827495527
 10
-9.675194342381657
 20
54.75764248446313
 30
0.0
 41
1.0
 10
-9.681198979256935
 20
54.57510913153029
 30
0.0
 41
1.0
 10
-9.695867164855121
 20
54.20544506403675
 30
0.0
 41
1.0
 10
-9.762350309829676
 20
53.74222615276585
 30
0.0
 41
1.0
 10
-9.870709136785043
 20
53.45918211598
 30
0.0
 41
1.0
 10
-9.956328687741971
 20
53.42489413322654
 30
0.0
 41
1.0
 10
-9.991579083712514
 20
53.44594433950744
 30
0.0
 41
1.0
  0
SPLINE
  5
6B
330
1F
100
AcDbEntity
  8
Default
100
AcDbSpline
210
0.0
220
0.0
230
1.0
 70
    12
 71
     2
 72
     6
 73
     3
 74
     0
 42
0.0000000001
 43
0.0000000001
 40
0.0
 40
0.0
 40
0.0
 40
1.630647942097504
 40
1.630647942097504
 40
1.630647942097504
 10
9.991579083666752
 20
53.44594433956458
 30
0.0
 41
1.0
 10
10.69158732972573
 20
53.86396543140634
 30
0.0
 41
0.9999999999995978
 10
11.39159482597286
 20
54.28198777886583
 30
0.0
 41
1.0
  0
SPLINE
  5
6C
330
1F
100
AcDbEntity
  8
Default
100
AcDbSpline
210
0.0
220
0.0
230
1.0
 70
    12
 71
     3
 72
    11
 73
     7
 74
     0
 42
0.0000000001
 43
0.0000000001
 40
0.917004293082
 40
0.917004293082
 40
0.917004293082
 40
0.917004293082
 40
0.9377532226304637
 40
0.9585021484203091
 40
0.9792510742101546
 40
0.9999999933620917
 40
0.9999999933620917
 40
0.9999999933620917
 40
0.9999999933620917
 10
11.39159482597286
 20
54.28198777886583
 30
0.0
 41
1.0
 10
11.43769485015802
 20
54.30951711929785
 30
0.0
 41
1.0
 10
11.49529831422289
 20
54.45485751825696
 30
0.0
 41
1.0
 10
11.53049484578074
 20
54.92956211165161
 30
0.0
 41
1.0
 10
11.52618170776733
 20
55.59556171882983
 30
0.0
 41
1.0
 10
11.47328834074625
 20
56.09759106040232
 30
0.0
 41
1.0
 10
11.43204583403695
 20
56.3428535740064
 30
0.0
 41
1.0
  0
SPLINE
  5
6D
330
1F
100
AcDbEntity
  8
Default
100
AcDbSpline
210
0.0
220
0.0
230
1.0
 70
     8
 71
     3
 72
    19
 73
    15
 74
     0
 42
0.0000000001
 43
0.0000000001
 40
0.0
 40
0.0
 40
0.0
 40
0.0
 40
4.623618436030235
 40
5.301792902903966
 40
5.920342259809568
 40
6.056076530405615
 40
6.639259243810613
 40
7.053190221269839
 40
7.467443133834935
 40
8.275132357208953
 40
9.337733952456178
 40
10.39217643188896
 40
11.49284443068207
 40
12.69760338766195
 40
12.69760338766195
 40
12.69760338766195
 40
12.69760338766195
 10
11.43204583403695
 20
56.3428535740064
 30
0.0
 10
11.17643139022772
 20
57.86271670014319
 30
0.0
 10
10.8834562837155
 20
59.60552169446318
 30
0.0
 10
10.55612978961251
 20
61.5516403261685
 30
0.0
 10
10.47701468990874
 20
62.02251255576567
 30
0.0
 10
10.40321801470129
 20
62.46222059828346
 30
0.0
 10
10.33872069150129
 20
62.83422233165037
 30
0.0
 10
10.24034671039071
 20
63.29457306924444
 30
0.0
 10
10.09388812235925
 20
63.81987158601923
 30
0.0
 10
9.836510540703802
 20
64.53804677883434
 30
0.0
 10
9.351367074108298
 20
65.39058067129015
 30
0.0
 10
8.614578799848733
 20
66.18015911826669
 30
0.0
 10
7.68868283120827
 20
66.81959393627962
 30
0.0
 10
6.984345810162258
 20
67.13420828206003
 30
0.0
 10
6.607293465426396
 20
67.27197821479271
 30
0.0
  0
SPLINE
  5
6E
330
1F
100
AcDbEntity
  8
Default
100
AcDbSpline
210
0.0
220
0.0
230
1.0
 70
     8
 71
     3
 72
    12
 73
     8
 74
     0
 42
0.0000000001
 43
0.0000000001
 40
-6.671007734621198
 40
-6.671007734621198
 40
-6.671007734621198
 40
-6.671007734621198
 40
-5.493264563032756
 40
-4.039728841138333
 40
-2.229112221974592
 40
-1.175894082887526
 40
0.0
 40
0.0
 40
0.0
 40
0.0
 10
6.607293465426396
 20
67.27197821479271
 30
0.0
 10
6.238190745460519
 20
67.40616392226659
 30
0.0
 10
5.387478885363837
 20
67.62843102201617
 30
0.0
 10
3.919008980730833
 20
67.82945275027521
 30
0.0
 10
2.482587752684207
 20
67.92471602177723
 30
0.0
 10
1.136417394048721
 20
67.96310706114014
 30
0.0
 10
0.3934065992097633
 20
67.96892524360152
 30
0.0
 10
0.001430258495537
 20
67.96904381763235
 30
0.0
  0
SPLINE
  5
6F
330
1F
100
AcDbEntity
  8
Default
100
AcDbSpline
210
0.0
220
0.0
230
1.0
 70
    12
 71
     2
 72
     6
 73
     3
 74
     0
 42
0.0000000001
 43
0.0000000001
 40
0.0
 40
0.0
 40
0.0
 40
1.630647942097504
 40
1.630647942097504
 40
1.630647942097504
 10
-9.991579083666752
 20
53.44594433956458
 30
0.0
 41
1.0
 10
-10.69158732972573
 20
53.86396543140634
 30
0.0
 41
0.9999999999995978
 10
-11.39159482597286
 20
54.28198777886583
 30
0.0
 41
1.0
  0
SPLINE
  5
70
330
1F
100
AcDbEntity
  8
Default
100
AcDbSpline
210
0.0
220
0.0
230
1.0
 70
    12
 71
     3
 72
    11
 73
     7
 74
     0
 42
0.0000000001
 43
0.0000000001
 40
0.917004293082
 40
0.917004293082
 40
0.917004293082
 40
0.917004293082
 40
0.9377532226304637
 40
0.9585021484203091
 40
0.9792510742101546
 40
0.9999999933620917
 40
0.9999999933620917
 40
0.9999999933620917
 40
0.9999999933620917
 10
-11.39159482597286
 20
54.28198777886583
 30
0.0
 41
1.0
 10
-11.43769485015802
 20
54.30951711929785
 30
0.0
 41
1.0
 10
-11.49529831422289
 20
54.45485751825696
 30
0.0
 41
1.0
 10
-11.53049484578074
 20
54.92956211165161
 30
0.0
 41
1.0
 10
-11.52618170776733
 20
55.59556171882983
 30
0.0
 41
1.0
 10
-11.47328834074625
 20
56.09759106040232
 30
0.0
 41
1.0
 10
-11.43204583403695
 20
56.3428535740064
 30
0.0
 41
1.0
  0
SPLINE
  5
71
330
1F
100
AcDbEntity
  8
Default
100
AcDbSpline
210
0.0
220
0.0
230
1.0
 70
     8
 71
     3
 72
    19
 73
    15
 74
     0
 42
0.0000000001
 43
0.0000000001
 40
0.0
 40
0.0
 40
0.0
 40
0.0
 40
4.623618436030235
 40
5.301792902903966
 40
5.920342259809568
 40
6.056076530405615
 40
6.639259243810613
 40
7.053190221269839
 40
7.467443133834935
 40
8.275132357208953
 40
9.337733952456178
 40
10.39217643188896
 40
11.49284443068207
 40
12.69760338766195
 40
12.69760338766195
 40
12.69760338766195
 40
12.69760338766195
 10
-11.43204583403695
 20
56.3428535740064
 30
0.0
 10
-11.17643139022772
 20
57.86271670014319
 30
0.0
 10
-10.8834562837155
 20
59.60552169446318
 30
0.0
 10
-10.55612978961251
 20
61.5516403261685
 30
0.0
 10
-10.47701468990874
 20
62.02251255576567
 30
0.0
 10
-10.40321801470129
 20
62.46222059828346
 30
0.0
 10
-10.33872069150129
 20
62.83422233165037
 30
0.0
 10
-10.24034671039071
 20
63.29457306924444
 30
0.0
 10
-10.09388812235925
 20
63.81987158601923
 30
0.0
 10
-9.836510540703802
 20
64.53804677883434
 30
0.0
 10
-9.351367074108298
 20
65.39058067129015
 30
0.0
 10
-8.614578799848733
 20
66.18015911826669
 30
0.0
 10
-7.68868283120827
 20
66.81959393627962
 30
0.0
 10
-6.984345810162258
 20
67.13420828206003
 30
0.0
 10
-6.607293465426396
 20
67.27197821479271
 30
0.0
  0
SPLINE
  5
72
330
1F
100
AcDbEntity
  8
Default
100
AcDbSpline
210
0.0
220
0.0
230
1.0
 70
     8
 71
     3
 72
    12
 73
     8
 74
     0
 42
0.0000000001
 43
0.0000000001
 40
-6.671007734621198
 40
-6.671007734621198
 40
-6.671007734621198
 40
-6.671007734621198
 40
-5.493264563032756
 40
-4.039728841138333
 40
-2.229112221974592
 40
-1.175894082887526
 40
0.0
 40
0.0
 40
0.0
 40
0.0
 10
-6.607293465426396
 20
67.27197821479271
 30
0.0
 10
-6.238190745460519
 20
67.40616392226659
 30
0.0
 10
-5.387478885363837
 20
67.62843102201617
 30
0.0
 10
-3.919008980730833
 20
67.82945275027521
 30
0.0
 10
-2.482587752684207
 20
67.92471602177723
 30
0.0
 10
-1.136417394048721
 20
67.96310706114014
 30
0.0
 10
-0.3934065992097633
 20
67.96892524360152
 30
0.0
 10
-0.001430258495537
 20
67.96904381763235
 30
0.0
  0
SPLINE
  5
73
330
1F
100
AcDbEntity
  8
Default
100
AcDbSpline
210
0.0
220
0.0
230
1.0
 70
     8
 71
     3
 72
    13
 73
     9
 74
     0
 42
0.0000000001
 43
0.0000000001
 40
0.0
 40
0.0
 40
0.0
 40
0.0
 40
0.1320370634423743
 40
0.3068545829673229
 40
0.5219837298125717
 40
0.7739879035837569
 40
1.349475182914499
 40
2.118135537890969
 40
2.118135537890969
 40
2.118135537890969
 40
2.118135537890969
 10
-13.18769436977593
 20
54.28867069520844
 30
0.0
 10
-13.22819048349452
 20
54.30689806072126
 30
0.0
 10
-13.30489823452461
 20
54.37736523985892
 30
0.0
 10
-13.39176475922296
 20
54.52948787049705
 30
0.0
 10
-13.46146284013639
 20
54.73240700614345
 30
0.0
 10
-13.52876557546688
 20
55.0741256589002
 30
0.0
 10
-13.55090605561605
 20
55.60743780439411
 30
0.0
 10
-13.51352426090814
 20
56.05424880835811
 30
0.0
 10
-13.48960622489244
 20
56.30937037229101
 30
0.0
  0
SPLINE
  5
74
330
1F
100
AcDbEntity
  8
Default
100
AcDbSpline
210
0.0
220
0.0
230
1.0
 70
     8
 71
     3
 72
    17
 73
    13
 74
     0
 42
0.0000000001
 43
0.0000000001
 40
0.0
 40
0.0
 40
0.0
 40
0.0
 40
1.0
 40
2.0
 40
3.0
 40
4.0
 40
5.0
 40
6.0
 40
7.0
 40
8.0
 40
9.0
 40
10.0
 40
10.0
 40
10.0
 40
10.0
 10
-13.48960622489244
 20
56.30937037229101
 30
0.0
 10
-13.41424656944338
 20
57.12322177806669
 30
0.0
 10
-13.25864293329534
 20
58.74964931844617
 30
0.0
 10
-13.02360271829891
 20
61.19206448931006
 30
0.0
 10
-12.78199670803694
 20
63.62445486970995
 30
0.0
 10
-12.51889682493524
 20
66.08919426729554
 30
0.0
 10
-11.29346003941536
 20
68.26868738416194
 30
0.0
 10
-9.456350784650805
 20
69.92806585427851
 30
0.0
 10
-7.266371929486163
 20
71.06150052523046
 30
0.0
 10
-4.903134142207666
 20
71.75989790830836
 30
0.0
 10
-2.452688490776763
 20
71.96765677166381
 30
0.0
 10
-0.8192462268025801
 20
71.98865021894622
 30
0.0
 10
-0.0018480312813676
 20
71.98948961703567
 30
0.0
  0
SPLINE
  5
75
330
1F
100
AcDbEntity
  8
Default
100
AcDbSpline
210
0.0
220
0.0
230
1.0
 70
     8
 71
     3
 72
    13
 73
     9
 74
     0
 42
0.0000000001
 43
0.0000000001
 40
0.0
 40
0.0
 40
0.0
 40
0.0
 40
0.1320370634423743
 40
0.3068545829673229
 40
0.5219837298125717
 40
0.7739879035837569
 40
1.349475182914499
 40
2.118135537890969
 40
2.118135537890969
 40
2.118135537890969
 40
2.118135537890969
 10
13.18769436977593
 20
54.28867069520844
 30
0.0
 10
13.22819048349452
 20
54.30689806072126
 30
0.0
 10
13.30489823452461
 20
54.37736523985892
 30
0.0
 10
13.39176475922296
 20
54.52948787049705
 30
0.0
 10
13.46146284013639
 20
54.73240700614345
 30
0.0
 10
13.52876557546688
 20
55.0741256589002
 30
0.0
 10
13.55090605561605
 20
55.60743780439411
 30
0.0
 10
13.51352426090814
 20
56.05424880835811
 30
0.0
 10
13.48960622489244
 20
56.30937037229101
 30
0.0
  0
SPLINE
  5
76
330
1F
100
AcDbEntity
  8
Default
100
AcDbSpline
210
0.0
220
0.0
230
1.0
 70
     8
 71
     3
 72
    17
 73
    13
 74
     0
 42
0.0000000001
 43
0.0000000001
 40
0.0
 40
0.0
 40
0.0
 40
0.0
 40
1.0
 40
2.0
 40
3.0
 40
4.0
 40
5.0
 40
6.0
 40
7.0
 40
8.0
 40
9.0
 40
10.0
 40
10.0
 40
10.0
 40
10.0
 10
13.48960622489244
 20
56.30937037229101
 30
0.0
 10
13.41424656944338
 20
57.12322177806669
 30
0.0
 10
13.25864293329534
 20
58.74964931844617
 30
0.0
 10
13.02360271829891
 20
61.19206448931006
 30
0.0
 10
12.78199670803694
 20
63.62445486970995
 30
0.0
 10
12.51889682493524
 20
66.08919426729554
 30
0.0
 10
11.29346003941536
 20
68.26868738416194
 30
0.0
 10
9.456350784650805
 20
69.92806585427851
 30
0.0
 10
7.266371929486163
 20
71.06150052523046
 30
0.0
 10
4.903134142207666
 20
71.75989790830836
 30
0.0
 10
2.452688490776763
 20
71.96765677166381
 30
0.0
 10
0.8192462268025801
 20
71.98865021894622
 30
0.0
 10
0.0018480312813676
 20
71.98948961703567
 30
0.0
  0
SPLINE
  5
77
330
1F
100
AcDbEntity
  8
Default
100
AcDbSpline
210
0.0
220
0.0
230
1.0
 70
    12
 71
     2
 72
    16
 73
    13
 74
     0
 42
0.0000000001
 43
0.0000000001
 40
-2.114394366059408
 40
-2.114394366059408
 40
-2.114394366059408
 40
-1.797968387819482
 40
-1.797968387819482
 40
-1.466504409665124
 40
-1.466504409665124
 40
-1.103448733882449
 40
-1.103448733882449
 40
-0.7375003280355865
 40
-0.7375003280355865
 40
-0.3853840619015161
 40
-0.3853840619015161
 40
0.0
 40
0.0
 40
0.0
 10
13.18036988805012
 20
54.28656479504237
 30
0.0
 41
1.0
 10
13.03581513168814
 20
54.22225857116182
 30
0.0
 41
0.9999994579688509
 10
12.89112677971934
 20
54.15825350244691
 30
0.0
 41
1.0
 10
12.73956484577298
 20
54.09120064515069
 30
0.0
 41
0.99999963712032
 10
12.58788888518836
 20
54.02440612086998
 30
0.0
 41
1.0
 10
12.42175803615701
 20
53.95124252143985
 30
0.0
 41
0.9999996505878544
 10
12.25550509610922
 20
53.87835678067449
 30
0.0
 41
1.0
 10
12.08792956232028
 20
53.80488558194988
 30
0.0
 41
0.9999996050303459
 10
11.92022369310206
 20
53.73171237649559
 30
0.0
 41
1.0
 10
11.75886143374891
 20
53.66129422246786
 30
0.0
 41
0.9999992997311371
 10
11.59733295476317
 20
53.59125819147827
 30
0.0
 41
1.0
 10
11.42056511276292
 20
53.51455399527418
 30
0.0
 41
0.9999962654156107
 10
11.22381976659881
 20
53.43249990846399
 30
0.0
 41
1.0
  0
SPLINE
  5
78
330
1F
100
AcDbEntity
  8
Default
100
AcDbSpline
210
0.0
220
0.0
230
1.0
 70
     8
 71
     3
 72
    11
 73
     7
 74
     0
 42
0.0000000001
 43
0.0000000001
 40
-1.284838740011289
 40
-1.284838740011289
 40
-1.284838740011289
 40
-1.284838740011289
 40
-0.6484242235604618
 40
-0.3292902039485296
 40
-0.1665485794137476
 40
0.0
 40
0.0
 40
0.0
 40
0.0
 10
11.22381976659881
 20
53.43249990846399
 30
0.0
 10
11.01676533487342
 20
53.38622436114044
 30
0.0
 10
10.69801656860313
 20
53.35274447779476
 30
0.0
 10
10.32539886326425
 20
53.37532510608769
 30
0.0
 10
10.11129192596568
 20
53.40541794274111
 30
0.0
 10
10.00351122064128
 20
53.42640082864333
 30
0.0
 10
9.949303571593516
 20
53.43837605503142
 30
0.0
  0
SPLINE
  5
79
330
1F
100
AcDbEntity
  8
Default
100
AcDbSpline
210
0.0
220
0.0
230
1.0
 70
    12
 71
     2
 72
     6
 73
     3
 74
     0
 42
0.0000000001
 43
0.0000000001
 40
0.0
 40
0.0
 40
0.0
 40
0.2190425263140054
 40
0.2190425263140054
 40
0.2190425263140054
 10
6.585887998493849
 20
64.28795170289729
 30
0.0
 41
1.0
 10
6.687274703509965
 20
64.32939371945385
 30
0.0
 41
0.9998876182934109
 10
6.787373402915239
 20
64.37385668232938
 30
0.0
 41
1.0
  0
SPLINE
  5
7A
330
1F
100
AcDbEntity
  8
Default
100
AcDbSpline
210
0.0
220
0.0
230
1.0
 70
    12
 71
     2
 72
     6
 73
     3
 74
     0
 42
0.0000000001
 43
0.0000000001
 40
0.0
 40
0.0
 40
0.0
 40
0.2313813716592696
 40
0.2313813716592696
 40
0.2313813716592696
 10
5.891500948624584
 20
64.81574811886289
 30
0.0
 41
1.0
 10
5.784255536958963
 20
64.77235737716698
 30
0.0
 41
0.9999999999715007
 10
5.677010780483552
 20
64.72896501612499
 30
0.0
 41
1.0
  0
SPLINE
  5
7B
330
1F
100
AcDbEntity
  8
Default
100
AcDbSpline
210
0.0
220
0.0
230
1.0
 70
    12
 71
     2
 72
     6
 73
     3
 74
     0
 42
0.0000000001
 43
0.0000000001
 40
0.0
 40
0.0
 40
0.0
 40
1.312000710858766
 40
1.312000710858766
 40
1.312000710858766
 10
9.863650293225023
 20
48.87802752544316
 30
0.0
 41
1.0
 10
9.371940435016162
 20
49.31226004596579
 30
0.0
 41
0.9999999996229239
 10
8.880254427191085
 20
49.74651957234391
 30
0.0
 41
1.0
  0
SPLINE
  5
7C
330
1F
100
AcDbEntity
  8
Default
100
AcDbSpline
210
0.0
220
0.0
230
1.0
 70
    12
 71
     2
 72
     6
 73
     3
 74
     0
 42
0.0000000001
 43
0.0000000001
 40
0.0
 40
0.0
 40
0.0
 40
1.214948875897803
 40
1.214948875897803
 40
1.214948875897803
 10
8.456618386319919
 20
49.12004499763511
 30
0.0
 41
1.0
 10
8.911942343101806
 20
48.71791903833397
 30
0.0
 41
0.9999999999966886
 10
9.36726836955303
 20
48.31579542252148
 30
0.0
 41
1.0
  0
SPLINE
  5
7D
330
1F
100
AcDbEntity
  8
Default
100
AcDbSpline
210
0.0
220
0.0
230
1.0
 70
    24
 71
     2
 72
     6
 73
     3
 74
     0
 42
0.0000000001
 43
0.0000000001
 40
0.0
 40
0.0
 40
0.0
 40
0.0452071963732132
 40
0.0452071963732132
 40
0.0452071963732132
 10
9.902199362183532
 20
48.84400260302011
 30
0.0
 10
9.885252270983667
 20
48.85895983374124
 30
0.0
 10
9.8683051797838
 20
48.87391706446236
 30
0.0
  0
SPLINE
  5
7E
330
1F
100
AcDbEntity
  8
Default
100
AcDbSpline
210
0.0
220
0.0
230
1.0
 70
    24
 71
     2
 72
     6
 73
     3
 74
     0
 42
0.0000000001
 43
0.0000000001
 40
0.0
 40
0.0
 40
0.0
 40
0.0253549805303407
 40
0.0253549805303407
 40
0.0253549805303407
 10
9.386899777397145
 20
48.29846686766762
 30
0.0
 10
9.396404750098199
 20
48.29007793130026
 30
0.0
 10
9.405909722799251
 20
48.28168899493289
 30
0.0
  0
SPLINE
  5
7F
330
1F
100
AcDbEntity
  8
Default
100
AcDbSpline
210
0.0
220
0.0
230
1.0
 70
    12
 71
     2
 72
     6
 73
     3
 74
     0
 42
0.0000000001
 43
0.0000000001
 40
0.0
 40
0.0
 40
0.0
 40
0.0076569847848393
 40
0.0076569847848393
 40
0.0076569847848393
 10
13.18036988805012
 20
54.28656479504237
 30
0.0
 41
1.0
 10
13.18419193433533
 20
54.28705893562509
 30
0.0
 41
0.990156804630709
 10
13.18772727587989
 20
54.2885930715008
 30
0.0
 41
1.0
  0
SPLINE
  5
80
330
1F
100
AcDbEntity
  8
Default
100
AcDbSpline
210
0.0
220
0.0
230
1.0
 70
    12
 71
     2
 72
     8
 73
     5
 74
     0
 42
0.0000000001
 43
0.0000000001
 40
0.0
 40
0.0
 40
0.0
 40
0.3169980401802696
 40
0.3169980401802696
 40
0.9045777852978957
 40
0.9045777852978957
 40
0.9045777852978957
 10
9.863650266562614
 20
48.87802752394287
 30
0.0
 41
1.0
 10
9.990249351703062
 20
48.7659688365198
 30
0.0
 41
0.9088033449061143
 10
9.987792832134717
 20
48.59691723700951
 30
0.0
 41
1.0
 10
9.982463647841067
 20
48.22529507561001
 30
0.0
 41
0.7134156156498478
 10
9.610805665997187
 20
48.22396256662522
 30
0.0
 41
1.0
  0
SPLINE
  5
81
330
1F
100
AcDbEntity
  8
Default
100
AcDbSpline
210
0.0
220
0.0
230
1.0
 70
    12
 71
     2
 72
     6
 73
     3
 74
     0
 42
0.0000000001
 43
0.0000000001
 40
0.0
 40
0.0
 40
0.0
 40
0.2659215729448455
 40
0.2659215729448455
 40
0.2659215729448455
 10
9.610802492077179
 20
48.22396256623203
 30
0.0
 41
1.0
 10
9.471720315862978
 20
48.22377479555931
 30
0.0
 41
0.9352684707807751
 10
9.36736027656332
 20
48.31571428215607
 30
0.0
 41
1.0
  0
ARC
  5
82
330
1F
100
AcDbEntity
  8
Default
100
AcDbCircle
 10
43.79572472995559
 20
-1.046906057563028
 30
0.0
 40
1.598654297846829
100
AcDbArc
 50
82.42877851049491
 51
109.5597859037523
  0
ARC
  5
83
330
1F
100
AcDbEntity
  8
Default
100
AcDbCircle
 10
23.01707131895706
 20
-0.8696776499710523
 30
0.0
 40
1.47998297551889
100
AcDbArc
 50
60.58437263260442
 51
89.93308403797784
  0
SPLINE
  5
84
330
1F
100
AcDbEntity
  8
Default
  6
Continuous
100
AcDbSpline
210
0.0
220
0.0
230
1.0
 70
     8
 71
     3
 72
    12
 73
     8
 74
     0
 42
0.0000000001
 43
0.0000000001
 40
0.0
 40
0.0
 40
0.0
 40
0.0
 40
1.0
 40
2.0
 40
3.0
 40
4.0
 40
5.0
 40
5.0
 40
5.0
 40
5.0
 10
37.73396574049313
 20
16.21600732790002
 30
0.0
 10
38.21397737886522
 20
16.23615245869622
 30
0.0
 10
39.17415970100664
 20
16.27531567322455
 30
0.0
 10
40.61436397177401
 20
16.32525247903772
 30
0.0
 10
42.05580301095587
 20
16.37591505130937
 30
0.0
 10
43.49429868611628
 20
16.3707928040364
 30
0.0
 10
44.46160995474004
 20
16.30722331476423
 30
0.0
 10
44.91479773269312
 20
16.13938121189999
 30
0.0
  0
SPLINE
  5
85
330
1F
100
AcDbEntity
  8
Default
  6
Continuous
100
AcDbSpline
210
0.0
220
0.0
230
1.0
 70
     8
 71
     3
 72
     9
 73
     5
 74
     0
 42
0.0000000001
 43
0.0000000001
 40
0.0
 40
0.0
 40
0.0
 40
0.0
 40
1.0
 40
2.0
 40
2.0
 40
2.0
 40
2.0
 10
25.61971546259313
 20
15.29457800199991
 30
0.0
 10
27.62178528767917
 20
15.6094308898332
 30
0.0
 10
31.65954275704421
 20
15.98728357518436
 30
0.0
 10
35.71001657873074
 20
16.12512742584894
 30
0.0
 10
37.73396574049313
 20
16.21600732790002
 30
0.0
  0
SPLINE
  5
86
330
1F
100
AcDbEntity
  8
Default
  6
Continuous
100
AcDbSpline
210
0.0
220
0.0
230
1.0
 70
     8
 71
     3
 72
    13
 73
     9
 74
     0
 42
0.0000000001
 43
0.0000000001
 40
-6.0
 40
-6.0
 40
-6.0
 40
-6.0
 40
-5.000000053519237
 40
-4.000000042815389
 40
-3.000000032111542
 40
-2.000000021407695
 40
-1.000000010703847
 40
0.0
 40
0.0
 40
0.0
 40
0.0
 10
44.82036174079313
 20
18.30232024609999
 30
0.0
 10
44.50881725698295
 20
18.42765791735044
 30
0.0
 10
43.83773983052332
 20
18.50871253330788
 30
0.0
 10
42.83454319776607
 20
18.54743770597572
 30
0.0
 10
41.8284785463044
 20
18.53495859840496
 30
0.0
 10
40.82368982465012
 20
18.50310754457163
 30
0.0
 10
39.81877366741629
 20
18.46922551658967
 30
0.0
 10
39.14896145156877
 20
18.44404249910061
 30
0.0
 10
38.81406370339313
 20
18.43104428969999
 30
0.0
  0
SPLINE
  5
87
330
1F
100
AcDbEntity
  8
Default
  6
Continuous
100
AcDbSpline
210
0.0
220
0.0
230
1.0
 70
     8
 71
     3
 72
    11
 73
     7
 74
     0
 42
0.0000000001
 43
0.0000000001
 40
-1.0
 40
-1.0
 40
-1.0
 40
-1.0
 40
-0.7500046659575906
 40
-0.4999999752147193
 40
-0.2499952866718482
 40
0.0
 40
0.0
 40
0.0
 40
0.0
 10
44.91481262489312
 20
16.13946564359999
 30
0.0
 10
44.94638057929312
 20
16.31844995489999
 30
0.0
 10
44.98972646709312
 20
16.68022417469999
 30
0.0
 10
44.99540805679312
 20
17.22647487949999
 30
0.0
 10
44.94212992750026
 20
17.77015081041143
 30
0.0
 10
44.86741213394858
 20
18.12676920677418
 30
0.0
 10
44.82036174079313
 20
18.30232024609999
 30
0.0
  0
LINE
  5
88
330
1F
100
AcDbEntity
  8
Default
  6
Continuous
100
AcDbLine
 10
28.65024792319313
 20
15.42925537169999
 30
0.0
 11
44.91481262489312
 21
16.13946564359999
 31
0.0
  0
ARC
  5
89
330
1F
100
AcDbEntity
  8
Default
  6
Continuous
100
AcDbCircle
 10
22.9317637392045
 20
146.3885778230305
 30
0.0
 40
131.084114973074
100
AcDbArc
 50
271.8071367131136
 51
272.5002954910617
  0
ARC
  5
8A
330
1F
100
AcDbEntity
  8
Default
  6
Continuous
100
AcDbCircle
 10
31.82734427164927
 20
16.64716278760405
 30
0.0
 40
4.930197214099278
100
AcDbArc
 50
193.4989733570995
 51
195.0177472529189
  0
LINE
  5
8B
330
1F
100
AcDbEntity
  8
Default
  6
Continuous
100
AcDbLine
 10
27.58860656349312
 20
15.32359395029999
 30
0.0
 11
29.12811092069312
 21
15.43983113729999
 31
0.0
  0
SPLINE
  5
8C
330
1F
100
AcDbEntity
  8
Default
  6
Continuous
100
AcDbSpline
210
0.0
220
0.0
230
1.0
 70
     8
 71
     3
 72
    10
 73
     6
 74
     0
 42
0.0000000001
 43
0.0000000001
 40
0.0
 40
0.0
 40
0.0
 40
0.0
 40
1.0
 40
2.0
 40
3.0
 40
3.0
 40
3.0
 40
3.0
 10
26.66830604059312
 20
14.13526029369999
 30
0.0
 10
26.7143374131136
 20
14.30614153433403
 30
0.0
 10
26.83180122806142
 20
14.64007423275593
 30
0.0
 10
27.09906378818893
 20
15.10525858262822
 30
0.0
 10
27.40828161245035
 20
15.31111618883844
 30
0.0
 10
27.58860656349312
 20
15.32359395029999
 30
0.0
  0
LINE
  5
8D
330
1F
100
AcDbEntity
  8
Default
  6
Continuous
100
AcDbLine
 10
22.93485590129312
 20
0.2999234282999907
 30
0.0
 11
26.66830604059312
 21
14.13526029369999
 31
0.0
  0
SPLINE
  5
8E
330
1F
100
AcDbEntity
  8
Default
  6
Continuous
100
AcDbSpline
210
0.0
220
0.0
230
1.0
 70
     8
 71
     3
 72
     8
 73
     4
 74
     0
 42
0.0000000001
 43
0.0000000001
 40
-1.0
 40
-1.0
 40
-1.0
 40
-1.0
 40
0.0
 40
0.0
 40
0.0
 40
0.0
 10
22.99004339547416
 20
0.1533775596805
 30
0.0
 10
22.94465235242238
 20
0.1853330905148667
 30
0.0
 10
22.91914446894522
 20
0.2455979056564956
 30
0.0
 10
22.93485590129312
 20
0.2999234282999907
 30
0.0
  0
ARC
  5
8F
330
1F
100
AcDbEntity
  8
Default
  6
Continuous
100
AcDbCircle
 10
23.44556539379313
 20
0.7531250044999922
 30
0.0
 40
0.7531250152
100
AcDbArc
 50
232.7824926389002
 51
277.0144983098003
  0
SPLINE
  5
90
330
1F
100
AcDbEntity
  8
Default
  6
Continuous
100
AcDbSpline
210
0.0
220
0.0
230
1.0
 70
     8
 71
     3
 72
     8
 73
     4
 74
     0
 42
0.0000000001
 43
0.0000000001
 40
-1.0
 40
-1.0
 40
-1.0
 40
-1.0
 40
0.0
 40
0.0
 40
0.0
 40
0.0
 10
23.65895524379313
 20
0.1045260325999919
 30
0.0
 10
23.64520365107653
 20
0.0496725096453048
 30
0.0
 10
23.59284350499142
 20
0.0104168368813831
 30
0.0
 10
23.53753739464882
 20
0.0056369179202775
 30
0.0
  0
LINE
  5
91
330
1F
100
AcDbEntity
  8
Default
  6
Continuous
100
AcDbLine
 10
27.39240538309313
 20
13.93986289799999
 30
0.0
 11
23.65895524379313
 21
0.1045260325999919
 31
0.0
  0
SPLINE
  5
92
330
1F
100
AcDbEntity
  8
Default
  6
Continuous
100
AcDbSpline
210
0.0
220
0.0
230
1.0
 70
     8
 71
     3
 72
     8
 73
     4
 74
     0
 42
0.0000000001
 43
0.0000000001
 40
-1.0
 40
-1.0
 40
-1.0
 40
-1.0
 40
0.0
 40
0.0
 40
0.0
 40
0.0
 10
27.68981296299312
 20
14.57823235299999
 30
0.0
 10
27.53507668589985
 20
14.39653909521822
 30
0.0
 10
27.45719102523215
 20
14.16538334046405
 30
0.0
 10
27.39240538309313
 20
13.93986289799999
 30
0.0
  0
SPLINE
  5
93
330
1F
100
AcDbEntity
  8
Default
  6
Continuous
100
AcDbSpline
210
0.0
220
0.0
230
1.0
 70
     8
 71
     3
 72
    11
 73
     7
 74
     0
 42
0.0000000001
 43
0.0000000001
 40
-4.0
 40
-4.0
 40
-4.0
 40
-4.0
 40
-2.999998949625213
 40
-1.999997899250425
 40
-0.9999968488756381
 40
0.0
 40
0.0
 40
0.0
 40
0.0
 10
37.88931390139312
 20
15.08147799019999
 30
0.0
 10
37.03908429451219
 20
15.04415138697091
 30
0.0
 10
35.33853513590377
 20
14.97113246870863
 30
0.0
 10
32.78804974152671
 20
14.85547555644038
 30
0.0
 10
30.23648499730611
 20
14.75943008050341
 30
0.0
 10
28.53810652728248
 20
14.64714400096475
 30
0.0
 10
27.68981296299312
 20
14.57823235299999
 30
0.0
  0
SPLINE
  5
94
330
1F
100
AcDbEntity
  8
Default
  6
Continuous
100
AcDbSpline
210
0.0
220
0.0
230
1.0
 70
     8
 71
     3
 72
     9
 73
     5
 74
     0
 42
0.0000000001
 43
0.0000000001
 40
0.0
 40
0.0
 40
0.0
 40
0.0
 40
1.0
 40
2.0
 40
2.0
 40
2.0
 40
2.0
 10
43.96663063132138
 20
0.0865705803572752
 30
0.0
 10
43.99022513340428
 20
0.0991162941583354
 30
0.0
 10
44.03121053198545
 20
0.1371629419042719
 30
0.0
 10
44.04302402404774
 20
0.1921515143405088
 30
0.0
 10
44.04010646629041
 20
0.2187927376999923
 30
0.0
  0
ARC
  5
95
330
1F
100
AcDbEntity
  8
Default
  6
Continuous
100
AcDbCircle
 10
43.60700587589314
 20
0.7482860109999905
 30
0.0
 40
0.7531250068
100
AcDbArc
 50
253.5534035505003
 51
298.5229049741002
  0
SPLINE
  5
96
330
1F
100
AcDbEntity
  8
Default
  6
Continuous
100
AcDbSpline
210
0.0
220
0.0
230
1.0
 70
     8
 71
     3
 72
     9
 73
     5
 74
     0
 42
0.0000000001
 43
0.0000000001
 40
0.0
 40
0.0
 40
0.0
 40
0.0
 40
1.0
 40
2.0
 40
2.0
 40
2.0
 40
2.0
 10
43.29426741649179
 20
0.1398996978998497
 30
0.0
 10
43.2969877502393
 20
0.1132376551201446
 30
0.0
 10
43.32004443299998
 20
0.0619370981759459
 30
0.0
 10
43.36808355245303
 20
0.0333087327723547
 30
0.0
 10
43.39377996681071
 20
0.0259758369310674
 30
0.0
  0
LINE
  5
97
330
1F
100
AcDbEntity
  8
Default
  6
Continuous
100
AcDbLine
 10
41.77438645169313
 20
14.50855094749999
 30
0.0
 11
43.29426741649179
 21
0.1398996978998497
 31
0.0
  0
SPLINE
  5
98
330
1F
100
AcDbEntity
  8
Default
  6
Continuous
100
AcDbSpline
210
0.0
220
0.0
230
1.0
 70
     8
 71
     3
 72
     9
 73
     5
 74
     0
 42
0.0000000001
 43
0.0000000001
 40
0.0
 40
0.0
 40
0.0
 40
0.0
 40
1.0
 40
2.0
 40
2.0
 40
2.0
 40
2.0
 10
41.25197522189312
 20
15.18427929679999
 30
0.0
 10
41.41418624572043
 20
15.18713032751155
 30
0.0
 10
41.6693351719569
 20
14.96601504998997
 30
0.0
 10
41.75715584365425
 20
14.66261883283276
 30
0.0
 10
41.77438645169313
 20
14.50855094749999
 30
0.0
  0
LINE
  5
99
330
1F
100
AcDbEntity
  8
Default
  6
Continuous
100
AcDbLine
 10
37.88686413523784
 20
15.0814030974724
 30
0.0
 11
41.25197522189312
 21
15.18427929679999
 31
0.0
  0
ARC
  5
9A
330
1F
100
AcDbEntity
  8
Default
  6
Continuous
100
AcDbCircle
 10
37.87540520909313
 20
15.45622798059999
 30
0.0
 40
0.375
100
AcDbArc
 50
91.75106752759983
 51
271.7510675275998
  0
LINE
  5
9B
330
1F
100
AcDbEntity
  8
Default
  6
Continuous
100
AcDbLine
 10
41.22905736959312
 20
15.93392906309999
 30
0.0
 11
37.8639462829484
 21
15.83105286372758
 31
0.0
  0
SPLINE
  5
9C
330
1F
100
AcDbEntity
  8
Default
  6
Continuous
100
AcDbSpline
210
0.0
220
0.0
230
1.0
 70
     8
 71
     3
 72
    10
 73
     6
 74
     0
 42
0.0000000001
 43
0.0000000001
 40
-3.0
 40
-3.0
 40
-3.0
 40
-3.0
 40
-2.0
 40
-1.0
 40
0.0
 40
0.0
 40
0.0
 40
0.0
 10
42.52022550149313
 20
14.58744398729999
 30
0.0
 10
42.49602386713977
 20
14.81404675393858
 30
0.0
 10
42.36860751202462
 20
15.26034137341257
 30
0.0
 10
41.91320821414705
 20
15.79911883099118
 30
0.0
 10
41.45763246009678
 20
15.94233534202848
 30
0.0
 10
41.22905736959312
 20
15.93392906309999
 30
0.0
  0
LINE
  5
9D
330
1F
100
AcDbEntity
  8
Default
  6
Continuous
100
AcDbLine
 10
44.04010646629041
 20
0.2187927376999923
 30
0.0
 11
42.52022550149313
 21
14.58744398729999
 31
0.0
  0
LINE
  5
9E
330
1F
100
AcDbEntity
  8
Default
  6
Continuous
100
AcDbLine
 10
25.40073256944235
 20
15.28445756346542
 30
0.0
 11
25.61971546259313
 21
15.29457800199999
 31
0.0
  0
ARC
  5
9F
330
1F
100
AcDbEntity
  8
Default
  6
Continuous
100
AcDbCircle
 10
25.38757009369313
 20
15.56915345419999
 30
0.0
 40
0.2850000017
100
AcDbArc
 50
208.8524067113
 51
272.6470970527999
  0
SPLINE
  5
A0
330
1F
100
AcDbEntity
  8
Default
  6
Continuous
100
AcDbSpline
210
0.0
220
0.0
230
1.0
 70
     8
 71
     3
 72
    28
 73
    24
 74
     0
 42
0.0000000001
 43
0.0000000001
 40
0.0
 40
0.0
 40
0.0
 40
0.0
 40
1.0
 40
2.0
 40
3.0
 40
4.0
 40
5.0
 40
6.0
 40
7.0
 40
8.0
 40
9.0
 40
10.0
 40
11.0
 40
12.0
 40
13.0
 40
14.0
 40
15.0
 40
16.0
 40
17.0
 40
18.0
 40
19.0
 40
20.0
 40
21.0
 40
21.0
 40
21.0
 40
21.0
 10
20.27153154849312
 20
34.10074467579999
 30
0.0
 10
20.25555055410992
 20
33.79350156010108
 30
0.0
 10
20.37026282934328
 20
33.18753191082365
 30
0.0
 10
20.56633800839384
 20
32.2901141012365
 30
0.0
 10
20.78509758653878
 20
31.39617458097438
 30
0.0
 10
21.01000763757393
 20
30.50429880578546
 30
0.0
 10
21.23946344585617
 20
29.61344135964183
 30
0.0
 10
21.47118283155287
 20
28.72320985528868
 30
0.0
 10
21.70428244495169
 20
27.83332859788994
 30
0.0
 10
21.93816240980341
 20
26.9436547030577
 30
0.0
 10
22.17234413188218
 20
26.05405985036692
 30
0.0
 10
22.40630138122198
 20
25.16440589300544
 30
0.0
 10
22.63962901329239
 20
24.27458664331179
 30
0.0
 10
22.87253002815694
 20
23.38465523084528
 30
0.0
 10
23.10521722738146
 20
22.49466854218185
 30
0.0
 10
23.33761186885603
 20
21.60460518801009
 30
0.0
 10
23.5696213277855
 20
20.71444118729336
 30
0.0
 10
23.80085860488104
 20
19.82407601602574
 30
0.0
 10
24.03183777184823
 20
18.93364470605278
 30
0.0
 10
24.26484756849229
 20
18.04373987944799
 30
0.0
 10
24.50587281715208
 20
17.15595391019206
 30
0.0
 10
24.76645981179503
 20
16.27362095152091
 30
0.0
 10
24.99201018521823
 20
15.70164959224431
 30
0.0
 10
25.13794837680511
 20
15.43162527735291
 30
0.0
  0
SPLINE
  5
A1
330
1F
100
AcDbEntity
  8
Default
  6
Continuous
100
AcDbSpline
210
0.0
220
0.0
230
1.0
 70
     8
 71
     3
 72
    16
 73
    12
 74
     0
 42
0.0000000001
 43
0.0000000001
 40
0.0
 40
0.0
 40
0.0
 40
0.0
 40
1.0
 40
2.0
 40
3.0
 40
4.0
 40
5.0
 40
6.0
 40
7.0
 40
8.0
 40
9.0
 40
9.0
 40
9.0
 40
9.0
 10
23.68954473015835
 20
30.89373490031461
 30
0.0
 10
23.64546721293483
 20
31.08707524705636
 30
0.0
 10
23.55304496084734
 20
31.47279083930621
 30
0.0
 10
23.39193243257073
 20
32.0456514928356
 30
0.0
 10
23.19613512895269
 20
32.60772312231121
 30
0.0
 10
22.93603235087008
 20
33.14537013040751
 30
0.0
 10
22.55513359939552
 20
33.6096060163173
 30
0.0
 10
22.05649133219164
 20
33.94579032068978
 30
0.0
 10
21.48543343657111
 20
34.12934461328438
 30
0.0
 10
20.89022923313809
 20
34.1819302952547
 30
0.0
 10
20.49372832991394
 20
34.15260157709413
 30
0.0
 10
20.29722834909312
 20
34.12621271409999
 30
0.0
  0
SPLINE
  5
A2
330
1F
100
AcDbEntity
  8
Default
  6
Continuous
100
AcDbSpline
210
0.0
220
0.0
230
1.0
 70
     8
 71
     3
 72
    16
 73
    12
 74
     0
 42
0.0000000001
 43
0.0000000001
 40
0.0
 40
0.0
 40
0.0
 40
0.0
 40
0.9999843181530425
 40
1.999986351335018
 40
2.999988384516994
 40
3.99999041769897
 40
4.999992450880945
 40
5.99999448406292
 40
6.999996517244895
 40
7.999998550426871
 40
9.0
 40
9.0
 40
9.0
 40
9.0
 10
35.93067811214313
 20
26.91696373214999
 30
0.0
 10
35.40976689035018
 20
26.91108132525329
 30
0.0
 10
34.36794603080288
 20
26.89497944593096
 30
0.0
 10
32.80543754439161
 20
26.86781218316688
 30
0.0
 10
31.24231645442687
 20
26.8432480368886
 30
0.0
 10
29.68137530086751
 20
26.81169351606994
 30
0.0
 10
28.11238056111652
 20
26.80453782052377
 30
0.0
 10
26.5872404513852
 20
27.25185616286782
 30
0.0
 10
25.36586746350041
 20
28.26584363919473
 30
0.0
 10
24.41167797745602
 20
29.50598761433359
 30
0.0
 10
23.88825838956025
 20
30.41161777104608
 30
0.0
 10
23.68954473015835
 20
30.89373490031461
 30
0.0
  0
SPLINE
  5
A3
330
1F
100
AcDbEntity
  8
Default
  6
Continuous
100
AcDbSpline
210
0.0
220
0.0
230
1.0
 70
     8
 71
     3
 72
    13
 73
     9
 74
     0
 42
0.0000000001
 43
0.0000000001
 40
0.0
 40
0.0
 40
0.0
 40
0.0
 40
1.000004818672768
 40
2.000014619859286
 40
3.000024421045805
 40
4.000034222232323
 40
5.00004402341884
 40
6.0
 40
6.0
 40
6.0
 40
6.0
 10
38.04618611924313
 20
25.06871087049999
 30
0.0
 10
38.02196716666727
 20
25.23714498443545
 30
0.0
 10
37.93581120001338
 20
25.5689008542433
 30
0.0
 10
37.69042506609939
 20
26.02076190852622
 30
0.0
 10
37.34624517041662
 20
26.40304341198237
 30
0.0
 10
36.92130722456471
 20
26.69218897940966
 30
0.0
 10
36.44177184741791
 20
26.87814922146787
 30
0.0
 10
36.10083614298793
 20
26.91721697411723
 30
0.0
 10
35.93067811214313
 20
26.91696373214999
 30
0.0
  0
POLYLINE
  5
A4
330
1F
100
AcDbEntity
  8
Default
  6
Continuous
100
AcDb2dPolyline
 66
     1
 10
0.0
 20
0.0
 30
0.0
  0
VERTEX
  5
A5
330
A4
100
AcDbEntity
  8
Default
  6
Continuous
100
AcDbVertex
100
AcDb2dVertex
 10
38.87636495739314
 20
17.72322927839999
 30
0.0
  0
VERTEX
  5
A6
330
A4
100
AcDbEntity
  8
Default
  6
Continuous
100
AcDbVertex
100
AcDb2dVertex
 10
38.81881378929312
 20
18.38065204279999
 30
0.0
  0
VERTEX
  5
A7
330
A4
100
AcDbEntity
  8
Default
  6
Continuous
100
AcDbVertex
100
AcDb2dVertex
 10
38.74744269379313
 20
19.13638372579999
 30
0.0
  0
VERTEX
  5
A8
330
A4
100
AcDbEntity
  8
Default
  6
Continuous
100
AcDbVertex
100
AcDb2dVertex
 10
38.66841282789314
 20
19.91580556279999
 30
0.0
  0
VERTEX
  5
A9
330
A4
100
AcDbEntity
  8
Default
  6
Continuous
100
AcDbVertex
100
AcDb2dVertex
 10
38.58135304749312
 20
20.72245175929999
 30
0.0
  0
VERTEX
  5
AA
330
A4
100
AcDbEntity
  8
Default
  6
Continuous
100
AcDbVertex
100
AcDb2dVertex
 10
38.48636906439312
 20
21.55614202929999
 30
0.0
  0
VERTEX
  5
AB
330
A4
100
AcDbEntity
  8
Default
  6
Continuous
100
AcDbVertex
100
AcDb2dVertex
 10
38.38417098139313
 20
22.41294585029999
 30
0.0
  0
VERTEX
  5
AC
330
A4
100
AcDbEntity
  8
Default
  6
Continuous
100
AcDbVertex
100
AcDb2dVertex
 10
38.27514405729313
 20
23.29320279009999
 30
0.0
  0
VERTEX
  5
AD
330
A4
100
AcDbEntity
  8
Default
  6
Continuous
100
AcDbVertex
100
AcDb2dVertex
 10
38.15923203209313
 20
24.20158804949999
 30
0.0
  0
VERTEX
  5
AE
330
A4
100
AcDbEntity
  8
Default
  6
Continuous
100
AcDbVertex
100
AcDb2dVertex
 10
38.04618611924313
 20
25.06871087049999
 30
0.0
  0
SEQEND
  5
AF
330
A4
100
AcDbEntity
  8
Default
  6
Continuous
  0
SPLINE
  5
B0
330
1F
100
AcDbEntity
  8
Default
  6
Continuous
100
AcDbSpline
210
0.0
220
0.0
230
1.0
 70
     8
 71
     3
 72
    11
 73
     7
 74
     0
 42
0.0000000001
 43
0.0000000001
 40
0.0
 40
0.0
 40
0.0
 40
0.0
 40
1.000000462038209
 40
2.000000924076418
 40
3.000001386114628
 40
4.0
 40
4.0
 40
4.0
 40
4.0
 10
37.73270712399314
 20
16.24619303459999
 30
0.0
 10
37.89832865568528
 20
16.28384937319809
 30
0.0
 10
38.21847822848076
 20
16.41087556952492
 30
0.0
 10
38.60787265732334
 20
16.75211905663028
 30
0.0
 10
38.85092718375618
 20
17.21024988812803
 30
0.0
 10
38.88966872397397
 20
17.55381715772822
 30
0.0
 10
38.87636495739314
 20
17.72322927839999
 30
0.0
  0
ARC
  5
B1
330
1F
100
AcDbEntity
  8
Default
  6
Continuous
100
AcDbCircle
 10
37.32378841119936
 20
18.04471477282076
 30
0.0
 40
1.844422662115595
100
AcDbArc
 50
273.4607656865292
 51
282.8092270329037
  0
SPLINE
  5
B2
330
1F
100
AcDbEntity
  8
Default
  6
Continuous
100
AcDbSpline
210
0.0
220
0.0
230
1.0
 70
     8
 71
     3
 72
     8
 73
     4
 74
     0
 42
0.0000000001
 43
0.0000000001
 40
0.0
 40
0.0
 40
0.0
 40
0.0
 40
1.0
 40
1.0
 40
1.0
 40
1.0
 10
38.78222608719314
 20
17.70593707399999
 30
0.0
 10
38.86761040592137
 20
16.97351671129157
 30
0.0
 10
38.14938483405339
 20
16.41074274399964
 30
0.0
 10
37.47233343319313
 20
16.38909702139999
 30
0.0
  0
SPLINE
  5
B3
330
1F
100
AcDbEntity
  8
Default
  6
Continuous
100
AcDbSpline
210
0.0
220
0.0
230
1.0
 70
     8
 71
     3
 72
     8
 73
     4
 74
     0
 42
0.0000000001
 43
0.0000000001
 40
0.0
 40
0.0
 40
0.0
 40
0.0
 40
1.0
 40
1.0
 40
1.0
 40
1.0
 10
37.94345321519312
 20
25.05673236169999
 30
0.0
 10
38.22855707485247
 20
22.60710178017056
 30
0.0
 10
38.5103673085122
 20
20.15707651767848
 30
0.0
 10
38.78222608719314
 20
17.70593707399999
 30
0.0
  0
SPLINE
  5
B4
330
1F
100
AcDbEntity
  8
Default
  6
Continuous
100
AcDbSpline
210
0.0
220
0.0
230
1.0
 70
     8
 71
     3
 72
    12
 73
     8
 74
     0
 42
0.0000000001
 43
0.0000000001
 40
0.0
 40
0.0
 40
0.0
 40
0.0
 40
1.0
 40
2.0
 40
3.0
 40
4.0
 40
5.0
 40
5.0
 40
5.0
 40
5.0
 10
35.93243255609313
 20
26.80244458429999
 30
0.0
 10
36.12349009926454
 20
26.80536920915043
 30
0.0
 10
36.51780704874361
 20
26.75120920761933
 30
0.0
 10
37.04519708302912
 20
26.51350643624194
 30
0.0
 10
37.48865769993434
 20
26.14198153875995
 30
0.0
 10
37.80982889062004
 20
25.65976543362159
 30
0.0
 10
37.92129913442027
 20
25.24648434240972
 30
0.0
 10
37.94345321519312
 20
25.05673236169999
 30
0.0
  0
SPLINE
  5
B5
330
1F
100
AcDbEntity
  8
Default
  6
Continuous
100
AcDbSpline
210
0.0
220
0.0
230
1.0
 70
     8
 71
     3
 72
    16
 73
    12
 74
     0
 42
0.0000000001
 43
0.0000000001
 40
-0.0472673743191835
 40
-0.0472673743191835
 40
-0.0472673743191835
 40
-0.0472673743191835
 40
1.0
 40
2.0
 40
3.0
 40
4.0
 40
5.0
 40
6.0
 40
7.0
 40
8.0
 40
9.0
 40
9.0
 40
9.0
 40
9.0
 10
20.2719863423177
 20
34.10318715274661
 30
0.0
 10
20.68376302213601
 20
33.50122276808914
 30
0.0
 10
21.61843421947803
 20
32.42534214499362
 30
0.0
 10
22.89190210389383
 20
30.72855207046968
 30
0.0
 10
24.20078444443045
 20
29.11052528738853
 30
0.0
 10
25.61985490913453
 20
27.54994103188794
 30
0.0
 10
27.56742980207558
 20
26.66572399152299
 30
0.0
 10
29.67904445175763
 20
26.69332330331543
 30
0.0
 10
31.75862180669959
 20
26.72188381339753
 30
0.0
 10
33.84659321691736
 20
26.76839203072441
 30
0.0
 10
35.23690004095805
 20
26.79179767842917
 30
0.0
 10
35.93243255609313
 20
26.80244458429999
 30
0.0
  0
ARC
  5
B6
330
1F
100
AcDbEntity
  8
Default
100
AcDbCircle
 10
9.840076544806394
 20
-1.322532204970543
 30
0.0
 40
1.87403351473569
100
AcDbArc
 50
85.53711173208144
 51
108.6232216942283
  0
SPLINE
  5
B7
330
1F
100
AcDbEntity
  8
Default
  6
Continuous
100
AcDbSpline
210
0.0
220
0.0
230
1.0
 70
     8
 71
     3
 72
    12
 73
     8
 74
     0
 42
0.0000000001
 43
0.0000000001
 40
-5.0
 40
-5.0
 40
-5.0
 40
-5.0
 40
-4.0
 40
-3.0
 40
-2.0
 40
-1.0
 40
0.0
 40
0.0
 40
0.0
 40
0.0
 10
8.681505161239883
 20
16.37245964021631
 30
0.0
 10
8.729787967695856
 20
16.37248060516976
 30
0.0
 10
8.826521097734869
 20
16.3716413207652
 30
0.0
 10
8.970945814589626
 20
16.36772982090903
 30
0.0
 10
9.117061369328212
 20
16.35489542367457
 30
0.0
 10
9.253327394630347
 20
16.32753913713393
 30
0.0
 10
9.358451925901875
 20
16.28575273814082
 30
0.0
 10
9.346882346100003
 20
16.22842412919999
 30
0.0
  0
SPLINE
  5
B8
330
1F
100
AcDbEntity
  8
Default
  6
Continuous
100
AcDbSpline
210
0.0
220
0.0
230
1.0
 70
     8
 71
     3
 72
    15
 73
    11
 74
     0
 42
0.0000000001
 43
0.0000000001
 40
-8.0
 40
-8.0
 40
-8.0
 40
-8.0
 40
-7.0
 40
-6.0
 40
-5.0
 40
-4.0
 40
-3.0
 40
-2.0
 40
-1.0
 40
0.0
 40
0.0
 40
0.0
 40
0.0
 10
0.0
 20
16.13938121189999
 30
0.0
 10
0.3618926573582115
 20
16.13938268165253
 30
0.0
 10
1.085677649275553
 20
16.1425590304271
 30
0.0
 10
2.171273499714829
 20
16.15662786369434
 30
0.0
 10
3.256719320578796
 20
16.17947578231935
 30
0.0
 10
4.341959838268281
 20
16.21053438333035
 30
0.0
 10
5.426967025579216
 20
16.24879071583861
 30
0.0
 10
6.511717690851313
 20
16.2939267833485
 30
0.0
 10
7.596258084881512
 20
16.34295890946684
 30
0.0
 10
8.319574110213026
 20
16.37122687439761
 30
0.0
 10
8.681505161239883
 20
16.37245964021631
 30
0.0
  0
SPLINE
  5
B9
330
1F
100
AcDbEntity
  8
Default
  6
Continuous
100
AcDbSpline
210
0.0
220
0.0
230
1.0
 70
     8
 71
     3
 72
    15
 73
    11
 74
     0
 42
0.0000000001
 43
0.0000000001
 40
0.0
 40
0.0
 40
0.0
 40
0.0
 40
1.0
 40
2.0
 40
3.0
 40
4.0
 40
5.0
 40
6.0
 40
7.0
 40
8.0
 40
8.0
 40
8.0
 40
8.0
 10
-8.681505161239883
 20
16.37245964021631
 30
0.0
 10
-8.319574110213026
 20
16.37122687439761
 30
0.0
 10
-7.596258084881512
 20
16.34295890946684
 30
0.0
 10
-6.511717690851313
 20
16.2939267833485
 30
0.0
 10
-5.426967025579216
 20
16.24879071583861
 30
0.0
 10
-4.341959838268281
 20
16.21053438333035
 30
0.0
 10
-3.256719320578796
 20
16.17947578231935
 30
0.0
 10
-2.171273499714829
 20
16.15662786369434
 30
0.0
 10
-1.085677649275553
 20
16.1425590304271
 30
0.0
 10
-0.3618926573582115
 20
16.13938268165253
 30
0.0
 10
0.0
 20
16.13938121189999
 30
0.0
  0
SPLINE
  5
BA
330
1F
100
AcDbEntity
  8
Default
  6
Continuous
100
AcDbSpline
210
0.0
220
0.0
230
1.0
 70
     8
 71
     3
 72
    12
 73
     8
 74
     0
 42
0.0000000001
 43
0.0000000001
 40
0.0
 40
0.0
 40
0.0
 40
0.0
 40
1.0
 40
2.0
 40
3.0
 40
4.0
 40
5.0
 40
5.0
 40
5.0
 40
5.0
 10
-9.346882346100003
 20
16.22842412919999
 30
0.0
 10
-9.358451925901875
 20
16.28575273814082
 30
0.0
 10
-9.253327394630347
 20
16.32753913713393
 30
0.0
 10
-9.117061369328212
 20
16.35489542367457
 30
0.0
 10
-8.970945814589626
 20
16.36772982090903
 30
0.0
 10
-8.826521097734869
 20
16.3716413207652
 30
0.0
 10
-8.729787967695856
 20
16.37248060516976
 30
0.0
 10
-8.681505161239883
 20
16.37245964021631
 30
0.0
  0
SPLINE
  5
BB
330
1F
100
AcDbEntity
  8
Default
  6
Continuous
100
AcDbSpline
210
0.0
220
0.0
230
1.0
 70
     8
 71
     3
 72
    16
 73
    12
 74
     0
 42
0.0000000001
 43
0.0000000001
 40
0.0
 40
0.0
 40
0.0
 40
0.0
 40
1.0
 40
2.0
 40
3.0
 40
4.0
 40
5.0
 40
6.0
 40
7.0
 40
8.0
 40
9.0
 40
9.0
 40
9.0
 40
9.0
 10
0.0
 20
34.16592836269999
 30
0.0
 10
0.5761971861939799
 20
34.16587965543501
 30
0.0
 10
1.728684329268731
 20
34.14235424566434
 30
0.0
 10
3.452466455201971
 20
33.9971101714
 30
0.0
 10
5.153362999686067
 20
33.67124417131053
 30
0.0
 10
6.792033019049356
 20
33.10453102328565
 30
0.0
 10
8.320663621851068
 20
32.28385597325081
 30
0.0
 10
9.671296174308011
 20
31.19273486562567
 30
0.0
 10
10.81171187288062
 20
29.88709323237638
 30
0.0
 10
11.76592833898796
 20
28.44182585033083
 30
0.0
 10
12.29535716433654
 20
27.41719055949337
 30
0.0
 10
12.5802820875
 20
26.91651291819999
 30
0.0
  0
SPLINE
  5
BC
330
1F
100
AcDbEntity
  8
Default
  6
Continuous
100
AcDbSpline
210
0.0
220
0.0
230
1.0
 70
     8
 71
     3
 72
    16
 73
    12
 74
     0
 42
0.0000000001
 43
0.0000000001
 40
-9.0
 40
-9.0
 40
-9.0
 40
-9.0
 40
-8.0
 40
-7.0
 40
-6.0
 40
-5.0
 40
-4.0
 40
-3.0
 40
-2.0
 40
-1.0
 40
0.0
 40
0.0
 40
0.0
 40
0.0
 10
-12.5802820875
 20
26.91651291819999
 30
0.0
 10
-12.29535716433654
 20
27.41719055949337
 30
0.0
 10
-11.76592833898795
 20
28.44182585033083
 30
0.0
 10
-10.81171187288062
 20
29.88709323237638
 30
0.0
 10
-9.671296174308011
 20
31.19273486562567
 30
0.0
 10
-8.320663621851082
 20
32.28385597325081
 30
0.0
 10
-6.792033019049356
 20
33.10453102328565
 30
0.0
 10
-5.153362999686067
 20
33.67124417131053
 30
0.0
 10
-3.452466455201971
 20
33.9971101714
 30
0.0
 10
-1.728684329268731
 20
34.14235424566434
 30
0.0
 10
-0.5761971861939799
 20
34.16587965543501
 30
0.0
 10
0.0
 20
34.16592836269999
 30
0.0
  0
LINE
  5
BD
330
1F
100
AcDbEntity
  8
Default
  6
Continuous
100
AcDbLine
 10
6.983778856194547
 20
15.99461801273707
 30
0.0
 11
6.980775597800005
 21
15.92972984669999
 31
0.0
  0
LINE
  5
BE
330
1F
100
AcDbEntity
  8
Default
  6
Continuous
100
AcDbLine
 10
9.34070762588722
 20
16.19953140524544
 30
0.0
 11
6.983778856194547
 21
15.99461801273707
 31
0.0
  0
LINE
  5
BF
330
1F
100
AcDbEntity
  8
Default
  6
Continuous
100
AcDbLine
 10
9.346882417000003
 20
16.22842444769999
 30
0.0
 11
9.34070762588722
 21
16.19953140524544
 31
0.0
  0
SPLINE
  5
C0
330
1F
100
AcDbEntity
  8
Default
  6
Continuous
100
AcDbSpline
210
0.0
220
0.0
230
1.0
 70
     8
 71
     3
 72
    12
 73
     8
 74
     0
 42
0.0000000001
 43
0.0000000001
 40
4.999999999999999
 40
4.999999999999999
 40
4.999999999999999
 40
4.999999999999999
 40
5.999999500600333
 40
6.99999962545025
 40
7.999999750300167
 40
8.999999875150083
 40
10.0
 40
10.0
 40
10.0
 40
10.0
 10
9.347337968899993
 20
18.42443418999999
 30
0.0
 10
9.378220981526468
 20
18.28017399564347
 30
0.0
 10
9.431331736278622
 20
17.98953526720966
 30
0.0
 10
9.466947831749295
 20
17.54779145325555
 30
0.0
 10
9.466899362818552
 20
17.10502910393646
 30
0.0
 10
9.431052527915043
 20
16.66328586172279
 30
0.0
 10
9.37771477159653
 20
16.37269500099697
 30
0.0
 10
9.346882417000003
 20
16.22842444769999
 30
0.0
  0
SPLINE
  5
C1
330
1F
100
AcDbEntity
  8
Default
  6
Continuous
100
AcDbSpline
210
0.0
220
0.0
230
1.0
 70
     8
 71
     3
 72
    12
 73
     8
 74
     0
 42
0.0000000001
 43
0.0000000001
 40
-5.0
 40
-5.0
 40
-5.0
 40
-5.0
 40
-3.999999633248634
 40
-2.999999266497268
 40
-1.999998899745902
 40
-0.9999985329945356
 40
0.0
 40
0.0
 40
0.0
 40
0.0
 10
8.679731349391133
 20
18.54036656734386
 30
0.0
 10
8.726222351901797
 20
18.54036597343292
 30
0.0
 10
8.81930168471284
 20
18.53970308204508
 30
0.0
 10
8.958512841918079
 20
18.5356089052672
 30
0.0
 10
9.098625094025053
 20
18.5256976691847
 30
0.0
 10
9.232681818756177
 20
18.49785152527915
 30
0.0
 10
9.328930694999102
 20
18.47045917100485
 30
0.0
 10
9.347337968899993
 20
18.42443418999999
 30
0.0
  0
SPLINE
  5
C2
330
1F
100
AcDbEntity
  8
Default
  6
Continuous
100
AcDbSpline
210
0.0
220
0.0
230
1.0
 70
     8
 71
     3
 72
    16
 73
    12
 74
     0
 42
0.0000000001
 43
0.0000000001
 40
-9.0
 40
-9.0
 40
-9.0
 40
-9.0
 40
-8.0
 40
-7.0
 40
-6.0
 40
-5.0
 40
-4.0
 40
-3.0
 40
-2.0
 40
-1.0
 40
0.0
 40
0.0
 40
0.0
 40
0.0
 10
0.0
 20
18.30232014209999
 30
0.0
 10
0.3216229437421845
 20
18.3023204067337
 30
0.0
 10
0.9648686490486256
 20
18.3048869831177
 30
0.0
 10
1.929677749523407
 20
18.31623260013085
 30
0.0
 10
2.894373744012583
 20
18.33482357646396
 30
0.0
 10
3.858913915587053
 20
18.36018769877213
 30
0.0
 10
4.823276422991356
 20
18.39160534325712
 30
0.0
 10
5.787424732717682
 20
18.42894744291242
 30
0.0
 10
6.751374832770793
 20
18.47121758456672
 30
0.0
 10
7.715200795898639
 20
18.51556947562008
 30
0.0
 10
8.358075629723487
 20
18.53948231062957
 30
0.0
 10
8.679731349391133
 20
18.54036656734386
 30
0.0
  0
SPLINE
  5
C3
330
1F
100
AcDbEntity
  8
Default
  6
Continuous
100
AcDbSpline
210
0.0
220
0.0
230
1.0
 70
     8
 71
     3
 72
    16
 73
    12
 74
     0
 42
0.0000000001
 43
0.0000000001
 40
0.0
 40
0.0
 40
0.0
 40
0.0
 40
1.0
 40
2.0
 40
3.0
 40
4.0
 40
5.0
 40
6.0
 40
7.0
 40
8.0
 40
9.0
 40
9.0
 40
9.0
 40
9.0
 10
-8.679731349391147
 20
18.54036656734386
 30
0.0
 10
-8.358075629723487
 20
18.53948231062957
 30
0.0
 10
-7.715200795898639
 20
18.51556947562008
 30
0.0
 10
-6.751374832770793
 20
18.47121758456672
 30
0.0
 10
-5.787424732717682
 20
18.42894744291242
 30
0.0
 10
-4.823276422991356
 20
18.39160534325712
 30
0.0
 10
-3.858913915587053
 20
18.36018769877213
 30
0.0
 10
-2.894373744012583
 20
18.33482357646396
 30
0.0
 10
-1.929677749523407
 20
18.31623260013085
 30
0.0
 10
-0.9648686490486256
 20
18.3048869831177
 30
0.0
 10
-0.3216229437421845
 20
18.3023204067337
 30
0.0
 10
0.0
 20
18.30232014209999
 30
0.0
  0
SPLINE
  5
C4
330
1F
100
AcDbEntity
  8
Default
  6
Continuous
100
AcDbSpline
210
0.0
220
0.0
230
1.0
 70
     8
 71
     3
 72
    12
 73
     8
 74
     0
 42
0.0000000001
 43
0.0000000001
 40
0.0
 40
0.0
 40
0.0
 40
0.0
 40
0.9999985329945356
 40
1.999998899745902
 40
2.999999266497268
 40
3.999999633248634
 40
5.0
 40
5.0
 40
5.0
 40
5.0
 10
-9.347337968900007
 20
18.42443418999999
 30
0.0
 10
-9.328930694999102
 20
18.47045917100485
 30
0.0
 10
-9.232681818756177
 20
18.49785152527915
 30
0.0
 10
-9.098625094025053
 20
18.5256976691847
 30
0.0
 10
-8.958512841918093
 20
18.5356089052672
 30
0.0
 10
-8.81930168471284
 20
18.53970308204508
 30
0.0
 10
-8.726222351901797
 20
18.54036597343292
 30
0.0
 10
-8.679731349391147
 20
18.54036656734386
 30
0.0
  0
SPLINE
  5
C5
330
1F
100
AcDbEntity
  8
Default
  6
Continuous
100
AcDbSpline
210
0.0
220
0.0
230
1.0
 70
     8
 71
     3
 72
    12
 73
     8
 74
     0
 42
0.0000000001
 43
0.0000000001
 40
-10.0
 40
-10.0
 40
-10.0
 40
-10.0
 40
-8.999999875150083
 40
-7.999999750300167
 40
-6.99999962545025
 40
-5.999999500600333
 40
-4.999999999999999
 40
-4.999999999999999
 40
-4.999999999999999
 40
-4.999999999999999
 10
-9.346882417000003
 20
16.22842444769999
 30
0.0
 10
-9.37771477159653
 20
16.37269500099697
 30
0.0
 10
-9.431052527915043
 20
16.66328586172279
 30
0.0
 10
-9.466899362818552
 20
17.10502910393646
 30
0.0
 10
-9.466947831749295
 20
17.54779145325555
 30
0.0
 10
-9.431331736278622
 20
17.98953526720966
 30
0.0
 10
-9.378220981526468
 20
18.28017399564347
 30
0.0
 10
-9.347337968900007
 20
18.42443418999999
 30
0.0
  0
LINE
  5
C6
330
1F
100
AcDbEntity
  8
Default
  6
Continuous
100
AcDbLine
 10
-9.34070762588722
 20
16.19953140524544
 30
0.0
 11
-9.346882417000003
 21
16.22842444769999
 31
0.0
  0
LINE
  5
C7
330
1F
100
AcDbEntity
  8
Default
  6
Continuous
100
AcDbLine
 10
-6.983778856194547
 20
15.99461801273707
 30
0.0
 11
-9.34070762588722
 21
16.19953140524544
 31
0.0
  0
LINE
  5
C8
330
1F
100
AcDbEntity
  8
Default
  6
Continuous
100
AcDbLine
 10
-6.980775597800005
 20
15.92972984669999
 30
0.0
 11
-6.983778856194547
 21
15.99461801273707
 31
0.0
  0
SPLINE
  5
C9
330
1F
100
AcDbEntity
  8
Default
  6
Continuous
100
AcDbSpline
210
0.0
220
0.0
230
1.0
 70
     8
 71
     3
 72
    13
 73
     9
 74
     0
 42
0.0000000001
 43
0.0000000001
 40
0.0
 40
0.0
 40
0.0
 40
0.0
 40
1.0
 40
2.0
 40
3.0
 40
4.0
 40
5.0
 40
6.0
 40
6.0
 40
6.0
 40
6.0
 10
-10.52880738117865
 20
16.03507498031951
 30
0.0
 10
-10.39115291048874
 20
15.97674982020045
 30
0.0
 10
-10.10529607095071
 20
15.88791512827684
 30
0.0
 10
-9.667261591271739
 20
15.7923631762375
 30
0.0
 10
-9.225307149122386
 20
15.71743024293856
 30
0.0
 10
-8.781268058125718
 20
15.65642841191973
 30
0.0
 10
-8.336350068753262
 20
15.60236565039393
 30
0.0
 10
-8.03918252215577
 20
15.57120483919847
 30
0.0
 10
-7.890511790899993
 20
15.55653486519999
 30
0.0
  0
SPLINE
  5
CA
330
1F
100
AcDbEntity
  8
Default
  6
Continuous
100
AcDbSpline
210
0.0
220
0.0
230
1.0
 70
     8
 71
     3
 72
    11
 73
     7
 74
     0
 42
0.0000000001
 43
0.0000000001
 40
0.0
 40
0.0
 40
0.0
 40
0.0
 40
1.0
 40
2.0
 40
3.0
 40
4.0
 40
4.0
 40
4.0
 40
4.0
 10
-10.9128347151
 20
16.36900642004999
 30
0.0
 10
-10.8939811877768
 20
16.32907741312011
 30
0.0
 10
-10.84714787823688
 20
16.25550281124761
 30
0.0
 10
-10.75438982717333
 20
16.16359484239437
 30
0.0
 10
-10.64646859857984
 20
16.09036885571691
 30
0.0
 10
-10.56887221643433
 20
16.05163742936238
 30
0.0
 10
-10.52880738117865
 20
16.03507498031951
 30
0.0
  0
SPLINE
  5
CB
330
1F
100
AcDbEntity
  8
Default
  6
Continuous
100
AcDbSpline
210
0.0
220
0.0
230
1.0
 70
     8
 71
     3
 72
    30
 73
    26
 74
     0
 42
0.0000000001
 43
0.0000000001
 40
0.0
 40
0.0
 40
0.0
 40
0.0
 40
1.0
 40
2.0
 40
3.0
 40
4.0
 40
5.0
 40
6.0
 40
7.0
 40
8.0
 40
9.0
 40
10.0
 40
11.0
 40
12.0
 40
13.0
 40
14.0
 40
15.0
 40
16.0
 40
17.0
 40
18.0
 40
19.0
 40
20.0
 40
21.0
 40
22.0
 40
23.0
 40
23.0
 40
23.0
 40
23.0
 10
-13.5046336051
 20
26.81012217889999
 30
0.0
 10
-13.5608536046221
 20
26.66235641041446
 30
0.0
 10
-13.515494752131
 20
26.34427892910794
 30
0.0
 10
-13.41254849342828
 20
25.8900259833633
 30
0.0
 10
-13.31434991973538
 20
25.43046467439408
 30
0.0
 10
-13.21279939386007
 20
24.97277698308794
 30
0.0
 10
-13.10737140028229
 20
24.51566019233358
 30
0.0
 10
-12.99932610116208
 20
24.05923964824696
 30
0.0
 10
-12.88946604937129
 20
23.60323072705792
 30
0.0
 10
-12.77858055612391
 20
23.14747661987851
 30
0.0
 10
-12.66706731346321
 20
22.69187400274749
 30
0.0
 10
-12.55489595457416
 20
22.23643343232756
 30
0.0
 10
-12.44211393479367
 20
21.78114372940819
 30
0.0
 10
-12.32879188880564
 20
21.32598819765366
 30
0.0
 10
-12.21499764953195
 20
20.87095017929561
 30
0.0
 10
-12.10079271982966
 20
20.41601560439742
 30
0.0
 10
-11.98624481702859
 20
19.96116694472689
 30
0.0
 10
-11.8710586299682
 20
19.50647908136673
 30
0.0
 10
-11.7545769753761
 20
19.05212124242819
 30
0.0
 10
-11.63564252326145
 20
18.59839702002857
 30
0.0
 10
-11.5127716528505
 20
18.14571859925654
 30
0.0
 10
-11.38399722995106
 20
17.69467898507475
 30
0.0
 10
-11.24664545820325
 20
17.24614866200225
 30
0.0
 10
-11.09516356311288
 20
16.80215677780203
 30
0.0
 10
-10.97918821320334
 20
16.51155058835055
 30
0.0
 10
-10.9128347151
 20
16.36900642004999
 30
0.0
  0
SPLINE
  5
CC
330
1F
100
AcDbEntity
  8
Default
  6
Continuous
100
AcDbSpline
210
0.0
220
0.0
230
1.0
 70
     8
 71
     3
 72
     8
 73
     4
 74
     0
 42
0.0000000001
 43
0.0000000001
 40
-1.0
 40
-1.0
 40
-1.0
 40
-1.0
 40
0.0
 40
0.0
 40
0.0
 40
0.0
 10
-13.4719980847
 20
26.83292550459999
 30
0.0
 10
-13.48504054102051
 20
26.83047334335582
 30
0.0
 10
-13.49991445804496
 20
26.8225257434164
 30
0.0
 10
-13.5046336051
 20
26.81012217889999
 30
0.0
  0
ARC
  5
CD
330
1F
100
AcDbEntity
  8
Default
  6
Continuous
100
AcDbCircle
 10
-12.56849887242839
 20
22.02743033591798
 30
0.0
 40
4.889692694106809
100
AcDbArc
 50
76.55097237150834
 51
100.6480891496118
  0
SPLINE
  5
CE
330
1F
100
AcDbEntity
  8
Default
  6
Continuous
100
AcDbSpline
210
0.0
220
0.0
230
1.0
 70
     8
 71
     3
 72
    18
 73
    14
 74
     0
 42
0.0000000001
 43
0.0000000001
 40
0.0
 40
0.0
 40
0.0
 40
0.0
 40
1.0
 40
2.0
 40
3.0
 40
4.0
 40
5.0
 40
6.0
 40
7.0
 40
8.0
 40
9.0
 40
10.0
 40
11.0
 40
11.0
 40
11.0
 40
11.0
 10
0.0
 20
26.89822568659999
 30
0.0
 10
-0.3458464535840307
 20
26.89822630696568
 30
0.0
 10
-1.037535525752105
 20
26.89248404833728
 30
0.0
 10
-2.074827227856815
 20
26.86878151357054
 30
0.0
 10
-3.111739243567328
 20
26.83227715282563
 30
0.0
 10
-4.148197976593764
 20
26.78457681210708
 30
0.0
 10
-5.184171165888188
 20
26.72778041882114
 30
0.0
 10
-6.219809752922075
 20
26.66388243060899
 30
0.0
 10
-7.254864653737982
 20
26.59574664745556
 30
0.0
 10
-8.290812924378727
 20
26.52361423304678
 30
0.0
 10
-9.323483567152294
 20
26.46736692264828
 30
0.0
 10
-10.37230713437525
 20
26.41741674849523
 30
0.0
 10
-11.09594415218997
 20
26.70284892405386
 30
0.0
 10
-11.43125308659999
 20
26.78303404789999
 30
0.0
  0
SPLINE
  5
CF
330
1F
100
AcDbEntity
  8
Default
  6
Continuous
100
AcDbSpline
210
0.0
220
0.0
230
1.0
 70
     8
 71
     3
 72
    18
 73
    14
 74
     0
 42
0.0000000001
 43
0.0000000001
 40
-11.0
 40
-11.0
 40
-11.0
 40
-11.0
 40
-10.0
 40
-9.0
 40
-8.0
 40
-7.0
 40
-6.0
 40
-5.0
 40
-4.0
 40
-3.0
 40
-2.0
 40
-1.0
 40
0.0
 40
0.0
 40
0.0
 40
0.0
 10
11.43125308659999
 20
26.78303404789999
 30
0.0
 10
11.09594415218997
 20
26.70284892405386
 30
0.0
 10
10.37230713437525
 20
26.41741674849523
 30
0.0
 10
9.323483567152294
 20
26.46736692264828
 30
0.0
 10
8.290812924378727
 20
26.52361423304678
 30
0.0
 10
7.254864653737982
 20
26.59574664745556
 30
0.0
 10
6.219809752922075
 20
26.66388243060899
 30
0.0
 10
5.184171165888188
 20
26.72778041882114
 30
0.0
 10
4.148197976593764
 20
26.78457681210708
 30
0.0
 10
3.111739243567328
 20
26.83227715282563
 30
0.0
 10
2.074827227856815
 20
26.86878151357054
 30
0.0
 10
1.037535525752105
 20
26.89248404833728
 30
0.0
 10
0.3458464535840307
 20
26.89822630696568
 30
0.0
 10
0.0
 20
26.89822568659999
 30
0.0
  0
ARC
  5
D0
330
1F
100
AcDbEntity
  8
Default
  6
Continuous
100
AcDbCircle
 10
12.56849887242839
 20
22.02743033591798
 30
0.0
 40
4.889692694106809
100
AcDbArc
 50
79.35191085038815
 51
103.4490276284916
  0
SPLINE
  5
D1
330
1F
100
AcDbEntity
  8
Default
  6
Continuous
100
AcDbSpline
210
0.0
220
0.0
230
1.0
 70
     8
 71
     3
 72
     8
 73
     4
 74
     0
 42
0.0000000001
 43
0.0000000001
 40
0.0
 40
0.0
 40
0.0
 40
0.0
 40
1.0
 40
1.0
 40
1.0
 40
1.0
 10
13.5046336051
 20
26.81012217889999
 30
0.0
 10
13.49991445804496
 20
26.8225257434164
 30
0.0
 10
13.48504054102051
 20
26.83047334335582
 30
0.0
 10
13.4719980847
 20
26.83292550459999
 30
0.0
  0
SPLINE
  5
D2
330
1F
100
AcDbEntity
  8
Default
  6
Continuous
100
AcDbSpline
210
0.0
220
0.0
230
1.0
 70
     8
 71
     3
 72
    30
 73
    26
 74
     0
 42
0.0000000001
 43
0.0000000001
 40
-23.0
 40
-23.0
 40
-23.0
 40
-23.0
 40
-22.0
 40
-21.0
 40
-20.0
 40
-19.0
 40
-18.0
 40
-17.0
 40
-16.0
 40
-15.0
 40
-14.0
 40
-13.0
 40
-12.0
 40
-11.0
 40
-10.0
 40
-9.0
 40
-8.0
 40
-7.0
 40
-6.0
 40
-5.0
 40
-4.0
 40
-3.0
 40
-2.0
 40
-1.0
 40
0.0
 40
0.0
 40
0.0
 40
0.0
 10
10.9128347151
 20
16.36900642004999
 30
0.0
 10
10.97918821320333
 20
16.51155058835055
 30
0.0
 10
11.09516356311288
 20
16.80215677780203
 30
0.0
 10
11.24664545820325
 20
17.24614866200225
 30
0.0
 10
11.38399722995106
 20
17.69467898507475
 30
0.0
 10
11.5127716528505
 20
18.14571859925654
 30
0.0
 10
11.63564252326145
 20
18.59839702002857
 30
0.0
 10
11.7545769753761
 20
19.05212124242819
 30
0.0
 10
11.8710586299682
 20
19.50647908136673
 30
0.0
 10
11.98624481702859
 20
19.96116694472689
 30
0.0
 10
12.10079271982964
 20
20.41601560439742
 30
0.0
 10
12.21499764953195
 20
20.87095017929561
 30
0.0
 10
12.32879188880564
 20
21.32598819765366
 30
0.0
 10
12.44211393479368
 20
21.78114372940819
 30
0.0
 10
12.55489595457416
 20
22.23643343232756
 30
0.0
 10
12.66706731346321
 20
22.69187400274749
 30
0.0
 10
12.77858055612391
 20
23.14747661987851
 30
0.0
 10
12.88946604937128
 20
23.60323072705792
 30
0.0
 10
12.99932610116208
 20
24.05923964824696
 30
0.0
 10
13.10737140028229
 20
24.51566019233358
 30
0.0
 10
13.21279939386007
 20
24.97277698308794
 30
0.0
 10
13.31434991973539
 20
25.43046467439408
 30
0.0
 10
13.41254849342828
 20
25.8900259833633
 30
0.0
 10
13.515494752131
 20
26.34427892910794
 30
0.0
 10
13.5608536046221
 20
26.66235641041446
 30
0.0
 10
13.5046336051
 20
26.81012217889999
 30
0.0
  0
SPLINE
  5
D3
330
1F
100
AcDbEntity
  8
Default
  6
Continuous
100
AcDbSpline
210
0.0
220
0.0
230
1.0
 70
     8
 71
     3
 72
    11
 73
     7
 74
     0
 42
0.0000000001
 43
0.0000000001
 40
-4.0
 40
-4.0
 40
-4.0
 40
-4.0
 40
-3.0
 40
-2.0
 40
-1.0
 40
0.0
 40
0.0
 40
0.0
 40
0.0
 10
10.52880738117865
 20
16.03507498031951
 30
0.0
 10
10.56887221643433
 20
16.05163742936238
 30
0.0
 10
10.64646859857984
 20
16.09036885571691
 30
0.0
 10
10.75438982717331
 20
16.16359484239437
 30
0.0
 10
10.84714787823688
 20
16.25550281124761
 30
0.0
 10
10.8939811877768
 20
16.32907741312011
 30
0.0
 10
10.9128347151
 20
16.36900642004999
 30
0.0
  0
SPLINE
  5
D4
330
1F
100
AcDbEntity
  8
Default
  6
Continuous
100
AcDbSpline
210
0.0
220
0.0
230
1.0
 70
     8
 71
     3
 72
    13
 73
     9
 74
     0
 42
0.0000000001
 43
0.0000000001
 40
-6.0
 40
-6.0
 40
-6.0
 40
-6.0
 40
-5.0
 40
-4.0
 40
-3.0
 40
-2.0
 40
-1.0
 40
0.0
 40
0.0
 40
0.0
 40
0.0
 10
7.890511790899993
 20
15.55653486519999
 30
0.0
 10
8.03918252215577
 20
15.57120483919847
 30
0.0
 10
8.336350068753262
 20
15.60236565039393
 30
0.0
 10
8.781268058125718
 20
15.65642841191973
 30
0.0
 10
9.225307149122386
 20
15.71743024293856
 30
0.0
 10
9.667261591271753
 20
15.7923631762375
 30
0.0
 10
10.10529607095071
 20
15.88791512827684
 30
0.0
 10
10.39115291048874
 20
15.97674982020045
 30
0.0
 10
10.52880738117865
 20
16.03507498031951
 30
0.0
  0
SPLINE
  5
D5
330
1F
100
AcDbEntity
  8
Default
  6
Continuous
100
AcDbSpline
210
0.0
220
0.0
230
1.0
 70
     8
 71
     3
 72
    16
 73
    12
 74
     0
 42
0.0000000001
 43
0.0000000001
 40
0.0
 40
0.0
 40
0.0
 40
0.0
 40
1.0
 40
2.0
 40
3.0
 40
4.0
 40
5.0
 40
6.0
 40
7.0
 40
8.0
 40
9.0
 40
9.0
 40
9.0
 40
9.0
 10
9.674808530500002
 20
16.21142365929999
 30
0.0
 10
9.746381139203166
 20
16.60439157054075
 30
0.0
 10
9.927113757956661
 20
17.38347260758085
 30
0.0
 10
10.14959323382698
 20
18.5617111433638
 30
0.0
 10
10.37646655731503
 20
19.73914925451614
 30
0.0
 10
10.60199317947634
 20
20.91670878704102
 30
0.0
 10
10.8285129057345
 20
22.09458382185686
 30
0.0
 10
11.05240670838656
 20
23.27107433909198
 30
0.0
 10
11.28581121206423
 20
24.45278800137343
 30
0.0
 10
11.48379905775084
 20
25.61499476086076
 30
0.0
 10
11.58794577995644
 20
26.45687919208976
 30
0.0
 10
11.43125308659999
 20
26.78303404789999
 30
0.0
  0
LINE
  5
D6
330
1F
100
AcDbEntity
  8
Default
  6
Continuous
100
AcDbLine
 10
9.673632015481942
 20
16.20496402819854
 30
0.0
 11
9.674808530500002
 21
16.21142365929999
 31
0.0
  0
LINE
  5
D7
330
1F
100
AcDbEntity
  8
Default
  6
Continuous
100
AcDbLine
 10
9.447822487500005
 20
16.23224817729999
 30
0.0
 11
9.672812661039202
 21
16.23227306547173
 31
0.0
  0
LINE
  5
D8
330
1F
100
AcDbEntity
  8
Default
  6
Continuous
100
AcDbLine
 10
9.347247272399997
 20
16.22398409709999
 30
0.0
 11
9.447822487500005
 21
16.23224817729999
 31
0.0
  0
SPLINE
  5
D9
330
1F
100
AcDbEntity
  8
Default
  6
Continuous
100
AcDbSpline
210
0.0
220
0.0
230
1.0
 70
     8
 71
     3
 72
    26
 73
    22
 74
     0
 42
0.0000000001
 43
0.0000000001
 40
0.0
 40
0.0
 40
0.0
 40
0.0
 40
0.1240492064
 40
0.2380557006
 40
0.3422381351
 40
0.4368261255
 40
0.5221303344
 40
0.5984934614
 40
0.6662828387
 40
0.7259000248
 40
0.7778146866
 40
0.822568578
 40
0.8425110718
 40
0.8609795111
 40
0.8780859866
 40
0.8940293271
 40
0.9234566989
 40
0.937246888
 40
0.9505951712
 40
0.9760742639
 40
1.0
 40
1.0
 40
1.0
 40
1.0
 10
7.727240997899997
 20
15.71474163159999
 30
0.0
 10
7.785981816700001
 20
15.72194949889999
 30
0.0
 10
7.898660641099994
 20
15.73617179689999
 30
0.0
 10
8.0604869127
 20
15.75788730469999
 30
0.0
 10
8.208196720399997
 20
15.77907798049999
 30
0.0
 10
8.342132893200002
 20
15.79979905609999
 30
0.0
 10
8.462697244400005
 20
15.82008170369999
 30
0.0
 10
8.570351825999992
 20
15.83996151519999
 30
0.0
 10
8.665599840799999
 20
15.85945186969999
 30
0.0
 10
8.748995843000003
 20
15.87857379609999
 30
0.0
 10
8.8211817344
 20
15.89728758409999
 30
0.0
 10
8.874530480800004
 20
15.91311926969999
 30
0.0
 10
8.912186172099993
 20
15.92562855309999
 30
0.0
 10
8.937131311000002
 20
15.93453857309999
 30
0.0
 10
8.960072284399999
 20
15.94336677749999
 30
0.0
 10
8.987620237900003
 20
15.95475420289999
 30
0.0
 10
9.013387900300003
 20
15.96628781529999
 30
0.0
 10
9.037759715500002
 20
15.97787661489999
 30
0.0
 10
9.060318782700008
 20
15.98888835389999
 30
0.0
 10
9.087013871600007
 20
16.00244634259999
 30
0.0
 10
9.107778655299995
 20
16.01360419659999
 30
0.0
 10
9.1177628959
 20
16.01913642129999
 30
0.0
  0
SPLINE
  5
DA
330
1F
100
AcDbEntity
  8
Default
  6
Continuous
100
AcDbSpline
210
0.0
220
0.0
230
1.0
 70
     8
 71
     3
 72
    16
 73
    12
 74
     0
 42
0.0000000001
 43
0.0000000001
 40
0.0
 40
0.0
 40
0.0
 40
0.0
 40
1.0
 40
2.0
 40
3.0
 40
4.0
 40
5.0
 40
6.0
 40
7.0
 40
8.0
 40
9.0
 40
9.0
 40
9.0
 40
9.0
 10
-9.674808530500002
 20
16.21142365929999
 30
0.0
 10
-9.746381139203166
 20
16.60439157054075
 30
0.0
 10
-9.927113757956661
 20
17.38347260758085
 30
0.0
 10
-10.14959323382698
 20
18.5617111433638
 30
0.0
 10
-10.37646655731503
 20
19.73914925451614
 30
0.0
 10
-10.60199317947634
 20
20.91670878704102
 30
0.0
 10
-10.8285129057345
 20
22.09458382185686
 30
0.0
 10
-11.05240670838656
 20
23.27107433909198
 30
0.0
 10
-11.28581121206423
 20
24.45278800137343
 30
0.0
 10
-11.48379905775084
 20
25.61499476086076
 30
0.0
 10
-11.58794577995644
 20
26.45687919208976
 30
0.0
 10
-11.43125308659999
 20
26.78303404789999
 30
0.0
  0
LINE
  5
DB
330
1F
100
AcDbEntity
  8
Default
  6
Continuous
100
AcDbLine
 10
-9.673632015481942
 20
16.20496402819854
 30
0.0
 11
-9.674808530500002
 21
16.21142365929999
 31
0.0
  0
LINE
  5
DC
330
1F
100
AcDbEntity
  8
Default
  6
Continuous
100
AcDbLine
 10
-9.447822487500005
 20
16.23224817729999
 30
0.0
 11
-9.672812661039188
 21
16.23227306547173
 31
0.0
  0
LINE
  5
DD
330
1F
100
AcDbEntity
  8
Default
  6
Continuous
100
AcDbLine
 10
-9.347247272399997
 20
16.22398409709999
 30
0.0
 11
-9.447822487500005
 21
16.23224817729999
 31
0.0
  0
LINE
  5
DE
330
1F
100
AcDbEntity
  8
Default
  6
Continuous
100
AcDbLine
 10
-1.561258011121652
 20
14.91789030029999
 30
0.0
 11
1.561258011121652
 21
14.91789030029999
 31
0.0
  0
SPLINE
  5
DF
330
1F
100
AcDbEntity
  8
Default
  6
Continuous
100
AcDbSpline
210
0.0
220
0.0
230
1.0
 70
     8
 71
     3
 72
    11
 73
     7
 74
     0
 42
0.0000000001
 43
0.0000000001
 40
0.0
 40
0.0
 40
0.0
 40
0.0
 40
1.0
 40
2.0
 40
3.0
 40
4.0
 40
4.0
 40
4.0
 40
4.0
 10
9.062053390905916
 20
0.1481271952008498
 30
0.0
 10
9.0662791145552
 20
0.1098461875086301
 30
0.0
 10
9.112534896202959
 20
0.0415028221754241
 30
0.0
 10
9.224342972618885
 20
0.0066622577881432
 30
0.0
 10
9.338445723900932
 20
-0.0023139795559359
 30
0.0
 10
9.414873806555633
 20
0.0014995216415343
 30
0.0
 10
9.452674930378421
 20
0.0066493900347027
 30
0.0
  0
LINE
  5
E0
330
1F
100
AcDbEntity
  8
Default
  6
Continuous
100
AcDbLine
 10
7.045068335300002
 20
13.98346406059999
 30
0.0
 11
9.062053390905916
 21
0.1481271952008498
 31
0.0
  0
SPLINE
  5
E1
330
1F
100
AcDbEntity
  8
Default
  6
Continuous
100
AcDbSpline
210
0.0
220
0.0
230
1.0
 70
     8
 71
     3
 72
    10
 73
     6
 74
     0
 42
0.0000000001
 43
0.0000000001
 40
-3.0
 40
-3.0
 40
-3.0
 40
-3.0
 40
-2.0
 40
-1.0
 40
0.0
 40
0.0
 40
0.0
 40
0.0
 10
6.416956210599992
 20
14.57483318699999
 30
0.0
 10
6.521236445421636
 20
14.57187256114144
 30
0.0
 10
6.729325798697914
 20
14.51476374484873
 30
0.0
 10
6.959607781808231
 20
14.28856562860764
 30
0.0
 10
7.030007607269553
 20
14.08666896306176
 30
0.0
 10
7.045068335300002
 20
13.98346406059999
 30
0.0
  0
LINE
  5
E2
330
1F
100
AcDbEntity
  8
Default
  6
Continuous
100
AcDbLine
 10
2.612482429300002
 20
14.69107037389999
 30
0.0
 11
6.416956210599992
 21
14.57483318699999
 31
0.0
  0
SPLINE
  5
E3
330
1F
100
AcDbEntity
  8
Default
  6
Continuous
100
AcDbSpline
210
0.0
220
0.0
230
1.0
 70
     8
 71
     3
 72
    14
 73
    10
 74
     0
 42
0.0000000001
 43
0.0000000001
 40
-7.0
 40
-7.0
 40
-7.0
 40
-7.0
 40
-6.0
 40
-5.0
 40
-4.0
 40
-3.0
 40
-2.0
 40
-1.0
 40
0.0
 40
0.0
 40
0.0
 40
0.0
 10
1.502453825184318
 20
15.08120983383586
 30
0.0
 10
1.509331851882834
 20
15.02016271193272
 30
0.0
 10
1.553656918928667
 20
14.90206760847141
 30
0.0
 10
1.695643854718597
 20
14.77512136498338
 30
0.0
 10
1.877433950281826
 20
14.73142318161468
 30
0.0
 10
2.060708044623652
 20
14.71706196708392
 30
0.0
 10
2.244536759049026
 20
14.70535653223113
 30
0.0
 10
2.428461899945319
 20
14.6972317793774
 30
0.0
 10
2.551138626668617
 20
14.69293755167161
 30
0.0
 10
2.612482429300002
 20
14.69107037389999
 30
0.0
  0
SPLINE
  5
E4
330
1F
100
AcDbEntity
  8
Default
  6
Continuous
100
AcDbSpline
210
0.0
220
0.0
230
1.0
 70
     8
 71
     3
 72
    11
 73
     7
 74
     0
 42
0.0000000001
 43
0.0000000001
 40
0.0
 40
0.0
 40
0.0
 40
0.0
 40
1.0
 40
2.0
 40
3.0
 40
4.0
 40
4.0
 40
4.0
 40
4.0
 10
-9.062053390905916
 20
0.1481271952008498
 30
0.0
 10
-9.066279114555186
 20
0.1098461875086301
 30
0.0
 10
-9.112534896202959
 20
0.0415028221754241
 30
0.0
 10
-9.224342972618885
 20
0.0066622577881432
 30
0.0
 10
-9.338445723900932
 20
-0.0023139795559359
 30
0.0
 10
-9.414873806555633
 20
0.0014995216415343
 30
0.0
 10
-9.452674930378421
 20
0.0066493900347027
 30
0.0
  0
LINE
  5
E5
330
1F
100
AcDbEntity
  8
Default
  6
Continuous
100
AcDbLine
 10
-7.045068335300002
 20
13.98346406059999
 30
0.0
 11
-9.062053390905916
 21
0.1481271952008498
 31
0.0
  0
SPLINE
  5
E6
330
1F
100
AcDbEntity
  8
Default
  6
Continuous
100
AcDbSpline
210
0.0
220
0.0
230
1.0
 70
     8
 71
     3
 72
    10
 73
     6
 74
     0
 42
0.0000000001
 43
0.0000000001
 40
-3.0
 40
-3.0
 40
-3.0
 40
-3.0
 40
-2.0
 40
-1.0
 40
0.0
 40
0.0
 40
0.0
 40
0.0
 10
-6.416956210599992
 20
14.57483318699999
 30
0.0
 10
-6.521236445421636
 20
14.57187256114144
 30
0.0
 10
-6.729325798697914
 20
14.51476374484873
 30
0.0
 10
-6.959607781808231
 20
14.28856562860764
 30
0.0
 10
-7.030007607269553
 20
14.08666896306176
 30
0.0
 10
-7.045068335300002
 20
13.98346406059999
 30
0.0
  0
LINE
  5
E7
330
1F
100
AcDbEntity
  8
Default
  6
Continuous
100
AcDbLine
 10
-2.612482429300002
 20
14.69107037389999
 30
0.0
 11
-6.416956210599992
 21
14.57483318699999
 31
0.0
  0
SPLINE
  5
E8
330
1F
100
AcDbEntity
  8
Default
  6
Continuous
100
AcDbSpline
210
0.0
220
0.0
230
1.0
 70
     8
 71
     3
 72
    14
 73
    10
 74
     0
 42
0.0000000001
 43
0.0000000001
 40
-7.0
 40
-7.0
 40
-7.0
 40
-7.0
 40
-6.0
 40
-5.0
 40
-4.0
 40
-3.0
 40
-2.0
 40
-1.0
 40
0.0
 40
0.0
 40
0.0
 40
0.0
 10
-1.502453825184318
 20
15.08120983383586
 30
0.0
 10
-1.509331851882834
 20
15.02016271193272
 30
0.0
 10
-1.553656918928667
 20
14.90206760847141
 30
0.0
 10
-1.695643854718597
 20
14.77512136498338
 30
0.0
 10
-1.877433950281826
 20
14.73142318161468
 30
0.0
 10
-2.060708044623652
 20
14.71706196708392
 30
0.0
 10
-2.244536759049026
 20
14.70535653223113
 30
0.0
 10
-2.428461899945319
 20
14.6972317793774
 30
0.0
 10
-2.551138626668617
 20
14.69293755167161
 30
0.0
 10
-2.612482429300002
 20
14.69107037389999
 30
0.0
  0
LINE
  5
E9
330
1F
100
AcDbEntity
  8
Default
  6
Continuous
100
AcDbLine
 10
-7.543837343999996
 20
14.50300918629999
 30
0.0
 11
-9.2801668149
 21
0.1343579366999919
 31
0.0
  0
SPLINE
  5
EA
330
1F
100
AcDbEntity
  8
Default
  6
Continuous
100
AcDbSpline
210
0.0
220
0.0
230
1.0
 70
     8
 71
     3
 72
    10
 73
     6
 74
     0
 42
0.0000000001
 43
0.0000000001
 40
0.0
 40
0.0
 40
0.0
 40
0.0
 40
1.0
 40
2.0
 40
3.0
 40
3.0
 40
3.0
 40
3.0
 10
-7.123490739700003
 20
15.18434418329999
 30
0.0
 10
-7.221909310392576
 20
15.17881522199606
 30
0.0
 10
-7.367194394000805
 20
15.03908655651358
 30
0.0
 10
-7.491278745344985
 20
14.78379107604854
 30
0.0
 10
-7.532450893632117
 20
14.59690261201236
 30
0.0
 10
-7.543837343999996
 20
14.50300918629999
 30
0.0
  0
SPLINE
  5
EB
330
1F
100
AcDbEntity
  8
Default
  6
Continuous
100
AcDbSpline
210
0.0
220
0.0
230
1.0
 70
     8
 71
     3
 72
    10
 73
     6
 74
     0
 42
0.0000000001
 43
0.0000000001
 40
0.0
 40
0.0
 40
0.0
 40
0.0
 40
1.0
 40
2.0
 40
3.0
 40
3.0
 40
3.0
 40
3.0
 10
-3.682624604899999
 20
15.08122798059999
 30
0.0
 10
-4.06518402860857
 20
15.07946171197447
 30
0.0
 10
-4.829962646333485
 20
15.10008929775229
 30
0.0
 10
-5.976663426671834
 20
15.14396877437537
 30
0.0
 10
-6.741227904422956
 20
15.17052632059701
 30
0.0
 10
-7.123490739700003
 20
15.18434418329999
 30
0.0
  0
LINE
  5
EC
330
1F
100
AcDbEntity
  8
Default
  6
Continuous
100
AcDbLine
 10
3.682624604899999
 20
15.08122798059999
 30
0.0
 11
-3.682624604899999
 21
15.08122798059999
 31
0.0
  0
SPLINE
  5
ED
330
1F
100
AcDbEntity
  8
Default
  6
Continuous
100
AcDbSpline
210
0.0
220
0.0
230
1.0
 70
     8
 71
     3
 72
    10
 73
     6
 74
     0
 42
0.0000000001
 43
0.0000000001
 40
-3.0
 40
-3.0
 40
-3.0
 40
-3.0
 40
-2.0
 40
-1.0
 40
0.0
 40
0.0
 40
0.0
 40
0.0
 10
7.123490739700003
 20
15.18434418329999
 30
0.0
 10
6.741227904422956
 20
15.17052632059701
 30
0.0
 10
5.976663426671834
 20
15.14396877437537
 30
0.0
 10
4.829962646333485
 20
15.10008929775229
 30
0.0
 10
4.06518402860857
 20
15.07946171197447
 30
0.0
 10
3.682624604899999
 20
15.08122798059999
 30
0.0
  0
SPLINE
  5
EE
330
1F
100
AcDbEntity
  8
Default
  6
Continuous
100
AcDbSpline
210
0.0
220
0.0
230
1.0
 70
     8
 71
     3
 72
    10
 73
     6
 74
     0
 42
0.0000000001
 43
0.0000000001
 40
-3.0
 40
-3.0
 40
-3.0
 40
-3.0
 40
-2.0
 40
-1.0
 40
0.0
 40
0.0
 40
0.0
 40
0.0
 10
7.543837343999996
 20
14.50300918629999
 30
0.0
 10
7.532450893632117
 20
14.59690261201236
 30
0.0
 10
7.491278745344985
 20
14.78379107604854
 30
0.0
 10
7.367194394000805
 20
15.03908655651358
 30
0.0
 10
7.221909310392576
 20
15.17881522199606
 30
0.0
 10
7.123490739700003
 20
15.18434418329999
 30
0.0
  0
LINE
  5
EF
330
1F
100
AcDbEntity
  8
Default
  6
Continuous
100
AcDbLine
 10
9.2801668149
 20
0.1343579366999919
 30
0.0
 11
7.543837343999996
 21
14.50300918629999
 31
0.0
  0
SPLINE
  5
F0
330
1F
100
AcDbEntity
  8
Default
  6
Continuous
100
AcDbSpline
210
0.0
220
0.0
230
1.0
 70
     8
 71
     3
 72
     8
 73
     4
 74
     0
 42
0.0000000001
 43
0.0000000001
 40
0.0
 40
0.0
 40
0.0
 40
0.0
 40
1.0
 40
1.0
 40
1.0
 40
1.0
 10
9.378312005003934
 20
0.0237101261357324
 30
0.0
 10
9.327402247980004
 20
0.0366220869366458
 30
0.0
 10
9.28569781749394
 20
0.0816374122095667
 30
0.0
 10
9.2801668149
 20
0.1343579366999919
 30
0.0
  0
ARC
  5
F1
330
1F
100
AcDbEntity
  8
Default
  6
Continuous
100
AcDbCircle
 10
9.5837068986
 20
0.7482860105999904
 30
0.0
 40
0.753125006
100
AcDbArc
 50
254.1736040703997
 51
299.6069939979998
  0
SPLINE
  5
F2
330
1F
100
AcDbEntity
  8
Default
  6
Continuous
100
AcDbSpline
210
0.0
220
0.0
230
1.0
 70
     8
 71
     3
 72
     8
 73
     4
 74
     0
 42
0.0000000001
 43
0.0000000001
 40
0.0
 40
0.0
 40
0.0
 40
0.0
 40
1.0
 40
1.0
 40
1.0
 40
1.0
 10
10.0247500663
 20
0.2243344988999922
 30
0.0
 10
10.03194364235601
 20
0.1718118373168878
 30
0.0
 10
10.00213544980868
 20
0.1181479656033773
 30
0.0
 10
9.955786802065674
 20
0.0934930508795304
 30
0.0
  0
LINE
  5
F3
330
1F
100
AcDbEntity
  8
Default
  6
Continuous
100
AcDbLine
 10
8.288420595399998
 20
14.59298574849999
 30
0.0
 11
10.0247500663
 21
0.2243344988999922
 31
0.0
  0
SPLINE
  5
F4
330
1F
100
AcDbEntity
  8
Default
  6
Continuous
100
AcDbSpline
210
0.0
220
0.0
230
1.0
 70
     8
 71
     3
 72
    10
 73
     6
 74
     0
 42
0.0000000001
 43
0.0000000001
 40
0.0
 40
0.0
 40
0.0
 40
0.0
 40
1.0
 40
2.0
 40
3.0
 40
3.0
 40
3.0
 40
3.0
 10
7.096662027400001
 20
15.93386417649999
 30
0.0
 10
7.316702515414747
 20
15.94362289970098
 30
0.0
 10
7.748035390455883
 20
15.78097778474392
 30
0.0
 10
8.146599214727402
 20
15.23665972227506
 30
0.0
 10
8.261894231306385
 20
14.80998611496761
 30
0.0
 10
8.288420595399998
 20
14.59298574849999
 30
0.0
  0
SPLINE
  5
F5
330
1F
100
AcDbEntity
  8
Default
  6
Continuous
100
AcDbSpline
210
0.0
220
0.0
230
1.0
 70
     8
 71
     3
 72
     9
 73
     5
 74
     0
 42
0.0000000001
 43
0.0000000001
 40
0.0
 40
0.0
 40
0.0
 40
0.0
 40
1.0
 40
2.0
 40
2.0
 40
2.0
 40
2.0
 10
3.682624604899999
 20
15.83122798059999
 30
0.0
 10
4.252056966308103
 20
15.82764949852099
 30
0.0
 10
5.389835830781536
 20
15.8752099158384
 30
0.0
 10
6.527736122342247
 20
15.91301158937554
 30
0.0
 10
7.096662027400001
 20
15.93386417649999
 30
0.0
  0
LINE
  5
F6
330
1F
100
AcDbEntity
  8
Default
  6
Continuous
100
AcDbLine
 10
-3.682624604899999
 20
15.83122798059999
 30
0.0
 11
3.682624604899999
 21
15.83122798059999
 31
0.0
  0
SPLINE
  5
F7
330
1F
100
AcDbEntity
  8
Default
  6
Continuous
100
AcDbSpline
210
0.0
220
0.0
230
1.0
 70
     8
 71
     3
 72
     9
 73
     5
 74
     0
 42
0.0000000001
 43
0.0000000001
 40
-2.0
 40
-2.0
 40
-2.0
 40
-2.0
 40
-1.0
 40
0.0
 40
0.0
 40
0.0
 40
0.0
 10
-7.096662027400001
 20
15.93386417649999
 30
0.0
 10
-6.527736122342247
 20
15.91301158937554
 30
0.0
 10
-5.389835830781536
 20
15.8752099158384
 30
0.0
 10
-4.252056966308103
 20
15.82764949852099
 30
0.0
 10
-3.682624604899999
 20
15.83122798059999
 30
0.0
  0
SPLINE
  5
F8
330
1F
100
AcDbEntity
  8
Default
  6
Continuous
100
AcDbSpline
210
0.0
220
0.0
230
1.0
 70
     8
 71
     3
 72
    10
 73
     6
 74
     0
 42
0.0000000001
 43
0.0000000001
 40
-3.0
 40
-3.0
 40
-3.0
 40
-3.0
 40
-2.0
 40
-1.0
 40
0.0
 40
0.0
 40
0.0
 40
0.0
 10
-8.288420595399998
 20
14.59298574849999
 30
0.0
 10
-8.261894231306385
 20
14.80998611496761
 30
0.0
 10
-8.146599214727402
 20
15.23665972227506
 30
0.0
 10
-7.748035390455883
 20
15.78097778474392
 30
0.0
 10
-7.316702515414747
 20
15.94362289970098
 30
0.0
 10
-7.096662027400001
 20
15.93386417649999
 30
0.0
  0
LINE
  5
F9
330
1F
100
AcDbEntity
  8
Default
  6
Continuous
100
AcDbLine
 10
-10.0247500663
 20
0.2243344988999922
 30
0.0
 11
-8.288420595399998
 21
14.59298574849999
 31
0.0
  0
SPLINE
  5
FA
330
1F
100
AcDbEntity
  8
Default
  6
Continuous
100
AcDbSpline
210
0.0
220
0.0
230
1.0
 70
     8
 71
     3
 72
     8
 73
     4
 74
     0
 42
0.0000000001
 43
0.0000000001
 40
-1.0
 40
-1.0
 40
-1.0
 40
-1.0
 40
0.0
 40
0.0
 40
0.0
 40
0.0
 10
-9.955786802065674
 20
0.0934930508795304
 30
0.0
 10
-10.00213544980868
 20
0.1181479656033773
 30
0.0
 10
-10.031943642356
 20
0.1718118373168878
 30
0.0
 10
-10.0247500663
 20
0.2243344988999922
 30
0.0
  0
ARC
  5
FB
330
1F
100
AcDbEntity
  8
Default
  6
Continuous
100
AcDbCircle
 10
-9.5837068986
 20
0.7482860105999904
 30
0.0
 40
0.753125006
100
AcDbArc
 50
240.3930060020003
 51
285.8263959296003
  0
SPLINE
  5
FC
330
1F
100
AcDbEntity
  8
Default
  6
Continuous
100
AcDbSpline
210
0.0
220
0.0
230
1.0
 70
     8
 71
     3
 72
     8
 73
     4
 74
     0
 42
0.0000000001
 43
0.0000000001
 40
-1.0
 40
-1.0
 40
-1.0
 40
-1.0
 40
0.0
 40
0.0
 40
0.0
 40
0.0
 10
-9.2801668149
 20
0.1343579366999919
 30
0.0
 10
-9.28569781749394
 20
0.0816374122095667
 30
0.0
 10
-9.327402247980004
 20
0.0366220869366458
 30
0.0
 10
-9.378312005003934
 20
0.0237101261357324
 30
0.0
  0
SPLINE
  5
FD
330
1F
100
AcDbEntity
  8
Default
  6
Continuous
100
AcDbSpline
210
0.0
220
0.0
230
1.0
 70
     8
 71
     3
 72
     8
 73
     4
 74
     0
 42
0.0000000001
 43
0.0000000001
 40
0.0
 40
0.0
 40
0.0
 40
0.0
 40
1.0
 40
1.0
 40
1.0
 40
1.0
 10
7.015440068417632
 20
15.18111208458149
 30
0.0
 10
7.187744109984479
 20
15.09578033130575
 30
0.0
 10
7.341591554536109
 20
14.97366773887199
 30
0.0
 10
7.464323200342491
 20
14.82569950357039
 30
0.0
  0
SPLINE
  5
FE
330
1F
100
AcDbEntity
  8
Default
  6
Continuous
100
AcDbSpline
210
0.0
220
0.0
230
1.0
 70
     8
 71
     3
 72
     8
 73
     4
 74
     0
 42
0.0000000001
 43
0.0000000001
 40
0.0
 40
0.0
 40
0.0
 40
0.0
 40
1.0
 40
1.0
 40
1.0
 40
1.0
 10
-7.015440068417632
 20
15.18111208458149
 30
0.0
 10
-7.187744109984479
 20
15.09578033130575
 30
0.0
 10
-7.341591554536109
 20
14.97366773887199
 30
0.0
 10
-7.464323200342491
 20
14.82569950357039
 30
0.0
  0
LINE
  5
FF
330
1F
100
AcDbEntity
  8
Default
  6
Continuous
100
AcDbLine
 10
9.447823159400002
 20
16.04624477009999
 30
0.0
 11
7.431455647600004
 21
15.88056356519999
 31
0.0
  0
LINE
  5
100
330
1F
100
AcDbEntity
  8
Default
  6
Continuous
100
AcDbLine
 10
10.30559981621307
 20
16.046339656543
 30
0.0
 11
9.447823159400002
 21
16.04624477009999
 31
0.0
  0
LINE
  5
101
330
1F
100
AcDbEntity
  8
Default
  6
Continuous
100
AcDbLine
 10
10.44390407207935
 20
16.20997680260748
 30
0.0
 11
10.30559981621307
 21
16.046339656543
 31
0.0
  0
LINE
  5
102
330
1F
100
AcDbEntity
  8
Default
  6
Continuous
100
AcDbLine
 10
9.670558634100004
 20
16.20502003909999
 30
0.0
 11
10.44390407207935
 21
16.20997680260748
 31
0.0
  0
POLYLINE
  5
103
330
1F
100
AcDbEntity
  8
Default
  6
Continuous
100
AcDb2dPolyline
 66
     1
 10
0.0
 20
0.0
 30
0.0
  0
VERTEX
  5
104
330
103
100
AcDbEntity
  8
Default
  6
Continuous
100
AcDbVertex
100
AcDb2dVertex
 10
9.687967579994748
 20
16.41941400782104
 30
0.0
  0
VERTEX
  5
105
330
103
100
AcDbEntity
  8
Default
  6
Continuous
100
AcDbVertex
100
AcDb2dVertex
 10
9.670558634100004
 20
16.20502003909999
 30
0.0
  0
SEQEND
  5
106
330
103
100
AcDbEntity
  8
Default
  6
Continuous
  0
LINE
  5
107
330
1F
100
AcDbEntity
  8
Default
  6
Continuous
100
AcDbLine
 10
9.384877483297629
 20
16.41938048037636
 30
0.0
 11
9.687967579994748
 21
16.41941400782104
 31
0.0
  0
LINE
  5
108
330
1F
100
AcDbEntity
  8
Default
100
AcDbLine
 10
-9.687967579994748
 20
16.41941400782104
 30
0.0
 11
-9.384877483297629
 21
16.41938048037636
 31
0.0
  0
POLYLINE
  5
109
330
1F
100
AcDbEntity
  8
Default
100
AcDb2dPolyline
 66
     1
 10
0.0
 20
0.0
 30
0.0
  0
VERTEX
  5
10A
330
109
100
AcDbEntity
  8
Default
100
AcDbVertex
100
AcDb2dVertex
 10
-9.670558634100004
 20
16.20502003909999
 30
0.0
  0
VERTEX
  5
10B
330
109
100
AcDbEntity
  8
Default
100
AcDbVertex
100
AcDb2dVertex
 10
-9.687967579994748
 20
16.41941400782104
 30
0.0
  0
SEQEND
  5
10C
330
109
100
AcDbEntity
  8
Default
  0
LINE
  5
10D
330
1F
100
AcDbEntity
  8
Default
100
AcDbLine
 10
-10.44390407207935
 20
16.20997680260748
 30
0.0
 11
-9.670558634100004
 21
16.20502003909999
 31
0.0
  0
LINE
  5
10E
330
1F
100
AcDbEntity
  8
Default
100
AcDbLine
 10
-10.30559981621307
 20
16.046339656543
 30
0.0
 11
-10.44390407207935
 21
16.20997680260748
 31
0.0
  0
LINE
  5
10F
330
1F
100
AcDbEntity
  8
Default
100
AcDbLine
 10
-9.447823159400002
 20
16.04624477009999
 30
0.0
 11
-10.30559981621307
 21
16.046339656543
 31
0.0
  0
LINE
  5
110
330
1F
100
AcDbEntity
  8
Default
100
AcDbLine
 10
-7.431455647600004
 20
15.88056356519999
 30
0.0
 11
-9.447823159400002
 21
16.04624477009999
 31
0.0
  0
SPLINE
  5
111
330
1F
100
AcDbEntity
  8
Default
  6
Continuous
100
AcDbSpline
210
0.0
220
0.0
230
1.0
 70
     8
 71
     3
 72
     9
 73
     5
 74
     0
 42
0.0000000001
 43
0.0000000001
 40
0.0
 40
0.0
 40
0.0
 40
0.0
 40
1.0
 40
2.0
 40
2.0
 40
2.0
 40
2.0
 10
9.01802315758799
 20
0.4501488232355086
 30
0.0
 10
9.045525113411784
 20
0.4184931721443519
 30
0.0
 10
9.12806300328937
 20
0.4028739775377019
 30
0.0
 10
9.207336871281015
 20
0.4003326643186185
 30
0.0
 10
9.247788942599996
 20
0.4016087809999931
 30
0.0
  0
SPLINE
  5
112
330
1F
100
AcDbEntity
  8
Default
  6
Continuous
100
AcDbSpline
210
0.0
220
0.0
230
1.0
 70
     8
 71
     3
 72
     9
 73
     5
 74
     0
 42
0.0000000001
 43
0.0000000001
 40
0.0
 40
0.0
 40
0.0
 40
0.0
 40
1.0
 40
2.0
 40
2.0
 40
2.0
 40
2.0
 10
-9.01802315758799
 20
0.4501488232355086
 30
0.0
 10
-9.045525113411784
 20
0.4184931721443519
 30
0.0
 10
-9.12806300328937
 20
0.4028739775377019
 30
0.0
 10
-9.207336871281015
 20
0.4003326643186185
 30
0.0
 10
-9.247788942599996
 20
0.4016087809999931
 30
0.0
  0
ARC
  5
113
330
1F
100
AcDbEntity
  8
Default
100
AcDbCircle
 10
-9.840076544806394
 20
-1.322532204970543
 30
0.0
 40
1.87403351473569
100
AcDbArc
 50
71.37677830577167
 51
94.46288826791856
  0
SPLINE
  5
114
330
1F
100
AcDbEntity
  8
Default
  6
Continuous
100
AcDbSpline
210
0.0
220
0.0
230
1.0
 70
     8
 71
     3
 72
    26
 73
    22
 74
     0
 42
0.0000000001
 43
0.0000000001
 40
0.0
 40
0.0
 40
0.0
 40
0.0
 40
0.1240492064
 40
0.2380557006
 40
0.3422381351
 40
0.4368261255
 40
0.5221303344
 40
0.5984934614
 40
0.6662828387
 40
0.7259000248
 40
0.7778146866
 40
0.822568578
 40
0.8425110718
 40
0.8609795111
 40
0.8780859866
 40
0.8940293271
 40
0.9234566989
 40
0.937246888
 40
0.9505951712
 40
0.9760742639
 40
1.0
 40
1.0
 40
1.0
 40
1.0
 10
-7.727240997899997
 20
15.71474163159999
 30
0.0
 10
-7.785981816700001
 20
15.72194949889999
 30
0.0
 10
-7.898660641099994
 20
15.73617179689999
 30
0.0
 10
-8.0604869127
 20
15.75788730469999
 30
0.0
 10
-8.208196720399997
 20
15.77907798049999
 30
0.0
 10
-8.342132893200002
 20
15.79979905609999
 30
0.0
 10
-8.462697244400005
 20
15.82008170369999
 30
0.0
 10
-8.570351825999992
 20
15.83996151519999
 30
0.0
 10
-8.665599840799999
 20
15.85945186969999
 30
0.0
 10
-8.748995843000003
 20
15.87857379609999
 30
0.0
 10
-8.8211817344
 20
15.89728758409999
 30
0.0
 10
-8.874530480800004
 20
15.91311926969999
 30
0.0
 10
-8.912186172099993
 20
15.92562855309999
 30
0.0
 10
-8.937131311000002
 20
15.93453857309999
 30
0.0
 10
-8.960072284399999
 20
15.94336677749999
 30
0.0
 10
-8.987620237900003
 20
15.95475420289999
 30
0.0
 10
-9.013387900300003
 20
15.96628781529999
 30
0.0
 10
-9.037759715500002
 20
15.97787661489999
 30
0.0
 10
-9.060318782700008
 20
15.98888835389999
 30
0.0
 10
-9.087013871600007
 20
16.00244634259999
 30
0.0
 10
-9.107778655299995
 20
16.01360419659999
 30
0.0
 10
-9.1177628959
 20
16.01913642129999
 30
0.0
  0
ENDSEC
  0
SECTION
  2
OBJECTS
  0
DICTIONARY
  5
C
330
0
100
AcDbDictionary
281
     1
  3
ACAD_GROUP
350
D
  3
ACAD_LAYOUT
350
1A
  3
ACAD_MLEADERSTYLE
350
116
  3
ACAD_MLINESTYLE
350
17
  3
ACAD_PLOTSETTINGS
350
19
  3
ACAD_PLOTSTYLENAME
350
E
  3
ACAD_TABLESTYLE
350
115
  3
ACAD_VISUALSTYLE
350
2A
  0
DICTIONARY
  5
D
102
{ACAD_REACTORS
330
C
102
}
330
C
100
AcDbDictionary
281
     1
  0
DICTIONARY
  5
1A
102
{ACAD_REACTORS
330
C
102
}
330
C
100
AcDbDictionary
281
     1
  3
Layout1
350
1E
  3
Layout2
350
26
  3
Model
350
22
  0
DICTIONARY
  5
116
102
{ACAD_REACTORS
330
C
102
}
330
C
100
AcDbDictionary
281
     1
  0
DICTIONARY
  5
17
102
{ACAD_REACTORS
330
C
102
}
330
C
100
AcDbDictionary
281
     1
  3
Standard
350
18
  0
DICTIONARY
  5
19
102
{ACAD_REACTORS
330
C
102
}
330
C
100
AcDbDictionary
281
     1
  0
ACDBDICTIONARYWDFLT
  5
E
102
{ACAD_REACTORS
330
C
102
}
330
C
100
AcDbDictionary
281
     1
  3
Normal
350
F
100
AcDbDictionaryWithDefault
340
F
  0
DICTIONARY
  5
115
102
{ACAD_REACTORS
330
C
102
}
330
C
100
AcDbDictionary
281
     1
  0
DICTIONARY
  5
2A
102
{ACAD_REACTORS
330
C
102
}
330
C
100
AcDbDictionary
281
     1
  3
2dWireframe
350
2F
  3
3D Hidden
350
31
  3
3dWireframe
350
30
  3
Basic
350
32
  3
Brighten
350
36
  3
ColorChange
350
3A
  3
Conceptual
350
34
  3
Dim
350
35
  3
Facepattern
350
39
  3
Flat
350
2B
  3
FlatWithEdges
350
2C
  3
Gouraud
350
2D
  3
GouraudWithEdges
350
2E
  3
Linepattern
350
38
  3
Realistic
350
33
  3
Thicken
350
37
  0
LAYOUT
  5
1E
102
{ACAD_REACTORS
330
1A
102
}
330
1A
100
AcDbPlotSettings
  1

  2
none_device
  4

  6

 40
0.0
 41
0.0
 42
0.0
 43
0.0
 44
0.0
 45
0.0
 46
0.0
 47
0.0
 48
0.0
 49
0.0
140
0.0
141
0.0
142
1.0
143
1.0
 70
   688
 72
     0
 73
     0
 74
     5
  7

 75
    16
 76
     0
 77
     2
 78
   300
147
1.0
148
0.0
149
0.0
100
AcDbLayout
  1
Layout1
 70
     1
 71
     1
 10
0.0
 20
0.0
 11
12.0
 21
9.0
 12
0.0
 22
0.0
 32
0.0
 14
1.000000000000000E+20
 24
1.000000000000000E+20
 34
1.000000000000000E+20
 15
-1.000000000000000E+20
 25
-1.000000000000000E+20
 35
-1.000000000000000E+20
146
0.0
 13
0.0
 23
0.0
 33
0.0
 16
1.0
 26
0.0
 36
0.0
 17
0.0
 27
1.0
 37
0.0
 76
     0
330
1B
  0
LAYOUT
  5
26
102
{ACAD_REACTORS
330
1A
102
}
330
1A
100
AcDbPlotSettings
  1

  2
none_device
  4

  6

 40
0.0
 41
0.0
 42
0.0
 43
0.0
 44
0.0
 45
0.0
 46
0.0
 47
0.0
 48
0.0
 49
0.0
140
0.0
141
0.0
142
1.0
143
1.0
 70
   688
 72
     0
 73
     0
 74
     5
  7

 75
    16
 76
     0
 77
     2
 78
   300
147
1.0
148
0.0
149
0.0
100
AcDbLayout
  1
Layout2
 70
     1
 71
     2
 10
0.0
 20
0.0
 11
0.0
 21
0.0
 12
0.0
 22
0.0
 32
0.0
 14
0.0
 24
0.0
 34
0.0
 15
0.0
 25
0.0
 35
0.0
146
0.0
 13
0.0
 23
0.0
 33
0.0
 16
1.0
 26
0.0
 36
0.0
 17
0.0
 27
1.0
 37
0.0
 76
     0
330
23
  0
LAYOUT
  5
22
102
{ACAD_REACTORS
330
1A
102
}
330
1A
100
AcDbPlotSettings
  1

  2
none_device
  4

  6

 40
0.0
 41
0.0
 42
0.0
 43
0.0
 44
0.0
 45
0.0
 46
0.0
 47
0.0
 48
0.0
 49
0.0
140
0.0
141
0.0
142
1.0
143
1.0
 70
  1712
 72
     0
 73
     0
 74
     0
  7

 75
     0
 76
     0
 77
     2
 78
   300
147
1.0
148
0.0
149
0.0
100
AcDbLayout
  1
Model
 70
     1
 71
     0
 10
0.0
 20
0.0
 11
12.0
 21
9.0
 12
0.0
 22
0.0
 32
0.0
 14
-13.53892421369574
 24
-0.0048389958000095
 34
0.0
 15
44.99010264408204
 25
71.98948961703542
 35
0.0
146
0.0
 13
0.0
 23
0.0
 33
0.0
 16
1.0
 26
0.0
 36
0.0
 17
0.0
 27
1.0
 37
0.0
 76
     0
330
1F
331
29
  0
MLINESTYLE
  5
18
102
{ACAD_REACTORS
330
17
102
}
330
17
100
AcDbMlineStyle
  2
Standard
 70
     0
  3

 62
   256
 51
90.0
 52
90.0
 71
     2
 49
0.5
 62
   256
  6
BYLAYER
 49
-0.5
 62
   256
  6
BYLAYER
  0
ACDBPLACEHOLDER
  5
F
102
{ACAD_REACTORS
330
E
102
}
330
E
  0
VISUALSTYLE
  5
2F
102
{ACAD_REACTORS
330
2A
102
}
330
2A
100
AcDbVisualStyle
  2
2dWireframe
 70
     4
 71
     0
 72
     2
 73
     0
 90
        0
 40
-0.6
 41
-30.0
 62
     5
 63
     7
421
 16777215
 74
     1
 91
        4
 64
     7
 65
   257
 75
     1
175
     1
 42
1.0
 92
        0
 66
   257
 43
1.0
 76
     1
 77
     6
 78
     2
 67
     7
 79
     5
170
     0
171
     0
290
     0
174
     0
 93
        1
 44
0.0
173
     0
291
     0
 45
0.0
1001
ACAD
1000
AcDbSavedByObjectVersion
1070
     0
  0
VISUALSTYLE
  5
31
102
{ACAD_REACTORS
330
2A
102
}
330
2A
100
AcDbVisualStyle
  2
3D Hidden
 70
     6
 71
     1
 72
     2
 73
     2
 90
        0
 40
-0.6
 41
-30.0
 62
     5
 63
     7
421
 16777215
 74
     2
 91
        2
 64
     7
 65
   257
 75
     2
175
     1
 42
40.0
 92
        0
 66
   257
 43
1.0
 76
     1
 77
     6
 78
     2
 67
     7
 79
     3
170
     0
171
     0
290
     0
174
     0
 93
        1
 44
0.0
173
     0
291
     0
 45
0.0
1001
ACAD
1000
AcDbSavedByObjectVersion
1070
     0
  0
VISUALSTYLE
  5
30
102
{ACAD_REACTORS
330
2A
102
}
330
2A
100
AcDbVisualStyle
  2
3dWireframe
 70
     5
 71
     0
 72
     2
 73
     0
 90
        0
 40
-0.6
 41
-30.0
 62
     5
 63
     7
421
 16777215
 74
     1
 91
        4
 64
     7
 65
   257
 75
     1
175
     1
 42
1.0
 92
        0
 66
   257
 43
1.0
 76
     1
 77
     6
 78
     2
 67
     7
 79
     5
170
     0
171
     0
290
     0
174
     0
 93
        1
 44
0.0
173
     0
291
     0
 45
0.0
1001
ACAD
1000
AcDbSavedByObjectVersion
1070
     0
  0
VISUALSTYLE
  5
32
102
{ACAD_REACTORS
330
2A
102
}
330
2A
100
AcDbVisualStyle
  2
Basic
 70
     7
 71
     1
 72
     0
 73
     1
 90
        0
 40
-0.6
 41
-30.0
 62
     5
 63
     7
421
 16777215
 74
     0
 91
        4
 64
     7
 65
   257
 75
     1
175
     1
 42
1.0
 92
        8
 66
     7
 43
1.0
 76
     1
 77
     6
 78
     2
 67
     7
 79
     5
170
     0
171
     0
290
     0
174
     0
 93
        1
 44
0.0
173
     0
291
     1
 45
0.0
1001
ACAD
1000
AcDbSavedByObjectVersion
1070
     0
  0
VISUALSTYLE
  5
36
102
{ACAD_REACTORS
330
2A
102
}
330
2A
100
AcDbVisualStyle
  2
Brighten
 70
    12
 71
     2
 72
     2
 73
     0
 90
        0
 40
-0.6
 41
-30.0
 62
     5
 63
     7
421
 16777215
 74
     1
 91
        4
 64
     7
 65
   257
 75
     1
175
     1
 42
1.0
 92
        8
 66
     7
 43
1.0
 76
     1
 77
     6
 78
     2
 67
     7
 79
     5
170
     0
171
     0
290
     0
174
     0
 93
        1
 44
50.0
173
     0
291
     1
 45
0.0
1001
ACAD
1000
AcDbSavedByObjectVersion
1070
     0
  0
VISUALSTYLE
  5
3A
102
{ACAD_REACTORS
330
2A
102
}
330
2A
100
AcDbVisualStyle
  2
ColorChange
 70
    16
 71
     2
 72
     2
 73
     3
 90
        0
 40
-0.6
 41
-30.0
 62
     5
 63
     8
421
  8421504
 74
     1
 91
        4
 64
     7
 65
   257
 75
     1
175
     1
 42
1.0
 92
        8
 66
     8
424
  8421504
 43
1.0
 76
     1
 77
     6
 78
     2
 67
     7
 79
     5
170
     0
171
     0
290
     0
174
     0
 93
        1
 44
0.0
173
     0
291
     1
 45
0.0
1001
ACAD
1000
AcDbSavedByObjectVersion
1070
     0
  0
VISUALSTYLE
  5
34
102
{ACAD_REACTORS
330
2A
102
}
330
2A
100
AcDbVisualStyle
  2
Conceptual
 70
     9
 71
     3
 72
     2
 73
     0
 90
        0
 40
-0.6
 41
-30.0
 62
     5
 63
     7
421
 16777215
 74
     2
 91
        2
 64
     7
 65
   257
 75
     1
175
     1
 42
40.0
 92
        8
 66
     7
 43
1.0
 76
     1
 77
     6
 78
     2
 67
     7
 79
     3
170
     0
171
     0
290
     0
174
     0
 93
        1
 44
0.0
173
     0
291
     0
 45
0.0
1001
ACAD
1000
AcDbSavedByObjectVersion
1070
     0
  0
VISUALSTYLE
  5
35
102
{ACAD_REACTORS
330
2A
102
}
330
2A
100
AcDbVisualStyle
  2
Dim
 70
    11
 71
     2
 72
     2
 73
     0
 90
        0
 40
-0.6
 41
-30.0
 62
     5
 63
     7
421
 16777215
 74
     1
 91
        4
 64
     7
 65
   257
 75
     1
175
     1
 42
1.0
 92
        8
 66
     7
 43
1.0
 76
     1
 77
     6
 78
     2
 67
     7
 79
     5
170
     0
171
     0
290
     0
174
     0
 93
        1
 44
-50.0
173
     0
291
     1
 45
0.0
1001
ACAD
1000
AcDbSavedByObjectVersion
1070
     0
  0
VISUALSTYLE
  5
39
102
{ACAD_REACTORS
330
2A
102
}
330
2A
100
AcDbVisualStyle
  2
Facepattern
 70
    15
 71
     2
 72
     2
 73
     0
 90
        0
 40
-0.6
 41
-30.0
 62
     5
 63
     7
421
 16777215
 74
     1
 91
        4
 64
     7
 65
   257
 75
     1
175
     1
 42
1.0
 92
        8
 66
     7
 43
1.0
 76
     1
 77
     6
 78
     2
 67
     7
 79
     5
170
     0
171
     0
290
     0
174
     0
 93
        1
 44
0.0
173
     0
291
     1
 45
0.0
1001
ACAD
1000
AcDbSavedByObjectVersion
1070
     0
  0
VISUALSTYLE
  5
2B
102
{ACAD_REACTORS
330
2A
102
}
330
2A
100
AcDbVisualStyle
  2
Flat
 70
     0
 71
     2
 72
     1
 73
     1
 90
        2
 40
-0.6
 41
30.0
 62
     5
 63
     7
421
 16777215
 74
     0
 91
        4
 64
     7
 65
   257
 75
     1
175
     1
 42
1.0
 92
        8
 66
     7
 43
1.0
 76
     1
 77
     6
 78
     2
 67
     7
 79
     5
170
     0
171
     0
290
     0
174
     0
 93
       13
 44
0.0
173
     0
291
     1
 45
0.0
1001
ACAD
1000
AcDbSavedByObjectVersion
1070
     0
  0
VISUALSTYLE
  5
2C
102
{ACAD_REACTORS
330
2A
102
}
330
2A
100
AcDbVisualStyle
  2
FlatWithEdges
 70
     1
 71
     2
 72
     1
 73
     1
 90
        2
 40
-0.6
 41
30.0
 62
     5
 63
     7
421
 16777215
 74
     1
 91
        4
 64
     7
 65
   257
 75
     1
175
     1
 42
1.0
 92
        0
 66
   257
 43
1.0
 76
     1
 77
     6
 78
     2
 67
     7
 79
     5
170
     0
171
     0
290
     0
174
     0
 93
       13
 44
0.0
173
     0
291
     1
 45
0.0
1001
ACAD
1000
AcDbSavedByObjectVersion
1070
     0
  0
VISUALSTYLE
  5
2D
102
{ACAD_REACTORS
330
2A
102
}
330
2A
100
AcDbVisualStyle
  2
Gouraud
 70
     2
 71
     2
 72
     2
 73
     1
 90
        2
 40
-0.6
 41
30.0
 62
     5
 63
     7
421
 16777215
 74
     0
 91
        4
 64
     7
 65
   257
 75
     1
175
     1
 42
1.0
 92
        0
 66
     7
 43
1.0
 76
     1
 77
     6
 78
     2
 67
     7
 79
     5
170
     0
171
     0
290
     0
174
     0
 93
       13
 44
0.0
173
     0
291
     1
 45
0.0
1001
ACAD
1000
AcDbSavedByObjectVersion
1070
     0
  0
VISUALSTYLE
  5
2E
102
{ACAD_REACTORS
330
2A
102
}
330
2A
100
AcDbVisualStyle
  2
GouraudWithEdges
 70
     3
 71
     2
 72
     2
 73
     1
 90
        2
 40
-0.6
 41
30.0
 62
     5
 63
     7
421
 16777215
 74
     1
 91
        4
 64
     7
 65
   257
 75
     1
175
     1
 42
1.0
 92
        0
 66
   257
 43
1.0
 76
     1
 77
     6
 78
     2
 67
     7
 79
     5
170
     0
171
     0
290
     0
174
     0
 93
       13
 44
0.0
173
     0
291
     1
 45
0.0
1001
ACAD
1000
AcDbSavedByObjectVersion
1070
     0
  0
VISUALSTYLE
  5
38
102
{ACAD_REACTORS
330
2A
102
}
330
2A
100
AcDbVisualStyle
  2
Linepattern
 70
    14
 71
     2
 72
     2
 73
     0
 90
        0
 40
-0.6
 41
-30.0
 62
     5
 63
     7
421
 16777215
 74
     1
 91
        4
 64
     7
 65
   257
 75
     7
175
     7
 42
1.0
 92
        8
 66
     7
 43
1.0
 76
     1
 77
     6
 78
     2
 67
     7
 79
     5
170
     0
171
     0
290
     0
174
     0
 93
        1
 44
0.0
173
     0
291
     1
 45
0.0
1001
ACAD
1000
AcDbSavedByObjectVersion
1070
     0
  0
VISUALSTYLE
  5
33
102
{ACAD_REACTORS
330
2A
102
}
330
2A
100
AcDbVisualStyle
  2
Realistic
 70
     8
 71
     2
 72
     2
 73
     0
 90
        0
 40
-0.6
 41
-30.0
 62
     5
 63
     7
421
 16777215
 74
     1
 91
        0
 64
     7
 65
   257
 75
     1
175
     1
 42
1.0
 92
        8
 66
     8
424
  7895160
 43
1.0
 76
     1
 77
     6
 78
     2
 67
     7
 79
     5
170
     0
171
     0
290
     0
174
     0
 93
       13
 44
0.0
173
     0
291
     0
 45
0.0
1001
ACAD
1000
AcDbSavedByObjectVersion
1070
     0
  0
VISUALSTYLE
  5
37
102
{ACAD_REACTORS
330
2A
102
}
330
2A
100
AcDbVisualStyle
  2
Thicken
 70
    13
 71
     2
 72
     2
 73
     0
 90
        0
 40
-0.6
 41
-30.0
 62
     5
 63
     7
421
 16777215
 74
     1
 91
        4
 64
     7
 65
   257
 75
     1
175
     1
 42
1.0
 92
       12
 66
     7
 43
1.0
 76
     1
 77
     6
 78
     2
 67
     7
 79
     5
170
     0
171
     0
290
     0
174
     0
 93
        1
 44
0.0
173
     0
291
     1
 45
0.0
1001
ACAD
1000
AcDbSavedByObjectVersion
1070
     0
  0
ENDSEC
  0
EOF
