  0
SECTION
  2
HEADER
  9
$ACADVER
  1
AC1018
  9
$ACADMAINTVER
 70
     0
  9
$DWGCODEPAGE
  3
ANSI_1252
  9
$INSBASE
 10
0.0
 20
0.0
 30
0.0
  9
$EXTMIN
 10
-13.53892593024574
 20
0.137628025151855
 30
0.0
  9
$EXTMAX
 10
45.7786996832132
 20
71.11980140979593
 30
0.0
  9
$LIMMIN
 10
0.0
 20
0.0
  9
$LIMMAX
 10
12.0
 20
9.0
  9
$ORTHOMODE
 70
     0
  9
$REGENMODE
 70
     1
  9
$FILLMODE
 70
     1
  9
$QTEXTMODE
 70
     0
  9
$MIRRTEXT
 70
     1
  9
$LTSCALE
 40
0.0393700787401575
  9
$ATTMODE
 70
     1
  9
$TEXTSIZE
 40
0.2
  9
$TRACEWID
 40
0.05
  9
$TEXTSTYLE
  7
Standard
  9
$CLAYER
  8
Default
  9
$CELTYPE
  6
ByLayer
  9
$CECOLOR
 62
   256
  9
$CELTSCALE
 40
1.0
  9
$DISPSILH
 70
     0
  9
$DIMSCALE
 40
1.0
  9
$DIMASZ
 40
0.18
  9
$DIMEXO
 40
0.0625
  9
$DIMDLI
 40
0.38
  9
$DIMRND
 40
0.0
  9
$DIMDLE
 40
0.0
  9
$DIMEXE
 40
0.18
  9
$DIMTP
 40
0.0
  9
$DIMTM
 40
0.0
  9
$DIMTXT
 40
0.18
  9
$DIMCEN
 40
0.09
  9
$DIMTSZ
 40
0.0
  9
$DIMTOL
 70
     0
  9
$DIMLIM
 70
     0
  9
$DIMTIH
 70
     1
  9
$DIMTOH
 70
     1
  9
$DIMSE1
 70
     0
  9
$DIMSE2
 70
     0
  9
$DIMTAD
 70
     0
  9
$DIMZIN
 70
     0
  9
$DIMBLK
  1

  9
$DIMASO
 70
     1
  9
$DIMSHO
 70
     1
  9
$DIMPOST
  1

  9
$DIMAPOST
  1

  9
$DIMALT
 70
     0
  9
$DIMALTD
 70
     2
  9
$DIMALTF
 40
25.4
  9
$DIMLFAC
 40
1.0
  9
$DIMTOFL
 70
     0
  9
$DIMTVP
 40
0.0
  9
$DIMTIX
 70
     0
  9
$DIMSOXD
 70
     0
  9
$DIMSAH
 70
     0
  9
$DIMBLK1
  1

  9
$DIMBLK2
  1

  9
$DIMSTYLE
  2
Standard
  9
$DIMCLRD
 70
     0
  9
$DIMCLRE
 70
     0
  9
$DIMCLRT
 70
     0
  9
$DIMTFAC
 40
1.0
  9
$DIMGAP
 40
0.09
  9
$DIMJUST
 70
     0
  9
$DIMSD1
 70
     0
  9
$DIMSD2
 70
     0
  9
$DIMTOLJ
 70
     1
  9
$DIMTZIN
 70
     0
  9
$DIMALTZ
 70
     0
  9
$DIMALTTZ
 70
     0
  9
$DIMUPT
 70
     0
  9
$DIMDEC
 70
     4
  9
$DIMTDEC
 70
     4
  9
$DIMALTU
 70
     2
  9
$DIMALTTD
 70
     2
  9
$DIMTXSTY
  7
Standard
  9
$DIMAUNIT
 70
     0
  9
$DIMADEC
 70
     0
  9
$DIMALTRND
 40
0.0
  9
$DIMAZIN
 70
     0
  9
$DIMDSEP
 70
    46
  9
$DIMATFIT
 70
     3
  9
$DIMFRAC
 70
     0
  9
$DIMLDRBLK
  1

  9
$DIMLUNIT
 70
     2
  9
$DIMLWD
 70
    -2
  9
$DIMLWE
 70
    -2
  9
$DIMTMOVE
 70
     2
  9
$LUNITS
 70
     2
  9
$LUPREC
 70
     4
  9
$SKETCHINC
 40
0.1
  9
$FILLETRAD
 40
0.5
  9
$AUNITS
 70
     0
  9
$AUPREC
 70
     0
  9
$MENU
  1
.
  9
$ELEVATION
 40
0.0
  9
$PELEVATION
 40
0.0
  9
$THICKNESS
 40
0.0
  9
$LIMCHECK
 70
     0
  9
$CHAMFERA
 40
0.5
  9
$CHAMFERB
 40
0.5
  9
$CHAMFERC
 40
1.0
  9
$CHAMFERD
 40
0.0
  9
$SKPOLY
 70
     0
  9
$TDCREATE
 40
2457212.438183148
  9
$TDUCREATE
 40
2457212.604849815
  9
$TDUPDATE
 40
2457212.43818316
  9
$TDUUPDATE
 40
2457212.604849827
  9
$TDINDWG
 40
0.0000000116
  9
$TDUSRTIMER
 40
0.0000000116
  9
$USRTIMER
 70
     1
  9
$ANGBASE
 50
0.0
  9
$ANGDIR
 70
     0
  9
$PDMODE
 70
     0
  9
$PDSIZE
 40
0.0
  9
$PLINEWID
 40
0.0
  9
$SPLFRAME
 70
     0
  9
$SPLINETYPE
 70
     6
  9
$SPLINESEGS
 70
     8
  9
$HANDSEED
  5
291
  9
$SURFTAB1
 70
     6
  9
$SURFTAB2
 70
     6
  9
$SURFTYPE
 70
     6
  9
$SURFU
 70
     6
  9
$SURFV
 70
     6
  9
$UCSBASE
  2

  9
$UCSNAME
  2

  9
$UCSORG
 10
0.0
 20
0.0
 30
0.0
  9
$UCSXDIR
 10
1.0
 20
0.0
 30
0.0
  9
$UCSYDIR
 10
0.0
 20
1.0
 30
0.0
  9
$UCSORTHOREF
  2

  9
$UCSORTHOVIEW
 70
     0
  9
$UCSORGTOP
 10
0.0
 20
0.0
 30
0.0
  9
$UCSORGBOTTOM
 10
0.0
 20
0.0
 30
0.0
  9
$UCSORGLEFT
 10
0.0
 20
0.0
 30
0.0
  9
$UCSORGRIGHT
 10
0.0
 20
0.0
 30
0.0
  9
$UCSORGFRONT
 10
0.0
 20
0.0
 30
0.0
  9
$UCSORGBACK
 10
0.0
 20
0.0
 30
0.0
  9
$PUCSBASE
  2

  9
$PUCSNAME
  2

  9
$PUCSORG
 10
0.0
 20
0.0
 30
0.0
  9
$PUCSXDIR
 10
1.0
 20
0.0
 30
0.0
  9
$PUCSYDIR
 10
0.0
 20
1.0
 30
0.0
  9
$PUCSORTHOREF
  2

  9
$PUCSORTHOVIEW
 70
     0
  9
$PUCSORGTOP
 10
0.0
 20
0.0
 30
0.0
  9
$PUCSORGBOTTOM
 10
0.0
 20
0.0
 30
0.0
  9
$PUCSORGLEFT
 10
0.0
 20
0.0
 30
0.0
  9
$PUCSORGRIGHT
 10
0.0
 20
0.0
 30
0.0
  9
$PUCSORGFRONT
 10
0.0
 20
0.0
 30
0.0
  9
$PUCSORGBACK
 10
0.0
 20
0.0
 30
0.0
  9
$USERI1
 70
     0
  9
$USERI2
 70
     0
  9
$USERI3
 70
     0
  9
$USERI4
 70
     0
  9
$USERI5
 70
     0
  9
$USERR1
 40
0.0
  9
$USERR2
 40
0.0
  9
$USERR3
 40
0.0
  9
$USERR4
 40
0.0
  9
$USERR5
 40
0.0
  9
$WORLDVIEW
 70
     1
  9
$SHADEDGE
 70
     3
  9
$SHADEDIF
 70
    70
  9
$TILEMODE
 70
     1
  9
$MAXACTVP
 70
    64
  9
$PINSBASE
 10
0.0
 20
0.0
 30
0.0
  9
$PLIMCHECK
 70
     0
  9
$PEXTMIN
 10
1.000000000000000E+20
 20
1.000000000000000E+20
 30
1.000000000000000E+20
  9
$PEXTMAX
 10
-1.000000000000000E+20
 20
-1.000000000000000E+20
 30
-1.000000000000000E+20
  9
$PLIMMIN
 10
0.0
 20
0.0
  9
$PLIMMAX
 10
12.0
 20
9.0
  9
$UNITMODE
 70
     0
  9
$VISRETAIN
 70
     1
  9
$PLINEGEN
 70
     0
  9
$PSLTSCALE
 70
     1
  9
$TREEDEPTH
 70
  3020
  9
$CMLSTYLE
  2
Standard
  9
$CMLJUST
 70
     0
  9
$CMLSCALE
 40
1.0
  9
$PROXYGRAPHICS
 70
     1
  9
$MEASUREMENT
 70
     0
  9
$CELWEIGHT
370
    -1
  9
$ENDCAPS
280
     0
  9
$JOINSTYLE
280
     0
  9
$LWDISPLAY
290
     0
  9
$INSUNITS
 70
     1
  9
$HYPERLINKBASE
  1

  9
$STYLESHEET
  1

  9
$XEDIT
290
     1
  9
$CEPSNTYPE
380
     0
  9
$PSTYLEMODE
290
     1
  9
$FINGERPRINTGUID
  2
{B79A0004-2DD7-4325-94CF-892D54008987}
  9
$VERSIONGUID
  2
{FAEB1C32-E019-11D5-929B-00C0DF256EC4}
  9
$EXTNAMES
290
     1
  9
$PSVPSCALE
 40
0.0
  9
$OLESTARTUP
290
     0
  9
$SORTENTS
280
   127
  9
$INDEXCTL
280
     0
  9
$HIDETEXT
280
     1
  9
$XCLIPFRAME
290
     0
  9
$HALOGAP
280
     0
  9
$OBSCOLOR
 70
   257
  9
$OBSLTYPE
280
     0
  9
$INTERSECTIONDISPLAY
280
     0
  9
$INTERSECTIONCOLOR
 70
   257
  9
$DIMASSOC
280
     2
  9
$PROJECTNAME
  1

  0
ENDSEC
  0
SECTION
  2
CLASSES
  0
CLASS
  1
ACDBDICTIONARYWDFLT
  2
AcDbDictionaryWithDefault
  3
ObjectDBX Classes
 90
        0
 91
        4
280
     0
281
     0
  0
CLASS
  1
VISUALSTYLE
  2
AcDbVisualStyle
  3
ObjectDBX Classes
 90
     4095
 91
        4
280
     0
281
     0
  0
ENDSEC
  0
SECTION
  2
TABLES
  0
TABLE
  2
VPORT
  5
8
330
0
100
AcDbSymbolTable
 70
     1
  0
VPORT
  5
29
330
8
100
AcDbSymbolTableRecord
100
AcDbViewportTableRecord
  2
*Active
 70
     0
 10
0.0
 20
0.0
 11
1.0
 21
1.0
 12
16.11988687648373
 22
35.62871471747389
 13
0.0
 23
0.0
 14
0.5
 24
0.5
 15
0.5
 25
0.5
 16
0.0
 26
0.0
 36
1.0
 17
0.0
 27
0.0
 37
0.0
 40
72.40181685233695
 41
0.8356693347782362
 42
50.0
 43
0.0
 44
0.0
 50
0.0
 51
0.0
 71
     0
 72
   100
 73
     1
 74
     3
 75
     0
 76
     0
 77
     0
 78
     0
281
     0
 65
     1
110
0.0
120
0.0
130
0.0
111
1.0
121
0.0
131
0.0
112
0.0
122
1.0
132
0.0
 79
     0
146
0.0
  0
ENDTAB
  0
TABLE
  2
LTYPE
  5
5
330
0
100
AcDbSymbolTable
 70
     1
  0
LTYPE
  5
14
330
5
100
AcDbSymbolTableRecord
100
AcDbLinetypeTableRecord
  2
ByBlock
 70
     0
  3

 72
    65
 73
     0
 40
0.0
  0
LTYPE
  5
15
330
5
100
AcDbSymbolTableRecord
100
AcDbLinetypeTableRecord
  2
ByLayer
 70
     0
  3

 72
    65
 73
     0
 40
0.0
  0
LTYPE
  5
16
330
5
100
AcDbSymbolTableRecord
100
AcDbLinetypeTableRecord
  2
Continuous
 70
     0
  3
Solid line
 72
    65
 73
     0
 40
0.0
  0
ENDTAB
  0
TABLE
  2
LAYER
  5
2
330
0
100
AcDbSymbolTable
 70
     4
  0
LAYER
  5
10
330
2
100
AcDbSymbolTableRecord
100
AcDbLayerTableRecord
  2
0
 70
     0
 62
     7
  6
Continuous
370
    -3
390
F
  0
LAYER
  5
3B
330
2
100
AcDbSymbolTableRecord
100
AcDbLayerTableRecord
  2
Default
 70
     0
 62
     7
  6
Continuous
370
    -3
390
F
  0
LAYER
  5
16C
330
2
100
AcDbSymbolTableRecord
100
AcDbLayerTableRecord
  2
Make2D visible lines - Tangent
 70
     0
 62
     7
  6
Continuous
370
    -3
390
F
  0
LAYER
  5
16E
330
2
100
AcDbSymbolTableRecord
100
AcDbLayerTableRecord
  2
Make2D visible lines
 70
     0
 62
     7
  6
Continuous
370
    -3
390
F
  0
ENDTAB
  0
TABLE
  2
STYLE
  5
3
330
0
100
AcDbSymbolTable
 70
     1
  0
STYLE
  5
11
330
3
100
AcDbSymbolTableRecord
100
AcDbTextStyleTableRecord
  2
Standard
 70
     0
 40
0.0
 41
1.0
 50
0.0
 71
     0
 42
0.2
  3
txt
  4

  0
ENDTAB
  0
TABLE
  2
VIEW
  5
6
330
0
100
AcDbSymbolTable
 70
     0
  0
ENDTAB
  0
TABLE
  2
UCS
  5
7
330
0
100
AcDbSymbolTable
 70
     0
  0
ENDTAB
  0
TABLE
  2
APPID
  5
9
330
0
100
AcDbSymbolTable
 70
     1
  0
APPID
  5
12
330
9
100
AcDbSymbolTableRecord
100
AcDbRegAppTableRecord
  2
ACAD
 70
     0
  0
ENDTAB
  0
TABLE
  2
DIMSTYLE
  5
A
330
0
100
AcDbSymbolTable
 70
     1
100
AcDbDimStyleTable
  0
DIMSTYLE
105
27
330
A
100
AcDbSymbolTableRecord
100
AcDbDimStyleTableRecord
  2
Standard
 70
     0
340
11
  0
ENDTAB
  0
TABLE
  2
BLOCK_RECORD
  5
1
330
0
100
AcDbSymbolTable
 70
     1
  0
BLOCK_RECORD
  5
1F
330
1
100
AcDbSymbolTableRecord
100
AcDbBlockTableRecord
  2
*Model_Space
340
22
  0
BLOCK_RECORD
  5
1B
330
1
100
AcDbSymbolTableRecord
100
AcDbBlockTableRecord
  2
*Paper_Space
340
1E
  0
BLOCK_RECORD
  5
23
330
1
100
AcDbSymbolTableRecord
100
AcDbBlockTableRecord
  2
*Paper_Space0
340
26
  0
ENDTAB
  0
ENDSEC
  0
SECTION
  2
BLOCKS
  0
BLOCK
  5
20
330
1F
100
AcDbEntity
  8
0
100
AcDbBlockBegin
  2
*Model_Space
 70
     0
 10
0.0
 20
0.0
 30
0.0
  3
*Model_Space
  1

  0
ENDBLK
  5
21
330
1F
100
AcDbEntity
  8
0
100
AcDbBlockEnd
  0
BLOCK
  5
1C
330
1B
100
AcDbEntity
 67
     1
  8
0
100
AcDbBlockBegin
  2
*Paper_Space
 70
     0
 10
0.0
 20
0.0
 30
0.0
  3
*Paper_Space
  1

  0
ENDBLK
  5
1D
330
1B
100
AcDbEntity
 67
     1
  8
0
100
AcDbBlockEnd
  0
BLOCK
  5
24
330
23
100
AcDbEntity
  8
0
100
AcDbBlockBegin
  2
*Paper_Space0
 70
     0
 10
0.0
 20
0.0
 30
0.0
  3
*Paper_Space0
  1

  0
ENDBLK
  5
25
330
23
100
AcDbEntity
  8
0
100
AcDbBlockEnd
  0
ENDSEC
  0
SECTION
  2
ENTITIES
  0
SPLINE
  5
3C
330
1F
100
AcDbEntity
  8
Default
100
AcDbSpline
210
0.0
220
0.0
230
1.0
 70
    24
 71
     2
 72
     6
 73
     3
 74
     0
 42
0.0000000001
 43
0.0000000001
 40
0.0
 40
0.0
 40
0.0
 40
0.5674894410763205
 40
0.5674894410763205
 40
0.5674894410763205
 10
-13.41000179352791
 20
53.72604907515153
 30
0.0
 10
-13.41000179352791
 20
53.44230435461337
 30
0.0
 10
-13.41000179352791
 20
53.15855963407521
 30
0.0
  0
SPLINE
  5
3D
330
1F
100
AcDbEntity
  8
Default
100
AcDbSpline
210
0.0
220
0.0
230
1.0
 70
    24
 71
     2
 72
     6
 73
     3
 74
     0
 42
0.0000000001
 43
0.0000000001
 40
0.0
 40
0.0
 40
0.0
 40
0.0782384633824975
 40
0.0782384633824975
 40
0.0782384633824975
 10
-12.91000179352791
 20
53.06480966372821
 30
0.0
 10
-12.91000179352791
 20
53.10392889541946
 30
0.0
 10
-12.91000179352791
 20
53.1430481271107
 30
0.0
  0
SPLINE
  5
3E
330
1F
100
AcDbEntity
  8
Default
100
AcDbSpline
210
0.0
220
0.0
230
1.0
 70
    12
 71
     2
 72
     6
 73
     3
 74
     0
 42
0.0000000001
 43
0.0000000001
 40
0.0
 40
0.0
 40
0.0
 40
0.0072164632770743
 40
0.0072164632770743
 40
0.0072164632770743
 10
-13.18066599474483
 20
53.4238228765976
 30
0.0
 41
1.0
 10
-13.1842484549896
 20
53.42439972985604
 30
0.0
 41
0.9915988732353345
 10
-13.18756305477987
 20
53.42587628304423
 30
0.0
 41
1.0
  0
SPLINE
  5
3F
330
1F
100
AcDbEntity
  8
Default
100
AcDbSpline
210
0.0
220
0.0
230
1.0
 70
    24
 71
     2
 72
     6
 73
     3
 74
     0
 42
0.0000000001
 43
0.0000000001
 40
0.0
 40
0.0
 40
0.0
 40
0.7463513369778312
 40
0.7463513369778312
 40
0.7463513369778312
 10
-8.622057429940908
 20
70.2043371788082
 30
0.0
 10
-8.622057429940908
 20
69.83116151031929
 30
0.0
 10
-8.622057429940908
 20
69.45798584183038
 30
0.0
  0
SPLINE
  5
40
330
1F
100
AcDbEntity
  8
Default
100
AcDbSpline
210
0.0
220
0.0
230
1.0
 70
    24
 71
     2
 72
     6
 73
     3
 74
     0
 42
0.0000000001
 43
0.0000000001
 40
0.0
 40
0.0
 40
0.0
 40
0.5745184500626443
 40
0.5745184500626443
 40
0.5745184500626443
 10
-8.122057429940913
 20
69.72356869909257
 30
0.0
 10
-8.122057429940913
 20
70.01082792412389
 30
0.0
 10
-8.122057429940915
 20
70.29808714915521
 30
0.0
  0
SPLINE
  5
41
330
1F
100
AcDbEntity
  8
Default
100
AcDbSpline
210
0.0
220
0.0
230
1.0
 70
    24
 71
     2
 72
     6
 73
     3
 74
     0
 42
0.0000000001
 43
0.0000000001
 40
0.0
 40
0.0
 40
0.0
 40
0.2330720886003164
 40
0.2330720886003164
 40
0.2330720886003164
 10
-7.372057429940901
 20
70.29808714915421
 30
0.0
 10
-7.372057429940901
 20
70.18155110485405
 30
0.0
 10
-7.372057429940901
 20
70.06501506055389
 30
0.0
  0
SPLINE
  5
42
330
1F
100
AcDbEntity
  8
Default
100
AcDbSpline
210
0.0
220
0.0
230
1.0
 70
    12
 71
     2
 72
    14
 73
    11
 74
     0
 42
0.0000000001
 43
0.0000000001
 40
-0.7218127545058044
 40
-0.7218127545058044
 40
-0.7218127545058044
 40
-0.6383024290667878
 40
-0.6383024290667878
 40
-0.1688600406977225
 40
-0.1688600406977225
 40
-0.0499693487069602
 40
-0.0499693487069602
 40
0.0
 40
0.0
 40
0.0145385864221118
 40
0.0145385864221118
 40
0.0145385864221118
 10
12.98050407928983
 20
53.33563175506416
 30
0.0
 41
1.000000009826372
 10
12.97393353645547
 20
53.29431065399593
 30
0.0
 41
0.9969528321315052
 10
12.96101594355922
 20
53.25451440768555
 30
0.0
 41
1.000000009826372
 10
12.88325804948238
 20
53.0161801103181
 30
0.0
 41
0.9070905488540609
 10
12.65104817329905
 20
52.92169148221294
 30
0.0
 41
0.9999999993864535
 10
12.59600901005381
 20
52.89922858930133
 30
0.0
 41
0.9999694777077622
 10
12.54065644354305
 20
52.87754873892207
 30
0.0
 41
0.9999999994034761
 10
12.51737283516052
 20
52.86847784069744
 30
0.0
 41
0.9997966536611157
 10
12.49371702930641
 20
52.86042773122945
 30
0.0
 41
1.0
 10
12.47944925930413
 20
52.85531192805386
 30
0.0
 41
0.9999950168869298
 10
12.47256215040622
 20
52.852985835641
 30
0.0
 41
1.0
  0
SPLINE
  5
43
330
1F
100
AcDbEntity
  8
Default
100
AcDbSpline
210
0.0
220
0.0
230
1.0
 70
     8
 71
     3
 72
    12
 73
     8
 74
     0
 42
0.0000000001
 43
0.0000000001
 40
-0.4519769022821848
 40
-0.4519769022821848
 40
-0.4519769022821848
 40
-0.4519769022821848
 40
-0.3867993939067988
 40
-0.3062242424595931
 40
-0.1862046752822366
 40
-0.1065995477733627
 40
0.0
 40
0.0
 40
0.0
 40
0.0
 10
12.47256215040621
 20
52.852985835641
 30
0.0
 10
12.45197472592318
 20
52.846032518567
 30
0.0
 10
12.39611454339356
 20
52.83508861424901
 30
0.0
 10
12.30756722135271
 20
52.84519614813716
 30
0.0
 10
12.2166089610897
 20
52.86549975346652
 30
0.0
 10
12.11772306910285
 20
52.89158269945293
 30
0.0
 10
12.05805238735721
 20
52.90821722578526
 30
0.0
 10
12.02384279236888
 20
52.91797958130581
 30
0.0
  0
SPLINE
  5
44
330
1F
100
AcDbEntity
  8
Default
100
AcDbSpline
210
0.0
220
0.0
230
1.0
 70
    12
 71
     2
 72
     6
 73
     3
 74
     0
 42
0.0000000001
 43
0.0000000001
 40
0.0
 40
0.0
 40
0.0
 40
0.1963473754739958
 40
0.1963473754739958
 40
0.1963473754739958
 10
8.6220574299356
 20
70.20433833066919
 30
0.0
 41
1.0
 10
8.622053916724099
 20
70.32933481742532
 30
0.0
 41
0.707123397320473
 10
8.497057429940908
 20
70.32933717880822
 30
0.0
 41
1.0
  0
SPLINE
  5
45
330
1F
100
AcDbEntity
  8
Default
100
AcDbSpline
210
0.0
220
0.0
230
1.0
 70
    24
 71
     2
 72
     6
 73
     3
 74
     0
 42
0.0000000001
 43
0.0000000001
 40
0.0
 40
0.0
 40
0.0
 40
0.34375
 40
0.34375
 40
0.34375
 10
8.497057429940908
 20
70.3293371788082
 30
0.0
 10
8.325182429940908
 20
70.3293371788082
 30
0.0
 10
8.153307429940908
 20
70.3293371788082
 30
0.0
  0
SPLINE
  5
46
330
1F
100
AcDbEntity
  8
Default
100
AcDbSpline
210
0.0
220
0.0
230
1.0
 70
    12
 71
     2
 72
     6
 73
     3
 74
     0
 42
0.0000000001
 43
0.0000000001
 40
0.0
 40
0.0
 40
0.0
 40
0.0490826514060801
 40
0.0490826514060801
 40
0.0490826514060801
 10
8.153307429940908
 20
70.3293371788082
 30
0.0
 41
1.0
 10
8.12206845855698
 20
70.32932615019212
 30
0.0
 41
0.7073563743009277
 10
8.1220574299409
 20
70.2980871788082
 30
0.0
 41
1.0
  0
SPLINE
  5
47
330
1F
100
AcDbEntity
  8
Default
100
AcDbSpline
210
0.0
220
0.0
230
1.0
 70
    12
 71
     2
 72
     6
 73
     3
 74
     0
 42
0.0000000001
 43
0.0000000001
 40
0.0
 40
0.0
 40
0.0
 40
0.1439650692225001
 40
0.1439650692225001
 40
0.1439650692225001
 10
6.997057429940908
 20
70.3293371788082
 30
0.0
 41
1.0
 10
6.915902557040035
 20
70.3293307652011
 30
0.0
 41
0.8387773894183306
 10
6.882870670693514
 20
70.25520244455993
 30
0.0
 41
1.0
  0
SPLINE
  5
48
330
1F
100
AcDbEntity
  8
Default
100
AcDbSpline
210
0.0
220
0.0
230
1.0
 70
    24
 71
     2
 72
     6
 73
     3
 74
     0
 42
0.0000000001
 43
0.0000000001
 40
0.0
 40
0.0
 40
0.0
 40
0.34375
 40
0.34375
 40
0.34375
 10
7.340807429940908
 20
70.3293371788082
 30
0.0
 10
7.168932429940908
 20
70.3293371788082
 30
0.0
 10
6.997057429940908
 20
70.3293371788082
 30
0.0
  0
SPLINE
  5
49
330
1F
100
AcDbEntity
  8
Default
100
AcDbSpline
210
0.0
220
0.0
230
1.0
 70
    12
 71
     2
 72
     8
 73
     5
 74
     0
 42
0.0000000001
 43
0.0000000001
 40
0.0
 40
0.0
 40
0.0
 40
0.0245445835753185
 40
0.0245445835753185
 40
0.0490891671506371
 40
0.0490891671506371
 40
0.0490891671506371
 10
7.372057429940908
 20
70.29808717880819
 30
0.0
 41
1.0
 10
7.372059149549329
 20
70.31103206485056
 30
0.0
 41
0.9238541124957734
 10
7.36290573276631
 20
70.3201854816336
 30
0.0
 41
1.0
 10
7.353752315983291
 20
70.32933889841661
 30
0.0
 41
0.9238541124957734
 10
7.340807429940908
 20
70.3293371788082
 30
0.0
 41
1.0
  0
SPLINE
  5
4A
330
1F
100
AcDbEntity
  8
Default
100
AcDbSpline
210
0.0
220
0.0
230
1.0
 70
    12
 71
     2
 72
     6
 73
     3
 74
     0
 42
0.0000000001
 43
0.0000000001
 40
0.0
 40
0.0
 40
0.0
 40
0.1439650692225001
 40
0.1439650692225001
 40
0.1439650692225001
 10
-6.997057429940908
 20
70.3293371788082
 30
0.0
 41
1.0
 10
-6.915902557040035
 20
70.3293307652011
 30
0.0
 41
0.8387773894183306
 10
-6.882870670693514
 20
70.25520244455993
 30
0.0
 41
1.0
  0
SPLINE
  5
4B
330
1F
100
AcDbEntity
  8
Default
100
AcDbSpline
210
0.0
220
0.0
230
1.0
 70
    24
 71
     2
 72
     6
 73
     3
 74
     0
 42
0.0000000001
 43
0.0000000001
 40
0.0
 40
0.0
 40
0.0
 40
0.34375
 40
0.34375
 40
0.34375
 10
-7.340807429940908
 20
70.3293371788082
 30
0.0
 10
-7.168932429940908
 20
70.3293371788082
 30
0.0
 10
-6.997057429940908
 20
70.3293371788082
 30
0.0
  0
SPLINE
  5
4C
330
1F
100
AcDbEntity
  8
Default
100
AcDbSpline
210
0.0
220
0.0
230
1.0
 70
    12
 71
     2
 72
     6
 73
     3
 74
     0
 42
0.0000000001
 43
0.0000000001
 40
0.0
 40
0.0
 40
0.0
 40
0.1963473754739958
 40
0.1963473754739958
 40
0.1963473754739958
 10
-8.6220574299356
 20
70.20433833066919
 30
0.0
 41
1.0
 10
-8.622053916724099
 20
70.32933481742532
 30
0.0
 41
0.707123397320473
 10
-8.497057429940908
 20
70.32933717880822
 30
0.0
 41
1.0
  0
SPLINE
  5
4D
330
1F
100
AcDbEntity
  8
Default
100
AcDbSpline
210
0.0
220
0.0
230
1.0
 70
    12
 71
     3
 72
    11
 73
     7
 74
     0
 42
0.0000000001
 43
0.0000000001
 40
0.640875809691118
 40
0.640875809691118
 40
0.640875809691118
 40
0.640875809691118
 40
0.6568174083128
 40
0.6727590025993
 40
0.6887005968858
 40
0.704642182749559
 40
0.704642182749559
 40
0.704642182749559
 40
0.704642182749559
 10
-9.675162729675478
 20
53.90360542931882
 30
0.0
 41
1.0
 10
-9.681167366565674
 20
53.72106392039444
 30
0.0
 41
1.0
 10
-9.695835552200691
 20
53.35131833824895
 30
0.0
 41
1.0
 10
-9.762318697243074
 20
52.88779227510076
 30
0.0
 41
1.0
 10
-9.870677524266966
 20
52.60430596736141
 30
0.0
 41
1.0
 10
-9.956297075261759
 20
52.56968627167777
 30
0.0
 41
1.0
 10
-9.991547471247657
 20
52.59057569661064
 30
0.0
 41
1.0
  0
SPLINE
  5
4E
330
1F
100
AcDbEntity
  8
Default
100
AcDbSpline
210
0.0
220
0.0
230
1.0
 70
    12
 71
     2
 72
     6
 73
     3
 74
     0
 42
0.0000000001
 43
0.0000000001
 40
0.0
 40
0.0
 40
0.0
 40
0.0490826514060801
 40
0.0490826514060801
 40
0.0490826514060801
 10
-8.153307429940908
 20
70.3293371788082
 30
0.0
 41
1.0
 10
-8.12206845855698
 20
70.32932615019212
 30
0.0
 41
0.7073563743009277
 10
-8.1220574299409
 20
70.2980871788082
 30
0.0
 41
1.0
  0
SPLINE
  5
4F
330
1F
100
AcDbEntity
  8
Default
100
AcDbSpline
210
0.0
220
0.0
230
1.0
 70
    24
 71
     2
 72
     6
 73
     3
 74
     0
 42
0.0000000001
 43
0.0000000001
 40
0.0
 40
0.0
 40
0.0
 40
0.34375
 40
0.34375
 40
0.34375
 10
-8.497057429940908
 20
70.3293371788082
 30
0.0
 10
-8.325182429940908
 20
70.3293371788082
 30
0.0
 10
-8.153307429940908
 20
70.3293371788082
 30
0.0
  0
SPLINE
  5
50
330
1F
100
AcDbEntity
  8
Default
100
AcDbSpline
210
0.0
220
0.0
230
1.0
 70
    12
 71
     2
 72
     6
 73
     3
 74
     0
 42
0.0000000001
 43
0.0000000001
 40
0.0
 40
0.0
 40
0.0
 40
0.196348179339029
 40
0.196348179339029
 40
0.196348179339029
 10
-13.28500179352791
 20
53.03355963407521
 30
0.0
 41
1.0
 10
-13.41000015321435
 20
53.0335601225376
 30
0.0
 41
0.7071128023125499
 10
-13.4100017935226
 20
53.15855848221423
 30
0.0
 41
1.0
  0
SPLINE
  5
51
330
1F
100
AcDbEntity
  8
Default
100
AcDbSpline
210
0.0
220
0.0
230
1.0
 70
    24
 71
     2
 72
     6
 73
     3
 74
     0
 42
0.0000000001
 43
0.0000000001
 40
0.0
 40
0.0
 40
0.0
 40
0.34375
 40
0.34375
 40
0.34375
 10
-12.94125179352791
 20
53.03355963407521
 30
0.0
 10
-13.11312679352791
 20
53.03355963407521
 30
0.0
 10
-13.28500179352791
 20
53.03355963407521
 30
0.0
  0
SPLINE
  5
52
330
1F
100
AcDbEntity
  8
Default
100
AcDbSpline
210
0.0
220
0.0
230
1.0
 70
    12
 71
     2
 72
     8
 73
     5
 74
     0
 42
0.0000000001
 43
0.0000000001
 40
0.0
 40
0.0
 40
0.0
 40
0.0245445835752916
 40
0.0245445835752916
 40
0.0490891671505831
 40
0.0490891671505831
 40
0.0490891671505831
 10
-12.9100017935279
 20
53.06480963407516
 30
0.0
 41
1.0
 10
-12.9100000739195
 20
53.05186474803279
 30
0.0
 41
0.9238541124959033
 10
-12.91915349070252
 20
53.04271133124979
 30
0.0
 41
1.0
 10
-12.92830690748554
 20
53.03355791446679
 30
0.0
 41
0.9238541124959033
 10
-12.94125179352791
 20
53.03355963407521
 30
0.0
 41
1.0
  0
SPLINE
  5
53
330
1F
100
AcDbEntity
  8
Default
100
AcDbSpline
210
0.0
220
0.0
230
1.0
 70
    24
 71
     2
 72
     6
 73
     3
 74
     0
 42
0.0000000001
 43
0.0000000001
 40
0.0
 40
0.0
 40
0.0
 40
0.5979903899521872
 40
0.5979903899521872
 40
0.5979903899521872
 10
-8.106432429940908
 20
69.73134678885603
 30
0.0
 10
-8.106432429940908
 20
70.03034198383212
 30
0.0
 10
-8.106432429940908
 20
70.3293371788082
 30
0.0
  0
SPLINE
  5
54
330
1F
100
AcDbEntity
  8
Default
100
AcDbSpline
210
0.0
220
0.0
230
1.0
 70
    24
 71
     2
 72
     6
 73
     3
 74
     0
 42
0.0000000001
 43
0.0000000001
 40
0.0
 40
0.0
 40
0.0
 40
0.71875
 40
0.71875
 40
0.71875
 10
-8.106432429940908
 20
70.3293371788082
 30
0.0
 10
-7.747057429940908
 20
70.3293371788082
 30
0.0
 10
-7.387682429940908
 20
70.3293371788082
 30
0.0
  0
SPLINE
  5
55
330
1F
100
AcDbEntity
  8
Default
100
AcDbSpline
210
0.0
220
0.0
230
1.0
 70
    24
 71
     2
 72
     6
 73
     3
 74
     0
 42
0.0000000001
 43
0.0000000001
 40
0.0
 40
0.0
 40
0.0
 40
0.2708027543719886
 40
0.2708027543719886
 40
0.2708027543719886
 10
-7.387682429940908
 20
70.3293371788082
 30
0.0
 10
-7.387682429940908
 20
70.19393580162222
 30
0.0
 10
-7.387682429940908
 20
70.05853442443622
 30
0.0
  0
SPLINE
  5
56
330
1F
100
AcDbEntity
  8
Default
100
AcDbSpline
210
0.0
220
0.0
230
1.0
 70
    12
 71
     2
 72
     8
 73
     5
 74
     0
 42
0.0000000001
 43
0.0000000001
 40
0.0
 40
0.0
 40
0.0
 40
0.0245445835753185
 40
0.0245445835753185
 40
0.0490891671506371
 40
0.0490891671506371
 40
0.0490891671506371
 10
-7.372057429940908
 20
70.29808717880819
 30
0.0
 41
1.0
 10
-7.372059149549329
 20
70.31103206485056
 30
0.0
 41
0.9238541124957734
 10
-7.36290573276631
 20
70.3201854816336
 30
0.0
 41
1.0
 10
-7.353752315983291
 20
70.32933889841661
 30
0.0
 41
0.9238541124957734
 10
-7.340807429940908
 20
70.3293371788082
 30
0.0
 41
1.0
  0
SPLINE
  5
57
330
1F
100
AcDbEntity
  8
Default
100
AcDbSpline
210
0.0
220
0.0
230
1.0
 70
    12
 71
     2
 72
     6
 73
     3
 74
     0
 42
0.0000000001
 43
0.0000000001
 40
0.0
 40
0.0
 40
0.0
 40
0.196348179339029
 40
0.196348179339029
 40
0.196348179339029
 10
13.28500179352791
 20
53.03355963407521
 30
0.0
 41
1.0
 10
13.41000015321435
 20
53.0335601225376
 30
0.0
 41
0.7071128023125499
 10
13.4100017935226
 20
53.15855848221423
 30
0.0
 41
1.0
  0
SPLINE
  5
58
330
1F
100
AcDbEntity
  8
Default
100
AcDbSpline
210
0.0
220
0.0
230
1.0
 70
    12
 71
     2
 72
     8
 73
     5
 74
     0
 42
0.0000000001
 43
0.0000000001
 40
0.0
 40
0.0
 40
0.0
 40
0.0245445835752916
 40
0.0245445835752916
 40
0.0490891671505831
 40
0.0490891671505831
 40
0.0490891671505831
 10
12.9100017935279
 20
53.06480963407516
 30
0.0
 41
1.0
 10
12.9100000739195
 20
53.05186474803279
 30
0.0
 41
0.9238541124959033
 10
12.91915349070252
 20
53.04271133124979
 30
0.0
 41
1.0
 10
12.92830690748554
 20
53.03355791446679
 30
0.0
 41
0.9238541124959033
 10
12.94125179352791
 20
53.03355963407521
 30
0.0
 41
1.0
  0
SPLINE
  5
59
330
1F
100
AcDbEntity
  8
Default
100
AcDbSpline
210
0.0
220
0.0
230
1.0
 70
    24
 71
     2
 72
     6
 73
     3
 74
     0
 42
0.0000000001
 43
0.0000000001
 40
0.0
 40
0.0
 40
0.0
 40
0.34375
 40
0.34375
 40
0.34375
 10
12.94125179352791
 20
53.03355963407521
 30
0.0
 10
13.11312679352791
 20
53.03355963407521
 30
0.0
 10
13.28500179352791
 20
53.03355963407521
 30
0.0
  0
SPLINE
  5
5A
330
1F
100
AcDbEntity
  8
Default
100
AcDbSpline
210
0.0
220
0.0
230
1.0
 70
    24
 71
     2
 72
     6
 73
     3
 74
     0
 42
0.0000000001
 43
0.0000000001
 40
0.0
 40
0.0
 40
0.0
 40
0.5979903899521872
 40
0.5979903899521872
 40
0.5979903899521872
 10
8.106432429940908
 20
69.73134678885603
 30
0.0
 10
8.106432429940908
 20
70.03034198383212
 30
0.0
 10
8.106432429940908
 20
70.3293371788082
 30
0.0
  0
SPLINE
  5
5B
330
1F
100
AcDbEntity
  8
Default
100
AcDbSpline
210
0.0
220
0.0
230
1.0
 70
    24
 71
     2
 72
     6
 73
     3
 74
     0
 42
0.0000000001
 43
0.0000000001
 40
-0.0322825819474391
 40
-0.0322825819474391
 40
-0.0322825819474391
 40
0.0
 40
0.0
 40
0.0
 10
-0.3750007134079123
 20
43.98988087236865
 30
0.0
 10
-0.3750007134079105
 20
43.97373957398168
 30
0.0
 10
-0.3750007134079087
 20
43.95759827559471
 30
0.0
  0
SPLINE
  5
5C
330
1F
100
AcDbEntity
  8
Default
100
AcDbSpline
210
0.0
220
0.0
230
1.0
 70
    12
 71
     2
 72
     8
 73
     5
 74
     0
 42
0.0000000001
 43
0.0000000001
 40
0.0
 40
0.0
 40
0.0
 40
0.0245445835753085
 40
0.0245445835753085
 40
0.049089167150617
 40
0.049089167150617
 40
0.049089167150617
 10
-0.3750007134079087
 20
43.95759827559471
 30
0.0
 41
1.0
 10
-0.3749989937994905
 20
43.94465337472583
 30
0.0
 41
0.9238541124957921
 10
-0.3841524105825087
 20
43.93549995794282
 30
0.0
 41
1.0
 10
-0.3933058273655263
 20
43.92634654115979
 30
0.0
 41
0.9238541124957921
 10
-0.4062507134079052
 20
43.92634826076821
 30
0.0
 41
1.0
  0
SPLINE
  5
5D
330
1F
100
AcDbEntity
  8
Default
100
AcDbSpline
210
0.0
220
0.0
230
1.0
 70
    24
 71
     2
 72
     6
 73
     3
 74
     0
 42
0.0000000001
 43
0.0000000001
 40
0.0
 40
0.0
 40
0.0
 40
0.34375
 40
0.34375
 40
0.34375
 10
-0.4062507134079052
 20
43.92634826076821
 30
0.0
 10
-0.5781257134079052
 20
43.92634826076821
 30
0.0
 10
-0.7500007134079052
 20
43.92634826076821
 30
0.0
  0
SPLINE
  5
5E
330
1F
100
AcDbEntity
  8
Default
100
AcDbSpline
210
0.0
220
0.0
230
1.0
 70
    12
 71
     2
 72
     6
 73
     3
 74
     0
 42
0.0000000001
 43
0.0000000001
 40
0.0
 40
0.0
 40
0.0
 40
0.1963481793390284
 40
0.1963481793390284
 40
0.1963481793390284
 10
-0.7500007134079052
 20
43.92634826076821
 30
0.0
 41
1.0
 10
-0.8749990730943394
 20
43.92634874923061
 30
0.0
 41
0.7071128023125767
 10
-0.8750007134052513
 20
44.05134768483772
 30
0.0
 41
1.0
  0
LINE
  5
5F
330
1F
100
AcDbEntity
  8
Default
100
AcDbLine
 10
-0.8750007134052513
 20
44.05134768483772
 30
0.0
 11
-0.8750007134052513
 21
46.36134941262918
 31
0.0
  0
SPLINE
  5
60
330
1F
100
AcDbEntity
  8
Default
100
AcDbSpline
210
0.0
220
0.0
230
1.0
 70
    12
 71
     2
 72
     6
 73
     3
 74
     0
 42
0.0000000001
 43
0.0000000001
 40
0.0
 40
0.0
 40
0.0
 40
0.044512422001168
 40
0.044512422001168
 40
0.044512422001168
 10
-0.8750007134052513
 20
46.36134941262918
 30
0.0
 41
1.0
 10
-0.8750022248226618
 20
46.38384407170238
 30
0.0
 41
0.9841752667073161
 10
-0.8671577900223628
 20
46.40492663634163
 30
0.0
 41
1.0
  0
SPLINE
  5
61
330
1F
100
AcDbEntity
  8
Default
100
AcDbSpline
210
0.0
220
0.0
230
1.0
 70
    12
 71
     2
 72
     6
 73
     3
 74
     0
 42
0.0000000001
 43
0.0000000001
 40
0.0
 40
0.0
 40
0.0
 40
0.0072164632770743
 40
0.0072164632770743
 40
0.0072164632770743
 10
13.18066599474483
 20
53.4238228765976
 30
0.0
 41
1.0
 10
13.1842484549896
 20
53.42439972985604
 30
0.0
 41
0.9915988732353345
 10
13.18756305477987
 20
53.42587628304423
 30
0.0
 41
1.0
  0
SPLINE
  5
62
330
1F
100
AcDbEntity
  8
Default
100
AcDbSpline
210
0.0
220
0.0
230
1.0
 70
    24
 71
     2
 72
     6
 73
     3
 74
     0
 42
0.0000000001
 43
0.0000000001
 40
-0.0322825819474391
 40
-0.0322825819474391
 40
-0.0322825819474391
 40
0.0
 40
0.0
 40
0.0
 10
0.3750007134079123
 20
43.98988087236865
 30
0.0
 10
0.3750007134079105
 20
43.97373957398168
 30
0.0
 10
0.3750007134079087
 20
43.95759827559471
 30
0.0
  0
SPLINE
  5
63
330
1F
100
AcDbEntity
  8
Default
100
AcDbSpline
210
0.0
220
0.0
230
1.0
 70
    12
 71
     2
 72
     8
 73
     5
 74
     0
 42
0.0000000001
 43
0.0000000001
 40
0.0
 40
0.0
 40
0.0
 40
0.0245445835753085
 40
0.0245445835753085
 40
0.049089167150617
 40
0.049089167150617
 40
0.049089167150617
 10
0.3750007134079087
 20
43.95759827559471
 30
0.0
 41
1.0
 10
0.3749989937994905
 20
43.94465337472583
 30
0.0
 41
0.9238541124957921
 10
0.3841524105825087
 20
43.93549995794282
 30
0.0
 41
1.0
 10
0.3933058273655263
 20
43.92634654115979
 30
0.0
 41
0.9238541124957921
 10
0.4062507134079052
 20
43.92634826076821
 30
0.0
 41
1.0
  0
SPLINE
  5
64
330
1F
100
AcDbEntity
  8
Default
100
AcDbSpline
210
0.0
220
0.0
230
1.0
 70
    24
 71
     2
 72
     6
 73
     3
 74
     0
 42
0.0000000001
 43
0.0000000001
 40
0.0
 40
0.0
 40
0.0
 40
0.34375
 40
0.34375
 40
0.34375
 10
0.4062507134079052
 20
43.92634826076821
 30
0.0
 10
0.5781257134079052
 20
43.92634826076821
 30
0.0
 10
0.7500007134079052
 20
43.92634826076821
 30
0.0
  0
SPLINE
  5
65
330
1F
100
AcDbEntity
  8
Default
100
AcDbSpline
210
0.0
220
0.0
230
1.0
 70
    12
 71
     2
 72
     6
 73
     3
 74
     0
 42
0.0000000001
 43
0.0000000001
 40
0.0
 40
0.0
 40
0.0
 40
0.1963481793390284
 40
0.1963481793390284
 40
0.1963481793390284
 10
0.7500007134079052
 20
43.92634826076821
 30
0.0
 41
1.0
 10
0.8749990730943394
 20
43.92634874923061
 30
0.0
 41
0.7071128023125767
 10
0.8750007134052513
 20
44.05134768483772
 30
0.0
 41
1.0
  0
LINE
  5
66
330
1F
100
AcDbEntity
  8
Default
100
AcDbLine
 10
0.8750007134052513
 20
44.05134768483772
 30
0.0
 11
0.8750007134052513
 21
46.36134941262918
 31
0.0
  0
SPLINE
  5
67
330
1F
100
AcDbEntity
  8
Default
100
AcDbSpline
210
0.0
220
0.0
230
1.0
 70
    12
 71
     2
 72
     6
 73
     3
 74
     0
 42
0.0000000001
 43
0.0000000001
 40
0.0
 40
0.0
 40
0.0
 40
0.044512422001168
 40
0.044512422001168
 40
0.044512422001168
 10
0.8750007134052513
 20
46.36134941262918
 30
0.0
 41
1.0
 10
0.8750022248226618
 20
46.38384407170238
 30
0.0
 41
0.9841752667073161
 10
0.8671577900223628
 20
46.40492663634163
 30
0.0
 41
1.0
  0
SPLINE
  5
68
330
1F
100
AcDbEntity
  8
Default
100
AcDbSpline
210
0.0
220
0.0
230
1.0
 70
    12
 71
     3
 72
    12
 73
     8
 74
     0
 42
0.0000000001
 43
0.0000000001
 40
-26.51543738949739
 40
-26.51543738949739
 40
-26.51543738949739
 40
-26.51543738949739
 40
-24.66247886371303
 40
-24.66247886371303
 40
-23.65545992385996
 40
-23.65545992385996
 40
-22.63551809310113
 40
-22.63551809310113
 40
-22.63551809310113
 40
-22.63551809310113
 10
3.912136081878884
 20
46.84888315133659
 30
0.0
 41
1.0
 10
4.392683341417481
 20
46.89923170389739
 30
0.0
 41
1.0
 10
4.871859242572953
 20
46.96605509207571
 30
0.0
 41
1.0
 10
5.602825660192508
 20
47.11201713637494
 30
0.0
 41
1.0
 10
5.831612330128053
 20
47.16576189456134
 30
0.0
 41
1.0
 10
6.273217130970679
 20
47.28692332922859
 30
0.0
 41
1.0
 10
6.491597418440264
 20
47.35497070947159
 30
0.0
 41
1.0
 10
6.73936965029246
 20
47.45149412921125
 30
0.0
 41
1.0
  0
SPLINE
  5
69
330
1F
100
AcDbEntity
  8
Default
100
AcDbSpline
210
0.0
220
0.0
230
1.0
 70
     8
 71
     3
 72
    36
 73
    32
 74
     0
 42
0.0000000001
 43
0.0000000001
 40
0.0
 40
0.0
 40
0.0
 40
0.0
 40
0.5845840477600965
 40
1.121539012938696
 40
1.630021079404329
 40
2.134897755532759
 40
3.117307920321436
 40
3.58688961485074
 40
3.708615426178357
 40
3.942256592317964
 40
4.123764014109085
 40
4.350675007739261
 40
5.428939918375826
 40
6.695641534806008
 40
7.447501009350757
 40
8.342315829269179
 40
10.11872897889734
 40
11.58773553554897
 40
12.29847648644513
 40
12.84398264117625
 40
13.69997086996353
 40
14.46939190643077
 40
15.52545896706117
 40
16.46572443227708
 40
17.39416618395607
 40
18.38219267897781
 40
19.29813039380195
 40
20.46806602996818
 40
21.17735570126795
 40
22.04363197535045
 40
23.91013064634891
 40
23.91013064634891
 40
23.91013064634891
 40
23.91013064634891
 10
6.73936965029246
 20
47.45149412921125
 30
0.0
 10
6.920902813124127
 20
47.52225489790297
 30
0.0
 10
7.262794490361117
 20
47.67516703683256
 30
0.0
 10
7.726560339053076
 20
47.9608227970266
 30
0.0
 10
8.122614002241843
 20
48.29532188144172
 30
0.0
 10
8.553589114775114
 20
48.80533293130755
 30
0.0
 10
8.844295472311146
 20
49.39844794235742
 30
0.0
 10
8.966608842591743
 20
49.90938145329616
 30
0.0
 10
9.014169538423326
 20
50.18028205001468
 30
0.0
 10
9.043594759201085
 20
50.35677217819678
 30
0.0
 10
9.074801381680066
 20
50.56853254099507
 30
0.0
 10
9.140947812513085
 20
51.0597081729214
 30
0.0
 10
9.20984698810867
 20
51.91486381182209
 30
0.0
 10
9.222238660642748
 20
52.9474408526242
 30
0.0
 10
9.213247126365701
 20
53.91843736553955
 30
0.0
 10
9.180623998863915
 20
55.05913881154625
 30
0.0
 10
9.113251868957892
 20
56.43763336105145
 30
0.0
 10
9.002275755694992
 20
57.75195584392098
 30
0.0
 10
8.904189440700065
 20
58.6550566028932
 30
0.0
 10
8.812192241285395
 20
59.35317244958409
 30
0.0
 10
8.673524743117474
 20
60.06423770898031
 30
0.0
 10
8.407317195032071
 20
60.91902154624022
 30
0.0
 10
8.005697206934894
 20
61.75336545105333
 30
0.0
 10
7.414304899151837
 20
62.53499460464357
 30
0.0
 10
6.690232920026222
 20
63.16152153075831
 30
0.0
 10
5.857428004137218
 20
63.61736259282075
 30
0.0
 10
4.881354269446007
 20
63.93879709789559
 30
0.0
 10
3.96031075780944
 20
64.09275294683093
 30
0.0
 10
3.051461271550771
 20
64.19689859524821
 30
0.0
 10
1.90745200336273
 20
64.28730708370365
 30
0.0
 10
0.9970301743797787
 20
64.32538297524349
 30
0.0
 10
0.374971387367621
 20
64.33645508152057
 30
0.0
  0
LINE
  5
6A
330
1F
100
AcDbEntity
  8
Default
100
AcDbLine
 10
0.374971387367621
 20
64.33645508152057
 30
0.0
 11
0.0
 21
64.34312901631162
 31
0.0
  0
LINE
  5
6B
330
1F
100
AcDbEntity
  8
Default
100
AcDbLine
 10
0.0
 20
64.34312901631162
 30
0.0
 11
-0.374971387367621
 21
64.33645508152057
 31
0.0
  0
SPLINE
  5
6C
330
1F
100
AcDbEntity
  8
Default
100
AcDbSpline
210
0.0
220
0.0
230
1.0
 70
     8
 71
     3
 72
    36
 73
    32
 74
     0
 42
0.0000000001
 43
0.0000000001
 40
-23.91013064634891
 40
-23.91013064634891
 40
-23.91013064634891
 40
-23.91013064634891
 40
-22.04363197535045
 40
-21.17735570126795
 40
-20.46806602996818
 40
-19.29813039380195
 40
-18.38219267897781
 40
-17.39416618395607
 40
-16.46572443227708
 40
-15.52545896706117
 40
-14.46939190643077
 40
-13.69997086996353
 40
-12.84398264117625
 40
-12.29847648644513
 40
-11.58773553554897
 40
-10.11872897889734
 40
-8.342315829269179
 40
-7.447501009350757
 40
-6.695641534806008
 40
-5.428939918375826
 40
-4.350675007739261
 40
-4.123764014109085
 40
-3.942256592317964
 40
-3.708615426178357
 40
-3.58688961485074
 40
-3.117307920321436
 40
-2.134897755532759
 40
-1.630021079404329
 40
-1.121539012938696
 40
-0.5845840477600965
 40
0.0
 40
0.0
 40
0.0
 40
0.0
 10
-0.374971387367621
 20
64.33645508152057
 30
0.0
 10
-0.9970301743797787
 20
64.32538297524349
 30
0.0
 10
-1.90745200336273
 20
64.28730708370365
 30
0.0
 10
-3.051461271550771
 20
64.19689859524821
 30
0.0
 10
-3.96031075780944
 20
64.09275294683093
 30
0.0
 10
-4.881354269446007
 20
63.93879709789559
 30
0.0
 10
-5.857428004137218
 20
63.61736259282075
 30
0.0
 10
-6.690232920026222
 20
63.16152153075831
 30
0.0
 10
-7.414304899151837
 20
62.53499460464357
 30
0.0
 10
-8.005697206934894
 20
61.75336545105333
 30
0.0
 10
-8.407317195032071
 20
60.91902154624022
 30
0.0
 10
-8.673524743117474
 20
60.06423770898031
 30
0.0
 10
-8.812192241285395
 20
59.35317244958409
 30
0.0
 10
-8.904189440700065
 20
58.6550566028932
 30
0.0
 10
-9.002275755694992
 20
57.75195584392098
 30
0.0
 10
-9.113251868957892
 20
56.43763336105145
 30
0.0
 10
-9.180623998863915
 20
55.05913881154625
 30
0.0
 10
-9.213247126365701
 20
53.91843736553955
 30
0.0
 10
-9.222238660642748
 20
52.9474408526242
 30
0.0
 10
-9.20984698810867
 20
51.91486381182209
 30
0.0
 10
-9.140947812513085
 20
51.0597081729214
 30
0.0
 10
-9.074801381680066
 20
50.56853254099507
 30
0.0
 10
-9.043594759201085
 20
50.35677217819678
 30
0.0
 10
-9.014169538423326
 20
50.18028205001468
 30
0.0
 10
-8.966608842591743
 20
49.90938145329616
 30
0.0
 10
-8.844295472311146
 20
49.39844794235742
 30
0.0
 10
-8.553589114775114
 20
48.80533293130755
 30
0.0
 10
-8.122614002241843
 20
48.29532188144172
 30
0.0
 10
-7.726560339053076
 20
47.9608227970266
 30
0.0
 10
-7.262794490361117
 20
47.67516703683256
 30
0.0
 10
-6.920902813124127
 20
47.52225489790297
 30
0.0
 10
-6.73936965029246
 20
47.45149412921125
 30
0.0
  0
SPLINE
  5
6D
330
1F
100
AcDbEntity
  8
Default
100
AcDbSpline
210
0.0
220
0.0
230
1.0
 70
    12
 71
     3
 72
    12
 73
     8
 74
     0
 42
0.0000000001
 43
0.0000000001
 40
22.63551809310113
 40
22.63551809310113
 40
22.63551809310113
 40
22.63551809310113
 40
23.65545992385996
 40
23.65545992385996
 40
24.66247886371303
 40
24.66247886371303
 40
26.51543738949739
 40
26.51543738949739
 40
26.51543738949739
 40
26.51543738949739
 10
-6.73936965029246
 20
47.45149412921125
 30
0.0
 41
1.0
 10
-6.491597418440264
 20
47.35497070947159
 30
0.0
 41
1.0
 10
-6.273217130970679
 20
47.28692332922859
 30
0.0
 41
1.0
 10
-5.831612330128053
 20
47.16576189456134
 30
0.0
 41
1.0
 10
-5.602825660192508
 20
47.11201713637494
 30
0.0
 41
1.0
 10
-4.871859242572953
 20
46.96605509207571
 30
0.0
 41
1.0
 10
-4.392683341417481
 20
46.89923170389739
 30
0.0
 41
1.0
 10
-3.912136081878884
 20
46.84888315133659
 30
0.0
 41
1.0
  0
SPLINE
  5
6E
330
1F
100
AcDbEntity
  8
Default
100
AcDbSpline
210
0.0
220
0.0
230
1.0
 70
    12
 71
     3
 72
    10
 73
     6
 74
     0
 42
0.0000000001
 43
0.0000000001
 40
27.22408972768616
 40
27.22408972768616
 40
27.22408972768616
 40
27.22408972768616
 40
27.53690576783487
 40
29.52674076034966
 40
31.1471756050514
 40
31.1471756050514
 40
31.1471756050514
 40
31.1471756050514
 10
-3.912136081878884
 20
46.84888315133659
 30
0.0
 41
1.0
 10
-3.808630446326518
 20
46.83782127904519
 30
0.0
 41
1.0
 10
-3.046024719460959
 20
46.76237753886401
 30
0.0
 41
1.0
 10
-1.74083325268511
 20
46.70480604824323
 30
0.0
 41
1.0
 10
-0.5397180966149387
 20
46.69226822602167
 30
0.0
 41
1.0
 10
0.0
 20
46.69275356331035
 30
0.0
 41
1.0
  0
SPLINE
  5
6F
330
1F
100
AcDbEntity
  8
Default
100
AcDbSpline
210
0.0
220
0.0
230
1.0
 70
    24
 71
     2
 72
     6
 73
     3
 74
     0
 42
0.0000000001
 43
0.0000000001
 40
0.0
 40
0.0
 40
0.0
 40
0.2382337037955169
 40
0.2382337037955169
 40
0.2382337037955169
 10
-9.690946317141984
 20
54.15642053137272
 30
0.0
 10
-9.571829465269534
 20
54.15641807584723
 30
0.0
 10
-9.452712613397086
 20
54.15641562032172
 30
0.0
  0
SPLINE
  5
70
330
1F
100
AcDbEntity
  8
Default
100
AcDbSpline
210
0.0
220
0.0
230
1.0
 70
    24
 71
     2
 72
     6
 73
     3
 74
     0
 42
0.0000000001
 43
0.0000000001
 40
0.0
 40
0.0
 40
0.0
 40
0.144363659264542
 40
0.144363659264542
 40
0.144363659264542
 10
-9.439899895803507
 20
57.1622688125619
 30
0.0
 10
-9.367719011747752
 20
57.16189934538878
 30
0.0
 10
-9.295538127691998
 20
57.16152987821567
 30
0.0
  0
SPLINE
  5
71
330
1F
100
AcDbEntity
  8
Default
100
AcDbSpline
210
0.0
220
0.0
230
1.0
 70
    12
 71
     3
 72
    34
 73
    30
 74
     0
 42
0.0000000001
 43
0.0000000001
 40
0.0
 40
0.0
 40
0.0
 40
0.0
 40
1.627383223663257
 40
1.627383223663257
 40
1.627383223663257
 40
1.648132153209832
 40
1.668881079000307
 40
1.689630004790782
 40
1.710378923943348
 40
1.710378923943348
 40
1.710378923943348
 40
6.334173086872395
 40
7.012375670359343
 40
7.739648075314364
 40
8.323810770830029
 40
8.750961294955339
 40
9.16509873210983
 40
9.96328946298434
 40
11.02564097483033
 40
12.07972313097017
 40
13.18938190904666
 40
14.40439045216914
 40
14.40439045216914
 40
14.40439045216914
 40
15.58189876195573
 40
17.0352835040147
 40
18.84581641124909
 40
19.89901137835859
 40
21.07907879724659
 40
21.07907879724659
 40
21.07907879724659
 40
21.07907879724659
 10
-9.991547471255302
 20
52.59057569658292
 30
0.0
 41
1.0
 10
-10.4582196341307
 20
52.86712787931407
 30
0.0
 41
0.9999999999997297
 10
-10.92489154803373
 20
53.14368048223347
 30
0.0
 41
0.9999999999997297
 10
-11.39156321296401
 20
53.42023350534087
 30
0.0
 41
1.0
 10
-11.43766323714263
 20
53.44755257871896
 30
0.0
 41
1.0
 10
-11.49526670129555
 20
53.5924724935368
 30
0.0
 41
1.0
 10
-11.53046323301761
 20
54.06665535912106
 30
0.0
 41
1.0
 10
-11.52615009517045
 20
54.73232563580461
 30
0.0
 41
1.0
 10
-11.47325672824405
 20
55.23429262743573
 30
0.0
 41
1.0
 10
-11.43201422157445
 20
55.47956438536919
 30
0.0
 41
1.0
 10
-11.17633804309736
 20
56.99947090733472
 30
0.0
 41
1.0
 10
-10.88352712551663
 20
58.74238747479163
 30
0.0
 41
1.0
 10
-10.54999719780607
 20
60.7242640049412
 30
0.0
 41
1.0
 10
-10.44060219106197
 20
61.37841505112736
 30
0.0
 41
1.0
 10
-10.34295318105258
 20
61.94961318076545
 30
0.0
 41
1.0
 10
-10.24449399995158
 20
62.41473295896925
 30
0.0
 41
1.0
 10
-10.0987218405963
 20
62.9414857761445
 30
0.0
 41
1.0
 10
-9.844152601943279
 20
63.65709137464783
 30
0.0
 41
1.0
 10
-9.364937332528559
 20
64.50900291149838
 30
0.0
 41
1.0
 10
-8.630063622483995
 20
65.30428137398431
 30
0.0
 41
1.0
 10
-7.700976020006478
 20
65.95042442205447
 30
0.0
 41
1.0
 10
-6.991013387160939
 20
66.26842018108592
 30
0.0
 41
1.0
 10
-6.610820341965189
 20
66.40752048557306
 30
0.0
 41
1.0
 10
-6.241842994343903
 20
66.5418211529172
 30
0.0
 41
1.0
 10
-5.391313120300198
 20
66.76430076687583
 30
0.0
 41
1.0
 10
-3.923016455462488
 20
66.96546087197031
 30
0.0
 41
1.0
 10
-2.486684197980303
 20
67.06077354422497
 30
0.0
 41
1.0
 10
-1.139160858221237
 20
67.09926264310049
 30
0.0
 41
1.0
 10
-0.3933672706611683
 20
67.10520324608295
 30
0.0
 41
1.0
 10
0.0
 20
67.10520324608295
 30
0.0
 41
1.0
  0
SPLINE
  5
72
330
1F
100
AcDbEntity
  8
Default
100
AcDbSpline
210
0.0
220
0.0
230
1.0
 70
    12
 71
     3
 72
    34
 73
    30
 74
     0
 42
0.0000000001
 43
0.0000000001
 40
-21.07907879724659
 40
-21.07907879724659
 40
-21.07907879724659
 40
-21.07907879724659
 40
-19.89901137835859
 40
-18.84581641124909
 40
-17.0352835040147
 40
-15.58189876195573
 40
-14.40439045216914
 40
-14.40439045216914
 40
-14.40439045216914
 40
-13.18938190904666
 40
-12.07972313097017
 40
-11.02564097483033
 40
-9.96328946298434
 40
-9.16509873210983
 40
-8.750961294955339
 40
-8.323810770830029
 40
-7.739648075314364
 40
-7.012375670359343
 40
-6.334173086872395
 40
-1.710378923943348
 40
-1.710378923943348
 40
-1.710378923943348
 40
-1.689630004790782
 40
-1.668881079000307
 40
-1.648132153209832
 40
-1.627383223663257
 40
-1.627383223663257
 40
-1.627383223663257
 40
0.0
 40
0.0
 40
0.0
 40
0.0
 10
0.0
 20
67.10520324608295
 30
0.0
 41
1.0
 10
0.3933672706611683
 20
67.10520324608295
 30
0.0
 41
1.0
 10
1.139160858221237
 20
67.09926264310049
 30
0.0
 41
1.0
 10
2.486684197980303
 20
67.06077354422497
 30
0.0
 41
1.0
 10
3.923016455462488
 20
66.96546087197031
 30
0.0
 41
1.0
 10
5.391313120300198
 20
66.76430076687583
 30
0.0
 41
1.0
 10
6.241842994343903
 20
66.5418211529172
 30
0.0
 41
1.0
 10
6.610820341965189
 20
66.40752048557306
 30
0.0
 41
1.0
 10
6.991013387160939
 20
66.26842018108592
 30
0.0
 41
1.0
 10
7.700976020006478
 20
65.95042442205447
 30
0.0
 41
1.0
 10
8.630063622483995
 20
65.30428137398431
 30
0.0
 41
1.0
 10
9.364937332528559
 20
64.50900291149838
 30
0.0
 41
1.0
 10
9.844152601943279
 20
63.65709137464783
 30
0.0
 41
1.0
 10
10.0987218405963
 20
62.9414857761445
 30
0.0
 41
1.0
 10
10.24449399995158
 20
62.41473295896925
 30
0.0
 41
1.0
 10
10.34295318105258
 20
61.94961318076545
 30
0.0
 41
1.0
 10
10.44060219106197
 20
61.37841505112736
 30
0.0
 41
1.0
 10
10.54999719780607
 20
60.7242640049412
 30
0.0
 41
1.0
 10
10.88352712551663
 20
58.74238747479163
 30
0.0
 41
1.0
 10
11.17633804309736
 20
56.99947090733472
 30
0.0
 41
1.0
 10
11.43201422157445
 20
55.47956438536919
 30
0.0
 41
1.0
 10
11.47325672824405
 20
55.23429262743573
 30
0.0
 41
1.0
 10
11.52615009517045
 20
54.73232563580461
 30
0.0
 41
1.0
 10
11.53046323301761
 20
54.06665535912106
 30
0.0
 41
1.0
 10
11.49526670129555
 20
53.5924724935368
 30
0.0
 41
1.0
 10
11.43766323714263
 20
53.44755257871896
 30
0.0
 41
1.0
 10
11.39156321296401
 20
53.42023350534087
 30
0.0
 41
1.0
 10
10.92489154803373
 20
53.14368048223347
 30
0.0
 41
0.9999999999997297
 10
10.4582196341307
 20
52.86712787931407
 30
0.0
 41
0.9999999999997297
 10
9.991547471255302
 20
52.59057569658292
 30
0.0
 41
1.0
  0
SPLINE
  5
73
330
1F
100
AcDbEntity
  8
Default
100
AcDbSpline
210
0.0
220
0.0
230
1.0
 70
    12
 71
     2
 72
     6
 73
     3
 74
     0
 42
0.0000000001
 43
0.0000000001
 40
0.0
 40
0.0
 40
0.0
 40
0.1502062709064931
 40
0.1502062709064931
 40
0.1502062709064931
 10
4.162079981551045
 20
64.38471202041804
 30
0.0
 41
1.0
 10
4.115934814978186
 20
64.3254574462715
 30
0.0
 41
0.9999999999995982
 10
4.069789542159207
 20
64.266202954869
 30
0.0
 41
1.0
  0
SPLINE
  5
74
330
1F
100
AcDbEntity
  8
Default
100
AcDbSpline
210
0.0
220
0.0
230
1.0
 70
    12
 71
     2
 72
     6
 73
     3
 74
     0
 42
0.0000000001
 43
0.0000000001
 40
0.0
 40
0.0
 40
0.0
 40
0.1587313868997792
 40
0.1587313868997792
 40
0.1587313868997792
 10
5.538063068736932
 20
63.92469130502543
 30
0.0
 41
1.0
 10
5.582547441390089
 20
63.99041842185495
 30
0.0
 41
0.9999999999994047
 10
5.627031957491715
 20
64.0561454415876
 30
0.0
 41
1.0
  0
SPLINE
  5
75
330
1F
100
AcDbEntity
  8
Default
100
AcDbSpline
210
0.0
220
0.0
230
1.0
 70
    24
 71
     2
 72
     6
 73
     3
 74
     0
 42
0.0000000001
 43
0.0000000001
 40
0.0
 40
0.0
 40
0.0
 40
0.09826318545554
 40
0.09826318545554
 40
0.09826318545554
 10
1.375013063634484
 20
64.5999793569778
 30
0.0
 10
1.375013063634484
 20
64.55084776425002
 30
0.0
 10
1.375013063634484
 20
64.50171617152225
 30
0.0
  0
SPLINE
  5
76
330
1F
100
AcDbEntity
  8
Default
100
AcDbSpline
210
0.0
220
0.0
230
1.0
 70
    24
 71
     2
 72
     6
 73
     3
 74
     0
 42
0.0000000001
 43
0.0000000001
 40
0.0
 40
0.0
 40
0.0
 40
0.144363659264542
 40
0.144363659264542
 40
0.144363659264542
 10
9.439899895803507
 20
57.1622688125619
 30
0.0
 10
9.367719011747752
 20
57.16189934538878
 30
0.0
 10
9.295538127691998
 20
57.16152987821567
 30
0.0
  0
SPLINE
  5
77
330
1F
100
AcDbEntity
  8
Default
100
AcDbSpline
210
0.0
220
0.0
230
1.0
 70
    12
 71
     3
 72
    11
 73
     7
 74
     0
 42
0.0000000001
 43
0.0000000001
 40
0.640875809691118
 40
0.640875809691118
 40
0.640875809691118
 40
0.640875809691118
 40
0.6568174083128
 40
0.6727590025993
 40
0.6887005968858
 40
0.704642182749559
 40
0.704642182749559
 40
0.704642182749559
 40
0.704642182749559
 10
9.675162729675478
 20
53.90360542931882
 30
0.0
 41
1.0
 10
9.681167366565674
 20
53.72106392039444
 30
0.0
 41
1.0
 10
9.695835552200691
 20
53.35131833824895
 30
0.0
 41
1.0
 10
9.762318697243074
 20
52.88779227510076
 30
0.0
 41
1.0
 10
9.870677524266966
 20
52.60430596736141
 30
0.0
 41
1.0
 10
9.956297075261759
 20
52.56968627167777
 30
0.0
 41
1.0
 10
9.991547471247657
 20
52.59057569661064
 30
0.0
 41
1.0
  0
SPLINE
  5
78
330
1F
100
AcDbEntity
  8
Default
100
AcDbSpline
210
0.0
220
0.0
230
1.0
 70
     8
 71
     5
 72
    12
 73
     6
 74
     0
 42
0.0000000001
 43
0.0000000001
 40
0.0
 40
0.0
 40
0.0
 40
0.0
 40
0.0
 40
0.0
 40
1.0
 40
1.0
 40
1.0
 40
1.0
 40
1.0
 40
1.0
 10
-9.692846189361688
 20
54.11771988197123
 30
0.0
 10
-9.694950869613027
 20
54.07480277041554
 30
0.0
 10
-9.697038700074017
 20
54.03188483253626
 30
0.0
 10
-9.672395099653476
 20
53.9894982470181
 30
0.0
 10
-9.673750054323474
 20
53.94655088881799
 30
0.0
 10
-9.675162729675478
 20
53.90360542931882
 30
0.0
  0
SPLINE
  5
79
330
1F
100
AcDbEntity
  8
Default
100
AcDbSpline
210
0.0
220
0.0
230
1.0
 70
     8
 71
     3
 72
    29
 73
    25
 74
     0
 42
0.0000000001
 43
0.0000000001
 40
0.0
 40
0.0
 40
0.0
 40
0.0
 40
0.1318910479662702
 40
0.3064833717776185
 40
0.5213804943791333
 40
0.7731742576897938
 40
1.348360047962423
 40
2.116918127348506
 40
2.116918127348506
 40
2.116918127348506
 40
3.116918127348506
 40
4.116918127348506
 40
5.116918127348506
 40
6.116918127348506
 40
7.116918127348506
 40
8.116918127348505
 40
9.116918127348505
 40
10.11691812734851
 40
11.11691812734851
 40
12.11691812734851
 40
13.11691812734851
 40
14.11691812734851
 40
15.11691812734851
 40
16.11691812734851
 40
16.11691812734851
 40
16.11691812734851
 40
16.11691812734851
 10
-13.18758800600823
 20
53.42681600657873
 30
0.0
 10
-13.22809350271263
 20
53.44490907149522
 30
0.0
 10
-13.30484483324839
 20
53.51516095312353
 30
0.0
 10
-13.3917330898021
 20
53.66704597491145
 30
0.0
 10
-13.46143432775409
 20
53.86972953025028
 30
0.0
 10
-13.52874137515833
 20
54.21119658274547
 30
0.0
 10
-13.55087126797494
 20
54.74430528230325
 30
0.0
 10
-13.51348812388748
 20
55.19098054977263
 30
0.0
 10
-13.48957437057965
 20
55.44606572716987
 30
0.0
 10
-13.43552318761336
 20
56.02720199802142
 30
0.0
 10
-13.32594428432621
 20
57.18931412500888
 30
0.0
 10
-13.15724040238268
 20
58.93204942800489
 30
0.0
 10
-12.98925294483912
 20
60.67490560865411
 30
0.0
 10
-12.81850842419636
 20
62.41730512693339
 30
0.0
 10
-12.63537313029316
 20
64.15915984383913
 30
0.0
 10
-12.19526278800164
 20
65.86676290791212
 30
0.0
 10
-11.23995971902663
 20
67.3583786579524
 30
0.0
 10
-9.99389698826653
 20
68.5983454959159
 30
0.0
 10
-8.52576779130851
 20
69.56759468305371
 30
0.0
 10
-6.922922226315984
 20
70.28159501994014
 30
0.0
 10
-5.240093159744107
 20
70.78237867371882
 30
0.0
 10
-3.502241090302525
 20
71.02271948961511
 30
0.0
 10
-1.752698902773309
 20
71.10607750430357
 30
0.0
 10
-0.5836361116554988
 20
71.11980140979593
 30
0.0
 10
-0.0000000000000001
 20
71.11980140979593
 30
0.0
  0
SPLINE
  5
7A
330
1F
100
AcDbEntity
  8
Default
100
AcDbSpline
210
0.0
220
0.0
230
1.0
 70
     8
 71
     3
 72
    29
 73
    25
 74
     0
 42
0.0000000001
 43
0.0000000001
 40
-16.11691812734851
 40
-16.11691812734851
 40
-16.11691812734851
 40
-16.11691812734851
 40
-15.11691812734851
 40
-14.11691812734851
 40
-13.11691812734851
 40
-12.11691812734851
 40
-11.11691812734851
 40
-10.11691812734851
 40
-9.116918127348505
 40
-8.116918127348505
 40
-7.116918127348506
 40
-6.116918127348506
 40
-5.116918127348506
 40
-4.116918127348506
 40
-3.116918127348506
 40
-2.116918127348506
 40
-2.116918127348506
 40
-2.116918127348506
 40
-1.348360047962423
 40
-0.7731742576897938
 40
-0.5213804943791333
 40
-0.3064833717776185
 40
-0.1318910479662702
 40
0.0
 40
0.0
 40
0.0
 40
0.0
 10
0.0000000000000001
 20
71.11980140979593
 30
0.0
 10
0.5836361116554988
 20
71.11980140979593
 30
0.0
 10
1.752698902773309
 20
71.10607750430357
 30
0.0
 10
3.502241090302525
 20
71.02271948961511
 30
0.0
 10
5.240093159744107
 20
70.78237867371882
 30
0.0
 10
6.922922226315984
 20
70.28159501994014
 30
0.0
 10
8.52576779130851
 20
69.56759468305371
 30
0.0
 10
9.99389698826653
 20
68.5983454959159
 30
0.0
 10
11.23995971902663
 20
67.3583786579524
 30
0.0
 10
12.19526278800164
 20
65.86676290791212
 30
0.0
 10
12.63537313029316
 20
64.15915984383913
 30
0.0
 10
12.81850842419636
 20
62.41730512693339
 30
0.0
 10
12.98925294483912
 20
60.67490560865411
 30
0.0
 10
13.15724040238268
 20
58.93204942800489
 30
0.0
 10
13.32594428432621
 20
57.18931412500888
 30
0.0
 10
13.43552318761336
 20
56.02720199802142
 30
0.0
 10
13.48957437057965
 20
55.44606572716987
 30
0.0
 10
13.51348812388748
 20
55.19098054977263
 30
0.0
 10
13.55087126797494
 20
54.74430528230325
 30
0.0
 10
13.52874137515833
 20
54.21119658274547
 30
0.0
 10
13.46143432775409
 20
53.86972953025028
 30
0.0
 10
13.3917330898021
 20
53.66704597491145
 30
0.0
 10
13.30484483324839
 20
53.51516095312353
 30
0.0
 10
13.22809350271263
 20
53.44490907149522
 30
0.0
 10
13.18758800600823
 20
53.42681600657873
 30
0.0
  0
SPLINE
  5
7B
330
1F
100
AcDbEntity
  8
Default
100
AcDbSpline
210
0.0
220
0.0
230
1.0
 70
    24
 71
     2
 72
     6
 73
     3
 74
     0
 42
0.0000000001
 43
0.0000000001
 40
0.0
 40
0.0
 40
0.0
 40
0.09826318545554
 40
0.09826318545554
 40
0.09826318545554
 10
-1.375013063634484
 20
64.5999793569778
 30
0.0
 10
-1.375013063634484
 20
64.55084776425002
 30
0.0
 10
-1.375013063634484
 20
64.50171617152225
 30
0.0
  0
SPLINE
  5
7C
330
1F
100
AcDbEntity
  8
Default
100
AcDbSpline
210
0.0
220
0.0
230
1.0
 70
    12
 71
     2
 72
     6
 73
     3
 74
     0
 42
0.0000000001
 43
0.0000000001
 40
0.0
 40
0.0
 40
0.0
 40
0.2318991387524799
 40
0.2318991387524799
 40
0.2318991387524799
 10
9.461362805836956
 20
53.73148820825993
 30
0.0
 41
1.0
 10
9.572769534829492
 20
53.69935032759282
 30
0.0
 41
0.9999999999993568
 10
9.684176190920304
 20
53.66721219420604
 30
0.0
 41
1.0
  0
SPLINE
  5
7D
330
1F
100
AcDbEntity
  8
Default
100
AcDbSpline
210
0.0
220
0.0
230
1.0
 70
    24
 71
     2
 72
     6
 73
     3
 74
     0
 42
0.0000000001
 43
0.0000000001
 40
0.0
 40
0.0
 40
0.0
 40
0.2382337037955169
 40
0.2382337037955169
 40
0.2382337037955169
 10
9.690946317141984
 20
54.15642053137272
 30
0.0
 10
9.571829465269534
 20
54.15641807584723
 30
0.0
 10
9.452712613397086
 20
54.15641562032172
 30
0.0
  0
SPLINE
  5
7E
330
1F
100
AcDbEntity
  8
Default
100
AcDbSpline
210
0.0
220
0.0
230
1.0
 70
     8
 71
     3
 72
    49
 73
    45
 74
     0
 42
0.0000000001
 43
0.0000000001
 40
0.0
 40
0.0
 40
0.0
 40
0.0
 40
1.0
 40
2.0
 40
3.0
 40
4.0
 40
5.0
 40
6.0
 40
7.0
 40
8.0
 40
9.0
 40
10.0
 40
11.0
 40
12.0
 40
13.0
 40
14.0
 40
15.0
 40
16.0
 40
17.0
 40
18.0
 40
19.0
 40
20.0
 40
21.0
 40
22.0
 40
23.0
 40
24.0
 40
25.0
 40
26.0
 40
27.0
 40
28.0
 40
29.0
 40
30.0
 40
31.0
 40
32.0
 40
33.0
 40
34.0
 40
35.0
 40
36.0
 40
37.0
 40
38.0
 40
39.0
 40
40.0
 40
41.0
 40
42.0
 40
42.0
 40
42.0
 40
42.0
 10
-9.692846189361688
 20
54.11771988197123
 30
0.0
 10
-9.679490736669715
 20
54.39005457637135
 30
0.0
 10
-9.651150866334849
 20
54.93465642275841
 30
0.0
 10
-9.598873395499583
 20
55.75097441237021
 30
0.0
 10
-9.53682797916482
 20
56.5666701591728
 30
0.0
 10
-9.451167242909191
 20
57.38023972419767
 30
0.0
 10
-9.346014304609247
 20
58.19148724624898
 30
0.0
 10
-9.22472467732967
 20
59.00048756599786
 30
0.0
 10
-9.076286645842814
 20
59.80510344574091
 30
0.0
 10
-8.886065338970273
 20
60.60100736242187
 30
0.0
 10
-8.625165730663419
 20
61.37810303641785
 30
0.0
 10
-8.242034555699204
 20
62.10423296874802
 30
0.0
 10
-7.741455178774088
 20
62.75497554576682
 30
0.0
 10
-7.135946991696584
 20
63.30987492318317
 30
0.0
 10
-6.438819494868468
 20
63.74402321185814
 30
0.0
 10
-5.680550521288289
 20
64.05703555691989
 30
0.0
 10
-4.889015582006239
 20
64.26807590116036
 30
0.0
 10
-4.081834976075114
 20
64.40417285826415
 30
0.0
 10
-3.268675756184937
 20
64.49443297949509
 30
0.0
 10
-2.452970335974902
 20
64.55680260954215
 30
0.0
 10
-1.635794858611555
 20
64.59493012266186
 30
0.0
 10
-0.817992223317228
 20
64.61415297534757
 30
0.0
 10
0.0000001581589711
 20
64.61969328491757
 30
0.0
 10
0.8179915906813437
 20
64.61415298068766
 30
0.0
 10
1.635794272732423
 20
64.59493014369892
 30
0.0
 10
2.452969946646884
 20
64.55680263807992
 30
0.0
 10
3.268675722575725
 20
64.49443297812674
 30
0.0
 10
4.081834442878195
 20
64.4041729345677
 30
0.0
 10
4.889015362056241
 20
64.268075931297
 30
0.0
 10
5.680549881527233
 20
64.05703580313926
 30
0.0
 10
6.438819717228021
 20
63.74402306658215
 30
0.0
 10
7.135946350362421
 20
63.30987545851419
 30
0.0
 10
7.741455829721645
 20
62.75497483426251
 30
0.0
 10
8.242033964697697
 20
62.10423378110433
 30
0.0
 10
8.625165767022843
 20
61.37810310042335
 30
0.0
 10
8.886065322896597
 20
60.60100736840828
 30
0.0
 10
9.076286620666485
 20
59.80510354320008
 30
0.0
 10
9.22472454988823
 20
59.00048832648187
 30
0.0
 10
9.346014286187502
 20
58.19148740998946
 30
0.0
 10
9.451167189087556
 20
57.38024013797968
 30
0.0
 10
9.536827939665697
 20
56.5666706588318
 30
0.0
 10
9.598873403048927
 20
55.75097428913107
 30
0.0
 10
9.651150836981103
 20
54.93465696038694
 30
0.0
 10
9.679490775065664
 20
54.39005383753239
 30
0.0
 10
9.692846189361688
 20
54.11771988197123
 30
0.0
  0
SPLINE
  5
7F
330
1F
100
AcDbEntity
  8
Default
100
AcDbSpline
210
0.0
220
0.0
230
1.0
 70
    24
 71
     2
 72
     6
 73
     3
 74
     0
 42
0.0000000001
 43
0.0000000001
 40
0.0
 40
0.0
 40
0.0
 40
0.0328801475856791
 40
0.0328801475856791
 40
0.0328801475856791
 10
-9.4727800433822
 20
57.16226949036727
 30
0.0
 10
-9.456339969592854
 20
57.16226915146459
 30
0.0
 10
-9.439899895803507
 20
57.1622688125619
 30
0.0
  0
SPLINE
  5
80
330
1F
100
AcDbEntity
  8
Default
100
AcDbSpline
210
0.0
220
0.0
230
1.0
 70
    24
 71
     2
 72
     6
 73
     3
 74
     0
 42
0.0000000001
 43
0.0000000001
 40
0.0
 40
0.0
 40
0.0
 40
0.0328801475856791
 40
0.0328801475856791
 40
0.0328801475856791
 10
9.4727800433822
 20
57.16226949036727
 30
0.0
 10
9.456339969592854
 20
57.16226915146459
 30
0.0
 10
9.439899895803507
 20
57.1622688125619
 30
0.0
  0
SPLINE
  5
81
330
1F
100
AcDbEntity
  8
Default
100
AcDbSpline
210
0.0
220
0.0
230
1.0
 70
    12
 71
     2
 72
    16
 73
    13
 74
     0
 42
0.0000000001
 43
0.0000000001
 40
-2.111808320977615
 40
-2.111808320977615
 40
-2.111808320977615
 40
-1.795776716617604
 40
-1.795776716617604
 40
-1.464722685449388
 40
-1.464722685449388
 40
-1.102113374062655
 40
-1.102113374062655
 40
-0.7366119873725416
 40
-0.7366119873725416
 40
-0.3849225810808728
 40
-0.3849225810808728
 40
0.0
 40
0.0
 40
0.0
 10
13.18067834497138
 20
53.42479275349299
 30
0.0
 41
1.0
 10
13.03612145254924
 20
53.36097805310582
 30
0.0
 41
0.9999994775424704
 10
12.89143439815097
 20
53.29745902114048
 30
0.0
 41
1.0
 10
12.73987124956103
 20
53.23091716907111
 30
0.0
 41
0.9999996386992203
 10
12.5881951909629
 20
53.16463308851282
 30
0.0
 41
1.0
 10
12.42206299249297
 20
53.09202808842061
 30
0.0
 41
0.9999996524922284
 10
12.25580996692368
 20
53.01970018995883
 30
0.0
 41
1.0
 10
12.08823301230088
 20
52.94679067290719
 30
0.0
 41
0.9999996074763391
 10
11.92052712096566
 20
52.87417822625505
 30
0.0
 41
1.0
 10
11.75916328681136
 20
52.80429903513929
 30
0.0
 41
0.9999993038914529
 10
11.59763499804833
 20
52.73480083190167
 30
0.0
 41
1.0
 10
11.42086455820985
 20
52.65868418753322
 30
0.0
 41
0.9999962826698178
 10
11.24368166073428
 20
52.58353265532814
 30
0.0
 41
1.0
  0
SPLINE
  5
82
330
1F
100
AcDbEntity
  8
Default
100
AcDbSpline
210
0.0
220
0.0
230
1.0
 70
     8
 71
     3
 72
    11
 73
     7
 74
     0
 42
0.0000000001
 43
0.0000000001
 40
-1.286090905248747
 40
-1.286090905248747
 40
-1.286090905248747
 40
-1.286090905248747
 40
-0.6489616701723597
 40
-0.3257434843017894
 40
-0.1630154428905883
 40
0.0
 40
0.0
 40
0.0
 40
0.0
 10
11.24368166073428
 20
52.58353265532814
 30
0.0
 10
11.01773654360805
 20
52.53106061873621
 30
0.0
 10
10.697389929927
 20
52.49732490813758
 30
0.0
 10
10.32317746875159
 20
52.52023869188812
 30
0.0
 10
10.1089326336174
 20
52.55063316945795
 30
0.0
 10
10.00232878401376
 20
52.57146491478917
 30
0.0
 10
9.949273253340195
 20
52.58319554772177
 30
0.0
  0
SPLINE
  5
83
330
1F
100
AcDbEntity
  8
Default
100
AcDbSpline
210
0.0
220
0.0
230
1.0
 70
     8
 71
     5
 72
    12
 73
     6
 74
     0
 42
0.0000000001
 43
0.0000000001
 40
0.0
 40
0.0
 40
0.0
 40
0.0
 40
0.0
 40
0.0
 40
1.0
 40
1.0
 40
1.0
 40
1.0
 40
1.0
 40
1.0
 10
9.692846189361688
 20
54.11771988197123
 30
0.0
 10
9.694950869613027
 20
54.07480277041554
 30
0.0
 10
9.697038700074017
 20
54.03188483253626
 30
0.0
 10
9.672395099653476
 20
53.9894982470181
 30
0.0
 10
9.673750054323474
 20
53.94655088881799
 30
0.0
 10
9.675162729675478
 20
53.90360542931882
 30
0.0
  0
SPLINE
  5
84
330
1F
100
AcDbEntity
  8
Default
100
AcDbSpline
210
0.0
220
0.0
230
1.0
 70
     8
 71
     3
 72
    42
 73
    38
 74
     0
 42
0.0000000001
 43
0.0000000001
 40
0.0
 40
0.0
 40
0.0
 40
0.0
 40
1.541497575323127
 40
2.85138380561648
 40
4.939413265252086
 40
5.877602546024693
 40
6.677242096952491
 40
7.382324121850595
 40
8.021790768769321
 40
8.595756622904613
 40
9.133429110925114
 40
10.27313838252739
 40
10.55875436002067
 40
10.90109684590338
 40
11.39612012655289
 40
11.86925445843508
 40
12.77191295790641
 40
13.84937911045209
 40
15.56648108076679
 40
17.3412028071359
 40
19.02818545404999
 40
19.78391808678711
 40
20.33639341387081
 40
21.22377654292122
 40
22.0386118733614
 40
22.79521949242251
 40
23.53713411580648
 40
24.30791475465001
 40
25.07855249955321
 40
25.87110843370533
 40
26.70380266945416
 40
27.14416539697418
 40
27.65340125370989
 40
28.81794848189532
 40
30.33210039410733
 40
31.14726709001524
 40
31.87475267426909
 40
31.87475267426909
 40
31.87475267426909
 40
31.87475267426909
 10
0.0
 20
46.40098079106647
 30
0.0
 10
0.5138422222781909
 20
46.40073372932849
 30
0.0
 10
1.464330404883617
 20
46.41003106269051
 30
0.0
 10
3.109873120932951
 20
46.4688820323741
 30
0.0
 10
4.550208983324342
 20
46.60877668600415
 30
0.0
 10
5.803142577264471
 20
46.8528260483665
 30
0.0
 10
6.58785531757942
 20
47.07275127403088
 30
0.0
 10
7.251081230769136
 20
47.3436765343378
 30
0.0
 10
7.806304659629673
 20
47.6640449689432
 30
0.0
 10
8.260051573722665
 20
48.034875214066
 30
0.0
 10
8.755859279463676
 20
48.60151372353903
 30
0.0
 10
9.049518713150395
 20
49.1973387182186
 30
0.0
 10
9.201056849048506
 20
49.76658353374859
 30
0.0
 10
9.268155995186747
 20
50.13528386269053
 30
0.0
 10
9.335011640198596
 20
50.56676760982717
 30
0.0
 10
9.406432740126348
 20
51.18654682927229
 30
0.0
 10
9.459412912658834
 20
52.00284107053746
 30
0.0
 10
9.474303564766224
 20
53.23548636652838
 30
0.0
 10
9.443572079113146
 20
54.75836344144076
 30
0.0
 10
9.355654586545699
 20
56.48266448933708
 30
0.0
 10
9.237401526822628
 20
57.88369517284693
 30
0.0
 10
9.121532625917414
 20
58.87545951143176
 30
0.0
 10
9.014944868154947
 20
59.59962958640544
 30
0.0
 10
8.845878542329169
 20
60.33318542681403
 30
0.0
 10
8.572714032785909
 20
61.10735149338643
 30
0.0
 10
8.222762215890892
 20
61.79666191227773
 30
0.0
 10
7.787471053338571
 20
62.41770435638914
 30
0.0
 10
7.256644491987313
 20
62.9668634727909
 30
0.0
 10
6.629117299814776
 20
63.43106367930468
 30
0.0
 10
5.917810779291093
 20
63.79931006661771
 30
0.0
 10
5.265114633282417
 20
64.02391885352733
 30
0.0
 10
4.68678814932138
 20
64.1606041819854
 30
0.0
 10
3.993157670338093
 20
64.28691247077253
 30
0.0
 10
2.937176103936602
 20
64.4101006407825
 30
0.0
 10
1.774894076458292
 20
64.48755189877706
 30
0.0
 10
0.7566867698861444
 20
64.52690041095514
 30
0.0
 10
0.2425111692618582
 20
64.53631946117581
 30
0.0
 10
0.0
 20
64.5365360753351
 30
0.0
  0
SPLINE
  5
85
330
1F
100
AcDbEntity
  8
Default
100
AcDbSpline
210
0.0
220
0.0
230
1.0
 70
     8
 71
     3
 72
    42
 73
    38
 74
     0
 42
0.0000000001
 43
0.0000000001
 40
-31.87475267426909
 40
-31.87475267426909
 40
-31.87475267426909
 40
-31.87475267426909
 40
-31.14726709001524
 40
-30.33210039410733
 40
-28.81794848189532
 40
-27.65340125370989
 40
-27.14416539697418
 40
-26.70380266945416
 40
-25.87110843370533
 40
-25.07855249955321
 40
-24.30791475465001
 40
-23.53713411580648
 40
-22.79521949242251
 40
-22.0386118733614
 40
-21.22377654292122
 40
-20.33639341387081
 40
-19.78391808678711
 40
-19.02818545404999
 40
-17.3412028071359
 40
-15.56648108076679
 40
-13.84937911045209
 40
-12.77191295790641
 40
-11.86925445843508
 40
-11.39612012655289
 40
-10.90109684590338
 40
-10.55875436002067
 40
-10.27313838252739
 40
-9.133429110925114
 40
-8.595756622904613
 40
-8.021790768769321
 40
-7.382324121850595
 40
-6.677242096952491
 40
-5.877602546024693
 40
-4.939413265252086
 40
-2.85138380561648
 40
-1.541497575323127
 40
0.0
 40
0.0
 40
0.0
 40
0.0
 10
0.0
 20
64.5365360753351
 30
0.0
 10
-0.2425111692618582
 20
64.53631946117581
 30
0.0
 10
-0.7566867698861444
 20
64.52690041095514
 30
0.0
 10
-1.774894076458292
 20
64.48755189877706
 30
0.0
 10
-2.937176103936602
 20
64.4101006407825
 30
0.0
 10
-3.993157670338093
 20
64.28691247077253
 30
0.0
 10
-4.68678814932138
 20
64.1606041819854
 30
0.0
 10
-5.265114633282417
 20
64.02391885352733
 30
0.0
 10
-5.917810779291093
 20
63.79931006661771
 30
0.0
 10
-6.629117299814776
 20
63.43106367930468
 30
0.0
 10
-7.256644491987313
 20
62.9668634727909
 30
0.0
 10
-7.787471053338571
 20
62.41770435638914
 30
0.0
 10
-8.222762215890892
 20
61.79666191227773
 30
0.0
 10
-8.572714032785909
 20
61.10735149338643
 30
0.0
 10
-8.845878542329169
 20
60.33318542681403
 30
0.0
 10
-9.014944868154947
 20
59.59962958640544
 30
0.0
 10
-9.121532625917414
 20
58.87545951143176
 30
0.0
 10
-9.237401526822628
 20
57.88369517284693
 30
0.0
 10
-9.355654586545699
 20
56.48266448933708
 30
0.0
 10
-9.443572079113146
 20
54.75836344144076
 30
0.0
 10
-9.474303564766224
 20
53.23548636652838
 30
0.0
 10
-9.459412912658834
 20
52.00284107053746
 30
0.0
 10
-9.406432740126348
 20
51.18654682927229
 30
0.0
 10
-9.335011640198596
 20
50.56676760982717
 30
0.0
 10
-9.268155995186747
 20
50.13528386269053
 30
0.0
 10
-9.201056849048506
 20
49.76658353374859
 30
0.0
 10
-9.049518713150395
 20
49.1973387182186
 30
0.0
 10
-8.755859279463676
 20
48.60151372353903
 30
0.0
 10
-8.260051573722665
 20
48.034875214066
 30
0.0
 10
-7.806304659629673
 20
47.6640449689432
 30
0.0
 10
-7.251081230769136
 20
47.3436765343378
 30
0.0
 10
-6.58785531757942
 20
47.07275127403088
 30
0.0
 10
-5.803142577264471
 20
46.8528260483665
 30
0.0
 10
-4.550208983324342
 20
46.60877668600415
 30
0.0
 10
-3.109873120932951
 20
46.4688820323741
 30
0.0
 10
-1.464330404883617
 20
46.41003106269051
 30
0.0
 10
-0.5138422222781909
 20
46.40073372932849
 30
0.0
 10
0.0
 20
46.40098079106647
 30
0.0
  0
SPLINE
  5
86
330
1F
100
AcDbEntity
  8
Default
100
AcDbSpline
210
0.0
220
0.0
230
1.0
 70
    12
 71
     3
 72
    10
 73
     6
 74
     0
 42
0.0000000001
 43
0.0000000001
 40
-31.1471756050514
 40
-31.1471756050514
 40
-31.1471756050514
 40
-31.1471756050514
 40
-29.52674076034966
 40
-27.53690576783487
 40
-27.22408972768616
 40
-27.22408972768616
 40
-27.22408972768616
 40
-27.22408972768616
 10
0.0
 20
46.69275356331035
 30
0.0
 41
1.0
 10
0.5397180966149387
 20
46.69226822602167
 30
0.0
 41
1.0
 10
1.74083325268511
 20
46.70480604824323
 30
0.0
 41
1.0
 10
3.046024719460959
 20
46.76237753886401
 30
0.0
 41
1.0
 10
3.808630446326518
 20
46.83782127904519
 30
0.0
 41
1.0
 10
3.912136081878884
 20
46.84888315133659
 30
0.0
 41
1.0
  0
SPLINE
  5
87
330
1F
100
AcDbEntity
  8
Default
100
AcDbSpline
210
0.0
220
0.0
230
1.0
 70
    12
 71
     2
 72
    16
 73
    13
 74
     0
 42
0.0000000001
 43
0.0000000001
 40
-2.111808320977615
 40
-2.111808320977615
 40
-2.111808320977615
 40
-1.795776716617604
 40
-1.795776716617604
 40
-1.464722685449388
 40
-1.464722685449388
 40
-1.102113374062655
 40
-1.102113374062655
 40
-0.7366119873725416
 40
-0.7366119873725416
 40
-0.3849225810808728
 40
-0.3849225810808728
 40
0.0
 40
0.0
 40
0.0
 10
-13.18067834497138
 20
53.42479275349299
 30
0.0
 41
1.0
 10
-13.03612145254924
 20
53.36097805310582
 30
0.0
 41
0.9999994775424704
 10
-12.89143439815097
 20
53.29745902114048
 30
0.0
 41
1.0
 10
-12.73987124956103
 20
53.23091716907111
 30
0.0
 41
0.9999996386992203
 10
-12.5881951909629
 20
53.16463308851282
 30
0.0
 41
1.0
 10
-12.42206299249297
 20
53.09202808842061
 30
0.0
 41
0.9999996524922284
 10
-12.25580996692368
 20
53.01970018995883
 30
0.0
 41
1.0
 10
-12.08823301230088
 20
52.94679067290719
 30
0.0
 41
0.9999996074763391
 10
-11.92052712096566
 20
52.87417822625505
 30
0.0
 41
1.0
 10
-11.75916328681136
 20
52.80429903513929
 30
0.0
 41
0.9999993038914529
 10
-11.59763499804833
 20
52.73480083190167
 30
0.0
 41
1.0
 10
-11.42086455820985
 20
52.65868418753322
 30
0.0
 41
0.9999962826698178
 10
-11.24368166073428
 20
52.58353265532814
 30
0.0
 41
1.0
  0
SPLINE
  5
88
330
1F
100
AcDbEntity
  8
Default
100
AcDbSpline
210
0.0
220
0.0
230
1.0
 70
     8
 71
     3
 72
    11
 73
     7
 74
     0
 42
0.0000000001
 43
0.0000000001
 40
-1.286090905248747
 40
-1.286090905248747
 40
-1.286090905248747
 40
-1.286090905248747
 40
-0.6489616701723597
 40
-0.3257434843017894
 40
-0.1630154428905883
 40
0.0
 40
0.0
 40
0.0
 40
0.0
 10
-11.24368166073428
 20
52.58353265532814
 30
0.0
 10
-11.01773654360805
 20
52.53106061873621
 30
0.0
 10
-10.697389929927
 20
52.49732490813758
 30
0.0
 10
-10.32317746875159
 20
52.52023869188812
 30
0.0
 10
-10.1089326336174
 20
52.55063316945795
 30
0.0
 10
-10.00232878401376
 20
52.57146491478917
 30
0.0
 10
-9.949273253340195
 20
52.58319554772177
 30
0.0
  0
SPLINE
  5
89
330
1F
100
AcDbEntity
  8
Default
100
AcDbSpline
210
0.0
220
0.0
230
1.0
 70
    24
 71
     2
 72
     6
 73
     3
 74
     0
 42
0.0000000001
 43
0.0000000001
 40
0.0
 40
0.0
 40
0.0
 40
0.2330720886003164
 40
0.2330720886003164
 40
0.2330720886003164
 10
7.372057429940901
 20
70.29808714915421
 30
0.0
 10
7.372057429940901
 20
70.18155110485405
 30
0.0
 10
7.372057429940901
 20
70.06501506055389
 30
0.0
  0
SPLINE
  5
8A
330
1F
100
AcDbEntity
  8
Default
100
AcDbSpline
210
0.0
220
0.0
230
1.0
 70
    24
 71
     2
 72
     6
 73
     3
 74
     0
 42
0.0000000001
 43
0.0000000001
 40
0.0
 40
0.0
 40
0.0
 40
0.7463513369778312
 40
0.7463513369778312
 40
0.7463513369778312
 10
8.622057429940908
 20
70.2043371788082
 30
0.0
 10
8.622057429940908
 20
69.83116151031929
 30
0.0
 10
8.622057429940908
 20
69.45798584183038
 30
0.0
  0
SPLINE
  5
8B
330
1F
100
AcDbEntity
  8
Default
100
AcDbSpline
210
0.0
220
0.0
230
1.0
 70
    24
 71
     2
 72
     6
 73
     3
 74
     0
 42
0.0000000001
 43
0.0000000001
 40
0.0
 40
0.0
 40
0.0
 40
0.5674894410763205
 40
0.5674894410763205
 40
0.5674894410763205
 10
13.41000179352791
 20
53.72604907515153
 30
0.0
 10
13.41000179352791
 20
53.44230435461337
 30
0.0
 10
13.41000179352791
 20
53.15855963407521
 30
0.0
  0
SPLINE
  5
8C
330
1F
100
AcDbEntity
  8
Default
100
AcDbSpline
210
0.0
220
0.0
230
1.0
 70
    24
 71
     2
 72
     6
 73
     3
 74
     0
 42
0.0000000001
 43
0.0000000001
 40
0.0
 40
0.0
 40
0.0
 40
0.5745184500626443
 40
0.5745184500626443
 40
0.5745184500626443
 10
8.122057429940913
 20
69.72356869909257
 30
0.0
 10
8.122057429940913
 20
70.01082792412389
 30
0.0
 10
8.122057429940915
 20
70.29808714915521
 30
0.0
  0
SPLINE
  5
8D
330
1F
100
AcDbEntity
  8
Default
100
AcDbSpline
210
0.0
220
0.0
230
1.0
 70
    24
 71
     2
 72
     6
 73
     3
 74
     0
 42
0.0000000001
 43
0.0000000001
 40
0.0
 40
0.0
 40
0.0
 40
0.0782384633824975
 40
0.0782384633824975
 40
0.0782384633824975
 10
12.91000179352791
 20
53.06480966372821
 30
0.0
 10
12.91000179352791
 20
53.10392889541946
 30
0.0
 10
12.91000179352791
 20
53.1430481271107
 30
0.0
  0
SPLINE
  5
8E
330
1F
100
AcDbEntity
  8
Default
100
AcDbSpline
210
0.0
220
0.0
230
1.0
 70
    12
 71
     2
 72
     6
 73
     3
 74
     0
 42
0.0000000001
 43
0.0000000001
 40
0.0
 40
0.0
 40
0.0
 40
0.2318991387524799
 40
0.2318991387524799
 40
0.2318991387524799
 10
-9.461362805836956
 20
53.73148820825993
 30
0.0
 41
1.0
 10
-9.572769534829492
 20
53.69935032759282
 30
0.0
 41
0.9999999999993568
 10
-9.684176190920304
 20
53.66721219420604
 30
0.0
 41
1.0
  0
SPLINE
  5
8F
330
1F
100
AcDbEntity
  8
Default
100
AcDbSpline
210
0.0
220
0.0
230
1.0
 70
    12
 71
     2
 72
     6
 73
     3
 74
     0
 42
0.0000000001
 43
0.0000000001
 40
0.0
 40
0.0
 40
0.0
 40
0.1502062709064931
 40
0.1502062709064931
 40
0.1502062709064931
 10
-4.162079981551045
 20
64.38471202041804
 30
0.0
 41
1.0
 10
-4.115934814978186
 20
64.3254574462715
 30
0.0
 41
0.9999999999995982
 10
-4.069789542159207
 20
64.266202954869
 30
0.0
 41
1.0
  0
SPLINE
  5
90
330
1F
100
AcDbEntity
  8
Default
100
AcDbSpline
210
0.0
220
0.0
230
1.0
 70
    12
 71
     2
 72
     6
 73
     3
 74
     0
 42
0.0000000001
 43
0.0000000001
 40
0.0
 40
0.0
 40
0.0
 40
0.1587313868997792
 40
0.1587313868997792
 40
0.1587313868997792
 10
-5.538063068736932
 20
63.92469130502543
 30
0.0
 41
1.0
 10
-5.582547441390089
 20
63.99041842185495
 30
0.0
 41
0.9999999999994047
 10
-5.627031957491715
 20
64.0561454415876
 30
0.0
 41
1.0
  0
SPLINE
  5
91
330
1F
100
AcDbEntity
  8
Default
100
AcDbSpline
210
0.0
220
0.0
230
1.0
 70
    12
 71
     2
 72
    14
 73
    11
 74
     0
 42
0.0000000001
 43
0.0000000001
 40
-0.7218127545058044
 40
-0.7218127545058044
 40
-0.7218127545058044
 40
-0.6383024290667878
 40
-0.6383024290667878
 40
-0.1688600406977225
 40
-0.1688600406977225
 40
-0.0499693487069602
 40
-0.0499693487069602
 40
0.0
 40
0.0
 40
0.0145385864221118
 40
0.0145385864221118
 40
0.0145385864221118
 10
-12.98050407928983
 20
53.33563175506416
 30
0.0
 41
1.000000009826372
 10
-12.97393353645547
 20
53.29431065399593
 30
0.0
 41
0.9969528321315052
 10
-12.96101594355922
 20
53.25451440768555
 30
0.0
 41
1.000000009826372
 10
-12.88325804948238
 20
53.0161801103181
 30
0.0
 41
0.9070905488540609
 10
-12.65104817329905
 20
52.92169148221294
 30
0.0
 41
0.9999999993864535
 10
-12.59600901005381
 20
52.89922858930133
 30
0.0
 41
0.9999694777077622
 10
-12.54065644354305
 20
52.87754873892207
 30
0.0
 41
0.9999999994034761
 10
-12.51737283516052
 20
52.86847784069744
 30
0.0
 41
0.9997966536611157
 10
-12.49371702930641
 20
52.86042773122945
 30
0.0
 41
1.0
 10
-12.47944925930413
 20
52.85531192805386
 30
0.0
 41
0.9999950168869298
 10
-12.47256215040622
 20
52.852985835641
 30
0.0
 41
1.0
  0
SPLINE
  5
92
330
1F
100
AcDbEntity
  8
Default
100
AcDbSpline
210
0.0
220
0.0
230
1.0
 70
     8
 71
     3
 72
    12
 73
     8
 74
     0
 42
0.0000000001
 43
0.0000000001
 40
-0.4519769022821848
 40
-0.4519769022821848
 40
-0.4519769022821848
 40
-0.4519769022821848
 40
-0.3867993939067988
 40
-0.3062242424595931
 40
-0.1862046752822366
 40
-0.1065995477733627
 40
0.0
 40
0.0
 40
0.0
 40
0.0
 10
-12.47256215040621
 20
52.852985835641
 30
0.0
 10
-12.45197472592318
 20
52.846032518567
 30
0.0
 10
-12.39611454339356
 20
52.83508861424901
 30
0.0
 10
-12.30756722135271
 20
52.84519614813716
 30
0.0
 10
-12.2166089610897
 20
52.86549975346652
 30
0.0
 10
-12.11772306910285
 20
52.89158269945293
 30
0.0
 10
-12.05805238735721
 20
52.90821722578526
 30
0.0
 10
-12.02384279236888
 20
52.91797958130581
 30
0.0
  0
SPLINE
  5
93
330
1F
100
AcDbEntity
  8
Default
100
AcDbSpline
210
0.0
220
0.0
230
1.0
 70
    12
 71
     2
 72
     6
 73
     3
 74
     0
 42
0.0000000001
 43
0.0000000001
 40
-1.462363603810294
 40
-1.462363603810294
 40
-1.462363603810294
 40
0.0
 40
0.0
 40
0.0
 10
-0.6575146462762884
 20
46.40275811688136
 30
0.0
 41
1.0
 10
-0.6382681288381288
 20
45.67182966688686
 30
0.0
 41
0.9999999999879039
 10
-0.6190029599308016
 20
44.93991876351035
 30
0.0
 41
1.0
  0
SPLINE
  5
94
330
1F
100
AcDbEntity
  8
Default
100
AcDbSpline
210
0.0
220
0.0
230
1.0
 70
     8
 71
     3
 72
    12
 73
     8
 74
     0
 42
0.0000000001
 43
0.0000000001
 40
-0.7641731405120064
 40
-0.7641731405120064
 40
-0.7641731405120064
 40
-0.7641731405120064
 40
-0.3895996830849088
 40
-0.1973379989199896
 40
-0.0807885691185766
 40
-0.0406342975136175
 40
0.0
 40
0.0
 40
0.0
 40
0.0
 10
-0.6190029599308016
 20
44.93991876351035
 30
0.0
 10
-0.6156208972826551
 20
44.81416413013321
 30
0.0
 10
-0.6110083068227699
 20
44.6251604724732
 30
0.0
 10
-0.5991246089803841
 20
44.39777696200083
 30
0.0
 10
-0.5832298466700632
 20
44.28213414373238
 30
0.0
 10
-0.5609186149452334
 20
44.21991276156459
 30
0.0
 10
-0.5463835818915737
 20
44.19703401204031
 30
0.0
 10
-0.5387302760750945
 20
44.18590677036765
 30
0.0
  0
SPLINE
  5
95
330
1F
100
AcDbEntity
  8
Default
100
AcDbSpline
210
0.0
220
0.0
230
1.0
 70
     8
 71
     3
 72
    17
 73
    13
 74
     0
 42
0.0000000001
 43
0.0000000001
 40
-10.0
 40
-10.0
 40
-10.0
 40
-10.0
 40
-9.0
 40
-8.0
 40
-7.0
 40
-6.0
 40
-5.0
 40
-4.0
 40
-3.0
 40
-2.0
 40
-1.0
 40
0.0
 40
0.0
 40
0.0
 40
0.0
 10
-0.5387302760750945
 20
44.18590677036765
 30
0.0
 10
-0.5263982363048555
 20
44.16797705605454
 30
0.0
 10
-0.4883316290745831
 20
44.12014621258123
 30
0.0
 10
-0.4461268354463843
 20
44.07033847413761
 30
0.0
 10
-0.4049815241259216
 20
44.01960897759232
 30
0.0
 10
-0.359032890126487
 20
43.97308204259435
 30
0.0
 10
-0.3075385868321844
 20
43.9327364904468
 30
0.0
 10
-0.2516284068081919
 20
43.89881263334559
 30
0.0
 10
-0.1920165498067913
 20
43.87189874124694
 30
0.0
 10
-0.1295999054743158
 20
43.85236233749956
 30
0.0
 10
-0.065281726922001
 20
43.84049558785281
 30
0.0
 10
-0.02176227483642
 20
43.83781055629021
 30
0.0
 10
0.0
 20
43.83778552503477
 30
0.0
  0
SPLINE
  5
96
330
1F
100
AcDbEntity
  8
Default
100
AcDbSpline
210
0.0
220
0.0
230
1.0
 70
     8
 71
     3
 72
    17
 73
    13
 74
     0
 42
0.0000000001
 43
0.0000000001
 40
0.0
 40
0.0
 40
0.0
 40
0.0
 40
1.0
 40
2.0
 40
3.0
 40
4.0
 40
5.0
 40
6.0
 40
7.0
 40
8.0
 40
9.0
 40
10.0
 40
10.0
 40
10.0
 40
10.0
 10
0.0
 20
43.83778552503477
 30
0.0
 10
0.02176227483642
 20
43.83781055629021
 30
0.0
 10
0.065281726922001
 20
43.84049558785281
 30
0.0
 10
0.1295999054743158
 20
43.85236233749956
 30
0.0
 10
0.1920165498067913
 20
43.87189874124694
 30
0.0
 10
0.2516284068081919
 20
43.89881263334559
 30
0.0
 10
0.3075385868321844
 20
43.9327364904468
 30
0.0
 10
0.359032890126487
 20
43.97308204259435
 30
0.0
 10
0.4049815241259216
 20
44.01960897759232
 30
0.0
 10
0.4461268354463843
 20
44.07033847413761
 30
0.0
 10
0.4883316290745831
 20
44.12014621258123
 30
0.0
 10
0.5263982363048555
 20
44.16797705605454
 30
0.0
 10
0.5387302760750945
 20
44.18590677036765
 30
0.0
  0
SPLINE
  5
97
330
1F
100
AcDbEntity
  8
Default
100
AcDbSpline
210
0.0
220
0.0
230
1.0
 70
     8
 71
     3
 72
    12
 73
     8
 74
     0
 42
0.0000000001
 43
0.0000000001
 40
0.0
 40
0.0
 40
0.0
 40
0.0
 40
0.0406342975136175
 40
0.0807885691185766
 40
0.1973379989199896
 40
0.3895996830849088
 40
0.7641731405120064
 40
0.7641731405120064
 40
0.7641731405120064
 40
0.7641731405120064
 10
0.5387302760750945
 20
44.18590677036765
 30
0.0
 10
0.5463835818915737
 20
44.19703401204031
 30
0.0
 10
0.5609186149452334
 20
44.21991276156459
 30
0.0
 10
0.5832298466700632
 20
44.28213414373238
 30
0.0
 10
0.5991246089803841
 20
44.39777696200083
 30
0.0
 10
0.6110083068227699
 20
44.6251604724732
 30
0.0
 10
0.6156208972826551
 20
44.81416413013321
 30
0.0
 10
0.6190029599308016
 20
44.93991876351035
 30
0.0
  0
SPLINE
  5
98
330
1F
100
AcDbEntity
  8
Default
100
AcDbSpline
210
0.0
220
0.0
230
1.0
 70
    12
 71
     2
 72
     6
 73
     3
 74
     0
 42
0.0000000001
 43
0.0000000001
 40
0.0
 40
0.0
 40
0.0
 40
1.462363603810294
 40
1.462363603810294
 40
1.462363603810294
 10
0.6190029599308016
 20
44.93991876351035
 30
0.0
 41
1.0
 10
0.6382681288381288
 20
45.67182966688686
 30
0.0
 41
0.9999999999879039
 10
0.6575146462762884
 20
46.40275811688136
 30
0.0
 41
1.0
  0
SPLINE
  5
99
330
1F
100
AcDbEntity
  8
Default
100
AcDbSpline
210
0.0
220
0.0
230
1.0
 70
    24
 71
     2
 72
     6
 73
     3
 74
     0
 42
0.0000000001
 43
0.0000000001
 40
0.0
 40
0.0
 40
0.0
 40
0.71875
 40
0.71875
 40
0.71875
 10
8.106432429940908
 20
70.3293371788082
 30
0.0
 10
7.747057429940908
 20
70.3293371788082
 30
0.0
 10
7.387682429940908
 20
70.3293371788082
 30
0.0
  0
SPLINE
  5
9A
330
1F
100
AcDbEntity
  8
Default
100
AcDbSpline
210
0.0
220
0.0
230
1.0
 70
    24
 71
     2
 72
     6
 73
     3
 74
     0
 42
0.0000000001
 43
0.0000000001
 40
0.0
 40
0.0
 40
0.0
 40
0.2708027543719886
 40
0.2708027543719886
 40
0.2708027543719886
 10
7.387682429940908
 20
70.3293371788082
 30
0.0
 10
7.387682429940908
 20
70.19393580162222
 30
0.0
 10
7.387682429940908
 20
70.05853442443622
 30
0.0
  0
SPLINE
  5
9B
330
1F
100
AcDbEntity
  8
Default
  6
Continuous
100
AcDbSpline
210
0.0
220
0.0
230
1.0
 70
     8
 71
     3
 72
    35
 73
    31
 74
     0
 42
0.0000000001
 43
0.0000000001
 40
0.0
 40
0.0
 40
0.0
 40
0.0
 40
0.1943518493
 40
0.2892027916
 40
0.381250012
 40
0.4696401143
 40
0.5535282545
 40
0.63209178
 40
0.7045874641
 40
0.7703137967
 40
0.8286550256
 40
0.8548744511
 40
0.8790452271
 40
0.9011134258
 40
0.9210257087
 40
0.9387331883
 40
0.9542025563
 40
0.9674064553
 40
0.9731517084
 40
0.9783226897
 40
0.9829185643
 40
0.9869416096
 40
0.9903966612
 40
0.9932922887
 40
0.9956442811
 40
0.9974838936
 40
0.9982321217
 40
0.9988838699
 40
0.9994622332
 40
1.0
 40
1.0
 40
1.0
 40
1.0
 10
-2.875
 20
14.23452134269999
 30
0.0
 10
-2.923773030599989
 20
14.23452134269999
 30
0.0
 10
-2.996349683999995
 20
14.2342160756
 30
0.0
 10
-3.092019807200018
 20
14.2331764127
 30
0.0
 10
-3.161095975899997
 20
14.23210416679999
 30
0.0
 10
-3.22741537600001
 20
14.23074348109999
 30
0.0
 10
-3.290343819200018
 20
14.2291094604
 30
0.0
 10
-3.349274400100001
 20
14.22721653309999
 30
0.0
 10
-3.403636058399997
 20
14.2250865016
 30
0.0
 10
-3.452908780799987
 20
14.22273894369999
 30
0.0
 10
-3.490561396200007
 20
14.22055514859999
 30
0.0
 10
-3.517784062000004
 20
14.21868786709999
 30
0.0
 10
-3.535914715199993
 20
14.21729830669999
 30
0.0
 10
-3.552454564100003
 20
14.21587351279999
 30
0.0
 10
-3.567362826699991
 20
14.21441732549999
 30
0.0
 10
-3.580603400000001
 20
14.21293363589999
 30
0.0
 10
-3.5921455278
 20
14.21142703029999
 30
0.0
 10
-3.600682451300003
 20
14.21010399439999
 30
0.0
 10
-3.606637346599996
 20
14.20901663669999
 30
0.0
 10
-3.610451411599996
 20
14.20823583369999
 30
0.0
 10
-3.613822600199995
 20
14.207452094
 30
0.0
 10
-3.6167497669
 20
14.2066663678
 30
0.0
 10
-3.6192324294
 20
14.2058798325
 30
0.0
 10
-3.62127244269999
 20
14.20509351569999
 30
0.0
 10
-3.622870584099985
 20
14.20430834929999
 30
0.0
 10
-3.623906495399979
 20
14.20361170189999
 30
0.0
 10
-3.624485752699997
 20
14.20303755419999
 30
0.0
 10
-3.624778666800012
 20
14.20263311459999
 30
0.0
 10
-3.624958636700001
 20
14.20222316179999
 30
0.0
 10
-3.625
 20
14.201941756
 30
0.0
 10
-3.625
 20
14.2018068022
 30
0.0
  0
SPLINE
  5
9C
330
1F
100
AcDbEntity
  8
Default
  6
Continuous
100
AcDbSpline
210
0.0
220
0.0
230
1.0
 70
     8
 71
     3
 72
    35
 73
    31
 74
     0
 42
0.0000000001
 43
0.0000000001
 40
0.0
 40
0.0
 40
0.0
 40
0.0
 40
0.0005377668
 40
0.0011161301
 40
0.0017678783
 40
0.0025161064
 40
0.0043557189
 40
0.0067077113
 40
0.0096033388
 40
0.0130583904
 40
0.0170814357
 40
0.0216773103
 40
0.0268482916
 40
0.0325935447
 40
0.0457974437
 40
0.0612668117
 40
0.0789742913
 40
0.0988865742
 40
0.1209547729
 40
0.1451255489
 40
0.1713449744
 40
0.2296862033
 40
0.2954125359
 40
0.36790822
 40
0.4464717455
 40
0.5303598857
 40
0.618749988
 40
0.7107972084
 40
0.8056481507
 40
1.0
 40
1.0
 40
1.0
 40
1.0
 10
3.625
 20
14.2018068022
 30
0.0
 10
3.625
 20
14.201941756
 30
0.0
 10
3.624958636799988
 20
14.20222316179999
 30
0.0
 10
3.624778666800012
 20
14.20263311459999
 30
0.0
 10
3.624485752800013
 20
14.20303755419999
 30
0.0
 10
3.623906495499995
 20
14.20361170189999
 30
0.0
 10
3.622870584200001
 20
14.20430834929999
 30
0.0
 10
3.621272442800006
 20
14.20509351569999
 30
0.0
 10
3.619232429500016
 20
14.2058798325
 30
0.0
 10
3.616749766999988
 20
14.2066663678
 30
0.0
 10
3.613822600300011
 20
14.207452094
 30
0.0
 10
3.610451411700012
 20
14.20823583369999
 30
0.0
 10
3.606637346699983
 20
14.20901663669999
 30
0.0
 10
3.600682451400019
 20
14.21010399439999
 30
0.0
 10
3.5921455278
 20
14.21142703029999
 30
0.0
 10
3.580603400100017
 20
14.21293363589999
 30
0.0
 10
3.567362826800007
 20
14.21441732549999
 30
0.0
 10
3.552454564199991
 20
14.21587351279999
 30
0.0
 10
3.535914715300009
 20
14.21729830669999
 30
0.0
 10
3.517784062000004
 20
14.21868786709999
 30
0.0
 10
3.490561396299995
 20
14.22055514859999
 30
0.0
 10
3.452908780900003
 20
14.22273894369999
 30
0.0
 10
3.403636058500012
 20
14.2250865016
 30
0.0
 10
3.349274400199988
 20
14.22721653309999
 30
0.0
 10
3.290343819300006
 20
14.2291094604
 30
0.0
 10
3.227415376099998
 20
14.23074348109999
 30
0.0
 10
3.161095975899997
 20
14.23210416679999
 30
0.0
 10
3.092019807300005
 20
14.2331764127
 30
0.0
 10
2.996349684100011
 20
14.2342160756
 30
0.0
 10
2.923773030599989
 20
14.23452134269999
 30
0.0
 10
2.875
 20
14.23452134269999
 30
0.0
  0
LINE
  5
9D
330
1F
100
AcDbEntity
  8
Default
  6
Continuous
100
AcDbLine
 10
0.551181102399994
 20
10.7997853378
 30
0.0
 11
0.551181102399994
 21
8.793328644899994
 31
0.0
  0
LINE
  5
9E
330
1F
100
AcDbEntity
  8
Default
  6
Continuous
100
AcDbLine
 10
-0.5363702699999919
 20
11.38978533779999
 30
0.0
 11
-0.5511811023000064
 21
10.7997853378
 31
0.0
  0
LINE
  5
9F
330
1F
100
AcDbEntity
  8
Default
  6
Continuous
100
AcDbLine
 10
3.625
 20
14.3891283438
 30
0.0
 11
3.625
 21
13.965095762
 31
0.0
  0
LINE
  5
A0
330
1F
100
AcDbEntity
  8
Default
  6
Continuous
100
AcDbLine
 10
-2.875
 20
14.23452134269999
 30
0.0
 11
2.875
 21
14.23452134269999
 31
0.0
  0
LINE
  5
A1
330
1F
100
AcDbEntity
  8
Default
  6
Continuous
100
AcDbLine
 10
0.5363702700000204
 20
11.38978533779999
 30
0.0
 11
0.551181102399994
 21
10.7997853378
 31
0.0
  0
LINE
  5
A2
330
1F
100
AcDbEntity
  8
Default
  6
Continuous
100
AcDbLine
 10
-0.5511811023000064
 20
10.7997853378
 30
0.0
 11
-0.5511811023000064
 21
8.793328644899994
 31
0.0
  0
LINE
  5
A3
330
1F
100
AcDbEntity
  8
Default
  6
Continuous
100
AcDbLine
 10
-3.625
 20
13.965095762
 30
0.0
 11
-3.625
 21
14.3891283438
 31
0.0
  0
LINE
  5
A4
330
1F
100
AcDbEntity
  8
Default
  6
Continuous
100
AcDbLine
 10
9.347245555849995
 20
14.78162877619999
 30
0.0
 11
9.447820770950003
 21
14.78989285639999
 31
0.0
  0
LINE
  5
A5
330
1F
100
AcDbEntity
  8
Default
  6
Continuous
100
AcDbLine
 10
9.447820770950003
 20
14.78989285639999
 30
0.0
 11
9.672810944489186
 21
14.78991774457173
 31
0.0
  0
LINE
  5
A6
330
1F
100
AcDbEntity
  8
Default
  6
Continuous
100
AcDbLine
 10
9.67363029893194
 20
14.76260870729854
 30
0.0
 11
9.67480681395
 21
14.76906833839999
 31
0.0
  0
SPLINE
  5
A7
330
1F
100
AcDbEntity
  8
Default
  6
Continuous
100
AcDbSpline
210
0.0
220
0.0
230
1.0
 70
     8
 71
     3
 72
    16
 73
    12
 74
     0
 42
0.0000000001
 43
0.0000000001
 40
0.0
 40
0.0
 40
0.0
 40
0.0
 40
1.0
 40
2.0
 40
3.0
 40
4.0
 40
5.0
 40
6.0
 40
7.0
 40
8.0
 40
9.0
 40
9.0
 40
9.0
 40
9.0
 10
9.67480681395
 20
14.76906833839999
 30
0.0
 10
9.746379422653149
 20
15.16203624964075
 30
0.0
 10
9.927112041406644
 20
15.94111728668085
 30
0.0
 10
10.14959151727697
 20
17.1193558224638
 30
0.0
 10
10.37646484076504
 20
18.29679393361614
 30
0.0
 10
10.60199146292632
 20
19.47435346614102
 30
0.0
 10
10.8285111891845
 20
20.65222850095686
 30
0.0
 10
11.05240499183655
 20
21.82871901819198
 30
0.0
 10
11.28580949551423
 20
23.01043268047344
 30
0.0
 10
11.48379734120084
 20
24.17263943996076
 30
0.0
 10
11.58794406340644
 20
25.01452387118976
 30
0.0
 10
11.43125137005001
 20
25.34067872699999
 30
0.0
  0
POLYLINE
  5
A8
330
1F
100
AcDbEntity
  8
Default
100
AcDb2dPolyline
 66
     1
 10
0.0
 20
0.0
 30
0.0
  0
VERTEX
  5
A9
330
A8
100
AcDbEntity
  8
Default
100
AcDbVertex
100
AcDb2dVertex
 10
2.632957016446795
 20
13.30102818113605
 30
0.0
  0
VERTEX
  5
AA
330
A8
100
AcDbEntity
  8
Default
100
AcDbVertex
100
AcDb2dVertex
 10
2.170331625100403
 20
13.30102818113605
 30
0.0
  0
SEQEND
  5
AB
330
A8
100
AcDbEntity
  8
Default
  0
LINE
  5
AC
330
1F
100
AcDbEntity
  8
Default
100
AcDbLine
 10
-9.384879199847632
 20
14.97702515947636
 30
0.0
 11
-9.687969296544736
 21
14.97705868692104
 31
0.0
  0
POLYLINE
  5
AD
330
1F
100
AcDbEntity
  8
Default
100
AcDb2dPolyline
 66
     1
 10
0.0
 20
0.0
 30
0.0
  0
VERTEX
  5
AE
330
AD
100
AcDbEntity
  8
Default
100
AcDbVertex
100
AcDb2dVertex
 10
-9.687969296544736
 20
14.97705868692104
 30
0.0
  0
VERTEX
  5
AF
330
AD
100
AcDbEntity
  8
Default
100
AcDbVertex
100
AcDb2dVertex
 10
-9.670560350650021
 20
14.76266471819999
 30
0.0
  0
SEQEND
  5
B0
330
AD
100
AcDbEntity
  8
Default
  0
LINE
  5
B1
330
1F
100
AcDbEntity
  8
Default
100
AcDbLine
 10
-9.670560350650021
 20
14.76266471819999
 30
0.0
 11
-10.44390578862937
 21
14.76762148170748
 31
0.0
  0
LINE
  5
B2
330
1F
100
AcDbEntity
  8
Default
100
AcDbLine
 10
-10.44390578862937
 20
14.76762148170748
 30
0.0
 11
-10.30560153276309
 21
14.60398433564301
 31
0.0
  0
LINE
  5
B3
330
1F
100
AcDbEntity
  8
Default
100
AcDbLine
 10
-10.30560153276309
 20
14.60398433564301
 30
0.0
 11
-9.447824875950005
 21
14.60388944919999
 31
0.0
  0
LINE
  5
B4
330
1F
100
AcDbEntity
  8
Default
100
AcDbLine
 10
-9.447824875950005
 20
14.60388944919999
 30
0.0
 11
-6.976772537460931
 21
14.40084762948423
 31
0.0
  0
LINE
  5
B5
330
1F
100
AcDbEntity
  8
Default
100
AcDbLine
 10
-6.976772537460931
 20
14.40084762948423
 30
0.0
 11
-6.983780572744536
 21
14.55226269183706
 31
0.0
  0
LINE
  5
B6
330
1F
100
AcDbEntity
  8
Default
100
AcDbLine
 10
-6.983780572744536
 20
14.55226269183706
 30
0.0
 11
-9.340709342437208
 21
14.75717608434545
 31
0.0
  0
LINE
  5
B7
330
1F
100
AcDbEntity
  8
Default
100
AcDbLine
 10
-9.340709342437208
 20
14.75717608434545
 30
0.0
 11
-9.34688413355002
 21
14.78606912679999
 31
0.0
  0
SPLINE
  5
B8
330
1F
100
AcDbEntity
  8
Default
100
AcDbSpline
210
0.0
220
0.0
230
1.0
 70
     8
 71
     3
 72
    12
 73
     8
 74
     0
 42
0.0000000001
 43
0.0000000001
 40
-10.0
 40
-10.0
 40
-10.0
 40
-10.0
 40
-8.999999875150083
 40
-7.999999750300167
 40
-6.99999962545025
 40
-5.999999500600333
 40
-4.999999999999999
 40
-4.999999999999999
 40
-4.999999999999999
 40
-4.999999999999999
 10
-9.34688413355002
 20
14.78606912679999
 30
0.0
 10
-9.377716488146518
 20
14.93033968009697
 30
0.0
 10
-9.431054244465031
 20
15.22093054082278
 30
0.0
 10
-9.46690107936854
 20
15.66267378303646
 30
0.0
 10
-9.466949548299283
 20
16.10543613235555
 30
0.0
 10
-9.431333452828625
 20
16.54717994630967
 30
0.0
 10
-9.378222698076456
 20
16.83781867474347
 30
0.0
 10
-9.34733968545001
 20
16.98207886909999
 30
0.0
  0
SPLINE
  5
B9
330
1F
100
AcDbEntity
  8
Default
100
AcDbSpline
210
0.0
220
0.0
230
1.0
 70
     8
 71
     3
 72
    12
 73
     8
 74
     0
 42
0.0000000001
 43
0.0000000001
 40
0.0
 40
0.0
 40
0.0
 40
0.0
 40
0.9999985329945356
 40
1.999998899745902
 40
2.999999266497268
 40
3.999999633248634
 40
5.0
 40
5.0
 40
5.0
 40
5.0
 10
-9.34733968545001
 20
16.98207886909999
 30
0.0
 10
-9.32893241154909
 20
17.02810385010486
 30
0.0
 10
-9.232683535306194
 20
17.05549620437915
 30
0.0
 10
-9.09862681057507
 20
17.0833423482847
 30
0.0
 10
-8.958514558468096
 20
17.0932535843672
 30
0.0
 10
-8.819303401262857
 20
17.09734776114508
 30
0.0
 10
-8.726224068451813
 20
17.09801065253292
 30
0.0
 10
-8.67973306594115
 20
17.09801124644386
 30
0.0
  0
SPLINE
  5
BA
330
1F
100
AcDbEntity
  8
Default
100
AcDbSpline
210
0.0
220
0.0
230
1.0
 70
     8
 71
     3
 72
    16
 73
    12
 74
     0
 42
0.0000000001
 43
0.0000000001
 40
0.0
 40
0.0
 40
0.0
 40
0.0
 40
1.0
 40
2.0
 40
3.0
 40
4.0
 40
5.0
 40
6.0
 40
7.0
 40
8.0
 40
9.0
 40
9.0
 40
9.0
 40
9.0
 10
-8.67973306594115
 20
17.09801124644386
 30
0.0
 10
-8.35807734627349
 20
17.09712698972957
 30
0.0
 10
-7.715202512448627
 20
17.07321415472008
 30
0.0
 10
-6.75137654932081
 20
17.02886226366672
 30
0.0
 10
-5.787426449267684
 20
16.98659212201242
 30
0.0
 10
-4.823278139541344
 20
16.94925002235712
 30
0.0
 10
-3.858915632137041
 20
16.91783237787213
 30
0.0
 10
-2.894375460562571
 20
16.89246825556397
 30
0.0
 10
-1.929679466073424
 20
16.87387727923085
 30
0.0
 10
-0.9648703655986424
 20
16.86253166221771
 30
0.0
 10
-0.3216246602921728
 20
16.8599650858337
 30
0.0
 10
-0.0000017165500026
 20
16.85996482119999
 30
0.0
  0
SPLINE
  5
BB
330
1F
100
AcDbEntity
  8
Default
100
AcDbSpline
210
0.0
220
0.0
230
1.0
 70
     8
 71
     3
 72
    16
 73
    12
 74
     0
 42
0.0000000001
 43
0.0000000001
 40
-9.0
 40
-9.0
 40
-9.0
 40
-9.0
 40
-8.0
 40
-7.0
 40
-6.0
 40
-5.0
 40
-4.0
 40
-3.0
 40
-2.0
 40
-1.0
 40
0.0
 40
0.0
 40
0.0
 40
0.0
 10
-0.0000017165500026
 20
16.85996482119999
 30
0.0
 10
0.3216212271921677
 20
16.8599650858337
 30
0.0
 10
0.9648669324986372
 20
16.86253166221771
 30
0.0
 10
1.92967603297339
 20
16.87387727923085
 30
0.0
 10
2.894372027462566
 20
16.89246825556397
 30
0.0
 10
3.858912199037036
 20
16.91783237787213
 30
0.0
 10
4.823274706441339
 20
16.94925002235712
 30
0.0
 10
5.787423016167679
 20
16.98659212201242
 30
0.0
 10
6.751373116220805
 20
17.02886226366672
 30
0.0
 10
7.71519907934865
 20
17.07321415472008
 30
0.0
 10
8.358073913173484
 20
17.09712698972957
 30
0.0
 10
8.679729632841145
 20
17.09801124644386
 30
0.0
  0
SPLINE
  5
BC
330
1F
100
AcDbEntity
  8
Default
100
AcDbSpline
210
0.0
220
0.0
230
1.0
 70
     8
 71
     3
 72
    12
 73
     8
 74
     0
 42
0.0000000001
 43
0.0000000001
 40
-5.0
 40
-5.0
 40
-5.0
 40
-5.0
 40
-3.999999633248634
 40
-2.999999266497268
 40
-1.999998899745902
 40
-0.9999985329945356
 40
0.0
 40
0.0
 40
0.0
 40
0.0
 10
8.679729632841145
 20
17.09801124644386
 30
0.0
 10
8.726220635351794
 20
17.09801065253292
 30
0.0
 10
8.819299968162838
 20
17.09734776114508
 30
0.0
 10
8.95851112536809
 20
17.0932535843672
 30
0.0
 10
9.098623377475064
 20
17.0833423482847
 30
0.0
 10
9.23268010220616
 20
17.05549620437915
 30
0.0
 10
9.328928978449099
 20
17.02810385010486
 30
0.0
 10
9.347336252350004
 20
16.98207886909999
 30
0.0
  0
SPLINE
  5
BD
330
1F
100
AcDbEntity
  8
Default
100
AcDbSpline
210
0.0
220
0.0
230
1.0
 70
     8
 71
     3
 72
    12
 73
     8
 74
     0
 42
0.0000000001
 43
0.0000000001
 40
4.999999999999999
 40
4.999999999999999
 40
4.999999999999999
 40
4.999999999999999
 40
5.999999500600333
 40
6.99999962545025
 40
7.999999750300167
 40
8.999999875150083
 40
10.0
 40
10.0
 40
10.0
 40
10.0
 10
9.347336252350004
 20
16.98207886909999
 30
0.0
 10
9.378219264976465
 20
16.83781867474347
 30
0.0
 10
9.43133001972862
 20
16.54717994630967
 30
0.0
 10
9.466946115199278
 20
16.10543613235555
 30
0.0
 10
9.466897646268535
 20
15.66267378303646
 30
0.0
 10
9.43105081136504
 20
15.22093054082278
 30
0.0
 10
9.377713055046513
 20
14.93033968009697
 30
0.0
 10
9.34688070045
 20
14.78606912679999
 30
0.0
  0
LINE
  5
BE
330
1F
100
AcDbEntity
  8
Default
100
AcDbLine
 10
9.34688070045
 20
14.78606912679999
 30
0.0
 11
9.340705909337231
 21
14.75717608434545
 31
0.0
  0
LINE
  5
BF
330
1F
100
AcDbEntity
  8
Default
100
AcDbLine
 10
9.340705909337231
 20
14.75717608434545
 30
0.0
 11
6.983777139644531
 21
14.55226269183706
 31
0.0
  0
LINE
  5
C0
330
1F
100
AcDbEntity
  8
Default
100
AcDbLine
 10
6.983777139644531
 20
14.55226269183706
 30
0.0
 11
6.976769104361011
 21
14.40084762948424
 31
0.0
  0
LINE
  5
C1
330
1F
100
AcDbEntity
  8
Default
100
AcDbLine
 10
6.976769104361011
 20
14.40084762948424
 30
0.0
 11
9.44782144285
 21
14.60388944919999
 31
0.0
  0
LINE
  5
C2
330
1F
100
AcDbEntity
  8
Default
100
AcDbLine
 10
9.44782144285
 20
14.60388944919999
 30
0.0
 11
10.30559809966307
 21
14.60398433564301
 31
0.0
  0
LINE
  5
C3
330
1F
100
AcDbEntity
  8
Default
100
AcDbLine
 10
10.30559809966307
 20
14.60398433564301
 30
0.0
 11
10.44390235552933
 21
14.76762148170748
 31
0.0
  0
LINE
  5
C4
330
1F
100
AcDbEntity
  8
Default
100
AcDbLine
 10
10.44390235552933
 20
14.76762148170748
 30
0.0
 11
9.670556917550002
 21
14.76266471819999
 31
0.0
  0
POLYLINE
  5
C5
330
1F
100
AcDbEntity
  8
Default
100
AcDb2dPolyline
 66
     1
 10
0.0
 20
0.0
 30
0.0
  0
VERTEX
  5
C6
330
C5
100
AcDbEntity
  8
Default
100
AcDbVertex
100
AcDb2dVertex
 10
9.670556917550002
 20
14.76266471819999
 30
0.0
  0
VERTEX
  5
C7
330
C5
100
AcDbEntity
  8
Default
100
AcDbVertex
100
AcDb2dVertex
 10
9.687965863444745
 20
14.97705868692104
 30
0.0
  0
SEQEND
  5
C8
330
C5
100
AcDbEntity
  8
Default
  0
LINE
  5
C9
330
1F
100
AcDbEntity
  8
Default
100
AcDbLine
 10
9.687965863444745
 20
14.97705868692104
 30
0.0
 11
9.384875766747626
 21
14.97702515947636
 31
0.0
  0
LINE
  5
CA
330
1F
100
AcDbEntity
  8
Default
  6
Continuous
100
AcDbLine
 10
-9.347248988950014
 20
14.78162877619999
 30
0.0
 11
-9.447824204049994
 21
14.78989285639999
 31
0.0
  0
LINE
  5
CB
330
1F
100
AcDbEntity
  8
Default
  6
Continuous
100
AcDbLine
 10
-9.447824204049994
 20
14.78989285639999
 30
0.0
 11
-9.67281437758919
 21
14.78991774457173
 31
0.0
  0
LINE
  5
CC
330
1F
100
AcDbEntity
  8
Default
  6
Continuous
100
AcDbLine
 10
-9.67363373203193
 20
14.76260870729854
 30
0.0
 11
-9.674810247050004
 21
14.76906833839999
 31
0.0
  0
SPLINE
  5
CD
330
1F
100
AcDbEntity
  8
Default
  6
Continuous
100
AcDbSpline
210
0.0
220
0.0
230
1.0
 70
     8
 71
     3
 72
    16
 73
    12
 74
     0
 42
0.0000000001
 43
0.0000000001
 40
0.0
 40
0.0
 40
0.0
 40
0.0
 40
1.0
 40
2.0
 40
3.0
 40
4.0
 40
5.0
 40
6.0
 40
7.0
 40
8.0
 40
9.0
 40
9.0
 40
9.0
 40
9.0
 10
-9.674810247050004
 20
14.76906833839999
 30
0.0
 10
-9.746382855753154
 20
15.16203624964075
 30
0.0
 10
-9.92711547450665
 20
15.94111728668085
 30
0.0
 10
-10.14959495037698
 20
17.1193558224638
 30
0.0
 10
-10.37646827386504
 20
18.29679393361614
 30
0.0
 10
-10.60199489602633
 20
19.47435346614102
 30
0.0
 10
-10.8285146222845
 20
20.65222850095686
 30
0.0
 10
-11.05240842493657
 20
21.82871901819198
 30
0.0
 10
-11.28581292861423
 20
23.01043268047344
 30
0.0
 10
-11.48380077430085
 20
24.17263943996076
 30
0.0
 10
-11.58794749650644
 20
25.01452387118976
 30
0.0
 10
-11.43125480315001
 20
25.34067872699999
 30
0.0
  0
SPLINE
  5
CE
330
1F
100
AcDbEntity
  8
Default
  6
Continuous
100
AcDbSpline
210
0.0
220
0.0
230
1.0
 70
     8
 71
     3
 72
    16
 73
    12
 74
     0
 42
0.0000000001
 43
0.0000000001
 40
-9.0
 40
-9.0
 40
-9.0
 40
-9.0
 40
-8.0
 40
-7.0
 40
-6.0
 40
-5.0
 40
-4.0
 40
-3.0
 40
-2.0
 40
-1.0
 40
0.0
 40
0.0
 40
0.0
 40
0.0
 10
-12.58028380405
 20
25.47415759729999
 30
0.0
 10
-12.29535888088654
 20
25.97483523859337
 30
0.0
 10
-11.76593005553795
 20
26.99947052943083
 30
0.0
 10
-10.81171358943061
 20
28.44473791147638
 30
0.0
 10
-9.671297890858
 20
29.75037954472567
 30
0.0
 10
-8.320665338401085
 20
30.84150065235081
 30
0.0
 10
-6.792034735599373
 20
31.66217570238565
 30
0.0
 10
-5.153364716236069
 20
32.22888885041053
 30
0.0
 10
-3.452468171751974
 20
32.5547548505
 30
0.0
 10
-1.728686045818733
 20
32.69999892476434
 30
0.0
 10
-0.5761989027439824
 20
32.72352433453501
 30
0.0
 10
-0.0000017165500026
 20
32.72357304179999
 30
0.0
  0
SPLINE
  5
CF
330
1F
100
AcDbEntity
  8
Default
  6
Continuous
100
AcDbSpline
210
0.0
220
0.0
230
1.0
 70
     8
 71
     3
 72
    16
 73
    12
 74
     0
 42
0.0000000001
 43
0.0000000001
 40
0.0
 40
0.0
 40
0.0
 40
0.0
 40
1.0
 40
2.0
 40
3.0
 40
4.0
 40
5.0
 40
6.0
 40
7.0
 40
8.0
 40
9.0
 40
9.0
 40
9.0
 40
9.0
 10
-0.0000017165500026
 20
32.72357304179999
 30
0.0
 10
0.5761954696439773
 20
32.72352433453501
 30
0.0
 10
1.728682612718728
 20
32.69999892476434
 30
0.0
 10
3.452464738651969
 20
32.5547548505
 30
0.0
 10
5.153361283136064
 20
32.22888885041053
 30
0.0
 10
6.792031302499367
 20
31.66217570238565
 30
0.0
 10
8.32066190530108
 20
30.84150065235081
 30
0.0
 10
9.671294457757995
 20
29.75037954472567
 30
0.0
 10
10.81171015633062
 20
28.44473791147638
 30
0.0
 10
11.76592662243795
 20
26.99947052943083
 30
0.0
 10
12.29535544778653
 20
25.97483523859337
 30
0.0
 10
12.58028037094999
 20
25.47415759729999
 30
0.0
  0
SPLINE
  5
D0
330
1F
100
AcDbEntity
  8
Default
  6
Continuous
100
AcDbSpline
210
0.0
220
0.0
230
1.0
 70
     8
 71
     3
 72
    12
 73
     8
 74
     0
 42
0.0000000001
 43
0.0000000001
 40
0.0
 40
0.0
 40
0.0
 40
0.0
 40
1.0
 40
2.0
 40
3.0
 40
4.0
 40
5.0
 40
5.0
 40
5.0
 40
5.0
 10
-9.34688406265002
 20
14.78606880829999
 30
0.0
 10
-9.358453642451877
 20
14.84339741724082
 30
0.0
 10
-9.253329111180335
 20
14.88518381623393
 30
0.0
 10
-9.117063085878215
 20
14.91254010277457
 30
0.0
 10
-8.970947531139643
 20
14.92537450000903
 30
0.0
 10
-8.826522814284885
 20
14.9292859998652
 30
0.0
 10
-8.729789684245873
 20
14.93012528426976
 30
0.0
 10
-8.6815068777899
 20
14.93010431931631
 30
0.0
  0
SPLINE
  5
D1
330
1F
100
AcDbEntity
  8
Default
  6
Continuous
100
AcDbSpline
210
0.0
220
0.0
230
1.0
 70
     8
 71
     3
 72
    15
 73
    11
 74
     0
 42
0.0000000001
 43
0.0000000001
 40
0.0
 40
0.0
 40
0.0
 40
0.0
 40
1.0
 40
2.0
 40
3.0
 40
4.0
 40
5.0
 40
6.0
 40
7.0
 40
8.0
 40
8.0
 40
8.0
 40
8.0
 10
-8.6815068777899
 20
14.93010431931631
 30
0.0
 10
-8.319575826763014
 20
14.92887155349761
 30
0.0
 10
-7.596259801431529
 20
14.90060358856684
 30
0.0
 10
-6.511719407401301
 20
14.8515714624485
 30
0.0
 10
-5.426968742129219
 20
14.8064353949386
 30
0.0
 10
-4.341961554818283
 20
14.76817906243035
 30
0.0
 10
-3.256721037128784
 20
14.73712046141935
 30
0.0
 10
-2.171275216264831
 20
14.71427254279434
 30
0.0
 10
-1.08567936582557
 20
14.7002037095271
 30
0.0
 10
-0.3618943739082283
 20
14.69702736075253
 30
0.0
 10
-0.0000017165500026
 20
14.69702589099999
 30
0.0
  0
SPLINE
  5
D2
330
1F
100
AcDbEntity
  8
Default
  6
Continuous
100
AcDbSpline
210
0.0
220
0.0
230
1.0
 70
     8
 71
     3
 72
    15
 73
    11
 74
     0
 42
0.0000000001
 43
0.0000000001
 40
-8.0
 40
-8.0
 40
-8.0
 40
-8.0
 40
-7.0
 40
-6.0
 40
-5.0
 40
-4.0
 40
-3.0
 40
-2.0
 40
-1.0
 40
0.0
 40
0.0
 40
0.0
 40
0.0
 10
-0.0000017165500026
 20
14.69702589099999
 30
0.0
 10
0.3618909408082231
 20
14.69702736075253
 30
0.0
 10
1.085675932725565
 20
14.7002037095271
 30
0.0
 10
2.171271783164826
 20
14.71427254279434
 30
0.0
 10
3.256717604028779
 20
14.73712046141935
 30
0.0
 10
4.341958121718278
 20
14.76817906243035
 30
0.0
 10
5.426965309029214
 20
14.8064353949386
 30
0.0
 10
6.511715974301296
 20
14.8515714624485
 30
0.0
 10
7.59625636833151
 20
14.90060358856684
 30
0.0
 10
8.319572393663009
 20
14.92887155349761
 30
0.0
 10
8.68150344468988
 20
14.93010431931631
 30
0.0
  0
SPLINE
  5
D3
330
1F
100
AcDbEntity
  8
Default
  6
Continuous
100
AcDbSpline
210
0.0
220
0.0
230
1.0
 70
     8
 71
     3
 72
    12
 73
     8
 74
     0
 42
0.0000000001
 43
0.0000000001
 40
-5.0
 40
-5.0
 40
-5.0
 40
-5.0
 40
-4.0
 40
-3.0
 40
-2.0
 40
-1.0
 40
0.0
 40
0.0
 40
0.0
 40
0.0
 10
8.68150344468988
 20
14.93010431931631
 30
0.0
 10
8.729786251145839
 20
14.93012528426976
 30
0.0
 10
8.82651938118488
 20
14.9292859998652
 30
0.0
 10
8.970944098039624
 20
14.92537450000903
 30
0.0
 10
9.11705965277821
 20
14.91254010277457
 30
0.0
 10
9.253325678080358
 20
14.88518381623393
 30
0.0
 10
9.358450209351872
 20
14.84339741724082
 30
0.0
 10
9.34688062955
 20
14.78606880829999
 30
0.0
  0
SPLINE
  5
D4
330
1F
100
AcDbEntity
  8
Default
  6
Continuous
100
AcDbSpline
210
0.0
220
0.0
230
1.0
 70
     8
 71
     3
 72
     8
 73
     4
 74
     0
 42
0.0000000001
 43
0.0000000001
 40
0.0
 40
0.0
 40
0.0
 40
0.0
 40
1.0
 40
1.0
 40
1.0
 40
1.0
 10
-2.095443113300007
 20
13.17179405189999
 30
0.0
 10
-4.13026401948764
 20
13.16992128408986
 30
0.0
 10
-6.165087932660356
 20
13.17088679400508
 30
0.0
 10
-8.199906210150004
 20
13.17469085699999
 30
0.0
  0
SPLINE
  5
D5
330
1F
100
AcDbEntity
  8
Default
  6
Continuous
100
AcDbSpline
210
0.0
220
0.0
230
1.0
 70
     8
 71
     3
 72
     8
 73
     4
 74
     0
 42
0.0000000001
 43
0.0000000001
 40
0.0
 40
0.0
 40
0.0
 40
0.0
 40
1.0
 40
1.0
 40
1.0
 40
1.0
 10
-8.199906210150004
 20
13.17469085699999
 30
0.0
 10
-8.226627091291164
 20
13.17528020355088
 30
0.0
 10
-8.250525090123318
 20
13.15141834637809
 30
0.0
 10
-8.25
 20
13.12468026225
 30
0.0
  0
LINE
  5
D6
330
1F
100
AcDbEntity
  8
Default
  6
Continuous
100
AcDbLine
 10
-8.25
 20
13.12468026225
 30
0.0
 11
-8.25
 21
12.90489712999999
 31
0.0
  0
SPLINE
  5
D7
330
1F
100
AcDbEntity
  8
Default
  6
Continuous
100
AcDbSpline
210
0.0
220
0.0
230
1.0
 70
     8
 71
     3
 72
     8
 73
     4
 74
     0
 42
0.0000000001
 43
0.0000000001
 40
0.0
 40
0.0
 40
0.0
 40
0.0
 40
1.0
 40
1.0
 40
1.0
 40
1.0
 10
-8.25
 20
12.90489712999999
 30
0.0
 10
-8.250525083661898
 20
12.87816503806703
 30
0.0
 10
-8.226627098073237
 20
12.85430332630993
 30
0.0
 10
-8.199906202750014
 20
12.85488622044999
 30
0.0
  0
SPLINE
  5
D8
330
1F
100
AcDbEntity
  8
Default
  6
Continuous
100
AcDbSpline
210
0.0
220
0.0
230
1.0
 70
     8
 71
     3
 72
     8
 73
     4
 74
     0
 42
0.0000000001
 43
0.0000000001
 40
0.0
 40
0.0
 40
0.0
 40
0.0
 40
1.0
 40
1.0
 40
1.0
 40
1.0
 10
-8.199906202750014
 20
12.85488622044999
 30
0.0
 10
-6.0968117780032
 20
12.85878767781137
 30
0.0
 10
-3.993712047419081
 20
12.85973251335453
 30
0.0
 10
-1.890614957499992
 20
12.85757108959999
 30
0.0
  0
SPLINE
  5
D9
330
1F
100
AcDbEntity
  8
Default
  6
Continuous
100
AcDbSpline
210
0.0
220
0.0
230
1.0
 70
     8
 71
     3
 72
    12
 73
     8
 74
     0
 42
0.0000000001
 43
0.0000000001
 40
0.0
 40
0.0
 40
0.0
 40
0.0
 40
1.0
 40
2.0
 40
3.0
 40
4.0
 40
5.0
 40
5.0
 40
5.0
 40
5.0
 10
2.615363753099984
 20
14.17082329679999
 30
0.0
 10
2.267168323664151
 20
14.19265433107237
 30
0.0
 10
1.569784057244703
 20
14.21683086119528
 30
0.0
 10
0.5233046498392184
 20
14.23231264087771
 30
0.0
 10
-0.523304700662095
 20
14.23231264319178
 30
0.0
 10
-1.569784023824553
 20
14.2168308612822
 30
0.0
 10
-2.267168321939238
 20
14.19265433163242
 30
0.0
 10
-2.615363759800005
 20
14.17082329619999
 30
0.0
  0
ARC
  5
DA
330
1F
100
AcDbEntity
  8
Default
  6
Continuous
100
AcDbCircle
 10
-2.54802472962524
 20
13.09679530657932
 30
0.0
 40
1.076136918553346
100
AcDbArc
 50
93.58761463965162
 51
102.721321725761
  0
LINE
  5
DB
330
1F
100
AcDbEntity
  8
Default
  6
Continuous
100
AcDbLine
 10
-2.784999999999997
 20
14.1465159307
 30
0.0
 11
-2.785000000000025
 21
14.05321764597824
 31
0.0
  0
LINE
  5
DC
330
1F
100
AcDbEntity
  8
Default
  6
Continuous
100
AcDbLine
 10
-2.785000000000025
 20
14.05321764597824
 30
0.0
 11
-2.685823578550014
 21
13.34822558899999
 31
0.0
  0
SPLINE
  5
DD
330
1F
100
AcDbEntity
  8
Default
  6
Continuous
100
AcDbSpline
210
0.0
220
0.0
230
1.0
 70
     8
 71
     3
 72
    12
 73
     8
 74
     0
 42
0.0000000001
 43
0.0000000001
 40
0.0
 40
0.0
 40
0.0
 40
0.0
 40
0.9999630501083864
 40
1.99997228758129
 40
2.999981525054193
 40
3.999990762527097
 40
5.0
 40
5.0
 40
5.0
 40
5.0
 10
-2.685823578550014
 20
13.34822558899999
 30
0.0
 10
-2.68440671752046
 20
13.33826736155392
 30
0.0
 10
-2.676942659833628
 20
13.31842426098747
 30
0.0
 10
-2.650584546951904
 20
13.30081926749995
 30
0.0
 10
-2.618941983967716
 20
13.299921787168
 30
0.0
 10
-2.591354822129347
 20
13.315229579358
 30
0.0
 10
-2.582229268289552
 20
13.33450915620806
 30
0.0
 10
-2.580848357104742
 20
13.34451805679776
 30
0.0
  0
LINE
  5
DE
330
1F
100
AcDbEntity
  8
Default
  6
Continuous
100
AcDbLine
 10
-2.580848357104742
 20
13.34451805679776
 30
0.0
 11
-2.559483555647944
 21
13.49399666943621
 31
0.0
  0
LINE
  5
DF
330
1F
100
AcDbEntity
  8
Default
  6
Continuous
100
AcDbLine
 10
-2.559483555647944
 20
13.49399666943621
 30
0.0
 11
-2.397308499100006
 21
13.52338365729999
 31
0.0
  0
POLYLINE
  5
E0
330
1F
100
AcDbEntity
  8
Default
  6
Continuous
100
AcDb2dPolyline
 66
     1
 10
0.0
 20
0.0
 30
0.0
  0
VERTEX
  5
E1
330
E0
100
AcDbEntity
  8
Default
  6
Continuous
100
AcDbVertex
100
AcDb2dVertex
 10
-2.397308499100006
 20
13.52338365729999
 30
0.0
  0
VERTEX
  5
E2
330
E0
100
AcDbEntity
  8
Default
  6
Continuous
100
AcDbVertex
100
AcDb2dVertex
 10
-2.305392122800015
 20
13.53900064499999
 30
0.0
  0
VERTEX
  5
E3
330
E0
100
AcDbEntity
  8
Default
  6
Continuous
100
AcDbVertex
100
AcDb2dVertex
 10
-2.207670063699993
 20
13.55449848599999
 30
0.0
  0
VERTEX
  5
E4
330
E0
100
AcDbEntity
  8
Default
  6
Continuous
100
AcDbVertex
100
AcDb2dVertex
 10
-2.104094997900006
 20
13.56981759679999
 30
0.0
  0
VERTEX
  5
E5
330
E0
100
AcDbEntity
  8
Default
  6
Continuous
100
AcDbVertex
100
AcDb2dVertex
 10
-1.994565909699986
 20
13.5848849424
 30
0.0
  0
VERTEX
  5
E6
330
E0
100
AcDbEntity
  8
Default
  6
Continuous
100
AcDbVertex
100
AcDb2dVertex
 10
-1.879515552399994
 20
13.5995594648
 30
0.0
  0
VERTEX
  5
E7
330
E0
100
AcDbEntity
  8
Default
  6
Continuous
100
AcDbVertex
100
AcDb2dVertex
 10
-1.760176883700012
 20
13.61361953909999
 30
0.0
  0
VERTEX
  5
E8
330
E0
100
AcDbEntity
  8
Default
  6
Continuous
100
AcDbVertex
100
AcDb2dVertex
 10
-1.636703712200017
 20
13.62700051179999
 30
0.0
  0
VERTEX
  5
E9
330
E0
100
AcDbEntity
  8
Default
  6
Continuous
100
AcDbVertex
100
AcDb2dVertex
 10
-1.509259159799996
 20
13.63962874319999
 30
0.0
  0
VERTEX
  5
EA
330
E0
100
AcDbEntity
  8
Default
  6
Continuous
100
AcDbVertex
100
AcDb2dVertex
 10
-1.377823917299992
 20
13.65144402749999
 30
0.0
  0
VERTEX
  5
EB
330
E0
100
AcDbEntity
  8
Default
  6
Continuous
100
AcDbVertex
100
AcDb2dVertex
 10
-1.24238265370002
 20
13.66238433849999
 30
0.0
  0
VERTEX
  5
EC
330
E0
100
AcDbEntity
  8
Default
  6
Continuous
100
AcDbVertex
100
AcDb2dVertex
 10
-1.103021155299984
 20
13.6723757637
 30
0.0
  0
VERTEX
  5
ED
330
E0
100
AcDbEntity
  8
Default
  6
Continuous
100
AcDbVertex
100
AcDb2dVertex
 10
-0.9609273782999992
 20
13.68128004409999
 30
0.0
  0
VERTEX
  5
EE
330
E0
100
AcDbEntity
  8
Default
  6
Continuous
100
AcDbVertex
100
AcDb2dVertex
 10
-0.8173152852999976
 20
13.68898727119999
 30
0.0
  0
VERTEX
  5
EF
330
E0
100
AcDbEntity
  8
Default
  6
Continuous
100
AcDbVertex
100
AcDb2dVertex
 10
-0.6721810084999902
 20
13.69547629749999
 30
0.0
  0
VERTEX
  5
F0
330
E0
100
AcDbEntity
  8
Default
  6
Continuous
100
AcDbVertex
100
AcDb2dVertex
 10
-0.525547283700007
 20
13.70072435149999
 30
0.0
  0
VERTEX
  5
F1
330
E0
100
AcDbEntity
  8
Default
  6
Continuous
100
AcDbVertex
100
AcDb2dVertex
 10
-0.3774339670000018
 20
13.70470792299999
 30
0.0
  0
VERTEX
  5
F2
330
E0
100
AcDbEntity
  8
Default
  6
Continuous
100
AcDbVertex
100
AcDb2dVertex
 10
-0.2277756742000179
 20
13.70740220369999
 30
0.0
  0
VERTEX
  5
F3
330
E0
100
AcDbEntity
  8
Default
  6
Continuous
100
AcDbVertex
100
AcDb2dVertex
 10
-0.0766128687000105
 20
13.70877074239999
 30
0.0
  0
VERTEX
  5
F4
330
E0
100
AcDbEntity
  8
Default
  6
Continuous
100
AcDbVertex
100
AcDb2dVertex
 10
-0.0000034331000052
 20
13.70877619966377
 30
0.0
  0
SEQEND
  5
F5
330
E0
100
AcDbEntity
  8
Default
  6
Continuous
  0
POLYLINE
  5
F6
330
1F
100
AcDbEntity
  8
Default
  6
Continuous
100
AcDb2dPolyline
 66
     1
 10
0.0
 20
0.0
 30
0.0
  0
VERTEX
  5
F7
330
F6
100
AcDbEntity
  8
Default
  6
Continuous
100
AcDbVertex
100
AcDb2dVertex
 10
-0.0000034331000052
 20
13.70877619966377
 30
0.0
  0
VERTEX
  5
F8
330
F6
100
AcDbEntity
  8
Default
  6
Continuous
100
AcDbVertex
100
AcDb2dVertex
 10
0.0766060025000002
 20
13.70877074239999
 30
0.0
  0
VERTEX
  5
F9
330
F6
100
AcDbEntity
  8
Default
  6
Continuous
100
AcDbVertex
100
AcDb2dVertex
 10
0.2277688080000075
 20
13.70740220369999
 30
0.0
  0
VERTEX
  5
FA
330
F6
100
AcDbEntity
  8
Default
  6
Continuous
100
AcDbVertex
100
AcDb2dVertex
 10
0.3774271007999914
 20
13.70470792299999
 30
0.0
  0
VERTEX
  5
FB
330
F6
100
AcDbEntity
  8
Default
  6
Continuous
100
AcDbVertex
100
AcDb2dVertex
 10
0.5255404174999967
 20
13.70072435149999
 30
0.0
  0
VERTEX
  5
FC
330
F6
100
AcDbEntity
  8
Default
  6
Continuous
100
AcDbVertex
100
AcDb2dVertex
 10
0.6721741422999798
 20
13.69547629749999
 30
0.0
  0
VERTEX
  5
FD
330
F6
100
AcDbEntity
  8
Default
  6
Continuous
100
AcDbVertex
100
AcDb2dVertex
 10
0.8173084190999873
 20
13.68898727119999
 30
0.0
  0
VERTEX
  5
FE
330
F6
100
AcDbEntity
  8
Default
  6
Continuous
100
AcDbVertex
100
AcDb2dVertex
 10
0.9609205120999889
 20
13.68128004409999
 30
0.0
  0
VERTEX
  5
FF
330
F6
100
AcDbEntity
  8
Default
  6
Continuous
100
AcDbVertex
100
AcDb2dVertex
 10
1.103014289099974
 20
13.6723757637
 30
0.0
  0
VERTEX
  5
100
330
F6
100
AcDbEntity
  8
Default
  6
Continuous
100
AcDbVertex
100
AcDb2dVertex
 10
1.242375787500009
 20
13.66238433849999
 30
0.0
  0
VERTEX
  5
101
330
F6
100
AcDbEntity
  8
Default
  6
Continuous
100
AcDbVertex
100
AcDb2dVertex
 10
1.377817051099981
 20
13.65144402749999
 30
0.0
  0
VERTEX
  5
102
330
F6
100
AcDbEntity
  8
Default
  6
Continuous
100
AcDbVertex
100
AcDb2dVertex
 10
1.509252293599985
 20
13.63962874319999
 30
0.0
  0
VERTEX
  5
103
330
F6
100
AcDbEntity
  8
Default
  6
Continuous
100
AcDbVertex
100
AcDb2dVertex
 10
1.636696846000007
 20
13.62700051179999
 30
0.0
  0
VERTEX
  5
104
330
F6
100
AcDbEntity
  8
Default
  6
Continuous
100
AcDbVertex
100
AcDb2dVertex
 10
1.760170017500002
 20
13.61361953909999
 30
0.0
  0
VERTEX
  5
105
330
F6
100
AcDbEntity
  8
Default
  6
Continuous
100
AcDbVertex
100
AcDb2dVertex
 10
1.879508686199983
 20
13.5995594648
 30
0.0
  0
VERTEX
  5
106
330
F6
100
AcDbEntity
  8
Default
  6
Continuous
100
AcDbVertex
100
AcDb2dVertex
 10
1.994559043499976
 20
13.5848849424
 30
0.0
  0
VERTEX
  5
107
330
F6
100
AcDbEntity
  8
Default
  6
Continuous
100
AcDbVertex
100
AcDb2dVertex
 10
2.104088131699996
 20
13.56981759679999
 30
0.0
  0
VERTEX
  5
108
330
F6
100
AcDbEntity
  8
Default
  6
Continuous
100
AcDbVertex
100
AcDb2dVertex
 10
2.207663197499983
 20
13.55449848599999
 30
0.0
  0
VERTEX
  5
109
330
F6
100
AcDbEntity
  8
Default
  6
Continuous
100
AcDbVertex
100
AcDb2dVertex
 10
2.305385256600005
 20
13.53900064499999
 30
0.0
  0
VERTEX
  5
10A
330
F6
100
AcDbEntity
  8
Default
  6
Continuous
100
AcDbVertex
100
AcDb2dVertex
 10
2.397301632899996
 20
13.52338365729999
 30
0.0
  0
SEQEND
  5
10B
330
F6
100
AcDbEntity
  8
Default
  6
Continuous
  0
LINE
  5
10C
330
1F
100
AcDbEntity
  8
Default
  6
Continuous
100
AcDbLine
 10
2.397301632899996
 20
13.52338365729999
 30
0.0
 11
2.559476689447933
 21
13.49399666943621
 31
0.0
  0
LINE
  5
10D
330
1F
100
AcDbEntity
  8
Default
  6
Continuous
100
AcDbLine
 10
2.559476689447933
 20
13.49399666943621
 30
0.0
 11
2.580844924004737
 21
13.34451805679776
 31
0.0
  0
SPLINE
  5
10E
330
1F
100
AcDbEntity
  8
Default
  6
Continuous
100
AcDbSpline
210
0.0
220
0.0
230
1.0
 70
     8
 71
     3
 72
    12
 73
     8
 74
     0
 42
0.0000000001
 43
0.0000000001
 40
-5.0
 40
-5.0
 40
-5.0
 40
-5.0
 40
-3.99999076252709
 40
-2.99998152505418
 40
-1.99997228758127
 40
-0.99996305010836
 40
0.0
 40
0.0
 40
0.0
 40
0.0
 10
2.580844924004737
 20
13.34451805679776
 30
0.0
 10
2.582229268289552
 20
13.33450915620806
 30
0.0
 10
2.591354822129347
 20
13.315229579358
 30
0.0
 10
2.618941983967716
 20
13.299921787168
 30
0.0
 10
2.650584546951904
 20
13.30081926749995
 30
0.0
 10
2.6769426598336
 20
13.31842426098747
 30
0.0
 10
2.68440671752046
 20
13.33826736155392
 30
0.0
 10
2.685823578549986
 20
13.34822558899999
 30
0.0
  0
LINE
  5
10F
330
1F
100
AcDbEntity
  8
Default
  6
Continuous
100
AcDbLine
 10
2.685823578549986
 20
13.34822558899999
 30
0.0
 11
2.785000000000025
 21
14.05321764597824
 31
0.0
  0
LINE
  5
110
330
1F
100
AcDbEntity
  8
Default
  6
Continuous
100
AcDbLine
 10
2.785000000000025
 20
14.05321764597824
 30
0.0
 11
2.784999999999997
 21
14.14651593069999
 31
0.0
  0
ARC
  5
111
330
1F
100
AcDbEntity
  8
Default
  6
Continuous
100
AcDbCircle
 10
2.548024721997365
 20
13.09679526129652
 30
0.0
 40
1.076136964404298
100
AcDbArc
 50
77.27867840899646
 51
86.41238546390618
  0
ARC
  5
112
330
1F
100
AcDbEntity
  8
Default
  6
Continuous
100
AcDbCircle
 10
-2.875
 20
5.808390997971642
 30
0.0
 40
8.613451886328349
100
AcDbArc
 50
90.0
 51
94.99524713351741
  0
LINE
  5
113
330
1F
100
AcDbEntity
  8
Default
  6
Continuous
100
AcDbLine
 10
-2.875
 20
14.42184288429999
 30
0.0
 11
2.875
 21
14.42184288429999
 31
0.0
  0
ARC
  5
114
330
1F
100
AcDbEntity
  8
Default
  6
Continuous
100
AcDbCircle
 10
2.875
 20
5.808390997971642
 30
0.0
 40
8.61345188632835
100
AcDbArc
 50
85.0047528664826
 51
90.0
  0
SPLINE
  5
115
330
1F
100
AcDbEntity
  8
Default
  6
Continuous
100
AcDbSpline
210
0.0
220
0.0
230
1.0
 70
     8
 71
     3
 72
    12
 73
     8
 74
     0
 42
0.0000000001
 43
0.0000000001
 40
0.0
 40
0.0
 40
0.0
 40
0.0
 40
1.0
 40
2.0
 40
3.0
 40
4.0
 40
5.0
 40
5.0
 40
5.0
 40
5.0
 10
-2.281815014599999
 20
13.54273976259999
 30
0.0
 10
-2.22138306161844
 20
13.38169703327637
 30
0.0
 10
-2.049250541194738
 20
13.08354441623463
 30
0.0
 10
-1.755470878714902
 20
12.66109576887872
 30
0.0
 10
-1.438318708003465
 20
12.25451297512207
 30
0.0
 10
-1.127211118271816
 20
11.84812151004656
 30
0.0
 10
-0.9244924596455917
 20
11.56223675191866
 30
0.0
 10
-0.9000143339000033
 20
11.38978533779999
 30
0.0
  0
LINE
  5
116
330
1F
100
AcDbEntity
  8
Default
  6
Continuous
100
AcDbLine
 10
-0.9000143339000033
 20
11.38978533779999
 30
0.0
 11
0.900010901249999
 21
11.38978533779999
 31
0.0
  0
SPLINE
  5
117
330
1F
100
AcDbEntity
  8
Default
  6
Continuous
100
AcDbSpline
210
0.0
220
0.0
230
1.0
 70
     8
 71
     3
 72
    12
 73
     8
 74
     0
 42
0.0000000001
 43
0.0000000001
 40
-5.0
 40
-5.0
 40
-5.0
 40
-5.0
 40
-4.000000738231605
 40
-3.000000553673703
 40
-2.000000369115802
 40
-1.000000184557901
 40
0.0
 40
0.0
 40
0.0
 40
0.0
 10
0.900010901249999
 20
11.38978533779999
 30
0.0
 10
0.9244857805122138
 20
11.56223701573006
 30
0.0
 10
1.127204347767389
 20
11.84812163505113
 30
0.0
 10
1.438311841803454
 20
12.25451297512207
 30
0.0
 10
1.755464012514892
 20
12.66109576887872
 30
0.0
 10
2.049243674994727
 20
13.08354441623463
 30
0.0
 10
2.221376195418429
 20
13.38169703327637
 30
0.0
 10
2.281808148399989
 20
13.54273976259999
 30
0.0
  0
POLYLINE
  5
118
330
1F
100
AcDbEntity
  8
Default
100
AcDb2dPolyline
 66
     1
 10
0.0
 20
0.0
 30
0.0
  0
VERTEX
  5
119
330
118
100
AcDbEntity
  8
Default
100
AcDbVertex
100
AcDb2dVertex
 10
-2.632957016446795
 20
13.30102818113605
 30
0.0
  0
VERTEX
  5
11A
330
118
100
AcDbEntity
  8
Default
100
AcDbVertex
100
AcDb2dVertex
 10
-2.170331625100403
 20
13.30102818113605
 30
0.0
  0
SEQEND
  5
11B
330
118
100
AcDbEntity
  8
Default
  0
LINE
  5
11C
330
1F
100
AcDbEntity
  8
Default
  6
Continuous
100
AcDbLine
 10
-0.8592452124499914
 20
8.793327392749994
 30
0.0
 11
0.8592452125000136
 21
8.793327392749994
 31
0.0
  0
LINE
  5
11D
330
1F
100
AcDbEntity
  8
Default
  6
Continuous
100
AcDbLine
 10
29.49963984291088
 20
13.91392373949999
 30
0.0
 11
29.49146120781089
 21
14.10124528109999
 31
0.0
  0
LINE
  5
11E
330
1F
100
AcDbEntity
  8
Default
  6
Continuous
100
AcDbLine
 10
36.83446563641088
 20
14.42184777819999
 30
0.0
 11
37.11689139011088
 21
14.43417875719999
 31
0.0
  0
LINE
  5
11F
330
1F
100
AcDbEntity
  8
Default
  6
Continuous
100
AcDbLine
 10
31.29145219711089
 20
8.793333538799992
 30
0.0
 11
33.00993041461088
 21
8.793333538799992
 31
0.0
  0
ARC
  5
120
330
1F
100
AcDbEntity
  8
Default
  6
Continuous
100
AcDbCircle
 10
30.39739948711087
 20
11.38909346429999
 30
0.0
 40
1.2193874361
100
AcDbArc
 50
0.0327392560001277
 51
1.067967634200175
  0
SPLINE
  5
121
330
1F
100
AcDbEntity
  8
Default
  6
Continuous
100
AcDbSpline
210
0.0
220
0.0
230
1.0
 70
     8
 71
     3
 72
    11
 73
     7
 74
     0
 42
0.0000000001
 43
0.0000000001
 40
0.0
 40
0.0
 40
0.0
 40
0.0
 40
1.0
 40
2.0
 40
3.0
 40
4.0
 40
4.0
 40
4.0
 40
4.0
 10
29.93581401111088
 20
13.38065868369999
 30
0.0
 10
30.02641885022813
 20
13.2023567477595
 30
0.0
 10
30.24019096922549
 20
12.86409228481594
 30
0.0
 10
30.60310048439239
 20
12.38557900058774
 30
0.0
 10
30.9673689920653
 20
11.91363857461867
 30
0.0
 10
31.21404636962417
 20
11.588769436387
 30
0.0
 10
31.25068880011088
 20
11.38979023169999
 30
0.0
  0
LINE
  5
122
330
1F
100
AcDbEntity
  8
Default
  6
Continuous
100
AcDbLine
 10
31.25068880011088
 20
11.38979023169999
 30
0.0
 11
33.05069365221088
 21
11.38979023169999
 31
0.0
  0
SPLINE
  5
123
330
1F
100
AcDbEntity
  8
Default
  6
Continuous
100
AcDbSpline
210
0.0
220
0.0
230
1.0
 70
     8
 71
     3
 72
    15
 73
    11
 74
     0
 42
0.0000000001
 43
0.0000000001
 40
0.0
 40
0.0
 40
0.0
 40
0.0
 40
1.0
 40
2.0
 40
3.0
 40
4.0
 40
5.0
 40
6.0
 40
7.0
 40
8.0
 40
8.0
 40
8.0
 40
8.0
 10
33.05069365221088
 20
11.38979023169999
 30
0.0
 10
33.08510921438958
 20
11.56077040303489
 30
0.0
 10
33.37910800831807
 20
11.75741783715141
 30
0.0
 10
33.81075511109655
 20
11.9975400549109
 30
0.0
 10
34.26254439551056
 20
12.21992820451986
 30
0.0
 10
34.71042608480508
 20
12.44414377988382
 30
0.0
 10
35.1528001282752
 20
12.6807644257247
 30
0.0
 10
35.58086620059419
 20
12.94246592901499
 30
0.0
 10
35.98073130518968
 20
13.2468566837525
 30
0.0
 10
36.20206977874624
 20
13.50192620557357
 30
0.0
 10
36.28011833101088
 20
13.65045653109999
 30
0.0
  0
LINE
  5
124
330
1F
100
AcDbEntity
  8
Default
  6
Continuous
100
AcDbLine
 10
30.95512644541088
 20
13.31912278139999
 30
0.0
 11
30.95215271021088
 21
13.31960219269999
 31
0.0
  0
SPLINE
  5
125
330
1F
100
AcDbEntity
  8
Default
  6
Continuous
100
AcDbSpline
210
0.0
220
0.0
230
1.0
 70
     8
 71
     3
 72
    16
 73
    12
 74
     0
 42
0.0000000001
 43
0.0000000001
 40
-0.0472673743191835
 40
-0.0472673743191835
 40
-0.0472673743191835
 40
-0.0472673743191835
 40
1.0
 40
2.0
 40
3.0
 40
4.0
 40
5.0
 40
6.0
 40
7.0
 40
8.0
 40
9.0
 40
9.0
 40
9.0
 40
9.0
 10
18.49811788143546
 20
32.66083183184661
 30
0.0
 10
18.90989456125375
 20
32.05886744718914
 30
0.0
 10
19.84456575859578
 20
30.98298682409362
 30
0.0
 10
21.11803364301159
 20
29.28619674956968
 30
0.0
 10
22.42691598354821
 20
27.66816996648853
 30
0.0
 10
23.84598644825229
 20
26.10758571098794
 30
0.0
 10
25.79356134119334
 20
25.22336867062299
 30
0.0
 10
27.90517599087538
 20
25.25096798241544
 30
0.0
 10
29.98475334581735
 20
25.27952849249753
 30
0.0
 10
32.07272475603511
 20
25.32603670982441
 30
0.0
 10
33.46303158007579
 20
25.34944235752917
 30
0.0
 10
34.15856409521088
 20
25.36008926339999
 30
0.0
  0
SPLINE
  5
126
330
1F
100
AcDbEntity
  8
Default
  6
Continuous
100
AcDbSpline
210
0.0
220
0.0
230
1.0
 70
     8
 71
     3
 72
    12
 73
     8
 74
     0
 42
0.0000000001
 43
0.0000000001
 40
0.0
 40
0.0
 40
0.0
 40
0.0
 40
1.0
 40
2.0
 40
3.0
 40
4.0
 40
5.0
 40
5.0
 40
5.0
 40
5.0
 10
34.15856409521088
 20
25.36008926339999
 30
0.0
 10
34.3496216383823
 20
25.36301388825043
 30
0.0
 10
34.74393858786135
 20
25.30885388671933
 30
0.0
 10
35.27132862214688
 20
25.07115111534194
 30
0.0
 10
35.7147892390521
 20
24.69962621785995
 30
0.0
 10
36.0359604297378
 20
24.21741011272159
 30
0.0
 10
36.14743067353801
 20
23.80412902150972
 30
0.0
 10
36.16958475431088
 20
23.61437704079999
 30
0.0
  0
SPLINE
  5
127
330
1F
100
AcDbEntity
  8
Default
  6
Continuous
100
AcDbSpline
210
0.0
220
0.0
230
1.0
 70
     8
 71
     3
 72
     8
 73
     4
 74
     0
 42
0.0000000001
 43
0.0000000001
 40
0.0
 40
0.0
 40
0.0
 40
0.0
 40
1.0
 40
1.0
 40
1.0
 40
1.0
 10
36.16958475431088
 20
23.61437704079999
 30
0.0
 10
36.45468861397023
 20
21.16474645927056
 30
0.0
 10
36.73649884762995
 20
18.71472119677848
 30
0.0
 10
37.00835762631088
 20
16.26358175309999
 30
0.0
  0
SPLINE
  5
128
330
1F
100
AcDbEntity
  8
Default
  6
Continuous
100
AcDbSpline
210
0.0
220
0.0
230
1.0
 70
     8
 71
     3
 72
     8
 73
     4
 74
     0
 42
0.0000000001
 43
0.0000000001
 40
0.0
 40
0.0
 40
0.0
 40
0.0
 40
1.0
 40
1.0
 40
1.0
 40
1.0
 10
37.00835762631088
 20
16.26358175309999
 30
0.0
 10
37.09374194503911
 20
15.53116139039157
 30
0.0
 10
36.37551637317114
 20
14.96838742309964
 30
0.0
 10
35.69846497231087
 20
14.94674170049999
 30
0.0
  0
LINE
  5
129
330
1F
100
AcDbEntity
  8
Default
  6
Continuous
100
AcDbLine
 10
32.68706698781088
 20
11.38957464349999
 30
0.0
 11
32.70187240821087
 21
10.79979023169999
 31
0.0
  0
LINE
  5
12A
330
1F
100
AcDbEntity
  8
Default
  6
Continuous
100
AcDbLine
 10
32.70187240821087
 20
10.79979023169999
 30
0.0
 11
32.70187240821087
 21
8.793333538799992
 31
0.0
  0
SPLINE
  5
12B
330
1F
100
AcDbEntity
  8
Default
100
AcDbSpline
210
0.0
220
0.0
230
1.0
 70
    15
 71
     2
 72
    12
 73
     9
 74
     0
 42
0.0000000001
 43
0.0000000001
 40
0.0
 40
0.0
 40
0.0
 40
1.570796326794897
 40
1.570796326794897
 40
3.141592653589793
 40
3.141592653589793
 40
4.71238898038469
 40
4.71238898038469
 40
6.283185307179586
 40
6.283185307179586
 40
6.283185307179586
 10
32.46215863102088
 20
13.01450304374116
 30
0.0
 41
1.0
 10
32.46200975767555
 20
12.85327785179151
 30
0.0
 41
0.7071067811865475
 10
32.15054317112308
 20
12.85356545617973
 30
0.0
 41
1.0
 10
31.83907658457057
 20
12.85385306056794
 30
0.0
 41
0.7071067811865475
 10
31.83922545791589
 20
13.01507825251758
 30
0.0
 41
1.0
 10
31.8393743312612
 20
13.17630344446722
 30
0.0
 41
0.7071067811865475
 10
32.1508409178137
 20
13.17601584007901
 30
0.0
 41
1.0
 10
32.46230750436619
 20
13.17572823569079
 30
0.0
 41
0.7071067811865475
 10
32.46215863102088
 20
13.01450304374116
 30
0.0
 41
1.0
  0
LINE
  5
12C
330
1F
100
AcDbEntity
  8
Default
  6
Continuous
100
AcDbLine
 10
31.61431562391088
 20
11.38957464349999
 30
0.0
 11
31.59951020351087
 21
10.79979023169999
 31
0.0
  0
LINE
  5
12D
330
1F
100
AcDbEntity
  8
Default
  6
Continuous
100
AcDbLine
 10
31.59951020351087
 20
10.79979023169999
 30
0.0
 11
31.59951020351087
 21
8.793333538799992
 31
0.0
  0
ARC
  5
12E
330
1F
100
AcDbEntity
  8
Default
  6
Continuous
100
AcDbCircle
 10
30.05347581076701
 20
15.20480746670405
 30
0.0
 40
4.930197214099278
100
AcDbArc
 50
193.4989733570995
 51
195.0177472529189
  0
ARC
  5
12F
330
1F
100
AcDbEntity
  8
Default
  6
Continuous
100
AcDbCircle
 10
21.15789527832224
 20
144.9462225021305
 30
0.0
 40
131.084114973074
100
AcDbArc
 50
271.8071367131144
 51
272.5002954910626
  0
LINE
  5
130
330
1F
100
AcDbEntity
  8
Default
  6
Continuous
100
AcDbLine
 10
26.87637946231088
 20
13.98690005079999
 30
0.0
 11
43.14094416401088
 21
14.69711032269999
 31
0.0
  0
SPLINE
  5
131
330
1F
100
AcDbEntity
  8
Default
  6
Continuous
100
AcDbSpline
210
0.0
220
0.0
230
1.0
 70
     8
 71
     3
 72
    11
 73
     7
 74
     0
 42
0.0000000001
 43
0.0000000001
 40
-1.0
 40
-1.0
 40
-1.0
 40
-1.0
 40
-0.7500046659575906
 40
-0.4999999752147193
 40
-0.2499952866718482
 40
0.0
 40
0.0
 40
0.0
 40
0.0
 10
43.14094416401088
 20
14.69711032269999
 30
0.0
 10
43.17251211841088
 20
14.87609463399999
 30
0.0
 10
43.21585800621088
 20
15.23786885379999
 30
0.0
 10
43.22153959591088
 20
15.78411955859999
 30
0.0
 10
43.16826146661802
 20
16.32779548951143
 30
0.0
 10
43.09354367306632
 20
16.68441388587419
 30
0.0
 10
43.04649327991088
 20
16.85996492519999
 30
0.0
  0
SPLINE
  5
132
330
1F
100
AcDbEntity
  8
Default
  6
Continuous
100
AcDbSpline
210
0.0
220
0.0
230
1.0
 70
     8
 71
     3
 72
    13
 73
     9
 74
     0
 42
0.0000000001
 43
0.0000000001
 40
-6.0
 40
-6.0
 40
-6.0
 40
-6.0
 40
-5.000000053519237
 40
-4.000000042815389
 40
-3.000000032111542
 40
-2.000000021407695
 40
-1.000000010703847
 40
0.0
 40
0.0
 40
0.0
 40
0.0
 10
43.04649327991088
 20
16.85996492519999
 30
0.0
 10
42.7349487961007
 20
16.98530259645045
 30
0.0
 10
42.06387136964108
 20
17.06635721240788
 30
0.0
 10
41.06067473688381
 20
17.10508238507572
 30
0.0
 10
40.05461008542214
 20
17.09260327750496
 30
0.0
 10
39.04982136376786
 20
17.06075222367163
 30
0.0
 10
38.04490520653405
 20
17.02687019568967
 30
0.0
 10
37.37509299068651
 20
17.00168717820062
 30
0.0
 10
37.04019524251088
 20
16.98868896879999
 30
0.0
  0
ARC
  5
133
330
1F
100
AcDbEntity
  8
Default
  6
Continuous
100
AcDbCircle
 10
35.5499199503171
 20
16.60235945192076
 30
0.0
 40
1.844422662115595
100
AcDbArc
 50
273.4607656865292
 51
282.8092270329037
  0
SPLINE
  5
134
330
1F
100
AcDbEntity
  8
Default
  6
Continuous
100
AcDbSpline
210
0.0
220
0.0
230
1.0
 70
     8
 71
     3
 72
    11
 73
     7
 74
     0
 42
0.0000000001
 43
0.0000000001
 40
0.0
 40
0.0
 40
0.0
 40
0.0
 40
1.000000462038209
 40
2.000000924076418
 40
3.000001386114628
 40
4.0
 40
4.0
 40
4.0
 40
4.0
 10
35.95883866311088
 20
14.80383771369999
 30
0.0
 10
36.12446019480302
 20
14.84149405229809
 30
0.0
 10
36.44460976759851
 20
14.96852024862492
 30
0.0
 10
36.8340041964411
 20
15.30976373573029
 30
0.0
 10
37.07705872287393
 20
15.76789456722803
 30
0.0
 10
37.11580026309171
 20
16.11146183682822
 30
0.0
 10
37.10249649651088
 20
16.28087395749999
 30
0.0
  0
POLYLINE
  5
135
330
1F
100
AcDbEntity
  8
Default
  6
Continuous
100
AcDb2dPolyline
 66
     1
 10
0.0
 20
0.0
 30
0.0
  0
VERTEX
  5
136
330
135
100
AcDbEntity
  8
Default
  6
Continuous
100
AcDbVertex
100
AcDb2dVertex
 10
37.10249649651088
 20
16.28087395749999
 30
0.0
  0
VERTEX
  5
137
330
135
100
AcDbEntity
  8
Default
  6
Continuous
100
AcDbVertex
100
AcDb2dVertex
 10
37.04494532841088
 20
16.93829672189999
 30
0.0
  0
VERTEX
  5
138
330
135
100
AcDbEntity
  8
Default
  6
Continuous
100
AcDbVertex
100
AcDb2dVertex
 10
36.97357423291088
 20
17.69402840489999
 30
0.0
  0
VERTEX
  5
139
330
135
100
AcDbEntity
  8
Default
  6
Continuous
100
AcDbVertex
100
AcDb2dVertex
 10
36.89454436701088
 20
18.47345024189999
 30
0.0
  0
VERTEX
  5
13A
330
135
100
AcDbEntity
  8
Default
  6
Continuous
100
AcDbVertex
100
AcDb2dVertex
 10
36.80748458661088
 20
19.28009643839999
 30
0.0
  0
VERTEX
  5
13B
330
135
100
AcDbEntity
  8
Default
  6
Continuous
100
AcDbVertex
100
AcDb2dVertex
 10
36.71250060351088
 20
20.11378670839999
 30
0.0
  0
VERTEX
  5
13C
330
135
100
AcDbEntity
  8
Default
  6
Continuous
100
AcDbVertex
100
AcDb2dVertex
 10
36.61030252051088
 20
20.97059052939999
 30
0.0
  0
VERTEX
  5
13D
330
135
100
AcDbEntity
  8
Default
  6
Continuous
100
AcDbVertex
100
AcDb2dVertex
 10
36.50127559641088
 20
21.85084746919999
 30
0.0
  0
VERTEX
  5
13E
330
135
100
AcDbEntity
  8
Default
  6
Continuous
100
AcDbVertex
100
AcDb2dVertex
 10
36.38536357121087
 20
22.75923272859999
 30
0.0
  0
VERTEX
  5
13F
330
135
100
AcDbEntity
  8
Default
  6
Continuous
100
AcDbVertex
100
AcDb2dVertex
 10
36.27231765836088
 20
23.62635554959999
 30
0.0
  0
SEQEND
  5
140
330
135
100
AcDbEntity
  8
Default
  6
Continuous
  0
SPLINE
  5
141
330
1F
100
AcDbEntity
  8
Default
  6
Continuous
100
AcDbSpline
210
0.0
220
0.0
230
1.0
 70
     8
 71
     3
 72
    13
 73
     9
 74
     0
 42
0.0000000001
 43
0.0000000001
 40
0.0
 40
0.0
 40
0.0
 40
0.0
 40
1.000004818672768
 40
2.000014619859286
 40
3.000024421045805
 40
4.000034222232323
 40
5.00004402341884
 40
6.0
 40
6.0
 40
6.0
 40
6.0
 10
36.27231765836088
 20
23.62635554959999
 30
0.0
 10
36.24809870578501
 20
23.79478966353545
 30
0.0
 10
36.16194273913112
 20
24.1265455333433
 30
0.0
 10
35.91655660521715
 20
24.57840658762622
 30
0.0
 10
35.57237670953437
 20
24.96068809108237
 30
0.0
 10
35.14743876368246
 20
25.24983365850966
 30
0.0
 10
34.66790338653566
 20
25.43579390056787
 30
0.0
 10
34.32696768210567
 20
25.47486165321723
 30
0.0
 10
34.15680965126089
 20
25.47460841124999
 30
0.0
  0
SPLINE
  5
142
330
1F
100
AcDbEntity
  8
Default
  6
Continuous
100
AcDbSpline
210
0.0
220
0.0
230
1.0
 70
     8
 71
     3
 72
    16
 73
    12
 74
     0
 42
0.0000000001
 43
0.0000000001
 40
0.0
 40
0.0
 40
0.0
 40
0.0
 40
0.9999843181530425
 40
1.999986351335018
 40
2.999988384516994
 40
3.99999041769897
 40
4.999992450880945
 40
5.99999448406292
 40
6.999996517244895
 40
7.999998550426871
 40
9.0
 40
9.0
 40
9.0
 40
9.0
 10
34.15680965126089
 20
25.47460841124999
 30
0.0
 10
33.63589842946793
 20
25.46872600435329
 30
0.0
 10
32.59407756992064
 20
25.45262412503096
 30
0.0
 10
31.03156908350937
 20
25.42545686226688
 30
0.0
 10
29.46844799354463
 20
25.4008927159886
 30
0.0
 10
27.90750683998527
 20
25.36933819516994
 30
0.0
 10
26.33851210023428
 20
25.36218249962377
 30
0.0
 10
24.81337199050294
 20
25.80950084196782
 30
0.0
 10
23.59199900261815
 20
26.82348831829473
 30
0.0
 10
22.63780951657377
 20
28.06363229343359
 30
0.0
 10
22.11438992867799
 20
28.96926245014608
 30
0.0
 10
21.9156762692761
 20
29.45137957941461
 30
0.0
  0
SPLINE
  5
143
330
1F
100
AcDbEntity
  8
Default
  6
Continuous
100
AcDbSpline
210
0.0
220
0.0
230
1.0
 70
     8
 71
     3
 72
    16
 73
    12
 74
     0
 42
0.0000000001
 43
0.0000000001
 40
0.0
 40
0.0
 40
0.0
 40
0.0
 40
1.0
 40
2.0
 40
3.0
 40
4.0
 40
5.0
 40
6.0
 40
7.0
 40
8.0
 40
9.0
 40
9.0
 40
9.0
 40
9.0
 10
21.9156762692761
 20
29.45137957941461
 30
0.0
 10
21.87159875205258
 20
29.64471992615636
 30
0.0
 10
21.7791764999651
 20
30.03043551840621
 30
0.0
 10
21.61806397168847
 20
30.6032961719356
 30
0.0
 10
21.42226666807044
 20
31.16536780141121
 30
0.0
 10
21.16216388998782
 20
31.70301480950751
 30
0.0
 10
20.78126513851328
 20
32.1672506954173
 30
0.0
 10
20.28262287130939
 20
32.50343499978978
 30
0.0
 10
19.71156497568887
 20
32.68698929238438
 30
0.0
 10
19.11636077225583
 20
32.7395749743547
 30
0.0
 10
18.71985986903168
 20
32.71024625619413
 30
0.0
 10
18.52335988821088
 20
32.68385739319999
 30
0.0
  0
SPLINE
  5
144
330
1F
100
AcDbEntity
  8
Default
  6
Continuous
100
AcDbSpline
210
0.0
220
0.0
230
1.0
 70
     8
 71
     3
 72
    28
 73
    24
 74
     0
 42
0.0000000001
 43
0.0000000001
 40
0.0
 40
0.0
 40
0.0
 40
0.0
 40
1.0
 40
2.0
 40
3.0
 40
4.0
 40
5.0
 40
6.0
 40
7.0
 40
8.0
 40
9.0
 40
10.0
 40
11.0
 40
12.0
 40
13.0
 40
14.0
 40
15.0
 40
16.0
 40
17.0
 40
18.0
 40
19.0
 40
20.0
 40
21.0
 40
21.0
 40
21.0
 40
21.0
 10
18.49766308761087
 20
32.6583893549
 30
0.0
 10
18.48168209322768
 20
32.35114623920109
 30
0.0
 10
18.59639436846102
 20
31.74517658992365
 30
0.0
 10
18.79246954751159
 20
30.84775878033651
 30
0.0
 10
19.01122912565653
 20
29.95381926007438
 30
0.0
 10
19.23613917669168
 20
29.06194348488546
 30
0.0
 10
19.46559498497392
 20
28.17108603874183
 30
0.0
 10
19.69731437067063
 20
27.28085453438868
 30
0.0
 10
19.93041398406943
 20
26.39097327698994
 30
0.0
 10
20.16429394892116
 20
25.5012993821577
 30
0.0
 10
20.39847567099993
 20
24.61170452946692
 30
0.0
 10
20.63243292033974
 20
23.72205057210545
 30
0.0
 10
20.86576055241014
 20
22.83223132241179
 30
0.0
 10
21.09866156727469
 20
21.94229990994528
 30
0.0
 10
21.3313487664992
 20
21.05231322128185
 30
0.0
 10
21.56374340797379
 20
20.16224986711009
 30
0.0
 10
21.79575286690324
 20
19.27208586639336
 30
0.0
 10
22.02699014399879
 20
18.38172069512574
 30
0.0
 10
22.25796931096599
 20
17.49128938515278
 30
0.0
 10
22.49097910761003
 20
16.60138455854799
 30
0.0
 10
22.73200435626983
 20
15.71359858929206
 30
0.0
 10
22.99259135091279
 20
14.8312656306209
 30
0.0
 10
23.21814172433599
 20
14.25929427134431
 30
0.0
 10
23.36407991592287
 20
13.98926995645292
 30
0.0
  0
ARC
  5
145
330
1F
100
AcDbEntity
  8
Default
  6
Continuous
100
AcDbCircle
 10
23.61370163281089
 20
14.12679813329999
 30
0.0
 40
0.2850000017
100
AcDbArc
 50
208.8524067113003
 51
272.6470970528006
  0
LINE
  5
146
330
1F
100
AcDbEntity
  8
Default
  6
Continuous
100
AcDbLine
 10
23.62686410856011
 20
13.84210224256542
 30
0.0
 11
23.84584700171088
 21
13.85222268109999
 31
0.0
  0
SPLINE
  5
147
330
1F
100
AcDbEntity
  8
Default
  6
Continuous
100
AcDbSpline
210
0.0
220
0.0
230
1.0
 70
     8
 71
     3
 72
     9
 73
     5
 74
     0
 42
0.0000000001
 43
0.0000000001
 40
0.0
 40
0.0
 40
0.0
 40
0.0
 40
1.0
 40
2.0
 40
2.0
 40
2.0
 40
2.0
 10
23.84584700171089
 20
13.85222268109991
 30
0.0
 10
25.84791682679693
 20
14.16707556893319
 30
0.0
 10
29.88567429616195
 20
14.54492825428436
 30
0.0
 10
33.93614811784849
 20
14.68277210494895
 30
0.0
 10
35.96009727961088
 20
14.77365200700002
 30
0.0
  0
SPLINE
  5
148
330
1F
100
AcDbEntity
  8
Default
  6
Continuous
100
AcDbSpline
210
0.0
220
0.0
230
1.0
 70
     8
 71
     3
 72
    12
 73
     8
 74
     0
 42
0.0000000001
 43
0.0000000001
 40
0.0
 40
0.0
 40
0.0
 40
0.0
 40
1.0
 40
2.0
 40
3.0
 40
4.0
 40
5.0
 40
5.0
 40
5.0
 40
5.0
 10
35.96009727961088
 20
14.77365200700002
 30
0.0
 10
36.44010891798297
 20
14.79379713779622
 30
0.0
 10
37.4002912401244
 20
14.83296035232456
 30
0.0
 10
38.84049551089177
 20
14.88289715813772
 30
0.0
 10
40.28193455007363
 20
14.93355973040936
 30
0.0
 10
41.72043022523403
 20
14.9284374831364
 30
0.0
 10
42.6877414938578
 20
14.86486799386423
 30
0.0
 10
43.14092927181088
 20
14.69702589099999
 30
0.0
  0
LINE
  5
149
330
1F
100
AcDbEntity
  8
Default
  6
Continuous
100
AcDbLine
 10
29.44928551211088
 20
13.91172522189999
 30
0.0
 11
36.84264427151088
 21
14.23452623659999
 31
0.0
  0
LINE
  5
14A
330
1F
100
AcDbEntity
  8
Default
  6
Continuous
100
AcDbLine
 10
36.84264427151088
 20
14.23452623659999
 30
0.0
 11
36.83446563641088
 21
14.42184777819999
 31
0.0
  0
LINE
  5
14B
330
1F
100
AcDbEntity
  8
Default
100
AcDbLine
 10
29.44928635251088
 20
13.91172525859999
 30
0.0
 11
29.53442736981089
 21
13.45234543879999
 31
0.0
  0
SPLINE
  5
14C
330
1F
100
AcDbEntity
  8
Default
100
AcDbSpline
210
0.0
220
0.0
230
1.0
 70
     8
 71
     3
 72
     8
 73
     4
 74
     0
 42
0.0000000001
 43
0.0000000001
 40
-1.0
 40
-1.0
 40
-1.0
 40
-1.0
 40
0.0
 40
0.0
 40
0.0
 40
0.0
 10
29.53442736981089
 20
13.45234543879999
 30
0.0
 10
29.53809432801992
 20
13.43256030286081
 30
0.0
 10
29.55901754303063
 20
13.41357357836044
 30
0.0
 10
29.57905136759541
 20
13.41169101097874
 30
0.0
  0
ARC
  5
14D
330
1F
100
AcDbEntity
  8
Default
100
AcDbCircle
 10
32.01155429938444
 20
39.29779605154778
 30
0.0
 40
26.00014432045592
100
AcDbArc
 50
264.6317114663
 51
269.6332936003186
  0
ARC
  5
14E
330
1F
100
AcDbEntity
  8
Default
100
AcDbCircle
 10
31.84546843571911
 20
13.34818322709867
 30
0.0
 40
0.049999999991672
100
AcDbArc
 50
269.633293552224
 51
350.8916442475994
  0
LINE
  5
14F
330
1F
100
AcDbEntity
  8
Default
100
AcDbLine
 10
31.89483797227125
 20
13.34026812382746
 30
0.0
 11
31.92852839128918
 21
13.55040819642598
 31
0.0
  0
ARC
  5
150
330
1F
100
AcDbEntity
  8
Default
100
AcDbCircle
 10
32.15069130581088
 20
13.51479023169999
 30
0.0
 40
0.225
100
AcDbArc
 50
9.108355752300183
 51
170.8916442477003
  0
LINE
  5
151
330
1F
100
AcDbEntity
  8
Default
100
AcDbLine
 10
32.37285422033258
 20
13.55040819642598
 30
0.0
 11
32.40602128775049
 21
13.34353246922763
 31
0.0
  0
ARC
  5
152
330
1F
100
AcDbEntity
  8
Default
100
AcDbCircle
 10
32.4553908242539
 20
13.35144757249086
 30
0.0
 40
0.0499999999422856
100
AcDbArc
 50
189.1083557522009
 51
270.9800022879447
  0
ARC
  5
153
330
1F
100
AcDbEntity
  8
Default
100
AcDbCircle
 10
32.01155429854504
 20
39.2977960533388
 30
0.0
 40
26.00014432229922
100
AcDbArc
 50
270.9800022455709
 51
280.3682838781992
  0
SPLINE
  5
154
330
1F
100
AcDbEntity
  8
Default
100
AcDbSpline
210
0.0
220
0.0
230
1.0
 70
     8
 71
     3
 72
     8
 73
     4
 74
     0
 42
0.0000000001
 43
0.0000000001
 40
0.0
 40
0.0
 40
0.0
 40
0.0
 40
1.0
 40
1.0
 40
1.0
 40
1.0
 10
36.69092145615805
 20
13.72220167540418
 30
0.0
 10
36.71042188222907
 20
13.7257695163688
 30
0.0
 10
36.72988846206493
 20
13.74567583224103
 30
0.0
 10
36.73178854011088
 20
13.76540869339999
 30
0.0
  0
LINE
  5
155
330
1F
100
AcDbEntity
  8
Default
100
AcDbLine
 10
36.73178854011088
 20
13.76540869339999
 30
0.0
 11
36.77668147001089
 21
14.23163478059999
 31
0.0
  0
SPLINE
  5
156
330
1F
100
AcDbEntity
  8
Default
100
AcDbSpline
210
0.0
220
0.0
230
1.0
 70
     8
 71
     3
 72
    26
 73
    22
 74
     0
 42
0.0000000001
 43
0.0000000001
 40
-1.0
 40
-1.0
 40
-1.0
 40
-1.0
 40
-0.9760742639
 40
-0.9505951712
 40
-0.937246888
 40
-0.9234566989
 40
-0.8940293271
 40
-0.8780859866
 40
-0.8609795111
 40
-0.8425110718
 40
-0.822568578
 40
-0.7778146866
 40
-0.7259000248
 40
-0.6662828387
 40
-0.5984934614
 40
-0.5221303344
 40
-0.4368261255
 40
-0.3422381351
 40
-0.2380557006
 40
-0.1240492064
 40
0.0
 40
0.0
 40
0.0
 40
0.0
 10
-9.117764612450003
 20
14.57678110039999
 30
0.0
 10
-9.107780371849998
 20
14.57124887569999
 30
0.0
 10
-9.087015588149995
 20
14.56009102169999
 30
0.0
 10
-9.060320499249997
 20
14.54653303299999
 30
0.0
 10
-9.03776143204999
 20
14.53552129399999
 30
0.0
 10
-9.01338961685002
 20
14.52393249439999
 30
0.0
 10
-8.987621954449992
 20
14.51239888199999
 30
0.0
 10
-8.960074000949987
 20
14.50101145659999
 30
0.0
 10
-8.937133027550004
 20
14.49218325219999
 30
0.0
 10
-8.91218788865001
 20
14.48327323219999
 30
0.0
 10
-8.874532197349993
 20
14.47076394879999
 30
0.0
 10
-8.821183450950002
 20
14.45493226319999
 30
0.0
 10
-8.748997559549991
 20
14.43621847519999
 30
0.0
 10
-8.665601557349987
 20
14.41709654879999
 30
0.0
 10
-8.57035354254998
 20
14.39760619429999
 30
0.0
 10
-8.462698960950007
 20
14.37772638279999
 30
0.0
 10
-8.342134609750019
 20
14.35744373519999
 30
0.0
 10
-8.20819843695
 20
14.33672265959999
 30
0.0
 10
-8.060488629250017
 20
14.31553198379999
 30
0.0
 10
-7.898662357649982
 20
14.29381647599999
 30
0.0
 10
-7.785983533250004
 20
14.27959417799999
 30
0.0
 10
-7.72724271445
 20
14.27238631069999
 30
0.0
  0
SPLINE
  5
157
330
1F
100
AcDbEntity
  8
Default
100
AcDbSpline
210
0.0
220
0.0
230
1.0
 70
     8
 71
     3
 72
     8
 73
     4
 74
     0
 42
0.0000000001
 43
0.0000000001
 40
0.0
 40
0.0
 40
0.0
 40
0.0
 40
0.3221180129536912
 40
0.3221180129536912
 40
0.3221180129536912
 40
0.3221180129536912
 10
-7.72724271445
 20
14.27238631069999
 30
0.0
 10
-6.080206946958299
 20
14.07028468030132
 30
0.0
 10
-4.421233573123004
 20
13.93328362550137
 30
0.0
 10
-2.758013229013784
 20
13.86138314630014
 30
0.0
  0
SPLINE
  5
158
330
1F
100
AcDbEntity
  8
Default
100
AcDbSpline
210
0.0
220
0.0
230
1.0
 70
     8
 71
     3
 72
     8
 73
     4
 74
     0
 42
0.0000000001
 43
0.0000000001
 40
0.6778822100333484
 40
0.6778822100333484
 40
0.6778822100333484
 40
0.6778822100333484
 40
1.0
 40
1.0
 40
1.0
 40
1.0
 10
2.758013250019729
 20
13.86138329562012
 30
0.0
 10
4.421232436880359
 20
13.93328381518008
 30
0.0
 10
6.080204654023134
 20
14.07028482020671
 30
0.0
 10
7.727239281349995
 20
14.27238631069999
 30
0.0
  0
SPLINE
  5
159
330
1F
100
AcDbEntity
  8
Default
100
AcDbSpline
210
0.0
220
0.0
230
1.0
 70
     8
 71
     3
 72
    26
 73
    22
 74
     0
 42
0.0000000001
 43
0.0000000001
 40
0.0
 40
0.0
 40
0.0
 40
0.0
 40
0.1240492064
 40
0.2380557006
 40
0.3422381351
 40
0.4368261255
 40
0.5221303344
 40
0.5984934614
 40
0.6662828387
 40
0.7259000248
 40
0.7778146866
 40
0.822568578
 40
0.8425110718
 40
0.8609795111
 40
0.8780859866
 40
0.8940293271
 40
0.9234566989
 40
0.937246888
 40
0.9505951712
 40
0.9760742639
 40
1.0
 40
1.0
 40
1.0
 40
1.0
 10
7.727239281349995
 20
14.27238631069999
 30
0.0
 10
7.785980100149999
 20
14.27959417799999
 30
0.0
 10
7.898658924550006
 20
14.29381647599999
 30
0.0
 10
8.060485196149997
 20
14.31553198379999
 30
0.0
 10
8.208195003849994
 20
14.33672265959999
 30
0.0
 10
8.34213117665
 20
14.35744373519999
 30
0.0
 10
8.462695527850002
 20
14.37772638279999
 30
0.0
 10
8.570350109450004
 20
14.39760619429999
 30
0.0
 10
8.665598124249996
 20
14.41709654879999
 30
0.0
 10
8.74899412645
 20
14.43621847519999
 30
0.0
 10
8.821180017849997
 20
14.45493226319999
 30
0.0
 10
8.874528764250002
 20
14.47076394879999
 30
0.0
 10
8.912184455550005
 20
14.48327323219999
 30
0.0
 10
8.937129594449999
 20
14.49218325219999
 30
0.0
 10
8.960070567849996
 20
14.50101145659999
 30
0.0
 10
8.98761852135
 20
14.51239888199999
 30
0.0
 10
9.01338618375
 20
14.52393249439999
 30
0.0
 10
9.03775799895
 20
14.53552129399999
 30
0.0
 10
9.060317066149992
 20
14.54653303299999
 30
0.0
 10
9.08701215504999
 20
14.56009102169999
 30
0.0
 10
9.107776938749993
 20
14.57124887569999
 30
0.0
 10
9.117761179349998
 20
14.57678110039999
 30
0.0
  0
SPLINE
  5
15A
330
1F
100
AcDbEntity
  8
Default
100
AcDbSpline
210
0.0
220
0.0
230
1.0
 70
     8
 71
     3
 72
     8
 73
     4
 74
     0
 42
0.0000000001
 43
0.0000000001
 40
0.6736152155630037
 40
0.6736152155630037
 40
0.6736152155630037
 40
0.6736152155630037
 40
1.0
 40
1.0
 40
1.0
 40
1.0
 10
2.745646669894938
 20
13.77347590157892
 30
0.0
 10
4.465190218287717
 20
13.83201707365808
 30
0.0
 10
6.181912571432946
 20
13.9455849545651
 30
0.0
 10
7.890510074350004
 20
14.11417954429999
 30
0.0
  0
SPLINE
  5
15B
330
1F
100
AcDbEntity
  8
Default
100
AcDbSpline
210
0.0
220
0.0
230
1.0
 70
     8
 71
     3
 72
    13
 73
     9
 74
     0
 42
0.0000000001
 43
0.0000000001
 40
-6.0
 40
-6.0
 40
-6.0
 40
-6.0
 40
-5.0
 40
-4.0
 40
-3.0
 40
-2.0
 40
-1.0
 40
0.0
 40
0.0
 40
0.0
 40
0.0
 10
7.890510074350004
 20
14.11417954429999
 30
0.0
 10
8.039180805605781
 20
14.12884951829847
 30
0.0
 10
8.33634835220326
 20
14.16001032949393
 30
0.0
 10
8.781266341575716
 20
14.21407309101973
 30
0.0
 10
9.225305432572384
 20
14.27507492203856
 30
0.0
 10
9.667259874721736
 20
14.3500078553375
 30
0.0
 10
10.10529435440071
 20
14.44555980737684
 30
0.0
 10
10.39115119393875
 20
14.53439449930045
 30
0.0
 10
10.52880566462865
 20
14.59271965941951
 30
0.0
  0
SPLINE
  5
15C
330
1F
100
AcDbEntity
  8
Default
100
AcDbSpline
210
0.0
220
0.0
230
1.0
 70
     8
 71
     3
 72
    11
 73
     7
 74
     0
 42
0.0000000001
 43
0.0000000001
 40
-4.0
 40
-4.0
 40
-4.0
 40
-4.0
 40
-3.0
 40
-2.0
 40
-1.0
 40
0.0
 40
0.0
 40
0.0
 40
0.0
 10
10.52880566462865
 20
14.59271965941951
 30
0.0
 10
10.56887049988433
 20
14.60928210846237
 30
0.0
 10
10.64646688202984
 20
14.64801353481691
 30
0.0
 10
10.75438811062332
 20
14.72123952149437
 30
0.0
 10
10.84714616168688
 20
14.81314749034761
 30
0.0
 10
10.8939794712268
 20
14.88672209222011
 30
0.0
 10
10.91283299855
 20
14.92665109914999
 30
0.0
  0
SPLINE
  5
15D
330
1F
100
AcDbEntity
  8
Default
100
AcDbSpline
210
0.0
220
0.0
230
1.0
 70
     8
 71
     3
 72
    30
 73
    26
 74
     0
 42
0.0000000001
 43
0.0000000001
 40
-23.0
 40
-23.0
 40
-23.0
 40
-23.0
 40
-22.0
 40
-21.0
 40
-20.0
 40
-19.0
 40
-18.0
 40
-17.0
 40
-16.0
 40
-15.0
 40
-14.0
 40
-13.0
 40
-12.0
 40
-11.0
 40
-10.0
 40
-9.0
 40
-8.0
 40
-7.0
 40
-6.0
 40
-5.0
 40
-4.0
 40
-3.0
 40
-2.0
 40
-1.0
 40
0.0
 40
0.0
 40
0.0
 40
0.0
 10
10.91283299855
 20
14.92665109914999
 30
0.0
 10
10.97918649665334
 20
15.06919526745055
 30
0.0
 10
11.09516184656286
 20
15.35980145690203
 30
0.0
 10
11.24664374165324
 20
15.80379334110225
 30
0.0
 10
11.38399551340106
 20
16.25232366417475
 30
0.0
 10
11.5127699363005
 20
16.70336327835654
 30
0.0
 10
11.63564080671145
 20
17.15604169912857
 30
0.0
 10
11.75457525882609
 20
17.60976592152819
 30
0.0
 10
11.8710569134182
 20
18.06412376046674
 30
0.0
 10
11.98624310047859
 20
18.51881162382689
 30
0.0
 10
12.10079100327965
 20
18.97366028349742
 30
0.0
 10
12.21499593298194
 20
19.42859485839561
 30
0.0
 10
12.32879017225564
 20
19.88363287675366
 30
0.0
 10
12.44211221824366
 20
20.33878840850819
 30
0.0
 10
12.55489423802416
 20
20.79407811142756
 30
0.0
 10
12.6670655969132
 20
21.24951868184749
 30
0.0
 10
12.77857883957391
 20
21.70512129897851
 30
0.0
 10
12.88946433282129
 20
22.16087540615792
 30
0.0
 10
12.99932438461209
 20
22.61688432734696
 30
0.0
 10
13.10736968373229
 20
23.07330487143358
 30
0.0
 10
13.21279767731006
 20
23.53042166218794
 30
0.0
 10
13.31434820318538
 20
23.98810935349409
 30
0.0
 10
13.41254677687826
 20
24.4476706624633
 30
0.0
 10
13.515493035581
 20
24.90192360820794
 30
0.0
 10
13.56085188807209
 20
25.22000108951446
 30
0.0
 10
13.50463188854999
 20
25.36776685799999
 30
0.0
  0
SPLINE
  5
15E
330
1F
100
AcDbEntity
  8
Default
100
AcDbSpline
210
0.0
220
0.0
230
1.0
 70
     8
 71
     3
 72
     8
 73
     4
 74
     0
 42
0.0000000001
 43
0.0000000001
 40
0.0
 40
0.0
 40
0.0
 40
0.0
 40
1.0
 40
1.0
 40
1.0
 40
1.0
 10
13.50463188854999
 20
25.36776685799999
 30
0.0
 10
13.49991274149495
 20
25.3801704225164
 30
0.0
 10
13.48503882447051
 20
25.38811802245582
 30
0.0
 10
13.47199636815
 20
25.39057018369999
 30
0.0
  0
ARC
  5
15F
330
1F
100
AcDbEntity
  8
Default
100
AcDbCircle
 10
12.56849715587839
 20
20.58507501501798
 30
0.0
 40
4.889692694106809
100
AcDbArc
 50
79.35191085038815
 51
103.4490276284916
  0
SPLINE
  5
160
330
1F
100
AcDbEntity
  8
Default
100
AcDbSpline
210
0.0
220
0.0
230
1.0
 70
     8
 71
     3
 72
    18
 73
    14
 74
     0
 42
0.0000000001
 43
0.0000000001
 40
-11.0
 40
-11.0
 40
-11.0
 40
-11.0
 40
-10.0
 40
-9.0
 40
-8.0
 40
-7.0
 40
-6.0
 40
-5.0
 40
-4.0
 40
-3.0
 40
-2.0
 40
-1.0
 40
0.0
 40
0.0
 40
0.0
 40
0.0
 10
11.43125137005001
 20
25.34067872699999
 30
0.0
 10
11.09594243563996
 20
25.26049360315386
 30
0.0
 10
10.37230541782523
 20
24.97506142759524
 30
0.0
 10
9.323481850602292
 20
25.02501160174828
 30
0.0
 10
8.290811207828739
 20
25.08125891214678
 30
0.0
 10
7.25486293718798
 20
25.15339132655556
 30
0.0
 10
6.219808036372058
 20
25.22152710970899
 30
0.0
 10
5.184169449338185
 20
25.28542509792114
 30
0.0
 10
4.148196260043761
 20
25.34222149120708
 30
0.0
 10
3.11173752701734
 20
25.38992183192563
 30
0.0
 10
2.074825511306813
 20
25.42642619267054
 30
0.0
 10
1.037533809202102
 20
25.45012872743728
 30
0.0
 10
0.3458447370340423
 20
25.45587098606568
 30
0.0
 10
-0.0000017165500026
 20
25.45587036569999
 30
0.0
  0
SPLINE
  5
161
330
1F
100
AcDbEntity
  8
Default
100
AcDbSpline
210
0.0
220
0.0
230
1.0
 70
     8
 71
     3
 72
    18
 73
    14
 74
     0
 42
0.0000000001
 43
0.0000000001
 40
0.0
 40
0.0
 40
0.0
 40
0.0
 40
1.0
 40
2.0
 40
3.0
 40
4.0
 40
5.0
 40
6.0
 40
7.0
 40
8.0
 40
9.0
 40
10.0
 40
11.0
 40
11.0
 40
11.0
 40
11.0
 10
-0.0000017165500026
 20
25.45587036569999
 30
0.0
 10
-0.3458481701340475
 20
25.45587098606568
 30
0.0
 10
-1.037537242302108
 20
25.45012872743728
 30
0.0
 10
-2.074828944406818
 20
25.42642619267054
 30
0.0
 10
-3.111740960117345
 20
25.38992183192563
 30
0.0
 10
-4.148199693143766
 20
25.34222149120708
 30
0.0
 10
-5.18417288243819
 20
25.28542509792114
 30
0.0
 10
-6.219811469472063
 20
25.22152710970899
 30
0.0
 10
-7.254866370287971
 20
25.15339132655556
 30
0.0
 10
-8.290814640928716
 20
25.08125891214678
 30
0.0
 10
-9.323485283702297
 20
25.02501160174828
 30
0.0
 10
-10.37230885092526
 20
24.97506142759524
 30
0.0
 10
-11.09594586873999
 20
25.26049360315386
 30
0.0
 10
-11.43125480315001
 20
25.34067872699999
 30
0.0
  0
ARC
  5
162
330
1F
100
AcDbEntity
  8
Default
100
AcDbCircle
 10
-12.5685005889784
 20
20.58507501501798
 30
0.0
 40
4.889692694106809
100
AcDbArc
 50
76.55097237150834
 51
100.6480891496118
  0
SPLINE
  5
163
330
1F
100
AcDbEntity
  8
Default
100
AcDbSpline
210
0.0
220
0.0
230
1.0
 70
     8
 71
     3
 72
     8
 73
     4
 74
     0
 42
0.0000000001
 43
0.0000000001
 40
-1.0
 40
-1.0
 40
-1.0
 40
-1.0
 40
0.0
 40
0.0
 40
0.0
 40
0.0
 10
-13.47199980125001
 20
25.39057018369999
 30
0.0
 10
-13.48504225757051
 20
25.38811802245582
 30
0.0
 10
-13.49991617459494
 20
25.3801704225164
 30
0.0
 10
-13.50463532165
 20
25.36776685799999
 30
0.0
  0
SPLINE
  5
164
330
1F
100
AcDbEntity
  8
Default
100
AcDbSpline
210
0.0
220
0.0
230
1.0
 70
     8
 71
     3
 72
    30
 73
    26
 74
     0
 42
0.0000000001
 43
0.0000000001
 40
0.0
 40
0.0
 40
0.0
 40
0.0
 40
1.0
 40
2.0
 40
3.0
 40
4.0
 40
5.0
 40
6.0
 40
7.0
 40
8.0
 40
9.0
 40
10.0
 40
11.0
 40
12.0
 40
13.0
 40
14.0
 40
15.0
 40
16.0
 40
17.0
 40
18.0
 40
19.0
 40
20.0
 40
21.0
 40
22.0
 40
23.0
 40
23.0
 40
23.0
 40
23.0
 10
-13.50463532165
 20
25.36776685799999
 30
0.0
 10
-13.56085532117208
 20
25.22000108951446
 30
0.0
 10
-13.51549646868102
 20
24.90192360820794
 30
0.0
 10
-13.41255020997829
 20
24.4476706624633
 30
0.0
 10
-13.31435163628538
 20
23.98810935349409
 30
0.0
 10
-13.21280111041006
 20
23.53042166218794
 30
0.0
 10
-13.10737311683229
 20
23.07330487143358
 30
0.0
 10
-12.99932781771207
 20
22.61688432734696
 30
0.0
 10
-12.8894677659213
 20
22.16087540615792
 30
0.0
 10
-12.77858227267393
 20
21.70512129897851
 30
0.0
 10
-12.66706903001321
 20
21.24951868184749
 30
0.0
 10
-12.55489767112417
 20
20.79407811142756
 30
0.0
 10
-12.44211565134367
 20
20.33878840850819
 30
0.0
 10
-12.32879360535566
 20
19.88363287675366
 30
0.0
 10
-12.21499936608194
 20
19.42859485839561
 30
0.0
 10
-12.10079443637966
 20
18.97366028349742
 30
0.0
 10
-11.98624653357859
 20
18.51881162382689
 30
0.0
 10
-11.87106034651822
 20
18.06412376046674
 30
0.0
 10
-11.7545786919261
 20
17.60976592152819
 30
0.0
 10
-11.63564423981146
 20
17.15604169912857
 30
0.0
 10
-11.51277336940052
 20
16.70336327835654
 30
0.0
 10
-11.38399894650107
 20
16.25232366417475
 30
0.0
 10
-11.24664717475326
 20
15.80379334110225
 30
0.0
 10
-11.09516527966287
 20
15.35980145690203
 30
0.0
 10
-10.97918992975335
 20
15.06919526745055
 30
0.0
 10
-10.91283643165002
 20
14.92665109914999
 30
0.0
  0
SPLINE
  5
165
330
1F
100
AcDbEntity
  8
Default
100
AcDbSpline
210
0.0
220
0.0
230
1.0
 70
     8
 71
     3
 72
    11
 73
     7
 74
     0
 42
0.0000000001
 43
0.0000000001
 40
0.0
 40
0.0
 40
0.0
 40
0.0
 40
1.0
 40
2.0
 40
3.0
 40
4.0
 40
4.0
 40
4.0
 40
4.0
 10
-10.91283643165002
 20
14.92665109914999
 30
0.0
 10
-10.8939829043268
 20
14.88672209222011
 30
0.0
 10
-10.84714959478688
 20
14.81314749034761
 30
0.0
 10
-10.75439154372333
 20
14.72123952149437
 30
0.0
 10
-10.64647031512985
 20
14.64801353481691
 30
0.0
 10
-10.56887393298433
 20
14.60928210846237
 30
0.0
 10
-10.52880909772864
 20
14.59271965941951
 30
0.0
  0
SPLINE
  5
166
330
1F
100
AcDbEntity
  8
Default
100
AcDbSpline
210
0.0
220
0.0
230
1.0
 70
     8
 71
     3
 72
    13
 73
     9
 74
     0
 42
0.0000000001
 43
0.0000000001
 40
0.0
 40
0.0
 40
0.0
 40
0.0
 40
1.0
 40
2.0
 40
3.0
 40
4.0
 40
5.0
 40
6.0
 40
6.0
 40
6.0
 40
6.0
 10
-10.52880909772864
 20
14.59271965941951
 30
0.0
 10
-10.39115462703876
 20
14.53439449930045
 30
0.0
 10
-10.10529778750072
 20
14.44555980737684
 30
0.0
 10
-9.667263307821742
 20
14.3500078553375
 30
0.0
 10
-9.225308865672389
 20
14.27507492203856
 30
0.0
 10
-8.781269774675707
 20
14.21407309101973
 30
0.0
 10
-8.336351785303265
 20
14.16001032949393
 30
0.0
 10
-8.039184238705786
 20
14.12884951829847
 30
0.0
 10
-7.890513507450009
 20
14.11417954429999
 30
0.0
  0
SPLINE
  5
167
330
1F
100
AcDbEntity
  8
Default
100
AcDbSpline
210
0.0
220
0.0
230
1.0
 70
     8
 71
     3
 72
     8
 73
     4
 74
     0
 42
0.0000000001
 43
0.0000000001
 40
0.0
 40
0.0
 40
0.0
 40
0.0
 40
0.3263850026933426
 40
0.3263850026933426
 40
0.3263850026933426
 40
0.3263850026933426
 10
-7.890513507450009
 20
14.11417954429999
 30
0.0
 10
-6.181914861978925
 20
13.94558484182442
 30
0.0
 10
-4.465191355413367
 20
13.83201692177044
 30
0.0
 10
-2.74564665337374
 20
13.77347578413801
 30
0.0
  0
ARC
  5
168
330
1F
100
AcDbEntity
  8
Default
100
AcDbCircle
 10
3.2187666847
 20
16.78842848967327
 30
0.0
 40
2.852408315373275
100
AcDbArc
 50
270.0
 51
278.1877700108407
  0
LINE
  5
169
330
1F
100
AcDbEntity
  8
Default
100
AcDbLine
 10
3.2187666847
 20
13.93602017429999
 30
0.0
 11
2.768512969076767
 21
13.93602017429999
 31
0.0
  0
LINE
  5
16A
330
1F
100
AcDbEntity
  8
Default
100
AcDbLine
 10
-2.768512969076795
 20
13.93602017429999
 30
0.0
 11
-3.218766684599984
 21
13.93602017429999
 31
0.0
  0
ARC
  5
16B
330
1F
100
AcDbEntity
  8
Default
100
AcDbCircle
 10
-3.218766684599984
 20
16.78842849107063
 30
0.0
 40
2.852408316770632
100
AcDbArc
 50
261.8122299911685
 51
270.0
  0
SPLINE
  5
16D
330
1F
100
AcDbEntity
  8
Make2D visible lines - Tangent
100
AcDbSpline
210
0.0
220
0.0
230
1.0
 70
    24
 71
     2
 72
     6
 73
     3
 74
     0
 42
0.0000000001
 43
0.0000000001
 40
0.0
 40
0.0
 40
0.0
 40
0.7134880180846039
 40
0.7134880180846039
 40
0.7134880180846039
 10
21.13103849530638
 20
2.782003025151855
 30
0.0
 10
21.48778250434869
 20
2.782003025151855
 30
0.0
 10
21.84452651339099
 20
2.782003025151855
 30
0.0
  0
SPLINE
  5
16F
330
1F
100
AcDbEntity
  8
Make2D visible lines
100
AcDbSpline
210
0.0
220
0.0
230
1.0
 70
    24
 71
     2
 72
     6
 73
     3
 74
     0
 42
0.0000000001
 43
0.0000000001
 40
0.0
 40
0.0
 40
0.0
 40
0.0829573442458973
 40
0.0829573442458973
 40
0.0829573442458973
 10
21.83153250434879
 20
2.697628025151849
 30
0.0
 10
21.83793585234901
 20
2.738609452353339
 30
0.0
 10
21.84433920034924
 20
2.77959087955483
 30
0.0
  0
SPLINE
  5
170
330
1F
100
AcDbEntity
  8
Make2D visible lines
100
AcDbSpline
210
0.0
220
0.0
230
1.0
 70
    24
 71
     2
 72
     6
 73
     3
 74
     0
 42
0.0000000001
 43
0.0000000001
 40
0.0
 40
0.0
 40
0.0
 40
0.0829573442458973
 40
0.0829573442458973
 40
0.0829573442458973
 10
21.13122580834813
 20
2.77959087955483
 30
0.0
 10
21.13762915634836
 20
2.738609452353339
 30
0.0
 10
21.14403250434859
 20
2.697628025151849
 30
0.0
  0
SPLINE
  5
171
330
1F
100
AcDbEntity
  8
Make2D visible lines
100
AcDbSpline
210
0.0
220
0.0
230
1.0
 70
    24
 71
     2
 72
     6
 73
     3
 74
     0
 42
0.0000000001
 43
0.0000000001
 40
0.0
 40
0.0
 40
0.0
 40
0.8056113194909358
 40
0.8056113194909358
 40
0.8056113194909358
 10
21.48778250434869
 20
2.697628025151856
 30
0.0
 10
21.08497684460322
 20
2.697628025151856
 30
0.0
 10
20.68217118485775
 20
2.697628025151856
 30
0.0
  0
SPLINE
  5
172
330
1F
100
AcDbEntity
  8
Make2D visible lines
100
AcDbSpline
210
0.0
220
0.0
230
1.0
 70
    24
 71
     2
 72
     6
 73
     3
 74
     0
 42
0.0000000001
 43
0.0000000001
 40
0.0
 40
0.0
 40
0.0
 40
0.359375
 40
0.359375
 40
0.359375
 10
21.84715750434869
 20
2.697628025151856
 30
0.0
 10
21.66747000434869
 20
2.697628025151856
 30
0.0
 10
21.48778250434869
 20
2.697628025151856
 30
0.0
  0
SPLINE
  5
173
330
1F
100
AcDbEntity
  8
Make2D visible lines - Tangent
100
AcDbSpline
210
0.0
220
0.0
230
1.0
 70
    24
 71
     2
 72
     6
 73
     3
 74
     0
 42
0.0000000001
 43
0.0000000001
 40
0.0
 40
0.0
 40
0.0
 40
0.7134880180845968
 40
0.7134880180845968
 40
0.7134880180845968
 10
35.8668160400394
 20
2.782003025151855
 30
0.0
 10
36.22356004908169
 20
2.782003025151855
 30
0.0
 10
36.58030405812399
 20
2.782003025151855
 30
0.0
  0
SPLINE
  5
174
330
1F
100
AcDbEntity
  8
Make2D visible lines
100
AcDbSpline
210
0.0
220
0.0
230
1.0
 70
    24
 71
     2
 72
     6
 73
     3
 74
     0
 42
0.0000000001
 43
0.0000000001
 40
0.0
 40
0.0
 40
0.0
 40
0.0829573442458951
 40
0.0829573442458951
 40
0.0829573442458951
 10
36.56731004908177
 20
2.697628025151849
 30
0.0
 10
36.57371339708199
 20
2.738609452353339
 30
0.0
 10
36.58011674508221
 20
2.77959087955483
 30
0.0
  0
SPLINE
  5
175
330
1F
100
AcDbEntity
  8
Make2D visible lines
100
AcDbSpline
210
0.0
220
0.0
230
1.0
 70
    24
 71
     2
 72
     6
 73
     3
 74
     0
 42
0.0000000001
 43
0.0000000001
 40
0.0
 40
0.0
 40
0.0
 40
0.0829573442458951
 40
0.0829573442458951
 40
0.0829573442458951
 10
35.86700335308117
 20
2.77959087955483
 30
0.0
 10
35.87340670108139
 20
2.738609452353339
 30
0.0
 10
35.87981004908161
 20
2.697628025151849
 30
0.0
  0
SPLINE
  5
176
330
1F
100
AcDbEntity
  8
Make2D visible lines
100
AcDbSpline
210
0.0
220
0.0
230
1.0
 70
    24
 71
     2
 72
     6
 73
     3
 74
     0
 42
0.0000000001
 43
0.0000000001
 40
0.0
 40
0.0
 40
0.0
 40
0.8056113194909358
 40
0.8056113194909358
 40
0.8056113194909358
 10
36.2235600490817
 20
2.697628025151856
 30
0.0
 10
35.82075438933623
 20
2.697628025151856
 30
0.0
 10
35.41794872959076
 20
2.697628025151856
 30
0.0
  0
SPLINE
  5
177
330
1F
100
AcDbEntity
  8
Make2D visible lines
100
AcDbSpline
210
0.0
220
0.0
230
1.0
 70
    24
 71
     2
 72
     6
 73
     3
 74
     0
 42
0.0000000001
 43
0.0000000001
 40
0.0
 40
0.0
 40
0.0
 40
0.359375
 40
0.359375
 40
0.359375
 10
36.5829350490817
 20
2.697628025151856
 30
0.0
 10
36.4032475490817
 20
2.697628025151856
 30
0.0
 10
36.2235600490817
 20
2.697628025151856
 30
0.0
  0
SPLINE
  5
178
330
1F
100
AcDbEntity
  8
Make2D visible lines - Tangent
100
AcDbSpline
210
0.0
220
0.0
230
1.0
 70
    12
 71
     2
 72
     6
 73
     3
 74
     0
 42
0.0000000001
 43
0.0000000001
 40
0.0
 40
0.0
 40
0.0
 40
0.0267213526072519
 40
0.0267213526072519
 40
0.0267213526072519
 10
33.73220105652122
 20
6.3103380959937
 30
0.0
 41
1.0
 10
33.72236276605287
 20
6.319377770386266
 30
0.0
 41
0.9999999950723483
 10
33.71252268097136
 20
6.328415491230114
 30
0.0
 41
1.0
  0
SPLINE
  5
179
330
1F
100
AcDbEntity
  8
Make2D visible lines
100
AcDbSpline
210
0.0
220
0.0
230
1.0
 70
    24
 71
     2
 72
     6
 73
     3
 74
     0
 42
0.0000000001
 43
0.0000000001
 40
0.0
 40
0.0
 40
0.0
 40
1.164986319490934
 40
1.164986319490934
 40
1.164986319490934
 10
21.84715750434869
 20
1.532641705660922
 30
0.0
 10
21.84715750434869
 20
2.115134865406389
 30
0.0
 10
21.84715750434869
 20
2.697628025151856
 30
0.0
  0
SPLINE
  5
17A
330
1F
100
AcDbEntity
  8
Make2D visible lines
100
AcDbSpline
210
0.0
220
0.0
230
1.0
 70
    24
 71
     2
 72
     6
 73
     3
 74
     0
 42
0.0000000001
 43
0.0000000001
 40
0.0
 40
0.0
 40
0.0
 40
1.164986319490939
 40
1.164986319490939
 40
1.164986319490939
 10
36.5829350490817
 20
1.532641705660916
 30
0.0
 10
36.5829350490817
 20
2.115134865406386
 30
0.0
 10
36.5829350490817
 20
2.697628025151856
 30
0.0
  0
SPLINE
  5
17B
330
1F
100
AcDbEntity
  8
Default
100
AcDbSpline
210
0.0
220
0.0
230
1.0
 70
    24
 71
     2
 72
     6
 73
     3
 74
     0
 42
0.0000000001
 43
0.0000000001
 40
0.0
 40
0.0
 40
0.0
 40
1.188757649323311
 40
1.188757649323311
 40
1.188757649323311
 10
33.05785383498322
 20
4.679109380553343
 30
0.0
 10
33.07277047140948
 20
5.273324116869704
 30
0.0
 10
33.08768710783573
 20
5.867538853186065
 30
0.0
  0
SPLINE
  5
17C
330
1F
100
AcDbEntity
  8
Default
100
AcDbSpline
210
0.0
220
0.0
230
1.0
 70
    12
 71
     2
 72
     6
 73
     3
 74
     0
 42
0.0000000001
 43
0.0000000001
 40
0.0
 40
0.0
 40
0.0
 40
0.3807238872087119
 40
0.3807238872087119
 40
0.3807238872087119
 10
33.0266755578172
 20
4.299628025151854
 30
0.0
 41
1.0
 10
33.03987966832965
 20
4.489541524307318
 30
0.0
 41
0.999921026972745
 10
33.05785383498322
 20
4.679109380553343
 30
0.0
 41
1.0
  0
SPLINE
  5
17D
330
1F
100
AcDbEntity
  8
Default
100
AcDbSpline
210
0.0
220
0.0
230
1.0
 70
    24
 71
     2
 72
     6
 73
     3
 74
     0
 42
0.0000000001
 43
0.0000000001
 40
0.0
 40
0.0
 40
0.0
 40
3.274999999999999
 40
3.274999999999999
 40
3.274999999999999
 10
33.02667555781719
 20
1.024628025151856
 30
0.0
 10
33.02667555781719
 20
2.662128025151855
 30
0.0
 10
33.0266755578172
 20
4.299628025151854
 30
0.0
  0
SPLINE
  5
17E
330
1F
100
AcDbEntity
  8
Default
100
AcDbSpline
210
0.0
220
0.0
230
1.0
 70
    12
 71
     2
 72
     8
 73
     5
 74
     0
 42
0.0000000001
 43
0.0000000001
 40
0.0
 40
0.0
 40
0.0
 40
0.0981783641242503
 40
0.0981783641242503
 40
0.1963567282485005
 40
0.1963567282485005
 40
0.1963567282485005
 10
32.90167549815349
 20
0.8996280251518698
 30
0.0
 41
1.0
 10
32.95345505978787
 20
0.8996211220224277
 30
0.0
 41
0.9238540669030071
 10
32.9900687480098
 20
0.9362347927683091
 30
0.0
 41
1.0
 10
33.02668243623175
 20
0.9728484635141905
 30
0.0
 41
0.9238540669030071
 10
33.02667555781719
 20
1.024628025151856
 30
0.0
 41
1.0
  0
POLYLINE
  5
17F
330
1F
100
AcDbEntity
  8
Default
100
AcDb2dPolyline
 66
     1
 10
0.0
 20
0.0
 30
0.0
  0
VERTEX
  5
180
330
17F
100
AcDbEntity
  8
Default
100
AcDbVertex
100
AcDb2dVertex
 10
31.3997071135439
 20
0.8996280251518699
 30
0.0
  0
VERTEX
  5
181
330
17F
100
AcDbEntity
  8
Default
100
AcDbVertex
100
AcDb2dVertex
 10
32.90167549815349
 20
0.8996280251518698
 30
0.0
  0
SEQEND
  5
182
330
17F
100
AcDbEntity
  8
Default
  0
SPLINE
  5
183
330
1F
100
AcDbEntity
  8
Default
100
AcDbSpline
210
0.0
220
0.0
230
1.0
 70
    12
 71
     2
 72
     6
 73
     3
 74
     0
 42
0.0000000001
 43
0.0000000001
 40
0.0
 40
0.0
 40
0.0
 40
0.1963011075951075
 40
0.1963011075951075
 40
0.1963011075951075
 10
31.27470705388019
 20
1.024628025151856
 30
0.0
 41
1.0
 10
31.27482002002666
 20
0.899740931688524
 30
0.0
 41
0.7077459338001277
 10
31.3997071135439
 20
0.8996280251518699
 30
0.0
 41
1.0
  0
SPLINE
  5
184
330
1F
100
AcDbEntity
  8
Default
100
AcDbSpline
210
0.0
220
0.0
230
1.0
 70
    24
 71
     2
 72
     6
 73
     3
 74
     0
 42
0.0000000001
 43
0.0000000001
 40
0.0
 40
0.0
 40
0.0
 40
3.274999999999999
 40
3.274999999999999
 40
3.274999999999999
 10
31.27470705388019
 20
4.299628025151854
 30
0.0
 10
31.27470705388019
 20
2.662128025151855
 30
0.0
 10
31.27470705388019
 20
1.024628025151856
 30
0.0
  0
SPLINE
  5
185
330
1F
100
AcDbEntity
  8
Default
100
AcDbSpline
210
0.0
220
0.0
230
1.0
 70
    12
 71
     2
 72
     6
 73
     3
 74
     0
 42
0.0000000001
 43
0.0000000001
 40
0.0
 40
0.0
 40
0.0
 40
0.3807238872087119
 40
0.3807238872087119
 40
0.3807238872087119
 10
31.24352877671416
 20
4.679109380553343
 30
0.0
 41
1.0
 10
31.26150294336772
 20
4.489541524307316
 30
0.0
 41
0.9999210269727449
 10
31.27470705388019
 20
4.299628025151854
 30
0.0
 41
1.0
  0
SPLINE
  5
186
330
1F
100
AcDbEntity
  8
Default
100
AcDbSpline
210
0.0
220
0.0
230
1.0
 70
    24
 71
     2
 72
     6
 73
     3
 74
     0
 42
0.0000000001
 43
0.0000000001
 40
0.0
 40
0.0
 40
0.0
 40
1.538033179691817
 40
1.538033179691817
 40
1.538033179691817
 10
31.20493036461845
 20
6.216704384772802
 30
0.0
 10
31.2242295706663
 20
5.447906882663073
 30
0.0
 10
31.24352877671416
 20
4.679109380553343
 30
0.0
  0
POLYLINE
  5
187
330
1F
100
AcDbEntity
  8
Default
100
AcDb2dPolyline
 66
     1
 10
0.0
 20
0.0
 30
0.0
  0
VERTEX
  5
188
330
187
100
AcDbEntity
  8
Default
100
AcDbVertex
100
AcDb2dVertex
 10
31.18222850250783
 20
8.684112137282957
 30
0.0
  0
VERTEX
  5
189
330
187
100
AcDbEntity
  8
Default
100
AcDbVertex
100
AcDb2dVertex
 10
33.11915410918955
 20
8.684112137282957
 30
0.0
  0
SEQEND
  5
18A
330
187
100
AcDbEntity
  8
Default
  0
SPLINE
  5
18B
330
1F
100
AcDbEntity
  8
Make2D visible lines
100
AcDbSpline
210
0.0
220
0.0
230
1.0
 70
    24
 71
     2
 72
     6
 73
     3
 74
     0
 42
0.0000000001
 43
0.0000000001
 40
-1.164986319490936
 40
-1.164986319490936
 40
-1.164986319490936
 40
0.0
 40
0.0
 40
0.0
 10
45.69014642238869
 20
2.697628025151856
 30
0.0
 10
45.69014642238869
 20
2.115134865406388
 30
0.0
 10
45.69014642238869
 20
1.53264170566092
 30
0.0
  0
LINE
  5
18C
330
1F
100
AcDbEntity
  8
Make2D visible lines
100
AcDbLine
 10
44.52516010289776
 20
2.697628025151856
 30
0.0
 11
45.69014642238869
 21
2.697628025151856
 31
0.0
  0
SPLINE
  5
18D
330
1F
100
AcDbEntity
  8
Make2D visible lines
100
AcDbSpline
210
0.0
220
0.0
230
1.0
 70
    24
 71
     2
 72
     6
 73
     3
 74
     0
 42
0.0000000001
 43
0.0000000001
 40
0.0
 40
0.0
 40
0.0
 40
0.0829573442458962
 40
0.0829573442458962
 40
0.0829573442458962
 10
44.97412106986727
 20
2.780796952353342
 30
0.0
 10
44.98057124612793
 20
2.739212488752595
 30
0.0
 10
44.98702142238859
 20
2.697628025151849
 30
0.0
  0
SPLINE
  5
18E
330
1F
100
AcDbEntity
  8
Make2D visible lines
100
AcDbSpline
210
0.0
220
0.0
230
1.0
 70
    24
 71
     2
 72
     6
 73
     3
 74
     0
 42
0.0000000001
 43
0.0000000001
 40
-0.7134880180845968
 40
-0.7134880180845968
 40
-0.7134880180845968
 40
0.0
 40
0.0
 40
0.0
 10
45.68742177491012
 20
2.780796952353342
 30
0.0
 10
45.33077142238869
 20
2.780796952353342
 30
0.0
 10
44.97412106986727
 20
2.780796952353342
 30
0.0
  0
SPLINE
  5
18F
330
1F
100
AcDbEntity
  8
Make2D visible lines
100
AcDbSpline
210
0.0
220
0.0
230
1.0
 70
    24
 71
     2
 72
     6
 73
     3
 74
     0
 42
0.0000000001
 43
0.0000000001
 40
0.0
 40
0.0
 40
0.0
 40
0.0829573442458962
 40
0.0829573442458962
 40
0.0829573442458962
 10
45.67452142238879
 20
2.697628025151849
 30
0.0
 10
45.68097159864946
 20
2.739212488752595
 30
0.0
 10
45.68742177491012
 20
2.780796952353342
 30
0.0
  0
SPLINE
  5
190
330
1F
100
AcDbEntity
  8
Default
100
AcDbSpline
210
0.0
220
0.0
230
1.0
 70
    24
 71
     2
 72
     6
 73
     3
 74
     0
 42
0.0000000001
 43
0.0000000001
 40
-8.622153220319356
 40
-8.622153220319356
 40
-8.622153220319356
 40
0.0
 40
0.0
 40
0.0
 10
44.44407382052869
 20
4.249251949448002
 30
0.0
 10
40.19939228090421
 20
5.002949611536046
 30
0.0
 10
35.95471074127973
 20
5.75664727362409
 30
0.0
  0
SPLINE
  5
191
330
1F
100
AcDbEntity
  8
Default
100
AcDbSpline
210
0.0
220
0.0
230
1.0
 70
    12
 71
     3
 72
    12
 73
     8
 74
     0
 42
0.0000000001
 43
0.0000000001
 40
-0.4083096461004087
 40
-0.4083096461004087
 40
-0.4083096461004087
 40
-0.4083096461004087
 40
-0.307368640433
 40
-0.2049124269553
 40
-0.1536843202165
 40
-0.1024562134777
 40
0.0000000000013162
 40
0.0000000000013162
 40
0.0000000000013162
 40
0.0000000000013162
 10
44.82676307577367
 20
3.859491459199583
 30
0.0
 41
1.0
 10
44.82375202356047
 20
3.919670988896247
 30
0.0
 41
1.0
 10
44.80247745336794
 20
4.027195996805899
 30
0.0
 41
1.0
 10
44.74042801348985
 20
4.124303478504178
 30
0.0
 41
1.0
 10
44.67069760161456
 20
4.178063964505988
 30
0.0
 41
1.0
 10
44.58665105211749
 20
4.218815720363416
 30
0.0
 41
1.0
 10
44.50634391120022
 20
4.238195095997433
 30
0.0
 41
1.0
 10
44.44407382052869
 20
4.249251949448002
 30
0.0
 41
1.0
  0
SPLINE
  5
192
330
1F
100
AcDbEntity
  8
Default
100
AcDbSpline
210
0.0
220
0.0
230
1.0
 70
    12
 71
     3
 72
    36
 73
    32
 74
     0
 42
0.0000000001
 43
0.0000000001
 40
-16.55483111394787
 40
-16.55483111394787
 40
-16.55483111394787
 40
-16.55483111394787
 40
-14.78474122499406
 40
-14.78474122499406
 40
-14.78474122499406
 40
-4.427741199101156
 40
-4.427741199101156
 40
-4.427741199101156
 40
-3.964233634689816
 40
-3.66510497785364
 40
-3.327190270585053
 40
-3.143897205818782
 40
-2.95610500415754
 40
-2.95610500415754
 40
-2.95610500415754
 40
-1.649520864455969
 40
-1.649520864455969
 40
-1.649520864455969
 40
-1.583413789326747
 40
-1.583413789326747
 40
-1.583413789326747
 40
-1.517306714197525
 40
-1.517306714197525
 40
-1.517306714197525
 40
-0.7704572788702901
 40
-0.7704572788702901
 40
-0.7704572788702901
 40
-0.6484798130474948
 40
-0.6484798130474948
 40
-0.6484798130474948
 40
0.0
 40
0.0
 40
0.0
 40
0.0
 10
33.11915410918955
 20
8.684112137282948
 30
0.0
 41
1.0
 10
33.68662142899123
 20
8.522472910395084
 30
0.0
 41
0.9999682850671209
 10
34.25248510725881
 20
8.355306238090762
 30
0.0
 41
0.9999682850671209
 10
34.81669130500654
 20
8.182628025409365
 30
0.0
 41
1.0
 10
38.11787446927808
 20
7.17228391572763
 30
0.0
 41
1.0
 10
41.41905763354961
 20
6.161939806045896
 30
0.0
 41
1.0
 10
44.72024079782115
 20
5.151595696364161
 30
0.0
 41
1.0
 10
44.86681818685082
 20
5.103879467931784
 30
0.0
 41
1.0
 10
45.11519777960187
 20
5.040470248621999
 30
0.0
 41
1.0
 10
45.42904675755548
 20
4.839220820973986
 30
0.0
 41
1.0
 10
45.57624051601985
 20
4.599500998929359
 30
0.0
 41
1.0
 10
45.64805225125139
 20
4.376002063338233
 30
0.0
 41
1.0
 10
45.66634717846759
 20
4.251746090207169
 30
0.0
 41
1.0
 10
45.67169128962456
 20
4.188276501647576
 30
0.0
 41
1.0
 10
45.70740246094634
 20
3.753095758280441
 30
0.0
 41
0.9999999999990051
 10
45.74307192547592
 20
3.318432460959281
 30
0.0
 41
0.9999999999990051
 10
45.7786996832132
 20
2.884286609685393
 30
0.0
 41
1.0
 10
45.78056134121089
 20
2.861601177601957
 30
0.0
 41
0.9439019591877447
 10
45.77318554997138
 20
2.8401072640405
 30
0.0
 41
0.9439019591877447
 10
45.75781361180859
 20
2.823422168321581
 30
0.0
 41
1.0
 10
45.74244167364579
 20
2.806737072602661
 30
0.0
 41
0.9439019591877447
 10
45.72166394141151
 20
2.797628025164471
 30
0.0
 41
0.9439019591877447
 10
45.69897718531836
 20
2.797628025151855
 30
0.0
 41
1.0
 10
45.45002737354261
 20
2.797628025151854
 30
0.0
 41
1.0
 10
45.20107756176687
 20
2.797628025151853
 30
0.0
 41
1.0
 10
44.95212774999112
 20
2.797628025151852
 30
0.0
 41
1.0
 10
44.90695936482657
 20
2.797628025135668
 30
0.0
 41
0.8154724787694593
 10
44.87429319487944
 20
2.828822645815507
 30
0.0
 41
0.8154724787694593
 10
44.87221266225506
 20
2.873943089102031
 30
0.0
 41
1.0
 10
44.86225596792158
 20
3.08987359388737
 30
0.0
 41
1.0
 10
44.83756501589496
 20
3.643601587393336
 30
0.0
 41
1.0
 10
44.82676307577367
 20
3.859491459199583
 30
0.0
 41
1.0
  0
SPLINE
  5
193
330
1F
100
AcDbEntity
  8
Make2D visible lines
100
AcDbSpline
210
0.0
220
0.0
230
1.0
 70
    12
 71
     3
 72
    39
 73
    35
 74
     0
 42
0.0000000001
 43
0.0000000001
 40
-16.36077517510557
 40
-16.36077517510557
 40
-16.36077517510557
 40
-16.36077517510557
 40
-15.58494580865526
 40
-15.58494580865526
 40
-15.58494580865526
 40
-15.46472695315422
 40
-15.46472695315422
 40
-15.46472695315422
 40
-14.69499392822398
 40
-14.69499392822398
 40
-14.69499392822398
 40
-14.63049516037877
 40
-14.63049516037877
 40
-14.63049516037877
 40
-14.56599639253355
 40
-14.56599639253355
 40
-14.56599639253355
 40
-13.37149128302095
 40
-13.37149128302095
 40
-13.37149128302095
 40
-12.37149128302095
 40
-11.37149128302095
 40
-10.37149128302095
 40
-9.371491283020955
 40
-8.371491283020955
 40
-8.371491283020955
 40
-8.371491283020955
 40
-6.656364997229339
 40
-6.656364997229339
 40
-6.656364997229339
 40
-0.0000000000000001
 40
-0.0000000000000001
 40
-0.0000000000000001
 40
1.73841728715722
 40
1.73841728715722
 40
1.73841728715722
 40
1.73841728715722
 10
22.03351562009473
 20
4.01754606244542
 30
0.0
 41
1.0
 10
21.98766347824671
 20
3.38832946832843
 30
0.0
 41
0.9999983011882083
 10
21.96961344542015
 20
3.130340622004089
 30
0.0
 41
0.9999983011882083
 10
21.95214500225248
 20
2.87230222617917
 30
0.0
 41
1.0
 10
21.94905547051144
 20
2.828049474749517
 30
0.0
 41
0.8214976320034447
 10
21.91666685004144
 20
2.797749447856934
 30
0.0
 41
0.8214976320034447
 10
21.87232347719258
 20
2.797628025153477
 30
0.0
 41
1.0
 10
21.61574580221584
 20
2.797628025155147
 30
0.0
 41
1.0
 10
21.3591681272391
 20
2.797628025156817
 30
0.0
 41
1.0
 10
21.10259045226235
 20
2.797628025158487
 30
0.0
 41
1.0
 10
21.08048792796237
 20
2.797642224829109
 30
0.0
 41
0.9466152317066463
 10
21.06016087855266
 20
2.806321674371429
 30
0.0
 41
0.9466152317066463
 10
21.0448647685017
 20
2.822276322577254
 30
0.0
 41
1.0
 10
21.02956865845074
 20
2.838230970783079
 30
0.0
 41
0.9466152317066463
 10
21.02176258423454
 20
2.859166644960912
 30
0.0
 41
0.9466152317066463
 10
21.02269672224305
 20
2.881730406765608
 30
0.0
 41
1.0
 10
21.04032023121198
 20
3.298049330545511
 30
0.0
 41
0.9999999193704774
 10
21.05739909630541
 20
3.705121311857801
 30
0.0
 41
0.9999999193704774
 10
21.07393331339216
 20
4.102946252236418
 30
0.0
 41
1.0
 10
21.07755449334093
 20
4.1900743992578
 30
0.0
 41
1.0
 10
21.09801360836153
 20
4.363146524035519
 30
0.0
 41
1.0
 10
21.1453106197006
 20
4.62077898452936
 30
0.0
 41
1.0
 10
21.26653784414357
 20
4.860167112246184
 30
0.0
 41
1.0
 10
21.4911490520732
 20
5.005044570703957
 30
0.0
 41
1.0
 10
21.65093115836137
 20
5.070986326604128
 30
0.0
 41
1.0
 10
21.73237848454822
 20
5.102864850617636
 30
0.0
 41
1.0
 10
22.2647607689134
 20
5.311239541734778
 30
0.0
 41
0.9999999989518763
 10
22.79713136789558
 20
5.519644085695552
 30
0.0
 41
0.9999999989518763
 10
23.32949027982079
 20
5.728078481844658
 30
0.0
 41
1.0
 10
25.39537737916807
 20
6.537480772028997
 30
0.0
 41
1.0
 10
27.46126447851535
 20
7.346883062213336
 30
0.0
 41
1.0
 10
29.52715157786263
 20
8.156285352397674
 30
0.0
 41
1.0
 10
30.06706809498353
 20
8.367821435663831
 30
0.0
 41
0.9986053366051751
 10
30.61953090285373
 20
8.544009420224935
 30
0.0
 41
0.9986053366051751
 10
31.18222850250784
 20
8.684112137282959
 30
0.0
 41
1.0
  0
SPLINE
  5
194
330
1F
100
AcDbEntity
  8
Make2D visible lines
100
AcDbSpline
210
0.0
220
0.0
230
1.0
 70
     8
 71
     3
 72
    10
 73
     6
 74
     0
 42
0.0000000001
 43
0.0000000001
 40
-3.0
 40
-3.0
 40
-3.0
 40
-3.0
 40
-2.0
 40
-1.0
 40
0.0
 40
0.0
 40
0.0
 40
0.0
 10
22.22825818285946
 20
4.251716946612691
 30
0.0
 10
22.19209463348834
 20
4.242386583919905
 30
0.0
 10
22.11084586856028
 20
4.229275786884489
 30
0.0
 10
22.0392498645819
 20
4.135264119217789
 30
0.0
 10
22.03826873930208
 20
4.054916205106182
 30
0.0
 10
22.03351562009473
 20
4.01754606244542
 30
0.0
  0
SPLINE
  5
195
330
1F
100
AcDbEntity
  8
Make2D visible lines
100
AcDbSpline
210
0.0
220
0.0
230
1.0
 70
    12
 71
     2
 72
     6
 73
     3
 74
     0
 42
0.0000000001
 43
0.0000000001
 40
-8.46052248394801
 40
-8.46052248394801
 40
-8.46052248394801
 40
0.0
 40
0.0
 40
0.0
 10
30.53009612153124
 20
6.074840305183503
 30
0.0
 41
1.0
 10
26.39796848402785
 20
5.168952416187536
 30
0.0
 41
0.9999999369366167
 10
22.22825818285946
 20
4.251716946612691
 30
0.0
 41
1.0
  0
SPLINE
  5
196
330
1F
100
AcDbEntity
  8
Make2D visible lines
100
AcDbSpline
210
0.0
220
0.0
230
1.0
 70
    12
 71
     3
 72
     9
 73
     5
 74
     0
 42
0.0000000001
 43
0.0000000001
 40
0.0
 40
0.0
 40
0.0
 40
0.0
 40
1.0
 40
2.0
 40
2.0
 40
2.0
 40
2.0
 10
32.66815067429118
 20
6.107397211333152
 30
0.0
 41
1.0
 10
32.4583361156739
 20
6.233329310493151
 30
0.0
 41
1.0
 10
31.97297638115084
 20
6.270650751403392
 30
0.0
 41
1.0
 10
31.25659211749246
 20
6.247020098496215
 30
0.0
 41
1.0
 10
30.53009612153124
 20
6.074840305183503
 30
0.0
 41
1.0
  0
ARC
  5
197
330
1F
100
AcDbEntity
  8
Make2D visible lines
100
AcDbCircle
 10
-106.9962980853988
 20
-239.8575387252984
 30
0.0
 40
282.8513884669109
100
AcDbArc
 50
59.8029988944563
 51
60.41111059524263
  0
ARC
  5
198
330
1F
100
AcDbEntity
  8
Make2D visible lines
100
AcDbCircle
 10
-96.0877848804498
 20
-221.1125797722694
 30
0.0
 40
261.1633930202752
100
AcDbArc
 50
59.7198322002989
 51
59.80299889445411
  0
POLYLINE
  5
199
330
1F
100
AcDbEntity
  8
Default
100
AcDb2dPolyline
 66
     1
 10
0.0
 20
0.0
 30
0.0
  0
VERTEX
  5
19A
330
199
100
AcDbEntity
  8
Default
100
AcDbVertex
100
AcDb2dVertex
 10
35.71876461884426
 20
3.97714803864715
 30
0.0
  0
VERTEX
  5
19B
330
199
100
AcDbEntity
  8
Default
100
AcDbVertex
100
AcDb2dVertex
 10
35.83450382693118
 20
2.869918271327752
 30
0.0
  0
SEQEND
  5
19C
330
199
100
AcDbEntity
  8
Default
  0
SPLINE
  5
19D
330
1F
100
AcDbEntity
  8
Default
100
AcDbSpline
210
0.0
220
0.0
230
1.0
 70
     8
 71
     3
 72
    12
 73
     8
 74
     0
 42
0.0000000001
 43
0.0000000001
 40
0.0
 40
0.0
 40
0.0
 40
0.0
 40
0.0953524345761149
 40
0.1850447261750815
 40
0.3691093846634697
 40
0.6346086668541302
 40
1.087401577496831
 40
1.087401577496831
 40
1.087401577496831
 40
1.087401577496831
 10
35.43194980384435
 20
4.998730077056498
 30
0.0
 10
35.45561169481832
 20
4.977223398443263
 30
0.0
 10
35.49827508664072
 20
4.933191157592608
 30
0.0
 10
35.57155285557455
 20
4.832970834056886
 30
0.0
 10
35.63500849353652
 20
4.66332171152356
 30
0.0
 10
35.68332886658695
 20
4.365823075632997
 30
0.0
 10
35.70472938024677
 20
4.127481230241858
 30
0.0
 10
35.71876461884426
 20
3.97714803864715
 30
0.0
  0
SPLINE
  5
19E
330
1F
100
AcDbEntity
  8
Default
100
AcDbSpline
210
0.0
220
0.0
230
1.0
 70
    12
 71
     2
 72
     6
 73
     3
 74
     0
 42
0.0000000001
 43
0.0000000001
 40
-4.513904088397499
 40
-4.513904088397499
 40
-4.513904088397499
 40
0.0
 40
0.0
 40
0.0
 10
32.12790710868698
 20
8.074218610035917
 30
0.0
 41
1.0
 10
33.7790391864128
 20
6.535518987826336
 30
0.0
 41
0.9999998327874763
 10
35.43194980384435
 20
4.998730077056498
 30
0.0
 41
1.0
  0
SPLINE
  5
19F
330
1F
100
AcDbEntity
  8
Default
100
AcDbSpline
210
0.0
220
0.0
230
1.0
 70
     8
 71
     3
 72
    10
 73
     6
 74
     0
 42
0.0000000001
 43
0.0000000001
 40
-3.0
 40
-3.0
 40
-3.0
 40
-3.0
 40
-2.0
 40
-1.0
 40
0.0
 40
0.0
 40
0.0
 40
0.0
 10
30.53760001432101
 20
8.074218611459017
 30
0.0
 10
30.71039413046235
 20
8.141579769240021
 30
0.0
 10
31.06523467500388
 20
8.250025971496187
 30
0.0
 10
31.62220192709586
 20
8.319950084390777
 30
0.0
 10
31.99032737340234
 20
8.201931523840592
 30
0.0
 10
32.12790710868698
 20
8.074218610035917
 30
0.0
  0
SPLINE
  5
1A0
330
1F
100
AcDbEntity
  8
Default
100
AcDbSpline
210
0.0
220
0.0
230
1.0
 70
    12
 71
     2
 72
     6
 73
     3
 74
     0
 42
0.0000000001
 43
0.0000000001
 40
-8.715030808154548
 40
-8.715030808154548
 40
-8.715030808154548
 40
0.0
 40
0.0
 40
0.0
 10
22.38304642888006
 20
4.998646606849308
 30
0.0
 41
1.0
 10
26.46104898454329
 20
6.534843990876261
 30
0.0
 41
0.9999999200503594
 10
30.53760001432101
 20
8.074218611459017
 30
0.0
 41
1.0
  0
SPLINE
  5
1A1
330
1F
100
AcDbEntity
  8
Default
100
AcDbSpline
210
0.0
220
0.0
230
1.0
 70
    12
 71
     2
 72
    52
 73
    49
 74
     0
 42
0.0000000001
 43
0.0000000001
 40
-1.294232290270076
 40
-1.294232290270076
 40
-1.294232290270076
 40
-1.253095473203663
 40
-1.253095473203663
 40
-1.214650021572872
 40
-1.214650021572872
 40
-1.174867922551375
 40
-1.174867922551375
 40
-1.130563027848315
 40
-1.130563027848315
 40
-1.081728720931424
 40
-1.081728720931424
 40
-1.028122138866094
 40
-1.028122138866094
 40
-0.969676050428578
 40
-0.969676050428578
 40
-0.9075252447280195
 40
-0.9075252447280195
 40
-0.8446293413024997
 40
-0.8446293413024997
 40
-0.784460066963401
 40
-0.784460066963401
 40
-0.7277525143212366
 40
-0.7277525143212366
 40
-0.6724555739068382
 40
-0.6724555739068382
 40
-0.6171797522681789
 40
-0.6171797522681789
 40
-0.5623169099249737
 40
-0.5623169099249737
 40
-0.5097695074723185
 40
-0.5097695074723185
 40
-0.4603146106421259
 40
-0.4603146106421259
 40
-0.4105922183281818
 40
-0.4105922183281818
 40
-0.3578485669373858
 40
-0.3578485669373858
 40
-0.3028471247672735
 40
-0.3028471247672735
 40
-0.2472005518257413
 40
-0.2472005518257413
 40
-0.1911573759736196
 40
-0.1911573759736196
 40
-0.1324227995290864
 40
-0.1324227995290864
 40
-0.0689375520178781
 40
-0.0689375520178781
 40
0.0
 40
0.0
 40
0.0
 10
21.76510548495729
 20
3.977148038570611
 30
0.0
 41
1.0
 10
21.76744393806423
 20
3.997583092134779
 30
0.0
 41
0.999999383925838
 10
21.76982775208215
 20
4.018012903877225
 30
0.0
 41
1.0
 10
21.77205552532709
 20
4.037106111995924
 30
0.0
 41
0.9999992244110139
 10
21.77433085138135
 20
4.056193711668001
 30
0.0
 41
1.0
 10
21.77668471733666
 20
4.075945011512224
 30
0.0
 41
0.9999987113133476
 10
21.77910198931895
 20
4.095688651668882
 30
0.0
 41
1.0
 10
21.7817944827898
 20
4.117676896758663
 30
0.0
 41
0.9999976776194981
 10
21.7845817278193
 20
4.139653332055687
 30
0.0
 41
1.0
 10
21.78764875859695
 20
4.163877185643911
 30
0.0
 41
0.9999944933376803
 10
21.79087650086895
 20
4.188080149104621
 30
0.0
 41
1.0
 10
21.79441399683739
 20
4.214649293801159
 30
0.0
 41
0.9999823392164429
 10
21.79826704715364
 20
4.241174514457979
 30
0.0
 41
1.0
 10
21.80246531270043
 20
4.270095357891028
 30
0.0
 41
0.9999523103872862
 10
21.80722763888689
 20
4.298928687004643
 30
0.0
 41
1.0
 10
21.81229001648367
 20
4.329591073421716
 30
0.0
 41
0.9998998670303381
 10
21.81821809757751
 20
4.360097916297812
 30
0.0
 41
1.0
 10
21.82421811378778
 20
4.390971705504946
 30
0.0
 41
0.9998351768377977
 10
21.83133504280201
 20
4.421607311846858
 30
0.0
 41
1.0
 10
21.83814496421632
 20
4.450915600467652
 30
0.0
 41
0.9997801240122366
 10
21.84617776421258
 20
4.47991258196175
 30
0.0
 41
1.0
 10
21.85374283104618
 20
4.507244110596383
 30
0.0
 41
0.9997145778074973
 10
21.86260482511408
 20
4.534183074103598
 30
0.0
 41
1.0
 10
21.87123805223584
 20
4.560457491210531
 30
0.0
 41
0.9995688463387136
 10
21.88139866218152
 20
4.586179847447404
 30
0.0
 41
1.0
 10
21.89155020559053
 20
4.611899852022075
 30
0.0
 41
0.9992953205395431
 10
21.90360257539037
 20
4.636785849111069
 30
0.0
 41
1.0
 10
21.91558399110946
 20
4.66148269916809
 30
0.0
 41
0.9989987658384212
 10
21.92972499632414
 20
4.685009719737867
 30
0.0
 41
1.0
 10
21.94328226761515
 20
4.707537489707798
 30
0.0
 41
0.9989230244694153
 10
21.95886941063563
 20
4.728711553964224
 30
0.0
 41
1.0
 10
21.97353245944215
 20
4.748645080685852
 30
0.0
 41
0.9988930160839273
 10
21.99000387924518
 20
4.767112425311868
 30
0.0
 41
1.0
 10
22.00658945296888
 20
4.785658525881473
 30
0.0
 41
0.9988368282484759
 10
22.0248843412637
 20
4.802520796320599
 30
0.0
 41
1.0
 10
22.04430275059551
 20
4.820390781879436
 30
0.0
 41
0.9989899865257376
 10
22.06524704310851
 20
4.83644530198994
 30
0.0
 41
1.0
 10
22.08708402109381
 20
4.85318367225375
 30
0.0
 41
0.9992698364100728
 10
22.11013536441286
 20
4.868205729962527
 30
0.0
 41
1.0
 10
22.13344543119449
 20
4.883413963397632
 30
0.0
 41
0.9995020495959951
 10
22.1576683627956
 20
4.897121594929991
 30
0.0
 41
1.0
 10
22.18206263219725
 20
4.910923159814281
 30
0.0
 41
0.9996618475526493
 10
22.20714145104535
 20
4.923437807954735
 30
0.0
 41
1.0
 10
22.23342176124498
 20
4.936554210341815
 30
0.0
 41
0.9997764851077564
 10
22.26023306521077
 20
4.948547904327481
 30
0.0
 41
1.0
 10
22.2892094419237
 20
4.961515791249731
 30
0.0
 41
0.9998494214131346
 10
22.31861836867267
 20
4.973470352141302
 30
0.0
 41
1.0
 10
22.350553600104
 20
4.986446461961365
 30
0.0
 41
0.9999104261187409
 10
22.38304642888006
 20
4.998646606849308
 30
0.0
 41
1.0
  0
POLYLINE
  5
1A2
330
1F
100
AcDbEntity
  8
Default
100
AcDb2dPolyline
 66
     1
 10
0.0
 20
0.0
 30
0.0
  0
VERTEX
  5
1A3
330
1A2
100
AcDbEntity
  8
Default
100
AcDbVertex
100
AcDb2dVertex
 10
21.62762830801226
 20
2.86991826762012
 30
0.0
  0
VERTEX
  5
1A4
330
1A2
100
AcDbEntity
  8
Default
100
AcDbVertex
100
AcDb2dVertex
 10
21.76510548495729
 20
3.977148038570611
 30
0.0
  0
SEQEND
  5
1A5
330
1A2
100
AcDbEntity
  8
Default
  0
POLYLINE
  5
1A6
330
1F
100
AcDbEntity
  8
Default
100
AcDb2dPolyline
 66
     1
 10
0.0
 20
0.0
 30
0.0
  0
VERTEX
  5
1A7
330
1A6
100
AcDbEntity
  8
Default
100
AcDbVertex
100
AcDb2dVertex
 10
45.12193363738669
 20
4.156803872363363
 30
0.0
  0
VERTEX
  5
1A8
330
1A6
100
AcDbEntity
  8
Default
100
AcDbVertex
100
AcDb2dVertex
 10
45.22066992845946
 20
2.871673724042822
 30
0.0
  0
SEQEND
  5
1A9
330
1A6
100
AcDbEntity
  8
Default
  0
SPLINE
  5
1AA
330
1F
100
AcDbEntity
  8
Default
100
AcDbSpline
210
0.0
220
0.0
230
1.0
 70
     8
 71
     3
 72
    12
 73
     8
 74
     0
 42
0.0000000001
 43
0.0000000001
 40
0.0
 40
0.0
 40
0.0
 40
0.0
 40
0.1245054723453157
 40
0.2413273762647093
 40
0.4315707206684852
 40
0.6394371882203365
 40
0.8804962673654844
 40
0.8804962673654844
 40
0.8804962673654844
 40
0.8804962673654844
 10
44.60768534504705
 20
4.783826277837631
 30
0.0
 10
44.64758815653452
 20
4.772475176240733
 30
0.0
 10
44.72369793067955
 20
4.745882894730065
 30
0.0
 10
44.8553845145566
 20
4.688207446322028
 30
0.0
 10
44.99391466592292
 20
4.580602170461681
 30
0.0
 10
45.08917222553013
 20
4.384496529964149
 30
0.0
 10
45.11368278558858
 20
4.237034668860033
 30
0.0
 10
45.12193363738669
 20
4.156803872363363
 30
0.0
  0
SPLINE
  5
1AB
330
1F
100
AcDbEntity
  8
Default
100
AcDbSpline
210
0.0
220
0.0
230
1.0
 70
    12
 71
     2
 72
    62
 73
    59
 74
     0
 42
0.0000000001
 43
0.0000000001
 40
0.0
 40
0.0
 40
0.0
 40
0.6184054404401294
 40
0.6184054404401294
 40
1.180649438783555
 40
1.180649438783555
 40
1.692508393041381
 40
1.692508393041381
 40
2.15976000210519
 40
2.15976000210519
 40
2.588181952938579
 40
2.588181952938579
 40
2.983551981286177
 40
2.983551981286177
 40
3.351647896208854
 40
3.351647896208854
 40
3.698247587859326
 40
3.698247587859326
 40
4.029129028344915
 40
4.029129028344915
 40
4.350496780611262
 40
4.350496780611262
 40
4.673607771371805
 40
4.673607771371805
 40
5.023592475738506
 40
5.023592475738506
 40
5.42494813722723
 40
5.42494813722723
 40
5.867992920405847
 40
5.867992920405847
 40
6.322288925956288
 40
6.322288925956288
 40
6.74184192320089
 40
6.74184192320089
 40
7.11164052522493
 40
7.11164052522493
 40
7.43727616268221
 40
7.43727616268221
 40
7.727963133355509
 40
7.727963133355509
 40
7.992712383415606
 40
7.992712383415606
 40
8.234702534034597
 40
8.234702534034597
 40
8.453009359387318
 40
8.453009359387318
 40
8.664176248763125
 40
8.664176248763125
 40
8.885078501225738
 40
8.885078501225738
 40
9.122860596227445
 40
9.122860596227445
 40
9.384446754815686
 40
9.384446754815686
 40
9.675526912957592
 40
9.675526912957592
 40
9.998706567434892
 40
9.998706567434892
 40
10.35610649630829
 40
10.35610649630829
 40
10.35610649630829
 10
34.69846493910768
 20
7.79465555423727
 30
0.0
 41
1.0
 10
34.99510358506465
 20
7.70568143581973
 30
0.0
 41
0.9999999999237557
 10
35.2912730738887
 20
7.616856011022229
 30
0.0
 41
1.0
 10
35.560545635125
 20
7.536097939034999
 30
0.0
 41
0.9999999999314689
 10
35.82981630535913
 20
7.455333562128402
 30
0.0
 41
1.0
 10
36.0749564646315
 20
7.381806698763212
 30
0.0
 41
0.9999999992950748
 10
36.32009110164361
 20
7.308261426570476
 30
0.0
 41
1.0
 10
36.54386281766445
 20
7.241125476560694
 30
0.0
 41
0.9999999981939572
 10
36.76762646224319
 20
7.173962629394753
 30
0.0
 41
1.0
 10
36.97279483412031
 20
7.112381127550816
 30
0.0
 41
0.999999996747018
 10
37.17795326905444
 20
7.050766528929081
 30
0.0
 41
1.0
 10
37.36728412088506
 20
6.993905350344161
 30
0.0
 41
0.9999999950861412
 10
37.5566036951459
 20
6.937006634307444
 30
0.0
 41
1.0
 10
37.73286328636046
 20
6.88403298560985
 30
0.0
 41
0.9999999932299585
 10
37.90911054457705
 20
6.831018318558252
 30
0.0
 41
1.0
 10
38.07506523790269
 20
6.781099617833018
 30
0.0
 41
0.9999999911134075
 10
38.24100661539553
 20
6.73113667001481
 30
0.0
 41
1.0
 10
38.39942257583989
 20
6.683439544228492
 30
0.0
 41
0.9999999885647883
 10
38.55782410259395
 20
6.635694506227271
 30
0.0
 41
1.0
 10
38.71167118952154
 20
6.589322290395958
 30
0.0
 41
0.9999999852430541
 10
38.86550233423868
 20
6.542897216651008
 30
0.0
 41
1.0
 10
39.02016795144298
 20
6.496220395420777
 30
0.0
 41
0.9999999799486056
 10
39.17481486154028
 20
6.449481632250191
 30
0.0
 41
1.0
 10
39.34232410669214
 20
6.398855775174767
 30
0.0
 41
0.9999999683244029
 10
39.5098078459058
 20
6.34814560149156
 30
0.0
 41
1.0
 10
39.70187513161999
 20
6.289992763249154
 30
0.0
 41
0.9999999425463864
 10
39.89390294793552
 20
6.231709724564241
 30
0.0
 41
1.0
 10
40.10587709179802
 20
6.167373585393965
 30
0.0
 41
0.9999999007462101
 10
40.31779382262
 20
6.102848585066163
 30
0.0
 41
1.0
 10
40.53509243617165
 20
6.036685619602933
 30
0.0
 41
0.9999998504892871
 10
40.7523185601905
 20
5.970285043595574
 30
0.0
 41
1.0
 10
40.9529318876865
 20
5.908962269726532
 30
0.0
 41
0.9999998229262198
 10
41.15347208637392
 20
5.847400768165642
 30
0.0
 41
1.0
 10
41.330230401291
 20
5.793139750367468
 30
0.0
 41
0.9999998150635834
 10
41.50692258543478
 20
5.738663773943767
 30
0.0
 41
1.0
 10
41.66251281513324
 20
5.690691610298843
 30
0.0
 41
0.9999998311887319
 10
41.81804719104709
 20
5.64253866675976
 30
0.0
 41
1.0
 10
41.95688754031601
 20
5.599549263287522
 30
0.0
 41
0.9999999053407153
 10
42.09569042699221
 20
5.556439055141876
 30
0.0
 41
1.0
 10
42.22210823365612
 20
5.517176093269775
 30
0.0
 41
0.9999999715441407
 10
42.34850729264797
 20
5.477852818957144
 30
0.0
 41
1.0
 10
42.46404050027526
 20
5.441909999968237
 30
0.0
 41
0.9999999973170125
 10
42.57956844083731
 20
5.405950255099605
 30
0.0
 41
1.0
 10
42.68378988850335
 20
5.373510196823895
 30
0.0
 41
0.9999999977559418
 10
42.78801568177383
 20
5.341084103138626
 30
0.0
 41
1.0
 10
42.88883268967826
 20
5.309718596900151
 30
0.0
 41
0.9999999816833968
 10
42.98966169678823
 20
5.278391685312228
 30
0.0
 41
1.0
 10
43.09513913051602
 20
5.245620307887301
 30
0.0
 41
0.9999999435403457
 10
43.20063856506033
 20
5.21291982601059
 30
0.0
 41
1.0
 10
43.31419945572125
 20
5.177720283703248
 30
0.0
 41
0.9999998678555648
 10
43.42779647783925
 20
5.142637521094422
 30
0.0
 41
1.0
 10
43.5527654388462
 20
5.104042254610556
 30
0.0
 41
0.999999727351153
 10
43.67779126433258
 20
5.06563159500195
 30
0.0
 41
1.0
 10
43.81691368961189
 20
5.022889577857184
 30
0.0
 41
0.9999994820153766
 10
43.95612283443268
 20
4.980430853860094
 30
0.0
 41
1.0
 10
44.11068337700237
 20
4.933289122517299
 30
0.0
 41
0.9999990841201515
 10
44.26537095880244
 20
4.886565935657962
 30
0.0
 41
1.0
 10
44.43643741612436
 20
4.83489378756084
 30
0.0
 41
0.9999984400520827
 10
44.60768534504705
 20
4.783826277837631
 30
0.0
 41
1.0
  0
SPLINE
  5
1AC
330
1F
100
AcDbEntity
  8
Default
100
AcDbSpline
210
0.0
220
0.0
230
1.0
 70
    12
 71
     2
 72
     6
 73
     3
 74
     0
 42
0.0000000001
 43
0.0000000001
 40
0.0
 40
0.0
 40
0.0
 40
0.7839841532077829
 40
0.7839841532077829
 40
0.7839841532077829
 10
33.93499494284325
 20
7.96878984968296
 30
0.0
 41
1.0
 10
34.32552886477133
 20
7.921412171125171
 30
0.0
 41
0.9946507974764314
 10
34.69846493910768
 20
7.79465555423727
 30
0.0
 41
1.0
  0
POLYLINE
  5
1AD
330
1F
100
AcDbEntity
  8
Default
100
AcDb2dPolyline
 66
     1
 10
0.0
 20
0.0
 30
0.0
  0
VERTEX
  5
1AE
330
1AD
100
AcDbEntity
  8
Default
100
AcDbVertex
100
AcDb2dVertex
 10
45.38684884412109
 20
3.977148038647028
 30
0.0
  0
VERTEX
  5
1AF
330
1AD
100
AcDbEntity
  8
Default
100
AcDbVertex
100
AcDb2dVertex
 10
45.49355239340345
 20
2.869918273055204
 30
0.0
  0
SEQEND
  5
1B0
330
1AD
100
AcDbEntity
  8
Default
  0
SPLINE
  5
1B1
330
1F
100
AcDbEntity
  8
Default
100
AcDbSpline
210
0.0
220
0.0
230
1.0
 70
     8
 71
     3
 72
    12
 73
     8
 74
     0
 42
0.0000000001
 43
0.0000000001
 40
0.0
 40
0.0
 40
0.0
 40
0.0
 40
0.2091843899195215
 40
0.3782016163300649
 40
0.6365325742950334
 40
0.9209448829353687
 40
1.375741785486437
 40
1.375741785486437
 40
1.375741785486437
 40
1.375741785486437
 10
44.67345546097222
 20
4.99873007706133
 30
0.0
 10
44.74020249434429
 20
4.979167465283704
 30
0.0
 10
44.8595954916274
 20
4.936616888908338
 30
0.0
 10
45.05331961398538
 20
4.851831855321978
 30
0.0
 10
45.24103607798268
 20
4.694700889585224
 30
0.0
 10
45.35468053022497
 20
4.372942161601344
 30
0.0
 10
45.37200654596408
 20
4.12877121505184
 30
0.0
 10
45.38684884412109
 20
3.977148038647028
 30
0.0
  0
SPLINE
  5
1B2
330
1F
100
AcDbEntity
  8
Default
100
AcDbSpline
210
0.0
220
0.0
230
1.0
 70
    12
 71
     2
 72
     6
 73
     3
 74
     0
 42
0.0000000001
 43
0.0000000001
 40
0.0
 40
0.0
 40
0.0
 40
10.35710455726541
 40
10.35710455726541
 40
10.35710455726541
 10
34.78351204577973
 20
8.074218610038
 30
0.0
 41
1.0
 10
39.72794814386538
 20
6.534751967511405
 30
0.0
 41
0.9999999393405746
 10
44.67345546097222
 20
4.99873007706133
 30
0.0
 41
1.0
  0
SPLINE
  5
1B3
330
1F
100
AcDbEntity
  8
Default
100
AcDbSpline
210
0.0
220
0.0
230
1.0
 70
     8
 71
     3
 72
    11
 73
     7
 74
     0
 42
0.0000000001
 43
0.0000000001
 40
0.0
 40
0.0
 40
0.0
 40
0.0
 40
0.1479668185272424
 40
0.34956327559182
 40
0.6244312097799937
 40
0.9132129837337586
 40
0.9132129837337586
 40
0.9132129837337586
 40
0.9132129837337586
 10
33.87675919214853
 20
8.284940248289148
 30
0.0
 10
33.94618726567764
 20
8.28267763921073
 30
0.0
 10
34.06195781195096
 20
8.267735558671239
 30
0.0
 10
34.26530725622727
 20
8.223110061935893
 30
0.0
 10
34.51221777956121
 20
8.158784570407914
 30
0.0
 10
34.69180055633188
 20
8.103458426494491
 30
0.0
 10
34.78351204577973
 20
8.074218610038
 30
0.0
  0
SPLINE
  5
1B4
330
1F
100
AcDbEntity
  8
Default
100
AcDbSpline
210
0.0
220
0.0
230
1.0
 70
    12
 71
     3
 72
    10
 73
     6
 74
     0
 42
0.0000000001
 43
0.0000000001
 40
-0.4224739044921719
 40
-0.4224739044921719
 40
-0.4224739044921719
 40
-0.4224739044921719
 40
-0.2499944994444386
 40
-0.2499944994444386
 40
0.0
 40
0.0
 40
0.0
 40
0.0
 10
33.72780746799687
 20
8.218747570076967
 30
0.0
 41
1.0
 10
33.72987098023184
 20
8.232981552373621
 30
0.0
 41
1.0
 10
33.73723425696227
 20
8.246400941515754
 30
0.0
 41
1.0
 10
33.77351348398722
 20
8.27341766517992
 30
0.0
 41
1.0
 10
33.81058034921199
 20
8.282972215831222
 30
0.0
 41
1.0
 10
33.87675919214853
 20
8.284940248289148
 30
0.0
 41
1.0
  0
SPLINE
  5
1B5
330
1F
100
AcDbEntity
  8
Default
100
AcDbSpline
210
0.0
220
0.0
230
1.0
 70
    12
 71
     2
 72
     6
 73
     3
 74
     0
 42
0.0000000001
 43
0.0000000001
 40
0.0
 40
0.0
 40
0.0
 40
0.1020195629765884
 40
0.1020195629765884
 40
0.1020195629765884
 10
33.78408997188517
 20
8.134223766950146
 30
0.0
 41
1.0
 10
33.74705092439035
 20
8.17045796413541
 30
0.0
 41
0.9778821939828444
 10
33.72780746799687
 20
8.218747570076967
 30
0.0
 41
1.0
  0
SPLINE
  5
1B6
330
1F
100
AcDbEntity
  8
Default
100
AcDbSpline
210
0.0
220
0.0
230
1.0
 70
    12
 71
     2
 72
     6
 73
     3
 74
     0
 42
0.0000000001
 43
0.0000000001
 40
0.0
 40
0.0
 40
0.0
 40
4.151244989609161
 40
4.151244989609161
 40
4.151244989609161
 10
36.58790846518643
 20
5.064079833321532
 30
0.0
 41
1.0
 10
35.1827754728327
 20
6.600586952307422
 30
0.0
 41
0.9999997692669422
 10
33.78408997188517
 20
8.134223766950146
 30
0.0
 41
1.0
  0
SPLINE
  5
1B7
330
1F
100
AcDbEntity
  8
Default
100
AcDbSpline
210
0.0
220
0.0
230
1.0
 70
    12
 71
     3
 72
   142
 73
   138
 74
     0
 42
0.0000000001
 43
0.0000000001
 40
-1.292073330473372
 40
-1.292073330473372
 40
-1.292073330473372
 40
-1.292073330473372
 40
0.0
 40
0.0
 40
0.0
 40
0.5016686169690452
 40
0.5016686169690452
 40
0.7506257317009957
 40
0.7506257317009957
 40
1.0
 40
1.0
 40
1.0
 40
1.248464256042997
 40
1.248464256042997
 40
1.499878053957325
 40
1.499878053957325
 40
1.999999706578288
 40
1.999999706578288
 40
1.999999706578288
 40
2.999999706578287
 40
3.999999706578287
 40
4.999999706578287
 40
4.999999706578287
 40
4.999999706578287
 40
5.265609398210422
 40
5.265609398210422
 40
5.265609398210422
 40
5.507096444360737
 40
5.507096444360737
 40
5.507096444360737
 40
5.726958861361561
 40
5.726958861361561
 40
5.726958861361561
 40
5.927689465994343
 40
5.927689465994343
 40
5.927689465994343
 40
6.111776927655057
 40
6.111776927655057
 40
6.111776927655057
 40
6.281707211364328
 40
6.281707211364328
 40
6.281707211364328
 40
6.439965082943349
 40
6.439965082943349
 40
6.439965082943349
 40
6.589035522177435
 40
6.589035522177435
 40
6.589035522177435
 40
6.731405030802778
 40
6.731405030802778
 40
6.731405030802778
 40
6.869746555558066
 40
6.869746555558066
 40
6.869746555558066
 40
7.008914351251104
 40
7.008914351251104
 40
7.008914351251104
 40
7.159756667550019
 40
7.159756667550019
 40
7.159756667550019
 40
7.33288896174432
 40
7.33288896174432
 40
7.33288896174432
 40
7.524223842626769
 40
7.524223842626769
 40
7.524223842626769
 40
7.720702961741825
 40
7.720702961741825
 40
7.720702961741825
 40
7.902460996185262
 40
7.902460996185262
 40
7.902460996185262
 40
8.062947967067617
 40
8.062947967067617
 40
8.062947967067617
 40
8.204518574990104
 40
8.204518574990104
 40
8.204518574990104
 40
8.33109001495191
 40
8.33109001495191
 40
8.33109001495191
 40
8.446481260824196
 40
8.446481260824196
 40
8.446481260824196
 40
8.55200162263511
 40
8.55200162263511
 40
8.55200162263511
 40
8.647195730560643
 40
8.647195730560643
 40
8.647195730560643
 40
8.739241963983428
 40
8.739241963983428
 40
8.739241963983428
 40
8.835458171123218
 40
8.835458171123218
 40
8.835458171123218
 40
8.938898566439793
 40
8.938898566439793
 40
8.938898566439793
 40
9.052486605117275
 40
9.052486605117275
 40
9.052486605117275
 40
9.178557854364872
 40
9.178557854364872
 40
9.178557854364872
 40
9.318047032163843
 40
9.318047032163843
 40
9.318047032163843
 40
9.47160308642828
 40
9.47160308642828
 40
9.47160308642828
 40
9.533260132847579
 40
9.595609942498344
 40
9.72073156510651
 40
10.14665343337229
 40
10.14665343337229
 40
10.14665343337229
 40
11.43716271484244
 40
11.43716271484244
 40
11.43716271484244
 40
11.55394291577069
 40
11.55394291577069
 40
11.55394291577069
 40
12.36381440101304
 40
12.36381440101304
 40
12.36381440101304
 40
12.48503700822558
 40
12.48503700822558
 40
12.48503700822558
 40
13.27821697950502
 40
13.27821697950502
 40
13.27821697950502
 40
13.5460163274926
 40
13.72963561534857
 40
14.00839745083708
 40
14.20725206746503
 40
14.40227317278986
 40
14.40227317278986
 40
14.40227317278986
 40
14.40227317278986
 10
21.84743966859162
 20
2.871673757747709
 30
0.0
 41
1.0
 10
21.89202895866276
 20
3.300050493320384
 30
0.0
 41
1.0
 10
21.93661824873391
 20
3.728427228893059
 30
0.0
 41
1.0
 10
21.98120753880505
 20
4.156803964465734
 30
0.0
 41
1.0
 10
21.99974589173284
 20
4.301452600626785
 30
0.0
 41
1.0
 10
22.02904949341897
 20
4.444501448292279
 30
0.0
 41
1.0
 10
22.14426172901987
 20
4.6184723675713
 30
0.0
 41
1.0
 10
22.19341030218031
 20
4.664664298315934
 30
0.0
 41
1.0
 10
22.30339364332772
 20
4.734922199039751
 30
0.0
 41
1.0
 10
22.36324379072234
 20
4.761198191400297
 30
0.0
 41
1.0
 10
22.42581853348982
 20
4.783826278193505
 30
0.0
 41
1.0
 10
23.15314499659321
 20
5.04700916418421
 30
0.0
 41
1.0
 10
23.7634618938538
 20
5.280189787702888
 30
0.0
 41
1.0
 10
25.0852004094309
 20
5.777542001943399
 30
0.0
 41
1.0
 10
25.75408160418957
 20
6.026688760676564
 30
0.0
 41
1.0
 10
27.83002846329484
 20
6.790213045676041
 30
0.0
 41
1.0
 10
29.2108072652959
 20
7.291396700137167
 30
0.0
 41
1.0
 10
30.59382003308119
 20
7.794796882718895
 30
0.0
 41
1.0
 10
30.75813295718319
 20
7.860587507471321
 30
0.0
 41
1.0
 10
31.10189194006645
 20
7.955109809826948
 30
0.0
 41
1.0
 10
31.63137206860665
 20
7.995429636292117
 30
0.0
 41
1.0
 10
31.99171236156957
 20
7.922506387316004
 30
0.0
 41
1.0
 10
32.12261684583312
 20
7.794655615590621
 30
0.0
 41
1.0
 10
32.18853671678325
 20
7.735340560807078
 30
0.0
 41
0.999999999854912
 10
32.25440542714099
 20
7.676074025942532
 30
0.0
 41
0.999999999854912
 10
32.32022297687769
 20
7.616856011022782
 30
0.0
 41
1.0
 10
32.38006316326153
 20
7.563016370207271
 30
0.0
 41
0.9999999998713714
 10
32.43990229200953
 20
7.509175553903531
 30
0.0
 41
0.9999999998713714
 10
32.4997403630986
 20
7.455333562132343
 30
0.0
 41
1.0
 10
32.55422002653726
 20
7.406312955447401
 30
0.0
 41
0.9999999986720259
 10
32.6086965957693
 20
7.357288910195336
 30
0.0
 41
0.9999999986720259
 10
32.66317007057768
 20
7.308261426571458
 30
0.0
 41
1.0
 10
32.71290342198538
 20
7.263500183920165
 30
0.0
 41
0.9999999965991441
 10
32.76263225190645
 20
7.218733918042789
 30
0.0
 41
0.9999999965991441
 10
32.81235655983355
 20
7.173962629396061
 30
0.0
 41
1.0
 10
32.85795807136357
 20
7.132903440326192
 30
0.0
 41
0.9999999938811545
 10
32.90355401951748
 20
7.091838073253175
 30
0.0
 41
0.9999999938811545
 10
32.94914440345829
 20
7.050766528930823
 30
0.0
 41
1.0
 10
32.9912286665029
 20
7.012853565999682
 30
0.0
 41
0.9999999907703566
 10
33.03330662025121
 20
6.974933600775791
 30
0.0
 41
0.9999999907703566
 10
33.07537826353814
 20
6.937006634309109
 30
0.0
 41
1.0
 10
33.11456002299439
 20
6.901684840961113
 30
0.0
 41
0.9999999873053725
 10
33.15373488862407
 20
6.866355401929279
 30
0.0
 41
0.9999999873053725
 10
33.19290285893523
 20
6.831018318559088
 30
0.0
 41
1.0
 10
33.22979698657777
 20
6.797732675453658
 30
0.0
 41
0.9999999833682711
 10
33.26668367820913
 20
6.764438792052338
 30
0.0
 41
0.9999999833682711
 10
33.30356293198884
 20
6.731136670016332
 30
0.0
 41
1.0
 10
33.33878441287022
 20
6.699331528957767
 30
0.0
 41
0.9999999786435446
 10
33.37399784212916
 20
6.667517473682501
 30
0.0
 41
0.9999999786435446
 10
33.40920321750959
 20
6.635694506228847
 30
0.0
 41
1.0
 10
33.44341255583397
 20
6.604771899359233
 30
0.0
 41
0.9999999725043054
 10
33.47761301160019
 20
6.5738394686499
 30
0.0
 41
0.9999999725043054
 10
33.51180458198715
 20
6.542897216652377
 30
0.0
 41
1.0
 10
33.5462003949696
 20
6.511770185664243
 30
0.0
 41
0.999999962737951
 10
33.58058579888264
 20
6.480631656370186
 30
0.0
 41
0.999999962737951
 10
33.61496078988247
 20
6.449481632251062
 30
0.0
 41
1.0
 10
33.65221951628305
 20
6.41571858294725
 30
0.0
 41
0.9999999413208943
 10
33.68946407350899
 20
6.381939904045757
 30
0.0
 41
0.9999999413208943
 10
33.72669445500382
 20
6.348145601492893
 30
0.0
 41
1.0
 10
33.76942657122654
 20
6.309357730166011
 30
0.0
 41
0.9999998939942363
 10
33.81213680700258
 20
6.270545767076047
 30
0.0
 41
0.9999998939942363
 10
33.85482514874936
 20
6.231709724565878
 30
0.0
 41
1.0
 10
33.90200187209336
 20
6.188790867945875
 30
0.0
 41
0.999999817829078
 10
33.9491468541389
 20
6.145837146954909
 30
0.0
 41
0.999999817829078
 10
33.99626006912067
 20
6.102848585067739
 30
0.0
 41
1.0
 10
34.04464018608905
 20
6.058704460868711
 30
0.0
 41
0.9999997273774349
 10
34.09298036108035
 20
6.014516601665255
 30
0.0
 41
0.9999997273774349
 10
34.14128055455869
 20
5.970285043597191
 30
0.0
 41
1.0
 10
34.18596178254933
 20
5.929367396685349
 30
0.0
 41
0.9999996795239744
 10
34.23060286831516
 20
5.888405958414697
 30
0.0
 41
0.9999996795239744
 10
34.27520376893702
 20
5.847400768166716
 30
0.0
 41
1.0
 10
34.31458503230379
 20
5.811194382545602
 30
0.0
 41
0.999999667885489
 10
34.35393013592514
 20
5.774948705767084
 30
0.0
 41
0.999999667885489
 10
34.39323904059981
 20
5.73866377394431
 30
0.0
 41
1.0
 10
34.42791400718603
 20
5.70665498472484
 30
0.0
 41
0.999999699239023
 10
34.46255855343971
 20
5.674613272693057
 30
0.0
 41
0.999999699239023
 10
34.4971726481017
 20
5.642538666759651
 30
0.0
 41
1.0
 10
34.52811794273446
 20
5.613860702408736
 30
0.0
 41
0.9999998327760106
 10
34.55904291734672
 20
5.585160827070125
 30
0.0
 41
0.9999998327760106
 10
34.58994755642431
 20
5.556439055141746
 30
0.0
 41
1.0
 10
34.61812255233716
 20
5.530254524648877
 30
0.0
 41
0.9999999502498923
 10
34.64628743029645
 20
5.504059111283969
 30
0.0
 41
0.9999999502498923
 10
34.67444218609859
 20
5.477852818956692
 30
0.0
 41
1.0
 10
34.70018852322954
 20
5.45388830369312
 30
0.0
 41
0.99999999545524
 10
34.72593206194632
 20
5.429920782298198
 30
0.0
 41
0.99999999545524
 10
34.75167280189793
 20
5.405950255098703
 30
0.0
 41
1.0
 10
34.77489466201399
 20
5.384325616024017
 30
0.0
 41
0.999999995859245
 10
34.79811893216466
 20
5.362703565281088
 30
0.0
 41
0.999999995859245
 10
34.82134561206144
 20
5.341084103138515
 30
0.0
 41
1.0
 10
34.84380425282306
 20
5.320179572894915
 30
0.0
 41
0.9999999670982848
 10
34.86626946013088
 20
5.299282099598348
 30
0.0
 41
0.9999999670982848
 10
34.88874123176751
 20
5.278391685311497
 30
0.0
 41
1.0
 10
34.91223096927376
 20
5.256554791100155
 30
0.0
 41
0.9999998989130324
 10
34.93573272860534
 20
5.234730835793425
 30
0.0
 41
0.9999998989130324
 10
34.95924650263508
 20
5.212919826009659
 30
0.0
 41
1.0
 10
34.98452564709202
 20
5.189471060064353
 30
0.0
 41
0.9999997629665537
 10
35.00982455614508
 20
5.16604361953925
 30
0.0
 41
0.9999997629665537
 10
35.03514321180421
 20
5.142637521093619
 30
0.0
 41
1.0
 10
35.06294551126136
 20
5.116935082432869
 30
0.0
 41
0.9999995083541204
 10
35.09077900505284
 20
5.091266427782213
 30
0.0
 41
0.9999995083541204
 10
35.11864365212598
 20
5.065631595001313
 30
0.0
 41
1.0
 10
35.14957039392237
 20
5.037179286682207
 30
0.0
 41
0.9999990578452033
 10
35.18054492627784
 20
5.008779012877429
 30
0.0
 41
0.9999990578452033
 10
35.21156716164397
 20
4.980430853859337
 30
0.0
 41
1.0
 10
35.24589083113955
 20
4.949065205712803
 30
0.0
 41
0.9999983132978641
 10
35.28028496977247
 20
4.917776846871315
 30
0.0
 41
0.9999983132978641
 10
35.31474940350473
 20
4.886565935657296
 30
0.0
 41
1.0
 10
35.35268881434501
 20
4.85220681810806
 30
0.0
 41
0.9999970787486121
 10
35.39072977431776
 20
4.817960165453814
 30
0.0
 41
0.9999970787486121
 10
35.42887195004138
 20
4.783826277823799
 30
0.0
 41
1.0
 10
35.44461543283059
 20
4.770318975289536
 30
0.0
 41
1.0
 10
35.47260887752877
 20
4.740364066580188
 30
0.0
 41
1.0
 10
35.52286530480761
 20
4.673269989122312
 30
0.0
 41
1.0
 10
35.59933703642297
 20
4.482272844015074
 30
0.0
 41
1.0
 10
35.6182323812786
 20
4.297370105759209
 30
0.0
 41
1.0
 10
35.63401847852381
 20
4.156803944640091
 30
0.0
 41
1.0
 10
35.67325364511292
 20
3.728427195248249
 30
0.0
 41
1.0
 10
35.71248881170203
 20
3.300050445856407
 30
0.0
 41
1.0
 10
35.75172397829114
 20
2.871673696464565
 30
0.0
 41
1.0
 10
35.753827081069
 20
2.828641012906881
 30
0.0
 41
0.821179619231046
 10
35.78469506968677
 20
2.798584385118736
 30
0.0
 41
0.821179619231046
 10
35.82776846770984
 20
2.797628025977252
 30
0.0
 41
1.0
 10
36.09772562945729
 20
2.797628025702174
 30
0.0
 41
1.0
 10
36.36768279120474
 20
2.797628025427096
 30
0.0
 41
1.0
 10
36.6376399529522
 20
2.797628025152018
 30
0.0
 41
1.0
 10
36.68262343685757
 20
2.798498258740414
 30
0.0
 41
0.810632612347623
 10
36.71488071561267
 20
2.830514227845586
 30
0.0
 41
0.8104835437483224
 10
36.71608689879771
 20
2.875507712516931
 30
0.0
 41
0.9995527942020983
 10
36.73265713843211
 20
3.139386792024426
 30
0.0
 41
0.9995170985293412
 10
36.74597209322685
 20
3.40344316123518
 30
0.0
 41
0.9995170987031624
 10
36.76813916041172
 20
3.980269323241044
 30
0.0
 41
0.9995527947235614
 10
36.77105620615043
 20
4.069460898109091
 30
0.0
 41
0.9995527947235614
 10
36.77739695335222
 20
4.219893461083903
 30
0.0
 41
0.9995527947235614
 10
36.77867579990561
 20
4.463200601708396
 30
0.0
 41
0.9995527947235614
 10
36.77093641234762
 20
4.683874461326607
 30
0.0
 41
0.9995527947235614
 10
36.71530169741812
 20
4.903506700683912
 30
0.0
 41
0.9995527947235614
 10
36.63611382547557
 20
5.011871873799791
 30
0.0
 41
0.9995527947235614
 10
36.58790846518643
 20
5.064079833321532
 30
0.0
 41
0.9995527947235614
  0
CIRCLE
  5
1B8
330
1F
100
AcDbEntity
  8
Default
100
AcDbCircle
 10
44.41014642238869
 20
1.417628025151856
 30
0.0
 40
1.280000000000001
  0
CIRCLE
  5
1B9
330
1F
100
AcDbEntity
  8
Default
100
AcDbCircle
 10
44.41014642238869
 20
1.417628025151856
 30
0.0
 40
1.062499999999999
  0
CIRCLE
  5
1BA
330
1F
100
AcDbEntity
  8
Default
100
AcDbCircle
 10
44.41014642238869
 20
1.417628025151856
 30
0.0
 40
1.000000000000004
  0
CIRCLE
  5
1BB
330
1F
100
AcDbEntity
  8
Default
100
AcDbCircle
 10
35.3029350490817
 20
1.417628025151856
 30
0.0
 40
1.280000000000001
  0
CIRCLE
  5
1BC
330
1F
100
AcDbEntity
  8
Default
100
AcDbCircle
 10
35.3029350490817
 20
1.417628025151856
 30
0.0
 40
1.062499999999999
  0
CIRCLE
  5
1BD
330
1F
100
AcDbEntity
  8
Default
100
AcDbCircle
 10
35.3029350490817
 20
1.417628025151856
 30
0.0
 40
1.000000000000004
  0
CIRCLE
  5
1BE
330
1F
100
AcDbEntity
  8
Default
100
AcDbCircle
 10
20.5671575043487
 20
1.417628025151856
 30
0.0
 40
1.280000000000001
  0
CIRCLE
  5
1BF
330
1F
100
AcDbEntity
  8
Default
100
AcDbCircle
 10
20.5671575043487
 20
1.417628025151856
 30
0.0
 40
1.062499999999999
  0
CIRCLE
  5
1C0
330
1F
100
AcDbEntity
  8
Default
100
AcDbCircle
 10
20.5671575043487
 20
1.417628025151856
 30
0.0
 40
1.000000000000004
  0
SPLINE
  5
1C1
330
1F
100
AcDbEntity
  8
Make2D visible lines
100
AcDbSpline
210
0.0
220
0.0
230
1.0
 70
    24
 71
     2
 72
     6
 73
     3
 74
     0
 42
0.0000000001
 43
0.0000000001
 40
0.0
 40
0.0
 40
0.0
 40
0.1558384354793708
 40
0.1558384354793708
 40
0.1558384354793708
 10
-0.9694437600086054
 20
8.683133407387857
 30
0.0
 10
-0.9143463381935515
 20
8.738230400068932
 30
0.0
 10
-0.8592489163784975
 20
8.793327392750008
 30
0.0
  0
POLYLINE
  5
1C2
330
1F
100
AcDbEntity
  8
Default
100
AcDb2dPolyline
 66
     1
 10
0.0
 20
0.0
 30
0.0
  0
VERTEX
  5
1C3
330
1C2
100
AcDbEntity
  8
Default
100
AcDbVertex
100
AcDb2dVertex
 10
-0.9694437600086054
 20
8.683133407387857
 30
0.0
  0
VERTEX
  5
1C4
330
1C2
100
AcDbEntity
  8
Default
100
AcDbVertex
100
AcDb2dVertex
 10
0.9694437600586276
 20
8.683133407387857
 30
0.0
  0
SEQEND
  5
1C5
330
1C2
100
AcDbEntity
  8
Default
  0
SPLINE
  5
1C6
330
1F
100
AcDbEntity
  8
Default
100
AcDbSpline
210
0.0
220
0.0
230
1.0
 70
    12
 71
     3
 72
    50
 73
    46
 74
     0
 42
0.0000000001
 43
0.0000000001
 40
-21.39919436954268
 40
-21.39919436954268
 40
-21.39919436954268
 40
-21.39919436954268
 40
-18.31268141022234
 40
-18.31268141022234
 40
-18.31268141022234
 40
-17.31268141022234
 40
-16.31268141022234
 40
-15.31268141022234
 40
-14.31268141022234
 40
-13.31268141022234
 40
-12.31268141022234
 40
-12.31268141022234
 40
-12.31268141022234
 40
-2.340163212403525
 40
-2.340163212403525
 40
-2.340163212403525
 40
-2.138509668222612
 40
-1.974728516318232
 40
-1.720839284697714
 40
-1.436598781496028
 40
-0.9809485365654831
 40
-0.9809485365654831
 40
-0.9809485365654831
 40
-0.8037235255112315
 40
-0.8037235255112315
 40
-0.8037235255112315
 40
-0.6394305824938648
 40
-0.6394305824938648
 40
-0.6394305824938648
 40
-0.4880526041597468
 40
-0.4880526041597468
 40
-0.4880526041597468
 40
-0.3498097180376555
 40
-0.3498097180376555
 40
-0.3498097180376555
 40
-0.2247267776877842
 40
-0.2247267776877842
 40
-0.2247267776877842
 40
-0.111133383893198
 40
-0.111133383893198
 40
-0.111133383893198
 40
-0.0076783149946913
 40
-0.0076783149946913
 40
-0.0076783149946913
 40
0.0
 40
0.0
 40
0.0
 40
0.0
 10
0.4621210449485034
 20
2.871502861561519
 30
0.0
 41
1.0
 10
0.7056799170969653
 20
6.02389063372538
 30
0.0
 41
0.9999999997688959
 10
0.792559474168398
 20
7.049053478964082
 30
0.0
 41
0.9999999997688959
 10
0.8794120378244239
 20
8.074218611458
 30
0.0
 41
1.0
 10
0.8818160654387824
 20
8.163247744511779
 30
0.0
 41
1.0
 10
1.025463404114165
 20
8.273391766750676
 30
0.0
 41
1.0
 10
1.273805735452153
 20
8.293089944852412
 30
0.0
 41
1.0
 10
1.51857038909694
 20
8.26311539187831
 30
0.0
 41
1.0
 10
1.759624667138541
 20
8.212394227813505
 30
0.0
 41
1.0
 10
1.997790557303571
 20
8.149658098179136
 30
0.0
 41
1.0
 10
2.154333878395803
 20
8.10012549899682
 30
0.0
 41
1.0
 10
2.232208056271922
 20
8.074218610037995
 30
0.0
 41
1.0
 10
5.393986531681566
 20
7.047923476594382
 30
0.0
 41
0.9999999572588246
 10
8.556132303348816
 20
6.022760588452021
 30
0.0
 41
0.9999999572588246
 10
11.7186449658122
 20
4.998730077060917
 30
0.0
 41
1.0
 10
11.7828535025426
 20
4.979108436945505
 30
0.0
 41
1.0
 10
11.89742609248801
 20
4.936517264244285
 30
0.0
 41
1.0
 10
12.0849956606068
 20
4.851066944964917
 30
0.0
 41
1.0
 10
12.26645023378045
 20
4.692567060111687
 30
0.0
 41
1.0
 10
12.37955076840282
 20
4.372783829982012
 30
0.0
 41
1.0
 10
12.40148384800288
 20
4.128790558150106
 30
0.0
 41
1.0
 10
12.41868540642637
 20
3.977148038647462
 30
0.0
 41
1.0
 10
12.425343873695
 20
3.918449476122837
 30
0.0
 41
0.9999998944164606
 10
12.43663853897441
 20
3.815419336017385
 30
0.0
 41
0.9999998944164606
 10
12.45256939868699
 20
3.668057650965966
 30
0.0
 41
1.0
 10
12.45859496265877
 20
3.613625823365579
 30
0.0
 41
0.999999615868106
 10
12.46467895555062
 20
3.559200495552252
 30
0.0
 41
0.999999615868106
 10
12.47082137035138
 20
3.504781730245496
 30
0.0
 41
1.0
 10
12.47648176834637
 20
3.454640875116636
 30
0.0
 41
0.9999992667736493
 10
12.48221652557717
 20
3.404508470246943
 30
0.0
 41
0.9999992667736493
 10
12.48802562942913
 20
3.354384625911616
 30
0.0
 41
1.0
 10
12.49333375805791
 20
3.308610390337466
 30
0.0
 41
0.9999991479266753
 10
12.49871506456468
 20
3.262844699998332
 30
0.0
 41
0.9999991479266753
 10
12.50416953519364
 20
3.217087671881384
 30
0.0
 41
1.0
 10
12.50910474563552
 20
3.175686454626539
 30
0.0
 41
0.9999992417095568
 10
12.51410239456317
 20
3.134292728079097
 30
0.0
 41
0.9999992417095568
 10
12.51916247060758
 20
3.092906586404459
 30
0.0
 41
1.0
 10
12.52375806535104
 20
3.055322026598183
 30
0.0
 41
0.9999993390826499
 10
12.52840657843003
 20
3.017743975118203
 30
0.0
 41
0.9999993390826499
 10
12.53310800062771
 20
2.980172506472478
 30
0.0
 41
1.0
 10
12.53739005743591
 20
2.945954361507273
 30
0.0
 41
0.9999994564567191
 10
12.54171580598658
 20
2.91174171245981
 30
0.0
 41
0.9999994564567191
 10
12.54608523922601
 20
2.877534615118256
 30
0.0
 41
1.0
 10
12.54640952268357
 20
2.874995803421546
 30
0.0
 41
0.9999999970820159
 10
12.54673404367742
 20
2.872457022076739
 30
0.0
 41
0.9999999970820159
 10
12.54705880220473
 20
2.869918271106059
 30
0.0
 41
1.0
  0
SPLINE
  5
1C7
330
1F
100
AcDbEntity
  8
Default
100
AcDbSpline
210
0.0
220
0.0
230
1.0
 70
     8
 71
     3
 72
     8
 73
     4
 74
     0
 42
0.0000000001
 43
0.0000000001
 40
-1.0
 40
-1.0
 40
-1.0
 40
-1.0
 40
0.0
 40
0.0
 40
0.0
 40
0.0
 10
0.3805675284989789
 20
2.797628025151982
 30
0.0
 10
0.4172470224671029
 20
2.797628025151994
 30
0.0
 10
0.4592955451776525
 20
2.834932356659309
 30
0.0
 10
0.4621210449485034
 20
2.871502861561519
 30
0.0
  0
POLYLINE
  5
1C8
330
1F
100
AcDbEntity
  8
Default
100
AcDb2dPolyline
 66
     1
 10
0.0
 20
0.0
 30
0.0
  0
VERTEX
  5
1C9
330
1C8
100
AcDbEntity
  8
Default
100
AcDbVertex
100
AcDb2dVertex
 10
-0.3805675284489567
 20
2.797628025151982
 30
0.0
  0
VERTEX
  5
1CA
330
1C8
100
AcDbEntity
  8
Default
100
AcDbVertex
100
AcDb2dVertex
 10
0.3805675284989789
 20
2.797628025151982
 30
0.0
  0
SEQEND
  5
1CB
330
1C8
100
AcDbEntity
  8
Default
  0
SPLINE
  5
1CC
330
1F
100
AcDbEntity
  8
Default
100
AcDbSpline
210
0.0
220
0.0
230
1.0
 70
     8
 71
     3
 72
     8
 73
     4
 74
     0
 42
0.0000000001
 43
0.0000000001
 40
0.0
 40
0.0
 40
0.0
 40
0.0
 40
1.0
 40
1.0
 40
1.0
 40
1.0
 10
-0.4621210448984812
 20
2.871502861561519
 30
0.0
 10
-0.4592955451276303
 20
2.834932356659309
 30
0.0
 10
-0.4172470224170807
 20
2.797628025151994
 30
0.0
 10
-0.3805675284489567
 20
2.797628025151982
 30
0.0
  0
SPLINE
  5
1CD
330
1F
100
AcDbEntity
  8
Default
100
AcDbSpline
210
0.0
220
0.0
230
1.0
 70
    12
 71
     3
 72
    50
 73
    46
 74
     0
 42
0.0000000001
 43
0.0000000001
 40
0.0
 40
0.0
 40
0.0
 40
0.0
 40
0.0076783149946913
 40
0.0076783149946913
 40
0.0076783149946913
 40
0.111133383893198
 40
0.111133383893198
 40
0.111133383893198
 40
0.2247267776877842
 40
0.2247267776877842
 40
0.2247267776877842
 40
0.3498097180376555
 40
0.3498097180376555
 40
0.3498097180376555
 40
0.4880526041597468
 40
0.4880526041597468
 40
0.4880526041597468
 40
0.6394305824938648
 40
0.6394305824938648
 40
0.6394305824938648
 40
0.8037235255112315
 40
0.8037235255112315
 40
0.8037235255112315
 40
0.9809485365654831
 40
0.9809485365654831
 40
0.9809485365654831
 40
1.436598781496028
 40
1.720839284697714
 40
1.974728516318232
 40
2.138509668222612
 40
2.340163212403525
 40
2.340163212403525
 40
2.340163212403525
 40
12.31268141022234
 40
12.31268141022234
 40
12.31268141022234
 40
13.31268141022234
 40
14.31268141022234
 40
15.31268141022234
 40
16.31268141022234
 40
17.31268141022234
 40
18.31268141022234
 40
18.31268141022234
 40
18.31268141022234
 40
21.39919436954268
 40
21.39919436954268
 40
21.39919436954268
 40
21.39919436954268
 10
-12.54705880215471
 20
2.869918271106059
 30
0.0
 41
1.0
 10
-12.5467340436274
 20
2.872457022076739
 30
0.0
 41
0.9999999970820159
 10
-12.54640952263355
 20
2.874995803421546
 30
0.0
 41
0.9999999970820159
 10
-12.54608523917599
 20
2.877534615118256
 30
0.0
 41
1.0
 10
-12.54171580593655
 20
2.91174171245981
 30
0.0
 41
0.9999994564567191
 10
-12.53739005738588
 20
2.945954361507273
 30
0.0
 41
0.9999994564567191
 10
-12.53310800057769
 20
2.980172506472478
 30
0.0
 41
1.0
 10
-12.52840657838
 20
3.017743975118203
 30
0.0
 41
0.9999993390826499
 10
-12.52375806530102
 20
3.055322026598183
 30
0.0
 41
0.9999993390826499
 10
-12.51916247055756
 20
3.092906586404459
 30
0.0
 41
1.0
 10
-12.51410239451315
 20
3.134292728079097
 30
0.0
 41
0.9999992417095568
 10
-12.5091047455855
 20
3.175686454626539
 30
0.0
 41
0.9999992417095568
 10
-12.50416953514362
 20
3.217087671881384
 30
0.0
 41
1.0
 10
-12.49871506451466
 20
3.262844699998332
 30
0.0
 41
0.9999991479266753
 10
-12.49333375800789
 20
3.308610390337466
 30
0.0
 41
0.9999991479266753
 10
-12.48802562937911
 20
3.354384625911616
 30
0.0
 41
1.0
 10
-12.48221652552714
 20
3.404508470246943
 30
0.0
 41
0.9999992667736493
 10
-12.47648176829635
 20
3.454640875116636
 30
0.0
 41
0.9999992667736493
 10
-12.47082137030136
 20
3.504781730245496
 30
0.0
 41
1.0
 10
-12.4646789555006
 20
3.559200495552252
 30
0.0
 41
0.999999615868106
 10
-12.45859496260874
 20
3.613625823365579
 30
0.0
 41
0.999999615868106
 10
-12.45256939863697
 20
3.668057650965966
 30
0.0
 41
1.0
 10
-12.43663853892439
 20
3.815419336017385
 30
0.0
 41
0.9999998944164606
 10
-12.42534387364498
 20
3.918449476122837
 30
0.0
 41
0.9999998944164606
 10
-12.41868540637634
 20
3.977148038647462
 30
0.0
 41
1.0
 10
-12.40148384795286
 20
4.128790558150106
 30
0.0
 41
1.0
 10
-12.3795507683528
 20
4.372783829982012
 30
0.0
 41
1.0
 10
-12.26645023373043
 20
4.692567060111687
 30
0.0
 41
1.0
 10
-12.08499566055678
 20
4.851066944964917
 30
0.0
 41
1.0
 10
-11.89742609243799
 20
4.936517264244285
 30
0.0
 41
1.0
 10
-11.78285350249258
 20
4.979108436945505
 30
0.0
 41
1.0
 10
-11.71864496576217
 20
4.998730077060917
 30
0.0
 41
1.0
 10
-8.556132303298794
 20
6.022760588452021
 30
0.0
 41
0.9999999572588246
 10
-5.393986531631544
 20
7.047923476594382
 30
0.0
 41
0.9999999572588246
 10
-2.2322080562219
 20
8.074218610037995
 30
0.0
 41
1.0
 10
-2.154333878345781
 20
8.10012549899682
 30
0.0
 41
1.0
 10
-1.997790557253549
 20
8.149658098179136
 30
0.0
 41
1.0
 10
-1.759624667088519
 20
8.212394227813505
 30
0.0
 41
1.0
 10
-1.518570389046917
 20
8.26311539187831
 30
0.0
 41
1.0
 10
-1.273805735402131
 20
8.293089944852412
 30
0.0
 41
1.0
 10
-1.025463404064142
 20
8.273391766750676
 30
0.0
 41
1.0
 10
-0.8818160653887602
 20
8.163247744511779
 30
0.0
 41
1.0
 10
-0.8794120377744017
 20
8.074218611458
 30
0.0
 41
1.0
 10
-0.7925594741183758
 20
7.049053478964082
 30
0.0
 41
0.9999999997688959
 10
-0.7056799170469431
 20
6.02389063372538
 30
0.0
 41
0.9999999997688959
 10
-0.4621210448984812
 20
2.871502861561519
 30
0.0
 41
1.0
  0
SPLINE
  5
1CE
330
1F
100
AcDbEntity
  8
Make2D visible lines - Tangent
100
AcDbSpline
210
0.0
220
0.0
230
1.0
 70
    12
 71
     2
 72
     6
 73
     3
 74
     0
 42
0.0000000001
 43
0.0000000001
 40
-0.9002738465380399
 40
-0.9002738465380399
 40
-0.9002738465380399
 40
0.0
 40
0.0
 40
0.0
 10
-12.16579938386048
 20
4.156803872298362
 30
0.0
 41
1.0
 10
-12.21936265630585
 20
3.709863940042107
 30
0.0
 41
0.9999960116697004
 10
-12.288034329105
 20
2.871673725794611
 30
0.0
 41
1.0
  0
SPLINE
  5
1CF
330
1F
100
AcDbEntity
  8
Make2D visible lines - Tangent
100
AcDbSpline
210
0.0
220
0.0
230
1.0
 70
     8
 71
     3
 72
    12
 73
     8
 74
     0
 42
0.0000000001
 43
0.0000000001
 40
0.0
 40
0.0
 40
0.0
 40
0.0
 40
0.1304698364917213
 40
0.2435530191724092
 40
0.4202610833918047
 40
0.6278468604377302
 40
0.8694819765484789
 40
0.8694819765484789
 40
0.8694819765484789
 40
0.8694819765484789
 10
-11.66169750820061
 20
4.783826277824007
 30
0.0
 10
-11.70340616752755
 20
4.7713966247946
 30
0.0
 10
-11.77970201147621
 20
4.743457204000701
 30
0.0
 10
-11.90659477725529
 20
4.683726923589577
 30
0.0
 10
-12.0367064771883
 20
4.57595229169721
 30
0.0
 10
-12.12943297071462
 20
4.384241796743362
 30
0.0
 10
-12.15618325960921
 20
4.237042246938568
 30
0.0
 10
-12.16579938386048
 20
4.156803872298362
 30
0.0
  0
SPLINE
  5
1D0
330
1F
100
AcDbEntity
  8
Make2D visible lines - Tangent
100
AcDbSpline
210
0.0
220
0.0
230
1.0
 70
    12
 71
     2
 72
    62
 73
    59
 74
     0
 42
0.0000000001
 43
0.0000000001
 40
0.0
 40
0.0
 40
0.0
 40
0.5951612262701652
 40
0.5951612262701652
 40
1.136271914371296
 40
1.136271914371296
 40
1.628892629194652
 40
1.628892629194652
 40
2.078584755984497
 40
2.078584755984497
 40
2.490909357037769
 40
2.490909357037769
 40
2.871427336197556
 40
2.871427336197556
 40
3.225699575272315
 40
3.225699575272315
 40
3.559287048594487
 40
3.559287048594487
 40
3.877750923729905
 40
3.877750923729905
 40
4.187063172131393
 40
4.187063172131393
 40
4.498059089899636
 40
4.498059089899636
 40
4.834928755310043
 40
4.834928755310043
 40
5.221255839049146
 40
5.221255839049146
 40
5.647727922597271
 40
5.647727922597271
 40
6.085052402856194
 40
6.085052402856194
 40
6.488955408981431
 40
6.488955408981431
 40
6.844981922201951
 40
6.844981922201951
 40
7.158509595040932
 40
7.158509595040932
 40
7.438403270893588
 40
7.438403270893588
 40
7.693331252177657
 40
7.693331252177657
 40
7.926348360459921
 40
7.926348360459921
 40
8.136560569415305
 40
8.136560569415305
 40
8.339895092427948
 40
8.339895092427948
 40
8.55259838424204
 40
8.55259838424204
 40
8.781545330664224
 40
8.781545330664224
 40
9.033396055488625
 40
9.033396055488625
 40
9.313618316989823
 40
9.313618316989823
 40
9.62470543009556
 40
9.62470543009556
 40
9.968678105622077
 40
9.968678105622077
 40
9.968678105622077
 10
-2.158143793289
 20
7.794655549351875
 30
0.0
 41
1.0
 10
-2.44260806414177
 20
7.705681488674279
 30
0.0
 41
0.9999999999194691
 10
-2.72662259870358
 20
7.616856011019086
 30
0.0
 41
1.0
 10
-2.984844054601926
 20
7.536097891207165
 30
0.0
 41
0.9999999999277216
 10
-3.243063568485349
 20
7.455333562132386
 30
0.0
 41
1.0
 10
-3.478143496024695
 20
7.381806560990918
 30
0.0
 41
0.9999999992562242
 10
-3.713217751168742
 20
7.30826142656967
 30
0.0
 41
1.0
 10
-3.927806869115012
 20
7.241125275268133
 30
0.0
 41
0.999999998094429
 10
-4.142387696199041
 20
7.173962629395636
 30
0.0
 41
1.0
 10
-4.339137746845514
 20
7.112380879473444
 30
0.0
 41
0.9999999965679425
 10
-4.535877590700697
 20
7.050766528930877
 30
0.0
 41
1.0
 10
-4.717440961644933
 20
6.993905068366349
 30
0.0
 41
0.9999999948160331
 10
-4.898992749209633
 20
6.937006634308668
 30
0.0
 41
1.0
 10
-5.068022228770965
 20
6.884032676718238
 30
0.0
 41
0.9999999928584481
 10
-5.23703904146285
 20
6.831018318559222
 30
0.0
 41
1.0
 10
-5.396187528414636
 20
6.78109928373282
 30
0.0
 41
0.9999999906266546
 10
-5.555322339715209
 20
6.731136670016019
 30
0.0
 41
1.0
 10
-5.707242581720551
 20
6.683439181420591
 30
0.0
 41
0.999999987939692
 10
-5.859148000781567
 20
6.635694506228874
 30
0.0
 41
1.0
 10
-6.006688156715326
 20
6.589321888919443
 30
0.0
 41
0.999999984438125
 10
-6.154211941421247
 20
6.54289721665211
 30
0.0
 41
1.0
 10
-6.302538763651418
 20
6.496219923394506
 30
0.0
 41
0.9999999788574961
 10
-6.450846376536862
 20
6.449481632251487
 30
0.0
 41
1.0
 10
-6.611492731686509
 20
6.398855130211764
 30
0.0
 41
0.9999999666055444
 10
-6.772112898007035
 20
6.348145601493673
 30
0.0
 41
1.0
 10
-6.956314656817757
 20
6.289991762656715
 30
0.0
 41
0.9999999394395688
 10
-7.140475893120556
 20
6.231709724567201
 30
0.0
 41
1.0
 10
-7.343774415488579
 20
6.167372125484139
 30
0.0
 41
0.9999998954029852
 10
-7.547013999686955
 20
6.102848585069348
 30
0.0
 41
1.0
 10
-7.755425617741794
 20
6.036683769948715
 30
0.0
 41
0.999999842484512
 10
-7.96376283102664
 20
5.9702850435987
 30
0.0
 41
1.0
 10
-8.156178286324927
 20
5.908960396897075
 30
0.0
 41
0.9999998135043583
 10
-8.348518692484085
 20
5.847400768167861
 30
0.0
 41
1.0
 10
-8.518060089381558
 20
5.793138050819505
 30
0.0
 41
0.9999998052859095
 10
-8.687533629838434
 20
5.738663773945037
 30
0.0
 41
1.0
 10
-8.836776517332195
 20
5.690690169084578
 30
0.0
 41
0.9999998223239517
 10
-8.985962103280386
 20
5.642538666760334
 30
0.0
 41
1.0
 10
-9.119142234723421
 20
5.599548288361421
 30
0.0
 41
0.9999999004159054
 10
-9.252283941402116
 20
5.556439055142188
 30
0.0
 41
1.0
 10
-9.373549972323111
 20
5.517175594991264
 30
0.0
 41
0.9999999700882024
 10
-9.494796781944356
 20
5.477852818957023
 30
0.0
 41
1.0
 10
-9.605622528079198
 20
5.441909847007225
 30
0.0
 41
0.9999999971886839
 10
-9.716442882657027
 20
5.405950255099138
 30
0.0
 41
1.0
 10
-9.816417589572637
 20
5.373510291927781
 30
0.0
 41
0.999999997627236
 10
-9.916396764974337
 20
5.341084103138391
 30
0.0
 41
1.0
 10
-10.01310485991434
 20
5.309718888307486
 30
0.0
 41
0.9999999806906933
 10
-10.10982527492964
 20
5.278391685311176
 30
0.0
 41
1.0
 10
-10.21100208093559
 20
5.245620853605682
 30
0.0
 41
0.9999999405142294
 10
-10.31220146966093
 20
5.212919826009333
 30
0.0
 41
1.0
 10
-10.42112912649542
 20
5.177721188567274
 30
0.0
 41
0.9999998607950831
 10
-10.53009386747973
 20
5.142637521092888
 30
0.0
 41
1.0
 10
-10.64995928750162
 20
5.104043686683281
 30
0.0
 41
0.999999712773409
 10
-10.76988307239872
 20
5.065631595000963
 30
0.0
 41
1.0
 10
-10.9033163912805
 20
5.022891769801185
 30
0.0
 41
0.9999994542204448
 10
-11.03683872597876
 20
4.980430853859133
 30
0.0
 41
1.0
 10
-11.18506756864725
 20
4.933292341720862
 30
0.0
 41
0.9999990346608162
 10
-11.33342683563714
 20
4.886565935656706
 30
0.0
 41
1.0
 10
-11.49746899626445
 20
4.834898394684561
 30
0.0
 41
0.9999983550314561
 10
-11.66169750820061
 20
4.783826277824007
 30
0.0
 41
1.0
  0
SPLINE
  5
1D1
330
1F
100
AcDbEntity
  8
Make2D visible lines - Tangent
100
AcDbSpline
210
0.0
220
0.0
230
1.0
 70
     8
 71
     3
 72
    13
 73
     9
 74
     0
 42
0.0000000001
 43
0.0000000001
 40
-6.0
 40
-6.0
 40
-6.0
 40
-6.0
 40
-5.0
 40
-4.0
 40
-3.0
 40
-2.0
 40
-1.0
 40
0.0
 40
0.0
 40
0.0
 40
0.0
 10
-0.8635623319285095
 20
7.832174001357371
 30
0.0
 10
-0.8832629534320271
 20
7.913030837344492
 30
0.0
 10
-1.038424830729631
 20
7.975058838429161
 30
0.0
 10
-1.264431436344844
 20
7.976721799147452
 30
0.0
 10
-1.493054339981093
 20
7.958407677113603
 30
0.0
 10
-1.717880208615393
 20
7.917917041861055
 30
0.0
 10
-1.940340046015313
 20
7.865379628030172
 30
0.0
 10
-2.085160826906082
 20
7.817910634708359
 30
0.0
 10
-2.158143793289
 20
7.794655549351875
 30
0.0
  0
ARC
  5
1D2
330
1F
100
AcDbEntity
  8
Default
100
AcDbCircle
 10
2.051492646234937
 20
-15.19640219540753
 30
0.0
 40
21.63732646217517
100
AcDbArc
 50
97.38264883263464
 51
100.5765964865253
  0
LINE
  5
1D3
330
1F
100
AcDbEntity
  8
Default
100
AcDbLine
 10
-11.68133498252321
 20
4.250663037521255
 30
0.0
 11
-1.920035105103273
 21
6.073314863150077
 31
0.0
  0
SPLINE
  5
1D4
330
1F
100
AcDbEntity
  8
Default
100
AcDbSpline
210
0.0
220
0.0
230
1.0
 70
     8
 71
     3
 72
    11
 73
     7
 74
     0
 42
0.0000000001
 43
0.0000000001
 40
4.764430144314341
 40
4.764430144314341
 40
4.764430144314341
 40
4.764430144314341
 40
5.008315578540884
 40
5.119818273382206
 40
5.18847192926391
 40
5.271331508038644
 40
5.271331508038644
 40
5.271331508038644
 40
5.271331508038644
 10
-12.01802244649688
 20
3.931697228581415
 30
0.0
 10
-12.01181383434235
 20
4.010900729295621
 30
0.0
 10
-11.97315423959482
 20
4.135414048823339
 30
0.0
 10
-11.84598269280918
 20
4.208352879384672
 30
0.0
 10
-11.76330171901186
 20
4.233688698341419
 30
0.0
 10
-11.71314273734659
 20
4.244723822137441
 30
0.0
 10
-11.68133498252321
 20
4.250663037521255
 30
0.0
  0
LINE
  5
1D5
330
1F
100
AcDbEntity
  8
Default
100
AcDbLine
 10
-12.07486711354247
 20
2.873396958304906
 30
0.0
 11
-12.01802244649688
 21
3.931697228581415
 31
0.0
  0
ARC
  5
1D6
330
1F
100
AcDbEntity
  8
Default
100
AcDbCircle
 10
-12.15481508417898
 20
2.877691217599214
 30
0.0
 40
0.0800632167214291
100
AcDbArc
 50
270.0447032929169
 51
356.9254163602278
  0
LINE
  5
1D7
330
1F
100
AcDbEntity
  8
Default
100
AcDbLine
 10
-12.91692531526829
 20
2.798217811364815
 30
0.0
 11
-12.15475261729055
 21
2.797628025246732
 31
0.0
  0
ARC
  5
1D8
330
1F
100
AcDbEntity
  8
Default
100
AcDbCircle
 10
-12.90731878775582
 20
2.877737280871023
 30
0.0
 40
0.0800976366779727
100
AcDbArc
 50
175.7872568191625
 51
263.1116361604593
  0
LINE
  5
1D9
330
1F
100
AcDbEntity
  8
Default
100
AcDbLine
 10
-12.8944213062948
 20
4.175432846007868
 30
0.0
 11
-12.98720001372479
 21
2.883621253941321
 31
0.0
  0
SPLINE
  5
1DA
330
1F
100
AcDbEntity
  8
Default
100
AcDbSpline
210
0.0
220
0.0
230
1.0
 70
     8
 71
     3
 72
    12
 73
     8
 74
     0
 42
0.0000000001
 43
0.0000000001
 40
0.0000000000000005
 40
0.0000000000000005
 40
0.0000000000000005
 40
0.0000000000000005
 40
0.4316943487276926
 40
0.7207259165309453
 40
1.0497358550603
 40
1.226131776502205
 40
1.422849610230158
 40
1.422849610230158
 40
1.422849610230158
 40
1.422849610230158
 10
-12.0017020150174
 20
5.146223039208433
 30
0.0
 10
-12.13818067500578
 20
5.102178036291134
 30
0.0
 10
-12.38245707878612
 20
5.030345637700202
 30
0.0
 10
-12.67423156580764
 20
4.826686839434887
 30
0.0
 10
-12.80502513425024
 20
4.587707138467406
 30
0.0
 10
-12.87193068492125
 20
4.365326391044763
 30
0.0
 10
-12.88975901667158
 20
4.240348600362281
 30
0.0
 10
-12.8944213062948
 20
4.175432846007868
 30
0.0
  0
ARC
  5
1DB
330
1F
100
AcDbEntity
  8
Default
100
AcDbCircle
 10
-529.670622316528
 20
1609.204705973968
 30
0.0
 40
1685.522093513192
100
AcDbArc
 50
287.8861600484669
 51
288.1354755102121
  0
ARC
  5
1DC
330
1F
100
AcDbEntity
  8
Default
100
AcDbCircle
 10
44.50143746659069
 20
-143.8006311863039
 30
0.0
 40
159.1191361973409
100
AcDbArc
 50
106.6046573590095
 51
108.1354755102112
  0
ARC
  5
1DD
330
1F
100
AcDbEntity
  8
Default
100
AcDbCircle
 10
-2.051492646184915
 20
-15.19640219540753
 30
0.0
 40
21.63732646217517
100
AcDbArc
 50
79.42340351347474
 51
82.61735116736537
  0
LINE
  5
1DE
330
1F
100
AcDbEntity
  8
Default
100
AcDbLine
 10
11.68133498257323
 20
4.250663037521255
 30
0.0
 11
1.920035105153296
 21
6.073314863150077
 31
0.0
  0
SPLINE
  5
1DF
330
1F
100
AcDbEntity
  8
Default
100
AcDbSpline
210
0.0
220
0.0
230
1.0
 70
     8
 71
     3
 72
    11
 73
     7
 74
     0
 42
0.0000000001
 43
0.0000000001
 40
4.764430144314341
 40
4.764430144314341
 40
4.764430144314341
 40
4.764430144314341
 40
5.008315578540884
 40
5.119818273382206
 40
5.18847192926391
 40
5.271331508038644
 40
5.271331508038644
 40
5.271331508038644
 40
5.271331508038644
 10
12.0180224465469
 20
3.931697228581415
 30
0.0
 10
12.01181383439237
 20
4.010900729295621
 30
0.0
 10
11.97315423964484
 20
4.135414048823339
 30
0.0
 10
11.8459826928592
 20
4.208352879384672
 30
0.0
 10
11.76330171906188
 20
4.233688698341419
 30
0.0
 10
11.71314273739661
 20
4.244723822137441
 30
0.0
 10
11.68133498257323
 20
4.250663037521255
 30
0.0
  0
LINE
  5
1E0
330
1F
100
AcDbEntity
  8
Default
100
AcDbLine
 10
12.07486711359249
 20
2.873396958304906
 30
0.0
 11
12.0180224465469
 21
3.931697228581415
 31
0.0
  0
ARC
  5
1E1
330
1F
100
AcDbEntity
  8
Default
100
AcDbCircle
 10
12.154815084229
 20
2.877691217599214
 30
0.0
 40
0.0800632167214291
100
AcDbArc
 50
183.0745836397718
 51
269.9552967070831
  0
LINE
  5
1E2
330
1F
100
AcDbEntity
  8
Default
100
AcDbLine
 10
12.91692531531831
 20
2.798217811364815
 30
0.0
 11
12.15475261734058
 21
2.797628025246732
 31
0.0
  0
ARC
  5
1E3
330
1F
100
AcDbEntity
  8
Default
100
AcDbCircle
 10
12.90731878780585
 20
2.877737280871023
 30
0.0
 40
0.0800976366779727
100
AcDbArc
 50
276.8883638395407
 51
4.212743180837528
  0
LINE
  5
1E4
330
1F
100
AcDbEntity
  8
Default
100
AcDbLine
 10
12.89442130634482
 20
4.175432846007868
 30
0.0
 11
12.98720001377481
 21
2.883621253941321
 31
0.0
  0
SPLINE
  5
1E5
330
1F
100
AcDbEntity
  8
Default
100
AcDbSpline
210
0.0
220
0.0
230
1.0
 70
     8
 71
     3
 72
    12
 73
     8
 74
     0
 42
0.0000000001
 43
0.0000000001
 40
0.0000000000000005
 40
0.0000000000000005
 40
0.0000000000000005
 40
0.0000000000000005
 40
0.4316943487276926
 40
0.7207259165309453
 40
1.0497358550603
 40
1.226131776502205
 40
1.422849610230158
 40
1.422849610230158
 40
1.422849610230158
 40
1.422849610230158
 10
12.00170201506743
 20
5.146223039208433
 30
0.0
 10
12.13818067505581
 20
5.102178036291134
 30
0.0
 10
12.38245707883614
 20
5.030345637700202
 30
0.0
 10
12.67423156585766
 20
4.826686839434887
 30
0.0
 10
12.80502513430026
 20
4.587707138467406
 30
0.0
 10
12.87193068497127
 20
4.365326391044763
 30
0.0
 10
12.8897590167216
 20
4.240348600362281
 30
0.0
 10
12.89442130634482
 20
4.175432846007868
 30
0.0
  0
ARC
  5
1E6
330
1F
100
AcDbEntity
  8
Default
100
AcDbCircle
 10
529.670622316578
 20
1609.204705973968
 30
0.0
 40
1685.522093513192
100
AcDbArc
 50
251.8645244897879
 51
252.1138399515331
  0
ARC
  5
1E7
330
1F
100
AcDbEntity
  8
Default
100
AcDbCircle
 10
-44.50143746654066
 20
-143.8006311863039
 30
0.0
 40
159.1191361973409
100
AcDbArc
 50
71.86452448978882
 51
73.3953426409905
  0
SPLINE
  5
1E8
330
1F
100
AcDbEntity
  8
Make2D visible lines - Tangent
100
AcDbSpline
210
0.0
220
0.0
230
1.0
 70
    12
 71
     2
 72
     6
 73
     3
 74
     0
 42
0.0000000001
 43
0.0000000001
 40
-0.9002738465380399
 40
-0.9002738465380399
 40
-0.9002738465380399
 40
0.0
 40
0.0
 40
0.0
 10
12.1657993839105
 20
4.156803872298362
 30
0.0
 41
1.0
 10
12.21936265635587
 20
3.709863940042107
 30
0.0
 41
0.9999960116697004
 10
12.28803432915502
 20
2.871673725794611
 30
0.0
 41
1.0
  0
SPLINE
  5
1E9
330
1F
100
AcDbEntity
  8
Make2D visible lines - Tangent
100
AcDbSpline
210
0.0
220
0.0
230
1.0
 70
     8
 71
     3
 72
    12
 73
     8
 74
     0
 42
0.0000000001
 43
0.0000000001
 40
0.0
 40
0.0
 40
0.0
 40
0.0
 40
0.1304698364917213
 40
0.2435530191724092
 40
0.4202610833918047
 40
0.6278468604377302
 40
0.8694819765484789
 40
0.8694819765484789
 40
0.8694819765484789
 40
0.8694819765484789
 10
11.66169750825063
 20
4.783826277824007
 30
0.0
 10
11.70340616757758
 20
4.7713966247946
 30
0.0
 10
11.77970201152623
 20
4.743457204000701
 30
0.0
 10
11.90659477730532
 20
4.683726923589577
 30
0.0
 10
12.03670647723832
 20
4.57595229169721
 30
0.0
 10
12.12943297076464
 20
4.384241796743362
 30
0.0
 10
12.15618325965924
 20
4.237042246938568
 30
0.0
 10
12.1657993839105
 20
4.156803872298362
 30
0.0
  0
SPLINE
  5
1EA
330
1F
100
AcDbEntity
  8
Make2D visible lines - Tangent
100
AcDbSpline
210
0.0
220
0.0
230
1.0
 70
    12
 71
     2
 72
    62
 73
    59
 74
     0
 42
0.0000000001
 43
0.0000000001
 40
0.0
 40
0.0
 40
0.0
 40
0.5951612262701652
 40
0.5951612262701652
 40
1.136271914371296
 40
1.136271914371296
 40
1.628892629194652
 40
1.628892629194652
 40
2.078584755984497
 40
2.078584755984497
 40
2.490909357037769
 40
2.490909357037769
 40
2.871427336197556
 40
2.871427336197556
 40
3.225699575272315
 40
3.225699575272315
 40
3.559287048594487
 40
3.559287048594487
 40
3.877750923729905
 40
3.877750923729905
 40
4.187063172131393
 40
4.187063172131393
 40
4.498059089899636
 40
4.498059089899636
 40
4.834928755310043
 40
4.834928755310043
 40
5.221255839049146
 40
5.221255839049146
 40
5.647727922597271
 40
5.647727922597271
 40
6.085052402856194
 40
6.085052402856194
 40
6.488955408981431
 40
6.488955408981431
 40
6.844981922201951
 40
6.844981922201951
 40
7.158509595040932
 40
7.158509595040932
 40
7.438403270893588
 40
7.438403270893588
 40
7.693331252177657
 40
7.693331252177657
 40
7.926348360459921
 40
7.926348360459921
 40
8.136560569415305
 40
8.136560569415305
 40
8.339895092427948
 40
8.339895092427948
 40
8.55259838424204
 40
8.55259838424204
 40
8.781545330664224
 40
8.781545330664224
 40
9.033396055488625
 40
9.033396055488625
 40
9.313618316989823
 40
9.313618316989823
 40
9.62470543009556
 40
9.62470543009556
 40
9.968678105622077
 40
9.968678105622077
 40
9.968678105622077
 10
2.158143793339022
 20
7.794655549351875
 30
0.0
 41
1.0
 10
2.442608064191792
 20
7.705681488674279
 30
0.0
 41
0.9999999999194691
 10
2.726622598753602
 20
7.616856011019086
 30
0.0
 41
1.0
 10
2.984844054651949
 20
7.536097891207165
 30
0.0
 41
0.9999999999277216
 10
3.243063568535371
 20
7.455333562132386
 30
0.0
 41
1.0
 10
3.478143496074718
 20
7.381806560990918
 30
0.0
 41
0.9999999992562242
 10
3.713217751218764
 20
7.30826142656967
 30
0.0
 41
1.0
 10
3.927806869165034
 20
7.241125275268133
 30
0.0
 41
0.999999998094429
 10
4.142387696249063
 20
7.173962629395636
 30
0.0
 41
1.0
 10
4.339137746895537
 20
7.112380879473444
 30
0.0
 41
0.9999999965679425
 10
4.535877590750719
 20
7.050766528930877
 30
0.0
 41
1.0
 10
4.717440961694956
 20
6.993905068366349
 30
0.0
 41
0.9999999948160331
 10
4.898992749259655
 20
6.937006634308668
 30
0.0
 41
1.0
 10
5.068022228820987
 20
6.884032676718238
 30
0.0
 41
0.9999999928584481
 10
5.237039041512872
 20
6.831018318559222
 30
0.0
 41
1.0
 10
5.396187528464658
 20
6.78109928373282
 30
0.0
 41
0.9999999906266546
 10
5.555322339765231
 20
6.731136670016019
 30
0.0
 41
1.0
 10
5.707242581770573
 20
6.683439181420591
 30
0.0
 41
0.999999987939692
 10
5.859148000831589
 20
6.635694506228874
 30
0.0
 41
1.0
 10
6.006688156765348
 20
6.589321888919443
 30
0.0
 41
0.999999984438125
 10
6.154211941471269
 20
6.54289721665211
 30
0.0
 41
1.0
 10
6.30253876370144
 20
6.496219923394506
 30
0.0
 41
0.9999999788574961
 10
6.450846376586884
 20
6.449481632251487
 30
0.0
 41
1.0
 10
6.611492731736531
 20
6.398855130211764
 30
0.0
 41
0.9999999666055444
 10
6.772112898057057
 20
6.348145601493673
 30
0.0
 41
1.0
 10
6.956314656867779
 20
6.289991762656715
 30
0.0
 41
0.9999999394395688
 10
7.140475893170578
 20
6.231709724567201
 30
0.0
 41
1.0
 10
7.343774415538602
 20
6.167372125484139
 30
0.0
 41
0.9999998954029852
 10
7.547013999736977
 20
6.102848585069348
 30
0.0
 41
1.0
 10
7.755425617791817
 20
6.036683769948715
 30
0.0
 41
0.999999842484512
 10
7.963762831076662
 20
5.9702850435987
 30
0.0
 41
1.0
 10
8.15617828637495
 20
5.908960396897075
 30
0.0
 41
0.9999998135043583
 10
8.348518692534107
 20
5.847400768167861
 30
0.0
 41
1.0
 10
8.51806008943158
 20
5.793138050819505
 30
0.0
 41
0.9999998052859095
 10
8.687533629888456
 20
5.738663773945037
 30
0.0
 41
1.0
 10
8.836776517382217
 20
5.690690169084578
 30
0.0
 41
0.9999998223239517
 10
8.985962103330408
 20
5.642538666760334
 30
0.0
 41
1.0
 10
9.119142234773443
 20
5.599548288361421
 30
0.0
 41
0.9999999004159054
 10
9.252283941452138
 20
5.556439055142188
 30
0.0
 41
1.0
 10
9.373549972373134
 20
5.517175594991264
 30
0.0
 41
0.9999999700882024
 10
9.494796781994378
 20
5.477852818957023
 30
0.0
 41
1.0
 10
9.60562252812922
 20
5.441909847007225
 30
0.0
 41
0.9999999971886839
 10
9.71644288270705
 20
5.405950255099138
 30
0.0
 41
1.0
 10
9.81641758962266
 20
5.373510291927781
 30
0.0
 41
0.999999997627236
 10
9.91639676502436
 20
5.341084103138391
 30
0.0
 41
1.0
 10
10.01310485996436
 20
5.309718888307486
 30
0.0
 41
0.9999999806906933
 10
10.10982527497967
 20
5.278391685311176
 30
0.0
 41
1.0
 10
10.21100208098562
 20
5.245620853605682
 30
0.0
 41
0.9999999405142294
 10
10.31220146971095
 20
5.212919826009333
 30
0.0
 41
1.0
 10
10.42112912654544
 20
5.177721188567274
 30
0.0
 41
0.9999998607950831
 10
10.53009386752975
 20
5.142637521092888
 30
0.0
 41
1.0
 10
10.64995928755164
 20
5.104043686683281
 30
0.0
 41
0.999999712773409
 10
10.76988307244875
 20
5.065631595000963
 30
0.0
 41
1.0
 10
10.90331639133052
 20
5.022891769801185
 30
0.0
 41
0.9999994542204448
 10
11.03683872602879
 20
4.980430853859133
 30
0.0
 41
1.0
 10
11.18506756869728
 20
4.933292341720862
 30
0.0
 41
0.9999990346608162
 10
11.33342683568717
 20
4.886565935656706
 30
0.0
 41
1.0
 10
11.49746899631448
 20
4.834898394684561
 30
0.0
 41
0.9999983550314561
 10
11.66169750825063
 20
4.783826277824007
 30
0.0
 41
1.0
  0
SPLINE
  5
1EB
330
1F
100
AcDbEntity
  8
Make2D visible lines - Tangent
100
AcDbSpline
210
0.0
220
0.0
230
1.0
 70
     8
 71
     3
 72
    13
 73
     9
 74
     0
 42
0.0000000001
 43
0.0000000001
 40
-6.0
 40
-6.0
 40
-6.0
 40
-6.0
 40
-5.0
 40
-4.0
 40
-3.0
 40
-2.0
 40
-1.0
 40
0.0
 40
0.0
 40
0.0
 40
0.0
 10
0.8635623319785317
 20
7.832174001357371
 30
0.0
 10
0.8832629534820493
 20
7.913030837344492
 30
0.0
 10
1.038424830779653
 20
7.975058838429161
 30
0.0
 10
1.264431436394866
 20
7.976721799147452
 30
0.0
 10
1.493054340031115
 20
7.958407677113603
 30
0.0
 10
1.717880208665415
 20
7.917917041861055
 30
0.0
 10
1.940340046065335
 20
7.865379628030172
 30
0.0
 10
2.085160826956104
 20
7.817910634708359
 30
0.0
 10
2.158143793339022
 20
7.794655549351875
 30
0.0
  0
SPLINE
  5
1EC
330
1F
100
AcDbEntity
  8
Default
100
AcDbSpline
210
0.0
220
0.0
230
1.0
 70
     8
 71
     3
 72
    11
 73
     7
 74
     0
 42
0.0000000001
 43
0.0000000001
 40
0.0
 40
0.0
 40
0.0
 40
0.0
 40
0.228878354841985
 40
0.3827236574931573
 40
0.6319093170913446
 40
0.9898010798300454
 40
0.9898010798300454
 40
0.9898010798300454
 40
0.9898010798300454
 10
-8.241389618502469
 20
3.916889492095661
 30
0.0
 10
-8.241214198833202
 20
3.993207399787008
 30
0.0
 10
-8.242451954152632
 20
4.187698326034921
 30
0.0
 10
-8.233807845430743
 20
4.398374097003265
 30
0.0
 10
-8.211633502104563
 20
4.65093901701495
 30
0.0
 10
-8.13181407216582
 20
4.844045469234842
 30
0.0
 10
-8.043873814521602
 20
4.927587509484363
 30
0.0
  0
SPLINE
  5
1ED
330
1F
100
AcDbEntity
  8
Default
100
AcDbSpline
210
0.0
220
0.0
230
1.0
 70
    12
 71
     2
 72
    20
 73
    17
 74
     0
 42
0.0000000001
 43
0.0000000001
 40
-0.6326102639687782
 40
-0.6326102639687782
 40
-0.6326102639687782
 40
0.0
 40
0.0
 40
6.228803922046562
 40
6.228803922046562
 40
6.754706867413238
 40
6.754706867413238
 40
7.584796540661103
 40
7.584796540661103
 40
7.703003709330384
 40
7.703003709330384
 40
8.499385155016927
 40
8.499385155016927
 40
8.623796281411327
 40
8.623796281411327
 40
9.597371973369967
 40
9.597371973369967
 40
9.597371973369967
 10
-0.9438609265747562
 20
6.14101595586913
 30
0.0
 41
1.0
 10
-1.065086968590619
 20
6.104792871039255
 30
0.0
 41
0.9999984060425278
 10
-1.186182887245785
 20
6.068137126298687
 30
0.0
 41
1.0
 10
-4.167013164343453
 20
5.165839551239184
 30
0.0
 41
1.0
 10
-7.147843441440994
 20
4.263541976179532
 30
0.0
 41
1.0
 10
-7.178477423963689
 20
3.980986512942001
 30
0.0
 41
0.9999456278703327
 10
-7.202352052086557
 20
3.719111557839135
 30
0.0
 41
1.0
 10
-7.240034906492118
 20
3.305777546736683
 30
0.0
 41
0.9999878711153075
 10
-7.276775939604869
 20
2.870612511194787
 30
0.0
 41
1.0
 10
-7.283612796476036
 20
2.797668167934844
 30
0.0
 41
0.7395367103834682
 10
-7.356465195436672
 20
2.797628025153174
 30
0.0
 41
1.0
 10
-7.754655918279944
 20
2.797628025153174
 30
0.0
 41
1.0
 10
-8.152846641123217
 20
2.797628025153175
 30
0.0
 41
1.0
 10
-8.231603765984516
 20
2.797628025153173
 30
0.0
 41
0.7126207291208112
 10
-8.232836835348369
 20
2.876375496581545
 30
0.0
 41
1.0
 10
-8.2425085347806
 20
3.430094883574336
 30
0.0
 41
0.9999751998217252
 10
-8.24138961850247
 20
3.916889492095661
 30
0.0
 41
1.0
  0
POLYLINE
  5
1EE
330
1F
100
AcDbEntity
  8
Default
100
AcDb2dPolyline
 66
     1
 10
0.0
 20
0.0
 30
0.0
  0
VERTEX
  5
1EF
330
1EE
100
AcDbEntity
  8
Default
100
AcDbVertex
100
AcDb2dVertex
 10
-8.070902693170938
 20
4.15680387229849
 30
0.0
  0
VERTEX
  5
1F0
330
1EE
100
AcDbEntity
  8
Default
100
AcDbVertex
100
AcDb2dVertex
 10
-8.05476649461631
 20
2.87167372634142
 30
0.0
  0
SEQEND
  5
1F1
330
1EE
100
AcDbEntity
  8
Default
  0
SPLINE
  5
1F2
330
1F
100
AcDbEntity
  8
Default
100
AcDbSpline
210
0.0
220
0.0
230
1.0
 70
     8
 71
     3
 72
    12
 73
     8
 74
     0
 42
0.0000000001
 43
0.0000000001
 40
0.0
 40
0.0
 40
0.0
 40
0.0
 40
0.0777114771405163
 40
0.1546564840546772
 40
0.2981583361660409
 40
0.4868813327676616
 40
0.7234304532672331
 40
0.7234304532672331
 40
0.7234304532672331
 40
0.7234304532672331
 10
-7.807965034187042
 20
4.783826277823792
 30
0.0
 10
-7.831348085511774
 20
4.772093177813985
 30
0.0
 10
-7.874649905167666
 20
4.745112321160113
 30
0.0
 10
-7.953578759955768
 20
4.682740548549261
 30
0.0
 10
-8.0268752109716
 20
4.564931511059648
 30
0.0
 10
-8.064946641484894
 20
4.376998626768121
 30
0.0
 10
-8.071113533999657
 20
4.235915961513516
 30
0.0
 10
-8.070902693170938
 20
4.15680387229849
 30
0.0
  0
SPLINE
  5
1F3
330
1F
100
AcDbEntity
  8
Default
100
AcDbSpline
210
0.0
220
0.0
230
1.0
 70
    12
 71
     2
 72
    12
 73
     9
 74
     0
 42
0.0000000001
 43
0.0000000001
 40
0.0
 40
0.0
 40
0.0
 40
0.0219657447765961
 40
0.0219657447765961
 40
0.2012253551878538
 40
0.2012253551878538
 40
0.4000652492478786
 40
0.4000652492478786
 40
0.6196896136585456
 40
0.6196896136585456
 40
0.6196896136585456
 10
-7.26153750007358
 20
5.076104519010691
 30
0.0
 41
1.0
 10
-7.271190769317454
 20
5.070866400916445
 30
0.0
 41
0.9999999852867707
 10
-7.280845835101607
 20
5.065631595001451
 30
0.0
 41
1.0
 10
-7.359637475099938
 20
5.022906979825041
 30
0.0
 41
0.9999987588496051
 10
-7.438563351709399
 20
4.980430853859654
 30
0.0
 41
1.0
 10
-7.526109863635275
 20
4.933314368762272
 30
0.0
 41
0.9999977956929498
 10
-7.613853461239591
 20
4.886565935657295
 30
0.0
 41
1.0
 10
-7.710768092496584
 20
4.834929414581666
 30
0.0
 41
0.9999962247547252
 10
-7.807965034187042
 20
4.783826277823792
 30
0.0
 41
1.0
  0
SPLINE
  5
1F4
330
1F
100
AcDbEntity
  8
Default
100
AcDbSpline
210
0.0
220
0.0
230
1.0
 70
     8
 71
     3
 72
    11
 73
     7
 74
     0
 42
0.0000000001
 43
0.0000000001
 40
0.0
 40
0.0
 40
0.0
 40
0.0
 40
0.228878354841985
 40
0.3827236574931573
 40
0.6319093170913446
 40
0.9898010798300454
 40
0.9898010798300454
 40
0.9898010798300454
 40
0.9898010798300454
 10
8.24138961855249
 20
3.916889492095661
 30
0.0
 10
8.241214198883224
 20
3.993207399787008
 30
0.0
 10
8.242451954202654
 20
4.187698326034921
 30
0.0
 10
8.233807845480765
 20
4.398374097003265
 30
0.0
 10
8.211633502154585
 20
4.65093901701495
 30
0.0
 10
8.131814072215843
 20
4.844045469234842
 30
0.0
 10
8.043873814571624
 20
4.927587509484363
 30
0.0
  0
SPLINE
  5
1F5
330
1F
100
AcDbEntity
  8
Default
100
AcDbSpline
210
0.0
220
0.0
230
1.0
 70
    12
 71
     2
 72
    20
 73
    17
 74
     0
 42
0.0000000001
 43
0.0000000001
 40
-0.6326102639687782
 40
-0.6326102639687782
 40
-0.6326102639687782
 40
0.0
 40
0.0
 40
6.228803922046562
 40
6.228803922046562
 40
6.754706867413238
 40
6.754706867413238
 40
7.584796540661103
 40
7.584796540661103
 40
7.703003709330384
 40
7.703003709330384
 40
8.499385155016927
 40
8.499385155016927
 40
8.623796281411327
 40
8.623796281411327
 40
9.597371973369967
 40
9.597371973369967
 40
9.597371973369967
 10
0.9438609266247784
 20
6.14101595586913
 30
0.0
 41
1.0
 10
1.065086968640641
 20
6.104792871039255
 30
0.0
 41
0.9999984060425278
 10
1.186182887295807
 20
6.068137126298687
 30
0.0
 41
1.0
 10
4.167013164393476
 20
5.165839551239184
 30
0.0
 41
1.0
 10
7.147843441491016
 20
4.263541976179532
 30
0.0
 41
1.0
 10
7.17847742401371
 20
3.980986512942001
 30
0.0
 41
0.9999456278703327
 10
7.202352052136579
 20
3.719111557839135
 30
0.0
 41
1.0
 10
7.240034906542141
 20
3.305777546736683
 30
0.0
 41
0.9999878711153075
 10
7.276775939654891
 20
2.870612511194787
 30
0.0
 41
1.0
 10
7.283612796526057
 20
2.797668167934844
 30
0.0
 41
0.7395367103834682
 10
7.356465195486694
 20
2.797628025153174
 30
0.0
 41
1.0
 10
7.754655918329966
 20
2.797628025153174
 30
0.0
 41
1.0
 10
8.15284664117324
 20
2.797628025153175
 30
0.0
 41
1.0
 10
8.231603766034537
 20
2.797628025153173
 30
0.0
 41
0.7126207291208112
 10
8.232836835398391
 20
2.876375496581545
 30
0.0
 41
1.0
 10
8.242508534830623
 20
3.430094883574336
 30
0.0
 41
0.9999751998217252
 10
8.241389618552493
 20
3.916889492095661
 30
0.0
 41
1.0
  0
POLYLINE
  5
1F6
330
1F
100
AcDbEntity
  8
Default
100
AcDb2dPolyline
 66
     1
 10
0.0
 20
0.0
 30
0.0
  0
VERTEX
  5
1F7
330
1F6
100
AcDbEntity
  8
Default
100
AcDbVertex
100
AcDb2dVertex
 10
8.07090269322096
 20
4.15680387229849
 30
0.0
  0
VERTEX
  5
1F8
330
1F6
100
AcDbEntity
  8
Default
100
AcDbVertex
100
AcDb2dVertex
 10
8.054766494666332
 20
2.87167372634142
 30
0.0
  0
SEQEND
  5
1F9
330
1F6
100
AcDbEntity
  8
Default
  0
SPLINE
  5
1FA
330
1F
100
AcDbEntity
  8
Default
100
AcDbSpline
210
0.0
220
0.0
230
1.0
 70
     8
 71
     3
 72
    12
 73
     8
 74
     0
 42
0.0000000001
 43
0.0000000001
 40
0.0
 40
0.0
 40
0.0
 40
0.0
 40
0.0777114771405163
 40
0.1546564840546772
 40
0.2981583361660409
 40
0.4868813327676616
 40
0.7234304532672331
 40
0.7234304532672331
 40
0.7234304532672331
 40
0.7234304532672331
 10
7.807965034237064
 20
4.783826277823792
 30
0.0
 10
7.831348085561796
 20
4.772093177813985
 30
0.0
 10
7.874649905217688
 20
4.745112321160113
 30
0.0
 10
7.95357876000579
 20
4.682740548549261
 30
0.0
 10
8.026875211021622
 20
4.564931511059648
 30
0.0
 10
8.064946641534917
 20
4.376998626768121
 30
0.0
 10
8.07111353404968
 20
4.235915961513516
 30
0.0
 10
8.07090269322096
 20
4.15680387229849
 30
0.0
  0
SPLINE
  5
1FB
330
1F
100
AcDbEntity
  8
Default
100
AcDbSpline
210
0.0
220
0.0
230
1.0
 70
    12
 71
     2
 72
    12
 73
     9
 74
     0
 42
0.0000000001
 43
0.0000000001
 40
0.0
 40
0.0
 40
0.0
 40
0.0219657447765961
 40
0.0219657447765961
 40
0.2012253551878538
 40
0.2012253551878538
 40
0.4000652492478786
 40
0.4000652492478786
 40
0.6196896136585456
 40
0.6196896136585456
 40
0.6196896136585456
 10
7.261537500123602
 20
5.076104519010691
 30
0.0
 41
1.0
 10
7.271190769367476
 20
5.070866400916445
 30
0.0
 41
0.9999999852867707
 10
7.280845835151629
 20
5.065631595001451
 30
0.0
 41
1.0
 10
7.359637475149962
 20
5.022906979825041
 30
0.0
 41
0.9999987588496051
 10
7.438563351759421
 20
4.980430853859654
 30
0.0
 41
1.0
 10
7.526109863685297
 20
4.933314368762272
 30
0.0
 41
0.9999977956929498
 10
7.613853461289613
 20
4.886565935657295
 30
0.0
 41
1.0
 10
7.710768092546605
 20
4.834929414581666
 30
0.0
 41
0.9999962247547252
 10
7.807965034237064
 20
4.783826277823792
 30
0.0
 41
1.0
  0
SPLINE
  5
1FC
330
1F
100
AcDbEntity
  8
Make2D visible lines
100
AcDbSpline
210
0.0
220
0.0
230
1.0
 70
    24
 71
     2
 72
     6
 73
     3
 74
     0
 42
0.0000000001
 43
0.0000000001
 40
0.0
 40
0.0
 40
0.0
 40
1.553604462126479
 40
1.553604462126479
 40
1.553604462126479
 10
-0.9071625291074508
 20
4.679109380498559
 30
0.0
 10
-0.9266571173787703
 20
5.455690071888947
 30
0.0
 10
-0.9461517056500899
 20
6.232270763279335
 30
0.0
  0
SPLINE
  5
1FD
330
1F
100
AcDbEntity
  8
Make2D visible lines
100
AcDbSpline
210
0.0
220
0.0
230
1.0
 70
    12
 71
     2
 72
     6
 73
     3
 74
     0
 42
0.0000000001
 43
0.0000000001
 40
-0.3807238837486256
 40
-0.3807238837486256
 40
-0.3807238837486256
 40
0.0
 40
0.0
 40
0.0
 10
-0.875984251943497
 20
4.299628025151854
 30
0.0
 41
1.0
 10
-0.8891887610915465
 20
4.489541491497635
 30
0.0
 41
0.999921053373171
 10
-0.9071625291074508
 20
4.679109380498559
 30
0.0
 41
1.0
  0
SPLINE
  5
1FE
330
1F
100
AcDbEntity
  8
Make2D visible lines
100
AcDbSpline
210
0.0
220
0.0
230
1.0
 70
    24
 71
     2
 72
     6
 73
     3
 74
     0
 42
0.0000000001
 43
0.0000000001
 40
0.0
 40
0.0
 40
0.0
 40
1.726999521608466
 40
1.726999521608466
 40
1.726999521608466
 10
-0.8759842519434926
 20
2.572628503543388
 30
0.0
 10
-0.8759842519434948
 20
3.436128264347621
 30
0.0
 10
-0.875984251943497
 20
4.299628025151854
 30
0.0
  0
SPLINE
  5
1FF
330
1F
100
AcDbEntity
  8
Make2D visible lines
100
AcDbSpline
210
0.0
220
0.0
230
1.0
 70
    24
 71
     2
 72
     6
 73
     3
 74
     0
 42
0.0000000001
 43
0.0000000001
 40
0.0
 40
0.0
 40
0.0
 40
1.553604462126479
 40
1.553604462126479
 40
1.553604462126479
 10
0.907162529157473
 20
4.679109380498559
 30
0.0
 10
0.9266571174287925
 20
5.455690071888947
 30
0.0
 10
0.9461517057001121
 20
6.232270763279335
 30
0.0
  0
SPLINE
  5
200
330
1F
100
AcDbEntity
  8
Make2D visible lines
100
AcDbSpline
210
0.0
220
0.0
230
1.0
 70
    12
 71
     2
 72
     6
 73
     3
 74
     0
 42
0.0000000001
 43
0.0000000001
 40
-0.3807238837486256
 40
-0.3807238837486256
 40
-0.3807238837486256
 40
0.0
 40
0.0
 40
0.0
 10
0.8759842519935193
 20
4.299628025151854
 30
0.0
 41
1.0
 10
0.8891887611415688
 20
4.489541491497635
 30
0.0
 41
0.999921053373171
 10
0.907162529157473
 20
4.679109380498559
 30
0.0
 41
1.0
  0
SPLINE
  5
201
330
1F
100
AcDbEntity
  8
Make2D visible lines
100
AcDbSpline
210
0.0
220
0.0
230
1.0
 70
    24
 71
     2
 72
     6
 73
     3
 74
     0
 42
0.0000000001
 43
0.0000000001
 40
0.0
 40
0.0
 40
0.0
 40
1.726999521608466
 40
1.726999521608466
 40
1.726999521608466
 10
0.8759842519935148
 20
2.572628503543388
 30
0.0
 10
0.875984251993517
 20
3.436128264347621
 30
0.0
 10
0.8759842519935193
 20
4.299628025151854
 30
0.0
  0
SPLINE
  5
202
330
1F
100
AcDbEntity
  8
Default
100
AcDbSpline
210
0.0
220
0.0
230
1.0
 70
     8
 71
     3
 72
     8
 73
     4
 74
     0
 42
0.0000000001
 43
0.0000000001
 40
0.0
 40
0.0
 40
0.0
 40
0.0
 40
1.0
 40
1.0
 40
1.0
 40
1.0
 10
-0.5279388112998049
 20
3.983873157277311
 30
0.0
 10
-0.2488444139697877
 20
4.261284549453076
 30
0.0
 10
0.2488443747854356
 20
4.261284572184374
 30
0.0
 10
0.5279388029674408
 20
3.983873157277311
 30
0.0
  0
SPLINE
  5
203
330
1F
100
AcDbEntity
  8
Make2D visible lines
100
AcDbSpline
210
0.0
220
0.0
230
1.0
 70
    24
 71
     2
 72
     6
 73
     3
 74
     0
 42
0.0000000001
 43
0.0000000001
 40
-0.71875
 40
-0.71875
 40
-0.71875
 40
0.0
 40
0.0
 40
0.0
 10
-12.17562608009499
 20
2.697628025151856
 30
0.0
 10
-12.53500108009499
 20
2.697628025151856
 30
0.0
 10
-12.89437608009499
 20
2.697628025151856
 30
0.0
  0
LINE
  5
204
330
1F
100
AcDbEntity
  8
Make2D visible lines
100
AcDbLine
 10
-12.17562608009499
 20
0.9801280251518545
 30
0.0
 11
-12.17562608009499
 21
2.697628025151856
 31
0.0
  0
SPLINE
  5
205
330
1F
100
AcDbEntity
  8
Make2D visible lines
100
AcDbSpline
210
0.0
220
0.0
230
1.0
 70
    24
 71
     2
 72
     6
 73
     3
 74
     0
 42
0.0000000001
 43
0.0000000001
 40
-0.71875
 40
-0.71875
 40
-0.71875
 40
0.0
 40
0.0
 40
0.0
 10
-12.89437608009499
 20
0.9801280251518545
 30
0.0
 10
-12.53500108009499
 20
0.9801280251518545
 30
0.0
 10
-12.17562608009499
 20
0.9801280251518545
 30
0.0
  0
LINE
  5
206
330
1F
100
AcDbEntity
  8
Make2D visible lines
100
AcDbLine
 10
-12.89437608009499
 20
2.697628025151856
 30
0.0
 11
-12.89437608009499
 21
0.9801280251518545
 31
0.0
  0
SPLINE
  5
207
330
1F
100
AcDbEntity
  8
Make2D visible lines
100
AcDbSpline
210
0.0
220
0.0
230
1.0
 70
    12
 71
     2
 72
     6
 73
     3
 74
     0
 42
0.0000000001
 43
0.0000000001
 40
0.0
 40
0.0
 40
0.0
 40
0.196349540849361
 40
0.196349540849361
 40
0.196349540849361
 10
-11.78500108009499
 20
0.1376280251518551
 30
0.0
 41
1.0
 10
-11.66000108009499
 20
0.1376280251518551
 30
0.0
 41
0.7071067811865408
 10
-11.66000108009499
 20
0.2626280251518551
 30
0.0
 41
1.0
  0
SPLINE
  5
208
330
1F
100
AcDbEntity
  8
Make2D visible lines
100
AcDbSpline
210
0.0
220
0.0
230
1.0
 70
    24
 71
     2
 72
     6
 73
     3
 74
     0
 42
0.0000000001
 43
0.0000000001
 40
-0.34375
 40
-0.34375
 40
-0.34375
 40
0.0
 40
0.0
 40
0.0
 10
-12.12875108009499
 20
0.1376280251518551
 30
0.0
 10
-11.95687608009499
 20
0.1376280251518551
 30
0.0
 10
-11.78500108009499
 20
0.1376280251518551
 30
0.0
  0
SPLINE
  5
209
330
1F
100
AcDbEntity
  8
Make2D visible lines
100
AcDbSpline
210
0.0
220
0.0
230
1.0
 70
    12
 71
     2
 72
     8
 73
     5
 74
     0
 42
0.0000000001
 43
0.0000000001
 40
0.0
 40
0.0
 40
0.0
 40
0.0245437074331536
 40
0.0245437074331536
 40
0.0490874148663662
 40
0.0490874148663662
 40
0.0490874148663662
 10
-12.16000108009499
 20
0.1714037086807126
 30
0.0
 41
1.0
 10
-12.1600010923781
 20
0.1559338722962577
 30
0.0
 41
0.9238794417268615
 10
-12.15084817749139
 20
0.1467809487240501
 30
0.0
 41
1.0
 10
-12.14169526260462
 20
0.1376280251518696
 30
0.0
 41
0.92387944172725
 10
-12.12875108009499
 20
0.1376280251518551
 30
0.0
 41
1.0
  0
SPLINE
  5
20A
330
1F
100
AcDbEntity
  8
Make2D visible lines
100
AcDbSpline
210
0.0
220
0.0
230
1.0
 70
    24
 71
     2
 72
     6
 73
     3
 74
     0
 42
0.0000000001
 43
0.0000000001
 40
0.0
 40
0.0
 40
0.0
 40
2.492448632942286
 40
2.492448632942286
 40
2.492448632942286
 10
-12.16000108009499
 20
2.666377995497855
 30
0.0
 10
-12.16000108009499
 20
1.418890852089284
 30
0.0
 10
-12.16000108009499
 20
0.1714037086807126
 30
0.0
  0
SPLINE
  5
20B
330
1F
100
AcDbEntity
  8
Make2D visible lines
100
AcDbSpline
210
0.0
220
0.0
230
1.0
 70
    12
 71
     2
 72
     8
 73
     5
 74
     0
 42
0.0000000001
 43
0.0000000001
 40
0.0
 40
0.0
 40
0.0
 40
0.0245437074332097
 40
0.0245437074332097
 40
0.0490874148663679
 40
0.0490874148663679
 40
0.0490874148663679
 10
-12.12875108009499
 20
2.697628025151856
 30
0.0
 41
1.0
 10
-12.14169526260462
 20
2.697628025151841
 30
0.0
 41
0.923879441727346
 10
-12.15084817749139
 20
2.688475101579666
 30
0.0
 41
1.0
 10
-12.16000109237809
 20
2.679322178007455
 30
0.0
 41
0.9238794417269129
 10
-12.16000108009499
 20
2.666377995497855
 30
0.0
 41
1.0
  0
SPLINE
  5
20C
330
1F
100
AcDbEntity
  8
Make2D visible lines
100
AcDbSpline
210
0.0
220
0.0
230
1.0
 70
    24
 71
     2
 72
     6
 73
     3
 74
     0
 42
0.0000000001
 43
0.0000000001
 40
-0.34375
 40
-0.34375
 40
-0.34375
 40
0.0
 40
0.0
 40
0.0
 10
-11.78500108009499
 20
2.697628025151856
 30
0.0
 10
-11.95687608009499
 20
2.697628025151856
 30
0.0
 10
-12.12875108009499
 20
2.697628025151856
 30
0.0
  0
SPLINE
  5
20D
330
1F
100
AcDbEntity
  8
Make2D visible lines
100
AcDbSpline
210
0.0
220
0.0
230
1.0
 70
    12
 71
     2
 72
     6
 73
     3
 74
     0
 42
0.0000000001
 43
0.0000000001
 40
0.0
 40
0.0
 40
0.0
 40
0.1963495408493624
 40
0.1963495408493624
 40
0.1963495408493624
 10
-11.66000108009499
 20
2.570291984875793
 30
0.0
 41
1.0
 10
-11.66000108009499
 20
2.697628025151857
 30
0.0
 41
0.7071067811865318
 10
-11.78500108009499
 20
2.697628025151856
 30
0.0
 41
1.0
  0
SPLINE
  5
20E
330
1F
100
AcDbEntity
  8
Make2D visible lines
100
AcDbSpline
210
0.0
220
0.0
230
1.0
 70
    24
 71
     2
 72
     6
 73
     3
 74
     0
 42
0.0000000001
 43
0.0000000001
 40
0.0
 40
0.0
 40
0.0
 40
2.305327919447875
 40
2.305327919447875
 40
2.305327919447875
 10
-11.66000108009499
 20
0.2626280251518551
 30
0.0
 10
-11.66000108009499
 20
1.416460005013824
 30
0.0
 10
-11.66000108009499
 20
2.570291984875793
 30
0.0
  0
SPLINE
  5
20F
330
1F
100
AcDbEntity
  8
Make2D visible lines
100
AcDbSpline
210
0.0
220
0.0
230
1.0
 70
    24
 71
     2
 72
     6
 73
     3
 74
     0
 42
0.0000000001
 43
0.0000000001
 40
0.0
 40
0.0
 40
0.0
 40
2.305327919447875
 40
2.305327919447875
 40
2.305327919447875
 10
-13.41000108009499
 20
2.572628025151856
 30
0.0
 10
-13.41000108009499
 20
1.418796045289887
 30
0.0
 10
-13.41000108009499
 20
0.2649640654279177
 30
0.0
  0
SPLINE
  5
210
330
1F
100
AcDbEntity
  8
Make2D visible lines
100
AcDbSpline
210
0.0
220
0.0
230
1.0
 70
    12
 71
     2
 72
     6
 73
     3
 74
     0
 42
0.0000000001
 43
0.0000000001
 40
0.0
 40
0.0
 40
0.0
 40
0.1963495408493628
 40
0.1963495408493628
 40
0.1963495408493628
 10
-13.28500108009499
 20
2.697628025151856
 30
0.0
 41
1.0
 10
-13.41000108009499
 20
2.697628025151856
 30
0.0
 41
0.7071067811865535
 10
-13.41000108009499
 20
2.572628025151856
 30
0.0
 41
1.0
  0
SPLINE
  5
211
330
1F
100
AcDbEntity
  8
Make2D visible lines
100
AcDbSpline
210
0.0
220
0.0
230
1.0
 70
    24
 71
     2
 72
     6
 73
     3
 74
     0
 42
0.0000000001
 43
0.0000000001
 40
-0.34375
 40
-0.34375
 40
-0.34375
 40
0.0
 40
0.0
 40
0.0
 10
-12.94125108009499
 20
2.697628025151856
 30
0.0
 10
-13.11312608009499
 20
2.697628025151856
 30
0.0
 10
-13.28500108009499
 20
2.697628025151856
 30
0.0
  0
SPLINE
  5
212
330
1F
100
AcDbEntity
  8
Make2D visible lines
100
AcDbSpline
210
0.0
220
0.0
230
1.0
 70
    12
 71
     2
 72
     8
 73
     5
 74
     0
 42
0.0000000001
 43
0.0000000001
 40
0.0
 40
0.0
 40
0.0
 40
0.0245437074326791
 40
0.0245437074326791
 40
0.0490874148653502
 40
0.0490874148653502
 40
0.0490874148653502
 10
-12.91000108009499
 20
2.663852341623996
 30
0.0
 41
1.0
 10
-12.91000106781229
 20
2.679322178008183
 30
0.0
 41
0.9238794417289465
 10
-12.91915398269899
 20
2.688475101580014
 30
0.0
 41
1.0
 10
-12.92830689758567
 20
2.697628025151847
 30
0.0
 41
0.9238794417298515
 10
-12.94125108009499
 20
2.697628025151856
 30
0.0
 41
1.0
  0
SPLINE
  5
213
330
1F
100
AcDbEntity
  8
Make2D visible lines
100
AcDbSpline
210
0.0
220
0.0
230
1.0
 70
    24
 71
     2
 72
     6
 73
     3
 74
     0
 42
0.0000000001
 43
0.0000000001
 40
0.0
 40
0.0
 40
0.0
 40
2.492448632944281
 40
2.492448632944281
 40
2.492448632944281
 10
-12.91000108009499
 20
0.1688780548048552
 30
0.0
 10
-12.91000108009499
 20
1.416365198214426
 30
0.0
 10
-12.91000108009499
 20
2.663852341623996
 30
0.0
  0
SPLINE
  5
214
330
1F
100
AcDbEntity
  8
Make2D visible lines
100
AcDbSpline
210
0.0
220
0.0
230
1.0
 70
    12
 71
     2
 72
     8
 73
     5
 74
     0
 42
0.0000000001
 43
0.0000000001
 40
0.0
 40
0.0
 40
0.0
 40
0.0245437074326708
 40
0.0245437074326708
 40
0.0490874148653497
 40
0.0490874148653497
 40
0.0490874148653497
 10
-12.94125108009499
 20
0.1376280251518551
 30
0.0
 41
1.0
 10
-12.92830689758567
 20
0.1376280251518653
 30
0.0
 41
0.9238794417298885
 10
-12.91915398269899
 20
0.1467809487236966
 30
0.0
 41
1.0
 10
-12.91000106781229
 20
0.1559338722955282
 30
0.0
 41
0.9238794417289753
 10
-12.91000108009499
 20
0.1688780548048552
 30
0.0
 41
1.0
  0
SPLINE
  5
215
330
1F
100
AcDbEntity
  8
Make2D visible lines
100
AcDbSpline
210
0.0
220
0.0
230
1.0
 70
    24
 71
     2
 72
     6
 73
     3
 74
     0
 42
0.0000000001
 43
0.0000000001
 40
-0.34375
 40
-0.34375
 40
-0.34375
 40
0.0
 40
0.0
 40
0.0
 10
-13.28500108009499
 20
0.1376280251518551
 30
0.0
 10
-13.11312608009499
 20
0.1376280251518551
 30
0.0
 10
-12.94125108009499
 20
0.1376280251518551
 30
0.0
  0
SPLINE
  5
216
330
1F
100
AcDbEntity
  8
Make2D visible lines
100
AcDbSpline
210
0.0
220
0.0
230
1.0
 70
    12
 71
     2
 72
     6
 73
     3
 74
     0
 42
0.0000000001
 43
0.0000000001
 40
0.0
 40
0.0
 40
0.0
 40
0.1963495408493625
 40
0.1963495408493625
 40
0.1963495408493625
 10
-13.41000108009499
 20
0.2649640654279177
 30
0.0
 41
1.0
 10
-13.41000108009499
 20
0.1376280251518551
 30
0.0
 41
0.70710678118656
 10
-13.28500108009499
 20
0.1376280251518551
 30
0.0
 41
1.0
  0
SPLINE
  5
217
330
1F
100
AcDbEntity
  8
Default
100
AcDbSpline
210
0.0
220
0.0
230
1.0
 70
    24
 71
     2
 72
     6
 73
     3
 74
     0
 42
0.0000000001
 43
0.0000000001
 40
0.0
 40
0.0
 40
0.0
 40
0.0829573442459237
 40
0.0829573442459237
 40
0.0829573442459237
 10
-12.17844438409439
 20
2.779590879554846
 30
0.0
 10
-12.18484773209464
 20
2.738609452353345
 30
0.0
 10
-12.19125108009489
 20
2.697628025151845
 30
0.0
  0
POLYLINE
  5
218
330
1F
100
AcDbEntity
  8
Default
100
AcDb2dPolyline
 66
     1
 10
0.0
 20
0.0
 30
0.0
  0
VERTEX
  5
219
330
218
100
AcDbEntity
  8
Default
100
AcDbVertex
100
AcDb2dVertex
 10
-12.89155777609559
 20
2.779590879554846
 30
0.0
  0
VERTEX
  5
21A
330
218
100
AcDbEntity
  8
Default
100
AcDbVertex
100
AcDb2dVertex
 10
-12.17844438409439
 20
2.779590879554846
 30
0.0
  0
SEQEND
  5
21B
330
218
100
AcDbEntity
  8
Default
  0
SPLINE
  5
21C
330
1F
100
AcDbEntity
  8
Default
100
AcDbSpline
210
0.0
220
0.0
230
1.0
 70
    24
 71
     2
 72
     6
 73
     3
 74
     0
 42
0.0000000001
 43
0.0000000001
 40
0.0
 40
0.0
 40
0.0
 40
0.0829573442459237
 40
0.0829573442459237
 40
0.0829573442459237
 10
-12.87875108009509
 20
2.697628025151845
 30
0.0
 10
-12.88515442809534
 20
2.738609452353345
 30
0.0
 10
-12.89155777609559
 20
2.779590879554846
 30
0.0
  0
SPLINE
  5
21D
330
1F
100
AcDbEntity
  8
Make2D visible lines
100
AcDbSpline
210
0.0
220
0.0
230
1.0
 70
    24
 71
     2
 72
     6
 73
     3
 74
     0
 42
0.0000000001
 43
0.0000000001
 40
0.0
 40
0.0
 40
0.0
 40
2.305327919447875
 40
2.305327919447875
 40
2.305327919447875
 10
-8.622056716507991
 20
2.572628025151856
 30
0.0
 10
-8.622056716507991
 20
1.418796045289887
 30
0.0
 10
-8.622056716507991
 20
0.2649640654279177
 30
0.0
  0
SPLINE
  5
21E
330
1F
100
AcDbEntity
  8
Make2D visible lines
100
AcDbSpline
210
0.0
220
0.0
230
1.0
 70
    12
 71
     2
 72
     6
 73
     3
 74
     0
 42
0.0000000001
 43
0.0000000001
 40
0.0
 40
0.0
 40
0.0
 40
0.1963495408493616
 40
0.1963495408493616
 40
0.1963495408493616
 10
-8.497056716507991
 20
2.697628025151856
 30
0.0
 41
1.0
 10
-8.622056716507991
 20
2.697628025151855
 30
0.0
 41
0.707106781186545
 10
-8.622056716507991
 20
2.572628025151856
 30
0.0
 41
1.0
  0
SPLINE
  5
21F
330
1F
100
AcDbEntity
  8
Make2D visible lines
100
AcDbSpline
210
0.0
220
0.0
230
1.0
 70
    24
 71
     2
 72
     6
 73
     3
 74
     0
 42
0.0000000001
 43
0.0000000001
 40
-0.34375
 40
-0.34375
 40
-0.34375
 40
0.0
 40
0.0
 40
0.0
 10
-8.153306716507991
 20
2.697628025151856
 30
0.0
 10
-8.325181716507991
 20
2.697628025151856
 30
0.0
 10
-8.497056716507991
 20
2.697628025151856
 30
0.0
  0
SPLINE
  5
220
330
1F
100
AcDbEntity
  8
Make2D visible lines
100
AcDbSpline
210
0.0
220
0.0
230
1.0
 70
    12
 71
     2
 72
     8
 73
     5
 74
     0
 42
0.0000000001
 43
0.0000000001
 40
0.0
 40
0.0
 40
0.0
 40
0.0245437074326705
 40
0.0245437074326705
 40
0.0490874148653448
 40
0.0490874148653448
 40
0.0490874148653448
 10
-8.122056716507998
 20
2.663852341623996
 30
0.0
 41
1.0
 10
-8.122056704225319
 20
2.679322178008172
 30
0.0
 41
0.9238794417296411
 10
-8.131209619111988
 20
2.688475101580014
 30
0.0
 41
1.0
 10
-8.140362533998667
 20
2.697628025151853
 30
0.0
 41
0.9238794417296741
 10
-8.153306716507991
 20
2.697628025151856
 30
0.0
 41
1.0
  0
SPLINE
  5
221
330
1F
100
AcDbEntity
  8
Make2D visible lines
100
AcDbSpline
210
0.0
220
0.0
230
1.0
 70
    24
 71
     2
 72
     6
 73
     3
 74
     0
 42
0.0000000001
 43
0.0000000001
 40
0.0
 40
0.0
 40
0.0
 40
2.492448632944281
 40
2.492448632944281
 40
2.492448632944281
 10
-8.122056716507998
 20
0.1688780548048552
 30
0.0
 10
-8.122056716507998
 20
1.416365198214426
 30
0.0
 10
-8.122056716507998
 20
2.663852341623996
 30
0.0
  0
SPLINE
  5
222
330
1F
100
AcDbEntity
  8
Make2D visible lines
100
AcDbSpline
210
0.0
220
0.0
230
1.0
 70
    12
 71
     2
 72
     8
 73
     5
 74
     0
 42
0.0000000001
 43
0.0000000001
 40
0.0
 40
0.0
 40
0.0
 40
0.0245437074326741
 40
0.0245437074326741
 40
0.0490874148653442
 40
0.0490874148653442
 40
0.0490874148653442
 10
-8.153306716507991
 20
0.1376280251518551
 30
0.0
 41
1.0
 10
-8.140362533998667
 20
0.1376280251518584
 30
0.0
 41
0.9238794417296992
 10
-8.131209619111988
 20
0.1467809487236965
 30
0.0
 41
1.0
 10
-8.122056704225319
 20
0.1559338722955394
 30
0.0
 41
0.9238794417296726
 10
-8.122056716507998
 20
0.1688780548048552
 30
0.0
 41
1.0
  0
SPLINE
  5
223
330
1F
100
AcDbEntity
  8
Make2D visible lines
100
AcDbSpline
210
0.0
220
0.0
230
1.0
 70
    24
 71
     2
 72
     6
 73
     3
 74
     0
 42
0.0000000001
 43
0.0000000001
 40
-0.34375
 40
-0.34375
 40
-0.34375
 40
0.0
 40
0.0
 40
0.0
 10
-8.497056716507991
 20
0.1376280251518552
 30
0.0
 10
-8.325181716507991
 20
0.1376280251518551
 30
0.0
 10
-8.153306716507991
 20
0.1376280251518551
 30
0.0
  0
SPLINE
  5
224
330
1F
100
AcDbEntity
  8
Make2D visible lines
100
AcDbSpline
210
0.0
220
0.0
230
1.0
 70
    12
 71
     2
 72
     6
 73
     3
 74
     0
 42
0.0000000001
 43
0.0000000001
 40
0.0
 40
0.0
 40
0.0
 40
0.1963495408493624
 40
0.1963495408493624
 40
0.1963495408493624
 10
-8.622056716507991
 20
0.2649640654279177
 30
0.0
 41
1.0
 10
-8.622056716507991
 20
0.1376280251518551
 30
0.0
 41
0.7071067811865427
 10
-8.497056716507991
 20
0.1376280251518552
 30
0.0
 41
1.0
  0
SPLINE
  5
225
330
1F
100
AcDbEntity
  8
Make2D visible lines
100
AcDbSpline
210
0.0
220
0.0
230
1.0
 70
    24
 71
     2
 72
     6
 73
     3
 74
     0
 42
0.0000000001
 43
0.0000000001
 40
0.0
 40
0.0
 40
0.0
 40
0.7187500000000018
 40
0.7187500000000018
 40
0.7187500000000018
 10
-8.106431716507991
 20
2.697628025151856
 30
0.0
 10
-7.74705671650799
 20
2.697628025151856
 30
0.0
 10
-7.387681716507989
 20
2.697628025151856
 30
0.0
  0
LINE
  5
226
330
1F
100
AcDbEntity
  8
Make2D visible lines
100
AcDbLine
 10
-8.106431716507991
 20
0.9801280251518545
 30
0.0
 11
-8.106431716507991
 21
2.697628025151856
 31
0.0
  0
SPLINE
  5
227
330
1F
100
AcDbEntity
  8
Make2D visible lines
100
AcDbSpline
210
0.0
220
0.0
230
1.0
 70
    24
 71
     2
 72
     6
 73
     3
 74
     0
 42
0.0000000001
 43
0.0000000001
 40
0.0
 40
0.0
 40
0.0
 40
0.7187500000000018
 40
0.7187500000000018
 40
0.7187500000000018
 10
-7.387681716507989
 20
0.9801280251518545
 30
0.0
 10
-7.74705671650799
 20
0.9801280251518545
 30
0.0
 10
-8.106431716507991
 20
0.9801280251518545
 30
0.0
  0
LINE
  5
228
330
1F
100
AcDbEntity
  8
Make2D visible lines
100
AcDbLine
 10
-7.387681716507989
 20
2.697628025151856
 30
0.0
 11
-7.387681716507989
 21
0.9801280251518545
 31
0.0
  0
SPLINE
  5
229
330
1F
100
AcDbEntity
  8
Make2D visible lines
100
AcDbSpline
210
0.0
220
0.0
230
1.0
 70
    24
 71
     2
 72
     6
 73
     3
 74
     0
 42
0.0000000001
 43
0.0000000001
 40
-0.34375
 40
-0.34375
 40
-0.34375
 40
0.0
 40
0.0
 40
0.0
 10
-7.340806716507989
 20
0.137628025151855
 30
0.0
 10
-7.168931716507989
 20
0.1376280251518551
 30
0.0
 10
-6.997056716507989
 20
0.1376280251518551
 30
0.0
  0
SPLINE
  5
22A
330
1F
100
AcDbEntity
  8
Make2D visible lines
100
AcDbSpline
210
0.0
220
0.0
230
1.0
 70
    12
 71
     2
 72
     8
 73
     5
 74
     0
 42
0.0000000001
 43
0.0000000001
 40
0.0
 40
0.0
 40
0.0
 40
0.0245437074331706
 40
0.0245437074331706
 40
0.0490874148663432
 40
0.0490874148663432
 40
0.0490874148663432
 10
-7.372056716507982
 20
0.1714037086807126
 30
0.0
 41
1.0
 10
-7.372056728791072
 20
0.1559338722962469
 30
0.0
 41
0.9238794417266645
 10
-7.362903813904341
 20
0.1467809487240501
 30
0.0
 41
1.0
 10
-7.353750899017604
 20
0.1376280251518578
 30
0.0
 41
0.9238794417266113
 10
-7.340806716507989
 20
0.137628025151855
 30
0.0
 41
1.0
  0
SPLINE
  5
22B
330
1F
100
AcDbEntity
  8
Make2D visible lines
100
AcDbSpline
210
0.0
220
0.0
230
1.0
 70
    24
 71
     2
 72
     6
 73
     3
 74
     0
 42
0.0000000001
 43
0.0000000001
 40
0.0
 40
0.0
 40
0.0
 40
2.492448632942286
 40
2.492448632942286
 40
2.492448632942286
 10
-7.372056716507982
 20
2.666377995497855
 30
0.0
 10
-7.372056716507982
 20
1.418890852089284
 30
0.0
 10
-7.372056716507982
 20
0.1714037086807126
 30
0.0
  0
SPLINE
  5
22C
330
1F
100
AcDbEntity
  8
Make2D visible lines
100
AcDbSpline
210
0.0
220
0.0
230
1.0
 70
    12
 71
     2
 72
     8
 73
     5
 74
     0
 42
0.0000000001
 43
0.0000000001
 40
0.0
 40
0.0
 40
0.0
 40
0.0245437074331701
 40
0.0245437074331701
 40
0.0490874148663453
 40
0.0490874148663453
 40
0.0490874148663453
 10
-7.340806716507989
 20
2.697628025151856
 30
0.0
 41
1.0
 10
-7.353750899017605
 20
2.697628025151854
 30
0.0
 41
0.9238794417266487
 10
-7.362903813904341
 20
2.688475101579666
 30
0.0
 41
1.0
 10
-7.372056728791072
 20
2.679322178007466
 30
0.0
 41
0.9238794417267178
 10
-7.372056716507982
 20
2.666377995497855
 30
0.0
 41
1.0
  0
SPLINE
  5
22D
330
1F
100
AcDbEntity
  8
Make2D visible lines
100
AcDbSpline
210
0.0
220
0.0
230
1.0
 70
    24
 71
     2
 72
     6
 73
     3
 74
     0
 42
0.0000000001
 43
0.0000000001
 40
-0.34375
 40
-0.34375
 40
-0.34375
 40
0.0
 40
0.0
 40
0.0
 10
-6.997056716507989
 20
2.697628025151856
 30
0.0
 10
-7.168931716507989
 20
2.697628025151856
 30
0.0
 10
-7.340806716507989
 20
2.697628025151856
 30
0.0
  0
SPLINE
  5
22E
330
1F
100
AcDbEntity
  8
Make2D visible lines
100
AcDbSpline
210
0.0
220
0.0
230
1.0
 70
    12
 71
     2
 72
     6
 73
     3
 74
     0
 42
0.0000000001
 43
0.0000000001
 40
0.0
 40
0.0
 40
0.0
 40
0.196349540849363
 40
0.196349540849363
 40
0.196349540849363
 10
-6.872056716507989
 20
2.570291984875793
 30
0.0
 41
1.0
 10
-6.872056716507987
 20
2.697628025151857
 30
0.0
 41
0.707106781186545
 10
-6.997056716507989
 20
2.697628025151856
 30
0.0
 41
1.0
  0
SPLINE
  5
22F
330
1F
100
AcDbEntity
  8
Make2D visible lines
100
AcDbSpline
210
0.0
220
0.0
230
1.0
 70
    24
 71
     2
 72
     6
 73
     3
 74
     0
 42
0.0000000001
 43
0.0000000001
 40
0.0
 40
0.0
 40
0.0
 40
2.305327919447875
 40
2.305327919447875
 40
2.305327919447875
 10
-6.872056716507989
 20
0.2626280251518551
 30
0.0
 10
-6.872056716507989
 20
1.416460005013824
 30
0.0
 10
-6.872056716507989
 20
2.570291984875793
 30
0.0
  0
SPLINE
  5
230
330
1F
100
AcDbEntity
  8
Make2D visible lines
100
AcDbSpline
210
0.0
220
0.0
230
1.0
 70
    12
 71
     2
 72
     6
 73
     3
 74
     0
 42
0.0000000001
 43
0.0000000001
 40
0.0
 40
0.0
 40
0.0
 40
0.1963495408493627
 40
0.1963495408493627
 40
0.1963495408493627
 10
-6.997056716507989
 20
0.1376280251518551
 30
0.0
 41
1.0
 10
-6.872056716507989
 20
0.1376280251518551
 30
0.0
 41
0.7071067811865437
 10
-6.872056716507989
 20
0.2626280251518551
 30
0.0
 41
1.0
  0
SPLINE
  5
231
330
1F
100
AcDbEntity
  8
Default
100
AcDbSpline
210
0.0
220
0.0
230
1.0
 70
    24
 71
     2
 72
     6
 73
     3
 74
     0
 42
0.0000000001
 43
0.0000000001
 40
0.0
 40
0.0
 40
0.0
 40
0.0829573442459193
 40
0.0829573442459193
 40
0.0829573442459193
 10
-7.390500020507429
 20
2.779590879554846
 30
0.0
 10
-7.396903368507664
 20
2.738609452353345
 30
0.0
 10
-7.4033067165079
 20
2.697628025151845
 30
0.0
  0
POLYLINE
  5
232
330
1F
100
AcDbEntity
  8
Default
100
AcDb2dPolyline
 66
     1
 10
0.0
 20
0.0
 30
0.0
  0
VERTEX
  5
233
330
232
100
AcDbEntity
  8
Default
100
AcDbVertex
100
AcDb2dVertex
 10
-8.103613412508551
 20
2.779590879554846
 30
0.0
  0
VERTEX
  5
234
330
232
100
AcDbEntity
  8
Default
100
AcDbVertex
100
AcDb2dVertex
 10
-7.390500020507429
 20
2.779590879554846
 30
0.0
  0
SEQEND
  5
235
330
232
100
AcDbEntity
  8
Default
  0
SPLINE
  5
236
330
1F
100
AcDbEntity
  8
Default
100
AcDbSpline
210
0.0
220
0.0
230
1.0
 70
    24
 71
     2
 72
     6
 73
     3
 74
     0
 42
0.0000000001
 43
0.0000000001
 40
0.0
 40
0.0
 40
0.0
 40
0.0829573442459193
 40
0.0829573442459193
 40
0.0829573442459193
 10
-8.09080671650808
 20
2.697628025151845
 30
0.0
 10
-8.097210064508316
 20
2.738609452353345
 30
0.0
 10
-8.103613412508551
 20
2.779590879554846
 30
0.0
  0
SPLINE
  5
237
330
1F
100
AcDbEntity
  8
Default
100
AcDbSpline
210
0.0
220
0.0
230
1.0
 70
    24
 71
     2
 72
     6
 73
     3
 74
     0
 42
0.0000000001
 43
0.0000000001
 40
0.0
 40
0.0
 40
0.0
 40
0.0829573442459193
 40
0.0829573442459193
 40
0.0829573442459193
 10
0.3565566960255744
 20
2.779590879554846
 30
0.0
 10
0.3501533480253389
 20
2.738609452353345
 30
0.0
 10
0.3437500000251035
 20
2.697628025151845
 30
0.0
  0
POLYLINE
  5
238
330
1F
100
AcDbEntity
  8
Default
100
AcDb2dPolyline
 66
     1
 10
0.0
 20
0.0
 30
0.0
  0
VERTEX
  5
239
330
238
100
AcDbEntity
  8
Default
100
AcDbVertex
100
AcDb2dVertex
 10
-0.3565566959755522
 20
2.779590879554846
 30
0.0
  0
VERTEX
  5
23A
330
238
100
AcDbEntity
  8
Default
100
AcDbVertex
100
AcDb2dVertex
 10
0.3565566960255744
 20
2.779590879554846
 30
0.0
  0
SEQEND
  5
23B
330
238
100
AcDbEntity
  8
Default
  0
SPLINE
  5
23C
330
1F
100
AcDbEntity
  8
Default
100
AcDbSpline
210
0.0
220
0.0
230
1.0
 70
    24
 71
     2
 72
     6
 73
     3
 74
     0
 42
0.0000000001
 43
0.0000000001
 40
0.0
 40
0.0
 40
0.0
 40
0.0829573442459193
 40
0.0829573442459193
 40
0.0829573442459193
 10
-0.3437499999750813
 20
2.697628025151845
 30
0.0
 10
-0.3501533479753167
 20
2.738609452353345
 30
0.0
 10
-0.3565566959755522
 20
2.779590879554846
 30
0.0
  0
SPLINE
  5
23D
330
1F
100
AcDbEntity
  8
Make2D visible lines
100
AcDbSpline
210
0.0
220
0.0
230
1.0
 70
    24
 71
     2
 72
     6
 73
     3
 74
     0
 42
0.0000000001
 43
0.0000000001
 40
-0.71875
 40
-0.71875
 40
-0.71875
 40
0.0
 40
0.0
 40
0.0
 10
0.3593750000250111
 20
2.697628025151856
 30
0.0
 10
0.0000000000250111
 20
2.697628025151856
 30
0.0
 10
-0.3593749999749889
 20
2.697628025151856
 30
0.0
  0
LINE
  5
23E
330
1F
100
AcDbEntity
  8
Make2D visible lines
100
AcDbLine
 10
0.3593750000250111
 20
0.9801280251518545
 30
0.0
 11
0.3593750000250111
 21
2.697628025151856
 31
0.0
  0
SPLINE
  5
23F
330
1F
100
AcDbEntity
  8
Make2D visible lines
100
AcDbSpline
210
0.0
220
0.0
230
1.0
 70
    24
 71
     2
 72
     6
 73
     3
 74
     0
 42
0.0000000001
 43
0.0000000001
 40
-0.71875
 40
-0.71875
 40
-0.71875
 40
0.0
 40
0.0
 40
0.0
 10
-0.3593749999749889
 20
0.9801280251518545
 30
0.0
 10
0.0000000000250111
 20
0.9801280251518545
 30
0.0
 10
0.3593750000250111
 20
0.9801280251518545
 30
0.0
  0
LINE
  5
240
330
1F
100
AcDbEntity
  8
Make2D visible lines
100
AcDbLine
 10
-0.3593749999749889
 20
2.697628025151856
 30
0.0
 11
-0.3593749999749889
 21
0.9801280251518545
 31
0.0
  0
SPLINE
  5
241
330
1F
100
AcDbEntity
  8
Make2D visible lines
100
AcDbSpline
210
0.0
220
0.0
230
1.0
 70
    24
 71
     2
 72
     6
 73
     3
 74
     0
 42
0.0000000001
 43
0.0000000001
 40
0.0
 40
0.0
 40
0.0
 40
2.305327919447875
 40
2.305327919447875
 40
2.305327919447875
 10
-0.8749999999745297
 20
2.572628265096605
 30
0.0
 10
-0.8749999999747593
 20
1.418796165262261
 30
0.0
 10
-0.8749999999749889
 20
0.2649640654279177
 30
0.0
  0
SPLINE
  5
242
330
1F
100
AcDbEntity
  8
Make2D visible lines
100
AcDbSpline
210
0.0
220
0.0
230
1.0
 70
    12
 71
     2
 72
     6
 73
     3
 74
     0
 42
0.0000000001
 43
0.0000000001
 40
0.0
 40
0.0
 40
0.0
 40
0.1963490609598645
 40
0.1963490609598645
 40
0.1963490609598645
 10
-0.7499999999749889
 20
2.697628025151856
 30
0.0
 41
1.0
 10
-0.874999520086412
 20
2.697628025151856
 30
0.0
 41
0.7071081385177264
 10
-0.8749999999745297
 20
2.572628265096605
 30
0.0
 41
1.0
  0
SPLINE
  5
243
330
1F
100
AcDbEntity
  8
Make2D visible lines
100
AcDbSpline
210
0.0
220
0.0
230
1.0
 70
    24
 71
     2
 72
     6
 73
     3
 74
     0
 42
0.0000000001
 43
0.0000000001
 40
-0.34375
 40
-0.34375
 40
-0.34375
 40
0.0
 40
0.0
 40
0.0
 10
-0.4062499999749889
 20
2.697628025151856
 30
0.0
 10
-0.5781249999749889
 20
2.697628025151856
 30
0.0
 10
-0.7499999999749889
 20
2.697628025151856
 30
0.0
  0
SPLINE
  5
244
330
1F
100
AcDbEntity
  8
Make2D visible lines
100
AcDbSpline
210
0.0
220
0.0
230
1.0
 70
    12
 71
     2
 72
     8
 73
     5
 74
     0
 42
0.0000000001
 43
0.0000000001
 40
0.0
 40
0.0
 40
0.0
 40
0.0245437074326697
 40
0.0245437074326697
 40
0.0490874148653425
 40
0.0490874148653425
 40
0.0490874148653425
 10
-0.3749999999749996
 20
2.663852341623996
 30
0.0
 41
1.0
 10
-0.3749999876923187
 20
2.679322178008171
 30
0.0
 41
0.9238794417296371
 10
-0.3841529025789896
 20
2.688475101580014
 30
0.0
 41
1.0
 10
-0.3933058174656656
 20
2.697628025151853
 30
0.0
 41
0.9238794417296533
 10
-0.4062499999749889
 20
2.697628025151856
 30
0.0
 41
1.0
  0
SPLINE
  5
245
330
1F
100
AcDbEntity
  8
Make2D visible lines
100
AcDbSpline
210
0.0
220
0.0
230
1.0
 70
    24
 71
     2
 72
     6
 73
     3
 74
     0
 42
0.0000000001
 43
0.0000000001
 40
0.0
 40
0.0
 40
0.0
 40
2.492448632944281
 40
2.492448632944281
 40
2.492448632944281
 10
-0.3749999999750004
 20
0.1688780548048552
 30
0.0
 10
-0.374999999975
 20
1.416365198214426
 30
0.0
 10
-0.3749999999749996
 20
2.663852341623996
 30
0.0
  0
SPLINE
  5
246
330
1F
100
AcDbEntity
  8
Make2D visible lines
100
AcDbSpline
210
0.0
220
0.0
230
1.0
 70
    12
 71
     2
 72
     8
 73
     5
 74
     0
 42
0.0000000001
 43
0.0000000001
 40
0.0
 40
0.0
 40
0.0
 40
0.0245437074326725
 40
0.0245437074326725
 40
0.0490874148653418
 40
0.0490874148653418
 40
0.0490874148653418
 10
-0.4062499999749889
 20
0.1376280251518551
 30
0.0
 41
1.0
 10
-0.3933058174656655
 20
0.1376280251518581
 30
0.0
 41
0.9238794417296706
 10
-0.3841529025789896
 20
0.1467809487236968
 30
0.0
 41
1.0
 10
-0.3749999876923217
 20
0.1559338722955398
 30
0.0
 41
0.9238794417296721
 10
-0.3749999999750004
 20
0.1688780548048552
 30
0.0
 41
1.0
  0
SPLINE
  5
247
330
1F
100
AcDbEntity
  8
Make2D visible lines
100
AcDbSpline
210
0.0
220
0.0
230
1.0
 70
    24
 71
     2
 72
     6
 73
     3
 74
     0
 42
0.0000000001
 43
0.0000000001
 40
-0.34375
 40
-0.34375
 40
-0.34375
 40
0.0
 40
0.0
 40
0.0
 10
-0.7499999999749889
 20
0.1376280251518557
 30
0.0
 10
-0.5781249999749889
 20
0.1376280251518554
 30
0.0
 10
-0.4062499999749889
 20
0.1376280251518551
 30
0.0
  0
SPLINE
  5
248
330
1F
100
AcDbEntity
  8
Make2D visible lines
100
AcDbSpline
210
0.0
220
0.0
230
1.0
 70
    12
 71
     2
 72
     6
 73
     3
 74
     0
 42
0.0000000001
 43
0.0000000001
 40
0.0
 40
0.0
 40
0.0
 40
0.1963495408493625
 40
0.1963495408493625
 40
0.1963495408493625
 10
-0.8749999999749889
 20
0.2649640654279177
 30
0.0
 41
1.0
 10
-0.8749999999749906
 20
0.1376280251518527
 30
0.0
 41
0.7071067811865307
 10
-0.7499999999749889
 20
0.1376280251518557
 30
0.0
 41
1.0
  0
SPLINE
  5
249
330
1F
100
AcDbEntity
  8
Make2D visible lines
100
AcDbSpline
210
0.0
220
0.0
230
1.0
 70
    24
 71
     2
 72
     6
 73
     3
 74
     0
 42
0.0000000001
 43
0.0000000001
 40
-0.34375
 40
-0.34375
 40
-0.34375
 40
0.0
 40
0.0
 40
0.0
 10
0.4062500000250111
 20
0.1376280251518554
 30
0.0
 10
0.5781250000250111
 20
0.1376280251518553
 30
0.0
 10
0.7500000000250111
 20
0.1376280251518551
 30
0.0
  0
SPLINE
  5
24A
330
1F
100
AcDbEntity
  8
Make2D visible lines
100
AcDbSpline
210
0.0
220
0.0
230
1.0
 70
    12
 71
     2
 72
     8
 73
     5
 74
     0
 42
0.0000000001
 43
0.0000000001
 40
0.0
 40
0.0
 40
0.0
 40
0.0245437074331721
 40
0.0245437074331721
 40
0.0490874148663431
 40
0.0490874148663431
 40
0.0490874148663431
 10
0.3750000000250218
 20
0.1714037086807126
 30
0.0
 41
1.0
 10
0.374999987741923
 20
0.1559338722962436
 30
0.0
 41
0.9238794417263989
 10
0.3841529026286601
 20
0.1467809487240502
 30
0.0
 41
1.0
 10
0.393305817515396
 20
0.1376280251518572
 30
0.0
 41
0.9238794417265687
 10
0.4062500000250111
 20
0.1376280251518554
 30
0.0
 41
1.0
  0
SPLINE
  5
24B
330
1F
100
AcDbEntity
  8
Make2D visible lines
100
AcDbSpline
210
0.0
220
0.0
230
1.0
 70
    24
 71
     2
 72
     6
 73
     3
 74
     0
 42
0.0000000001
 43
0.0000000001
 40
0.0
 40
0.0
 40
0.0
 40
2.492448632942286
 40
2.492448632942286
 40
2.492448632942286
 10
0.3750000000250218
 20
2.666377995497855
 30
0.0
 10
0.3750000000250218
 20
1.418890852089284
 30
0.0
 10
0.3750000000250218
 20
0.1714037086807126
 30
0.0
  0
SPLINE
  5
24C
330
1F
100
AcDbEntity
  8
Make2D visible lines
100
AcDbSpline
210
0.0
220
0.0
230
1.0
 70
    12
 71
     2
 72
     8
 73
     5
 74
     0
 42
0.0000000001
 43
0.0000000001
 40
0.0
 40
0.0
 40
0.0
 40
0.0245437074331684
 40
0.0245437074331684
 40
0.0490874148663449
 40
0.0490874148663449
 40
0.0490874148663449
 10
0.4062500000250111
 20
2.697628025151856
 30
0.0
 41
1.0
 10
0.3933058175153976
 20
2.697628025151854
 30
0.0
 41
0.9238794417266333
 10
0.3841529026286619
 20
2.688475101579666
 30
0.0
 41
1.0
 10
0.3749999877419244
 20
2.679322178007469
 30
0.0
 41
0.9238794417264741
 10
0.3750000000250218
 20
2.666377995497855
 30
0.0
 41
1.0
  0
SPLINE
  5
24D
330
1F
100
AcDbEntity
  8
Make2D visible lines
100
AcDbSpline
210
0.0
220
0.0
230
1.0
 70
    24
 71
     2
 72
     6
 73
     3
 74
     0
 42
0.0000000001
 43
0.0000000001
 40
-0.34375
 40
-0.34375
 40
-0.34375
 40
0.0
 40
0.0
 40
0.0
 10
0.7500000000250111
 20
2.697628025151856
 30
0.0
 10
0.5781250000250111
 20
2.697628025151856
 30
0.0
 10
0.4062500000250111
 20
2.697628025151856
 30
0.0
  0
SPLINE
  5
24E
330
1F
100
AcDbEntity
  8
Make2D visible lines
100
AcDbSpline
210
0.0
220
0.0
230
1.0
 70
    12
 71
     2
 72
     6
 73
     3
 74
     0
 42
0.0000000001
 43
0.0000000001
 40
0.0
 40
0.0
 40
0.0
 40
0.1963495408493624
 40
0.1963495408493624
 40
0.1963495408493624
 10
0.8750000000250111
 20
2.57029195974267
 30
0.0
 41
1.0
 10
0.875000000025012
 20
2.697628025151857
 30
0.0
 41
0.7071067811865388
 10
0.7500000000250111
 20
2.697628025151856
 30
0.0
 41
1.0
  0
SPLINE
  5
24F
330
1F
100
AcDbEntity
  8
Make2D visible lines
100
AcDbSpline
210
0.0
220
0.0
230
1.0
 70
    24
 71
     2
 72
     6
 73
     3
 74
     0
 42
0.0000000001
 43
0.0000000001
 40
0.0
 40
0.0
 40
0.0
 40
2.30532786918163
 40
2.30532786918163
 40
2.30532786918163
 10
0.875000000025012
 20
0.2626280251518551
 30
0.0
 10
0.8750000000250115
 20
1.416459992447263
 30
0.0
 10
0.8750000000250111
 20
2.57029195974267
 30
0.0
  0
SPLINE
  5
250
330
1F
100
AcDbEntity
  8
Make2D visible lines
100
AcDbSpline
210
0.0
220
0.0
230
1.0
 70
    12
 71
     2
 72
     6
 73
     3
 74
     0
 42
0.0000000001
 43
0.0000000001
 40
0.0
 40
0.0
 40
0.0
 40
0.1963495408493642
 40
0.1963495408493642
 40
0.1963495408493642
 10
0.7500000000250111
 20
0.1376280251518551
 30
0.0
 41
1.0
 10
0.875000000025017
 20
0.1376280251518516
 30
0.0
 41
0.7071067811865305
 10
0.875000000025012
 20
0.2626280251518551
 30
0.0
 41
1.0
  0
SPLINE
  5
251
330
1F
100
AcDbEntity
  8
Make2D visible lines
100
AcDbSpline
210
0.0
220
0.0
230
1.0
 70
    24
 71
     2
 72
     6
 73
     3
 74
     0
 42
0.0000000001
 43
0.0000000001
 40
0.0
 40
0.0
 40
0.0
 40
0.7499999999999787
 40
0.7499999999999787
 40
0.7499999999999787
 10
0.3750000000249969
 20
0.899628025151865
 30
0.0
 10
0.0000000000250076
 20
0.8996280251518651
 30
0.0
 10
-0.3749999999749818
 20
0.8996280251518651
 30
0.0
  0
SPLINE
  5
252
330
1F
100
AcDbEntity
  8
Make2D visible lines
100
AcDbSpline
210
0.0
220
0.0
230
1.0
 70
    24
 71
     2
 72
     6
 73
     3
 74
     0
 42
0.0000000001
 43
0.0000000001
 40
-0.71875
 40
-0.71875
 40
-0.71875
 40
0.0
 40
0.0
 40
0.0
 10
12.17562608014502
 20
2.697628025151856
 30
0.0
 10
12.53500108014502
 20
2.697628025151856
 30
0.0
 10
12.89437608014502
 20
2.697628025151856
 30
0.0
  0
LINE
  5
253
330
1F
100
AcDbEntity
  8
Make2D visible lines
100
AcDbLine
 10
12.17562608014501
 20
0.9801280251518545
 30
0.0
 11
12.17562608014502
 21
2.697628025151856
 31
0.0
  0
SPLINE
  5
254
330
1F
100
AcDbEntity
  8
Make2D visible lines
100
AcDbSpline
210
0.0
220
0.0
230
1.0
 70
    24
 71
     2
 72
     6
 73
     3
 74
     0
 42
0.0000000001
 43
0.0000000001
 40
-0.71875
 40
-0.71875
 40
-0.71875
 40
0.0
 40
0.0
 40
0.0
 10
12.89437608014501
 20
0.9801280251518545
 30
0.0
 10
12.53500108014501
 20
0.9801280251518545
 30
0.0
 10
12.17562608014501
 20
0.9801280251518545
 30
0.0
  0
LINE
  5
255
330
1F
100
AcDbEntity
  8
Make2D visible lines
100
AcDbLine
 10
12.89437608014502
 20
2.697628025151856
 30
0.0
 11
12.89437608014501
 21
0.9801280251518545
 31
0.0
  0
SPLINE
  5
256
330
1F
100
AcDbEntity
  8
Make2D visible lines
100
AcDbSpline
210
0.0
220
0.0
230
1.0
 70
    12
 71
     2
 72
     6
 73
     3
 74
     0
 42
0.0000000001
 43
0.0000000001
 40
0.0
 40
0.0
 40
0.0
 40
0.196349540849361
 40
0.196349540849361
 40
0.196349540849361
 10
11.78500108014501
 20
0.1376280251518551
 30
0.0
 41
1.0
 10
11.66000108014501
 20
0.1376280251518551
 30
0.0
 41
0.7071067811865408
 10
11.66000108014502
 20
0.2626280251518551
 30
0.0
 41
1.0
  0
SPLINE
  5
257
330
1F
100
AcDbEntity
  8
Make2D visible lines
100
AcDbSpline
210
0.0
220
0.0
230
1.0
 70
    24
 71
     2
 72
     6
 73
     3
 74
     0
 42
0.0000000001
 43
0.0000000001
 40
-0.34375
 40
-0.34375
 40
-0.34375
 40
0.0
 40
0.0
 40
0.0
 10
12.12875108014501
 20
0.1376280251518551
 30
0.0
 10
11.95687608014501
 20
0.1376280251518551
 30
0.0
 10
11.78500108014501
 20
0.1376280251518551
 30
0.0
  0
SPLINE
  5
258
330
1F
100
AcDbEntity
  8
Make2D visible lines
100
AcDbSpline
210
0.0
220
0.0
230
1.0
 70
    12
 71
     2
 72
     8
 73
     5
 74
     0
 42
0.0000000001
 43
0.0000000001
 40
0.0
 40
0.0
 40
0.0
 40
0.0245437074331536
 40
0.0245437074331536
 40
0.0490874148663662
 40
0.0490874148663662
 40
0.0490874148663662
 10
12.16000108014502
 20
0.1714037086807126
 30
0.0
 41
1.0
 10
12.16000109242812
 20
0.1559338722962577
 30
0.0
 41
0.9238794417268615
 10
12.15084817754141
 20
0.1467809487240501
 30
0.0
 41
1.0
 10
12.14169526265464
 20
0.1376280251518696
 30
0.0
 41
0.92387944172725
 10
12.12875108014501
 20
0.1376280251518551
 30
0.0
 41
1.0
  0
SPLINE
  5
259
330
1F
100
AcDbEntity
  8
Make2D visible lines
100
AcDbSpline
210
0.0
220
0.0
230
1.0
 70
    24
 71
     2
 72
     6
 73
     3
 74
     0
 42
0.0000000001
 43
0.0000000001
 40
0.0
 40
0.0
 40
0.0
 40
2.492448632942286
 40
2.492448632942286
 40
2.492448632942286
 10
12.16000108014502
 20
2.666377995497855
 30
0.0
 10
12.16000108014502
 20
1.418890852089284
 30
0.0
 10
12.16000108014502
 20
0.1714037086807126
 30
0.0
  0
SPLINE
  5
25A
330
1F
100
AcDbEntity
  8
Make2D visible lines
100
AcDbSpline
210
0.0
220
0.0
230
1.0
 70
    12
 71
     2
 72
     8
 73
     5
 74
     0
 42
0.0000000001
 43
0.0000000001
 40
0.0
 40
0.0
 40
0.0
 40
0.0245437074332097
 40
0.0245437074332097
 40
0.0490874148663679
 40
0.0490874148663679
 40
0.0490874148663679
 10
12.12875108014501
 20
2.697628025151856
 30
0.0
 41
1.0
 10
12.14169526265464
 20
2.697628025151841
 30
0.0
 41
0.923879441727346
 10
12.15084817754141
 20
2.688475101579666
 30
0.0
 41
1.0
 10
12.16000109242811
 20
2.679322178007455
 30
0.0
 41
0.9238794417269129
 10
12.16000108014502
 20
2.666377995497855
 30
0.0
 41
1.0
  0
SPLINE
  5
25B
330
1F
100
AcDbEntity
  8
Make2D visible lines
100
AcDbSpline
210
0.0
220
0.0
230
1.0
 70
    24
 71
     2
 72
     6
 73
     3
 74
     0
 42
0.0000000001
 43
0.0000000001
 40
-0.34375
 40
-0.34375
 40
-0.34375
 40
0.0
 40
0.0
 40
0.0
 10
11.78500108014501
 20
2.697628025151856
 30
0.0
 10
11.95687608014501
 20
2.697628025151856
 30
0.0
 10
12.12875108014501
 20
2.697628025151856
 30
0.0
  0
SPLINE
  5
25C
330
1F
100
AcDbEntity
  8
Make2D visible lines
100
AcDbSpline
210
0.0
220
0.0
230
1.0
 70
    12
 71
     2
 72
     6
 73
     3
 74
     0
 42
0.0000000001
 43
0.0000000001
 40
0.0
 40
0.0
 40
0.0
 40
0.1963495408493624
 40
0.1963495408493624
 40
0.1963495408493624
 10
11.66000108014502
 20
2.570291984875793
 30
0.0
 41
1.0
 10
11.66000108014501
 20
2.697628025151857
 30
0.0
 41
0.7071067811865318
 10
11.78500108014501
 20
2.697628025151856
 30
0.0
 41
1.0
  0
SPLINE
  5
25D
330
1F
100
AcDbEntity
  8
Make2D visible lines
100
AcDbSpline
210
0.0
220
0.0
230
1.0
 70
    24
 71
     2
 72
     6
 73
     3
 74
     0
 42
0.0000000001
 43
0.0000000001
 40
0.0
 40
0.0
 40
0.0
 40
2.305327919447875
 40
2.305327919447875
 40
2.305327919447875
 10
11.66000108014502
 20
0.2626280251518551
 30
0.0
 10
11.66000108014502
 20
1.416460005013824
 30
0.0
 10
11.66000108014502
 20
2.570291984875793
 30
0.0
  0
SPLINE
  5
25E
330
1F
100
AcDbEntity
  8
Make2D visible lines
100
AcDbSpline
210
0.0
220
0.0
230
1.0
 70
    24
 71
     2
 72
     6
 73
     3
 74
     0
 42
0.0000000001
 43
0.0000000001
 40
0.0
 40
0.0
 40
0.0
 40
2.305327919447875
 40
2.305327919447875
 40
2.305327919447875
 10
13.41000108014502
 20
2.572628025151856
 30
0.0
 10
13.41000108014502
 20
1.418796045289887
 30
0.0
 10
13.41000108014502
 20
0.2649640654279177
 30
0.0
  0
SPLINE
  5
25F
330
1F
100
AcDbEntity
  8
Make2D visible lines
100
AcDbSpline
210
0.0
220
0.0
230
1.0
 70
    12
 71
     2
 72
     6
 73
     3
 74
     0
 42
0.0000000001
 43
0.0000000001
 40
0.0
 40
0.0
 40
0.0
 40
0.1963495408493628
 40
0.1963495408493628
 40
0.1963495408493628
 10
13.28500108014501
 20
2.697628025151856
 30
0.0
 41
1.0
 10
13.41000108014501
 20
2.697628025151856
 30
0.0
 41
0.7071067811865535
 10
13.41000108014502
 20
2.572628025151856
 30
0.0
 41
1.0
  0
SPLINE
  5
260
330
1F
100
AcDbEntity
  8
Make2D visible lines
100
AcDbSpline
210
0.0
220
0.0
230
1.0
 70
    24
 71
     2
 72
     6
 73
     3
 74
     0
 42
0.0000000001
 43
0.0000000001
 40
-0.34375
 40
-0.34375
 40
-0.34375
 40
0.0
 40
0.0
 40
0.0
 10
12.94125108014501
 20
2.697628025151856
 30
0.0
 10
13.11312608014501
 20
2.697628025151856
 30
0.0
 10
13.28500108014501
 20
2.697628025151856
 30
0.0
  0
SPLINE
  5
261
330
1F
100
AcDbEntity
  8
Make2D visible lines
100
AcDbSpline
210
0.0
220
0.0
230
1.0
 70
    12
 71
     2
 72
     8
 73
     5
 74
     0
 42
0.0000000001
 43
0.0000000001
 40
0.0
 40
0.0
 40
0.0
 40
0.0245437074326791
 40
0.0245437074326791
 40
0.0490874148653502
 40
0.0490874148653502
 40
0.0490874148653502
 10
12.91000108014502
 20
2.663852341623996
 30
0.0
 41
1.0
 10
12.91000106786232
 20
2.679322178008183
 30
0.0
 41
0.9238794417289465
 10
12.91915398274901
 20
2.688475101580014
 30
0.0
 41
1.0
 10
12.92830689763569
 20
2.697628025151847
 30
0.0
 41
0.9238794417298515
 10
12.94125108014501
 20
2.697628025151856
 30
0.0
 41
1.0
  0
SPLINE
  5
262
330
1F
100
AcDbEntity
  8
Make2D visible lines
100
AcDbSpline
210
0.0
220
0.0
230
1.0
 70
    24
 71
     2
 72
     6
 73
     3
 74
     0
 42
0.0000000001
 43
0.0000000001
 40
0.0
 40
0.0
 40
0.0
 40
2.492448632944281
 40
2.492448632944281
 40
2.492448632944281
 10
12.91000108014502
 20
0.1688780548048552
 30
0.0
 10
12.91000108014502
 20
1.416365198214426
 30
0.0
 10
12.91000108014502
 20
2.663852341623996
 30
0.0
  0
SPLINE
  5
263
330
1F
100
AcDbEntity
  8
Make2D visible lines
100
AcDbSpline
210
0.0
220
0.0
230
1.0
 70
    12
 71
     2
 72
     8
 73
     5
 74
     0
 42
0.0000000001
 43
0.0000000001
 40
0.0
 40
0.0
 40
0.0
 40
0.0245437074326708
 40
0.0245437074326708
 40
0.0490874148653497
 40
0.0490874148653497
 40
0.0490874148653497
 10
12.94125108014501
 20
0.1376280251518551
 30
0.0
 41
1.0
 10
12.92830689763569
 20
0.1376280251518653
 30
0.0
 41
0.9238794417298885
 10
12.91915398274901
 20
0.1467809487236966
 30
0.0
 41
1.0
 10
12.91000106786231
 20
0.1559338722955282
 30
0.0
 41
0.9238794417289753
 10
12.91000108014502
 20
0.1688780548048552
 30
0.0
 41
1.0
  0
SPLINE
  5
264
330
1F
100
AcDbEntity
  8
Make2D visible lines
100
AcDbSpline
210
0.0
220
0.0
230
1.0
 70
    24
 71
     2
 72
     6
 73
     3
 74
     0
 42
0.0000000001
 43
0.0000000001
 40
-0.34375
 40
-0.34375
 40
-0.34375
 40
0.0
 40
0.0
 40
0.0
 10
13.28500108014501
 20
0.1376280251518551
 30
0.0
 10
13.11312608014501
 20
0.1376280251518551
 30
0.0
 10
12.94125108014501
 20
0.1376280251518551
 30
0.0
  0
SPLINE
  5
265
330
1F
100
AcDbEntity
  8
Make2D visible lines
100
AcDbSpline
210
0.0
220
0.0
230
1.0
 70
    12
 71
     2
 72
     6
 73
     3
 74
     0
 42
0.0000000001
 43
0.0000000001
 40
0.0
 40
0.0
 40
0.0
 40
0.1963495408493625
 40
0.1963495408493625
 40
0.1963495408493625
 10
13.41000108014502
 20
0.2649640654279177
 30
0.0
 41
1.0
 10
13.41000108014501
 20
0.1376280251518551
 30
0.0
 41
0.70710678118656
 10
13.28500108014501
 20
0.1376280251518551
 30
0.0
 41
1.0
  0
SPLINE
  5
266
330
1F
100
AcDbEntity
  8
Default
100
AcDbSpline
210
0.0
220
0.0
230
1.0
 70
    24
 71
     2
 72
     6
 73
     3
 74
     0
 42
0.0000000001
 43
0.0000000001
 40
0.0
 40
0.0
 40
0.0
 40
0.0829573442459237
 40
0.0829573442459237
 40
0.0829573442459237
 10
12.17844438414441
 20
2.779590879554846
 30
0.0
 10
12.18484773214466
 20
2.738609452353345
 30
0.0
 10
12.19125108014491
 20
2.697628025151845
 30
0.0
  0
POLYLINE
  5
267
330
1F
100
AcDbEntity
  8
Default
100
AcDb2dPolyline
 66
     1
 10
0.0
 20
0.0
 30
0.0
  0
VERTEX
  5
268
330
267
100
AcDbEntity
  8
Default
100
AcDbVertex
100
AcDb2dVertex
 10
12.89155777614561
 20
2.779590879554846
 30
0.0
  0
VERTEX
  5
269
330
267
100
AcDbEntity
  8
Default
100
AcDbVertex
100
AcDb2dVertex
 10
12.17844438414441
 20
2.779590879554846
 30
0.0
  0
SEQEND
  5
26A
330
267
100
AcDbEntity
  8
Default
  0
SPLINE
  5
26B
330
1F
100
AcDbEntity
  8
Default
100
AcDbSpline
210
0.0
220
0.0
230
1.0
 70
    24
 71
     2
 72
     6
 73
     3
 74
     0
 42
0.0000000001
 43
0.0000000001
 40
0.0
 40
0.0
 40
0.0
 40
0.0829573442459237
 40
0.0829573442459237
 40
0.0829573442459237
 10
12.87875108014511
 20
2.697628025151845
 30
0.0
 10
12.88515442814536
 20
2.738609452353345
 30
0.0
 10
12.89155777614561
 20
2.779590879554846
 30
0.0
  0
SPLINE
  5
26C
330
1F
100
AcDbEntity
  8
Make2D visible lines
100
AcDbSpline
210
0.0
220
0.0
230
1.0
 70
    24
 71
     2
 72
     6
 73
     3
 74
     0
 42
0.0000000001
 43
0.0000000001
 40
0.0
 40
0.0
 40
0.0
 40
2.305327919447875
 40
2.305327919447875
 40
2.305327919447875
 10
8.622056716558014
 20
2.572628025151856
 30
0.0
 10
8.622056716558014
 20
1.418796045289887
 30
0.0
 10
8.622056716558014
 20
0.2649640654279177
 30
0.0
  0
SPLINE
  5
26D
330
1F
100
AcDbEntity
  8
Make2D visible lines
100
AcDbSpline
210
0.0
220
0.0
230
1.0
 70
    12
 71
     2
 72
     6
 73
     3
 74
     0
 42
0.0000000001
 43
0.0000000001
 40
0.0
 40
0.0
 40
0.0
 40
0.1963495408493616
 40
0.1963495408493616
 40
0.1963495408493616
 10
8.497056716558014
 20
2.697628025151856
 30
0.0
 41
1.0
 10
8.622056716558014
 20
2.697628025151855
 30
0.0
 41
0.707106781186545
 10
8.622056716558014
 20
2.572628025151856
 30
0.0
 41
1.0
  0
SPLINE
  5
26E
330
1F
100
AcDbEntity
  8
Make2D visible lines
100
AcDbSpline
210
0.0
220
0.0
230
1.0
 70
    24
 71
     2
 72
     6
 73
     3
 74
     0
 42
0.0000000001
 43
0.0000000001
 40
-0.34375
 40
-0.34375
 40
-0.34375
 40
0.0
 40
0.0
 40
0.0
 10
8.153306716558014
 20
2.697628025151856
 30
0.0
 10
8.325181716558014
 20
2.697628025151856
 30
0.0
 10
8.497056716558014
 20
2.697628025151856
 30
0.0
  0
SPLINE
  5
26F
330
1F
100
AcDbEntity
  8
Make2D visible lines
100
AcDbSpline
210
0.0
220
0.0
230
1.0
 70
    12
 71
     2
 72
     8
 73
     5
 74
     0
 42
0.0000000001
 43
0.0000000001
 40
0.0
 40
0.0
 40
0.0
 40
0.0245437074326705
 40
0.0245437074326705
 40
0.0490874148653448
 40
0.0490874148653448
 40
0.0490874148653448
 10
8.12205671655802
 20
2.663852341623996
 30
0.0
 41
1.0
 10
8.122056704275339
 20
2.679322178008172
 30
0.0
 41
0.9238794417296411
 10
8.13120961916201
 20
2.688475101580014
 30
0.0
 41
1.0
 10
8.14036253404869
 20
2.697628025151853
 30
0.0
 41
0.9238794417296741
 10
8.153306716558014
 20
2.697628025151856
 30
0.0
 41
1.0
  0
SPLINE
  5
270
330
1F
100
AcDbEntity
  8
Make2D visible lines
100
AcDbSpline
210
0.0
220
0.0
230
1.0
 70
    24
 71
     2
 72
     6
 73
     3
 74
     0
 42
0.0000000001
 43
0.0000000001
 40
0.0
 40
0.0
 40
0.0
 40
2.492448632944281
 40
2.492448632944281
 40
2.492448632944281
 10
8.12205671655802
 20
0.1688780548048552
 30
0.0
 10
8.12205671655802
 20
1.416365198214426
 30
0.0
 10
8.12205671655802
 20
2.663852341623996
 30
0.0
  0
SPLINE
  5
271
330
1F
100
AcDbEntity
  8
Make2D visible lines
100
AcDbSpline
210
0.0
220
0.0
230
1.0
 70
    12
 71
     2
 72
     8
 73
     5
 74
     0
 42
0.0000000001
 43
0.0000000001
 40
0.0
 40
0.0
 40
0.0
 40
0.0245437074326741
 40
0.0245437074326741
 40
0.0490874148653442
 40
0.0490874148653442
 40
0.0490874148653442
 10
8.153306716558014
 20
0.1376280251518551
 30
0.0
 41
1.0
 10
8.14036253404869
 20
0.1376280251518584
 30
0.0
 41
0.9238794417296992
 10
8.13120961916201
 20
0.1467809487236965
 30
0.0
 41
1.0
 10
8.12205670427534
 20
0.1559338722955394
 30
0.0
 41
0.9238794417296726
 10
8.12205671655802
 20
0.1688780548048552
 30
0.0
 41
1.0
  0
SPLINE
  5
272
330
1F
100
AcDbEntity
  8
Make2D visible lines
100
AcDbSpline
210
0.0
220
0.0
230
1.0
 70
    24
 71
     2
 72
     6
 73
     3
 74
     0
 42
0.0000000001
 43
0.0000000001
 40
-0.34375
 40
-0.34375
 40
-0.34375
 40
0.0
 40
0.0
 40
0.0
 10
8.497056716558014
 20
0.1376280251518552
 30
0.0
 10
8.325181716558014
 20
0.1376280251518551
 30
0.0
 10
8.153306716558014
 20
0.1376280251518551
 30
0.0
  0
SPLINE
  5
273
330
1F
100
AcDbEntity
  8
Make2D visible lines
100
AcDbSpline
210
0.0
220
0.0
230
1.0
 70
    12
 71
     2
 72
     6
 73
     3
 74
     0
 42
0.0000000001
 43
0.0000000001
 40
0.0
 40
0.0
 40
0.0
 40
0.1963495408493624
 40
0.1963495408493624
 40
0.1963495408493624
 10
8.622056716558014
 20
0.2649640654279177
 30
0.0
 41
1.0
 10
8.622056716558014
 20
0.1376280251518551
 30
0.0
 41
0.7071067811865427
 10
8.497056716558014
 20
0.1376280251518552
 30
0.0
 41
1.0
  0
SPLINE
  5
274
330
1F
100
AcDbEntity
  8
Make2D visible lines
100
AcDbSpline
210
0.0
220
0.0
230
1.0
 70
    24
 71
     2
 72
     6
 73
     3
 74
     0
 42
0.0000000001
 43
0.0000000001
 40
0.0
 40
0.0
 40
0.0
 40
0.7187500000000018
 40
0.7187500000000018
 40
0.7187500000000018
 10
8.106431716558014
 20
2.697628025151856
 30
0.0
 10
7.747056716558012
 20
2.697628025151856
 30
0.0
 10
7.387681716558011
 20
2.697628025151856
 30
0.0
  0
LINE
  5
275
330
1F
100
AcDbEntity
  8
Make2D visible lines
100
AcDbLine
 10
8.106431716558014
 20
0.9801280251518545
 30
0.0
 11
8.106431716558014
 21
2.697628025151856
 31
0.0
  0
SPLINE
  5
276
330
1F
100
AcDbEntity
  8
Make2D visible lines
100
AcDbSpline
210
0.0
220
0.0
230
1.0
 70
    24
 71
     2
 72
     6
 73
     3
 74
     0
 42
0.0000000001
 43
0.0000000001
 40
0.0
 40
0.0
 40
0.0
 40
0.7187500000000018
 40
0.7187500000000018
 40
0.7187500000000018
 10
7.387681716558011
 20
0.9801280251518545
 30
0.0
 10
7.747056716558012
 20
0.9801280251518545
 30
0.0
 10
8.106431716558014
 20
0.9801280251518545
 30
0.0
  0
LINE
  5
277
330
1F
100
AcDbEntity
  8
Make2D visible lines
100
AcDbLine
 10
7.387681716558011
 20
2.697628025151856
 30
0.0
 11
7.387681716558011
 21
0.9801280251518545
 31
0.0
  0
SPLINE
  5
278
330
1F
100
AcDbEntity
  8
Make2D visible lines
100
AcDbSpline
210
0.0
220
0.0
230
1.0
 70
    24
 71
     2
 72
     6
 73
     3
 74
     0
 42
0.0000000001
 43
0.0000000001
 40
-0.34375
 40
-0.34375
 40
-0.34375
 40
0.0
 40
0.0
 40
0.0
 10
7.340806716558011
 20
0.137628025151855
 30
0.0
 10
7.168931716558011
 20
0.1376280251518551
 30
0.0
 10
6.997056716558011
 20
0.1376280251518551
 30
0.0
  0
SPLINE
  5
279
330
1F
100
AcDbEntity
  8
Make2D visible lines
100
AcDbSpline
210
0.0
220
0.0
230
1.0
 70
    12
 71
     2
 72
     8
 73
     5
 74
     0
 42
0.0000000001
 43
0.0000000001
 40
0.0
 40
0.0
 40
0.0
 40
0.0245437074331706
 40
0.0245437074331706
 40
0.0490874148663432
 40
0.0490874148663432
 40
0.0490874148663432
 10
7.372056716558004
 20
0.1714037086807126
 30
0.0
 41
1.0
 10
7.372056728841093
 20
0.1559338722962469
 30
0.0
 41
0.9238794417266645
 10
7.362903813954364
 20
0.1467809487240501
 30
0.0
 41
1.0
 10
7.353750899067625
 20
0.1376280251518578
 30
0.0
 41
0.9238794417266113
 10
7.340806716558011
 20
0.137628025151855
 30
0.0
 41
1.0
  0
SPLINE
  5
27A
330
1F
100
AcDbEntity
  8
Make2D visible lines
100
AcDbSpline
210
0.0
220
0.0
230
1.0
 70
    24
 71
     2
 72
     6
 73
     3
 74
     0
 42
0.0000000001
 43
0.0000000001
 40
0.0
 40
0.0
 40
0.0
 40
2.492448632942286
 40
2.492448632942286
 40
2.492448632942286
 10
7.372056716558004
 20
2.666377995497855
 30
0.0
 10
7.372056716558004
 20
1.418890852089284
 30
0.0
 10
7.372056716558004
 20
0.1714037086807126
 30
0.0
  0
SPLINE
  5
27B
330
1F
100
AcDbEntity
  8
Make2D visible lines
100
AcDbSpline
210
0.0
220
0.0
230
1.0
 70
    12
 71
     2
 72
     8
 73
     5
 74
     0
 42
0.0000000001
 43
0.0000000001
 40
0.0
 40
0.0
 40
0.0
 40
0.0245437074331701
 40
0.0245437074331701
 40
0.0490874148663453
 40
0.0490874148663453
 40
0.0490874148663453
 10
7.340806716558011
 20
2.697628025151856
 30
0.0
 41
1.0
 10
7.353750899067625
 20
2.697628025151854
 30
0.0
 41
0.9238794417266487
 10
7.362903813954364
 20
2.688475101579666
 30
0.0
 41
1.0
 10
7.372056728841093
 20
2.679322178007466
 30
0.0
 41
0.9238794417267178
 10
7.372056716558004
 20
2.666377995497855
 30
0.0
 41
1.0
  0
SPLINE
  5
27C
330
1F
100
AcDbEntity
  8
Make2D visible lines
100
AcDbSpline
210
0.0
220
0.0
230
1.0
 70
    24
 71
     2
 72
     6
 73
     3
 74
     0
 42
0.0000000001
 43
0.0000000001
 40
-0.34375
 40
-0.34375
 40
-0.34375
 40
0.0
 40
0.0
 40
0.0
 10
6.997056716558011
 20
2.697628025151856
 30
0.0
 10
7.168931716558011
 20
2.697628025151856
 30
0.0
 10
7.340806716558011
 20
2.697628025151856
 30
0.0
  0
SPLINE
  5
27D
330
1F
100
AcDbEntity
  8
Make2D visible lines
100
AcDbSpline
210
0.0
220
0.0
230
1.0
 70
    12
 71
     2
 72
     6
 73
     3
 74
     0
 42
0.0000000001
 43
0.0000000001
 40
0.0
 40
0.0
 40
0.0
 40
0.196349540849363
 40
0.196349540849363
 40
0.196349540849363
 10
6.872056716558011
 20
2.570291984875793
 30
0.0
 41
1.0
 10
6.872056716558009
 20
2.697628025151857
 30
0.0
 41
0.707106781186545
 10
6.997056716558011
 20
2.697628025151856
 30
0.0
 41
1.0
  0
SPLINE
  5
27E
330
1F
100
AcDbEntity
  8
Make2D visible lines
100
AcDbSpline
210
0.0
220
0.0
230
1.0
 70
    24
 71
     2
 72
     6
 73
     3
 74
     0
 42
0.0000000001
 43
0.0000000001
 40
0.0
 40
0.0
 40
0.0
 40
2.305327919447875
 40
2.305327919447875
 40
2.305327919447875
 10
6.872056716558011
 20
0.2626280251518551
 30
0.0
 10
6.872056716558011
 20
1.416460005013824
 30
0.0
 10
6.872056716558011
 20
2.570291984875793
 30
0.0
  0
SPLINE
  5
27F
330
1F
100
AcDbEntity
  8
Make2D visible lines
100
AcDbSpline
210
0.0
220
0.0
230
1.0
 70
    12
 71
     2
 72
     6
 73
     3
 74
     0
 42
0.0000000001
 43
0.0000000001
 40
0.0
 40
0.0
 40
0.0
 40
0.1963495408493627
 40
0.1963495408493627
 40
0.1963495408493627
 10
6.997056716558011
 20
0.1376280251518551
 30
0.0
 41
1.0
 10
6.87205671655801
 20
0.1376280251518551
 30
0.0
 41
0.7071067811865437
 10
6.872056716558011
 20
0.2626280251518551
 30
0.0
 41
1.0
  0
SPLINE
  5
280
330
1F
100
AcDbEntity
  8
Default
100
AcDbSpline
210
0.0
220
0.0
230
1.0
 70
    24
 71
     2
 72
     6
 73
     3
 74
     0
 42
0.0000000001
 43
0.0000000001
 40
0.0
 40
0.0
 40
0.0
 40
0.0829573442459193
 40
0.0829573442459193
 40
0.0829573442459193
 10
7.390500020557451
 20
2.779590879554846
 30
0.0
 10
7.396903368557687
 20
2.738609452353345
 30
0.0
 10
7.403306716557922
 20
2.697628025151845
 30
0.0
  0
POLYLINE
  5
281
330
1F
100
AcDbEntity
  8
Default
100
AcDb2dPolyline
 66
     1
 10
0.0
 20
0.0
 30
0.0
  0
VERTEX
  5
282
330
281
100
AcDbEntity
  8
Default
100
AcDbVertex
100
AcDb2dVertex
 10
8.103613412558573
 20
2.779590879554846
 30
0.0
  0
VERTEX
  5
283
330
281
100
AcDbEntity
  8
Default
100
AcDbVertex
100
AcDb2dVertex
 10
7.390500020557451
 20
2.779590879554846
 30
0.0
  0
SEQEND
  5
284
330
281
100
AcDbEntity
  8
Default
  0
SPLINE
  5
285
330
1F
100
AcDbEntity
  8
Default
100
AcDbSpline
210
0.0
220
0.0
230
1.0
 70
    24
 71
     2
 72
     6
 73
     3
 74
     0
 42
0.0000000001
 43
0.0000000001
 40
0.0
 40
0.0
 40
0.0
 40
0.0829573442459193
 40
0.0829573442459193
 40
0.0829573442459193
 10
8.090806716558102
 20
2.697628025151845
 30
0.0
 10
8.097210064558338
 20
2.738609452353345
 30
0.0
 10
8.103613412558573
 20
2.779590879554846
 30
0.0
  0
LINE
  5
286
330
1F
100
AcDbEntity
  8
Default
  6
Continuous
100
AcDbLine
 10
0.8592452125000136
 20
8.793327392750008
 30
0.0
 11
0.9804499708000094
 21
8.672124730000007
 31
0.0
  0
POLYLINE
  5
287
330
1F
100
AcDbEntity
  8
Default
100
AcDb2dPolyline
 66
     1
 10
0.0
 20
0.0
 30
0.0
  0
VERTEX
  5
288
330
287
100
AcDbEntity
  8
Default
100
AcDbVertex
100
AcDb2dVertex
 10
31.29145219711089
 20
8.793333538799992
 30
0.0
  0
VERTEX
  5
289
330
287
100
AcDbEntity
  8
Default
100
AcDbVertex
100
AcDb2dVertex
 10
31.18222850250783
 20
8.684112137282957
 30
0.0
  0
SEQEND
  5
28A
330
287
100
AcDbEntity
  8
Default
  0
POLYLINE
  5
28B
330
1F
100
AcDbEntity
  8
Default
100
AcDb2dPolyline
 66
     1
 10
0.0
 20
0.0
 30
0.0
  0
VERTEX
  5
28C
330
28B
100
AcDbEntity
  8
Default
100
AcDbVertex
100
AcDb2dVertex
 10
33.00994051771089
 20
8.793331113700006
 30
0.0
  0
VERTEX
  5
28D
330
28B
100
AcDbEntity
  8
Default
100
AcDbVertex
100
AcDb2dVertex
 10
33.11915410918955
 20
8.684112137282948
 30
0.0
  0
SEQEND
  5
28E
330
28B
100
AcDbEntity
  8
Default
  0
ENDSEC
  0
SECTION
  2
OBJECTS
  0
DICTIONARY
  5
C
330
0
100
AcDbDictionary
281
     1
  3
ACAD_GROUP
350
D
  3
ACAD_LAYOUT
350
1A
  3
ACAD_MLEADERSTYLE
350
290
  3
ACAD_MLINESTYLE
350
17
  3
ACAD_PLOTSETTINGS
350
19
  3
ACAD_PLOTSTYLENAME
350
E
  3
ACAD_TABLESTYLE
350
28F
  3
ACAD_VISUALSTYLE
350
2A
  0
DICTIONARY
  5
D
102
{ACAD_REACTORS
330
C
102
}
330
C
100
AcDbDictionary
281
     1
  0
DICTIONARY
  5
1A
102
{ACAD_REACTORS
330
C
102
}
330
C
100
AcDbDictionary
281
     1
  3
Layout1
350
1E
  3
Layout2
350
26
  3
Model
350
22
  0
DICTIONARY
  5
290
102
{ACAD_REACTORS
330
C
102
}
330
C
100
AcDbDictionary
281
     1
  0
DICTIONARY
  5
17
102
{ACAD_REACTORS
330
C
102
}
330
C
100
AcDbDictionary
281
     1
  3
Standard
350
18
  0
DICTIONARY
  5
19
102
{ACAD_REACTORS
330
C
102
}
330
C
100
AcDbDictionary
281
     1
  0
ACDBDICTIONARYWDFLT
  5
E
102
{ACAD_REACTORS
330
C
102
}
330
C
100
AcDbDictionary
281
     1
  3
Normal
350
F
100
AcDbDictionaryWithDefault
340
F
  0
DICTIONARY
  5
28F
102
{ACAD_REACTORS
330
C
102
}
330
C
100
AcDbDictionary
281
     1
  0
DICTIONARY
  5
2A
102
{ACAD_REACTORS
330
C
102
}
330
C
100
AcDbDictionary
281
     1
  3
2dWireframe
350
2F
  3
3D Hidden
350
31
  3
3dWireframe
350
30
  3
Basic
350
32
  3
Brighten
350
36
  3
ColorChange
350
3A
  3
Conceptual
350
34
  3
Dim
350
35
  3
Facepattern
350
39
  3
Flat
350
2B
  3
FlatWithEdges
350
2C
  3
Gouraud
350
2D
  3
GouraudWithEdges
350
2E
  3
Linepattern
350
38
  3
Realistic
350
33
  3
Thicken
350
37
  0
LAYOUT
  5
1E
102
{ACAD_REACTORS
330
1A
102
}
330
1A
100
AcDbPlotSettings
  1

  2
none_device
  4

  6

 40
0.0
 41
0.0
 42
0.0
 43
0.0
 44
0.0
 45
0.0
 46
0.0
 47
0.0
 48
0.0
 49
0.0
140
0.0
141
0.0
142
1.0
143
1.0
 70
   688
 72
     0
 73
     0
 74
     5
  7

 75
    16
 76
     0
 77
     2
 78
   300
147
1.0
148
0.0
149
0.0
100
AcDbLayout
  1
Layout1
 70
     1
 71
     1
 10
0.0
 20
0.0
 11
12.0
 21
9.0
 12
0.0
 22
0.0
 32
0.0
 14
1.000000000000000E+20
 24
1.000000000000000E+20
 34
1.000000000000000E+20
 15
-1.000000000000000E+20
 25
-1.000000000000000E+20
 35
-1.000000000000000E+20
146
0.0
 13
0.0
 23
0.0
 33
0.0
 16
1.0
 26
0.0
 36
0.0
 17
0.0
 27
1.0
 37
0.0
 76
     0
330
1B
  0
LAYOUT
  5
26
102
{ACAD_REACTORS
330
1A
102
}
330
1A
100
AcDbPlotSettings
  1

  2
none_device
  4

  6

 40
0.0
 41
0.0
 42
0.0
 43
0.0
 44
0.0
 45
0.0
 46
0.0
 47
0.0
 48
0.0
 49
0.0
140
0.0
141
0.0
142
1.0
143
1.0
 70
   688
 72
     0
 73
     0
 74
     5
  7

 75
    16
 76
     0
 77
     2
 78
   300
147
1.0
148
0.0
149
0.0
100
AcDbLayout
  1
Layout2
 70
     1
 71
     2
 10
0.0
 20
0.0
 11
0.0
 21
0.0
 12
0.0
 22
0.0
 32
0.0
 14
0.0
 24
0.0
 34
0.0
 15
0.0
 25
0.0
 35
0.0
146
0.0
 13
0.0
 23
0.0
 33
0.0
 16
1.0
 26
0.0
 36
0.0
 17
0.0
 27
1.0
 37
0.0
 76
     0
330
23
  0
LAYOUT
  5
22
102
{ACAD_REACTORS
330
1A
102
}
330
1A
100
AcDbPlotSettings
  1

  2
none_device
  4

  6

 40
0.0
 41
0.0
 42
0.0
 43
0.0
 44
0.0
 45
0.0
 46
0.0
 47
0.0
 48
0.0
 49
0.0
140
0.0
141
0.0
142
1.0
143
1.0
 70
  1712
 72
     0
 73
     0
 74
     0
  7

 75
     0
 76
     0
 77
     2
 78
   300
147
1.0
148
0.0
149
0.0
100
AcDbLayout
  1
Model
 70
     1
 71
     0
 10
0.0
 20
0.0
 11
12.0
 21
9.0
 12
0.0
 22
0.0
 32
0.0
 14
-13.53892593024574
 24
0.137628025151855
 34
0.0
 15
45.7786996832132
 25
71.11980140979593
 35
0.0
146
0.0
 13
0.0
 23
0.0
 33
0.0
 16
1.0
 26
0.0
 36
0.0
 17
0.0
 27
1.0
 37
0.0
 76
     0
330
1F
331
29
  0
MLINESTYLE
  5
18
102
{ACAD_REACTORS
330
17
102
}
330
17
100
AcDbMlineStyle
  2
Standard
 70
     0
  3

 62
   256
 51
90.0
 52
90.0
 71
     2
 49
0.5
 62
   256
  6
BYLAYER
 49
-0.5
 62
   256
  6
BYLAYER
  0
ACDBPLACEHOLDER
  5
F
102
{ACAD_REACTORS
330
E
102
}
330
E
  0
VISUALSTYLE
  5
2F
102
{ACAD_REACTORS
330
2A
102
}
330
2A
100
AcDbVisualStyle
  2
2dWireframe
 70
     4
 71
     0
 72
     2
 73
     0
 90
        0
 40
-0.6
 41
-30.0
 62
     5
 63
     7
421
 16777215
 74
     1
 91
        4
 64
     7
 65
   257
 75
     1
175
     1
 42
1.0
 92
        0
 66
   257
 43
1.0
 76
     1
 77
     6
 78
     2
 67
     7
 79
     5
170
     0
171
     0
290
     0
174
     0
 93
        1
 44
0.0
173
     0
291
     0
 45
0.0
1001
ACAD
1000
AcDbSavedByObjectVersion
1070
     0
  0
VISUALSTYLE
  5
31
102
{ACAD_REACTORS
330
2A
102
}
330
2A
100
AcDbVisualStyle
  2
3D Hidden
 70
     6
 71
     1
 72
     2
 73
     2
 90
        0
 40
-0.6
 41
-30.0
 62
     5
 63
     7
421
 16777215
 74
     2
 91
        2
 64
     7
 65
   257
 75
     2
175
     1
 42
40.0
 92
        0
 66
   257
 43
1.0
 76
     1
 77
     6
 78
     2
 67
     7
 79
     3
170
     0
171
     0
290
     0
174
     0
 93
        1
 44
0.0
173
     0
291
     0
 45
0.0
1001
ACAD
1000
AcDbSavedByObjectVersion
1070
     0
  0
VISUALSTYLE
  5
30
102
{ACAD_REACTORS
330
2A
102
}
330
2A
100
AcDbVisualStyle
  2
3dWireframe
 70
     5
 71
     0
 72
     2
 73
     0
 90
        0
 40
-0.6
 41
-30.0
 62
     5
 63
     7
421
 16777215
 74
     1
 91
        4
 64
     7
 65
   257
 75
     1
175
     1
 42
1.0
 92
        0
 66
   257
 43
1.0
 76
     1
 77
     6
 78
     2
 67
     7
 79
     5
170
     0
171
     0
290
     0
174
     0
 93
        1
 44
0.0
173
     0
291
     0
 45
0.0
1001
ACAD
1000
AcDbSavedByObjectVersion
1070
     0
  0
VISUALSTYLE
  5
32
102
{ACAD_REACTORS
330
2A
102
}
330
2A
100
AcDbVisualStyle
  2
Basic
 70
     7
 71
     1
 72
     0
 73
     1
 90
        0
 40
-0.6
 41
-30.0
 62
     5
 63
     7
421
 16777215
 74
     0
 91
        4
 64
     7
 65
   257
 75
     1
175
     1
 42
1.0
 92
        8
 66
     7
 43
1.0
 76
     1
 77
     6
 78
     2
 67
     7
 79
     5
170
     0
171
     0
290
     0
174
     0
 93
        1
 44
0.0
173
     0
291
     1
 45
0.0
1001
ACAD
1000
AcDbSavedByObjectVersion
1070
     0
  0
VISUALSTYLE
  5
36
102
{ACAD_REACTORS
330
2A
102
}
330
2A
100
AcDbVisualStyle
  2
Brighten
 70
    12
 71
     2
 72
     2
 73
     0
 90
        0
 40
-0.6
 41
-30.0
 62
     5
 63
     7
421
 16777215
 74
     1
 91
        4
 64
     7
 65
   257
 75
     1
175
     1
 42
1.0
 92
        8
 66
     7
 43
1.0
 76
     1
 77
     6
 78
     2
 67
     7
 79
     5
170
     0
171
     0
290
     0
174
     0
 93
        1
 44
50.0
173
     0
291
     1
 45
0.0
1001
ACAD
1000
AcDbSavedByObjectVersion
1070
     0
  0
VISUALSTYLE
  5
3A
102
{ACAD_REACTORS
330
2A
102
}
330
2A
100
AcDbVisualStyle
  2
ColorChange
 70
    16
 71
     2
 72
     2
 73
     3
 90
        0
 40
-0.6
 41
-30.0
 62
     5
 63
     8
421
  8421504
 74
     1
 91
        4
 64
     7
 65
   257
 75
     1
175
     1
 42
1.0
 92
        8
 66
     8
424
  8421504
 43
1.0
 76
     1
 77
     6
 78
     2
 67
     7
 79
     5
170
     0
171
     0
290
     0
174
     0
 93
        1
 44
0.0
173
     0
291
     1
 45
0.0
1001
ACAD
1000
AcDbSavedByObjectVersion
1070
     0
  0
VISUALSTYLE
  5
34
102
{ACAD_REACTORS
330
2A
102
}
330
2A
100
AcDbVisualStyle
  2
Conceptual
 70
     9
 71
     3
 72
     2
 73
     0
 90
        0
 40
-0.6
 41
-30.0
 62
     5
 63
     7
421
 16777215
 74
     2
 91
        2
 64
     7
 65
   257
 75
     1
175
     1
 42
40.0
 92
        8
 66
     7
 43
1.0
 76
     1
 77
     6
 78
     2
 67
     7
 79
     3
170
     0
171
     0
290
     0
174
     0
 93
        1
 44
0.0
173
     0
291
     0
 45
0.0
1001
ACAD
1000
AcDbSavedByObjectVersion
1070
     0
  0
VISUALSTYLE
  5
35
102
{ACAD_REACTORS
330
2A
102
}
330
2A
100
AcDbVisualStyle
  2
Dim
 70
    11
 71
     2
 72
     2
 73
     0
 90
        0
 40
-0.6
 41
-30.0
 62
     5
 63
     7
421
 16777215
 74
     1
 91
        4
 64
     7
 65
   257
 75
     1
175
     1
 42
1.0
 92
        8
 66
     7
 43
1.0
 76
     1
 77
     6
 78
     2
 67
     7
 79
     5
170
     0
171
     0
290
     0
174
     0
 93
        1
 44
-50.0
173
     0
291
     1
 45
0.0
1001
ACAD
1000
AcDbSavedByObjectVersion
1070
     0
  0
VISUALSTYLE
  5
39
102
{ACAD_REACTORS
330
2A
102
}
330
2A
100
AcDbVisualStyle
  2
Facepattern
 70
    15
 71
     2
 72
     2
 73
     0
 90
        0
 40
-0.6
 41
-30.0
 62
     5
 63
     7
421
 16777215
 74
     1
 91
        4
 64
     7
 65
   257
 75
     1
175
     1
 42
1.0
 92
        8
 66
     7
 43
1.0
 76
     1
 77
     6
 78
     2
 67
     7
 79
     5
170
     0
171
     0
290
     0
174
     0
 93
        1
 44
0.0
173
     0
291
     1
 45
0.0
1001
ACAD
1000
AcDbSavedByObjectVersion
1070
     0
  0
VISUALSTYLE
  5
2B
102
{ACAD_REACTORS
330
2A
102
}
330
2A
100
AcDbVisualStyle
  2
Flat
 70
     0
 71
     2
 72
     1
 73
     1
 90
        2
 40
-0.6
 41
30.0
 62
     5
 63
     7
421
 16777215
 74
     0
 91
        4
 64
     7
 65
   257
 75
     1
175
     1
 42
1.0
 92
        8
 66
     7
 43
1.0
 76
     1
 77
     6
 78
     2
 67
     7
 79
     5
170
     0
171
     0
290
     0
174
     0
 93
       13
 44
0.0
173
     0
291
     1
 45
0.0
1001
ACAD
1000
AcDbSavedByObjectVersion
1070
     0
  0
VISUALSTYLE
  5
2C
102
{ACAD_REACTORS
330
2A
102
}
330
2A
100
AcDbVisualStyle
  2
FlatWithEdges
 70
     1
 71
     2
 72
     1
 73
     1
 90
        2
 40
-0.6
 41
30.0
 62
     5
 63
     7
421
 16777215
 74
     1
 91
        4
 64
     7
 65
   257
 75
     1
175
     1
 42
1.0
 92
        0
 66
   257
 43
1.0
 76
     1
 77
     6
 78
     2
 67
     7
 79
     5
170
     0
171
     0
290
     0
174
     0
 93
       13
 44
0.0
173
     0
291
     1
 45
0.0
1001
ACAD
1000
AcDbSavedByObjectVersion
1070
     0
  0
VISUALSTYLE
  5
2D
102
{ACAD_REACTORS
330
2A
102
}
330
2A
100
AcDbVisualStyle
  2
Gouraud
 70
     2
 71
     2
 72
     2
 73
     1
 90
        2
 40
-0.6
 41
30.0
 62
     5
 63
     7
421
 16777215
 74
     0
 91
        4
 64
     7
 65
   257
 75
     1
175
     1
 42
1.0
 92
        0
 66
     7
 43
1.0
 76
     1
 77
     6
 78
     2
 67
     7
 79
     5
170
     0
171
     0
290
     0
174
     0
 93
       13
 44
0.0
173
     0
291
     1
 45
0.0
1001
ACAD
1000
AcDbSavedByObjectVersion
1070
     0
  0
VISUALSTYLE
  5
2E
102
{ACAD_REACTORS
330
2A
102
}
330
2A
100
AcDbVisualStyle
  2
GouraudWithEdges
 70
     3
 71
     2
 72
     2
 73
     1
 90
        2
 40
-0.6
 41
30.0
 62
     5
 63
     7
421
 16777215
 74
     1
 91
        4
 64
     7
 65
   257
 75
     1
175
     1
 42
1.0
 92
        0
 66
   257
 43
1.0
 76
     1
 77
     6
 78
     2
 67
     7
 79
     5
170
     0
171
     0
290
     0
174
     0
 93
       13
 44
0.0
173
     0
291
     1
 45
0.0
1001
ACAD
1000
AcDbSavedByObjectVersion
1070
     0
  0
VISUALSTYLE
  5
38
102
{ACAD_REACTORS
330
2A
102
}
330
2A
100
AcDbVisualStyle
  2
Linepattern
 70
    14
 71
     2
 72
     2
 73
     0
 90
        0
 40
-0.6
 41
-30.0
 62
     5
 63
     7
421
 16777215
 74
     1
 91
        4
 64
     7
 65
   257
 75
     7
175
     7
 42
1.0
 92
        8
 66
     7
 43
1.0
 76
     1
 77
     6
 78
     2
 67
     7
 79
     5
170
     0
171
     0
290
     0
174
     0
 93
        1
 44
0.0
173
     0
291
     1
 45
0.0
1001
ACAD
1000
AcDbSavedByObjectVersion
1070
     0
  0
VISUALSTYLE
  5
33
102
{ACAD_REACTORS
330
2A
102
}
330
2A
100
AcDbVisualStyle
  2
Realistic
 70
     8
 71
     2
 72
     2
 73
     0
 90
        0
 40
-0.6
 41
-30.0
 62
     5
 63
     7
421
 16777215
 74
     1
 91
        0
 64
     7
 65
   257
 75
     1
175
     1
 42
1.0
 92
        8
 66
     8
424
  7895160
 43
1.0
 76
     1
 77
     6
 78
     2
 67
     7
 79
     5
170
     0
171
     0
290
     0
174
     0
 93
       13
 44
0.0
173
     0
291
     0
 45
0.0
1001
ACAD
1000
AcDbSavedByObjectVersion
1070
     0
  0
VISUALSTYLE
  5
37
102
{ACAD_REACTORS
330
2A
102
}
330
2A
100
AcDbVisualStyle
  2
Thicken
 70
    13
 71
     2
 72
     2
 73
     0
 90
        0
 40
-0.6
 41
-30.0
 62
     5
 63
     7
421
 16777215
 74
     1
 91
        4
 64
     7
 65
   257
 75
     1
175
     1
 42
1.0
 92
       12
 66
     7
 43
1.0
 76
     1
 77
     6
 78
     2
 67
     7
 79
     5
170
     0
171
     0
290
     0
174
     0
 93
        1
 44
0.0
173
     0
291
     1
 45
0.0
1001
ACAD
1000
AcDbSavedByObjectVersion
1070
     0
  0
ENDSEC
  0
EOF
