  0
SECTION
  2
HEADER
  9
$ACADVER
  1
AC1018
  9
$ACADMAINTVER
 70
     0
  9
$DWGCODEPAGE
  3
ANSI_1252
  9
$INSBASE
 10
0.0
 20
0.0
 30
0.0
  9
$EXTMIN
 10
-18.27002457751131
 20
0.0000036141961534
 30
0.0
  9
$EXTMAX
 10
70.88654577181222
 20
99.68807083182551
 30
0.0
  9
$LIMMIN
 10
0.0
 20
0.0
  9
$LIMMAX
 10
12.0
 20
9.0
  9
$ORTHOMODE
 70
     0
  9
$REGENMODE
 70
     1
  9
$FILLMODE
 70
     1
  9
$QTEXTMODE
 70
     0
  9
$MIRRTEXT
 70
     1
  9
$LTSCALE
 40
0.0393700787401575
  9
$ATTMODE
 70
     1
  9
$TEXTSIZE
 40
0.2
  9
$TRACEWID
 40
0.05
  9
$TEXTSTYLE
  7
Standard
  9
$CLAYER
  8
Default
  9
$CELTYPE
  6
ByLayer
  9
$CECOLOR
 62
   256
  9
$CELTSCALE
 40
1.0
  9
$DISPSILH
 70
     0
  9
$DIMSCALE
 40
1.0
  9
$DIMASZ
 40
0.18
  9
$DIMEXO
 40
0.0625
  9
$DIMDLI
 40
0.38
  9
$DIMRND
 40
0.0
  9
$DIMDLE
 40
0.0
  9
$DIMEXE
 40
0.18
  9
$DIMTP
 40
0.0
  9
$DIMTM
 40
0.0
  9
$DIMTXT
 40
0.18
  9
$DIMCEN
 40
0.09
  9
$DIMTSZ
 40
0.0
  9
$DIMTOL
 70
     0
  9
$DIMLIM
 70
     0
  9
$DIMTIH
 70
     1
  9
$DIMTOH
 70
     1
  9
$DIMSE1
 70
     0
  9
$DIMSE2
 70
     0
  9
$DIMTAD
 70
     0
  9
$DIMZIN
 70
     0
  9
$DIMBLK
  1

  9
$DIMASO
 70
     1
  9
$DIMSHO
 70
     1
  9
$DIMPOST
  1

  9
$DIMAPOST
  1

  9
$DIMALT
 70
     0
  9
$DIMALTD
 70
     2
  9
$DIMALTF
 40
25.4
  9
$DIMLFAC
 40
1.0
  9
$DIMTOFL
 70
     0
  9
$DIMTVP
 40
0.0
  9
$DIMTIX
 70
     0
  9
$DIMSOXD
 70
     0
  9
$DIMSAH
 70
     0
  9
$DIMBLK1
  1

  9
$DIMBLK2
  1

  9
$DIMSTYLE
  2
Standard
  9
$DIMCLRD
 70
     0
  9
$DIMCLRE
 70
     0
  9
$DIMCLRT
 70
     0
  9
$DIMTFAC
 40
1.0
  9
$DIMGAP
 40
0.09
  9
$DIMJUST
 70
     0
  9
$DIMSD1
 70
     0
  9
$DIMSD2
 70
     0
  9
$DIMTOLJ
 70
     1
  9
$DIMTZIN
 70
     0
  9
$DIMALTZ
 70
     0
  9
$DIMALTTZ
 70
     0
  9
$DIMUPT
 70
     0
  9
$DIMDEC
 70
     4
  9
$DIMTDEC
 70
     4
  9
$DIMALTU
 70
     2
  9
$DIMALTTD
 70
     2
  9
$DIMTXSTY
  7
Standard
  9
$DIMAUNIT
 70
     0
  9
$DIMADEC
 70
     0
  9
$DIMALTRND
 40
0.0
  9
$DIMAZIN
 70
     0
  9
$DIMDSEP
 70
    46
  9
$DIMATFIT
 70
     3
  9
$DIMFRAC
 70
     0
  9
$DIMLDRBLK
  1

  9
$DIMLUNIT
 70
     2
  9
$DIMLWD
 70
    -2
  9
$DIMLWE
 70
    -2
  9
$DIMTMOVE
 70
     2
  9
$LUNITS
 70
     2
  9
$LUPREC
 70
     3
  9
$SKETCHINC
 40
0.1
  9
$FILLETRAD
 40
0.5
  9
$AUNITS
 70
     0
  9
$AUPREC
 70
     0
  9
$MENU
  1
.
  9
$ELEVATION
 40
0.0
  9
$PELEVATION
 40
0.0
  9
$THICKNESS
 40
0.0
  9
$LIMCHECK
 70
     0
  9
$CHAMFERA
 40
0.5
  9
$CHAMFERB
 40
0.5
  9
$CHAMFERC
 40
1.0
  9
$CHAMFERD
 40
0.0
  9
$SKPOLY
 70
     0
  9
$TDCREATE
 40
2458135.622422662
  9
$TDUCREATE
 40
2458135.830755996
  9
$TDUPDATE
 40
2458135.622422674
  9
$TDUUPDATE
 40
2458135.830756007
  9
$TDINDWG
 40
0.0000000116
  9
$TDUSRTIMER
 40
0.0000000116
  9
$USRTIMER
 70
     1
  9
$ANGBASE
 50
0.0
  9
$ANGDIR
 70
     0
  9
$PDMODE
 70
     0
  9
$PDSIZE
 40
0.0
  9
$PLINEWID
 40
0.0
  9
$SPLFRAME
 70
     0
  9
$SPLINETYPE
 70
     6
  9
$SPLINESEGS
 70
     8
  9
$HANDSEED
  5
10B
  9
$SURFTAB1
 70
     6
  9
$SURFTAB2
 70
     6
  9
$SURFTYPE
 70
     6
  9
$SURFU
 70
     6
  9
$SURFV
 70
     6
  9
$UCSBASE
  2

  9
$UCSNAME
  2

  9
$UCSORG
 10
0.0
 20
0.0
 30
0.0
  9
$UCSXDIR
 10
1.0
 20
0.0
 30
0.0
  9
$UCSYDIR
 10
0.0
 20
1.0
 30
0.0
  9
$UCSORTHOREF
  2

  9
$UCSORTHOVIEW
 70
     0
  9
$UCSORGTOP
 10
0.0
 20
0.0
 30
0.0
  9
$UCSORGBOTTOM
 10
0.0
 20
0.0
 30
0.0
  9
$UCSORGLEFT
 10
0.0
 20
0.0
 30
0.0
  9
$UCSORGRIGHT
 10
0.0
 20
0.0
 30
0.0
  9
$UCSORGFRONT
 10
0.0
 20
0.0
 30
0.0
  9
$UCSORGBACK
 10
0.0
 20
0.0
 30
0.0
  9
$PUCSBASE
  2

  9
$PUCSNAME
  2

  9
$PUCSORG
 10
0.0
 20
0.0
 30
0.0
  9
$PUCSXDIR
 10
1.0
 20
0.0
 30
0.0
  9
$PUCSYDIR
 10
0.0
 20
1.0
 30
0.0
  9
$PUCSORTHOREF
  2

  9
$PUCSORTHOVIEW
 70
     0
  9
$PUCSORGTOP
 10
0.0
 20
0.0
 30
0.0
  9
$PUCSORGBOTTOM
 10
0.0
 20
0.0
 30
0.0
  9
$PUCSORGLEFT
 10
0.0
 20
0.0
 30
0.0
  9
$PUCSORGRIGHT
 10
0.0
 20
0.0
 30
0.0
  9
$PUCSORGFRONT
 10
0.0
 20
0.0
 30
0.0
  9
$PUCSORGBACK
 10
0.0
 20
0.0
 30
0.0
  9
$USERI1
 70
     0
  9
$USERI2
 70
     0
  9
$USERI3
 70
     0
  9
$USERI4
 70
     0
  9
$USERI5
 70
     0
  9
$USERR1
 40
0.0
  9
$USERR2
 40
0.0
  9
$USERR3
 40
0.0
  9
$USERR4
 40
0.0
  9
$USERR5
 40
0.0
  9
$WORLDVIEW
 70
     1
  9
$SHADEDGE
 70
     3
  9
$SHADEDIF
 70
    70
  9
$TILEMODE
 70
     1
  9
$MAXACTVP
 70
    64
  9
$PINSBASE
 10
0.0
 20
0.0
 30
0.0
  9
$PLIMCHECK
 70
     0
  9
$PEXTMIN
 10
1.000000000000000E+20
 20
1.000000000000000E+20
 30
1.000000000000000E+20
  9
$PEXTMAX
 10
-1.000000000000000E+20
 20
-1.000000000000000E+20
 30
-1.000000000000000E+20
  9
$PLIMMIN
 10
0.0
 20
0.0
  9
$PLIMMAX
 10
12.0
 20
9.0
  9
$UNITMODE
 70
     0
  9
$VISRETAIN
 70
     1
  9
$PLINEGEN
 70
     0
  9
$PSLTSCALE
 70
     1
  9
$TREEDEPTH
 70
  3020
  9
$CMLSTYLE
  2
Standard
  9
$CMLJUST
 70
     0
  9
$CMLSCALE
 40
1.0
  9
$PROXYGRAPHICS
 70
     1
  9
$MEASUREMENT
 70
     0
  9
$CELWEIGHT
370
    -1
  9
$ENDCAPS
280
     0
  9
$JOINSTYLE
280
     0
  9
$LWDISPLAY
290
     0
  9
$INSUNITS
 70
     1
  9
$HYPERLINKBASE
  1

  9
$STYLESHEET
  1

  9
$XEDIT
290
     1
  9
$CEPSNTYPE
380
     0
  9
$PSTYLEMODE
290
     1
  9
$FINGERPRINTGUID
  2
{18DEA299-9E97-41B6-B3CF-0CA81A771BCF}
  9
$VERSIONGUID
  2
{FAEB1C32-E019-11D5-929B-00C0DF256EC4}
  9
$EXTNAMES
290
     1
  9
$PSVPSCALE
 40
0.0
  9
$OLESTARTUP
290
     0
  9
$SORTENTS
280
   127
  9
$INDEXCTL
280
     0
  9
$HIDETEXT
280
     1
  9
$XCLIPFRAME
290
     0
  9
$HALOGAP
280
     0
  9
$OBSCOLOR
 70
   257
  9
$OBSLTYPE
280
     0
  9
$INTERSECTIONDISPLAY
280
     0
  9
$INTERSECTIONCOLOR
 70
   257
  9
$DIMASSOC
280
     2
  9
$PROJECTNAME
  1

  0
ENDSEC
  0
SECTION
  2
CLASSES
  0
CLASS
  1
ACDBDICTIONARYWDFLT
  2
AcDbDictionaryWithDefault
  3
ObjectDBX Classes
 90
        0
 91
        4
280
     0
281
     0
  0
CLASS
  1
VISUALSTYLE
  2
AcDbVisualStyle
  3
ObjectDBX Classes
 90
     4095
 91
        4
280
     0
281
     0
  0
ENDSEC
  0
SECTION
  2
TABLES
  0
TABLE
  2
VPORT
  5
8
330
0
100
AcDbSymbolTable
 70
     1
  0
VPORT
  5
29
330
8
100
AcDbSymbolTableRecord
100
AcDbViewportTableRecord
  2
*Active
 70
     0
 10
0.0
 20
0.0
 11
1.0
 21
1.0
 12
26.30826059715046
 22
49.84403722301084
 13
0.0
 23
0.0
 14
0.5
 24
0.5
 15
0.5
 25
0.5
 16
0.0
 26
0.0
 36
1.0
 17
0.0
 27
0.0
 37
0.0
 40
101.6818285619819
 41
0.8943554914620375
 42
50.0
 43
0.0
 44
0.0
 50
0.0
 51
0.0
 71
     0
 72
   100
 73
     1
 74
     3
 75
     0
 76
     0
 77
     0
 78
     0
281
     0
 65
     1
110
0.0
120
0.0
130
0.0
111
1.0
121
0.0
131
0.0
112
0.0
122
1.0
132
0.0
 79
     0
146
0.0
  0
ENDTAB
  0
TABLE
  2
LTYPE
  5
5
330
0
100
AcDbSymbolTable
 70
     1
  0
LTYPE
  5
14
330
5
100
AcDbSymbolTableRecord
100
AcDbLinetypeTableRecord
  2
ByBlock
 70
     0
  3

 72
    65
 73
     0
 40
0.0
  0
LTYPE
  5
15
330
5
100
AcDbSymbolTableRecord
100
AcDbLinetypeTableRecord
  2
ByLayer
 70
     0
  3

 72
    65
 73
     0
 40
0.0
  0
LTYPE
  5
16
330
5
100
AcDbSymbolTableRecord
100
AcDbLinetypeTableRecord
  2
Continuous
 70
     0
  3
Solid line
 72
    65
 73
     0
 40
0.0
  0
ENDTAB
  0
TABLE
  2
LAYER
  5
2
330
0
100
AcDbSymbolTable
 70
     3
  0
LAYER
  5
10
330
2
100
AcDbSymbolTableRecord
100
AcDbLayerTableRecord
  2
0
 70
     0
 62
     7
  6
Continuous
370
    -3
390
F
  0
LAYER
  5
3B
330
2
100
AcDbSymbolTableRecord
100
AcDbLayerTableRecord
  2
2d
 70
     0
 62
     7
  6
Continuous
370
    -3
390
F
  0
LAYER
  5
3E
330
2
100
AcDbSymbolTableRecord
100
AcDbLayerTableRecord
  2
Default
 70
     0
 62
     7
  6
Continuous
370
    -3
390
F
  0
ENDTAB
  0
TABLE
  2
STYLE
  5
3
330
0
100
AcDbSymbolTable
 70
     1
  0
STYLE
  5
11
330
3
100
AcDbSymbolTableRecord
100
AcDbTextStyleTableRecord
  2
Standard
 70
     0
 40
0.0
 41
1.0
 50
0.0
 71
     0
 42
0.2
  3
txt
  4

  0
ENDTAB
  0
TABLE
  2
VIEW
  5
6
330
0
100
AcDbSymbolTable
 70
     0
  0
ENDTAB
  0
TABLE
  2
UCS
  5
7
330
0
100
AcDbSymbolTable
 70
     0
  0
ENDTAB
  0
TABLE
  2
APPID
  5
9
330
0
100
AcDbSymbolTable
 70
     1
  0
APPID
  5
12
330
9
100
AcDbSymbolTableRecord
100
AcDbRegAppTableRecord
  2
ACAD
 70
     0
  0
ENDTAB
  0
TABLE
  2
DIMSTYLE
  5
A
330
0
100
AcDbSymbolTable
 70
     1
100
AcDbDimStyleTable
  0
DIMSTYLE
105
27
330
A
100
AcDbSymbolTableRecord
100
AcDbDimStyleTableRecord
  2
Standard
 70
     0
340
11
  0
ENDTAB
  0
TABLE
  2
BLOCK_RECORD
  5
1
330
0
100
AcDbSymbolTable
 70
     1
  0
BLOCK_RECORD
  5
1F
330
1
100
AcDbSymbolTableRecord
100
AcDbBlockTableRecord
  2
*Model_Space
340
22
  0
BLOCK_RECORD
  5
1B
330
1
100
AcDbSymbolTableRecord
100
AcDbBlockTableRecord
  2
*Paper_Space
340
1E
  0
BLOCK_RECORD
  5
23
330
1
100
AcDbSymbolTableRecord
100
AcDbBlockTableRecord
  2
*Paper_Space0
340
26
  0
ENDTAB
  0
ENDSEC
  0
SECTION
  2
BLOCKS
  0
BLOCK
  5
20
330
1F
100
AcDbEntity
  8
0
100
AcDbBlockBegin
  2
*Model_Space
 70
     0
 10
0.0
 20
0.0
 30
0.0
  3
*Model_Space
  1

  0
ENDBLK
  5
21
330
1F
100
AcDbEntity
  8
0
100
AcDbBlockEnd
  0
BLOCK
  5
1C
330
1B
100
AcDbEntity
 67
     1
  8
0
100
AcDbBlockBegin
  2
*Paper_Space
 70
     0
 10
0.0
 20
0.0
 30
0.0
  3
*Paper_Space
  1

  0
ENDBLK
  5
1D
330
1B
100
AcDbEntity
 67
     1
  8
0
100
AcDbBlockEnd
  0
BLOCK
  5
24
330
23
100
AcDbEntity
  8
0
100
AcDbBlockBegin
  2
*Paper_Space0
 70
     0
 10
0.0
 20
0.0
 30
0.0
  3
*Paper_Space0
  1

  0
ENDBLK
  5
25
330
23
100
AcDbEntity
  8
0
100
AcDbBlockEnd
  0
ENDSEC
  0
SECTION
  2
ENTITIES
  0
SPLINE
  5
3C
330
1F
100
AcDbEntity
  8
2d
100
AcDbSpline
210
0.0
220
0.0
230
1.0
 70
    24
 71
     2
 72
     6
 73
     3
 74
     0
 42
0.0000000001
 43
0.0000000001
 40
0.0
 40
0.0
 40
0.0
 40
7.848876774204172
 40
7.848876774204172
 40
7.848876774204172
 10
45.4891057747311
 20
6.991406503768615
 30
0.0
 10
49.40919399518464
 20
7.176136030433395
 30
0.0
 10
53.32928221563819
 20
7.360865557098175
 30
0.0
  0
SPLINE
  5
3D
330
1F
100
AcDbEntity
  8
2d
100
AcDbSpline
210
0.0
220
0.0
230
1.0
 70
    24
 71
     2
 72
     6
 73
     3
 74
     0
 42
0.0000000001
 43
0.0000000001
 40
0.0
 40
0.0
 40
0.0
 40
12.19679806943908
 40
12.19679806943908
 40
12.19679806943908
 10
53.32928221563819
 20
7.360865557098175
 30
0.0
 10
59.42092128893815
 20
7.647926852492486
 30
0.0
 10
65.5125603622381
 20
7.934988147886798
 30
0.0
  0
SPLINE
  5
3F
330
1F
100
AcDbEntity
  8
Default
100
AcDbSpline
210
0.0
220
0.0
230
1.0
 70
     8
 71
     3
 72
     8
 73
     4
 74
     0
 42
0.0000000001
 43
0.0000000001
 40
0.0
 40
0.0
 40
0.0
 40
0.0
 40
1.0
 40
1.0
 40
1.0
 40
1.0
 10
66.36639188023175
 20
11.89574713713974
 30
0.0
 10
66.28544196130514
 20
12.33074243857483
 30
0.0
 10
64.72872465563347
 20
12.08396815096962
 30
0.0
 10
64.79249062394955
 20
11.73843512118591
 30
0.0
  0
SPLINE
  5
40
330
1F
100
AcDbEntity
  8
Default
100
AcDbSpline
210
0.0
220
0.0
230
1.0
 70
     8
 71
     3
 72
    12
 73
     8
 74
     0
 42
0.0000000001
 43
0.0000000001
 40
0.0
 40
0.0
 40
0.0
 40
0.0
 40
4.075608005830127
 40
6.214927350803357
 40
7.776150965900031
 40
10.05358055447213
 40
11.63602218120346
 40
11.63602218120346
 40
11.63602218120346
 40
11.63602218120346
 10
64.79249062394955
 20
11.73843512118591
 30
0.0
 10
65.03903954081932
 20
10.40244358078266
 30
0.0
 10
65.4240499718502
 20
8.366916674823393
 30
0.0
 10
65.91715121131412
 20
5.822153661318598
 30
0.0
 10
66.30901554893754
 20
3.86844682089232
 30
0.0
 10
66.6836791047681
 20
2.100530800200833
 30
0.0
 10
66.98974000403628
 20
0.8506222061651472
 30
0.0
 10
67.1327905650221
 20
0.3417193444548078
 30
0.0
  0
SPLINE
  5
41
330
1F
100
AcDbEntity
  8
Default
100
AcDbSpline
210
0.0
220
0.0
230
1.0
 70
    12
 71
     2
 72
     6
 73
     3
 74
     0
 42
0.0000000001
 43
0.0000000001
 40
0.0
 40
0.0
 40
0.0
 40
0.1617250231774149
 40
0.1617250231774149
 40
0.1617250231774149
 10
67.1327905650221
 20
0.3417193444548078
 30
0.0
 41
1.0
 10
67.15854821485667
 20
0.2496557336322424
 30
0.0
 41
0.796624821257893
 10
67.25307456665159
 20
0.250000000149779
 30
0.0
 41
1.0
  0
POLYLINE
  5
42
330
1F
100
AcDbEntity
  8
Default
100
AcDb2dPolyline
 66
     1
 10
0.0
 20
0.0
 30
0.0
  0
VERTEX
  5
43
330
42
100
AcDbEntity
  8
Default
100
AcDbVertex
100
AcDb2dVertex
 10
67.25307456665159
 20
0.250000000149779
 30
0.0
  0
VERTEX
  5
44
330
42
100
AcDbEntity
  8
Default
100
AcDbVertex
100
AcDb2dVertex
 10
68.13246210785522
 20
0.2500000000025469
 30
0.0
  0
SEQEND
  5
45
330
42
100
AcDbEntity
  8
Default
  0
SPLINE
  5
46
330
1F
100
AcDbEntity
  8
Default
100
AcDbSpline
210
0.0
220
0.0
230
1.0
 70
    12
 71
     2
 72
     8
 73
     5
 74
     0
 42
0.0000000001
 43
0.0000000001
 40
0.0
 40
0.0
 40
0.0
 40
0.1031392570058396
 40
0.1031392570058396
 40
0.2062785140116793
 40
0.2062785140116793
 40
0.2062785140116793
 10
68.13246210785522
 20
0.2500000000025469
 30
0.0
 41
1.0
 10
68.18711988971204
 20
0.2504306407105492
 30
0.0
 41
0.9173238814127567
 10
68.22413474616727
 20
0.2906495289413994
 30
0.0
 41
1.0
 10
68.26114960262251
 20
0.3308684171722495
 30
0.0
 41
0.9173238814127567
 10
68.25694723136627
 20
0.3860004515993313
 30
0.0
 41
1.0
  0
SPLINE
  5
47
330
1F
100
AcDbEntity
  8
Default
100
AcDbSpline
210
0.0
220
0.0
230
1.0
 70
     8
 71
     3
 72
    12
 73
     8
 74
     0
 42
0.0000000001
 43
0.0000000001
 40
0.0
 40
0.0
 40
0.0
 40
0.0
 40
0.7514737850817015
 40
1.566456838973574
 40
3.892332276448664
 40
7.424774559109473
 40
11.66634422846215
 40
11.66634422846215
 40
11.66634422846215
 40
11.66634422846215
 10
68.25694723136627
 20
0.3860004515993313
 30
0.0
 10
68.2345255420192
 20
0.6361065780231847
 30
0.0
 10
68.18269226915747
 20
1.155756123726353
 30
0.0
 10
68.01536274902746
 20
2.442465321976497
 30
0.0
 10
67.6690283013337
 20
4.63995033129677
 30
0.0
 10
67.08673586717302
 20
7.955855045142775
 30
0.0
 10
66.62506112037138
 20
10.50575310652759
 30
0.0
 10
66.36639188023175
 20
11.89574713713974
 30
0.0
  0
SPLINE
  5
48
330
1F
100
AcDbEntity
  8
Default
100
AcDbSpline
210
0.0
220
0.0
230
1.0
 70
     8
 71
     3
 72
     8
 73
     4
 74
     0
 42
0.0000000001
 43
0.0000000001
 40
0.0
 40
0.0
 40
0.0
 40
0.0
 40
1.0
 40
1.0
 40
1.0
 40
1.0
 10
45.44468413679571
 20
12.96509930461675
 30
0.0
 10
45.50295839638538
 20
13.19307722869357
 30
0.0
 10
46.8492229639462
 20
12.04704767807619
 30
0.0
 10
46.72951042890206
 20
11.61100536266391
 30
0.0
  0
SPLINE
  5
49
330
1F
100
AcDbEntity
  8
Default
100
AcDbSpline
210
0.0
220
0.0
230
1.0
 70
     8
 71
     3
 72
    12
 73
     8
 74
     0
 42
0.0000000001
 43
0.0000000001
 40
-11.73436453706199
 40
-11.73436453706199
 40
-11.73436453706199
 40
-11.73436453706199
 40
-6.022936351937637
 40
-3.81463380051578
 40
-1.607441121937693
 40
-0.7624026957771577
 40
0.0
 40
0.0
 40
0.0
 40
0.0
 10
46.72951042890206
 20
11.61100536266391
 30
0.0
 10
46.22547779910151
 20
9.775111110983998
 30
0.0
 10
45.56168831342772
 20
7.219923520257391
 30
0.0
 10
44.66821090801952
 20
3.964620497640883
 30
0.0
 10
44.16865640531886
 20
2.283583091880033
 30
0.0
 10
43.77478010598591
 20
1.074497017412652
 30
0.0
 10
43.59527494654326
 20
0.5695840996473109
 30
0.0
 10
43.50705156701535
 20
0.3307514002392909
 30
0.0
  0
SPLINE
  5
4A
330
1F
100
AcDbEntity
  8
Default
100
AcDbSpline
210
0.0
220
0.0
230
1.0
 70
    12
 71
     2
 72
     6
 73
     3
 74
     0
 42
0.0000000001
 43
0.0000000001
 40
-0.1507688580311169
 40
-0.1507688580311169
 40
-0.1507688580311169
 40
0.0
 40
0.0
 40
0.0
 10
43.50705156701535
 20
0.3307514002392909
 30
0.0
 41
1.0
 10
43.47666549141549
 20
0.2495877867361318
 30
0.0
 41
0.8220953716035141
 10
43.39047377786675
 20
0.2500000001077141
 30
0.0
 41
1.0
  0
POLYLINE
  5
4B
330
1F
100
AcDbEntity
  8
Default
100
AcDb2dPolyline
 66
     1
 10
0.0
 20
0.0
 30
0.0
  0
VERTEX
  5
4C
330
4B
100
AcDbEntity
  8
Default
100
AcDbVertex
100
AcDb2dVertex
 10
43.39047377786675
 20
0.2500000001077141
 30
0.0
  0
VERTEX
  5
4D
330
4B
100
AcDbEntity
  8
Default
100
AcDbVertex
100
AcDb2dVertex
 10
42.51609298104562
 20
0.2500000000959792
 30
0.0
  0
SEQEND
  5
4E
330
4B
100
AcDbEntity
  8
Default
  0
SPLINE
  5
4F
330
1F
100
AcDbEntity
  8
Default
100
AcDbSpline
210
0.0
220
0.0
230
1.0
 70
    12
 71
     2
 72
     8
 73
     5
 74
     0
 42
0.0000000001
 43
0.0000000001
 40
-0.2144909358657908
 40
-0.2144909358657908
 40
-0.2144909358657908
 40
-0.1072454679328954
 40
-0.1072454679328954
 40
0.0
 40
0.0
 40
0.0
 10
42.51609298104562
 20
0.2500000000959792
 30
0.0
 41
1.0
 10
42.45902286421642
 20
0.2508427689091037
 30
0.0
 41
0.9116601906854737
 10
42.42185973220947
 20
0.2941626270991267
 30
0.0
 41
1.0
 10
42.3846966002025
 20
0.3374824852891498
 30
0.0
 41
0.9116601906854737
 10
42.39262984177744
 20
0.3944896573785839
 30
0.0
 41
1.0
  0
SPLINE
  5
50
330
1F
100
AcDbEntity
  8
Default
100
AcDbSpline
210
0.0
220
0.0
230
1.0
 70
     8
 71
     3
 72
    12
 73
     8
 74
     0
 42
0.0000000001
 43
0.0000000001
 40
-12.9395342906976
 40
-12.9395342906976
 40
-12.9395342906976
 40
-12.9395342906976
 40
-11.2700328251102
 40
-8.96535412608164
 40
-6.692729927957126
 40
-2.27398297048818
 40
0.0
 40
0.0
 40
0.0
 40
0.0
 10
42.39262984177744
 20
0.3944896573785839
 30
0.0
 10
42.47593100540949
 20
0.9452966304215067
 30
0.0
 10
42.72600948639844
 20
2.246548242747309
 30
0.0
 10
43.19587437700426
 20
4.27535245048935
 30
0.0
 10
43.93290669313366
 20
7.182087992760135
 30
0.0
 10
44.7057578735901
 20
10.06896654843663
 30
0.0
 10
45.25696583222587
 20
12.23071623929087
 30
0.0
 10
45.44468413679571
 20
12.96509930461675
 30
0.0
  0
SPLINE
  5
51
330
1F
100
AcDbEntity
  8
2d
100
AcDbSpline
210
0.0
220
0.0
230
1.0
 70
    12
 71
     2
 72
     6
 73
     3
 74
     0
 42
0.0000000001
 43
0.0000000001
 40
0.0
 40
0.0
 40
0.0
 40
0.4310398640088937
 40
0.4310398640088937
 40
0.4310398640088937
 10
42.65329766720174
 20
0.2488643641572595
 30
0.0
 41
1.0
 10
42.71034566094042
 20
0.000129569419173
 30
0.0
 41
0.7823181170086803
 10
42.96661520930878
 20
0.0000037408397427
 30
0.0
 41
1.0
  0
SPLINE
  5
52
330
1F
100
AcDbEntity
  8
2d
100
AcDbSpline
210
0.0
220
0.0
230
1.0
 70
    12
 71
     2
 72
     6
 73
     3
 74
     0
 42
0.0000000001
 43
0.0000000001
 40
0.0
 40
0.0
 40
0.0
 40
0.4289094180770073
 40
0.4289094180770073
 40
0.4289094180770073
 10
42.96661520930878
 20
0.0000037408397427
 30
0.0
 41
1.0
 10
43.22116548361761
 20
0.0017889326893859
 30
0.0
 41
0.7842841462799475
 10
43.27778234626996
 20
0.2488650786892277
 30
0.0
 41
1.0
  0
SPLINE
  5
53
330
1F
100
AcDbEntity
  8
2d
100
AcDbSpline
210
0.0
220
0.0
230
1.0
 70
    12
 71
     2
 72
     6
 73
     3
 74
     0
 42
0.0000000001
 43
0.0000000001
 40
0.0
 40
0.0
 40
0.0
 40
0.4310398640088979
 40
0.4310398640088979
 40
0.4310398640088979
 10
67.37977517094076
 20
0.2488643641572578
 30
0.0
 41
1.0
 10
67.43682316467945
 20
0.0001295694191714
 30
0.0
 41
0.7823181170086804
 10
67.69309270758295
 20
0.0000037408017029
 30
0.0
 41
1.0
  0
SPLINE
  5
54
330
1F
100
AcDbEntity
  8
2d
100
AcDbSpline
210
0.0
220
0.0
230
1.0
 70
    12
 71
     2
 72
     6
 73
     3
 74
     0
 42
0.0000000001
 43
0.0000000001
 40
0.0
 40
0.0
 40
0.0
 40
0.4289094290360362
 40
0.4289094290360362
 40
0.4289094290360362
 10
67.69309270758295
 20
0.0000037408017029
 30
0.0
 41
1.0
 10
67.94764298543245
 20
0.0017889239540475
 30
0.0
 41
0.7842841355134242
 10
68.00425985000899
 20
0.24886507868922
 30
0.0
 41
1.0
  0
SPLINE
  5
55
330
1F
100
AcDbEntity
  8
Default
100
AcDbSpline
210
0.0
220
0.0
230
1.0
 70
     8
 71
     3
 72
    10
 73
     6
 74
     0
 42
0.0000000001
 43
0.0000000001
 40
0.0
 40
0.0
 40
0.0
 40
0.0
 40
1.0
 40
2.0
 40
3.0
 40
3.0
 40
3.0
 40
3.0
 10
70.35977884328585
 20
13.21560149068299
 30
0.0
 10
70.56221659015713
 20
13.65345939762816
 30
0.0
 10
70.68730104010905
 20
14.60632401393969
 30
0.0
 10
70.49417647388755
 20
16.05776433404243
 30
0.0
 10
69.84210412853517
 20
16.8215018914893
 30
0.0
 10
69.4222653925548
 20
17.05186255209718
 30
0.0
  0
SPLINE
  5
56
330
1F
100
AcDbEntity
  8
2d
100
AcDbSpline
210
0.0
220
0.0
230
1.0
 70
    12
 71
     2
 72
     7
 73
     4
 74
     0
 42
0.0000000001
 43
0.0000000001
 40
-2.027998105079835
 40
-2.027998105079835
 40
-2.027998105079835
 40
0.0
 40
6.338733939133574
 40
6.338733939133574
 40
6.338733939133574
 10
56.68616787400327
 20
9.88259098836463
 30
0.0
 41
1.0
 10
57.69620668923741
 20
9.961387814668159
 30
0.0
 41
1.000005203025454
 10
61.87178259842115
 20
10.21695477043118
 30
0.0
 41
0.9999837373644742
 10
65.03284992429938
 20
10.44664622020466
 30
0.0
 41
1.0
  0
SPLINE
  5
57
330
1F
100
AcDbEntity
  8
2d
100
AcDbSpline
210
0.0
220
0.0
230
1.0
 70
    24
 71
     2
 72
     6
 73
     3
 74
     0
 42
0.0000000001
 43
0.0000000001
 40
0.0
 40
0.0
 40
0.0
 40
8.248392282848796
 40
8.248392282848796
 40
8.248392282848796
 10
65.08521263370153
 20
10.16734674168343
 30
0.0
 10
60.96558808666447
 20
9.973214301336219
 30
0.0
 10
56.84596353962741
 20
9.779081860989008
 30
0.0
  0
SPLINE
  5
58
330
1F
100
AcDbEntity
  8
2d
100
AcDbSpline
210
0.0
220
0.0
230
1.0
 70
    12
 71
     3
 72
    13
 73
     9
 74
     0
 42
0.0000000001
 43
0.0000000001
 40
0.0
 40
0.0
 40
0.0
 40
0.0
 40
0.042165029283441
 40
0.042165029283441
 40
0.1851134990730053
 40
0.3151501296029974
 40
0.419205199954522
 40
0.5211817161378027
 40
0.5211817161378027
 40
0.5211817161378027
 40
0.5211817161378027
 10
56.84596353962741
 20
9.779081860989008
 30
0.0
 41
1.0
 10
56.84352561818325
 20
9.778966976820083
 30
0.0
 41
1.0
 10
56.8410477587921
 20
9.778953847781334
 30
0.0
 41
1.0
 10
56.83003762394691
 20
9.779367928250895
 30
0.0
 41
1.0
 10
56.812286804482
 20
9.781975187006353
 30
0.0
 41
1.0
 10
56.77441057381699
 20
9.798684967701863
 30
0.0
 41
1.0
 10
56.73054935106006
 20
9.831525830421926
 30
0.0
 41
1.0
 10
56.70078611577278
 20
9.863812993757579
 30
0.0
 41
1.0
 10
56.68616787400327
 20
9.88259098836463
 30
0.0
 41
1.0
  0
POLYLINE
  5
59
330
1F
100
AcDbEntity
  8
2d
100
AcDb2dPolyline
 66
     1
 10
0.0
 20
0.0
 30
0.0
  0
VERTEX
  5
5A
330
59
100
AcDbEntity
  8
2d
100
AcDbVertex
100
AcDb2dVertex
 10
56.68616787400327
 20
9.88259098836463
 30
0.0
  0
VERTEX
  5
5B
330
59
100
AcDbEntity
  8
2d
100
AcDbVertex
100
AcDb2dVertex
 10
51.25965320006463
 20
9.549899094450176
 30
0.0
  0
VERTEX
  5
5C
330
59
100
AcDbEntity
  8
2d
100
AcDbVertex
100
AcDb2dVertex
 10
50.43020403582636
 20
9.504579167790443
 30
0.0
  0
SEQEND
  5
5D
330
59
100
AcDbEntity
  8
2d
  0
SPLINE
  5
5E
330
1F
100
AcDbEntity
  8
2d
100
AcDbSpline
210
0.0
220
0.0
230
1.0
 70
    12
 71
     2
 72
     6
 73
     3
 74
     0
 42
0.0000000001
 43
0.0000000001
 40
-0.1127097566723501
 40
-0.1127097566723501
 40
-0.1127097566723501
 40
0.0
 40
0.0
 40
0.0
 10
50.43020403582636
 20
9.504579167790443
 30
0.0
 41
1.0
 10
50.38096037941472
 20
9.47488996767914
 30
0.0
 41
0.9703634682422234
 10
50.32354431992038
 20
9.471762282887147
 30
0.0
 41
1.0
  0
SPLINE
  5
5F
330
1F
100
AcDbEntity
  8
2d
100
AcDbSpline
210
0.0
220
0.0
230
1.0
 70
    24
 71
     2
 72
     6
 73
     3
 74
     0
 42
0.0000000001
 43
0.0000000001
 40
0.0
 40
0.0
 40
0.0
 40
4.229644761769545
 40
4.229644761769545
 40
4.229644761769545
 10
50.32354431992038
 20
9.471762282887147
 30
0.0
 10
48.21106682644874
 20
9.372200531863378
 30
0.0
 10
46.0985893329771
 20
9.272638780839607
 30
0.0
  0
SPLINE
  5
60
330
1F
100
AcDbEntity
  8
Default
100
AcDbSpline
210
0.0
220
0.0
230
1.0
 70
     8
 71
     3
 72
    69
 73
    65
 74
     0
 42
0.0000000001
 43
0.0000000001
 40
-43.49792870486104
 40
-43.49792870486104
 40
-43.49792870486104
 40
-43.49792870486104
 40
-42.49792870486104
 40
-41.49792870486104
 40
-40.49792870486104
 40
-39.49792870486104
 40
-38.49792870486104
 40
-37.49792870486104
 40
-36.49792870486104
 40
-36.49792870486104
 40
-36.49792870486104
 40
-35.49792870486104
 40
-35.49792870486104
 40
-35.49792870486104
 40
-34.49792870486104
 40
-33.49792870486104
 40
-32.49792870486104
 40
-31.49792870486104
 40
-31.49792870486104
 40
-31.49792870486104
 40
-30.49792870486104
 40
-29.49792870486104
 40
-28.49792870486104
 40
-27.49792870486104
 40
-26.49792870486104
 40
-25.49792870486104
 40
-24.49792870486104
 40
-23.49792870486104
 40
-22.49792870486104
 40
-21.49792870486104
 40
-20.49792870486104
 40
-19.49792870486104
 40
-18.49792870486104
 40
-17.49792870486104
 40
-17.49792870486104
 40
-17.49792870486104
 40
-16.49792870486104
 40
-16.49792870486104
 40
-16.49792870486104
 40
-15.25791399501503
 40
-14.64755937131435
 40
-14.36640446090968
 40
-14.10595709433219
 40
-14.10595709433219
 40
-14.10595709433219
 40
-13.30592883902516
 40
-12.48211571383625
 40
-11.65347543551716
 40
-11.28601306079457
 40
-10.0
 40
-10.0
 40
-10.0
 40
-9.0
 40
-8.0
 40
-7.0
 40
-7.0
 40
-7.0
 40
-6.0
 40
-5.0
 40
-4.0
 40
-3.0
 40
-2.0
 40
-1.0
 40
0.0
 40
0.0
 40
0.0
 40
0.0
 10
44.82555231062366
 20
10.55478693509197
 30
0.0
 10
43.79323362059009
 20
12.1564795766755
 30
0.0
 10
42.09264721743158
 20
15.57207151370647
 30
0.0
 10
39.73661131680672
 20
20.76725386990526
 30
0.0
 10
37.66980991561146
 20
26.12386017711937
 30
0.0
 10
37.09259164720089
 20
31.8406326851563
 30
0.0
 10
36.62773777890703
 20
37.52879159410961
 30
0.0
 10
36.53555684852305
 20
43.23597488297914
 30
0.0
 10
36.60342696897867
 20
47.06589063659959
 30
0.0
 10
37.01830041830398
 20
48.91599998375803
 30
0.0
 10
37.07747504230728
 20
49.17988653798593
 30
0.0
 10
37.33342475543814
 20
49.22378927014302
 30
0.0
 10
37.64828704493637
 20
49.21071105866234
 30
0.0
 10
38.57019507944786
 20
49.17777402788371
 30
0.0
 10
40.41494869229254
 20
49.14631704187621
 30
0.0
 10
43.18087899065038
 20
49.05120463496408
 30
0.0
 10
45.94592841586451
 20
48.93684284923821
 30
0.0
 10
47.78969795131886
 20
48.86745486653454
 30
0.0
 10
48.71019194403964
 20
48.80545487085296
 30
0.0
 10
49.2235744874769
 20
48.76871661388969
 30
0.0
 10
50.25006891705182
 20
48.69960238384314
 30
0.0
 10
51.76069195882564
 20
48.28100012015991
 30
0.0
 10
52.93718491581784
 20
47.20823459853528
 30
0.0
 10
53.5393955340367
 20
45.76119582123464
 30
0.0
 10
53.75176734704661
 20
44.22870533780752
 30
0.0
 10
54.02323687748547
 20
42.70970382556385
 30
0.0
 10
54.25440503551241
 20
41.18298454903696
 30
0.0
 10
54.45981177864645
 20
39.65314529826622
 30
0.0
 10
54.76489917998131
 20
38.13691236031461
 30
0.0
 10
54.76724467928828
 20
36.58125882508767
 30
0.0
 10
54.27031058262491
 20
35.08862791859595
 30
0.0
 10
53.2894911223561
 20
33.88336960719797
 30
0.0
 10
52.22738292257607
 20
32.76573683864873
 30
0.0
 10
51.55093189685684
 20
31.98900969526644
 30
0.0
 10
51.20368191433452
 20
31.6093994718083
 30
0.0
 10
50.48113962781401
 20
30.809162429004
 30
0.0
 10
49.24852483373353
 20
29.38415109061178
 30
0.0
 10
48.501251076203
 20
28.60821481081965
 30
0.0
 10
48.21515725276447
 20
28.31114753822601
 30
0.0
 10
47.84238325286226
 20
27.8053036307229
 30
0.0
 10
47.63512383417275
 20
27.11836807658783
 30
0.0
 10
47.58046920996458
 20
26.73922448836894
 30
0.0
 10
47.57819348560195
 20
26.53376938682276
 30
0.0
 10
47.58630527684111
 20
26.4476245958307
 30
0.0
 10
47.6112408569404
 20
26.18281621102537
 30
0.0
 10
47.8395400653726
 20
25.64219684713981
 30
0.0
 10
48.48646948185872
 20
25.11309039833985
 30
0.0
 10
49.14127344160742
 20
24.91707240308014
 30
0.0
 10
49.95518679377417
 20
24.79013865751752
 30
0.0
 10
50.50575049055307
 20
24.72478672649103
 30
0.0
 10
50.92958621108963
 20
24.66924869471624
 30
0.0
 10
52.48330538102734
 20
24.47112823442803
 30
0.0
 10
55.5972453755656
 20
24.13075059730983
 30
0.0
 10
60.26559426517507
 20
23.59930798980267
 30
0.0
 10
63.37713700891697
 20
23.23667420011631
 30
0.0
 10
64.93025292506665
 20
23.02108375705766
 30
0.0
 10
65.34650171234371
 20
22.95625487423047
 30
0.0
 10
66.17670399904797
 20
22.77062868004779
 30
0.0
 10
67.2625059074263
 20
22.09017343347248
 30
0.0
 10
68.06646362341576
 20
21.10353561122269
 30
0.0
 10
68.6527705967424
 20
19.98117327552221
 30
0.0
 10
69.04123132962238
 20
18.77758464628242
 30
0.0
 10
69.30946595693813
 20
17.54451620911077
 30
0.0
 10
69.49852096290375
 20
16.7162102801535
 30
0.0
 10
69.59818611742654
 20
16.30763248986434
 30
0.0
  0
SPLINE
  5
61
330
1F
100
AcDbEntity
  8
Default
100
AcDbSpline
210
0.0
220
0.0
230
1.0
 70
    12
 71
     3
 72
    22
 73
    18
 74
     0
 42
0.0000000001
 43
0.0000000001
 40
-2.881053510126612
 40
-2.881053510126612
 40
-2.881053510126612
 40
-2.881053510126612
 40
1.149335861775221
 40
1.149335861775221
 40
1.149335861775221
 40
2.149335861775221
 40
3.149335861775221
 40
4.149335861775221
 40
5.149335861775221
 40
6.149335861775221
 40
7.149335861775221
 40
8.14933586177522
 40
9.14933586177522
 40
10.14933586177522
 40
11.14933586177522
 40
12.14933586177522
 40
13.14933586177522
 40
13.14933586177522
 40
13.14933586177522
 40
13.14933586177522
 10
69.59818611742654
 20
16.30763248986434
 30
0.0
 41
1.0
 10
69.91651521010698
 20
15.00264081152994
 30
0.0
 41
0.9999851807206624
 10
70.24312582709703
 20
13.69080778374592
 30
0.0
 41
0.9999851807206624
 10
70.57759909530353
 20
12.38986031185321
 30
0.0
 41
1.0
 10
70.67532414394736
 20
12.27228153599312
 30
0.0
 41
1.0
 10
70.86104991679025
 20
12.01602781318702
 30
0.0
 41
1.0
 10
70.92869461325279
 20
11.54932029426092
 30
0.0
 41
1.0
 10
70.74344626107192
 20
11.08400898601549
 30
0.0
 41
1.0
 10
70.28447995774927
 20
10.92870445906967
 30
0.0
 41
1.0
 10
69.83654399403574
 20
10.83843555984292
 30
0.0
 41
1.0
 10
69.37743422109014
 20
10.77392217750212
 30
0.0
 41
1.0
 10
68.91877316886816
 20
10.72111389690219
 30
0.0
 41
1.0
 10
68.45860088732977
 20
10.67795884857908
 30
0.0
 41
1.0
 10
67.99809598138631
 20
10.64030502507308
 30
0.0
 41
1.0
 10
67.53723826136645
 20
10.60675204333744
 30
0.0
 41
1.0
 10
67.07618197918364
 20
10.57622839089392
 30
0.0
 41
1.0
 10
66.76872975941795
 20
10.55712769145105
 30
0.0
 41
1.0
 10
66.61499651633851
 20
10.54770098751327
 30
0.0
 41
1.0
  0
SPLINE
  5
62
330
1F
100
AcDbEntity
  8
Default
100
AcDbSpline
210
0.0
220
0.0
230
1.0
 70
     8
 71
     3
 72
    24
 73
    20
 74
     0
 42
0.0000000001
 43
0.0000000001
 40
0.0
 40
0.0
 40
0.0
 40
0.0
 40
1.0
 40
2.0
 40
3.0
 40
4.0
 40
5.0
 40
6.0
 40
7.0
 40
8.0
 40
9.0
 40
10.0
 40
11.0
 40
12.0
 40
13.0
 40
14.0
 40
15.0
 40
16.0
 40
17.0
 40
17.0
 40
17.0
 40
17.0
 10
12.60596087006976
 20
66.97748388182012
 30
0.0
 10
13.03029231077682
 20
67.15198058039226
 30
0.0
 10
13.89357445209342
 20
67.50191930841302
 30
0.0
 10
14.86426829652553
 20
68.57180782719944
 30
0.0
 10
14.92118687319453
 20
70.01024441358373
 30
0.0
 10
14.68375547782528
 20
71.3607627118614
 30
0.0
 10
14.35315443449085
 20
72.70510049737564
 30
0.0
 10
14.07114340144403
 20
74.05637243694682
 30
0.0
 10
13.79461050990912
 20
75.40968304172502
 30
0.0
 10
13.52879724126842
 20
76.76490207790748
 30
0.0
 10
13.26747556198687
 20
78.12105050695327
 30
0.0
 10
13.00756050285605
 20
79.47744534403319
 30
0.0
 10
12.74516542604221
 20
80.83340047501564
 30
0.0
 10
12.47645782818838
 20
82.18799939435257
 30
0.0
 10
12.19920591447144
 20
83.54133679488882
 30
0.0
 10
11.91621780538953
 20
84.8917549559842
 30
0.0
 10
11.60932970836346
 20
86.24356941253006
 30
0.0
 10
11.32620686537991
 20
87.57581495995075
 30
0.0
 10
11.1414384742088
 20
88.52558364566775
 30
0.0
 10
11.35605851589375
 20
88.9328136683094
 30
0.0
  0
SPLINE
  5
63
330
1F
100
AcDbEntity
  8
Default
100
AcDbSpline
210
0.0
220
0.0
230
1.0
 70
     8
 71
     3
 72
    24
 73
    20
 74
     0
 42
0.0000000001
 43
0.0000000001
 40
0.0
 40
0.0
 40
0.0
 40
0.0
 40
1.0
 40
2.0
 40
3.0
 40
4.0
 40
5.0
 40
6.0
 40
7.0
 40
8.0
 40
9.0
 40
10.0
 40
11.0
 40
12.0
 40
13.0
 40
14.0
 40
15.0
 40
16.0
 40
17.0
 40
17.0
 40
17.0
 40
17.0
 10
-12.60596087006976
 20
66.97748388182012
 30
0.0
 10
-13.03029231077682
 20
67.15198058039226
 30
0.0
 10
-13.89357445209342
 20
67.50191930841302
 30
0.0
 10
-14.86426829652553
 20
68.57180782719944
 30
0.0
 10
-14.92118687319453
 20
70.01024441358373
 30
0.0
 10
-14.68375547782528
 20
71.3607627118614
 30
0.0
 10
-14.35315443449085
 20
72.70510049737564
 30
0.0
 10
-14.07114340144403
 20
74.05637243694682
 30
0.0
 10
-13.79461050990912
 20
75.40968304172502
 30
0.0
 10
-13.52879724126842
 20
76.76490207790748
 30
0.0
 10
-13.26747556198687
 20
78.12105050695327
 30
0.0
 10
-13.00756050285605
 20
79.47744534403319
 30
0.0
 10
-12.74516542604221
 20
80.83340047501564
 30
0.0
 10
-12.47645782818838
 20
82.18799939435257
 30
0.0
 10
-12.19920591447144
 20
83.54133679488882
 30
0.0
 10
-11.91621780538953
 20
84.8917549559842
 30
0.0
 10
-11.60932970836346
 20
86.24356941253006
 30
0.0
 10
-11.32620686537991
 20
87.57581495995075
 30
0.0
 10
-11.1414384742088
 20
88.52558364566775
 30
0.0
 10
-11.35605851589375
 20
88.9328136683094
 30
0.0
  0
SPLINE
  5
64
330
1F
100
AcDbEntity
  8
Default
100
AcDbSpline
210
0.0
220
0.0
230
1.0
 70
    12
 71
     3
 72
    26
 73
    22
 74
     0
 42
0.0000000001
 43
0.0000000001
 40
-20.60494584009761
 40
-20.60494584009761
 40
-20.60494584009761
 40
-20.60494584009761
 40
-11.38219645279454
 40
-9.557085647278775
 40
-6.795743050197698
 40
-5.900113487983635
 40
-4.730044586557434
 40
-4.288488773741011
 40
-3.913994001811806
 40
-3.913994001811806
 40
-3.913994001811806
 40
-2.913994001811806
 40
-2.913994001811806
 40
-2.913994001811806
 40
-1.659148468571966
 40
-0.9477660598311382
 40
-0.4909444677124019
 40
0.0
 40
0.0
 40
0.0
 40
2.857808750040077
 40
2.857808750040077
 40
2.857808750040077
 40
2.857808750040077
 10
13.06725367985827
 20
86.0669095536362
 30
0.0
 41
1.0
 10
13.68190743747966
 20
83.05435755061629
 30
0.0
 41
1.0
 10
14.29916428957287
 20
79.42329863080542
 30
0.0
 41
1.0
 10
15.18421790364408
 20
74.90601865806035
 30
0.0
 41
1.0
 10
15.56214255547948
 20
73.11805061905727
 30
0.0
 41
1.0
 10
15.87782776770365
 20
71.54045679071791
 30
0.0
 41
1.0
 10
16.00667749065801
 20
70.71392321714065
 30
0.0
 41
1.0
 10
16.05236362076026
 20
70.0529903033359
 30
0.0
 41
1.0
 10
16.04475653463109
 20
69.78065109227599
 30
0.0
 41
1.0
 10
16.03496158741549
 20
69.65624381866738
 30
0.0
 41
1.0
 10
16.00645968990851
 20
69.29423642000917
 30
0.0
 41
1.0
 10
15.85029631336126
 20
68.74252817334404
 30
0.0
 41
1.0
 10
15.67111577928636
 20
68.42936663455097
 30
0.0
 41
1.0
 10
15.46353364932643
 20
68.06656640304243
 30
0.0
 41
1.0
 10
15.01055126359137
 20
67.57053127243137
 30
0.0
 41
1.0
 10
14.29721764671548
 20
67.18325604550701
 30
0.0
 41
1.0
 10
13.79645779727156
 20
66.95119912476444
 30
0.0
 41
1.0
 10
13.47753029347143
 20
66.81919644229082
 30
0.0
 41
1.0
 10
13.32473947513687
 20
66.76158199159237
 30
0.0
 41
1.0
 10
12.43196082077521
 20
66.42493249702834
 30
0.0
 41
0.996778430965168
 10
11.48676841662374
 20
66.18138274292815
 30
0.0
 41
0.996778430965168
 10
10.52433546809766
 20
66.03144263563587
 30
0.0
 41
1.0
  0
SPLINE
  5
65
330
1F
100
AcDbEntity
  8
Default
100
AcDbSpline
210
0.0
220
0.0
230
1.0
 70
    12
 71
     2
 72
     6
 73
     3
 74
     0
 42
0.0000000001
 43
0.0000000001
 40
-2.711085831625823
 40
-2.711085831625823
 40
-2.711085831625823
 40
0.0
 40
0.0
 40
0.0
 10
10.52433546809766
 20
66.03144263563587
 30
0.0
 41
1.0
 10
9.184283008064753
 20
65.82267213381304
 30
0.0
 41
0.9992541422896369
 10
7.820105864365323
 20
65.71009445668653
 30
0.0
 41
1.0
  0
SPLINE
  5
66
330
1F
100
AcDbEntity
  8
Default
100
AcDbSpline
210
0.0
220
0.0
230
1.0
 70
     8
 71
     3
 72
    12
 73
     8
 74
     0
 42
0.0000000001
 43
0.0000000001
 40
-7.828226761141231
 40
-7.828226761141231
 40
-7.828226761141231
 40
-7.828226761141231
 40
-6.050194508418512
 40
-4.53484833374828
 40
-3.60227614418289
 40
-2.606907841720857
 40
0.0
 40
0.0
 40
0.0
 40
0.0
 10
7.820105864365323
 20
65.71009445668653
 30
0.0
 10
7.229562872068003
 20
65.65958564467392
 30
0.0
 10
6.136108676126309
 20
65.5591043293237
 30
0.0
 10
4.728550765751818
 20
65.49635061662516
 30
0.0
 10
3.58128477903729
 20
65.46495697846983
 30
0.0
 10
2.069772554854158
 20
65.44078404545294
 30
0.0
 10
0.8690028674204129
 20
65.44339520072597
 30
0.0
 10
0.0
 20
65.44352506132294
 30
0.0
  0
SPLINE
  5
67
330
1F
100
AcDbEntity
  8
Default
100
AcDbSpline
210
0.0
220
0.0
230
1.0
 70
     8
 71
     3
 72
    12
 73
     8
 74
     0
 42
0.0000000001
 43
0.0000000001
 40
0.0
 40
0.0
 40
0.0
 40
0.0
 40
2.606907841720857
 40
3.60227614418289
 40
4.53484833374828
 40
6.050194508418512
 40
7.828226761141231
 40
7.828226761141231
 40
7.828226761141231
 40
7.828226761141231
 10
0.0
 20
65.44352506132294
 30
0.0
 10
-0.8690028674204129
 20
65.44339520072597
 30
0.0
 10
-2.069772554854158
 20
65.44078404545294
 30
0.0
 10
-3.58128477903729
 20
65.46495697846983
 30
0.0
 10
-4.728550765751818
 20
65.49635061662516
 30
0.0
 10
-6.136108676126309
 20
65.5591043293237
 30
0.0
 10
-7.229562872068003
 20
65.65958564467392
 30
0.0
 10
-7.820105864365323
 20
65.71009445668653
 30
0.0
  0
SPLINE
  5
68
330
1F
100
AcDbEntity
  8
Default
100
AcDbSpline
210
0.0
220
0.0
230
1.0
 70
    12
 71
     2
 72
     6
 73
     3
 74
     0
 42
0.0000000001
 43
0.0000000001
 40
0.0
 40
0.0
 40
0.0
 40
2.711085831625823
 40
2.711085831625823
 40
2.711085831625823
 10
-7.820105864365323
 20
65.71009445668653
 30
0.0
 41
1.0
 10
-9.184283008064753
 20
65.82267213381304
 30
0.0
 41
0.9992541422896369
 10
-10.52433546809766
 20
66.03144263563587
 30
0.0
 41
1.0
  0
SPLINE
  5
69
330
1F
100
AcDbEntity
  8
Default
100
AcDbSpline
210
0.0
220
0.0
230
1.0
 70
    12
 71
     3
 72
    26
 73
    22
 74
     0
 42
0.0000000001
 43
0.0000000001
 40
-2.857808750040077
 40
-2.857808750040077
 40
-2.857808750040077
 40
-2.857808750040077
 40
0.0
 40
0.0
 40
0.0
 40
0.4909444677124019
 40
0.9477660598311382
 40
1.659148468571966
 40
2.913994001811806
 40
2.913994001811806
 40
2.913994001811806
 40
3.913994001811806
 40
3.913994001811806
 40
3.913994001811806
 40
4.288488773741011
 40
4.730044586557434
 40
5.900113487983635
 40
6.795743050197698
 40
9.557085647278775
 40
11.38219645279454
 40
20.60494584009761
 40
20.60494584009761
 40
20.60494584009761
 40
20.60494584009761
 10
-10.52433546809766
 20
66.03144263563587
 30
0.0
 41
1.0
 10
-11.48676841662374
 20
66.18138274292815
 30
0.0
 41
0.996778430965168
 10
-12.43196082077521
 20
66.42493249702834
 30
0.0
 41
0.996778430965168
 10
-13.32473947513687
 20
66.76158199159237
 30
0.0
 41
1.0
 10
-13.47753029347143
 20
66.81919644229082
 30
0.0
 41
1.0
 10
-13.79645779727156
 20
66.95119912476444
 30
0.0
 41
1.0
 10
-14.29721764671548
 20
67.18325604550701
 30
0.0
 41
1.0
 10
-15.01055126359137
 20
67.57053127243137
 30
0.0
 41
1.0
 10
-15.46353364932643
 20
68.06656640304243
 30
0.0
 41
1.0
 10
-15.67111577928636
 20
68.42936663455097
 30
0.0
 41
1.0
 10
-15.85029631336126
 20
68.74252817334404
 30
0.0
 41
1.0
 10
-16.00645968990851
 20
69.29423642000917
 30
0.0
 41
1.0
 10
-16.03496158741549
 20
69.65624381866738
 30
0.0
 41
1.0
 10
-16.04475653463109
 20
69.78065109227599
 30
0.0
 41
1.0
 10
-16.05236362076026
 20
70.0529903033359
 30
0.0
 41
1.0
 10
-16.00667749065801
 20
70.71392321714065
 30
0.0
 41
1.0
 10
-15.87782776770365
 20
71.54045679071791
 30
0.0
 41
1.0
 10
-15.56214255547948
 20
73.11805061905727
 30
0.0
 41
1.0
 10
-15.18421790364408
 20
74.90601865806035
 30
0.0
 41
1.0
 10
-14.29916428957287
 20
79.42329863080542
 30
0.0
 41
1.0
 10
-13.68190743747966
 20
83.05435755061629
 30
0.0
 41
1.0
 10
-13.06725367985827
 20
86.0669095536362
 30
0.0
 41
1.0
  0
SPLINE
  5
6A
330
1F
100
AcDbEntity
  8
2d
100
AcDbSpline
210
0.0
220
0.0
230
1.0
 70
    12
 71
     2
 72
     6
 73
     3
 74
     0
 42
0.0000000001
 43
0.0000000001
 40
-0.7531954478553211
 40
-0.7531954478553211
 40
-0.7531954478553211
 40
0.0
 40
0.0
 40
0.0
 10
-16.61197176444936
 20
81.92829987905222
 30
0.0
 41
1.0
 10
-16.79615977497942
 20
82.2567890218148
 30
0.0
 41
0.9999762331953115
 10
-16.98485965288364
 20
82.58270725728937
 30
0.0
 41
1.0
  0
SPLINE
  5
6B
330
1F
100
AcDbEntity
  8
2d
100
AcDbSpline
210
0.0
220
0.0
230
1.0
 70
     8
 71
     3
 72
    12
 73
     8
 74
     0
 42
0.0000000001
 43
0.0000000001
 40
0.0
 40
0.0
 40
0.0
 40
0.0
 40
0.2867730178946158
 40
0.3610303428414948
 40
0.608000551307572
 40
0.9510226973293663
 40
1.426047664512124
 40
1.426047664512124
 40
1.426047664512124
 40
1.426047664512124
 10
-16.98485965288364
 20
82.58270725728937
 30
0.0
 10
-17.02987476123812
 20
82.66710140544998
 30
0.0
 10
-17.09753270772251
 20
82.76696693269534
 30
0.0
 10
-17.1876891309504
 20
82.94905440959499
 30
0.0
 10
-17.21420842746797
 20
83.17363223903033
 30
0.0
 10
-17.15831693830875
 20
83.5247820301138
 30
0.0
 10
-17.06045342045869
 20
83.7819150525807
 30
0.0
 10
-17.00039729711535
 20
83.92771482623145
 30
0.0
  0
SPLINE
  5
6C
330
1F
100
AcDbEntity
  8
2d
100
AcDbSpline
210
0.0
220
0.0
230
1.0
 70
     8
 71
     3
 72
    24
 73
    20
 74
     0
 42
0.0000000001
 43
0.0000000001
 40
0.0
 40
0.0
 40
0.0
 40
0.0
 40
1.0
 40
2.0
 40
3.0
 40
4.0
 40
5.0
 40
6.0
 40
7.0
 40
8.0
 40
9.0
 40
10.0
 40
11.0
 40
12.0
 40
13.0
 40
14.0
 40
15.0
 40
16.0
 40
17.0
 40
17.0
 40
17.0
 40
17.0
 10
-17.00039729711535
 20
83.92771482623145
 30
0.0
 10
-16.5941967912384
 20
84.75712960486342
 30
0.0
 10
-15.66273595360362
 20
86.35462348404337
 30
0.0
 10
-14.40296152508199
 20
88.82388292564467
 30
0.0
 10
-12.87051518683742
 20
91.13990486875382
 30
0.0
 10
-11.14619009411768
 20
93.31555417800998
 30
0.0
 10
-9.104560788912297
 20
95.2060889382501
 30
0.0
 10
-6.750658194391877
 20
96.696916862324
 30
0.0
 10
-4.13541134263944
 20
97.65979052289183
 30
0.0
 10
-1.390591448161968
 20
98.11672282801321
 30
0.0
 10
1.390591743969303
 20
98.11672278923042
 30
0.0
 10
4.135411407027374
 20
97.65979051152998
 30
0.0
 10
6.750658307054955
 20
96.69691677043288
 30
0.0
 10
9.104560371765494
 20
95.20608926883725
 30
0.0
 10
11.14619024788812
 20
93.31555402531497
 30
0.0
 10
12.87051488863135
 20
91.13990525696606
 30
0.0
 10
14.40296142353391
 20
88.82388311462363
 30
0.0
 10
15.66273595309995
 20
86.35462350442835
 30
0.0
 10
16.59419667315786
 20
84.75712980695171
 30
0.0
 10
17.00039729711535
 20
83.92771482623145
 30
0.0
  0
SPLINE
  5
6D
330
1F
100
AcDbEntity
  8
2d
100
AcDbSpline
210
0.0
220
0.0
230
1.0
 70
     8
 71
     3
 72
    12
 73
     8
 74
     0
 42
0.0000000001
 43
0.0000000001
 40
-1.426047664512124
 40
-1.426047664512124
 40
-1.426047664512124
 40
-1.426047664512124
 40
-0.9510226973293663
 40
-0.608000551307572
 40
-0.3610303428414948
 40
-0.2867730178946158
 40
0.0
 40
0.0
 40
0.0
 40
0.0
 10
17.00039729711535
 20
83.92771482623145
 30
0.0
 10
17.06045342045869
 20
83.7819150525807
 30
0.0
 10
17.15831693830875
 20
83.5247820301138
 30
0.0
 10
17.21420842746797
 20
83.17363223903033
 30
0.0
 10
17.1876891309504
 20
82.94905440959499
 30
0.0
 10
17.09753270772251
 20
82.76696693269534
 30
0.0
 10
17.02987476123812
 20
82.66710140544998
 30
0.0
 10
16.98485965288364
 20
82.58270725728937
 30
0.0
  0
SPLINE
  5
6E
330
1F
100
AcDbEntity
  8
2d
100
AcDbSpline
210
0.0
220
0.0
230
1.0
 70
    12
 71
     2
 72
     6
 73
     3
 74
     0
 42
0.0000000001
 43
0.0000000001
 40
0.0
 40
0.0
 40
0.0
 40
0.7531954478553211
 40
0.7531954478553211
 40
0.7531954478553211
 10
16.98485965288364
 20
82.58270725728937
 30
0.0
 41
1.0
 10
16.79615977497942
 20
82.2567890218148
 30
0.0
 41
0.9999762331953115
 10
16.61197176444936
 20
81.92829987905222
 30
0.0
 41
1.0
  0
SPLINE
  5
6F
330
1F
100
AcDbEntity
  8
Default
100
AcDbSpline
210
0.0
220
0.0
230
1.0
 70
     8
 71
     3
 72
    54
 73
    50
 74
     0
 42
0.0000000001
 43
0.0000000001
 40
0.0
 40
0.0
 40
0.0
 40
0.0
 40
1.0
 40
2.0
 40
3.0
 40
4.0
 40
5.0
 40
6.0
 40
7.0
 40
8.0
 40
9.0
 40
10.0
 40
11.0
 40
12.0
 40
13.0
 40
14.0
 40
15.0
 40
16.0
 40
17.0
 40
18.0
 40
19.0
 40
20.0
 40
21.0
 40
22.0
 40
23.0
 40
24.0
 40
25.0
 40
26.0
 40
27.0
 40
28.0
 40
29.0
 40
30.0
 40
31.0
 40
32.0
 40
33.0
 40
34.0
 40
35.0
 40
36.0
 40
37.0
 40
38.0
 40
39.0
 40
40.0
 40
41.0
 40
42.0
 40
43.0
 40
44.0
 40
45.0
 40
46.0
 40
47.0
 40
47.0
 40
47.0
 40
47.0
 10
8.51903525066484
 20
93.00803240535814
 30
0.0
 10
8.738453394925436
 20
92.79537884005094
 30
0.0
 10
9.159561464187504
 20
92.35101520259653
 30
0.0
 10
9.714519970980021
 20
91.6199571428561
 30
0.0
 10
10.21702296163334
 20
90.8528012832054
 30
0.0
 10
10.69981414653922
 20
90.07335181034962
 30
0.0
 10
11.17766449181954
 20
89.29085371611039
 30
0.0
 10
11.64742831576753
 20
88.5034691146798
 30
0.0
 10
12.10902189605149
 20
87.71127095442041
 30
0.0
 10
12.56606692396539
 20
86.91645829364148
 30
0.0
 10
13.02892090486258
 20
86.12496183085621
 30
0.0
 10
13.50741066436543
 20
85.3428712094623
 30
0.0
 10
14.00321575181315
 20
84.57129499578413
 30
0.0
 10
14.53175058746985
 20
83.8224815121856
 30
0.0
 10
15.06532557209846
 20
83.07504913426267
 30
0.0
 10
15.64533314469717
 20
82.37002172734408
 30
0.0
 10
16.2374585205237
 20
81.65084999527488
 30
0.0
 10
17.29210140557741
 20
81.47955130115506
 30
0.0
 10
17.71689202855032
 20
82.40909468698487
 30
0.0
 10
18.30172904643954
 20
83.12986421015974
 30
0.0
 10
18.25984636111233
 20
84.092683492983
 30
0.0
 10
17.94923585244449
 20
84.95164887193111
 30
0.0
 10
17.59925142054376
 20
85.8003071693069
 30
0.0
 10
17.21480880546455
 20
86.63255501701646
 30
0.0
 10
16.8127196449371
 20
87.45665405014535
 30
0.0
 10
16.38949532611406
 20
88.27006016175235
 30
0.0
 10
15.94697665380565
 20
89.07313635896337
 30
0.0
 10
15.4842209808654
 20
89.86473327626466
 30
0.0
 10
15.00094719429138
 20
90.64397717401181
 30
0.0
 10
14.49684964856401
 20
91.40992211493521
 30
0.0
 10
13.97130183574378
 20
92.16133377138537
 30
0.0
 10
13.42119459980714
 20
92.89500522067404
 30
0.0
 10
12.84385753380982
 20
93.60749408140494
 30
0.0
 10
12.2369844621764
 20
94.29506869550313
 30
0.0
 10
11.59820890742347
 20
94.95317100353218
 30
0.0
 10
10.92545252525129
 20
95.57667171860648
 30
0.0
 10
10.21591829842055
 20
96.15797921534387
 30
0.0
 10
9.475772047014793
 20
96.69960423976642
 30
0.0
 10
8.70943609921869
 20
97.20351997979604
 30
0.0
 10
7.916013420527178
 20
97.66373314497824
 30
0.0
 10
7.098232069891779
 20
98.07904905445545
 30
0.0
 10
6.257377011006433
 20
98.44581245018504
 30
0.0
 10
5.394875510970055
 20
98.75759264956034
 30
0.0
 10
4.522372102945246
 20
99.03989798486276
 30
0.0
 10
3.637226708095144
 20
99.28026799920434
 30
0.0
 10
2.738686250286355
 20
99.46490753296807
 30
0.0
 10
1.830957348799014
 20
99.59663607335024
 30
0.0
 10
0.9169584419124577
 20
99.67405591556192
 30
0.0
 10
0.3056482399334478
 20
99.68945714198256
 30
0.0
 10
0.0
 20
99.68807083182509
 30
0.0
  0
SPLINE
  5
70
330
1F
100
AcDbEntity
  8
Default
100
AcDbSpline
210
0.0
220
0.0
230
1.0
 70
     8
 71
     3
 72
    54
 73
    50
 74
     0
 42
0.0000000001
 43
0.0000000001
 40
-47.0
 40
-47.0
 40
-47.0
 40
-47.0
 40
-46.0
 40
-45.0
 40
-44.0
 40
-43.0
 40
-42.0
 40
-41.0
 40
-40.0
 40
-39.0
 40
-38.0
 40
-37.0
 40
-36.0
 40
-35.0
 40
-34.0
 40
-33.0
 40
-32.0
 40
-31.0
 40
-30.0
 40
-29.0
 40
-28.0
 40
-27.0
 40
-26.0
 40
-25.0
 40
-24.0
 40
-23.0
 40
-22.0
 40
-21.0
 40
-20.0
 40
-19.0
 40
-18.0
 40
-17.0
 40
-16.0
 40
-15.0
 40
-14.0
 40
-13.0
 40
-12.0
 40
-11.0
 40
-10.0
 40
-9.0
 40
-8.0
 40
-7.0
 40
-6.0
 40
-5.0
 40
-4.0
 40
-3.0
 40
-2.0
 40
-1.0
 40
0.0
 40
0.0
 40
0.0
 40
0.0
 10
0.0
 20
99.68807083182509
 30
0.0
 10
-0.3056482399334478
 20
99.68945714198256
 30
0.0
 10
-0.9169584419124577
 20
99.67405591556192
 30
0.0
 10
-1.830957348799014
 20
99.59663607335024
 30
0.0
 10
-2.738686250286355
 20
99.46490753296807
 30
0.0
 10
-3.637226708095144
 20
99.28026799920434
 30
0.0
 10
-4.522372102945246
 20
99.03989798486276
 30
0.0
 10
-5.394875510970055
 20
98.75759264956034
 30
0.0
 10
-6.257377011006433
 20
98.44581245018504
 30
0.0
 10
-7.098232069891779
 20
98.07904905445545
 30
0.0
 10
-7.916013420527178
 20
97.66373314497824
 30
0.0
 10
-8.70943609921869
 20
97.20351997979604
 30
0.0
 10
-9.475772047014793
 20
96.69960423976642
 30
0.0
 10
-10.21591829842055
 20
96.15797921534387
 30
0.0
 10
-10.92545252525129
 20
95.57667171860648
 30
0.0
 10
-11.59820890742347
 20
94.95317100353218
 30
0.0
 10
-12.2369844621764
 20
94.29506869550313
 30
0.0
 10
-12.84385753380982
 20
93.60749408140494
 30
0.0
 10
-13.42119459980714
 20
92.89500522067404
 30
0.0
 10
-13.97130183574378
 20
92.16133377138537
 30
0.0
 10
-14.49684964856401
 20
91.40992211493521
 30
0.0
 10
-15.00094719429138
 20
90.64397717401181
 30
0.0
 10
-15.4842209808654
 20
89.86473327626466
 30
0.0
 10
-15.94697665380565
 20
89.07313635896337
 30
0.0
 10
-16.38949532611406
 20
88.27006016175235
 30
0.0
 10
-16.8127196449371
 20
87.45665405014535
 30
0.0
 10
-17.21480880546455
 20
86.63255501701646
 30
0.0
 10
-17.59925142054376
 20
85.8003071693069
 30
0.0
 10
-17.94923585244449
 20
84.95164887193111
 30
0.0
 10
-18.25984636111233
 20
84.092683492983
 30
0.0
 10
-18.30172904643954
 20
83.12986421015974
 30
0.0
 10
-17.71689202855032
 20
82.40909468698487
 30
0.0
 10
-17.29210140557741
 20
81.47955130115506
 30
0.0
 10
-16.2374585205237
 20
81.65084999527488
 30
0.0
 10
-15.64533314469717
 20
82.37002172734408
 30
0.0
 10
-15.06532557209846
 20
83.07504913426267
 30
0.0
 10
-14.53175058746985
 20
83.8224815121856
 30
0.0
 10
-14.00321575181315
 20
84.57129499578413
 30
0.0
 10
-13.50741066436543
 20
85.3428712094623
 30
0.0
 10
-13.02892090486258
 20
86.12496183085621
 30
0.0
 10
-12.56606692396539
 20
86.91645829364148
 30
0.0
 10
-12.10902189605149
 20
87.71127095442041
 30
0.0
 10
-11.64742831576753
 20
88.5034691146798
 30
0.0
 10
-11.17766449181954
 20
89.29085371611039
 30
0.0
 10
-10.69981414653922
 20
90.07335181034962
 30
0.0
 10
-10.21702296163334
 20
90.8528012832054
 30
0.0
 10
-9.714519970980021
 20
91.6199571428561
 30
0.0
 10
-9.159561464187504
 20
92.35101520259653
 30
0.0
 10
-8.738453394925436
 20
92.79537884005094
 30
0.0
 10
-8.51903525066484
 20
93.00803240535814
 30
0.0
  0
SPLINE
  5
71
330
1F
100
AcDbEntity
  8
Default
100
AcDbSpline
210
0.0
220
0.0
230
1.0
 70
     8
 71
     3
 72
    34
 73
    30
 74
     0
 42
0.0000000001
 43
0.0000000001
 40
-27.0
 40
-27.0
 40
-27.0
 40
-27.0
 40
-26.0
 40
-25.0
 40
-24.0
 40
-23.0
 40
-22.0
 40
-21.0
 40
-20.0
 40
-19.0
 40
-18.0
 40
-17.0
 40
-16.0
 40
-15.0
 40
-14.0
 40
-13.0
 40
-12.0
 40
-11.0
 40
-10.0
 40
-9.0
 40
-8.0
 40
-7.0
 40
-6.0
 40
-5.0
 40
-4.0
 40
-3.0
 40
-2.0
 40
-1.0
 40
0.0
 40
0.0
 40
0.0
 40
0.0
 10
-7.78776248835676
 20
84.89710763358376
 30
0.0
 10
-8.06304228421251
 20
84.64992677207249
 30
0.0
 10
-8.321735372607996
 20
83.95978827604375
 30
0.0
 10
-8.60772480313915
 20
82.91813469940458
 30
0.0
 10
-8.740238984116115
 20
81.8389023552768
 30
0.0
 10
-8.91916080448612
 20
80.77048522046216
 30
0.0
 10
-9.095607675301135
 20
79.70078404927403
 30
0.0
 10
-9.27702938964605
 20
78.6321467000771
 30
0.0
 10
-9.458960937124472
 20
77.56353689039875
 30
0.0
 10
-9.641109727388653
 20
76.49497934677592
 30
0.0
 10
-9.822141849842007
 20
75.42622840529059
 30
0.0
 10
-10.00071528803512
 20
74.35706337756022
 30
0.0
 10
-10.17680622490816
 20
73.28748732082352
 30
0.0
 10
-10.35140320366832
 20
72.21766964773087
 30
0.0
 10
-10.52677298367769
 20
71.1479636929137
 30
0.0
 10
-10.69937615089462
 20
70.07786468462542
 30
0.0
 10
-10.85303447630604
 20
69.00452930570023
 30
0.0
 10
-10.98852987321525
 20
67.93019648503922
 30
0.0
 10
-10.71372014969483
 20
66.81909638115756
 30
0.0
 10
-9.741895268319679
 20
66.21750068168134
 30
0.0
 10
-8.662178301148138
 20
66.07930549001364
 30
0.0
 10
-7.583057550536167
 20
65.98789094118038
 30
0.0
 10
-6.501191465816984
 20
65.91538628905059
 30
0.0
 10
-5.418498276986375
 20
65.86342570176274
 30
0.0
 10
-4.335192795500226
 20
65.82456376925252
 30
0.0
 10
-3.251653254857476
 20
65.79379754766343
 30
0.0
 10
-2.167900721445971
 20
65.77141314320335
 30
0.0
 10
-1.084004927522978
 20
65.75771421308778
 30
0.0
 10
-0.3613552956398489
 20
65.75457117542807
 30
0.0
 10
0.0
 20
65.75454705686955
 30
0.0
  0
SPLINE
  5
72
330
1F
100
AcDbEntity
  8
Default
100
AcDbSpline
210
0.0
220
0.0
230
1.0
 70
     8
 71
     3
 72
    34
 73
    30
 74
     0
 42
0.0000000001
 43
0.0000000001
 40
0.0
 40
0.0
 40
0.0
 40
0.0
 40
1.0
 40
2.0
 40
3.0
 40
4.0
 40
5.0
 40
6.0
 40
7.0
 40
8.0
 40
9.0
 40
10.0
 40
11.0
 40
12.0
 40
13.0
 40
14.0
 40
15.0
 40
16.0
 40
17.0
 40
18.0
 40
19.0
 40
20.0
 40
21.0
 40
22.0
 40
23.0
 40
24.0
 40
25.0
 40
26.0
 40
27.0
 40
27.0
 40
27.0
 40
27.0
 10
0.0
 20
65.75454705686955
 30
0.0
 10
0.3613552956398489
 20
65.75457117542807
 30
0.0
 10
1.084004927522978
 20
65.75771421308778
 30
0.0
 10
2.167900721445971
 20
65.77141314320335
 30
0.0
 10
3.251653254857476
 20
65.79379754766343
 30
0.0
 10
4.335192795500226
 20
65.82456376925252
 30
0.0
 10
5.418498276986375
 20
65.86342570176274
 30
0.0
 10
6.501191465816984
 20
65.91538628905059
 30
0.0
 10
7.583057550536167
 20
65.98789094118038
 30
0.0
 10
8.662178301148138
 20
66.07930549001364
 30
0.0
 10
9.741895268319679
 20
66.21750068168134
 30
0.0
 10
10.71372014969483
 20
66.81909638115756
 30
0.0
 10
10.98852987321525
 20
67.93019648503922
 30
0.0
 10
10.85303447630604
 20
69.00452930570023
 30
0.0
 10
10.69937615089462
 20
70.07786468462542
 30
0.0
 10
10.52677298367769
 20
71.1479636929137
 30
0.0
 10
10.35140320366832
 20
72.21766964773087
 30
0.0
 10
10.17680622490816
 20
73.28748732082352
 30
0.0
 10
10.00071528803512
 20
74.35706337756022
 30
0.0
 10
9.822141849842007
 20
75.42622840529059
 30
0.0
 10
9.641109727388653
 20
76.49497934677592
 30
0.0
 10
9.458960937124472
 20
77.56353689039875
 30
0.0
 10
9.27702938964605
 20
78.6321467000771
 30
0.0
 10
9.095607675301135
 20
79.70078404927403
 30
0.0
 10
8.91916080448612
 20
80.77048522046216
 30
0.0
 10
8.740238984116115
 20
81.8389023552768
 30
0.0
 10
8.60772480313915
 20
82.91813469940458
 30
0.0
 10
8.321735372607996
 20
83.95978827604375
 30
0.0
 10
8.06304228421251
 20
84.64992677207249
 30
0.0
 10
7.78776248835676
 20
84.89710763358376
 30
0.0
  0
SPLINE
  5
73
330
1F
100
AcDbEntity
  8
Default
100
AcDbSpline
210
0.0
220
0.0
230
1.0
 70
    12
 71
     2
 72
     6
 73
     3
 74
     0
 42
0.0000000001
 43
0.0000000001
 40
-0.8203573411289729
 40
-0.8203573411289729
 40
-0.8203573411289729
 40
0.0
 40
0.0
 40
0.0
 10
-8.337482037552821
 20
92.67233543805953
 30
0.0
 41
1.0
 10
-8.474357844140236
 20
92.28160179857375
 30
0.0
 41
0.9861613633488482
 10
-8.475967830047228
 20
91.86580008542512
 30
0.0
 41
1.0
  0
SPLINE
  5
74
330
1F
100
AcDbEntity
  8
Default
100
AcDbSpline
210
0.0
220
0.0
230
1.0
 70
    12
 71
     2
 72
     6
 73
     3
 74
     0
 42
0.0000000001
 43
0.0000000001
 40
-2.566878497952314
 40
-2.566878497952314
 40
-2.566878497952314
 40
0.0
 40
0.0
 40
0.0
 10
-8.475967830047228
 20
91.86580008542512
 30
0.0
 41
1.0
 10
-8.488186765727031
 20
90.58060252830994
 30
0.0
 41
0.9999699612791507
 10
-8.480450262487107
 20
89.28943699038945
 30
0.0
 41
1.0
  0
SPLINE
  5
75
330
1F
100
AcDbEntity
  8
Default
100
AcDbSpline
210
0.0
220
0.0
230
1.0
 70
    12
 71
     2
 72
     6
 73
     3
 74
     0
 42
0.0000000001
 43
0.0000000001
 40
-2.49735802111878
 40
-2.49735802111878
 40
-2.49735802111878
 40
0.0
 40
0.0
 40
0.0
 10
-8.480450262487107
 20
89.28943699038945
 30
0.0
 41
1.0
 10
-8.47620542301171
 20
88.03303500764001
 30
0.0
 41
0.9999923388345235
 10
-8.462220966534328
 20
86.78442793029657
 30
0.0
 41
1.0
  0
SPLINE
  5
76
330
1F
100
AcDbEntity
  8
Default
100
AcDbSpline
210
0.0
220
0.0
230
1.0
 70
     8
 71
     3
 72
    12
 73
     8
 74
     0
 42
0.0000000001
 43
0.0000000001
 40
-5.0
 40
-5.0
 40
-5.0
 40
-5.0
 40
-4.0
 40
-3.0
 40
-2.0
 40
-1.0
 40
0.0
 40
0.0
 40
0.0
 40
0.0
 10
-8.462220966534328
 20
86.78442793029657
 30
0.0
 10
-8.460018143950565
 20
86.54887566736174
 30
0.0
 10
-8.445603173130868
 20
86.08402333196078
 30
0.0
 10
-8.324313151630617
 20
85.36953381353244
 30
0.0
 10
-7.806810836267361
 20
84.84964444476853
 30
0.0
 10
-7.141510773609336
 20
84.59365058184306
 30
0.0
 10
-6.672396523057567
 20
84.54208843928457
 30
0.0
 10
-6.438121840320496
 20
84.52883379344803
 30
0.0
  0
SPLINE
  5
77
330
1F
100
AcDbEntity
  8
Default
100
AcDbSpline
210
0.0
220
0.0
230
1.0
 70
     8
 71
     3
 72
     9
 73
     5
 74
     0
 42
0.0000000001
 43
0.0000000001
 40
-2.0
 40
-2.0
 40
-2.0
 40
-2.0
 40
-1.0
 40
0.0
 40
0.0
 40
0.0
 40
0.0
 10
-6.438121840320496
 20
84.52883379344803
 30
0.0
 10
-5.36607095185542
 20
84.47266740925397
 30
0.0
 10
-3.22029080357634
 20
84.39924375284814
 30
0.0
 10
-1.073452326511256
 20
84.37631091074337
 30
0.0
 10
0.0
 20
84.37917420077929
 30
0.0
  0
SPLINE
  5
78
330
1F
100
AcDbEntity
  8
Default
100
AcDbSpline
210
0.0
220
0.0
230
1.0
 70
     8
 71
     3
 72
     9
 73
     5
 74
     0
 42
0.0000000001
 43
0.0000000001
 40
0.0
 40
0.0
 40
0.0
 40
0.0
 40
1.0
 40
2.0
 40
2.0
 40
2.0
 40
2.0
 10
0.0
 20
84.37917420077929
 30
0.0
 10
1.073452326511256
 20
84.37631091074337
 30
0.0
 10
3.22029080357634
 20
84.39924375284814
 30
0.0
 10
5.36607095185542
 20
84.47266740925397
 30
0.0
 10
6.438121840320496
 20
84.52883379344803
 30
0.0
  0
SPLINE
  5
79
330
1F
100
AcDbEntity
  8
Default
100
AcDbSpline
210
0.0
220
0.0
230
1.0
 70
     8
 71
     3
 72
    12
 73
     8
 74
     0
 42
0.0000000001
 43
0.0000000001
 40
0.0
 40
0.0
 40
0.0
 40
0.0
 40
1.0
 40
2.0
 40
3.0
 40
4.0
 40
5.0
 40
5.0
 40
5.0
 40
5.0
 10
6.438121840320496
 20
84.52883379344803
 30
0.0
 10
6.672396523057567
 20
84.54208843928457
 30
0.0
 10
7.141510773609336
 20
84.59365058184306
 30
0.0
 10
7.806810836267361
 20
84.84964444476853
 30
0.0
 10
8.324313151630617
 20
85.36953381353244
 30
0.0
 10
8.445603173130868
 20
86.08402333196078
 30
0.0
 10
8.460018143950565
 20
86.54887566736174
 30
0.0
 10
8.462220966534328
 20
86.78442793029657
 30
0.0
  0
SPLINE
  5
7A
330
1F
100
AcDbEntity
  8
Default
100
AcDbSpline
210
0.0
220
0.0
230
1.0
 70
    12
 71
     2
 72
     6
 73
     3
 74
     0
 42
0.0000000001
 43
0.0000000001
 40
0.0
 40
0.0
 40
0.0
 40
2.49735802111878
 40
2.49735802111878
 40
2.49735802111878
 10
8.462220966534328
 20
86.78442793029657
 30
0.0
 41
1.0
 10
8.47620542301171
 20
88.03303500764001
 30
0.0
 41
0.9999923388345235
 10
8.480450262487107
 20
89.28943699038945
 30
0.0
 41
1.0
  0
SPLINE
  5
7B
330
1F
100
AcDbEntity
  8
Default
100
AcDbSpline
210
0.0
220
0.0
230
1.0
 70
    12
 71
     2
 72
     6
 73
     3
 74
     0
 42
0.0000000001
 43
0.0000000001
 40
0.0
 40
0.0
 40
0.0
 40
2.566878497952314
 40
2.566878497952314
 40
2.566878497952314
 10
8.480450262487107
 20
89.28943699038945
 30
0.0
 41
1.0
 10
8.488186765727031
 20
90.58060252830994
 30
0.0
 41
0.9999699612791507
 10
8.475967830047228
 20
91.86580008542512
 30
0.0
 41
1.0
  0
SPLINE
  5
7C
330
1F
100
AcDbEntity
  8
Default
100
AcDbSpline
210
0.0
220
0.0
230
1.0
 70
    12
 71
     2
 72
     6
 73
     3
 74
     0
 42
0.0000000001
 43
0.0000000001
 40
0.0
 40
0.0
 40
0.0
 40
0.8203573411289729
 40
0.8203573411289729
 40
0.8203573411289729
 10
8.475967830047228
 20
91.86580008542512
 30
0.0
 41
1.0
 10
8.474357844140236
 20
92.28160179857375
 30
0.0
 41
0.9861613633488482
 10
8.337482037552821
 20
92.67233543805953
 30
0.0
 41
1.0
  0
SPLINE
  5
7D
330
1F
100
AcDbEntity
  8
2d
100
AcDbSpline
210
0.0
220
0.0
230
1.0
 70
    12
 71
     2
 72
     6
 73
     3
 74
     0
 42
0.0000000001
 43
0.0000000001
 40
-0.6448747034926395
 40
-0.6448747034926395
 40
-0.6448747034926395
 40
0.0
 40
0.0
 40
0.0
 10
-8.477919817514856
 20
94.16234870192483
 30
0.0
 41
1.0
 10
-8.453215232978877
 20
93.81885989405083
 30
0.0
 41
0.9071244618387343
 10
-8.174991630746941
 20
93.61591530852836
 30
0.0
 41
1.0
  0
SPLINE
  5
7E
330
1F
100
AcDbEntity
  8
2d
100
AcDbSpline
210
0.0
220
0.0
230
1.0
 70
    12
 71
     3
 72
    12
 73
     8
 74
     0
 42
0.0000000001
 43
0.0000000001
 40
0.0
 40
0.0
 40
0.0
 40
0.0
 40
0.25
 40
0.25
 40
0.5
 40
0.5
 40
0.9997219113009066
 40
0.9997219113009066
 40
0.9997219113009066
 40
0.9997219113009066
 10
-8.174991630746941
 20
93.61591530852836
 30
0.0
 41
1.0
 10
-7.997385987099728
 20
93.47646006915596
 30
0.0
 41
1.0
 10
-7.789661681522391
 20
93.38352448552405
 30
0.0
 41
1.0
 10
-7.371921000896226
 20
93.2352366026151
 30
0.0
 41
1.0
 10
-7.155666301605912
 20
93.18037884297806
 30
0.0
 41
1.0
 10
-6.505369006482756
 20
93.0344662513218
 30
0.0
 41
1.0
 10
-6.065862548644088
 20
92.96481367086652
 30
0.0
 41
1.0
 10
-5.625398464005745
 20
92.90539945480185
 30
0.0
 41
1.0
  0
SPLINE
  5
7F
330
1F
100
AcDbEntity
  8
2d
100
AcDbSpline
210
0.0
220
0.0
230
1.0
 70
    12
 71
     3
 72
     8
 73
     4
 74
     0
 42
0.0000000001
 43
0.0000000001
 40
0.0
 40
0.0
 40
0.0
 40
0.0
 40
1.0
 40
1.0
 40
1.0
 40
1.0
 10
-5.625398464005745
 20
92.90539945480185
 30
0.0
 41
1.0
 10
-4.257667398903211
 20
92.7209732556175
 30
0.0
 41
1.0
 10
-1.356675644231249
 20
92.69948423762852
 30
0.0
 41
1.0
 10
-0.0000311016385623
 20
92.69948308756507
 30
0.0
 41
1.0
  0
SPLINE
  5
80
330
1F
100
AcDbEntity
  8
2d
100
AcDbSpline
210
0.0
220
0.0
230
1.0
 70
    12
 71
     3
 72
     8
 73
     4
 74
     0
 42
0.0000000001
 43
0.0000000001
 40
-1.0
 40
-1.0
 40
-1.0
 40
-1.0
 40
0.0
 40
0.0
 40
0.0
 40
0.0
 10
-0.0000311016385623
 20
92.69948308756507
 30
0.0
 41
1.0
 10
1.356613440954124
 20
92.69948423762852
 30
0.0
 41
1.0
 10
4.257605195626086
 20
92.7209732556175
 30
0.0
 41
1.0
 10
5.62533626072862
 20
92.90539945480185
 30
0.0
 41
1.0
  0
SPLINE
  5
81
330
1F
100
AcDbEntity
  8
2d
100
AcDbSpline
210
0.0
220
0.0
230
1.0
 70
    12
 71
     3
 72
    12
 73
     8
 74
     0
 42
0.0000000001
 43
0.0000000001
 40
-0.9997219113009066
 40
-0.9997219113009066
 40
-0.9997219113009066
 40
-0.9997219113009066
 40
-0.5
 40
-0.5
 40
-0.25
 40
-0.25
 40
0.0
 40
0.0
 40
0.0
 40
0.0
 10
5.62533626072862
 20
92.90539945480185
 30
0.0
 41
1.0
 10
6.065800345366963
 20
92.96481367086652
 30
0.0
 41
1.0
 10
6.505306803205631
 20
93.0344662513218
 30
0.0
 41
1.0
 10
7.155604098328787
 20
93.18037884297806
 30
0.0
 41
1.0
 10
7.371858797619101
 20
93.2352366026151
 30
0.0
 41
1.0
 10
7.789599478245266
 20
93.38352448552405
 30
0.0
 41
1.0
 10
7.997323783822603
 20
93.47646006915596
 30
0.0
 41
1.0
 10
8.174929427469817
 20
93.61591530852836
 30
0.0
 41
1.0
  0
SPLINE
  5
82
330
1F
100
AcDbEntity
  8
2d
100
AcDbSpline
210
0.0
220
0.0
230
1.0
 70
    12
 71
     2
 72
     6
 73
     3
 74
     0
 42
0.0000000001
 43
0.0000000001
 40
0.0
 40
0.0
 40
0.0
 40
0.6448747034926395
 40
0.6448747034926395
 40
0.6448747034926395
 10
8.174929427469817
 20
93.61591530852836
 30
0.0
 41
1.0
 10
8.453153029701753
 20
93.81885989405083
 30
0.0
 41
0.9071244618387343
 10
8.477857614237731
 20
94.16234870192483
 30
0.0
 41
1.0
  0
SPLINE
  5
83
330
1F
100
AcDbEntity
  8
2d
100
AcDbSpline
210
0.0
220
0.0
230
1.0
 70
    12
 71
     2
 72
     6
 73
     3
 74
     0
 42
0.0000000001
 43
0.0000000001
 40
0.0
 40
0.0
 40
0.0
 40
5.643204669412431
 40
5.643204669412431
 40
5.643204669412431
 10
-0.0000314816278824
 20
91.20048239249272
 30
0.0
 41
0.9999999996353712
 10
2.826632104167553
 20
91.18535978872804
 30
0.0
 41
0.9972948604213648
 10
5.62527123695202
 20
91.58487749436303
 30
0.0
 41
1.0
  0
SPLINE
  5
84
330
1F
100
AcDbEntity
  8
2d
100
AcDbSpline
210
0.0
220
0.0
230
1.0
 70
     8
 71
     3
 72
    12
 73
     8
 74
     0
 42
0.0000000001
 43
0.0000000001
 40
0.0
 40
0.0
 40
0.0
 40
0.0
 40
0.4994671516374392
 40
0.8955863103882804
 40
1.586681508710117
 40
2.158494129196474
 40
2.776597072244309
 40
2.776597072244309
 40
2.776597072244309
 40
2.776597072244309
 10
5.62527123695202
 20
91.58487749436303
 30
0.0
 10
5.790275253007286
 20
91.60949050537741
 30
0.0
 10
6.085208505535354
 20
91.65524953662467
 30
0.0
 10
6.604176536749888
 20
91.75882652920181
 30
0.0
 10
7.137458595679972
 20
91.90799708269992
 30
0.0
 10
7.709585780237189
 20
92.17218175471402
 30
0.0
 10
8.028164134997665
 20
92.41167914393766
 30
0.0
 10
8.18885585174663
 20
92.54016687492978
 30
0.0
  0
SPLINE
  5
85
330
1F
100
AcDbEntity
  8
2d
100
AcDbSpline
210
0.0
220
0.0
230
1.0
 70
    12
 71
     5
 72
    15
 73
     9
 74
     0
 42
0.0000000001
 43
0.0000000001
 40
0.0351383604038094
 40
0.0351383604038094
 40
0.0351383604038094
 40
0.0351383604038094
 40
0.0351383604038094
 40
0.0351383604038094
 40
0.0804247331775844
 40
0.2517309724427688
 40
0.337384092075361
 40
0.3802106518916571
 40
0.3802106518916571
 40
0.3802106518916571
 40
0.3802106518916571
 40
0.3802106518916571
 40
0.3802106518916571
 10
8.18885585174663
 20
92.54016687492978
 30
0.0
 41
1.0
 10
8.2037099750456
 20
92.55082813120164
 30
0.0
 41
1.0
 10
8.27370142740721
 20
92.60343880314713
 30
0.0
 41
1.0
 10
8.3638382408693
 20
92.68817086781543
 30
0.0
 41
1.0
 10
8.450667157195369
 20
92.80596498836147
 30
0.0
 41
1.0
 10
8.511720530224228
 20
92.94218142610427
 30
0.0
 41
1.0
 10
8.529885317990324
 20
93.05732357248789
 30
0.0
 41
1.0
 10
8.53129175118934
 20
93.10577661562453
 30
0.0
 41
1.0
 10
8.530980911127791
 20
93.12545027307158
 30
0.0
 41
1.0
  0
SPLINE
  5
86
330
1F
100
AcDbEntity
  8
2d
100
AcDbSpline
210
0.0
220
0.0
230
1.0
 70
    12
 71
     2
 72
     6
 73
     3
 74
     0
 42
0.0000000001
 43
0.0000000001
 40
0.0
 40
0.0
 40
0.0
 40
1.034669424620274
 40
1.034669424620274
 40
1.034669424620274
 10
8.530980911127791
 20
93.12545027307158
 30
0.0
 41
1.0
 10
8.504889474101995
 20
93.64576286540692
 30
0.0
 41
0.9999841180155079
 10
8.484703719580661
 20
94.16270909803654
 30
0.0
 41
1.0
  0
SPLINE
  5
87
330
1F
100
AcDbEntity
  8
2d
100
AcDbSpline
210
0.0
220
0.0
230
1.0
 70
    12
 71
     3
 72
     9
 73
     5
 74
     0
 42
0.0000000001
 43
0.0000000001
 40
0.0
 40
0.0
 40
0.0
 40
0.0
 40
0.5167542582376091
 40
1.121171735285004
 40
1.121171735285004
 40
1.121171735285004
 40
1.121171735285004
 10
8.484703719580661
 20
94.16270909803654
 30
0.0
 41
1.0
 10
8.474650654294065
 20
94.42016265127357
 30
0.0
 41
1.0
 10
8.330612745498682
 20
94.77419401972375
 30
0.0
 41
1.0
 10
8.10866783350547
 20
94.97221852525678
 30
0.0
 41
1.0
 10
7.946831119523859
 20
95.08964279682112
 30
0.0
 41
1.0
  0
SPLINE
  5
88
330
1F
100
AcDbEntity
  8
2d
100
AcDbSpline
210
0.0
220
0.0
230
1.0
 70
    12
 71
     3
 72
    22
 73
    18
 74
     0
 42
0.0000000001
 43
0.0000000001
 40
0.0
 40
0.0
 40
0.0
 40
0.0
 40
0.1775755403934416
 40
0.3806350641901354
 40
0.8128427733592402
 40
1.834520878671426
 40
1.834520878671426
 40
1.834520878671426
 40
2.525934032057445
 40
2.525934032057445
 40
2.525934032057445
 40
2.955774838649159
 40
3.915793083643567
 40
4.555797062059269
 40
5.995800443733824
 40
7.275804871634564
 40
8.23580863564132
 40
8.23580863564132
 40
8.23580863564132
 40
8.23580863564132
 10
7.946831119523859
 20
95.08964279682112
 30
0.0
 41
1.0
 10
7.89893255850066
 20
95.1243966762021
 30
0.0
 41
1.0
 10
7.754045136449436
 20
95.22295225672605
 30
0.0
 41
1.0
 10
7.522871205089237
 20
95.36418204888562
 30
0.0
 41
1.0
 10
7.037725594193059
 20
95.62921357655438
 30
0.0
 41
1.0
 10
6.590428185255437
 20
95.81744299475417
 30
0.0
 41
1.0
 10
6.275579976534883
 20
95.94698034648947
 30
0.0
 41
1.0
 10
6.062578168660081
 20
96.03518803027424
 30
0.0
 41
0.9993732553439137
 10
5.845764464492825
 20
96.11442423353452
 30
0.0
 41
0.9993732553439137
 10
5.625546524524468
 20
96.18453997366942
 30
0.0
 41
1.0
 10
5.488770878203516
 20
96.22740007120804
 30
0.0
 41
1.0
 10
5.04674400291859
 20
96.35805736665577
 30
0.0
 41
1.0
 10
4.392861300226507
 20
96.52477095720394
 30
0.0
 41
1.0
 10
3.401002127603771
 20
96.7252632381496
 30
0.0
 41
1.0
 10
2.291107514207177
 20
96.87789854336307
 30
0.0
 41
1.0
 10
1.066995459444978
 20
96.9642680192806
 30
0.0
 41
1.0
 10
0.3199697691326548
 20
96.97995317893725
 30
0.0
 41
1.0
 10
-0.0000314816278824
 20
96.97996972017832
 30
0.0
 41
1.0
  0
SPLINE
  5
89
330
1F
100
AcDbEntity
  8
2d
100
AcDbSpline
210
0.0
220
0.0
230
1.0
 70
    12
 71
     3
 72
    22
 73
    18
 74
     0
 42
0.0000000001
 43
0.0000000001
 40
-8.23580863564132
 40
-8.23580863564132
 40
-8.23580863564132
 40
-8.23580863564132
 40
-7.275804871634564
 40
-5.995800443733824
 40
-4.555797062059269
 40
-3.915793083643567
 40
-2.955774838649159
 40
-2.525934032057445
 40
-2.525934032057445
 40
-2.525934032057445
 40
-1.834520878671426
 40
-1.834520878671426
 40
-1.834520878671426
 40
-0.8128427733592402
 40
-0.3806350641901354
 40
-0.1775755403934416
 40
0.0
 40
0.0
 40
0.0
 40
0.0
 10
-0.0000314816278824
 20
96.97996972017832
 30
0.0
 41
1.0
 10
-0.3200327323884196
 20
96.97995317893725
 30
0.0
 41
1.0
 10
-1.067058422700743
 20
96.9642680192806
 30
0.0
 41
1.0
 10
-2.291170477462941
 20
96.87789854336307
 30
0.0
 41
1.0
 10
-3.401065090859536
 20
96.7252632381496
 30
0.0
 41
1.0
 10
-4.392924263482271
 20
96.52477095720394
 30
0.0
 41
1.0
 10
-5.046806966174355
 20
96.35805736665577
 30
0.0
 41
1.0
 10
-5.488833841459281
 20
96.22740007120804
 30
0.0
 41
1.0
 10
-5.625609487780233
 20
96.18453997366942
 30
0.0
 41
1.0
 10
-5.845827427748589
 20
96.11442423353452
 30
0.0
 41
0.9993732553439137
 10
-6.062641131915846
 20
96.03518803027424
 30
0.0
 41
0.9993732553439137
 10
-6.275642939790647
 20
95.94698034648947
 30
0.0
 41
1.0
 10
-6.590491148511202
 20
95.81744299475417
 30
0.0
 41
1.0
 10
-7.037788557448824
 20
95.62921357655438
 30
0.0
 41
1.0
 10
-7.522934168345001
 20
95.36418204888562
 30
0.0
 41
1.0
 10
-7.754108099705201
 20
95.22295225672605
 30
0.0
 41
1.0
 10
-7.898995521756425
 20
95.1243966762021
 30
0.0
 41
1.0
 10
-7.946894082779624
 20
95.08964279682112
 30
0.0
 41
1.0
  0
SPLINE
  5
8A
330
1F
100
AcDbEntity
  8
2d
100
AcDbSpline
210
0.0
220
0.0
230
1.0
 70
    12
 71
     3
 72
     9
 73
     5
 74
     0
 42
0.0000000001
 43
0.0000000001
 40
-1.121171735285004
 40
-1.121171735285004
 40
-1.121171735285004
 40
-1.121171735285004
 40
-0.5167542582376091
 40
0.0
 40
0.0
 40
0.0
 40
0.0
 10
-7.946894082779624
 20
95.08964279682112
 30
0.0
 41
1.0
 10
-8.108730796761234
 20
94.97221852525678
 30
0.0
 41
1.0
 10
-8.330675708754447
 20
94.77419401972375
 30
0.0
 41
1.0
 10
-8.47471361754983
 20
94.42016265127357
 30
0.0
 41
1.0
 10
-8.484766682836426
 20
94.16270909803654
 30
0.0
 41
1.0
  0
SPLINE
  5
8B
330
1F
100
AcDbEntity
  8
2d
100
AcDbSpline
210
0.0
220
0.0
230
1.0
 70
    12
 71
     2
 72
     6
 73
     3
 74
     0
 42
0.0000000001
 43
0.0000000001
 40
-1.034669424620274
 40
-1.034669424620274
 40
-1.034669424620274
 40
0.0
 40
0.0
 40
0.0
 10
-8.484766682836426
 20
94.16270909803654
 30
0.0
 41
1.0
 10
-8.504952437357758
 20
93.64576286540692
 30
0.0
 41
0.9999841180155079
 10
-8.531043874383556
 20
93.12545027307158
 30
0.0
 41
1.0
  0
SPLINE
  5
8C
330
1F
100
AcDbEntity
  8
2d
100
AcDbSpline
210
0.0
220
0.0
230
1.0
 70
    12
 71
     5
 72
    15
 73
     9
 74
     0
 42
0.0000000001
 43
0.0000000001
 40
-0.3802106518916571
 40
-0.3802106518916571
 40
-0.3802106518916571
 40
-0.3802106518916571
 40
-0.3802106518916571
 40
-0.3802106518916571
 40
-0.337384092075361
 40
-0.2517309724427688
 40
-0.0804247331775844
 40
-0.0351383604038094
 40
-0.0351383604038094
 40
-0.0351383604038094
 40
-0.0351383604038094
 40
-0.0351383604038094
 40
-0.0351383604038094
 10
-8.531043874383556
 20
93.12545027307158
 30
0.0
 41
1.0
 10
-8.531354714445104
 20
93.10577661562453
 30
0.0
 41
1.0
 10
-8.529948281246089
 20
93.05732357248789
 30
0.0
 41
1.0
 10
-8.511783493479992
 20
92.94218142610427
 30
0.0
 41
1.0
 10
-8.450730120451134
 20
92.80596498836147
 30
0.0
 41
1.0
 10
-8.363901204125066
 20
92.68817086781543
 30
0.0
 41
1.0
 10
-8.273764390662974
 20
92.60343880314713
 30
0.0
 41
1.0
 10
-8.203772938301364
 20
92.55082813120164
 30
0.0
 41
1.0
 10
-8.188918815002395
 20
92.54016687492978
 30
0.0
 41
1.0
  0
SPLINE
  5
8D
330
1F
100
AcDbEntity
  8
2d
100
AcDbSpline
210
0.0
220
0.0
230
1.0
 70
     8
 71
     3
 72
    12
 73
     8
 74
     0
 42
0.0000000001
 43
0.0000000001
 40
-2.776597072244309
 40
-2.776597072244309
 40
-2.776597072244309
 40
-2.776597072244309
 40
-2.158494129196474
 40
-1.586681508710117
 40
-0.8955863103882804
 40
-0.4994671516374392
 40
0.0
 40
0.0
 40
0.0
 40
0.0
 10
-8.188918815002395
 20
92.54016687492978
 30
0.0
 10
-8.02822709825343
 20
92.41167914393766
 30
0.0
 10
-7.709648743492954
 20
92.17218175471402
 30
0.0
 10
-7.137521558935736
 20
91.90799708269992
 30
0.0
 10
-6.604239500005653
 20
91.75882652920181
 30
0.0
 10
-6.085271468791118
 20
91.65524953662467
 30
0.0
 10
-5.79033821626305
 20
91.60949050537741
 30
0.0
 10
-5.625334200207785
 20
91.58487749436303
 30
0.0
  0
SPLINE
  5
8E
330
1F
100
AcDbEntity
  8
2d
100
AcDbSpline
210
0.0
220
0.0
230
1.0
 70
    12
 71
     2
 72
     6
 73
     3
 74
     0
 42
0.0000000001
 43
0.0000000001
 40
-5.643204669412431
 40
-5.643204669412431
 40
-5.643204669412431
 40
0.0
 40
0.0
 40
0.0
 10
-5.625334200207785
 20
91.58487749436303
 30
0.0
 41
1.0
 10
-2.826695067423318
 20
91.18535978872804
 30
0.0
 41
0.9972948604213648
 10
-0.0000314816278824
 20
91.20048239249272
 30
0.0
 41
0.9999999996353712
  0
SPLINE
  5
8F
330
1F
100
AcDbEntity
  8
Default
100
AcDbSpline
210
0.0
220
0.0
230
1.0
 70
     8
 71
     3
 72
    29
 73
    25
 74
     0
 42
0.0000000001
 43
0.0000000001
 40
-22.0
 40
-22.0
 40
-22.0
 40
-22.0
 40
-21.0
 40
-20.0
 40
-19.0
 40
-18.0
 40
-17.0
 40
-16.0
 40
-15.0
 40
-14.0
 40
-13.0
 40
-12.0
 40
-11.0
 40
-10.0
 40
-9.0
 40
-8.0
 40
-7.0
 40
-6.0
 40
-5.0
 40
-4.0
 40
-3.0
 40
-2.0
 40
-1.0
 40
0.0
 40
0.0
 40
0.0
 40
0.0
 10
-15.33255951271482
 20
48.47976494842015
 30
0.0
 10
-15.72201433155667
 20
48.43629125304371
 30
0.0
 10
-16.58103722220294
 20
48.27500699769597
 30
0.0
 10
-17.23374325770776
 20
47.1680802947197
 30
0.0
 10
-17.20292506644769
 20
45.94420438508276
 30
0.0
 10
-17.10324977910005
 20
44.74678226001097
 30
0.0
 10
-16.99394112365491
 20
43.54445398468362
 30
0.0
 10
-16.88817483650076
 20
42.34335509932633
 30
0.0
 10
-16.78104113582957
 20
41.14196193855976
 30
0.0
 10
-16.6725035145385
 20
39.94080686982082
 30
0.0
 10
-16.57057694767346
 20
38.73902981139887
 30
0.0
 10
-16.4259797701078
 20
37.54116476401258
 30
0.0
 10
-16.1736871134321
 20
36.35941094174468
 30
0.0
 10
-15.7562334969648
 20
35.22513316048732
 30
0.0
 10
-15.23027793700508
 20
34.13878280887722
 30
0.0
 10
-14.63337749232208
 20
33.09043192005022
 30
0.0
 10
-14.00948578306301
 20
32.05823164176256
 30
0.0
 10
-13.40766713755616
 20
31.01300796183765
 30
0.0
 10
-12.81852188953303
 20
29.96044460256731
 30
0.0
 10
-12.24495477337206
 20
28.90004285438314
 30
0.0
 10
-11.68220722790238
 20
27.83108820563851
 30
0.0
 10
-11.34173215539743
 20
26.66323810296994
 30
0.0
 10
-11.15787033795029
 20
25.49141056258674
 30
0.0
 10
-11.33627928177676
 20
24.61120377035014
 30
0.0
 10
-11.79967814718455
 20
24.51524103932536
 30
0.0
  0
SPLINE
  5
90
330
1F
100
AcDbEntity
  8
Default
100
AcDbSpline
210
0.0
220
0.0
230
1.0
 70
     8
 71
     3
 72
    45
 73
    41
 74
     0
 42
0.0000000001
 43
0.0000000001
 40
-37.48474041987011
 40
-37.48474041987011
 40
-37.48474041987011
 40
-37.48474041987011
 40
-37.0
 40
-36.0
 40
-35.0
 40
-34.0
 40
-33.0
 40
-32.0
 40
-31.0
 40
-30.0
 40
-29.0
 40
-28.0
 40
-27.0
 40
-26.0
 40
-25.0
 40
-24.0
 40
-23.0
 40
-22.0
 40
-21.0
 40
-20.0
 40
-19.0
 40
-18.0
 40
-17.0
 40
-16.0
 40
-15.0
 40
-14.0
 40
-13.0
 40
-12.0
 40
-11.0
 40
-10.0
 40
-9.0
 40
-8.0
 40
-7.000000000000001
 40
-6.000000000000001
 40
-5.000000000000001
 40
-4.000000000000001
 40
-3.0
 40
-2.0
 40
-1.000000000000001
 40
-0.0000000000000006
 40
-0.0000000000000006
 40
-0.0000000000000006
 40
-0.0000000000000006
 10
-11.79967814718455
 20
24.51524103932536
 30
0.0
 10
-11.89189865555186
 20
24.46591373445037
 30
0.0
 10
-12.17276607248452
 20
24.31223007211378
 30
0.0
 10
-12.64225976472363
 20
24.05228955798908
 30
0.0
 10
-13.20224853333143
 20
23.72967879921456
 30
0.0
 10
-13.76603261151904
 20
23.40312081270253
 30
0.0
 10
-14.31142272350476
 20
23.08359095626071
 30
0.0
 10
-14.94496846882492
 20
22.77202479296135
 30
0.0
 10
-14.86829404459443
 20
22.04182256131696
 30
0.0
 10
-14.7418362616985
 20
21.42973078962228
 30
0.0
 10
-14.54626534595234
 20
20.80545070849554
 30
0.0
 10
-14.31921744317207
 20
20.20087109784667
 30
0.0
 10
-14.08932073646113
 20
19.59517692283527
 30
0.0
 10
-13.84648745082718
 20
18.99510063044684
 30
0.0
 10
-13.58943349775113
 20
18.40081363796952
 30
0.0
 10
-13.31474048282852
 20
17.81447340097949
 30
0.0
 10
-13.01865603016555
 20
17.23857755057455
 30
0.0
 10
-12.69711880693022
 20
16.67643941850137
 30
0.0
 10
-12.3473874634928
 20
16.1313379740739
 30
0.0
 10
-11.96691901212639
 20
15.60713924638329
 30
0.0
 10
-11.55250982179939
 20
15.1092022319614
 30
0.0
 10
-11.10168693683277
 20
14.6438457525431
 30
0.0
 10
-10.61463610272019
 20
14.21647607971018
 30
0.0
 10
-10.09410944978048
 20
13.83065833105044
 30
0.0
 10
-9.54599915463388
 20
13.48517440090949
 30
0.0
 10
-8.969090620806861
 20
13.18979266207169
 30
0.0
 10
-8.368907182809718
 20
12.94581892559709
 30
0.0
 10
-7.750451769294589
 20
12.75152465949448
 30
0.0
 10
-7.11360181232866
 20
12.62929822709189
 30
0.0
 10
-6.468870052081665
 20
12.56725459529254
 30
0.0
 10
-5.822985783195652
 20
12.5231269800257
 30
0.0
 10
-5.176763550640787
 20
12.48364760281066
 30
0.0
 10
-4.53019051480234
 20
12.45053600151665
 30
0.0
 10
-3.883383309977765
 20
12.42240095836063
 30
0.0
 10
-3.236395937171911
 20
12.39880317851346
 30
0.0
 10
-2.589279434224337
 20
12.37908259576903
 30
0.0
 10
-1.942075003650011
 20
12.36250722316655
 30
0.0
 10
-1.294783512450069
 20
12.34971579406018
 30
0.0
 10
-0.647415042612684
 20
12.34158992287203
 30
0.0
 10
-0.2158045165107821
 20
12.3401721170866
 30
0.0
 10
0.0
 20
12.33999999999928
 30
0.0
  0
SPLINE
  5
91
330
1F
100
AcDbEntity
  8
Default
100
AcDbSpline
210
0.0
220
0.0
230
1.0
 70
     8
 71
     3
 72
    45
 73
    41
 74
     0
 42
0.0000000001
 43
0.0000000001
 40
-0.0000000000000006
 40
-0.0000000000000006
 40
-0.0000000000000006
 40
-0.0000000000000006
 40
0.9999999999999994
 40
1.999999999999999
 40
3.0
 40
4.0
 40
4.999999999999999
 40
5.999999999999999
 40
6.999999999999999
 40
7.999999999999999
 40
9.0
 40
10.0
 40
11.0
 40
12.0
 40
13.0
 40
14.0
 40
15.0
 40
16.0
 40
17.0
 40
18.0
 40
19.0
 40
20.0
 40
21.0
 40
22.0
 40
23.0
 40
24.0
 40
25.0
 40
26.0
 40
27.0
 40
28.0
 40
29.0
 40
30.0
 40
31.0
 40
32.0
 40
33.0
 40
34.0
 40
35.0
 40
36.0
 40
37.0
 40
37.48474041987012
 40
37.48474041987012
 40
37.48474041987012
 40
37.48474041987012
 10
0.0
 20
12.33999999999928
 30
0.0
 10
0.2158047910584243
 20
12.339827882693
 30
0.0
 10
0.647415042612684
 20
12.34158992287202
 30
0.0
 10
1.294783512450069
 20
12.34971579406018
 30
0.0
 10
1.942075003650011
 20
12.36250722316656
 30
0.0
 10
2.589279434224337
 20
12.37908259576902
 30
0.0
 10
3.23639593717191
 20
12.39880317851347
 30
0.0
 10
3.883383309977765
 20
12.42240095836062
 30
0.0
 10
4.530190514802339
 20
12.45053600151665
 30
0.0
 10
5.176763550640787
 20
12.48364760281066
 30
0.0
 10
5.822985783195649
 20
12.5231269800257
 30
0.0
 10
6.468870052081665
 20
12.56725459529254
 30
0.0
 10
7.113601812328661
 20
12.62929822709189
 30
0.0
 10
7.75045176929459
 20
12.75152465949448
 30
0.0
 10
8.368907182809716
 20
12.94581892559709
 30
0.0
 10
8.969090620806861
 20
13.18979266207169
 30
0.0
 10
9.545999154633876
 20
13.4851744009095
 30
0.0
 10
10.09410944978049
 20
13.83065833105044
 30
0.0
 10
10.61463610272019
 20
14.21647607971017
 30
0.0
 10
11.10168693683277
 20
14.6438457525431
 30
0.0
 10
11.5525098217994
 20
15.1092022319614
 30
0.0
 10
11.96691901212639
 20
15.60713924638329
 30
0.0
 10
12.3473874634928
 20
16.1313379740739
 30
0.0
 10
12.69711880693022
 20
16.67643941850137
 30
0.0
 10
13.01865603016556
 20
17.23857755057455
 30
0.0
 10
13.31474048282852
 20
17.81447340097949
 30
0.0
 10
13.58943349775113
 20
18.40081363796952
 30
0.0
 10
13.84648745082718
 20
18.99510063044684
 30
0.0
 10
14.08932073646113
 20
19.59517692283527
 30
0.0
 10
14.31921744317207
 20
20.20087109784667
 30
0.0
 10
14.54626534595233
 20
20.80545070849555
 30
0.0
 10
14.7418362616985
 20
21.42973078962228
 30
0.0
 10
14.86829404459443
 20
22.04182256131696
 30
0.0
 10
14.94496846882492
 20
22.77202479296136
 30
0.0
 10
14.31142272350477
 20
23.0835909562607
 30
0.0
 10
13.76603261151904
 20
23.40312081270254
 30
0.0
 10
13.20224853333143
 20
23.72967879921455
 30
0.0
 10
12.64225976472363
 20
24.05228955798909
 30
0.0
 10
12.17276607248452
 20
24.31223007211376
 30
0.0
 10
11.89189865555187
 20
24.46591373445038
 30
0.0
 10
11.79967814718455
 20
24.51524103932536
 30
0.0
  0
SPLINE
  5
92
330
1F
100
AcDbEntity
  8
Default
100
AcDbSpline
210
0.0
220
0.0
230
1.0
 70
     8
 71
     3
 72
    29
 73
    25
 74
     0
 42
0.0000000001
 43
0.0000000001
 40
0.0
 40
0.0
 40
0.0
 40
0.0
 40
1.0
 40
2.0
 40
3.0
 40
4.0
 40
5.0
 40
6.0
 40
7.0
 40
8.0
 40
9.0
 40
10.0
 40
11.0
 40
12.0
 40
13.0
 40
14.0
 40
15.0
 40
16.0
 40
17.0
 40
18.0
 40
19.0
 40
20.0
 40
21.0
 40
22.0
 40
22.0
 40
22.0
 40
22.0
 10
11.79967814718455
 20
24.51524103932536
 30
0.0
 10
11.33627928177676
 20
24.61120377035014
 30
0.0
 10
11.15787033795029
 20
25.49141056258674
 30
0.0
 10
11.34173215539743
 20
26.66323810296994
 30
0.0
 10
11.68220722790238
 20
27.83108820563851
 30
0.0
 10
12.24495477337206
 20
28.90004285438314
 30
0.0
 10
12.81852188953303
 20
29.96044460256731
 30
0.0
 10
13.40766713755616
 20
31.01300796183765
 30
0.0
 10
14.00948578306301
 20
32.05823164176256
 30
0.0
 10
14.63337749232208
 20
33.09043192005022
 30
0.0
 10
15.23027793700508
 20
34.13878280887722
 30
0.0
 10
15.7562334969648
 20
35.22513316048732
 30
0.0
 10
16.1736871134321
 20
36.35941094174468
 30
0.0
 10
16.4259797701078
 20
37.54116476401258
 30
0.0
 10
16.57057694767346
 20
38.73902981139887
 30
0.0
 10
16.6725035145385
 20
39.94080686982082
 30
0.0
 10
16.78104113582957
 20
41.14196193855976
 30
0.0
 10
16.88817483650076
 20
42.34335509932633
 30
0.0
 10
16.99394112365491
 20
43.54445398468362
 30
0.0
 10
17.10324977910005
 20
44.74678226001097
 30
0.0
 10
17.20292506644769
 20
45.94420438508276
 30
0.0
 10
17.23374325770776
 20
47.1680802947197
 30
0.0
 10
16.58103722220294
 20
48.27500699769597
 30
0.0
 10
15.72201433155667
 20
48.43629125304371
 30
0.0
 10
15.33255951271482
 20
48.47976494842015
 30
0.0
  0
SPLINE
  5
93
330
1F
100
AcDbEntity
  8
2d
100
AcDbSpline
210
0.0
220
0.0
230
1.0
 70
    12
 71
     2
 72
     6
 73
     3
 74
     0
 42
0.0000000001
 43
0.0000000001
 40
0.0
 40
0.0
 40
0.0
 40
0.9203798869681643
 40
0.9203798869681643
 40
0.9203798869681643
 10
11.79967814718455
 20
24.51524103932536
 30
0.0
 41
1.0
 10
12.21830500973423
 20
24.82122380139375
 30
0.0
 41
0.8394706399598945
 10
12.66886191304096
 20
24.56456765474257
 30
0.0
 41
1.0
  0
POLYLINE
  5
94
330
1F
100
AcDbEntity
  8
Default
100
AcDb2dPolyline
 66
     1
 10
0.0
 20
0.0
 30
0.0
  0
VERTEX
  5
95
330
94
100
AcDbEntity
  8
Default
100
AcDbVertex
100
AcDb2dVertex
 10
0.0
 20
7.397480748601958
 30
0.0
  0
VERTEX
  5
96
330
94
100
AcDbEntity
  8
Default
100
AcDbVertex
100
AcDb2dVertex
 10
0.0
 20
9.982040476023279
 30
0.0
  0
SEQEND
  5
97
330
94
100
AcDbEntity
  8
Default
  0
SPLINE
  5
98
330
1F
100
AcDbEntity
  8
2d
100
AcDbSpline
210
0.0
220
0.0
230
1.0
 70
     8
 71
     3
 72
    12
 73
     8
 74
     0
 42
0.0000000001
 43
0.0000000001
 40
-0.3040871853585094
 40
-0.3040871853585094
 40
-0.3040871853585094
 40
-0.3040871853585094
 40
0.3452661513094258
 40
0.6288370194400247
 40
1.193778611176722
 40
1.828059526951665
 40
2.627358453799217
 40
2.627358453799217
 40
2.627358453799217
 40
2.627358453799217
 10
7.026863834831444
 20
10.00390293143824
 30
0.0
 10
7.2377828887089
 20
10.0508738858008
 30
0.0
 10
7.543436243639961
 20
10.1100201472092
 30
0.0
 10
8.025972960171162
 20
10.23869483429749
 30
0.0
 10
8.492702834861852
 20
10.40374788352466
 30
0.0
 10
9.093645107767626
 20
10.69285602794871
 30
0.0
 10
9.50983255342087
 20
10.92776961504698
 30
0.0
 10
9.738800352442649
 20
11.06410517933328
 30
0.0
  0
SPLINE
  5
99
330
1F
100
AcDbEntity
  8
2d
100
AcDbSpline
210
0.0
220
0.0
230
1.0
 70
     8
 71
     3
 72
    12
 73
     8
 74
     0
 42
0.0000000001
 43
0.0000000001
 40
-0.3040871853585094
 40
-0.3040871853585094
 40
-0.3040871853585094
 40
-0.3040871853585094
 40
0.3452661513094258
 40
0.6288370194400247
 40
1.193778611176722
 40
1.828059526951665
 40
2.627358453799217
 40
2.627358453799217
 40
2.627358453799217
 40
2.627358453799217
 10
-7.026863834831444
 20
10.00390293143824
 30
0.0
 10
-7.2377828887089
 20
10.0508738858008
 30
0.0
 10
-7.543436243639961
 20
10.1100201472092
 30
0.0
 10
-8.025972960171162
 20
10.23869483429749
 30
0.0
 10
-8.492702834861852
 20
10.40374788352466
 30
0.0
 10
-9.093645107767626
 20
10.69285602794871
 30
0.0
 10
-9.50983255342087
 20
10.92776961504698
 30
0.0
 10
-9.738800352442649
 20
11.06410517933328
 30
0.0
  0
SPLINE
  5
9A
330
1F
100
AcDbEntity
  8
2d
100
AcDbSpline
210
0.0
220
0.0
230
1.0
 70
     8
 71
     3
 72
    13
 73
     9
 74
     0
 42
0.0000000001
 43
0.0000000001
 40
-10.02332016205389
 40
-10.02332016205389
 40
-10.02332016205389
 40
-10.02332016205389
 40
-6.827700481863258
 40
-6.220068634813527
 40
-5.302347851580928
 40
-3.672636721722478
 40
-1.834572276691946
 40
0.0
 40
0.0
 40
0.0
 40
0.0
 10
-11.5120349946264
 20
12.56426092553881
 30
0.0
 10
-9.444672005290988
 20
11.00477041647335
 30
0.0
 10
-7.678555030702302
 20
10.87961754958668
 30
0.0
 10
-6.112195289302587
 20
10.75324351342603
 30
0.0
 10
-5.062405421547526
 20
10.6802156307618
 30
0.0
 10
-3.602604598972475
 20
10.60943335609842
 30
0.0
 10
-1.835617271193307
 20
10.55608045189466
 30
0.0
 10
-0.6115811905004165
 20
10.54292758808009
 30
0.0
 10
0.0
 20
10.54300000000097
 30
0.0
  0
SPLINE
  5
9B
330
1F
100
AcDbEntity
  8
2d
100
AcDbSpline
210
0.0
220
0.0
230
1.0
 70
     8
 71
     3
 72
    13
 73
     9
 74
     0
 42
0.0000000001
 43
0.0000000001
 40
0.0
 40
0.0
 40
0.0
 40
0.0
 40
1.834572276691946
 40
3.672636721722478
 40
5.302347851580928
 40
6.220068634813527
 40
6.827700481863258
 40
10.02332016205389
 40
10.02332016205389
 40
10.02332016205389
 40
10.02332016205389
 10
0.0
 20
10.54300000000097
 30
0.0
 10
0.6115811905004165
 20
10.54292758808009
 30
0.0
 10
1.835617271193307
 20
10.55608045189466
 30
0.0
 10
3.602604598972475
 20
10.60943335609842
 30
0.0
 10
5.062405421547526
 20
10.6802156307618
 30
0.0
 10
6.112195289302587
 20
10.75324351342603
 30
0.0
 10
7.678555030702302
 20
10.87961754958668
 30
0.0
 10
9.444672005290988
 20
11.00477041647335
 30
0.0
 10
11.5120349946264
 20
12.56426092553881
 30
0.0
  0
SPLINE
  5
9C
330
1F
100
AcDbEntity
  8
Default
100
AcDbSpline
210
0.0
220
0.0
230
1.0
 70
    12
 71
     2
 72
     7
 73
     4
 74
     0
 42
0.0000000001
 43
0.0000000001
 40
-1.594543358737941
 40
-1.594543358737941
 40
-1.594543358737941
 40
0.0
 40
2.529203136995833
 40
2.529203136995833
 40
2.529203136995833
 10
-11.21601845017592
 20
12.17631710415772
 30
0.0
 41
1.0
 10
-11.7662725891926
 20
12.75007990968611
 30
0.0
 41
1.003323604261021
 10
-13.11876293049701
 20
14.30929293679269
 30
0.0
 41
0.9947282271899087
 10
-13.72640877850595
 20
15.42533818688392
 30
0.0
 41
1.0
  0
SPLINE
  5
9D
330
1F
100
AcDbEntity
  8
Default
100
AcDbSpline
210
0.0
220
0.0
230
1.0
 70
     8
 71
     3
 72
    12
 73
     8
 74
     0
 42
0.0000000001
 43
0.0000000001
 40
2.529203136995833
 40
2.529203136995833
 40
2.529203136995833
 40
2.529203136995833
 40
3.458616772043087
 40
4.396757307066284
 40
6.220910469249436
 40
7.76689413251814
 40
8.854393794070912
 40
8.854393794070912
 40
8.854393794070912
 40
8.854393794070912
 10
-13.72640877850595
 20
15.42533818688392
 30
0.0
 10
-13.87538663838543
 20
15.69896143870412
 30
0.0
 10
-14.16324398160415
 20
16.25086478426542
 30
0.0
 10
-14.69991279164112
 20
17.35870760390566
 30
0.0
 10
-15.24700942309912
 20
18.68712379928592
 30
0.0
 10
-15.76346741792966
 20
20.08071282425645
 30
0.0
 10
-15.97983080245606
 20
20.93395796664183
 30
0.0
 10
-16.02369739613322
 20
21.29425292199055
 30
0.0
  0
SPLINE
  5
9E
330
1F
100
AcDbEntity
  8
Default
100
AcDbSpline
210
0.0
220
0.0
230
1.0
 70
     8
 71
     3
 72
     8
 73
     4
 74
     0
 42
0.0000000001
 43
0.0000000001
 40
-1.0
 40
-1.0
 40
-1.0
 40
-1.0
 40
0.0
 40
0.0
 40
0.0
 40
0.0
 10
-16.02369739613322
 20
21.29425292199055
 30
0.0
 10
-16.097508563979
 20
21.90049537653255
 30
0.0
 10
-16.02088246413151
 20
22.5325852343371
 30
0.0
 10
-15.58853497814525
 20
22.87207448454801
 30
0.0
  0
SPLINE
  5
9F
330
1F
100
AcDbEntity
  8
Default
100
AcDbSpline
210
0.0
220
0.0
230
1.0
 70
     8
 71
     3
 72
    15
 73
    11
 74
     0
 42
0.0000000001
 43
0.0000000001
 40
0.0
 40
0.0
 40
0.0
 40
0.0
 40
0.1231324019194587
 40
0.2601118700360601
 40
0.7327533991763185
 40
0.9943000747642
 40
1.666776081210437
 40
2.481275826879309
 40
3.038544588067792
 40
3.487473426517736
 40
3.487473426517736
 40
3.487473426517736
 40
3.487473426517736
 10
-15.58853497814525
 20
22.87207448454801
 30
0.0
 10
-15.55629348054731
 20
22.89739125450732
 30
0.0
 10
-15.48653214020082
 20
22.94918064562913
 30
0.0
 10
-15.27694574451212
 20
23.07482713716967
 30
0.0
 10
-15.0170865082434
 20
23.20491200260333
 30
0.0
 10
-14.60927435576917
 20
23.43636279204519
 30
0.0
 10
-14.10666311314433
 20
23.73149364904966
 30
0.0
 10
-13.50949760290008
 20
24.0599129018615
 30
0.0
 10
-12.98892393367347
 20
24.37205705879093
 30
0.0
 10
-12.70510659281449
 20
24.55074204144879
 30
0.0
 10
-12.57684985322893
 20
24.62757554861158
 30
0.0
  0
ARC
  5
A0
330
1F
100
AcDbEntity
  8
Default
100
AcDbCircle
 10
-12.70532556061804
 20
24.84203764925178
 30
0.0
 40
0.2500000000002844
100
AcDbArc
 50
300.9241467493471
 51
355.194578115443
  0
ARC
  5
A1
330
1F
100
AcDbEntity
  8
Default
100
AcDbCircle
 10
-17.29491488358673
 20
25.22787361024937
 30
0.0
 40
4.855778928944573
100
AcDbArc
 50
355.1945781154453
 51
6.904474096537569
  0
SPLINE
  5
A2
330
1F
100
AcDbEntity
  8
Default
100
AcDbSpline
210
0.0
220
0.0
230
1.0
 70
     8
 71
     3
 72
    13
 73
     9
 74
     0
 42
0.0000000001
 43
0.0000000001
 40
-0.0000000000000001
 40
-0.0000000000000001
 40
-0.0000000000000001
 40
-0.0000000000000001
 40
0.5386078730832905
 40
1.082715339197527
 40
2.211044127510805
 40
2.889901551221175
 40
5.809134673596936
 40
7.867952003800136
 40
7.867952003800136
 40
7.867952003800136
 40
7.867952003800136
 10
-12.47435026887616
 20
25.81160796951081
 30
0.0
 10
-12.49589016736214
 20
25.98948763480475
 30
0.0
 10
-12.54933170483515
 20
26.34788099206231
 30
0.0
 10
-12.72904919867759
 20
27.06177375017608
 30
0.0
 10
-13.00057912447045
 20
27.80073454586217
 30
0.0
 10
-13.73103064653588
 20
29.19684988621625
 30
0.0
 10
-14.66266795185343
 20
30.83665672105515
 30
0.0
 10
-15.41994931395486
 20
32.31357007948489
 30
0.0
 10
-15.73569580148484
 20
32.92676732156345
 30
0.0
  0
SPLINE
  5
A3
330
1F
100
AcDbEntity
  8
Default
100
AcDbSpline
210
0.0
220
0.0
230
1.0
 70
     8
 71
     3
 72
    12
 73
     8
 74
     0
 42
0.0000000001
 43
0.0000000001
 40
0.0
 40
0.0
 40
0.0
 40
0.0
 40
1.580330011616261
 40
2.03994003189556
 40
3.192916157300524
 40
4.655851405719867
 40
6.694591728392445
 40
6.694591728392445
 40
6.694591728392445
 40
6.694591728392445
 10
-15.73569580148484
 20
32.92676732156345
 30
0.0
 10
-15.97604884521453
 20
33.39958502712597
 30
0.0
 10
-16.31905538667327
 20
33.98721064624144
 30
0.0
 10
-16.81100557829474
 20
34.93102364055621
 30
0.0
 10
-17.18813381751301
 20
35.88828202340031
 30
0.0
 10
-17.50195990232142
 20
37.41214767607961
 30
0.0
 10
-17.62064378848909
 20
38.57329402519689
 30
0.0
 10
-17.68538727188351
 20
39.24999838874152
 30
0.0
  0
SPLINE
  5
A4
330
1F
100
AcDbEntity
  8
Default
100
AcDbSpline
210
0.0
220
0.0
230
1.0
 70
     8
 71
     3
 72
    12
 73
     8
 74
     0
 42
0.0000000001
 43
0.0000000001
 40
0.0
 40
0.0
 40
0.0
 40
0.0
 40
4.376192053276155
 40
5.436626173778774
 40
6.029464564218593
 40
7.142390795995626
 40
7.950877083275301
 40
7.950877083275301
 40
7.950877083275301
 40
7.950877083275301
 10
-17.68538727188351
 20
39.24999838874152
 30
0.0
 10
-17.82459389097673
 20
40.70220327367794
 30
0.0
 10
-18.01200515913548
 20
42.50439763106041
 30
0.0
 10
-18.19953695932931
 20
44.5058126694948
 30
0.0
 10
-18.26729277102339
 20
45.42484359185569
 30
0.0
 10
-18.28744046387192
 20
46.26502240295391
 30
0.0
 10
-18.18403887717071
 20
46.90065058644606
 30
0.0
 10
-18.09693322884958
 20
47.15643212095313
 30
0.0
  0
SPLINE
  5
A5
330
1F
100
AcDbEntity
  8
Default
100
AcDbSpline
210
0.0
220
0.0
230
1.0
 70
     8
 71
     3
 72
     8
 73
     4
 74
     0
 42
0.0000000001
 43
0.0000000001
 40
-1.0
 40
-1.0
 40
-1.0
 40
-1.0
 40
0.0
 40
0.0
 40
0.0
 40
0.0
 10
-18.09693322884958
 20
47.15643212095313
 30
0.0
 10
-18.01953966005433
 20
47.38369460242213
 30
0.0
 10
-17.8388648261486
 20
47.7429475534155
 30
0.0
 10
-17.70023914809533
 20
47.93860123521649
 30
0.0
  0
SPLINE
  5
A6
330
1F
100
AcDbEntity
  8
Default
100
AcDbSpline
210
0.0
220
0.0
230
1.0
 70
     8
 71
     3
 72
    12
 73
     8
 74
     0
 42
0.0000000001
 43
0.0000000001
 40
0.0
 40
0.0
 40
0.0
 40
0.0
 40
0.2305008900465497
 40
0.4553794553347008
 40
0.9008160644125736
 40
1.375645586266414
 40
2.150150578360963
 40
2.150150578360963
 40
2.150150578360963
 40
2.150150578360963
 10
-17.70023914809533
 20
47.93860123521649
 30
0.0
 10
-17.65595613598439
 20
48.00110144789291
 30
0.0
 10
-17.56045846860247
 20
48.12028878628011
 30
0.0
 10
-17.34317618899321
 20
48.32712866692219
 30
0.0
 10
-17.01522551499803
 20
48.53260010514926
 30
0.0
 10
-16.47007136249649
 20
48.68843505943254
 30
0.0
 10
-16.0612102651479
 20
48.76571269026008
 30
0.0
 10
-15.8052784976257
 20
48.80156375772967
 30
0.0
  0
SPLINE
  5
A7
330
1F
100
AcDbEntity
  8
Default
100
AcDbSpline
210
0.0
220
0.0
230
1.0
 70
     8
 71
     3
 72
     8
 73
     4
 74
     0
 42
0.0000000001
 43
0.0000000001
 40
-1.0
 40
-1.0
 40
-1.0
 40
-1.0
 40
0.0
 40
0.0
 40
0.0
 40
0.0
 10
-15.8052784976257
 20
48.80156375772967
 30
0.0
 10
-15.44410169810106
 20
48.85215760910488
 30
0.0
 10
-14.80867812194431
 20
48.89448927282472
 30
0.0
 10
-14.44414160038105
 20
48.9192255176768
 30
0.0
  0
SPLINE
  5
A8
330
1F
100
AcDbEntity
  8
Default
100
AcDbSpline
210
0.0
220
0.0
230
1.0
 70
    12
 71
     2
 72
     6
 73
     3
 74
     0
 42
0.0000000001
 43
0.0000000001
 40
0.0
 40
0.0
 40
0.0
 40
4.619999762231296
 40
4.619999762231296
 40
4.619999762231296
 10
-14.44414160038105
 20
48.9192255176768
 30
0.0
 41
1.0
 10
-12.13899979827273
 20
49.07564483004418
 30
0.0
 41
0.9997124987659789
 10
-9.829009612524368
 20
49.12137305825155
 30
0.0
 41
1.0
  0
SPLINE
  5
A9
330
1F
100
AcDbEntity
  8
Default
100
AcDbSpline
210
0.0
220
0.0
230
1.0
 70
     8
 71
     3
 72
     8
 73
     4
 74
     0
 42
0.0000000001
 43
0.0000000001
 40
0.0
 40
0.0
 40
0.0
 40
0.0
 40
1.0
 40
1.0
 40
1.0
 40
1.0
 10
-9.829009612524368
 20
49.12137305825155
 30
0.0
 10
-4.585331407501449
 20
49.2251761458511
 30
0.0
 10
4.585331407501449
 20
49.2251761458511
 30
0.0
 10
9.829009612524368
 20
49.12137305825155
 30
0.0
  0
SPLINE
  5
AA
330
1F
100
AcDbEntity
  8
Default
100
AcDbSpline
210
0.0
220
0.0
230
1.0
 70
    12
 71
     2
 72
     6
 73
     3
 74
     0
 42
0.0000000001
 43
0.0000000001
 40
-4.619999762231296
 40
-4.619999762231296
 40
-4.619999762231296
 40
0.0
 40
0.0
 40
0.0
 10
9.829009612524368
 20
49.12137305825155
 30
0.0
 41
1.0
 10
12.13899979827273
 20
49.07564483004418
 30
0.0
 41
0.9997124987659789
 10
14.44414160038105
 20
48.9192255176768
 30
0.0
 41
1.0
  0
SPLINE
  5
AB
330
1F
100
AcDbEntity
  8
Default
100
AcDbSpline
210
0.0
220
0.0
230
1.0
 70
     8
 71
     3
 72
     8
 73
     4
 74
     0
 42
0.0000000001
 43
0.0000000001
 40
0.0
 40
0.0
 40
0.0
 40
0.0
 40
1.0
 40
1.0
 40
1.0
 40
1.0
 10
14.44414160038105
 20
48.9192255176768
 30
0.0
 10
14.80867812194431
 20
48.89448927282472
 30
0.0
 10
15.44410169810106
 20
48.85215760910488
 30
0.0
 10
15.8052784976257
 20
48.80156375772967
 30
0.0
  0
SPLINE
  5
AC
330
1F
100
AcDbEntity
  8
Default
100
AcDbSpline
210
0.0
220
0.0
230
1.0
 70
     8
 71
     3
 72
    12
 73
     8
 74
     0
 42
0.0000000001
 43
0.0000000001
 40
-2.150150578360963
 40
-2.150150578360963
 40
-2.150150578360963
 40
-2.150150578360963
 40
-1.375645586266414
 40
-0.9008160644125736
 40
-0.4553794553347008
 40
-0.2305008900465497
 40
0.0
 40
0.0
 40
0.0
 40
0.0
 10
15.8052784976257
 20
48.80156375772967
 30
0.0
 10
16.0612102651479
 20
48.76571269026008
 30
0.0
 10
16.47007136249649
 20
48.68843505943254
 30
0.0
 10
17.01522551499803
 20
48.53260010514926
 30
0.0
 10
17.34317618899321
 20
48.32712866692219
 30
0.0
 10
17.56045846860247
 20
48.12028878628011
 30
0.0
 10
17.65595613598439
 20
48.00110144789291
 30
0.0
 10
17.70023914809533
 20
47.93860123521649
 30
0.0
  0
SPLINE
  5
AD
330
1F
100
AcDbEntity
  8
Default
100
AcDbSpline
210
0.0
220
0.0
230
1.0
 70
     8
 71
     3
 72
     8
 73
     4
 74
     0
 42
0.0000000001
 43
0.0000000001
 40
0.0
 40
0.0
 40
0.0
 40
0.0
 40
1.0
 40
1.0
 40
1.0
 40
1.0
 10
17.70023914809533
 20
47.93860123521649
 30
0.0
 10
17.8388648261486
 20
47.7429475534155
 30
0.0
 10
18.01953966005433
 20
47.38369460242213
 30
0.0
 10
18.09693322884958
 20
47.15643212095313
 30
0.0
  0
SPLINE
  5
AE
330
1F
100
AcDbEntity
  8
Default
100
AcDbSpline
210
0.0
220
0.0
230
1.0
 70
     8
 71
     3
 72
    12
 73
     8
 74
     0
 42
0.0000000001
 43
0.0000000001
 40
-7.950877083275301
 40
-7.950877083275301
 40
-7.950877083275301
 40
-7.950877083275301
 40
-7.142390795995626
 40
-6.029464564218593
 40
-5.436626173778774
 40
-4.376192053276155
 40
0.0
 40
0.0
 40
0.0
 40
0.0
 10
18.09693322884958
 20
47.15643212095313
 30
0.0
 10
18.18403887717071
 20
46.90065058644606
 30
0.0
 10
18.28744046387192
 20
46.26502240295391
 30
0.0
 10
18.26729277102339
 20
45.42484359185569
 30
0.0
 10
18.19953695932931
 20
44.5058126694948
 30
0.0
 10
18.01200515913548
 20
42.50439763106041
 30
0.0
 10
17.82459389097673
 20
40.70220327367794
 30
0.0
 10
17.68538727188351
 20
39.24999838874152
 30
0.0
  0
SPLINE
  5
AF
330
1F
100
AcDbEntity
  8
Default
100
AcDbSpline
210
0.0
220
0.0
230
1.0
 70
     8
 71
     3
 72
    12
 73
     8
 74
     0
 42
0.0000000001
 43
0.0000000001
 40
-6.694591728392445
 40
-6.694591728392445
 40
-6.694591728392445
 40
-6.694591728392445
 40
-4.655851405719867
 40
-3.192916157300524
 40
-2.03994003189556
 40
-1.580330011616261
 40
0.0
 40
0.0
 40
0.0
 40
0.0
 10
17.68538727188351
 20
39.24999838874152
 30
0.0
 10
17.62064378848909
 20
38.57329402519689
 30
0.0
 10
17.50195990232142
 20
37.41214767607961
 30
0.0
 10
17.18813381751301
 20
35.88828202340031
 30
0.0
 10
16.81100557829474
 20
34.93102364055621
 30
0.0
 10
16.31905538667327
 20
33.98721064624144
 30
0.0
 10
15.97604884521453
 20
33.39958502712597
 30
0.0
 10
15.73569580148484
 20
32.92676732156345
 30
0.0
  0
SPLINE
  5
B0
330
1F
100
AcDbEntity
  8
Default
100
AcDbSpline
210
0.0
220
0.0
230
1.0
 70
     8
 71
     3
 72
    13
 73
     9
 74
     0
 42
0.0000000001
 43
0.0000000001
 40
-7.867952003800136
 40
-7.867952003800136
 40
-7.867952003800136
 40
-7.867952003800136
 40
-5.809134673596936
 40
-2.889901551221175
 40
-2.211044127510805
 40
-1.082715339197527
 40
-0.5386078730832905
 40
0.0000000000000001
 40
0.0000000000000001
 40
0.0000000000000001
 40
0.0000000000000001
 10
15.73569580148484
 20
32.92676732156345
 30
0.0
 10
15.41994931395486
 20
32.31357007948489
 30
0.0
 10
14.66266795185343
 20
30.83665672105515
 30
0.0
 10
13.73103064653588
 20
29.19684988621625
 30
0.0
 10
13.00057912447045
 20
27.80073454586217
 30
0.0
 10
12.72904919867759
 20
27.06177375017608
 30
0.0
 10
12.54933170483515
 20
26.34788099206231
 30
0.0
 10
12.49589016736214
 20
25.98948763480475
 30
0.0
 10
12.47435026887616
 20
25.81160796951081
 30
0.0
  0
ARC
  5
B1
330
1F
100
AcDbEntity
  8
Default
100
AcDbCircle
 10
17.29491488359255
 20
25.22787361024867
 30
0.0
 40
4.855778928950429
100
AcDbArc
 50
173.0955259034625
 51
184.8054218845407
  0
ARC
  5
B2
330
1F
100
AcDbEntity
  8
Default
100
AcDbCircle
 10
12.70532556061763
 20
24.84203764925179
 30
0.0
 40
0.2499999999999967
100
AcDbArc
 50
184.8054218845666
 51
239.0758532507344
  0
SPLINE
  5
B3
330
1F
100
AcDbEntity
  8
Default
100
AcDbSpline
210
0.0
220
0.0
230
1.0
 70
     8
 71
     3
 72
    15
 73
    11
 74
     0
 42
0.0000000001
 43
0.0000000001
 40
-3.487473426517736
 40
-3.487473426517736
 40
-3.487473426517736
 40
-3.487473426517736
 40
-3.038544588067792
 40
-2.481275826879309
 40
-1.666776081210437
 40
-0.9943000747642
 40
-0.7327533991763185
 40
-0.2601118700360601
 40
-0.1231324019194587
 40
0.0
 40
0.0
 40
0.0
 40
0.0
 10
12.57684985322897
 20
24.62757554861165
 30
0.0
 10
12.70510659281449
 20
24.55074204144879
 30
0.0
 10
12.98892393367347
 20
24.37205705879093
 30
0.0
 10
13.50949760290008
 20
24.0599129018615
 30
0.0
 10
14.10666311314433
 20
23.73149364904966
 30
0.0
 10
14.60927435576917
 20
23.43636279204519
 30
0.0
 10
15.0170865082434
 20
23.20491200260333
 30
0.0
 10
15.27694574451212
 20
23.07482713716967
 30
0.0
 10
15.48653214020082
 20
22.94918064562913
 30
0.0
 10
15.55629348054731
 20
22.89739125450732
 30
0.0
 10
15.58853497814525
 20
22.87207448454801
 30
0.0
  0
SPLINE
  5
B4
330
1F
100
AcDbEntity
  8
Default
100
AcDbSpline
210
0.0
220
0.0
230
1.0
 70
     8
 71
     3
 72
     8
 73
     4
 74
     0
 42
0.0000000001
 43
0.0000000001
 40
0.0
 40
0.0
 40
0.0
 40
0.0
 40
1.0
 40
1.0
 40
1.0
 40
1.0
 10
15.58853497814525
 20
22.87207448454801
 30
0.0
 10
16.02088246413151
 20
22.5325852343371
 30
0.0
 10
16.097508563979
 20
21.90049537653255
 30
0.0
 10
16.02369739613322
 20
21.29425292199055
 30
0.0
  0
SPLINE
  5
B5
330
1F
100
AcDbEntity
  8
Default
100
AcDbSpline
210
0.0
220
0.0
230
1.0
 70
     8
 71
     3
 72
    12
 73
     8
 74
     0
 42
0.0000000001
 43
0.0000000001
 40
-8.854393794070912
 40
-8.854393794070912
 40
-8.854393794070912
 40
-8.854393794070912
 40
-7.76689413251814
 40
-6.220910469249436
 40
-4.396757307066284
 40
-3.458616772043087
 40
-2.529203136995833
 40
-2.529203136995833
 40
-2.529203136995833
 40
-2.529203136995833
 10
16.02369739613322
 20
21.29425292199055
 30
0.0
 10
15.97983080245606
 20
20.93395796664183
 30
0.0
 10
15.76346741792966
 20
20.08071282425645
 30
0.0
 10
15.24700942309912
 20
18.68712379928592
 30
0.0
 10
14.69991279164112
 20
17.35870760390566
 30
0.0
 10
14.16324398160415
 20
16.25086478426542
 30
0.0
 10
13.87538663838543
 20
15.69896143870412
 30
0.0
 10
13.72640877850595
 20
15.42533818688392
 30
0.0
  0
SPLINE
  5
B6
330
1F
100
AcDbEntity
  8
Default
100
AcDbSpline
210
0.0
220
0.0
230
1.0
 70
    12
 71
     2
 72
     7
 73
     4
 74
     0
 42
0.0000000001
 43
0.0000000001
 40
-2.529203136995833
 40
-2.529203136995833
 40
-2.529203136995833
 40
0.0
 40
1.594543358737941
 40
1.594543358737941
 40
1.594543358737941
 10
13.72640877850595
 20
15.42533818688392
 30
0.0
 41
1.0
 10
13.11876293049701
 20
14.30929293679269
 30
0.0
 41
0.9947282271899087
 10
11.7662725891926
 20
12.75007990968611
 30
0.0
 41
1.003323604261021
 10
11.21601845017592
 20
12.17631710415772
 30
0.0
 41
1.0
  0
SPLINE
  5
B7
330
1F
100
AcDbEntity
  8
2d
100
AcDbSpline
210
0.0
220
0.0
230
1.0
 70
    12
 71
     2
 72
     6
 73
     3
 74
     0
 42
0.0000000001
 43
0.0000000001
 40
0.0
 40
0.0
 40
0.0
 40
0.4300514912621929
 40
0.4300514912621929
 40
0.4300514912621929
 10
11.65769157127878
 20
0.2500000000000115
 30
0.0
 41
1.0
 10
11.71366313289486
 20
0.0018508295115056
 30
0.0
 41
0.7832919181619415
 10
11.96911562558266
 20
0.0000036141961534
 30
0.0
 41
1.0
  0
SPLINE
  5
B8
330
1F
100
AcDbEntity
  8
2d
100
AcDbSpline
210
0.0
220
0.0
230
1.0
 70
    12
 71
     2
 72
     6
 73
     3
 74
     0
 42
0.0000000001
 43
0.0000000001
 40
0.0
 40
0.0
 40
0.0
 40
0.4322559161119562
 40
0.4322559161119562
 40
0.4322559161119562
 10
11.96911562558266
 20
0.0000036141961534
 30
0.0
 41
1.0
 10
12.22644157128
 20
0.0
 30
0.0
 41
0.7808688094429923
 10
12.28269157127997
 20
0.2500000000000113
 30
0.0
 41
1.0
  0
POLYLINE
  5
B9
330
1F
100
AcDbEntity
  8
2d
100
AcDb2dPolyline
 66
     1
 10
0.0
 20
0.0
 30
0.0
  0
VERTEX
  5
BA
330
B9
100
AcDbEntity
  8
2d
100
AcDbVertex
100
AcDb2dVertex
 10
11.20555167389905
 20
12.25527172595149
 30
0.0
  0
VERTEX
  5
BB
330
B9
100
AcDbEntity
  8
2d
100
AcDbVertex
100
AcDb2dVertex
 10
9.727678502146137
 20
11.40676390607541
 30
0.0
  0
SEQEND
  5
BC
330
B9
100
AcDbEntity
  8
2d
  0
SPLINE
  5
BD
330
1F
100
AcDbEntity
  8
2d
100
AcDbSpline
210
0.0
220
0.0
230
1.0
 70
     8
 71
     3
 72
    11
 73
     7
 74
     0
 42
0.0000000001
 43
0.0000000001
 40
0.0
 40
0.0
 40
0.0
 40
0.0
 40
4.011046207106913
 40
6.04620124079943
 40
7.465585909084389
 40
11.18891122707429
 40
11.18891122707429
 40
11.18891122707429
 40
11.18891122707429
 10
9.727678502146137
 20
11.40676390607541
 30
0.0
 10
9.901521338171168
 20
10.08102562359905
 30
0.0
 10
10.17491840229193
 20
8.084439698522742
 30
0.0
 10
10.51958084761141
 20
5.619652069218053
 30
0.0
 10
10.87272603577335
 20
3.253596714695739
 30
0.0
 10
11.14295867553932
 20
1.559881038582287
 30
0.0
 10
11.41272122415463
 20
0.3478893467889427
 30
0.0
  0
SPLINE
  5
BE
330
1F
100
AcDbEntity
  8
2d
100
AcDbSpline
210
0.0
220
0.0
230
1.0
 70
    12
 71
     2
 72
     6
 73
     3
 74
     0
 42
0.0000000001
 43
0.0000000001
 40
0.0
 40
0.0
 40
0.0
 40
0.0651571337469848
 40
0.0651571337469848
 40
0.0651571337469848
 10
11.41272122415463
 20
0.3478893467889427
 30
0.0
 41
1.0
 10
11.42001902791684
 20
0.315140171735564
 30
0.0
 41
0.9657909063371607
 10
11.44252640494457
 20
0.2905344878236881
 30
0.0
 41
1.0
  0
SPLINE
  5
BF
330
1F
100
AcDbEntity
  8
2d
100
AcDbSpline
210
0.0
220
0.0
230
1.0
 70
    12
 71
     2
 72
     6
 73
     3
 74
     0
 42
0.0000000001
 43
0.0000000001
 40
0.0
 40
0.0
 40
0.0
 40
0.0479511554903918
 40
0.0479511554903918
 40
0.0479511554903918
 10
11.44252640494457
 20
0.2905344878236881
 30
0.0
 41
1.0
 10
11.45892383244353
 20
0.2726351770222615
 30
0.0
 41
0.9816186814193106
 10
11.48085504564295
 20
0.2621734482941273
 30
0.0
 41
1.0
  0
SPLINE
  5
C0
330
1F
100
AcDbEntity
  8
2d
100
AcDbSpline
210
0.0
220
0.0
230
1.0
 70
    12
 71
     2
 72
     6
 73
     3
 74
     0
 42
0.0000000001
 43
0.0000000001
 40
0.0
 40
0.0
 40
0.0
 40
0.0557413703329245
 40
0.0557413703329245
 40
0.0557413703329245
 10
11.48085504564295
 20
0.2621734482941273
 30
0.0
 41
1.0
 10
11.50646762264074
 20
0.2499905438593993
 30
0.0
 41
0.9754237138934874
 10
11.53480606431962
 20
0.2500000000000001
 30
0.0
 41
1.0
  0
SPLINE
  5
C1
330
1F
100
AcDbEntity
  8
2d
100
AcDbSpline
210
0.0
220
0.0
230
1.0
 70
    24
 71
     2
 72
     6
 73
     3
 74
     0
 42
0.0000000001
 43
0.0000000001
 40
0.0
 40
0.0
 40
0.0
 40
0.8660382065589767
 40
0.8660382065589767
 40
0.8660382065589767
 10
11.53480606431962
 20
0.2500000000000001
 30
0.0
 10
11.96918026301461
 20
0.2500000000004836
 30
0.0
 10
12.4035544617096
 20
0.2500000000009671
 30
0.0
  0
SPLINE
  5
C2
330
1F
100
AcDbEntity
  8
2d
100
AcDbSpline
210
0.0
220
0.0
230
1.0
 70
    12
 71
     2
 72
     8
 73
     5
 74
     0
 42
0.0000000001
 43
0.0000000001
 40
0.0
 40
0.0
 40
0.0
 40
0.1001026950842209
 40
0.1001026950842209
 40
0.2002053901684417
 40
0.2002053901684417
 40
0.2002053901684417
 10
12.4035544617096
 20
0.2500000000009671
 30
0.0
 41
1.0
 10
12.45915503122617
 20
0.2501621344942084
 30
0.0
 41
0.9213882062785557
 10
12.49595176719217
 20
0.288154484610307
 30
0.0
 41
1.0
 10
12.53274850315818
 20
0.3261468347264055
 30
0.0
 41
0.9213882062785557
 10
12.53117730522391
 20
0.379105100739041
 30
0.0
 41
1.0
  0
SPLINE
  5
C3
330
1F
100
AcDbEntity
  8
2d
100
AcDbSpline
210
0.0
220
0.0
230
1.0
 70
    24
 71
     2
 72
     6
 73
     3
 74
     0
 42
0.0000000001
 43
0.0000000001
 40
0.0
 40
0.0
 40
0.0
 40
0.0000022158416767
 40
0.0000022158416767
 40
0.0000022158416767
 10
12.53117730522391
 20
0.379105100739041
 30
0.0
 10
12.53112296978036
 20
0.3800921767366638
 30
0.0
 10
12.53106863433681
 20
0.3810792527342866
 30
0.0
  0
SPLINE
  5
C4
330
1F
100
AcDbEntity
  8
2d
100
AcDbSpline
210
0.0
220
0.0
230
1.0
 70
     8
 71
     3
 72
    12
 73
     8
 74
     0
 42
0.0000000001
 43
0.0000000001
 40
0.0
 40
0.0
 40
0.0
 40
0.0
 40
0.7706021098739465
 40
1.64124097472657
 40
3.964295880736438
 40
7.702573480212806
 40
11.94910516795952
 40
11.94910516795952
 40
11.94910516795952
 40
11.94910516795952
 10
12.53106863433681
 20
0.3810792527342866
 30
0.0
 10
12.52166024195432
 20
0.639650130653903
 30
0.0
 10
12.4951750536878
 20
1.186162478836372
 30
0.0
 10
12.39131957606919
 20
2.503619922164851
 30
0.0
 10
12.1492338781697
 20
4.801715555861615
 30
0.0
 10
11.73016081008328
 20
8.212054159350341
 30
0.0
 10
11.39258680458364
 20
10.85216406054347
 30
0.0
 10
11.20555167389905
 20
12.25527172595149
 30
0.0
  0
SPLINE
  5
C5
330
1F
100
AcDbEntity
  8
2d
100
AcDbSpline
210
0.0
220
0.0
230
1.0
 70
    12
 71
     2
 72
     6
 73
     3
 74
     0
 42
0.0000000001
 43
0.0000000001
 40
0.0
 40
0.0
 40
0.0
 40
0.4300514912621929
 40
0.4300514912621929
 40
0.4300514912621929
 10
-11.65769157127878
 20
0.2500000000000115
 30
0.0
 41
1.0
 10
-11.71366313289486
 20
0.0018508295115056
 30
0.0
 41
0.7832919181619415
 10
-11.96911562558266
 20
0.0000036141961534
 30
0.0
 41
1.0
  0
SPLINE
  5
C6
330
1F
100
AcDbEntity
  8
2d
100
AcDbSpline
210
0.0
220
0.0
230
1.0
 70
    12
 71
     2
 72
     6
 73
     3
 74
     0
 42
0.0000000001
 43
0.0000000001
 40
0.0
 40
0.0
 40
0.0
 40
0.4322559161119562
 40
0.4322559161119562
 40
0.4322559161119562
 10
-11.96911562558266
 20
0.0000036141961534
 30
0.0
 41
1.0
 10
-12.22644157128
 20
0.0
 30
0.0
 41
0.7808688094429923
 10
-12.28269157127997
 20
0.2500000000000113
 30
0.0
 41
1.0
  0
POLYLINE
  5
C7
330
1F
100
AcDbEntity
  8
2d
100
AcDb2dPolyline
 66
     1
 10
0.0
 20
0.0
 30
0.0
  0
VERTEX
  5
C8
330
C7
100
AcDbEntity
  8
2d
100
AcDbVertex
100
AcDb2dVertex
 10
-11.20555167389905
 20
12.25527172595149
 30
0.0
  0
VERTEX
  5
C9
330
C7
100
AcDbEntity
  8
2d
100
AcDbVertex
100
AcDb2dVertex
 10
-9.727678502146137
 20
11.40676390607541
 30
0.0
  0
SEQEND
  5
CA
330
C7
100
AcDbEntity
  8
2d
  0
SPLINE
  5
CB
330
1F
100
AcDbEntity
  8
2d
100
AcDbSpline
210
0.0
220
0.0
230
1.0
 70
     8
 71
     3
 72
    11
 73
     7
 74
     0
 42
0.0000000001
 43
0.0000000001
 40
0.0
 40
0.0
 40
0.0
 40
0.0
 40
4.011046207106913
 40
6.04620124079943
 40
7.465585909084389
 40
11.18891122707429
 40
11.18891122707429
 40
11.18891122707429
 40
11.18891122707429
 10
-9.727678502146137
 20
11.40676390607541
 30
0.0
 10
-9.901521338171168
 20
10.08102562359905
 30
0.0
 10
-10.17491840229193
 20
8.084439698522742
 30
0.0
 10
-10.51958084761141
 20
5.619652069218053
 30
0.0
 10
-10.87272603577335
 20
3.253596714695739
 30
0.0
 10
-11.14295867553932
 20
1.559881038582287
 30
0.0
 10
-11.41272122415463
 20
0.3478893467889427
 30
0.0
  0
SPLINE
  5
CC
330
1F
100
AcDbEntity
  8
2d
100
AcDbSpline
210
0.0
220
0.0
230
1.0
 70
    12
 71
     2
 72
     6
 73
     3
 74
     0
 42
0.0000000001
 43
0.0000000001
 40
0.0
 40
0.0
 40
0.0
 40
0.0651571337469848
 40
0.0651571337469848
 40
0.0651571337469848
 10
-11.41272122415463
 20
0.3478893467889427
 30
0.0
 41
1.0
 10
-11.42001902791684
 20
0.315140171735564
 30
0.0
 41
0.9657909063371607
 10
-11.44252640494457
 20
0.2905344878236881
 30
0.0
 41
1.0
  0
SPLINE
  5
CD
330
1F
100
AcDbEntity
  8
2d
100
AcDbSpline
210
0.0
220
0.0
230
1.0
 70
    12
 71
     2
 72
     6
 73
     3
 74
     0
 42
0.0000000001
 43
0.0000000001
 40
0.0
 40
0.0
 40
0.0
 40
0.0479511554903918
 40
0.0479511554903918
 40
0.0479511554903918
 10
-11.44252640494457
 20
0.2905344878236881
 30
0.0
 41
1.0
 10
-11.45892383244353
 20
0.2726351770222615
 30
0.0
 41
0.9816186814193106
 10
-11.48085504564295
 20
0.2621734482941273
 30
0.0
 41
1.0
  0
SPLINE
  5
CE
330
1F
100
AcDbEntity
  8
2d
100
AcDbSpline
210
0.0
220
0.0
230
1.0
 70
    12
 71
     2
 72
     6
 73
     3
 74
     0
 42
0.0000000001
 43
0.0000000001
 40
0.0
 40
0.0
 40
0.0
 40
0.0557413703329245
 40
0.0557413703329245
 40
0.0557413703329245
 10
-11.48085504564295
 20
0.2621734482941273
 30
0.0
 41
1.0
 10
-11.50646762264074
 20
0.2499905438593993
 30
0.0
 41
0.9754237138934874
 10
-11.53480606431962
 20
0.2500000000000001
 30
0.0
 41
1.0
  0
SPLINE
  5
CF
330
1F
100
AcDbEntity
  8
2d
100
AcDbSpline
210
0.0
220
0.0
230
1.0
 70
    24
 71
     2
 72
     6
 73
     3
 74
     0
 42
0.0000000001
 43
0.0000000001
 40
0.0
 40
0.0
 40
0.0
 40
0.8660382065589767
 40
0.8660382065589767
 40
0.8660382065589767
 10
-11.53480606431962
 20
0.2500000000000001
 30
0.0
 10
-11.96918026301461
 20
0.2500000000004836
 30
0.0
 10
-12.4035544617096
 20
0.2500000000009671
 30
0.0
  0
SPLINE
  5
D0
330
1F
100
AcDbEntity
  8
2d
100
AcDbSpline
210
0.0
220
0.0
230
1.0
 70
    12
 71
     2
 72
     8
 73
     5
 74
     0
 42
0.0000000001
 43
0.0000000001
 40
0.0
 40
0.0
 40
0.0
 40
0.1001026950842209
 40
0.1001026950842209
 40
0.2002053901684417
 40
0.2002053901684417
 40
0.2002053901684417
 10
-12.4035544617096
 20
0.2500000000009671
 30
0.0
 41
1.0
 10
-12.45915503122617
 20
0.2501621344942084
 30
0.0
 41
0.9213882062785557
 10
-12.49595176719217
 20
0.288154484610307
 30
0.0
 41
1.0
 10
-12.53274850315818
 20
0.3261468347264055
 30
0.0
 41
0.9213882062785557
 10
-12.53117730522391
 20
0.379105100739041
 30
0.0
 41
1.0
  0
SPLINE
  5
D1
330
1F
100
AcDbEntity
  8
2d
100
AcDbSpline
210
0.0
220
0.0
230
1.0
 70
    24
 71
     2
 72
     6
 73
     3
 74
     0
 42
0.0000000001
 43
0.0000000001
 40
0.0
 40
0.0
 40
0.0
 40
0.0000022158416767
 40
0.0000022158416767
 40
0.0000022158416767
 10
-12.53117730522391
 20
0.379105100739041
 30
0.0
 10
-12.53112296978036
 20
0.3800921767366638
 30
0.0
 10
-12.53106863433681
 20
0.3810792527342866
 30
0.0
  0
SPLINE
  5
D2
330
1F
100
AcDbEntity
  8
2d
100
AcDbSpline
210
0.0
220
0.0
230
1.0
 70
     8
 71
     3
 72
    12
 73
     8
 74
     0
 42
0.0000000001
 43
0.0000000001
 40
0.0
 40
0.0
 40
0.0
 40
0.0
 40
0.7706021098739465
 40
1.64124097472657
 40
3.964295880736438
 40
7.702573480212806
 40
11.94910516795952
 40
11.94910516795952
 40
11.94910516795952
 40
11.94910516795952
 10
-12.53106863433681
 20
0.3810792527342866
 30
0.0
 10
-12.52166024195432
 20
0.639650130653903
 30
0.0
 10
-12.4951750536878
 20
1.186162478836372
 30
0.0
 10
-12.39131957606919
 20
2.503619922164851
 30
0.0
 10
-12.1492338781697
 20
4.801715555861615
 30
0.0
 10
-11.73016081008328
 20
8.212054159350341
 30
0.0
 10
-11.39258680458364
 20
10.85216406054347
 30
0.0
 10
-11.20555167389905
 20
12.25527172595149
 30
0.0
  0
SPLINE
  5
D3
330
1F
100
AcDbEntity
  8
2d
100
AcDbSpline
210
0.0
220
0.0
230
1.0
 70
    24
 71
     2
 72
     6
 73
     3
 74
     0
 42
0.0000000001
 43
0.0000000001
 40
0.0
 40
0.0
 40
0.0
 40
6.862446191052074
 40
6.862446191052074
 40
6.862446191052074
 10
-9.892902528228404
 20
10.16468119040206
 30
0.0
 10
-6.467065675812856
 20
9.972499526597439
 30
0.0
 10
-3.041228823397307
 20
9.780317862792817
 30
0.0
  0
SPLINE
  5
D4
330
1F
100
AcDbEntity
  8
2d
100
AcDbSpline
210
0.0
220
0.0
230
1.0
 70
    12
 71
     2
 72
     6
 73
     3
 74
     0
 42
0.0000000001
 43
0.0000000001
 40
0.0022552229714647
 40
0.0022552229714647
 40
0.0022552229714647
 40
0.2328834501174242
 40
0.2328834501174242
 40
0.2328834501174242
 10
-3.041228823397307
 20
9.780317862792817
 30
0.0
 41
0.999308543286011
 10
-2.96061147731206
 20
9.866680986331005
 30
0.0
 41
0.9642986908172522
 10
-2.935117679340037
 20
9.982040476023279
 30
0.0
 41
1.0
  0
POLYLINE
  5
D5
330
1F
100
AcDbEntity
  8
2d
100
AcDb2dPolyline
 66
     1
 10
0.0
 20
0.0
 30
0.0
  0
VERTEX
  5
D6
330
D5
100
AcDbEntity
  8
2d
100
AcDbVertex
100
AcDb2dVertex
 10
-2.935117679340037
 20
9.982040476023279
 30
0.0
  0
VERTEX
  5
D7
330
D5
100
AcDbEntity
  8
2d
100
AcDbVertex
100
AcDb2dVertex
 10
2.935117679340037
 20
9.982040476023279
 30
0.0
  0
SEQEND
  5
D8
330
D5
100
AcDbEntity
  8
2d
  0
SPLINE
  5
D9
330
1F
100
AcDbEntity
  8
2d
100
AcDbSpline
210
0.0
220
0.0
230
1.0
 70
    12
 71
     2
 72
     6
 73
     3
 74
     0
 42
0.0000000001
 43
0.0000000001
 40
-0.2328834501174242
 40
-0.2328834501174242
 40
-0.2328834501174242
 40
-0.0022552229714647
 40
-0.0022552229714647
 40
-0.0022552229714647
 10
2.935117679340037
 20
9.982040476023279
 30
0.0
 41
1.0
 10
2.96061147731206
 20
9.866680986331005
 30
0.0
 41
0.9642986908172522
 10
3.041228823397307
 20
9.780317862792817
 30
0.0
 41
0.999308543286011
  0
SPLINE
  5
DA
330
1F
100
AcDbEntity
  8
2d
100
AcDbSpline
210
0.0
220
0.0
230
1.0
 70
    24
 71
     2
 72
     6
 73
     3
 74
     0
 42
0.0000000001
 43
0.0000000001
 40
-6.862446191052074
 40
-6.862446191052074
 40
-6.862446191052074
 40
0.0
 40
0.0
 40
0.0
 10
3.041228823397307
 20
9.780317862792817
 30
0.0
 10
6.467065675812856
 20
9.972499526597439
 30
0.0
 10
9.892902528228404
 20
10.16468119040206
 30
0.0
  0
SPLINE
  5
DB
330
1F
100
AcDbEntity
  8
2d
100
AcDbSpline
210
0.0
220
0.0
230
1.0
 70
    12
 71
     3
 72
    10
 73
     6
 74
     0
 42
0.0000000001
 43
0.0000000001
 40
-2.450349350769619
 40
-2.450349350769619
 40
-2.450349350769619
 40
-2.450349350769619
 40
-1.876749788657398
 40
-1.876749788657398
 40
-1.303211487412879
 40
-1.303211487412879
 40
-1.303211487412879
 40
-1.303211487412879
 10
6.550513635486151
 20
6.956781433634815
 30
0.0
 41
1.0
 10
6.553512336488716
 20
6.965084135784154
 30
0.0
 41
1.0
 10
6.621542930386838
 20
6.974111657135551
 30
0.0
 41
1.0
 10
6.882868508345432
 20
6.987346929816945
 30
0.0
 41
1.0
 10
7.068348001817821
 20
6.991022244557926
 30
0.0
 41
1.0
 10
7.238693251058855
 20
6.991406503771035
 30
0.0
 41
1.0
  0
SPLINE
  5
DC
330
1F
100
AcDbEntity
  8
2d
100
AcDbSpline
210
0.0
220
0.0
230
1.0
 70
    12
 71
     2
 72
     6
 73
     3
 74
     0
 42
0.0000000001
 43
0.0000000001
 40
0.0
 40
0.0
 40
0.0
 40
0.7528271723229101
 40
0.7528271723229101
 40
0.7528271723229101
 10
7.238693251058855
 20
6.991406503771035
 30
0.0
 41
1.0
 10
7.143042207163964
 20
7.355464310603518
 30
0.0
 41
0.9999998884853897
 10
7.047735065545661
 20
7.719612299298218
 30
0.0
 41
1.0
  0
SPLINE
  5
DD
330
1F
100
AcDbEntity
  8
2d
100
AcDbSpline
210
0.0
220
0.0
230
1.0
 70
    12
 71
     2
 72
     6
 73
     3
 74
     0
 42
0.0000000001
 43
0.0000000001
 40
0.0
 40
0.0
 40
0.0
 40
0.4288879218844824
 40
0.4288879218844824
 40
0.4288879218844824
 10
8.640557656686227
 20
0.248864364159683
 30
0.0
 41
1.0
 10
8.697217578817288
 20
0.0018421311008948
 30
0.0
 41
0.7844160343062501
 10
8.951723921657992
 20
0.0000036142314465
 30
0.0
 41
1.0
  0
SPLINE
  5
DE
330
1F
100
AcDbEntity
  8
2d
100
AcDbSpline
210
0.0
220
0.0
230
1.0
 70
    12
 71
     2
 72
     6
 73
     3
 74
     0
 42
0.0000000001
 43
0.0000000001
 40
0.0
 40
0.0
 40
0.0
 40
0.4322559161119557
 40
0.4322559161119557
 40
0.4322559161119557
 10
8.951723921657992
 20
0.0000036142314465
 30
0.0
 41
1.0
 10
9.209049872608624
 20
0.0
 30
0.0
 41
0.780868809442996
 10
9.265299872608594
 20
0.2500000000000113
 30
0.0
 41
1.0
  0
SPLINE
  5
DF
330
1F
100
AcDbEntity
  8
2d
100
AcDbSpline
210
0.0
220
0.0
230
1.0
 70
     8
 71
     3
 72
    11
 73
     7
 74
     0
 42
0.0000000001
 43
0.0000000001
 40
0.0
 40
0.0
 40
0.0
 40
0.0
 40
2.363945996681978
 40
3.269336675918125
 40
4.109559165487669
 40
6.880034806498095
 40
6.880034806498095
 40
6.880034806498095
 40
6.880034806498095
 10
6.54942485177453
 20
6.956509134160274
 30
0.0
 10
6.740536143688523
 20
6.192027105689827
 30
0.0
 10
7.008088721743695
 20
5.135664337448031
 30
0.0
 10
7.358295716985172
 20
3.811213945164245
 30
0.0
 10
7.75961327522146
 20
2.360515622734047
 30
0.0
 10
8.100158845738802
 20
1.205535251877471
 30
0.0
 10
8.409398811477981
 20
0.330325428606861
 30
0.0
  0
SPLINE
  5
E0
330
1F
100
AcDbEntity
  8
2d
100
AcDbSpline
210
0.0
220
0.0
230
1.0
 70
    12
 71
     2
 72
     6
 73
     3
 74
     0
 42
0.0000000001
 43
0.0000000001
 40
0.0
 40
0.0
 40
0.0
 40
0.1461295092803073
 40
0.1461295092803073
 40
0.1461295092803073
 10
8.409398811477981
 20
0.330325428606861
 30
0.0
 41
1.0
 10
8.443558497349123
 20
0.2499275792322631
 30
0.0
 41
0.8329780104736524
 10
8.52941004393267
 20
0.2500000000091051
 30
0.0
 41
1.0
  0
SPLINE
  5
E1
330
1F
100
AcDbEntity
  8
2d
100
AcDbSpline
210
0.0
220
0.0
230
1.0
 70
    24
 71
     2
 72
     6
 73
     3
 74
     0
 42
0.0000000001
 43
0.0000000001
 40
-0.8627370694742851
 40
-0.8627370694742851
 40
-0.8627370694742851
 40
0.0
 40
0.0
 40
0.0
 10
8.52941004393267
 20
0.2500000000091051
 30
0.0
 10
8.962374319664278
 20
0.2500000000053587
 30
0.0
 10
9.395338595395886
 20
0.2500000000016124
 30
0.0
  0
SPLINE
  5
E2
330
1F
100
AcDbEntity
  8
2d
100
AcDbSpline
210
0.0
220
0.0
230
1.0
 70
    12
 71
     2
 72
     8
 73
     5
 74
     0
 42
0.0000000001
 43
0.0000000001
 40
0.0
 40
0.0
 40
0.0
 40
0.1060425210151594
 40
0.1060425210151594
 40
0.2120850420303188
 40
0.2120850420303188
 40
0.2120850420303188
 10
9.395338595395886
 20
0.2500000000016124
 30
0.0
 41
1.0
 10
9.451896297482014
 20
0.2500489348844777
 30
0.0
 41
0.9115019330790105
 10
9.489206200542377
 20
0.2924017751373456
 30
0.0
 41
1.0
 10
9.52651610360274
 20
0.3347546153902135
 30
0.0
 41
0.9115019330790105
 10
9.519372662249673
 20
0.3913599806253384
 30
0.0
 41
1.0
  0
SPLINE
  5
E3
330
1F
100
AcDbEntity
  8
2d
100
AcDbSpline
210
0.0
220
0.0
230
1.0
 70
     8
 71
     3
 72
    11
 73
     7
 74
     0
 42
0.0000000001
 43
0.0000000001
 40
0.0
 40
0.0
 40
0.0
 40
0.0
 40
0.6384711359733612
 40
1.300447321098259
 40
2.982447277729718
 40
7.547188325907323
 40
7.547188325907323
 40
7.547188325907323
 40
7.547188325907323
 10
9.519372662249673
 20
0.3913599806253384
 30
0.0
 10
9.490247843543692
 20
0.6027755501817268
 30
0.0
 10
9.427206749815868
 20
1.031734274856787
 30
0.0
 10
9.255496931238065
 20
2.010966371187343
 30
0.0
 10
8.797431713516609
 20
4.268192585242087
 30
0.0
 10
8.304768682412696
 20
6.291742083492362
 30
0.0
 10
7.944251736005489
 20
7.769904833965364
 30
0.0
  0
SPLINE
  5
E4
330
1F
100
AcDbEntity
  8
2d
100
AcDbSpline
210
0.0
220
0.0
230
1.0
 70
    12
 71
     3
 72
    10
 73
     6
 74
     0
 42
0.0000000001
 43
0.0000000001
 40
-2.450349350769619
 40
-2.450349350769619
 40
-2.450349350769619
 40
-2.450349350769619
 40
-1.876749788657398
 40
-1.876749788657398
 40
-1.303211487412879
 40
-1.303211487412879
 40
-1.303211487412879
 40
-1.303211487412879
 10
-6.550513635486151
 20
6.956781433634815
 30
0.0
 41
1.0
 10
-6.553512336488716
 20
6.965084135784154
 30
0.0
 41
1.0
 10
-6.621542930386838
 20
6.974111657135551
 30
0.0
 41
1.0
 10
-6.882868508345432
 20
6.987346929816945
 30
0.0
 41
1.0
 10
-7.068348001817821
 20
6.991022244557926
 30
0.0
 41
1.0
 10
-7.238693251058855
 20
6.991406503771035
 30
0.0
 41
1.0
  0
SPLINE
  5
E5
330
1F
100
AcDbEntity
  8
2d
100
AcDbSpline
210
0.0
220
0.0
230
1.0
 70
    12
 71
     2
 72
     6
 73
     3
 74
     0
 42
0.0000000001
 43
0.0000000001
 40
0.0
 40
0.0
 40
0.0
 40
0.7528271723229101
 40
0.7528271723229101
 40
0.7528271723229101
 10
-7.238693251058855
 20
6.991406503771035
 30
0.0
 41
1.0
 10
-7.143042207163964
 20
7.355464310603518
 30
0.0
 41
0.9999998884853897
 10
-7.047735065545661
 20
7.719612299298218
 30
0.0
 41
1.0
  0
SPLINE
  5
E6
330
1F
100
AcDbEntity
  8
2d
100
AcDbSpline
210
0.0
220
0.0
230
1.0
 70
    12
 71
     2
 72
     6
 73
     3
 74
     0
 42
0.0000000001
 43
0.0000000001
 40
0.0
 40
0.0
 40
0.0
 40
0.4288879218844824
 40
0.4288879218844824
 40
0.4288879218844824
 10
-8.640557656686227
 20
0.248864364159683
 30
0.0
 41
1.0
 10
-8.697217578817288
 20
0.0018421311008948
 30
0.0
 41
0.7844160343062501
 10
-8.951723921657992
 20
0.0000036142314465
 30
0.0
 41
1.0
  0
SPLINE
  5
E7
330
1F
100
AcDbEntity
  8
2d
100
AcDbSpline
210
0.0
220
0.0
230
1.0
 70
    12
 71
     2
 72
     6
 73
     3
 74
     0
 42
0.0000000001
 43
0.0000000001
 40
0.0
 40
0.0
 40
0.0
 40
0.4322559161119557
 40
0.4322559161119557
 40
0.4322559161119557
 10
-8.951723921657992
 20
0.0000036142314465
 30
0.0
 41
1.0
 10
-9.209049872608624
 20
0.0
 30
0.0
 41
0.780868809442996
 10
-9.265299872608594
 20
0.2500000000000113
 30
0.0
 41
1.0
  0
SPLINE
  5
E8
330
1F
100
AcDbEntity
  8
2d
100
AcDbSpline
210
0.0
220
0.0
230
1.0
 70
     8
 71
     3
 72
    11
 73
     7
 74
     0
 42
0.0000000001
 43
0.0000000001
 40
0.0
 40
0.0
 40
0.0
 40
0.0
 40
2.363945996681978
 40
3.269336675918125
 40
4.109559165487669
 40
6.880034806498095
 40
6.880034806498095
 40
6.880034806498095
 40
6.880034806498095
 10
-6.54942485177453
 20
6.956509134160274
 30
0.0
 10
-6.740536143688523
 20
6.192027105689827
 30
0.0
 10
-7.008088721743695
 20
5.135664337448031
 30
0.0
 10
-7.358295716985172
 20
3.811213945164245
 30
0.0
 10
-7.75961327522146
 20
2.360515622734047
 30
0.0
 10
-8.100158845738802
 20
1.205535251877471
 30
0.0
 10
-8.409398811477981
 20
0.330325428606861
 30
0.0
  0
SPLINE
  5
E9
330
1F
100
AcDbEntity
  8
2d
100
AcDbSpline
210
0.0
220
0.0
230
1.0
 70
    12
 71
     2
 72
     6
 73
     3
 74
     0
 42
0.0000000001
 43
0.0000000001
 40
0.0
 40
0.0
 40
0.0
 40
0.1461295092803073
 40
0.1461295092803073
 40
0.1461295092803073
 10
-8.409398811477981
 20
0.330325428606861
 30
0.0
 41
1.0
 10
-8.443558497349123
 20
0.2499275792322631
 30
0.0
 41
0.8329780104736524
 10
-8.52941004393267
 20
0.2500000000091051
 30
0.0
 41
1.0
  0
SPLINE
  5
EA
330
1F
100
AcDbEntity
  8
2d
100
AcDbSpline
210
0.0
220
0.0
230
1.0
 70
    24
 71
     2
 72
     6
 73
     3
 74
     0
 42
0.0000000001
 43
0.0000000001
 40
-0.8627370694742851
 40
-0.8627370694742851
 40
-0.8627370694742851
 40
0.0
 40
0.0
 40
0.0
 10
-8.52941004393267
 20
0.2500000000091051
 30
0.0
 10
-8.962374319664278
 20
0.2500000000053587
 30
0.0
 10
-9.395338595395886
 20
0.2500000000016124
 30
0.0
  0
SPLINE
  5
EB
330
1F
100
AcDbEntity
  8
2d
100
AcDbSpline
210
0.0
220
0.0
230
1.0
 70
    12
 71
     2
 72
     8
 73
     5
 74
     0
 42
0.0000000001
 43
0.0000000001
 40
0.0
 40
0.0
 40
0.0
 40
0.1060425210151594
 40
0.1060425210151594
 40
0.2120850420303188
 40
0.2120850420303188
 40
0.2120850420303188
 10
-9.395338595395886
 20
0.2500000000016124
 30
0.0
 41
1.0
 10
-9.451896297482014
 20
0.2500489348844777
 30
0.0
 41
0.9115019330790105
 10
-9.489206200542377
 20
0.2924017751373456
 30
0.0
 41
1.0
 10
-9.52651610360274
 20
0.3347546153902135
 30
0.0
 41
0.9115019330790105
 10
-9.519372662249673
 20
0.3913599806253384
 30
0.0
 41
1.0
  0
SPLINE
  5
EC
330
1F
100
AcDbEntity
  8
2d
100
AcDbSpline
210
0.0
220
0.0
230
1.0
 70
     8
 71
     3
 72
    11
 73
     7
 74
     0
 42
0.0000000001
 43
0.0000000001
 40
0.0
 40
0.0
 40
0.0
 40
0.0
 40
0.6384711359733612
 40
1.300447321098259
 40
2.982447277729718
 40
7.547188325907323
 40
7.547188325907323
 40
7.547188325907323
 40
7.547188325907323
 10
-9.519372662249673
 20
0.3913599806253384
 30
0.0
 10
-9.490247843543692
 20
0.6027755501817268
 30
0.0
 10
-9.427206749815868
 20
1.031734274856787
 30
0.0
 10
-9.255496931238065
 20
2.010966371187343
 30
0.0
 10
-8.797431713516609
 20
4.268192585242087
 30
0.0
 10
-8.304768682412696
 20
6.291742083492362
 30
0.0
 10
-7.944251736005489
 20
7.769904833965364
 30
0.0
  0
SPLINE
  5
ED
330
1F
100
AcDbEntity
  8
2d
100
AcDbSpline
210
0.0
220
0.0
230
1.0
 70
    24
 71
     2
 72
     6
 73
     3
 74
     0
 42
0.0000000001
 43
0.0000000001
 40
0.0
 40
0.0
 40
0.0
 40
6.596344373027389
 40
6.596344373027389
 40
6.596344373027389
 10
-7.238693251058866
 20
6.99140650377104
 30
0.0
 10
-3.945698447863645
 20
7.17613603043582
 30
0.0
 10
-0.6527036446684242
 20
7.3608655571006
 30
0.0
  0
SPLINE
  5
EE
330
1F
100
AcDbEntity
  8
2d
100
AcDbSpline
210
0.0
220
0.0
230
1.0
 70
    24
 71
     2
 72
     6
 73
     3
 74
     0
 42
0.0000000001
 43
0.0000000001
 40
0.0
 40
0.0
 40
0.0
 40
9.564325170194447
 40
9.564325170194447
 40
9.564325170194447
 10
-0.6527036446684242
 20
7.3608655571006
 30
0.0
 10
-5.427359317635483
 20
7.628712892176464
 30
0.0
 10
-10.20201499060254
 20
7.896560227252327
 30
0.0
  0
SPLINE
  5
EF
330
1F
100
AcDbEntity
  8
2d
100
AcDbSpline
210
0.0
220
0.0
230
1.0
 70
    24
 71
     2
 72
     6
 73
     3
 74
     0
 42
0.0000000001
 43
0.0000000001
 40
0.0
 40
0.0
 40
0.0
 40
6.596344373027389
 40
6.596344373027389
 40
6.596344373027389
 10
7.238693251058866
 20
6.99140650377104
 30
0.0
 10
3.945698447863645
 20
7.17613603043582
 30
0.0
 10
0.6527036446684242
 20
7.3608655571006
 30
0.0
  0
SPLINE
  5
F0
330
1F
100
AcDbEntity
  8
2d
100
AcDbSpline
210
0.0
220
0.0
230
1.0
 70
    24
 71
     2
 72
     6
 73
     3
 74
     0
 42
0.0000000001
 43
0.0000000001
 40
0.0
 40
0.0
 40
0.0
 40
9.564325170194447
 40
9.564325170194447
 40
9.564325170194447
 10
0.6527036446684242
 20
7.3608655571006
 30
0.0
 10
5.427359317635483
 20
7.628712892176464
 30
0.0
 10
10.20201499060254
 20
7.896560227252327
 30
0.0
  0
SPLINE
  5
F1
330
1F
100
AcDbEntity
  8
2d
100
AcDbSpline
210
0.0
220
0.0
230
1.0
 70
    24
 71
     2
 72
     6
 73
     3
 74
     0
 42
0.0000000001
 43
0.0000000001
 40
-10.20866539226465
 40
-10.20866539226465
 40
-10.20866539226465
 40
0.0
 40
0.0
 40
0.0
 10
-10.19264009979451
 20
7.969264700180783
 30
0.0
 10
-5.096320049897253
 20
7.68337272439137
 30
0.0
 10
0.0
 20
7.397480748601958
 30
0.0
  0
SPLINE
  5
F2
330
1F
100
AcDbEntity
  8
2d
100
AcDbSpline
210
0.0
220
0.0
230
1.0
 70
    24
 71
     2
 72
     6
 73
     3
 74
     0
 42
0.0000000001
 43
0.0000000001
 40
0.0
 40
0.0
 40
0.0
 40
10.20866539226465
 40
10.20866539226465
 40
10.20866539226465
 10
0.0
 20
7.397480748601958
 30
0.0
 10
5.096320049897253
 20
7.68337272439137
 30
0.0
 10
10.19264009979451
 20
7.969264700180783
 30
0.0
  0
SPLINE
  5
F3
330
1F
100
AcDbEntity
  8
2d
100
AcDbSpline
210
0.0
220
0.0
230
1.0
 70
    24
 71
     2
 72
     6
 73
     3
 74
     0
 42
0.0000000001
 43
0.0000000001
 40
0.0
 40
0.0
 40
0.0
 40
6.560812625326916
 40
6.560812625326916
 40
6.560812625326916
 10
6.550513635486151
 20
6.956781433634815
 30
0.0
 10
3.275256817743076
 20
7.140515899617027
 30
0.0
 10
0.0
 20
7.324250365599238
 30
0.0
  0
SPLINE
  5
F4
330
1F
100
AcDbEntity
  8
2d
100
AcDbSpline
210
0.0
220
0.0
230
1.0
 70
    24
 71
     2
 72
     6
 73
     3
 74
     0
 42
0.0000000001
 43
0.0000000001
 40
-6.560812625326916
 40
-6.560812625326916
 40
-6.560812625326916
 40
0.0
 40
0.0
 40
0.0
 10
0.0
 20
7.324250365599238
 30
0.0
 10
-3.275256817743076
 20
7.140515899617027
 30
0.0
 10
-6.550513635486151
 20
6.956781433634815
 30
0.0
  0
SPLINE
  5
F5
330
1F
100
AcDbEntity
  8
2d
100
AcDbSpline
210
0.0
220
0.0
230
1.0
 70
     8
 71
     3
 72
     8
 73
     4
 74
     0
 42
0.0000000001
 43
0.0000000001
 40
0.0
 40
0.0
 40
0.0
 40
0.0
 40
1.0
 40
1.0
 40
1.0
 40
1.0
 10
-7.818705280258333
 20
17.45457620587439
 30
0.0
 10
-3.636642406460731
 20
17.71536105015015
 30
0.0
 10
3.636642406460727
 20
17.71536105015013
 30
0.0
 10
7.818705280258333
 20
17.45457620587439
 30
0.0
  0
SPLINE
  5
F6
330
1F
100
AcDbEntity
  8
2d
100
AcDbSpline
210
0.0
220
0.0
230
1.0
 70
     8
 71
     3
 72
    29
 73
    25
 74
     0
 42
0.0000000001
 43
0.0000000001
 40
0.0
 40
0.0
 40
0.0
 40
0.0
 40
1.0
 40
2.0
 40
3.0
 40
4.0
 40
5.0
 40
6.0
 40
7.0
 40
8.0
 40
9.0
 40
10.0
 40
11.0
 40
12.0
 40
13.0
 40
14.0
 40
15.0
 40
16.0
 40
17.0
 40
18.0
 40
19.0
 40
20.0
 40
21.0
 40
22.0
 40
22.0
 40
22.0
 40
22.0
 10
7.818705280258333
 20
17.45457620587439
 30
0.0
 10
8.064905516150661
 20
17.43922366524662
 30
0.0
 10
8.557284808642896
 20
17.41000923420054
 30
0.0
 10
9.295487335332256
 20
17.35368091102443
 30
0.0
 10
10.02272773059203
 20
17.19659947572896
 30
0.0
 10
10.66969282404021
 20
16.79744232593738
 30
0.0
 10
11.00102568575891
 20
16.08562667685333
 30
0.0
 10
10.81888275248392
 20
15.35034490695991
 30
0.0
 10
10.54090759102199
 20
14.65759794185639
 30
0.0
 10
10.02438330758373
 20
14.11508768373295
 30
0.0
 10
9.444069827495705
 20
13.65548749817987
 30
0.0
 10
8.796851912752519
 20
13.29242717808292
 30
0.0
 10
8.109768781501643
 20
13.01153777665425
 30
0.0
 10
7.381435383511674
 20
12.86876397608217
 30
0.0
 10
6.651889527174936
 20
12.74722022509532
 30
0.0
 10
5.915804109582902
 20
12.66732046255716
 30
0.0
 10
5.177683965487054
 20
12.61465021436258
 30
0.0
 10
4.438692466060618
 20
12.57552797406852
 30
0.0
 10
3.69925079208108
 20
12.54669140450312
 30
0.0
 10
2.95956733330432
 20
12.52509780233855
 30
0.0
 10
2.219793354159382
 20
12.50704823770606
 30
0.0
 10
1.479939627580193
 20
12.49252184950439
 30
0.0
 10
0.7399961739181918
 20
12.48338038677451
 30
0.0
 10
0.2466641013161829
 20
12.48181280203138
 30
0.0
 10
0.0
 20
12.48241808361368
 30
0.0
  0
SPLINE
  5
F7
330
1F
100
AcDbEntity
  8
2d
100
AcDbSpline
210
0.0
220
0.0
230
1.0
 70
     8
 71
     3
 72
    29
 73
    25
 74
     0
 42
0.0000000001
 43
0.0000000001
 40
-22.0
 40
-22.0
 40
-22.0
 40
-22.0
 40
-21.0
 40
-20.0
 40
-19.0
 40
-18.0
 40
-17.0
 40
-16.0
 40
-15.0
 40
-14.0
 40
-13.0
 40
-12.0
 40
-11.0
 40
-10.0
 40
-9.0
 40
-8.0
 40
-7.0
 40
-6.0
 40
-5.0
 40
-4.0
 40
-3.0
 40
-2.0
 40
-1.0
 40
0.0
 40
0.0
 40
0.0
 40
0.0
 10
0.0
 20
12.48241808361368
 30
0.0
 10
-0.2466641013161829
 20
12.48181280203138
 30
0.0
 10
-0.7399961739181918
 20
12.48338038677451
 30
0.0
 10
-1.479939627580193
 20
12.49252184950439
 30
0.0
 10
-2.219793354159382
 20
12.50704823770606
 30
0.0
 10
-2.95956733330432
 20
12.52509780233855
 30
0.0
 10
-3.69925079208108
 20
12.54669140450312
 30
0.0
 10
-4.438692466060618
 20
12.57552797406852
 30
0.0
 10
-5.177683965487054
 20
12.61465021436258
 30
0.0
 10
-5.915804109582902
 20
12.66732046255716
 30
0.0
 10
-6.651889527174936
 20
12.74722022509532
 30
0.0
 10
-7.381435383511674
 20
12.86876397608217
 30
0.0
 10
-8.109768781501643
 20
13.01153777665425
 30
0.0
 10
-8.796851912752519
 20
13.29242717808292
 30
0.0
 10
-9.444069827495705
 20
13.65548749817987
 30
0.0
 10
-10.02438330758373
 20
14.11508768373295
 30
0.0
 10
-10.54090759102199
 20
14.65759794185639
 30
0.0
 10
-10.81888275248392
 20
15.35034490695991
 30
0.0
 10
-11.00102568575891
 20
16.08562667685333
 30
0.0
 10
-10.66969282404021
 20
16.79744232593738
 30
0.0
 10
-10.02272773059203
 20
17.19659947572896
 30
0.0
 10
-9.295487335332256
 20
17.35368091102443
 30
0.0
 10
-8.557284808642896
 20
17.41000923420054
 30
0.0
 10
-8.064905516150661
 20
17.43922366524662
 30
0.0
 10
-7.818705280258333
 20
17.45457620587439
 30
0.0
  0
SPLINE
  5
F8
330
1F
100
AcDbEntity
  8
2d
100
AcDbSpline
210
0.0
220
0.0
230
1.0
 70
     8
 71
     3
 72
    12
 73
     8
 74
     0
 42
0.0000000001
 43
0.0000000001
 40
0.0
 40
0.0
 40
0.0
 40
0.0
 40
0.2981075969885781
 40
0.5903156718708229
 40
1.186231773000191
 40
1.714445646970739
 40
2.280317539181486
 40
2.280317539181486
 40
2.280317539181486
 40
2.280317539181486
 10
-7.205759133685017
 20
31.74111028363041
 30
0.0
 10
-7.301856169836928
 20
31.76497614549126
 30
0.0
 10
-7.491045233337946
 20
31.82456013965757
 30
0.0
 10
-7.841083967869178
 20
32.00834868765063
 30
0.0
 10
-8.207325607137332
 20
32.31789592443235
 30
0.0
 10
-8.485691758486174
 20
32.81842452816876
 30
0.0
 10
-8.53160325602012
 20
33.18712360204108
 30
0.0
 10
-8.531232347002213
 20
33.37500016605168
 30
0.0
  0
SPLINE
  5
F9
330
1F
100
AcDbEntity
  8
2d
100
AcDbSpline
210
0.0
220
0.0
230
1.0
 70
     8
 71
     3
 72
     9
 73
     5
 74
     0
 42
0.0000000001
 43
0.0000000001
 40
0.0
 40
0.0
 40
0.0
 40
0.0
 40
3.206756004746373
 40
12.87512578216569
 40
12.87512578216569
 40
12.87512578216569
 40
12.87512578216569
 10
-8.531232347002213
 20
33.37500016605168
 30
0.0
 10
-8.534482455318548
 20
34.44393869838203
 30
0.0
 10
-8.5067415029324
 20
38.73556152797896
 30
0.0
 10
-8.4978815756049
 20
43.02726964702983
 30
0.0
 10
-8.480313669225922
 20
46.25000429609845
 30
0.0
  0
SPLINE
  5
FA
330
1F
100
AcDbEntity
  8
2d
100
AcDbSpline
210
0.0
220
0.0
230
1.0
 70
     8
 71
     3
 72
    12
 73
     8
 74
     0
 42
0.0000000001
 43
0.0000000001
 40
0.0
 40
0.0
 40
0.0
 40
0.0
 40
0.4612709701611183
 40
0.866812216878621
 40
1.618497939857809
 40
2.495909725943016
 40
3.878043165581128
 40
3.878043165581128
 40
3.878043165581128
 40
3.878043165581128
 10
-8.480313669225922
 20
46.25000429609845
 30
0.0
 10
-8.483283916960708
 20
46.40475995349684
 30
0.0
 10
-8.459313296109524
 20
46.69099503626244
 30
0.0
 10
-8.312414066413512
 20
47.21901575972039
 30
0.0
 10
-7.824674077796731
 20
47.73359949445356
 30
0.0
 10
-6.836664570932976
 20
48.0044324423338
 30
0.0
 10
-6.087066237545558
 20
48.02455899867509
 30
0.0
 10
-5.624999997625458
 20
48.04087471433116
 30
0.0
  0
SPLINE
  5
FB
330
1F
100
AcDbEntity
  8
2d
100
AcDbSpline
210
0.0
220
0.0
230
1.0
 70
     8
 71
     3
 72
     8
 73
     4
 74
     0
 42
0.0000000001
 43
0.0000000001
 40
0.0
 40
0.0
 40
0.0
 40
0.0
 40
1.0
 40
1.0
 40
1.0
 40
1.0
 10
-5.624999997625458
 20
48.04087471433116
 30
0.0
 10
-2.622200183728524
 20
48.14690459425512
 30
0.0
 10
2.622200183728524
 20
48.14690459425512
 30
0.0
 10
5.624999997625458
 20
48.04087471433116
 30
0.0
  0
SPLINE
  5
FC
330
1F
100
AcDbEntity
  8
2d
100
AcDbSpline
210
0.0
220
0.0
230
1.0
 70
     8
 71
     3
 72
    12
 73
     8
 74
     0
 42
0.0000000001
 43
0.0000000001
 40
-3.878043165581128
 40
-3.878043165581128
 40
-3.878043165581128
 40
-3.878043165581128
 40
-2.495909725943016
 40
-1.618497939857809
 40
-0.866812216878621
 40
-0.4612709701611183
 40
0.0
 40
0.0
 40
0.0
 40
0.0
 10
5.624999997625458
 20
48.04087471433116
 30
0.0
 10
6.087066237545558
 20
48.02455899867509
 30
0.0
 10
6.836664570932976
 20
48.0044324423338
 30
0.0
 10
7.824674077796731
 20
47.73359949445356
 30
0.0
 10
8.312414066413512
 20
47.21901575972039
 30
0.0
 10
8.459313296109524
 20
46.69099503626244
 30
0.0
 10
8.483283916960708
 20
46.40475995349684
 30
0.0
 10
8.480313669225922
 20
46.25000429609845
 30
0.0
  0
SPLINE
  5
FD
330
1F
100
AcDbEntity
  8
2d
100
AcDbSpline
210
0.0
220
0.0
230
1.0
 70
     8
 71
     3
 72
     9
 73
     5
 74
     0
 42
0.0000000001
 43
0.0000000001
 40
-12.87512578216569
 40
-12.87512578216569
 40
-12.87512578216569
 40
-12.87512578216569
 40
-3.206756004746373
 40
0.0
 40
0.0
 40
0.0
 40
0.0
 10
8.480313669225922
 20
46.25000429609845
 30
0.0
 10
8.4978815756049
 20
43.02726964702983
 30
0.0
 10
8.5067415029324
 20
38.73556152797896
 30
0.0
 10
8.534482455318548
 20
34.44393869838203
 30
0.0
 10
8.531232347002213
 20
33.37500016605168
 30
0.0
  0
SPLINE
  5
FE
330
1F
100
AcDbEntity
  8
2d
100
AcDbSpline
210
0.0
220
0.0
230
1.0
 70
     8
 71
     3
 72
    12
 73
     8
 74
     0
 42
0.0000000001
 43
0.0000000001
 40
-2.280317539181486
 40
-2.280317539181486
 40
-2.280317539181486
 40
-2.280317539181486
 40
-1.714445646970739
 40
-1.186231773000191
 40
-0.5903156718708229
 40
-0.2981075969885781
 40
0.0
 40
0.0
 40
0.0
 40
0.0
 10
8.531232347002213
 20
33.37500016605168
 30
0.0
 10
8.53160325602012
 20
33.18712360204108
 30
0.0
 10
8.485691758486174
 20
32.81842452816876
 30
0.0
 10
8.207325607137332
 20
32.31789592443235
 30
0.0
 10
7.841083967869178
 20
32.00834868765063
 30
0.0
 10
7.491045233337946
 20
31.82456013965757
 30
0.0
 10
7.301856169836928
 20
31.76497614549126
 30
0.0
 10
7.205759133685017
 20
31.74111028363041
 30
0.0
  0
SPLINE
  5
FF
330
1F
100
AcDbEntity
  8
2d
100
AcDbSpline
210
0.0
220
0.0
230
1.0
 70
    12
 71
     2
 72
     8
 73
     5
 74
     0
 42
0.0000000001
 43
0.0000000001
 40
0.0
 40
0.0
 40
0.0
 40
6.098793267626016
 40
6.098793267626016
 40
11.94780673439373
 40
11.94780673439373
 40
11.94780673439373
 10
-8.46342630124705
 20
17.41428960289261
 30
0.0
 41
1.0
 10
-8.475779122903054
 20
20.46366281705255
 30
0.0
 41
0.9999992127130846
 10
-8.480489436338285
 20
23.51868492881585
 30
0.0
 41
1.0
 10
-8.516760659956375
 20
26.51217857660516
 30
0.0
 41
0.9999941213515843
 10
-8.475388410783392
 20
29.43640411667281
 30
0.0
 41
1.0
  0
SPLINE
  5
100
330
1F
100
AcDbEntity
  8
2d
100
AcDbSpline
210
0.0
220
0.0
230
1.0
 70
     8
 71
     3
 72
    12
 73
     8
 74
     0
 42
0.0000000001
 43
0.0000000001
 40
0.0
 40
0.0
 40
0.0
 40
0.0
 40
0.5810199808962057
 40
1.084432158604242
 40
1.923431788231675
 40
2.704686698739535
 40
3.615808362711574
 40
3.615808362711574
 40
3.615808362711574
 40
3.615808362711574
 10
-8.475388410783392
 20
29.43640411667281
 30
0.0
 10
-8.472660717469306
 20
29.62919978560468
 30
0.0
 10
-8.450697923046736
 20
29.99301909566759
 30
0.0
 10
-8.335069597184305
 20
30.6210544289556
 30
0.0
 10
-8.03495029560396
 20
31.28454931003433
 30
0.0
 10
-7.314668969710619
 20
31.7809813132485
 30
0.0
 10
-6.739807934847711
 20
31.84227853439613
 30
0.0
 10
-6.437998014934978
 20
31.84427051362115
 30
0.0
  0
SPLINE
  5
101
330
1F
100
AcDbEntity
  8
2d
100
AcDbSpline
210
0.0
220
0.0
230
1.0
 70
     8
 71
     3
 72
     8
 73
     4
 74
     0
 42
0.0000000001
 43
0.0000000001
 40
0.0
 40
0.0
 40
0.0
 40
0.0
 40
1.0
 40
1.0
 40
1.0
 40
1.0
 10
-6.437998014934978
 20
31.84427051362115
 30
0.0
 10
-3.004286901894118
 20
31.86693339098413
 30
0.0
 10
3.004286901894118
 20
31.86693339098413
 30
0.0
 10
6.437998014934978
 20
31.84427051362115
 30
0.0
  0
SPLINE
  5
102
330
1F
100
AcDbEntity
  8
2d
100
AcDbSpline
210
0.0
220
0.0
230
1.0
 70
     8
 71
     3
 72
    12
 73
     8
 74
     0
 42
0.0000000001
 43
0.0000000001
 40
-3.615808362711574
 40
-3.615808362711574
 40
-3.615808362711574
 40
-3.615808362711574
 40
-2.704686698739535
 40
-1.923431788231675
 40
-1.084432158604242
 40
-0.5810199808962057
 40
0.0
 40
0.0
 40
0.0
 40
0.0
 10
6.437998014934978
 20
31.84427051362115
 30
0.0
 10
6.739807934847711
 20
31.84227853439613
 30
0.0
 10
7.314668969710619
 20
31.7809813132485
 30
0.0
 10
8.03495029560396
 20
31.28454931003433
 30
0.0
 10
8.335069597184305
 20
30.6210544289556
 30
0.0
 10
8.450697923046736
 20
29.99301909566759
 30
0.0
 10
8.472660717469306
 20
29.62919978560468
 30
0.0
 10
8.475388410783392
 20
29.43640411667281
 30
0.0
  0
SPLINE
  5
103
330
1F
100
AcDbEntity
  8
2d
100
AcDbSpline
210
0.0
220
0.0
230
1.0
 70
    12
 71
     2
 72
     8
 73
     5
 74
     0
 42
0.0000000001
 43
0.0000000001
 40
-11.94780673439373
 40
-11.94780673439373
 40
-11.94780673439373
 40
-6.098793267626016
 40
-6.098793267626016
 40
0.0
 40
0.0
 40
0.0
 10
8.475388410783392
 20
29.43640411667281
 30
0.0
 41
1.0
 10
8.516760659956375
 20
26.51217857660516
 30
0.0
 41
0.9999941213515843
 10
8.480489436338285
 20
23.51868492881585
 30
0.0
 41
1.0
 10
8.475779122903054
 20
20.46366281705255
 30
0.0
 41
0.9999992127130846
 10
8.46342630124705
 20
17.41428960289261
 30
0.0
 41
1.0
  0
SPLINE
  5
104
330
1F
100
AcDbEntity
  8
2d
100
AcDbSpline
210
0.0
220
0.0
230
1.0
 70
    12
 71
     2
 72
     6
 73
     3
 74
     0
 42
0.0000000001
 43
0.0000000001
 40
0.0
 40
0.0
 40
0.0
 40
0.9203798869681643
 40
0.9203798869681643
 40
0.9203798869681643
 10
-11.79967814718455
 20
24.51524103932536
 30
0.0
 41
1.0
 10
-12.21830500973423
 20
24.82122380139375
 30
0.0
 41
0.8394706399598945
 10
-12.66886191304096
 20
24.56456765474257
 30
0.0
 41
1.0
  0
SPLINE
  5
105
330
1F
100
AcDbEntity
  8
2d
100
AcDbSpline
210
0.0
220
0.0
230
1.0
 70
    12
 71
     2
 72
     6
 73
     3
 74
     0
 42
0.0000000001
 43
0.0000000001
 40
0.0
 40
0.0
 40
0.0
 40
0.1438918418331928
 40
0.1438918418331928
 40
0.1438918418331928
 10
-9.571434332180745
 20
66.24533977529431
 30
0.0
 41
1.0
 10
-9.640394517335642
 20
66.26588187321636
 30
0.0
 41
0.9998161180232102
 10
-9.70851628738355
 20
66.28905317808199
 30
0.0
 41
1.0
  0
SPLINE
  5
106
330
1F
100
AcDbEntity
  8
2d
100
AcDbSpline
210
0.0
220
0.0
230
1.0
 70
    12
 71
     2
 72
     6
 73
     3
 74
     0
 42
0.0000000001
 43
0.0000000001
 40
0.0
 40
0.0
 40
0.0
 40
2.869784032501549
 40
2.869784032501549
 40
2.869784032501549
 10
49.05605435900954
 20
24.95352346804336
 30
0.0
 41
1.0
 10
48.45488184190339
 20
26.25693762873608
 30
0.0
 41
0.9994969919614609
 10
47.77228783612676
 20
27.51961822686684
 30
0.0
 41
1.0
  0
SPLINE
  5
107
330
1F
100
AcDbEntity
  8
2d
100
AcDbSpline
210
0.0
220
0.0
230
1.0
 70
    12
 71
     2
 72
     6
 73
     3
 74
     0
 42
0.0000000001
 43
0.0000000001
 40
0.0
 40
0.0
 40
0.0
 40
2.294011276423434
 40
2.294011276423434
 40
2.294011276423434
 10
53.32928221363484
 20
7.360865557100624
 30
0.0
 41
1.0
 10
53.27529088152748
 20
8.506599762743274
 30
0.0
 41
0.9999999999999949
 10
53.22129931961864
 20
9.65233395755595
 30
0.0
 41
1.0
  0
SPLINE
  5
108
330
1F
100
AcDbEntity
  8
2d
100
AcDbSpline
210
0.0
220
0.0
230
1.0
 70
    12
 71
     2
 72
     6
 73
     3
 74
     0
 42
0.0000000001
 43
0.0000000001
 40
0.0
 40
0.0
 40
0.0
 40
0.0369285561025294
 40
0.0369285561025294
 40
0.0369285561025294
 10
-9.770468832701106
 20
11.08309897977061
 30
0.0
 41
1.0
 10
-9.754662745652764
 20
11.07355440078526
 30
0.0
 41
0.9999960142277698
 10
-9.738803014687377
 20
11.06409922709607
 30
0.0
 41
1.0
  0
ENDSEC
  0
SECTION
  2
OBJECTS
  0
DICTIONARY
  5
C
330
0
100
AcDbDictionary
281
     1
  3
ACAD_GROUP
350
D
  3
ACAD_LAYOUT
350
1A
  3
ACAD_MLEADERSTYLE
350
10A
  3
ACAD_MLINESTYLE
350
17
  3
ACAD_PLOTSETTINGS
350
19
  3
ACAD_PLOTSTYLENAME
350
E
  3
ACAD_TABLESTYLE
350
109
  3
ACAD_VISUALSTYLE
350
2A
  0
DICTIONARY
  5
D
102
{ACAD_REACTORS
330
C
102
}
330
C
100
AcDbDictionary
281
     1
  0
DICTIONARY
  5
1A
102
{ACAD_REACTORS
330
C
102
}
330
C
100
AcDbDictionary
281
     1
  3
Layout1
350
1E
  3
Layout2
350
26
  3
Model
350
22
  0
DICTIONARY
  5
10A
102
{ACAD_REACTORS
330
C
102
}
330
C
100
AcDbDictionary
281
     1
  0
DICTIONARY
  5
17
102
{ACAD_REACTORS
330
C
102
}
330
C
100
AcDbDictionary
281
     1
  3
Standard
350
18
  0
DICTIONARY
  5
19
102
{ACAD_REACTORS
330
C
102
}
330
C
100
AcDbDictionary
281
     1
  0
ACDBDICTIONARYWDFLT
  5
E
102
{ACAD_REACTORS
330
C
102
}
330
C
100
AcDbDictionary
281
     1
  3
Normal
350
F
100
AcDbDictionaryWithDefault
340
F
  0
DICTIONARY
  5
109
102
{ACAD_REACTORS
330
C
102
}
330
C
100
AcDbDictionary
281
     1
  0
DICTIONARY
  5
2A
102
{ACAD_REACTORS
330
C
102
}
330
C
100
AcDbDictionary
281
     1
  3
2dWireframe
350
2F
  3
3D Hidden
350
31
  3
3dWireframe
350
30
  3
Basic
350
32
  3
Brighten
350
36
  3
ColorChange
350
3A
  3
Conceptual
350
34
  3
Dim
350
35
  3
Facepattern
350
39
  3
Flat
350
2B
  3
FlatWithEdges
350
2C
  3
Gouraud
350
2D
  3
GouraudWithEdges
350
2E
  3
Linepattern
350
38
  3
Realistic
350
33
  3
Thicken
350
37
  0
LAYOUT
  5
1E
102
{ACAD_REACTORS
330
1A
102
}
330
1A
100
AcDbPlotSettings
  1

  2
none_device
  4

  6

 40
0.0
 41
0.0
 42
0.0
 43
0.0
 44
0.0
 45
0.0
 46
0.0
 47
0.0
 48
0.0
 49
0.0
140
0.0
141
0.0
142
1.0
143
1.0
 70
   688
 72
     0
 73
     0
 74
     5
  7

 75
    16
 76
     0
 77
     2
 78
   300
147
1.0
148
0.0
149
0.0
100
AcDbLayout
  1
Layout1
 70
     1
 71
     1
 10
0.0
 20
0.0
 11
12.0
 21
9.0
 12
0.0
 22
0.0
 32
0.0
 14
1.000000000000000E+20
 24
1.000000000000000E+20
 34
1.000000000000000E+20
 15
-1.000000000000000E+20
 25
-1.000000000000000E+20
 35
-1.000000000000000E+20
146
0.0
 13
0.0
 23
0.0
 33
0.0
 16
1.0
 26
0.0
 36
0.0
 17
0.0
 27
1.0
 37
0.0
 76
     0
330
1B
  0
LAYOUT
  5
26
102
{ACAD_REACTORS
330
1A
102
}
330
1A
100
AcDbPlotSettings
  1

  2
none_device
  4

  6

 40
0.0
 41
0.0
 42
0.0
 43
0.0
 44
0.0
 45
0.0
 46
0.0
 47
0.0
 48
0.0
 49
0.0
140
0.0
141
0.0
142
1.0
143
1.0
 70
   688
 72
     0
 73
     0
 74
     5
  7

 75
    16
 76
     0
 77
     2
 78
   300
147
1.0
148
0.0
149
0.0
100
AcDbLayout
  1
Layout2
 70
     1
 71
     2
 10
0.0
 20
0.0
 11
0.0
 21
0.0
 12
0.0
 22
0.0
 32
0.0
 14
0.0
 24
0.0
 34
0.0
 15
0.0
 25
0.0
 35
0.0
146
0.0
 13
0.0
 23
0.0
 33
0.0
 16
1.0
 26
0.0
 36
0.0
 17
0.0
 27
1.0
 37
0.0
 76
     0
330
23
  0
LAYOUT
  5
22
102
{ACAD_REACTORS
330
1A
102
}
330
1A
100
AcDbPlotSettings
  1

  2
none_device
  4

  6

 40
0.0
 41
0.0
 42
0.0
 43
0.0
 44
0.0
 45
0.0
 46
0.0
 47
0.0
 48
0.0
 49
0.0
140
0.0
141
0.0
142
1.0
143
1.0
 70
  1712
 72
     0
 73
     0
 74
     0
  7

 75
     0
 76
     0
 77
     2
 78
   300
147
1.0
148
0.0
149
0.0
100
AcDbLayout
  1
Model
 70
     1
 71
     0
 10
0.0
 20
0.0
 11
12.0
 21
9.0
 12
0.0
 22
0.0
 32
0.0
 14
-18.27002457751131
 24
0.0000036141961534
 34
0.0
 15
70.88654577181222
 25
99.68807083182551
 35
0.0
146
0.0
 13
0.0
 23
0.0
 33
0.0
 16
1.0
 26
0.0
 36
0.0
 17
0.0
 27
1.0
 37
0.0
 76
     0
330
1F
331
29
  0
MLINESTYLE
  5
18
102
{ACAD_REACTORS
330
17
102
}
330
17
100
AcDbMlineStyle
  2
Standard
 70
     0
  3

 62
   256
 51
90.0
 52
90.0
 71
     2
 49
0.5
 62
   256
  6
BYLAYER
 49
-0.5
 62
   256
  6
BYLAYER
  0
ACDBPLACEHOLDER
  5
F
102
{ACAD_REACTORS
330
E
102
}
330
E
  0
VISUALSTYLE
  5
2F
102
{ACAD_REACTORS
330
2A
102
}
330
2A
100
AcDbVisualStyle
  2
2dWireframe
 70
     4
 71
     0
 72
     2
 73
     0
 90
        0
 40
-0.6
 41
-30.0
 62
     5
 63
     7
421
 16777215
 74
     1
 91
        4
 64
     7
 65
   257
 75
     1
175
     1
 42
1.0
 92
        0
 66
   257
 43
1.0
 76
     1
 77
     6
 78
     2
 67
     7
 79
     5
170
     0
171
     0
290
     0
174
     0
 93
        1
 44
0.0
173
     0
291
     0
 45
0.0
1001
ACAD
1000
AcDbSavedByObjectVersion
1070
     0
  0
VISUALSTYLE
  5
31
102
{ACAD_REACTORS
330
2A
102
}
330
2A
100
AcDbVisualStyle
  2
3D Hidden
 70
     6
 71
     1
 72
     2
 73
     2
 90
        0
 40
-0.6
 41
-30.0
 62
     5
 63
     7
421
 16777215
 74
     2
 91
        2
 64
     7
 65
   257
 75
     2
175
     1
 42
40.0
 92
        0
 66
   257
 43
1.0
 76
     1
 77
     6
 78
     2
 67
     7
 79
     3
170
     0
171
     0
290
     0
174
     0
 93
        1
 44
0.0
173
     0
291
     0
 45
0.0
1001
ACAD
1000
AcDbSavedByObjectVersion
1070
     0
  0
VISUALSTYLE
  5
30
102
{ACAD_REACTORS
330
2A
102
}
330
2A
100
AcDbVisualStyle
  2
3dWireframe
 70
     5
 71
     0
 72
     2
 73
     0
 90
        0
 40
-0.6
 41
-30.0
 62
     5
 63
     7
421
 16777215
 74
     1
 91
        4
 64
     7
 65
   257
 75
     1
175
     1
 42
1.0
 92
        0
 66
   257
 43
1.0
 76
     1
 77
     6
 78
     2
 67
     7
 79
     5
170
     0
171
     0
290
     0
174
     0
 93
        1
 44
0.0
173
     0
291
     0
 45
0.0
1001
ACAD
1000
AcDbSavedByObjectVersion
1070
     0
  0
VISUALSTYLE
  5
32
102
{ACAD_REACTORS
330
2A
102
}
330
2A
100
AcDbVisualStyle
  2
Basic
 70
     7
 71
     1
 72
     0
 73
     1
 90
        0
 40
-0.6
 41
-30.0
 62
     5
 63
     7
421
 16777215
 74
     0
 91
        4
 64
     7
 65
   257
 75
     1
175
     1
 42
1.0
 92
        8
 66
     7
 43
1.0
 76
     1
 77
     6
 78
     2
 67
     7
 79
     5
170
     0
171
     0
290
     0
174
     0
 93
        1
 44
0.0
173
     0
291
     1
 45
0.0
1001
ACAD
1000
AcDbSavedByObjectVersion
1070
     0
  0
VISUALSTYLE
  5
36
102
{ACAD_REACTORS
330
2A
102
}
330
2A
100
AcDbVisualStyle
  2
Brighten
 70
    12
 71
     2
 72
     2
 73
     0
 90
        0
 40
-0.6
 41
-30.0
 62
     5
 63
     7
421
 16777215
 74
     1
 91
        4
 64
     7
 65
   257
 75
     1
175
     1
 42
1.0
 92
        8
 66
     7
 43
1.0
 76
     1
 77
     6
 78
     2
 67
     7
 79
     5
170
     0
171
     0
290
     0
174
     0
 93
        1
 44
50.0
173
     0
291
     1
 45
0.0
1001
ACAD
1000
AcDbSavedByObjectVersion
1070
     0
  0
VISUALSTYLE
  5
3A
102
{ACAD_REACTORS
330
2A
102
}
330
2A
100
AcDbVisualStyle
  2
ColorChange
 70
    16
 71
     2
 72
     2
 73
     3
 90
        0
 40
-0.6
 41
-30.0
 62
     5
 63
     8
421
  8421504
 74
     1
 91
        4
 64
     7
 65
   257
 75
     1
175
     1
 42
1.0
 92
        8
 66
     8
424
  8421504
 43
1.0
 76
     1
 77
     6
 78
     2
 67
     7
 79
     5
170
     0
171
     0
290
     0
174
     0
 93
        1
 44
0.0
173
     0
291
     1
 45
0.0
1001
ACAD
1000
AcDbSavedByObjectVersion
1070
     0
  0
VISUALSTYLE
  5
34
102
{ACAD_REACTORS
330
2A
102
}
330
2A
100
AcDbVisualStyle
  2
Conceptual
 70
     9
 71
     3
 72
     2
 73
     0
 90
        0
 40
-0.6
 41
-30.0
 62
     5
 63
     7
421
 16777215
 74
     2
 91
        2
 64
     7
 65
   257
 75
     1
175
     1
 42
40.0
 92
        8
 66
     7
 43
1.0
 76
     1
 77
     6
 78
     2
 67
     7
 79
     3
170
     0
171
     0
290
     0
174
     0
 93
        1
 44
0.0
173
     0
291
     0
 45
0.0
1001
ACAD
1000
AcDbSavedByObjectVersion
1070
     0
  0
VISUALSTYLE
  5
35
102
{ACAD_REACTORS
330
2A
102
}
330
2A
100
AcDbVisualStyle
  2
Dim
 70
    11
 71
     2
 72
     2
 73
     0
 90
        0
 40
-0.6
 41
-30.0
 62
     5
 63
     7
421
 16777215
 74
     1
 91
        4
 64
     7
 65
   257
 75
     1
175
     1
 42
1.0
 92
        8
 66
     7
 43
1.0
 76
     1
 77
     6
 78
     2
 67
     7
 79
     5
170
     0
171
     0
290
     0
174
     0
 93
        1
 44
-50.0
173
     0
291
     1
 45
0.0
1001
ACAD
1000
AcDbSavedByObjectVersion
1070
     0
  0
VISUALSTYLE
  5
39
102
{ACAD_REACTORS
330
2A
102
}
330
2A
100
AcDbVisualStyle
  2
Facepattern
 70
    15
 71
     2
 72
     2
 73
     0
 90
        0
 40
-0.6
 41
-30.0
 62
     5
 63
     7
421
 16777215
 74
     1
 91
        4
 64
     7
 65
   257
 75
     1
175
     1
 42
1.0
 92
        8
 66
     7
 43
1.0
 76
     1
 77
     6
 78
     2
 67
     7
 79
     5
170
     0
171
     0
290
     0
174
     0
 93
        1
 44
0.0
173
     0
291
     1
 45
0.0
1001
ACAD
1000
AcDbSavedByObjectVersion
1070
     0
  0
VISUALSTYLE
  5
2B
102
{ACAD_REACTORS
330
2A
102
}
330
2A
100
AcDbVisualStyle
  2
Flat
 70
     0
 71
     2
 72
     1
 73
     1
 90
        2
 40
-0.6
 41
30.0
 62
     5
 63
     7
421
 16777215
 74
     0
 91
        4
 64
     7
 65
   257
 75
     1
175
     1
 42
1.0
 92
        8
 66
     7
 43
1.0
 76
     1
 77
     6
 78
     2
 67
     7
 79
     5
170
     0
171
     0
290
     0
174
     0
 93
       13
 44
0.0
173
     0
291
     1
 45
0.0
1001
ACAD
1000
AcDbSavedByObjectVersion
1070
     0
  0
VISUALSTYLE
  5
2C
102
{ACAD_REACTORS
330
2A
102
}
330
2A
100
AcDbVisualStyle
  2
FlatWithEdges
 70
     1
 71
     2
 72
     1
 73
     1
 90
        2
 40
-0.6
 41
30.0
 62
     5
 63
     7
421
 16777215
 74
     1
 91
        4
 64
     7
 65
   257
 75
     1
175
     1
 42
1.0
 92
        0
 66
   257
 43
1.0
 76
     1
 77
     6
 78
     2
 67
     7
 79
     5
170
     0
171
     0
290
     0
174
     0
 93
       13
 44
0.0
173
     0
291
     1
 45
0.0
1001
ACAD
1000
AcDbSavedByObjectVersion
1070
     0
  0
VISUALSTYLE
  5
2D
102
{ACAD_REACTORS
330
2A
102
}
330
2A
100
AcDbVisualStyle
  2
Gouraud
 70
     2
 71
     2
 72
     2
 73
     1
 90
        2
 40
-0.6
 41
30.0
 62
     5
 63
     7
421
 16777215
 74
     0
 91
        4
 64
     7
 65
   257
 75
     1
175
     1
 42
1.0
 92
        0
 66
     7
 43
1.0
 76
     1
 77
     6
 78
     2
 67
     7
 79
     5
170
     0
171
     0
290
     0
174
     0
 93
       13
 44
0.0
173
     0
291
     1
 45
0.0
1001
ACAD
1000
AcDbSavedByObjectVersion
1070
     0
  0
VISUALSTYLE
  5
2E
102
{ACAD_REACTORS
330
2A
102
}
330
2A
100
AcDbVisualStyle
  2
GouraudWithEdges
 70
     3
 71
     2
 72
     2
 73
     1
 90
        2
 40
-0.6
 41
30.0
 62
     5
 63
     7
421
 16777215
 74
     1
 91
        4
 64
     7
 65
   257
 75
     1
175
     1
 42
1.0
 92
        0
 66
   257
 43
1.0
 76
     1
 77
     6
 78
     2
 67
     7
 79
     5
170
     0
171
     0
290
     0
174
     0
 93
       13
 44
0.0
173
     0
291
     1
 45
0.0
1001
ACAD
1000
AcDbSavedByObjectVersion
1070
     0
  0
VISUALSTYLE
  5
38
102
{ACAD_REACTORS
330
2A
102
}
330
2A
100
AcDbVisualStyle
  2
Linepattern
 70
    14
 71
     2
 72
     2
 73
     0
 90
        0
 40
-0.6
 41
-30.0
 62
     5
 63
     7
421
 16777215
 74
     1
 91
        4
 64
     7
 65
   257
 75
     7
175
     7
 42
1.0
 92
        8
 66
     7
 43
1.0
 76
     1
 77
     6
 78
     2
 67
     7
 79
     5
170
     0
171
     0
290
     0
174
     0
 93
        1
 44
0.0
173
     0
291
     1
 45
0.0
1001
ACAD
1000
AcDbSavedByObjectVersion
1070
     0
  0
VISUALSTYLE
  5
33
102
{ACAD_REACTORS
330
2A
102
}
330
2A
100
AcDbVisualStyle
  2
Realistic
 70
     8
 71
     2
 72
     2
 73
     0
 90
        0
 40
-0.6
 41
-30.0
 62
     5
 63
     7
421
 16777215
 74
     1
 91
        0
 64
     7
 65
   257
 75
     1
175
     1
 42
1.0
 92
        8
 66
     8
424
  7895160
 43
1.0
 76
     1
 77
     6
 78
     2
 67
     7
 79
     5
170
     0
171
     0
290
     0
174
     0
 93
       13
 44
0.0
173
     0
291
     0
 45
0.0
1001
ACAD
1000
AcDbSavedByObjectVersion
1070
     0
  0
VISUALSTYLE
  5
37
102
{ACAD_REACTORS
330
2A
102
}
330
2A
100
AcDbVisualStyle
  2
Thicken
 70
    13
 71
     2
 72
     2
 73
     0
 90
        0
 40
-0.6
 41
-30.0
 62
     5
 63
     7
421
 16777215
 74
     1
 91
        4
 64
     7
 65
   257
 75
     1
175
     1
 42
1.0
 92
       12
 66
     7
 43
1.0
 76
     1
 77
     6
 78
     2
 67
     7
 79
     5
170
     0
171
     0
290
     0
174
     0
 93
        1
 44
0.0
173
     0
291
     1
 45
0.0
1001
ACAD
1000
AcDbSavedByObjectVersion
1070
     0
  0
ENDSEC
  0
EOF
