  0
SECTION
  2
HEADER
  9
$ACADVER
  1
AC1021
  9
$ACADMAINTVER
 70
    25
  9
$DWGCODEPAGE
  3
ANSI_1252
  9
$INSBASE
 10
0.0
 20
0.0
 30
0.0
  9
$EXTMIN
 10
1.000000000000000E+20
 20
1.000000000000000E+20
 30
1.000000000000000E+20
  9
$EXTMAX
 10
-1.000000000000000E+20
 20
-1.000000000000000E+20
 30
-1.000000000000000E+20
  9
$LIMMIN
 10
0.0
 20
0.0
  9
$LIMMAX
 10
12.0
 20
9.0
  9
$ORTHOMODE
 70
     0
  9
$REGENMODE
 70
     1
  9
$FILLMODE
 70
     1
  9
$QTEXTMODE
 70
     0
  9
$MIRRTEXT
 70
     1
  9
$LTSCALE
 40
1.0
  9
$ATTMODE
 70
     1
  9
$TEXTSIZE
 40
0.2
  9
$TRACEWID
 40
0.05
  9
$TEXTSTYLE
  7
Standard
  9
$CLAYER
  8
Layer 01
  9
$CELTYPE
  6
ByLayer
  9
$CECOLOR
 62
   256
  9
$CELTSCALE
 40
1.0
  9
$DISPSILH
 70
     0
  9
$DIMSCALE
 40
1.0
  9
$DIMASZ
 40
0.18
  9
$DIMEXO
 40
0.0625
  9
$DIMDLI
 40
0.38
  9
$DIMRND
 40
0.0
  9
$DIMDLE
 40
0.0
  9
$DIMEXE
 40
0.18
  9
$DIMTP
 40
0.0
  9
$DIMTM
 40
0.0
  9
$DIMTXT
 40
0.18
  9
$DIMCEN
 40
0.09
  9
$DIMTSZ
 40
0.0
  9
$DIMTOL
 70
     0
  9
$DIMLIM
 70
     0
  9
$DIMTIH
 70
     1
  9
$DIMTOH
 70
     1
  9
$DIMSE1
 70
     0
  9
$DIMSE2
 70
     0
  9
$DIMTAD
 70
     0
  9
$DIMZIN
 70
     0
  9
$DIMBLK
  1

  9
$DIMASO
 70
     1
  9
$DIMSHO
 70
     1
  9
$DIMPOST
  1

  9
$DIMAPOST
  1

  9
$DIMALT
 70
     0
  9
$DIMALTD
 70
     2
  9
$DIMALTF
 40
25.4
  9
$DIMLFAC
 40
1.0
  9
$DIMTOFL
 70
     0
  9
$DIMTVP
 40
0.0
  9
$DIMTIX
 70
     0
  9
$DIMSOXD
 70
     0
  9
$DIMSAH
 70
     0
  9
$DIMBLK1
  1

  9
$DIMBLK2
  1

  9
$DIMSTYLE
  2
STANDARD_ACAD
  9
$DIMCLRD
 70
     0
  9
$DIMCLRE
 70
     0
  9
$DIMCLRT
 70
     0
  9
$DIMTFAC
 40
1.0
  9
$DIMGAP
 40
0.09
  9
$DIMJUST
 70
     0
  9
$DIMSD1
 70
     0
  9
$DIMSD2
 70
     0
  9
$DIMTOLJ
 70
     1
  9
$DIMTZIN
 70
     0
  9
$DIMALTZ
 70
     0
  9
$DIMALTTZ
 70
     0
  9
$DIMUPT
 70
     0
  9
$DIMDEC
 70
     4
  9
$DIMTDEC
 70
     4
  9
$DIMALTU
 70
     2
  9
$DIMALTTD
 70
     2
  9
$DIMTXSTY
  7
Standard
  9
$DIMAUNIT
 70
     0
  9
$DIMADEC
 70
     0
  9
$DIMALTRND
 40
0.0
  9
$DIMAZIN
 70
     0
  9
$DIMDSEP
 70
    46
  9
$DIMATFIT
 70
     3
  9
$DIMFRAC
 70
     0
  9
$DIMLDRBLK
  1

  9
$DIMLUNIT
 70
     2
  9
$DIMLWD
 70
    -2
  9
$DIMLWE
 70
    -2
  9
$DIMTMOVE
 70
     2
  9
$DIMFXL
 40
1.0
  9
$DIMFXLON
 70
     0
  9
$DIMJOGANG
 40
0.7853981633974483
  9
$DIMTFILL
 70
     0
  9
$DIMTFILLCLR
 70
     0
  9
$DIMARCSYM
 70
     0
  9
$DIMLTYPE
  6

  9
$DIMLTEX1
  6

  9
$DIMLTEX2
  6

  9
$LUNITS
 70
     2
  9
$LUPREC
 70
     3
  9
$SKETCHINC
 40
0.1
  9
$FILLETRAD
 40
0.5
  9
$AUNITS
 70
     0
  9
$AUPREC
 70
     0
  9
$MENU
  1
.
  9
$ELEVATION
 40
0.0
  9
$PELEVATION
 40
0.0
  9
$THICKNESS
 40
0.0
  9
$LIMCHECK
 70
     0
  9
$CHAMFERA
 40
0.0
  9
$CHAMFERB
 40
0.0
  9
$CHAMFERC
 40
0.0
  9
$CHAMFERD
 40
0.0
  9
$SKPOLY
 70
     0
  9
$TDCREATE
 40
2458603.389664109
  9
$TDUCREATE
 40
2458603.556330775
  9
$TDUPDATE
 40
2458603.389676852
  9
$TDUUPDATE
 40
2458603.556343519
  9
$TDINDWG
 40
0.0000000116
  9
$TDUSRTIMER
 40
0.0000000116
  9
$USRTIMER
 70
     1
  9
$ANGBASE
 50
0.0
  9
$ANGDIR
 70
     0
  9
$PDMODE
 70
     0
  9
$PDSIZE
 40
0.0
  9
$PLINEWID
 40
0.0
  9
$SPLFRAME
 70
     0
  9
$SPLINETYPE
 70
     6
  9
$SPLINESEGS
 70
     8
  9
$HANDSEED
  5
E8
  9
$SURFTAB1
 70
     6
  9
$SURFTAB2
 70
     6
  9
$SURFTYPE
 70
     6
  9
$SURFU
 70
     6
  9
$SURFV
 70
     6
  9
$UCSBASE
  2

  9
$UCSNAME
  2

  9
$UCSORG
 10
0.0
 20
0.0
 30
0.0
  9
$UCSXDIR
 10
1.0
 20
0.0
 30
0.0
  9
$UCSYDIR
 10
0.0
 20
1.0
 30
0.0
  9
$UCSORTHOREF
  2

  9
$UCSORTHOVIEW
 70
     0
  9
$UCSORGTOP
 10
0.0
 20
0.0
 30
0.0
  9
$UCSORGBOTTOM
 10
0.0
 20
0.0
 30
0.0
  9
$UCSORGLEFT
 10
0.0
 20
0.0
 30
0.0
  9
$UCSORGRIGHT
 10
0.0
 20
0.0
 30
0.0
  9
$UCSORGFRONT
 10
0.0
 20
0.0
 30
0.0
  9
$UCSORGBACK
 10
0.0
 20
0.0
 30
0.0
  9
$PUCSBASE
  2

  9
$PUCSNAME
  2

  9
$PUCSORG
 10
0.0
 20
0.0
 30
0.0
  9
$PUCSXDIR
 10
1.0
 20
0.0
 30
0.0
  9
$PUCSYDIR
 10
0.0
 20
1.0
 30
0.0
  9
$PUCSORTHOREF
  2

  9
$PUCSORTHOVIEW
 70
     0
  9
$PUCSORGTOP
 10
0.0
 20
0.0
 30
0.0
  9
$PUCSORGBOTTOM
 10
0.0
 20
0.0
 30
0.0
  9
$PUCSORGLEFT
 10
0.0
 20
0.0
 30
0.0
  9
$PUCSORGRIGHT
 10
0.0
 20
0.0
 30
0.0
  9
$PUCSORGFRONT
 10
0.0
 20
0.0
 30
0.0
  9
$PUCSORGBACK
 10
0.0
 20
0.0
 30
0.0
  9
$USERI1
 70
     0
  9
$USERI2
 70
     0
  9
$USERI3
 70
     0
  9
$USERI4
 70
     0
  9
$USERI5
 70
     0
  9
$USERR1
 40
0.0
  9
$USERR2
 40
0.0
  9
$USERR3
 40
0.0
  9
$USERR4
 40
0.0
  9
$USERR5
 40
0.0
  9
$WORLDVIEW
 70
     1
  9
$SHADEDGE
 70
     3
  9
$SHADEDIF
 70
    70
  9
$TILEMODE
 70
     1
  9
$MAXACTVP
 70
    64
  9
$PINSBASE
 10
0.0
 20
0.0
 30
0.0
  9
$PLIMCHECK
 70
     0
  9
$PEXTMIN
 10
1.000000000000000E+20
 20
1.000000000000000E+20
 30
1.000000000000000E+20
  9
$PEXTMAX
 10
-1.000000000000000E+20
 20
-1.000000000000000E+20
 30
-1.000000000000000E+20
  9
$PLIMMIN
 10
0.0
 20
0.0
  9
$PLIMMAX
 10
12.0
 20
9.0
  9
$UNITMODE
 70
     0
  9
$VISRETAIN
 70
     1
  9
$PLINEGEN
 70
     0
  9
$PSLTSCALE
 70
     1
  9
$TREEDEPTH
 70
  3020
  9
$CMLSTYLE
  2
Standard
  9
$CMLJUST
 70
     0
  9
$CMLSCALE
 40
1.0
  9
$PROXYGRAPHICS
 70
     1
  9
$MEASUREMENT
 70
     0
  9
$CELWEIGHT
370
    -1
  9
$ENDCAPS
280
     0
  9
$JOINSTYLE
280
     0
  9
$LWDISPLAY
290
     0
  9
$INSUNITS
 70
     1
  9
$HYPERLINKBASE
  1

  9
$STYLESHEET
  1

  9
$XEDIT
290
     1
  9
$CEPSNTYPE
380
     0
  9
$PSTYLEMODE
290
     1
  9
$FINGERPRINTGUID
  2
{6e1340d3-a60d-4785-82cb-b1aa9638a624}
  9
$VERSIONGUID
  2
{FAEB1C32-E019-11D5-929B-00C0DF256EC4}
  9
$EXTNAMES
290
     1
  9
$PSVPSCALE
 40
0.0
  9
$OLESTARTUP
290
     0
  9
$SORTENTS
280
   127
  9
$INDEXCTL
280
     0
  9
$HIDETEXT
280
     1
  9
$XCLIPFRAME
290
     0
  9
$HALOGAP
280
     0
  9
$OBSCOLOR
 70
   257
  9
$OBSLTYPE
280
     0
  9
$INTERSECTIONDISPLAY
280
     0
  9
$INTERSECTIONCOLOR
 70
   257
  9
$DIMASSOC
280
     2
  9
$PROJECTNAME
  1

  9
$CAMERADISPLAY
290
     0
  9
$LENSLENGTH
 40
50.0
  9
$CAMERAHEIGHT
 40
0.0
  9
$STEPSPERSEC
 40
2.0
  9
$STEPSIZE
 40
6.0
  9
$3DDWFPREC
 40
2.0
  9
$PSOLWIDTH
 40
0.25
  9
$PSOLHEIGHT
 40
4.0
  9
$LOFTANG1
 40
1.570796326794897
  9
$LOFTANG2
 40
1.570796326794897
  9
$LOFTMAG1
 40
0.0
  9
$LOFTMAG2
 40
0.0
  9
$LOFTPARAM
 70
     7
  9
$LOFTNORMALS
280
     1
  9
$LATITUDE
 40
37.795
  9
$LONGITUDE
 40
-122.394
  9
$NORTHDIRECTION
 40
0.0
  9
$TIMEZONE
 70
 -8000
  9
$LIGHTGLYPHDISPLAY
280
     1
  9
$TILEMODELIGHTSYNCH
280
     1
  9
$CMATERIAL
347
44
  9
$SOLIDHIST
280
     0
  9
$SHOWHIST
280
     1
  9
$DWFFRAME
280
     2
  9
$DGNFRAME
280
     2
  9
$REALWORLDSCALE
290
     1
  9
$INTERFERECOLOR
 62
   256
  9
$CSHADOW
280
     0
  9
$SHADOWPLANELOCATION
 40
0.0
  0
ENDSEC
  0
SECTION
  2
CLASSES
  0
CLASS
  1
ACDBDICTIONARYWDFLT
  2
AcDbDictionaryWithDefault
  3
ObjectDBX Classes
 90
        0
 91
        3
280
     0
281
     0
  0
CLASS
  1
VISUALSTYLE
  2
AcDbVisualStyle
  3
ObjectDBX Classes
 90
     4095
 91
        3
280
     0
281
     0
  0
CLASS
  1
MATERIAL
  2
AcDbMaterial
  3
ObjectDBX Classes
 90
     1153
 91
        3
280
     0
281
     0
  0
CLASS
  1
SCALE
  2
AcDbScale
  3
ObjectDBX Classes
 90
     1153
 91
        3
280
     0
281
     0
  0
CLASS
  1
TABLESTYLE
  2
AcDbTableStyle
  3
ObjectDBX Classes
 90
     4095
 91
        3
280
     0
281
     0
  0
CLASS
  1
MLEADERSTYLE
  2
AcDbMLeaderStyle
  3
ACDB_MLEADERSTYLE_CLASS
 90
     4095
 91
        3
280
     0
281
     0
  0
CLASS
  1
SUN
  2
AcDbSun
  3
SCENEOE
 90
     1153
 91
        3
280
     0
281
     0
  0
CLASS
  1
DICTIONARYVAR
  2
AcDbDictionaryVar
  3
ObjectDBX Classes
 90
        0
 91
        3
280
     0
281
     0
  0
CLASS
  1
CELLSTYLEMAP
  2
AcDbCellStyleMap
  3
ObjectDBX Classes
 90
     1152
 91
        3
280
     0
281
     0
  0
ENDSEC
  0
SECTION
  2
TABLES
  0
TABLE
  2
VPORT
  5
8
330
0
100
AcDbSymbolTable
 70
     1
  0
VPORT
  5
29
330
8
100
AcDbSymbolTableRecord
100
AcDbViewportTableRecord
  2
*Active
 70
     0
 10
0.0
 20
0.0
 11
1.0
 21
1.0
 12
10.42990654205607
 22
4.5
 13
0.0
 23
0.0
 14
0.5
 24
0.5
 15
0.5
 25
0.5
 16
0.0
 26
0.0
 36
1.0
 17
0.0
 27
0.0
 37
0.0
 40
9.0
 41
1.972972972850329
 42
50.0
 43
0.0
 44
0.0
 50
0.0
 51
0.0
 71
     0
 72
   100
 73
     1
 74
     3
 75
     0
 76
     0
 77
     0
 78
     0
281
     0
 65
     1
110
0.0
120
0.0
130
0.0
111
1.0
121
0.0
131
0.0
112
0.0
122
1.0
132
0.0
 79
     0
146
0.0
348
2F
 60
     3
 61
     5
292
     1
282
     1
141
0.0
142
0.0
 63
   250
361
6D
  0
ENDTAB
  0
TABLE
  2
LTYPE
  5
5
330
0
100
AcDbSymbolTable
 70
     1
  0
LTYPE
  5
14
330
5
100
AcDbSymbolTableRecord
100
AcDbLinetypeTableRecord
  2
ByBlock
 70
     0
  3

 72
    65
 73
     0
 40
0.0
  0
LTYPE
  5
15
330
5
100
AcDbSymbolTableRecord
100
AcDbLinetypeTableRecord
  2
ByLayer
 70
     0
  3

 72
    65
 73
     0
 40
0.0
  0
LTYPE
  5
16
330
5
100
AcDbSymbolTableRecord
100
AcDbLinetypeTableRecord
  2
Continuous
 70
     0
  3
Solid line
 72
    65
 73
     0
 40
0.0
  0
ENDTAB
  0
TABLE
  2
LAYER
  5
2
330
0
100
AcDbSymbolTable
 70
     2
  0
LAYER
  5
10
330
2
100
AcDbSymbolTableRecord
100
AcDbLayerTableRecord
  2
0
 70
     0
 62
     7
  6
Continuous
370
    -3
390
F
347
46
  0
LAYER
  5
6E
330
2
100
AcDbSymbolTableRecord
100
AcDbLayerTableRecord
  2
Layer 01
 70
     0
 62
    18
420
        0
  6
Continuous
370
    -3
390
F
347
46
  0
ENDTAB
  0
TABLE
  2
STYLE
  5
3
330
0
100
AcDbSymbolTable
 70
     1
  0
STYLE
  5
11
330
3
100
AcDbSymbolTableRecord
100
AcDbTextStyleTableRecord
  2
Standard
 70
     0
 40
0.0
 41
1.0
 50
0.0
 71
     0
 42
0.2
  3
txt
  4

  0
ENDTAB
  0
TABLE
  2
VIEW
  5
6
330
0
100
AcDbSymbolTable
 70
     0
  0
ENDTAB
  0
TABLE
  2
UCS
  5
7
330
0
100
AcDbSymbolTable
 70
     0
  0
ENDTAB
  0
TABLE
  2
APPID
  5
9
330
0
100
AcDbSymbolTable
 70
     2
  0
APPID
  5
12
330
9
100
AcDbSymbolTableRecord
100
AcDbRegAppTableRecord
  2
ACAD
 70
     0
  0
APPID
  5
E0
330
9
100
AcDbSymbolTableRecord
100
AcDbRegAppTableRecord
  2
ACAD_MLEADERVER
 70
     0
  0
ENDTAB
  0
TABLE
  2
DIMSTYLE
  5
A
330
0
100
AcDbSymbolTable
 70
     1
100
AcDbDimStyleTable
  0
DIMSTYLE
105
27
330
A
100
AcDbSymbolTableRecord
100
AcDbDimStyleTableRecord
  2
STANDARD_ACAD
 70
     0
178
     0
340
11
  0
ENDTAB
  0
TABLE
  2
BLOCK_RECORD
  5
1
330
0
100
AcDbSymbolTable
 70
     1
  0
BLOCK_RECORD
  5
1F
330
1
100
AcDbSymbolTableRecord
100
AcDbBlockTableRecord
  2
*Model_Space
340
22
 70
     0
280
     1
281
     0
  0
BLOCK_RECORD
  5
1B
330
1
100
AcDbSymbolTableRecord
100
AcDbBlockTableRecord
  2
*Paper_Space
340
1E
 70
     0
280
     1
281
     0
  0
BLOCK_RECORD
  5
23
330
1
100
AcDbSymbolTableRecord
100
AcDbBlockTableRecord
  2
*Paper_Space0
340
26
 70
     0
280
     1
281
     0
  0
ENDTAB
  0
ENDSEC
  0
SECTION
  2
BLOCKS
  0
BLOCK
  5
20
330
1F
100
AcDbEntity
  8
0
100
AcDbBlockBegin
  2
*Model_Space
 70
     0
 10
0.0
 20
0.0
 30
0.0
  3
*Model_Space
  1

  0
ENDBLK
  5
21
330
1F
100
AcDbEntity
  8
0
100
AcDbBlockEnd
  0
BLOCK
  5
1C
330
1B
100
AcDbEntity
 67
     1
  8
0
100
AcDbBlockBegin
  2
*Paper_Space
 70
     0
 10
0.0
 20
0.0
 30
0.0
  3
*Paper_Space
  1

  0
ENDBLK
  5
1D
330
1B
100
AcDbEntity
 67
     1
  8
0
100
AcDbBlockEnd
  0
BLOCK
  5
24
330
23
100
AcDbEntity
  8
0
100
AcDbBlockBegin
  2
*Paper_Space0
 70
     0
 10
0.0
 20
0.0
 30
0.0
  3
*Paper_Space0
  1

  0
ENDBLK
  5
25
330
23
100
AcDbEntity
  8
0
100
AcDbBlockEnd
  0
ENDSEC
  0
SECTION
  2
ENTITIES
  0
SPLINE
  5
6F
330
1F
100
AcDbEntity
  8
Layer 01
370
    -3
100
AcDbSpline
210
0.0
220
0.0
230
1.0
 70
     8
 71
     3
 72
    56
 73
    52
 74
     0
 42
0.000000001
 43
0.0000000001
 40
0.8306547755672813
 40
0.8306547755672813
 40
0.8306547755672813
 40
0.8306547755672813
 40
4.979685679580826
 40
4.979685679580826
 40
4.979685679580826
 40
5.979685679580826
 40
5.979685679580826
 40
6.979685679580826
 40
6.979685679580826
 40
7.979685679580826
 40
7.979685679580826
 40
8.979685679580825
 40
8.979685679580825
 40
9.979685679580825
 40
9.979685679580825
 40
10.97968567958083
 40
10.97968567958083
 40
11.97968567958083
 40
11.97968567958083
 40
12.97968567958083
 40
12.97968567958083
 40
13.97968567958083
 40
13.97968567958083
 40
14.97968567958083
 40
14.97968567958083
 40
14.97968567958083
 40
16.40999321618872
 40
16.40999321618872
 40
16.40999321618872
 40
17.40999321618872
 40
17.40999321618872
 40
18.40999321618872
 40
18.40999321618872
 40
19.40999321618872
 40
19.40999321618872
 40
20.40999321618872
 40
20.40999321618872
 40
21.40999321618872
 40
21.40999321618872
 40
22.40999321618872
 40
22.40999321618872
 40
23.40999321618872
 40
23.40999321618872
 40
24.40999321618872
 40
24.40999321618872
 40
25.40999321618872
 40
25.40999321618872
 40
26.40999321618872
 40
26.40999321618872
 40
26.40999321618872
 40
31.29205540854145
 40
31.29205540854145
 40
31.29205540854145
 40
31.29205540854145
 10
86.89269286524035
 20
5.143066944309503
 30
0.0
 10
86.96625363936585
 20
3.762052175948087
 30
0.0
 10
87.03981066319142
 20
2.381037590463027
 30
0.0
 10
87.11336540843928
 20
1.000023493851675
 30
0.0
 10
87.11515766222728
 20
0.9669435759268209
 30
0.0
 10
87.1183459470227
 20
0.9339991506861466
 30
0.0
 10
87.12751457862839
 20
0.8683812855731574
 30
0.0
 10
87.13342632275165
 20
0.8358136740073049
 30
0.0
 10
87.14790466763895
 20
0.7711610928568836
 30
0.0
 10
87.15647462994009
 20
0.739190458541529
 30
0.0
 10
87.17627613425744
 20
0.6759605024305314
 30
0.0
 10
87.18758578223363
 20
0.644854929222426
 30
0.0
 10
87.21302286982097
 20
0.5836625925010024
 30
0.0
 10
87.22730542373874
 20
0.5538088392273295
 30
0.0
 10
87.25899855182247
 20
0.4955861628540619
 30
0.0
 10
87.27663695368217
 20
0.4675912000435733
 30
0.0
 10
87.31549743303727
 20
0.4138340251748864
 30
0.0
 10
87.33701064242105
 20
0.3887115980468052
 30
0.0
 10
87.38420300060106
 20
0.3419790644031672
 30
0.0
 10
87.41007949936954
 20
0.3214211970691741
 30
0.0
 10
87.46639313626349
 20
0.2859222613768397
 30
0.0
 10
87.49648252631278
 20
0.2723966829317397
 30
0.0
 10
87.56052644961596
 20
0.2537933048436746
 30
0.0
 10
87.59320083750742
 20
0.2494366746568981
 30
0.0
 10
87.62652765163875
 20
0.2500251033273777
 30
0.0
 10
88.103296830507
 20
0.2500260990013127
 30
0.0
 10
88.58006600937524
 20
0.2500270946752477
 30
0.0
 10
89.0568351882435
 20
0.2500280903491827
 30
0.0
 10
89.08996741598702
 20
0.2500032107535044
 30
0.0
 10
89.12233069705417
 20
0.2549255667005156
 30
0.0
 10
89.18551936583572
 20
0.2746647496799171
 30
0.0
 10
89.21515109396483
 20
0.288626250340516
 30
0.0
 10
89.27048933769976
 20
0.3247330700035102
 30
0.0
 10
89.2959128020944
 20
0.3454794577069437
 30
0.0
 10
89.34226841593811
 20
0.3923581888576835
 30
0.0
 10
89.36341543746948
 20
0.4174812715271425
 30
0.0
 10
89.40164790975136
 20
0.4710948710542393
 30
0.0
 10
89.41901577843316
 20
0.4989789419659611
 30
0.0
 10
89.45025478087844
 20
0.5569016260857516
 30
0.0
 10
89.46434843269942
 20
0.5865820144948725
 30
0.0
 10
89.48948403753809
 20
0.6473808840115652
 30
0.0
 10
89.50066985111373
 20
0.6782780654431297
 30
0.0
 10
89.52027750057766
 20
0.7410679216526953
 30
0.0
 10
89.52876941111863
 20
0.7728127882924504
 30
0.0
 10
89.54312940381855
 20
0.8370023986419052
 30
0.0
 10
89.54899760366055
 20
0.8693357803501333
 30
0.0
 10
89.55811041032865
 20
0.9344796968335906
 30
0.0
 10
89.56127366231728
 20
0.9671868679965252
 30
0.0
 10
89.56304376296049
 20
1.000029252080665
 30
0.0
 10
89.64946676856493
 20
2.625029450417755
 30
0.0
 10
89.73588977416938
 20
4.250029648754844
 30
0.0
 10
89.82231277977382
 20
5.875029847091934
 30
0.0
  0
SPLINE
  5
70
330
1F
100
AcDbEntity
  8
Layer 01
370
    -3
100
AcDbSpline
210
0.0
220
0.0
230
1.0
 70
    12
 71
     3
 72
    25
 73
    21
 74
     0
 42
0.000000001
 43
0.0000000001
 40
-104.0947295148012
 40
-104.0947295148012
 40
-104.0947295148012
 40
-104.0947295148012
 40
-101.5194188450512
 40
-101.5194188450512
 40
-101.5194188450512
 40
-101.4993691391456
 40
-101.4993691391456
 40
-101.3211485032711
 40
-101.3211485032711
 40
-101.3211485032711
 40
-101.1197092144125
 40
-101.1197092144125
 40
-101.1197092144125
 40
-98.11970920822208
 40
-98.11970920822208
 40
-98.11970920822208
 40
-97.91826992034534
 40
-97.91826992034534
 40
-97.91826992034534
 40
-97.71678987134501
 40
-97.71678987134501
 40
-97.71678987134501
 40
-97.71678987134501
 10
89.41500963604489
 20
5.874533677946991
 30
0.0
 41
1.0
 10
89.94559684932993
 20
5.874533678042496
 30
0.0
 41
1.0
 10
90.47618406261496
 20
5.874533678138
 30
0.0
 41
1.0
 10
91.00677127590001
 20
5.874533678233505
 30
0.0
 41
1.0
 10
91.01022007805932
 20
5.874533678234126
 30
0.0
 41
1.0
 10
91.09522625734326
 20
5.890672391899614
 30
0.0
 41
1.0
 10
91.1305531705118
 20
5.904657437092133
 30
0.0
 41
1.0
 10
91.1593995150119
 20
5.923602440273916
 30
0.0
 41
1.0
 10
91.18355502047521
 20
5.947756982738813
 30
0.0
 41
1.0
 10
91.23107327609496
 20
5.995261386673888
 30
0.0
 41
0.9491702688805416
 10
91.25677514380236
 20
6.05734251912748
 30
0.0
 41
0.9491702688805416
 10
91.2567413665229
 20
6.124533678288967
 30
0.0
 41
1.0
 10
91.25674136652287
 20
7.124533680496054
 30
0.0
 41
1.0
 10
91.25674136652286
 20
8.124533682703142
 30
0.0
 41
1.0
 10
91.25674136652282
 20
9.12453368491023
 30
0.0
 41
1.0
 10
91.25676651351566
 20
9.18983465308111
 30
0.0
 41
0.9023689264820235
 10
91.23237250301378
 20
9.252494842813737
 30
0.0
 41
0.8535533897230352
 10
91.1835550204752
 20
9.301310379164175
 30
0.0
 41
0.8535533897230352
 10
91.13473753769865
 20
9.35012591575254
 30
0.0
 41
0.8535533897230353
 10
91.0720748491903
 20
9.374533684046717
 30
0.0
 41
0.9023689269578823
 10
91.00677127681429
 20
9.374533684046716
 30
0.0
 41
1.000000001427576
  0
SPLINE
  5
71
330
1F
100
AcDbEntity
  8
Layer 01
370
    -3
100
AcDbSpline
210
0.0
220
0.0
230
1.0
 70
     8
 71
     3
 72
    45
 73
    41
 74
     0
 42
0.000000001
 43
0.0000000001
 40
24.30469221360111
 40
24.30469221360111
 40
24.30469221360111
 40
24.30469221360111
 40
27.99428659857304
 40
27.99428659857304
 40
27.99428659857304
 40
28.28806434500129
 40
28.28806434500129
 40
28.28806434500129
 40
29.28804393498483
 40
29.28804393498483
 40
30.28804801698812
 40
30.28804801698812
 40
31.28805209899141
 40
31.28805209899141
 40
32.28805618099471
 40
32.28805618099471
 40
33.288060262998
 40
33.288060262998
 40
34.28806434500129
 40
34.28806434500129
 40
34.28806434500129
 40
35.28806434500129
 40
35.28806434500129
 40
35.28806434500129
 40
35.59323690442555
 40
35.59323690442555
 40
35.59323690442555
 40
36.59323690442555
 40
36.59323690442555
 40
36.59323690442555
 40
37.59323690442555
 40
37.59323690442555
 40
37.59323690442555
 40
38.59323690442555
 40
38.59323690442555
 40
38.59323690442555
 40
39.59323690442555
 40
39.59323690442555
 40
39.59323690442555
 40
40.55398258282183
 40
40.55398258282183
 40
40.55398258282183
 40
40.55398258282183
 10
89.51166816933551
 20
9.374541023218892
 30
0.0
 10
90.30516718042468
 20
9.37453872773823
 30
0.0
 10
91.09866619151383
 20
9.37453643225757
 30
0.0
 10
91.892165202603
 20
9.374534136776907
 30
0.0
 10
91.97669173077657
 20
9.37453393525427
 30
0.0
 10
92.06560362241828
 20
9.425935612564395
 30
0.0
 10
92.10793876521006
 20
9.501231272317408
 30
0.0
 10
92.27734709385872
 20
9.808519909815855
 30
0.0
 10
92.42120189465254
 20
10.12732055705995
 30
0.0
 10
92.65780733802683
 20
10.78795396122867
 30
0.0
 10
92.74764774255699
 20
11.12591380173707
 30
0.0
 10
92.87040101980709
 20
11.81711166941269
 30
0.0
 10
92.90259726221787
 20
12.16536432572389
 30
0.0
 10
92.90862895461093
 20
12.86717708329306
 30
0.0
 10
92.88318124176436
 20
13.21603355102953
 30
0.0
 10
92.77535869798504
 20
13.90964666440627
 30
0.0
 10
92.69305663825905
 20
14.24949725931612
 30
0.0
 10
92.47167094313443
 20
14.91528652557879
 30
0.0
 10
92.33664849236442
 20
15.23801801807624
 30
0.0
 10
92.17729643838669
 20
15.5505863699398
 30
0.0
 10
92.09740058390321
 20
15.70998606969149
 30
0.0
 10
91.93433780479762
 20
15.8262697957647
 30
0.0
 10
91.75781538448075
 20
15.84698322378849
 30
0.0
 10
91.71774845500867
 20
15.8516847424866
 30
0.0
 10
91.67768152553658
 20
15.8563862611847
 30
0.0
 10
91.63761459606451
 20
15.86108777988281
 30
0.0
 10
91.50621425330604
 20
15.87582279378428
 30
0.0
 10
91.37481391054757
 20
15.89055780768575
 30
0.0
 10
91.2434135677891
 20
15.90529282158723
 30
0.0
 10
91.1119088798482
 20
15.91935580724106
 30
0.0
 10
90.98040419190728
 20
15.9334187928949
 30
0.0
 10
90.84889950396638
 20
15.94748177854873
 30
0.0
 10
90.71729366854669
 20
15.9608717911433
 30
0.0
 10
90.585687833127
 20
15.97426180373787
 30
0.0
 10
90.4540819977073
 20
15.98765181633244
 30
0.0
 10
90.32237821774349
 20
16.00036791172425
 30
0.0
 10
90.19067443777966
 20
16.01308400711607
 30
0.0
 10
90.05897065781585
 20
16.02580010250788
 30
0.0
 10
89.93234579860943
 20
16.03736866619068
 30
0.0
 10
89.805720939403
 20
16.04893722987348
 30
0.0
 10
89.67909608019659
 20
16.06050579355628
 30
0.0
  0
SPLINE
  5
72
330
1F
100
AcDbEntity
  8
Layer 01
370
    -3
100
AcDbSpline
210
0.0
220
0.0
230
1.0
 70
    12
 71
     3
 72
    31
 73
    27
 74
     0
 42
0.000000001
 43
0.0000000001
 40
-22.28138249084253
 40
-22.28138249084253
 40
-22.28138249084253
 40
-22.28138249084253
 40
-17.10368378752216
 40
-17.10368378752216
 40
-17.10368378752216
 40
-16.4511050649079
 40
-15.81971079962852
 40
-15.81971079962852
 40
-15.81971079962852
 40
-15.1176246593671
 40
-8.437856344485484
 40
-1.75809525433657
 40
-0.8216268938119063
 40
-0.8216268938119063
 40
-0.8216268938119063
 40
-0.1902326285329762
 40
0.0
 40
0.0
 40
0.0
 40
0.8455505338414187
 40
0.8455505338414187
 40
0.8455505338414187
 40
1.324069646968883
 40
1.324069646968883
 40
1.324069646968883
 40
4.504743445840453
 40
4.504743445840453
 40
4.504743445840453
 40
4.504743445840453
 10
84.58942294434671
 20
22.92232258455895
 30
0.0
 41
1.0
 10
84.36887924529309
 20
24.52043505562949
 30
0.0
 41
0.9999999999999998
 10
84.14789035826317
 20
26.11739982103087
 30
0.0
 41
0.9999999999999988
 10
83.92611878466681
 20
27.7122891899413
 30
0.0
 41
1.0
 10
83.893658164499
 20
27.95889732941395
 30
0.0
 41
1.0
 10
83.60815090938816
 20
28.4258507731707
 30
0.0
 41
0.9999999999999993
 10
83.06961626694434
 20
28.59083484546507
 30
0.0
 41
0.9999999999999999
 10
82.81693791970332
 20
28.57301014970437
 30
0.0
 41
1.0
 10
82.58749247329146
 20
28.55814168479102
 30
0.0
 41
1.0
 10
80.17488939032422
 20
28.40137379630397
 30
0.0
 41
0.9999999999999996
 10
75.57659623260498
 20
28.09660978073638
 30
0.0
 41
1.000000000000001
 10
70.8997642429647
 20
27.78193013072665
 30
0.0
 41
1.000000000000001
 10
68.40697481735754
 20
27.61100046028531
 30
0.0
 41
0.9999999999999998
 10
68.10044054543486
 20
27.58990910510627
 30
0.0
 41
0.9999999999999999
 10
67.84694884245279
 20
27.57392029151703
 30
0.0
 41
1.0
 10
67.53757866907985
 20
27.42465751135986
 30
0.0
 41
1.0
 10
67.363594127463
 20
27.16770854246788
 30
0.0
 41
1.0
 10
67.33127140031644
 20
27.10427161860351
 30
0.0
 41
1.000000000000001
 10
67.22745242417801
 20
26.8422389049924
 30
0.0
 41
1.000000000000001
 10
67.12363344803958
 20
26.58020619138129
 30
0.0
 41
1.000000000000001
 10
67.01981447190116
 20
26.31817347777018
 30
0.0
 41
1.000000000000001
 10
66.9656030185921
 20
26.17925965494954
 30
0.0
 41
1.000000000000001
 10
66.94630771315695
 20
26.02651916964533
 30
0.0
 41
1.000000000000001
 10
66.9680078783299
 20
25.87586977980513
 30
0.0
 41
1.000000000000001
 10
67.10805615912979
 20
24.89009490150791
 30
0.0
 41
1.0
 10
67.24720669104079
 20
23.9056154935423
 30
0.0
 41
1.0
 10
67.38504505977744
 20
22.92215805607874
 30
0.0
 41
1.0
  0
SPLINE
  5
73
330
1F
100
AcDbEntity
  8
Layer 01
370
    -3
100
AcDbSpline
210
0.0
220
0.0
230
1.0
 70
     8
 71
     3
 72
    51
 73
    47
 74
     0
 42
0.000000001
 43
0.0000000001
 40
0.0
 40
0.0
 40
0.0
 40
0.0
 40
1.0
 40
1.0
 40
2.0
 40
2.0
 40
3.0
 40
3.0
 40
4.0
 40
4.0
 40
5.0
 40
5.0
 40
6.0
 40
6.0
 40
6.0
 40
6.35770237457375
 40
6.35770237457375
 40
6.524190410408746
 40
6.524190410408746
 40
6.74274234009378
 40
6.74274234009378
 40
6.74274234009378
 40
9.43061676546413
 40
9.43061676546413
 40
9.43061676546413
 40
9.649171797305355
 40
9.649171797305355
 40
9.815659835412264
 40
9.815659835412264
 40
10.05763360698006
 40
10.05763360698006
 40
10.05763360698006
 40
10.1469903536723
 40
10.1469903536723
 40
10.1469903536723
 40
11.1469903536723
 40
11.1469903536723
 40
12.1469903536723
 40
12.1469903536723
 40
13.1469903536723
 40
13.1469903536723
 40
14.1469903536723
 40
14.1469903536723
 40
15.1469903536723
 40
15.1469903536723
 40
16.1469903536723
 40
16.1469903536723
 40
16.1469903536723
 40
16.1469903536723
 10
67.14994644878959
 20
26.65313493156903
 30
0.0
 10
67.03463426000265
 20
26.8665898335069
 30
0.0
 10
66.91095324471395
 20
27.07508063642797
 30
0.0
 10
66.64685356113306
 20
27.48213404423649
 30
0.0
 10
66.50809331340886
 20
27.68095531213534
 30
0.0
 10
66.21715200609302
 20
28.0691869759222
 30
0.0
 10
66.06564765797329
 20
28.25847139689023
 30
0.0
 10
65.75057157281024
 20
28.62737741697552
 30
0.0
 10
65.58763224049191
 20
28.80691634367389
 30
0.0
 10
65.25095099638163
 20
29.15616603038209
 30
0.0
 10
65.0780210168293
 20
29.32611646714384
 30
0.0
 10
64.7229823427302
 20
29.65666852748263
 30
0.0
 10
64.54278887640996
 20
29.81893862516367
 30
0.0
 10
64.35992128081901
 20
29.97820279035633
 30
0.0
 10
64.28736578949503
 20
30.04050863894481
 30
0.0
 10
64.18031645267723
 20
30.08874064971576
 30
0.0
 10
64.04221796855416
 20
30.10777125574923
 30
0.0
 10
63.99586524287838
 20
30.10796388690619
 30
0.0
 10
63.90170516523671
 20
30.09747720424255
 30
0.0
 10
63.87195905841548
 20
30.08734768564225
 30
0.0
 10
63.87193883323744
 20
30.08734121274212
 30
0.0
 10
63.00869045398622
 20
29.84745951781701
 30
0.0
 10
62.145442074735
 20
29.6075778228919
 30
0.0
 10
61.28219369548378
 20
29.36769612796679
 30
0.0
 10
61.28217389886225
 20
29.36769142678045
 30
0.0
 10
61.2514661390511
 20
29.36102204732289
 30
0.0
 10
61.16539445093832
 20
29.32142533405859
 30
0.0
 10
61.12578655344112
 20
29.29734574239027
 30
0.0
 10
61.04125526766126
 20
29.22912400952757
 30
0.0
 10
60.99447750226904
 20
29.17186803925249
 30
0.0
 10
60.95487800841863
 20
29.10089277053795
 30
0.0
 10
60.93791999813237
 20
29.06812183005913
 30
0.0
 10
60.92817702483558
 20
29.04506402678771
 30
0.0
 10
60.92047911061206
 20
29.02244169418383
 30
0.0
 10
60.84610945881354
 20
28.79202325215411
 30
0.0
 10
60.77557266695046
 20
28.56041219223963
 30
0.0
 10
60.64216480309515
 20
28.09480483664117
 30
0.0
 10
60.58177469763561
 20
27.8603715111194
 30
0.0
 10
60.47362213965275
 20
27.38824556463079
 30
0.0
 10
60.42668719686452
 20
27.15076196247179
 30
0.0
 10
60.34709998369448
 20
26.67295350032438
 30
0.0
 10
60.31493917061704
 20
26.43302443051985
 30
0.0
 10
60.26588313147732
 20
25.95111661344913
 30
0.0
 10
60.24950906804253
 20
25.70959253945584
 30
0.0
 10
60.23306885344306
 20
25.22540406055344
 30
0.0
 10
60.2344918716636
 20
24.98336659575981
 30
0.0
 10
60.24555801540441
 20
24.74138590562376
 30
0.0
  0
SPLINE
  5
74
330
1F
100
AcDbEntity
  8
Layer 01
370
    -3
100
AcDbSpline
210
0.0
220
0.0
230
1.0
 70
     8
 71
     3
 72
    52
 73
    48
 74
     0
 42
0.000000001
 43
0.0000000001
 40
0.0075705054645208
 40
0.0075705054645208
 40
0.0075705054645208
 40
0.0075705054645208
 40
1.0
 40
1.0
 40
2.0
 40
2.0
 40
3.0
 40
3.0
 40
3.0
 40
3.692613100214435
 40
3.692613100214435
 40
3.692613100214435
 40
4.17131580880293
 40
4.17131580880293
 40
4.17131580880293
 40
4.366142543643644
 40
4.366142543643644
 40
4.366142543643644
 40
6.273636549091722
 40
6.273636549091722
 40
6.273636549091722
 40
6.461047518253512
 40
6.461047518253512
 40
6.461047518253512
 40
7.461047518253512
 40
7.461047518253512
 40
8.461047518253512
 40
8.461047518253512
 40
8.461047518253512
 40
9.461047518253512
 40
9.461047518253512
 40
9.461047518253512
 40
10.46104751825351
 40
10.46104751825351
 40
11.46104751825351
 40
11.46104751825351
 40
11.46104751825351
 40
12.46104751825352
 40
12.46104751825352
 40
13.46104751825352
 40
13.46104751825352
 40
14.46104751825352
 40
14.46104751825352
 40
14.46104751825352
 40
15.46104751825352
 40
15.46104751825352
 40
16.46104751825352
 40
16.46104751825352
 40
16.46104751825352
 40
16.46104751825352
 10
-34.73448093884107
 20
15.80835102659927
 30
0.0
 10
-35.24055149911459
 20
17.02449690065434
 30
0.0
 10
-35.73048492944219
 20
18.24741371762734
 30
0.0
 10
-36.68169176930352
 20
20.71616960947304
 30
0.0
 10
-37.15663891293837
 20
21.95609257901716
 30
0.0
 10
-38.10160640851848
 20
24.43764819328403
 30
0.0
 10
-38.56873366565668
 20
25.68078456444916
 30
0.0
 10
-39.03050443214301
 20
26.92627949964596
 30
0.0
 10
-39.11041802375185
 20
27.1405588197488
 30
0.0
 10
-39.17119182682807
 20
27.33527616434864
 30
0.0
 10
-39.20013733029659
 20
27.48244965601616
 30
0.0
 10
-39.21600927857101
 20
27.5631506204908
 30
0.0
 10
-39.23216501533215
 20
27.67513955247714
 30
0.0
 10
-39.19519483979027
 20
27.75752855384712
 30
0.0
 10
-39.17562563599909
 20
27.801139035386
 30
0.0
 10
-39.14020989705631
 20
27.84247259668632
 30
0.0
 10
-39.08575004701938
 20
27.86438662169476
 30
0.0
 10
-38.50276807061283
 20
28.10081831505235
 30
0.0
 10
-37.91978609420627
 20
28.33725000840994
 30
0.0
 10
-37.33680411779972
 20
28.57368170176752
 30
0.0
 10
-37.28561407398765
 20
28.59462959838597
 30
0.0
 10
-37.23335257631294
 20
28.59190551012462
 30
0.0
 10
-37.18863297600956
 20
28.57585705206574
 30
0.0
 10
-36.72906070714028
 20
28.42329504508497
 30
0.0
 10
-36.2714323200907
 20
28.26509781760393
 30
0.0
 10
-35.36006330963092
 20
27.93743292164125
 30
0.0
 10
-34.90675402130501
 20
27.76727181497807
 30
0.0
 10
-34.45581994988307
 20
27.59078204963307
 30
0.0
 10
-34.25505052243926
 20
27.51220349151641
 30
0.0
 10
-34.147575119756
 20
27.23855348018147
 30
0.0
 10
-34.05448930483562
 20
27.00566537344462
 30
0.0
 10
-33.84425275639929
 20
26.47968199161455
 30
0.0
 10
-33.62527311645387
 20
25.95767949224616
 30
0.0
 10
-33.16982765354483
 20
24.92163625843274
 30
0.0
 10
-32.93171854828278
 20
24.40807100344126
 30
0.0
 10
-32.68322306921319
 20
23.89896211036501
 30
0.0
 10
-32.43472759014361
 20
23.38985321728876
 30
0.0
 10
-32.20460636126543
 20
22.87255660743706
 30
0.0
 10
-31.78111240389191
 20
21.82158795418278
 30
0.0
 10
-31.58454239646982
 20
21.29055633614923
 30
0.0
 10
-31.221756324155
 20
20.21739851726931
 30
0.0
 10
-31.05069910973409
 20
19.67752577904661
 30
0.0
 10
-30.88997771704969
 20
19.13435921204115
 30
0.0
 10
-30.72925632436529
 20
18.5911926450357
 30
0.0
 10
-30.55549802959405
 20
18.05233334474019
 30
0.0
 10
-30.18190763587787
 20
16.98322927756904
 30
0.0
 10
-29.98865236640252
 20
16.45095566546495
 30
0.0
 10
-29.78893702430994
 20
15.92096047484232
 30
0.0
  0
SPLINE
  5
75
330
1F
100
AcDbEntity
  8
Layer 01
370
    -3
100
AcDbSpline
210
0.0
220
0.0
230
1.0
 70
    12
 71
     3
 72
    48
 73
    44
 74
     0
 42
0.000000001
 43
0.0000000001
 40
51.22197565227982
 40
51.22197565227982
 40
51.22197565227982
 40
51.22197565227982
 40
53.35467995410598
 40
53.35467995410598
 40
53.35467995410598
 40
54.2007875592741
 40
54.2007875592741
 40
54.2007875592741
 40
55.03314372917384
 40
55.03314372917384
 40
55.03314372917384
 40
57.03473130808052
 40
57.03473130808052
 40
57.03473130808052
 40
61.77427620042234
 40
61.77427620042234
 40
61.77427620042234
 40
66.52108382960135
 40
66.52108382960135
 40
66.52108382960135
 40
71.00289690192739
 40
71.00289690192739
 40
71.00289690192739
 40
80.23469978001158
 40
80.23469978001158
 40
80.23469978001158
 40
84.98658018411155
 40
84.98658018411155
 40
84.98658018411155
 40
86.9831073230826
 40
86.9831073230826
 40
86.9831073230826
 40
87.81628954921031
 40
87.81628954921031
 40
87.81628954921031
 40
88.64592015674171
 40
88.64592015674171
 40
88.64592015674171
 40
89.49141167105802
 40
90.33267929698584
 40
90.33267929698584
 40
90.33267929698584
 40
104.5709926742846
 40
104.5709926742846
 40
104.5709926742846
 40
104.5709926742846
 10
-34.05448930483562
 20
27.00566537344461
 30
0.0
 41
1.000000000000001
 10
-34.0544893048333
 20
27.6889471759205
 30
0.0
 41
1.000000000000001
 10
-34.05448930482999
 20
28.37168158275582
 30
0.0
 41
1.0
 10
-34.05449570062171
 20
29.05462888230029
 30
0.0
 41
1.000000000000001
 10
-34.05430386856104
 20
29.32818914458624
 30
0.0
 41
1.000000000000001
 10
-33.93943343858148
 20
29.59688790035301
 30
0.0
 41
1.000000000000001
 10
-33.7443945450833
 20
29.7878066330977
 30
0.0
 41
1.000000000000001
 10
-33.55219321770621
 20
29.97594774278374
 30
0.0
 41
1.000000000000001
 10
-33.28509880667601
 20
30.08595006009411
 30
0.0
 41
1.000000000000001
 10
-33.0136923470321
 20
30.0876812779632
 30
0.0
 41
1.000000000000001
 10
-32.35487361575766
 20
30.09315900859594
 30
0.0
 41
1.000000000000001
 10
-31.67180205836589
 20
30.09608143657382
 30
0.0
 41
1.000000000000001
 10
-31.01271301715823
 20
30.09831582043651
 30
0.0
 41
1.000000000000001
 10
-29.43249308287755
 20
30.10367293867077
 30
0.0
 41
1.000000000000001
 10
-27.85253859547372
 20
30.10553859226177
 30
0.0
 41
1.000000000000001
 10
-26.2734202509427
 20
30.10626898643859
 30
0.0
 41
1.000000000000001
 10
-24.69149737772295
 20
30.10700067780218
 30
0.0
 41
1.000000000000001
 10
-23.10921067329837
 20
30.10663457709303
 30
0.0
 41
1.000000000000001
 10
-21.52662214179005
 20
30.10613176540367
 30
0.0
 41
1.000000000000001
 10
-20.03200791768599
 20
30.10565690444771
 30
0.0
 41
1.000000000000001
 10
-18.53807204354222
 20
30.10507617945814
 30
0.0
 41
1.000000000000001
 10
-17.04481502728228
 20
30.1050842552685
 30
0.0
 41
1.000000000000001
 10
-13.98256945039866
 20
30.10510088167312
 30
0.0
 41
1.000000000000001
 10
-10.90530603713229
 20
30.10765691942123
 30
0.0
 41
1.000000000000001
 10
-7.825115261553083
 20
30.10624340946094
 30
0.0
 41
1.000000000000001
 10
-6.242241421931983
 20
30.10551702330462
 30
0.0
 41
1.000000000000001
 10
-4.658207729517802
 20
30.10373069929094
 30
0.0
 41
1.000000000000001
 10
-3.073486831974027
 20
30.09832915070799
 30
0.0
 41
1.000000000000001
 10
-2.412985778520255
 20
30.09607782144563
 30
0.0
 41
1.000000000000001
 10
-1.73778736670555
 20
30.09315046039377
 30
0.0
 41
1.000000000000001
 10
-1.077568998735526
 20
30.08767955380357
 30
0.0
 41
1.000000000000001
 10
-0.8058652146435925
 20
30.08595366928459
 30
0.0
 41
1.000000000000001
 10
-0.5385360399449901
 20
29.9761168433003
 30
0.0
 41
1.000000000000001
 10
-0.346124534827954
 20
29.78773093322928
 30
0.0
 41
1.000000000000001
 10
-0.1548972039338032
 20
29.60050442232477
 30
0.0
 41
1.000000000000001
 10
-0.0407655832071789
 20
29.33852965911455
 30
0.0
 41
1.000000000000001
 10
-0.0361706063086338
 20
29.06245517689214
 30
0.0
 41
1.000000000000001
 10
-0.0361070120162204
 20
28.78228678040645
 30
0.0
 41
1.000000000000001
 10
-0.0361070120225158
 20
28.24466896350177
 30
0.0
 41
1.000000000000001
 10
-0.0361070120242495
 20
27.70422160835663
 30
0.0
 41
1.000000000000001
 10
-0.03610701202469
 20
27.43442060163984
 30
0.0
 41
1.000000000000001
 10
-0.0361070120321458
 20
22.86808384416928
 30
0.0
 41
1.000000000000001
 10
-0.0361070120396021
 20
18.30174708669872
 30
0.0
 41
1.000000000000001
 10
-0.0361070120470579
 20
13.73541032922816
 30
0.0
 41
1.000000000000001
  0
SPLINE
  5
76
330
1F
100
AcDbEntity
  8
Layer 01
370
    -3
100
AcDbSpline
210
0.0
220
0.0
230
1.0
 70
    12
 71
     3
 72
    46
 73
    42
 74
     0
 42
0.000000001
 43
0.0000000001
 40
0.0
 40
0.0
 40
0.0
 40
0.0
 40
1.0
 40
1.0
 40
2.0
 40
2.0
 40
3.0
 40
3.0
 40
4.0
 40
4.0
 40
5.0
 40
5.0
 40
6.0
 40
6.0
 40
7.0
 40
7.0
 40
8.0
 40
8.0
 40
9.0
 40
9.0
 40
10.0
 40
10.0
 40
11.0
 40
11.0
 40
12.0
 40
12.0
 40
13.0
 40
13.0
 40
14.0
 40
14.0
 40
15.0
 40
15.0
 40
16.0
 40
16.0
 40
17.0
 40
17.0
 40
18.0
 40
18.0
 40
18.0
 40
18.93646840338393
 40
21.70678854870023
 40
21.70678854870023
 40
21.70678854870023
 40
21.70678854870023
 10
-37.33688202810555
 20
28.5737438689808
 30
0.0
 41
1.0
 10
-37.34448464501617
 20
28.33096887926255
 30
0.0
 41
1.0
 10
-37.30027417627327
 20
28.09254378440592
 30
0.0
 41
1.0
 10
-37.10822706748046
 20
27.62439338441588
 30
0.0
 41
1.0
 10
-37.01555806133048
 20
27.39150788144321
 30
0.0
 41
1.0
 10
-36.83692914552337
 20
26.92811626954257
 30
0.0
 41
1.0
 10
-36.74715451778584
 20
26.69617150198991
 30
0.0
 41
1.0
 10
-36.56668492264289
 20
26.23178404367992
 30
0.0
 41
1.0
 10
-36.47663660510666
 20
25.99959134110452
 30
0.0
 41
1.0
 10
-36.29691293010466
 20
25.53520798911291
 30
0.0
 41
1.0
 10
-36.20711876614377
 20
25.3029775825106
 30
0.0
 41
1.0
 10
-36.02766578530221
 20
24.83843930809296
 30
0.0
 41
1.0
 10
-35.93801949283802
 20
24.60614137608036
 30
0.0
 41
1.0
 10
-35.75888730382277
 20
24.1414879224476
 30
0.0
 41
1.0
 10
-35.66939136768436
 20
23.90913380425194
 30
0.0
 41
1.0
 10
-35.49053981214594
 20
23.4443707851021
 30
0.0
 41
1.0
 10
-35.40117817411726
 20
23.21196467773015
 30
0.0
 41
1.0
 10
-35.22258317754095
 20
22.74710326739223
 30
0.0
 41
1.0
 10
-35.13334220935185
 20
22.51465084775859
 30
0.0
 41
1.0
 10
-34.95497333317176
 20
22.04970257956196
 30
0.0
 41
1.0
 10
-34.86584622354486
 20
21.81720647622022
 30
0.0
 41
1.0
 10
-34.68770666121739
 20
21.35217033104989
 30
0.0
 41
1.0
 10
-34.59870200110338
 20
21.11962729951172
 30
0.0
 41
1.0
 10
-34.42082292297483
 20
20.65449131852934
 30
0.0
 41
1.0
 10
-34.33195627282799
 20
20.42189567059408
 30
0.0
 41
1.0
 10
-34.15436875036916
 20
19.95664905983541
 30
0.0
 41
1.0
 10
-34.06565063318409
 20
19.72399579444351
 30
0.0
 41
1.0
 10
-33.88836568690262
 20
19.25862934363462
 30
0.0
 41
1.0
 10
-33.7998317502658
 20
19.0259112961424
 30
0.0
 41
1.0
 10
-33.62298094999998
 20
18.56040555698237
 30
0.0
 41
1.0
 10
-33.53452120755387
 20
18.32762808349519
 30
0.0
 41
1.0
 10
-33.35753303803525
 20
17.86202392870649
 30
0.0
 41
1.0
 10
-33.26988626547566
 20
17.62911967298133
 30
0.0
 41
1.0
 10
-33.09628734475589
 20
17.1631068048694
 30
0.0
 41
1.0
 10
-33.00523184456095
 20
16.93043763921075
 30
0.0
 41
1.0
 10
-32.81460876450094
 20
16.46577384468807
 30
0.0
 41
1.0
 10
-32.68424101602336
 20
16.25717548281693
 30
0.0
 41
1.0
 10
-32.51881705909819
 20
16.07231065633599
 30
0.0
 41
1.0
 10
-32.46049342833638
 20
16.0524802328618
 30
0.0
 41
1.0
 10
-32.23035872789257
 20
15.97369161914735
 30
0.0
 41
0.9999999999999998
 10
-32.00214107262121
 20
15.8941225678585
 30
0.0
 41
0.9999999999999999
 10
-31.83240487104743
 20
15.83431980724957
 30
0.0
 41
1.0
  0
SPLINE
  5
77
330
1F
100
AcDbEntity
  8
Layer 01
370
    -3
100
AcDbSpline
210
0.0
220
0.0
230
1.0
 70
    15
 71
     3
 72
   104
 73
   100
 74
     0
 42
0.000000001
 43
0.0000000001
 40
3.571487916190767
 40
3.571487916190767
 40
3.571487916190767
 40
3.571487916190767
 40
4.571487916190766
 40
4.571487916190766
 40
4.571487916190766
 40
5.571487916190765
 40
5.571487916190765
 40
6.571487916190765
 40
6.571487916190765
 40
7.571487916190764
 40
7.571487916190764
 40
8.571487916190764
 40
8.571487916190764
 40
9.571487916190764
 40
9.571487916190764
 40
10.57148791619076
 40
10.57148791619076
 40
11.57148791619076
 40
11.57148791619076
 40
11.57148791619076
 40
12.57148791619076
 40
12.57148791619076
 40
13.57148791619076
 40
13.57148791619076
 40
14.57148791619076
 40
14.57148791619076
 40
15.57148791619076
 40
15.57148791619076
 40
16.57148791619076
 40
16.57148791619076
 40
17.57148791619076
 40
17.57148791619076
 40
18.57148791619076
 40
18.57148791619076
 40
19.57148791619076
 40
19.57148791619076
 40
20.57148791619076
 40
20.57148791619076
 40
21.57148791619076
 40
21.57148791619076
 40
21.57148791619076
 40
22.57148791619076
 40
22.57148791619076
 40
23.57148791619076
 40
23.57148791619076
 40
23.57148791619076
 40
52.76000782172329
 40
52.76000782172329
 40
52.76000782172329
 40
53.76000782172329
 40
53.76000782172329
 40
54.76000782172329
 40
54.76000782172329
 40
55.76000782172329
 40
55.76000782172329
 40
55.76000782172329
 40
56.76000782172329
 40
56.76000782172329
 40
57.76000782172329
 40
57.76000782172329
 40
58.76000782172329
 40
58.76000782172329
 40
59.76000782172329
 40
59.76000782172329
 40
60.76000782172329
 40
60.76000782172329
 40
61.76000782172329
 40
61.76000782172329
 40
62.76000782172329
 40
62.76000782172329
 40
63.76000782172329
 40
63.76000782172329
 40
64.76000782172329
 40
64.76000782172329
 40
64.76000782172329
 40
65.76000597176514
 40
65.76000597176514
 40
66.7600062800915
 40
66.7600062800915
 40
67.76000658841785
 40
67.76000658841785
 40
68.76000689674422
 40
68.76000689674422
 40
69.76000720507058
 40
69.76000720507058
 40
70.76000751339693
 40
70.76000751339693
 40
71.76000782172329
 40
71.76000782172329
 40
71.76000782172329
 40
72.76000782172329
 40
72.76000782172329
 40
72.76000782172329
 40
73.15600388754335
 40
73.55252923204434
 40
73.95021662479682
 40
74.34820316464528
 40
75.20213981682464
 40
75.33149573791405
 40
75.33149573791405
 40
75.33149573791405
 40
75.33149573791405
 10
-0.4399819881693467
 20
9.374480155123859
 30
0.0
 41
1.0
 10
-0.3306322388782856
 20
9.37442440041225
 30
0.0
 41
1.0
 10
-0.2630434494446217
 20
9.43656367726445
 30
0.0
 41
1.0
 10
-0.2439532539065006
 20
9.545861878053753
 30
0.0
 41
1.0
 10
-0.1961932793195587
 20
9.819304823238454
 30
0.0
 41
1.0
 10
-0.155465139997748
 20
10.09379127228075
 30
0.0
 41
1.0
 10
-0.0880725318843876
 20
10.64485117808053
 30
0.0
 41
1.0
 10
-0.061291382431655
 20
10.92104835066599
 30
0.0
 41
1.0
 10
-0.0215593927340842
 20
11.47477713520804
 30
0.0
 41
1.0
 10
-0.0081743972700243
 20
11.75195201787061
 30
0.0
 41
1.0
 10
0.0056335948886441
 20
12.30692276397888
 30
0.0
 41
1.0
 10
0.0062509520296627
 20
12.58442248558187
 30
0.0
 41
1.0
 10
-0.0050876115649312
 20
13.13945062588555
 30
0.0
 41
1.0
 10
-0.0173003122509736
 20
13.41667553224567
 30
0.0
 41
1.0
 10
-0.0548125514005484
 20
13.97054701738247
 30
0.0
 41
1.0
 10
-0.0796599905669222
 20
14.2469343282129
 30
0.0
 41
1.0
 10
-0.1415375080828412
 20
14.79861208639783
 30
0.0
 41
1.0
 10
-0.185169750820239
 20
15.09827354602984
 30
0.0
 41
1.0
 10
-0.2414954775370752
 20
15.42175758620139
 30
0.0
 41
1.0
 10
-0.2769087246070425
 20
15.52597775706869
 30
0.0
 41
1.0
 10
-0.3413156085169637
 20
15.60401354477371
 30
0.0
 41
1.0
 10
-0.5281166500167167
 20
15.70771635385917
 30
0.0
 41
1.0
 10
-0.6270528556313506
 20
15.7394369878181
 30
0.0
 41
1.0
 10
-0.8359966365901315
 20
15.76261671456837
 30
0.0
 41
1.0
 10
-0.9403029470842954
 20
15.77151977485321
 30
0.0
 41
1.0
 10
-1.148584408102168
 20
15.78395228924231
 30
0.0
 41
1.0
 10
-1.252847643962485
 20
15.78885053513418
 30
0.0
 41
1.0
 10
-1.461619126385881
 20
15.79601100431259
 30
0.0
 41
1.0
 10
-1.566012553058314
 20
15.79886884417059
 30
0.0
 41
1.0
 10
-1.774814777324651
 20
15.80313973442419
 30
0.0
 41
1.0
 10
-1.879225468532463
 20
15.80476512664152
 30
0.0
 41
1.0
 10
-2.088066009097373
 20
15.80699580525728
 30
0.0
 41
1.0
 10
-2.192487887392234
 20
15.80784617400067
 30
0.0
 41
1.0
 10
-2.401334860006768
 20
15.80901697035845
 30
0.0
 41
1.0
 10
-2.505758638670683
 20
15.80954567503898
 30
0.0
 41
1.0
 10
-2.714606780711806
 20
15.81048969740331
 30
0.0
 41
1.0
 10
-2.819030967376838
 20
15.81093749917502
 30
0.0
 41
1.0
 10
-3.027879571995845
 20
15.81178468389757
 30
0.0
 41
1.0
 10
-3.132303913852288
 20
15.81219563700718
 30
0.0
 41
1.0
 10
-3.236728295255673
 20
15.81259395086514
 30
0.0
 41
1.0
 10
-3.341152676659057
 20
15.81299226472309
 30
0.0
 41
1.0
 10
-3.445577055180992
 20
15.81339175439782
 30
0.0
 41
1.0
 10
-3.654425806461965
 20
15.81419308538083
 30
0.0
 41
1.0
 10
-3.758850129274776
 20
15.81460709719734
 30
0.0
 41
1.0
 10
-3.863274399259911
 20
15.81503445533887
 30
0.0
 41
1.0
 10
-13.59278103379899
 20
15.81492299603664
 30
0.0
 41
1.0
 10
-23.3102293386971
 20
15.8148115367344
 30
0.0
 41
1.0
 10
-33.03973597323618
 20
15.81470007743216
 30
0.0
 41
1.0
 10
-33.14973549653443
 20
15.81419698634104
 30
0.0
 41
1.0
 10
-33.25973518733863
 20
15.81373446207186
 30
0.0
 41
1.0
 10
-33.47973490395894
 20
15.81289054717738
 30
0.0
 41
1.0
 10
-33.5897348423703
 20
15.81249077715766
 30
0.0
 41
1.0
 10
-33.80973487939539
 20
15.81173561197326
 30
0.0
 41
1.0
 10
-33.91973490713438
 20
15.8113619982641
 30
0.0
 41
1.0
 10
-34.02973494409981
 20
15.81099235343799
 30
0.0
 41
1.0
 10
-34.13973498106523
 20
15.81062270861188
 30
0.0
 41
1.0
 10
-34.24973498724287
 20
15.81023784274884
 30
0.0
 41
1.0
 10
-34.46973493802254
 20
15.80943766894891
 30
0.0
 41
1.0
 10
-34.57973467679021
 20
15.80900877587722
 30
0.0
 41
1.0
 10
-34.79973368108116
 20
15.80809337739039
 30
0.0
 41
1.0
 10
-34.90973360558628
 20
15.80755957096303
 30
0.0
 41
1.0
 10
-35.12973429931572
 20
15.80633974374039
 30
0.0
 41
1.0
 10
-35.23972808726523
 20
15.80543514643394
 30
0.0
 41
1.0
 10
-35.45970254533385
 20
15.80303658443077
 30
0.0
 41
1.0
 10
-35.56970747090359
 20
15.80134324591345
 30
0.0
 41
1.0
 10
-35.78975271511394
 20
15.79696845384734
 30
0.0
 41
1.0
 10
-35.89958822039151
 20
15.79308668409988
 30
0.0
 41
1.0
 10
-36.11888499729146
 20
15.78193439717614
 30
0.0
 41
1.0
 10
-36.22921076035783
 20
15.77563740969528
 30
0.0
 41
1.0
 10
-36.45121703572333
 20
15.76160174669561
 30
0.0
 41
1.0
 10
-36.55534133663766
 20
15.72932262237124
 30
0.0
 41
1.0
 10
-36.74983226492943
 20
15.61424178807339
 30
0.0
 41
1.0
 10
-36.8139297248341
 20
15.52939915072908
 30
0.0
 41
1.0
 10
-36.84487918049756
 20
15.41725429318937
 30
0.0
 41
1.0
 10
-36.91517561077798
 20
15.14218619967626
 30
0.0
 41
1.0
 10
-36.97528272099366
 20
14.86491186468619
 30
0.0
 41
1.0
 10
-37.07511840903258
 20
14.30595010855245
 30
0.0
 41
1.0
 10
-37.11512640245968
 20
14.02505807295056
 30
0.0
 41
1.0
 10
-37.17532258039218
 20
13.4604522898765
 30
0.0
 41
1.0
 10
-37.19528396254728
 20
13.17743327751291
 30
0.0
 41
1.0
 10
-37.21493331323519
 20
12.60996301113264
 30
0.0
 41
1.0
 10
-37.21442828318266
 20
12.32624086124359
 30
0.0
 41
1.0
 10
-37.19275881228462
 20
11.75882252806764
 30
0.0
 41
1.0
 10
-37.17112840230797
 20
11.47593437384736
 30
0.0
 41
1.0
 10
-37.10627623329939
 20
10.91180009014217
 30
0.0
 41
1.0
 10
-37.06271501745231
 20
10.63145381654605
 30
0.0
 41
1.0
 10
-36.95332232307261
 20
10.07420300586678
 30
0.0
 41
1.0
 10
-36.88704985896915
 20
9.798354987230608
 30
0.0
 41
1.0
 10
-36.80920127795209
 20
9.525284355297906
 30
0.0
 41
1.0
 10
-36.78142865266142
 20
9.427865902199928
 30
0.0
 41
1.0
 10
-36.70753470596225
 20
9.374540079140187
 30
0.0
 41
1.0
 10
-36.60546135399469
 20
9.374539880726871
 30
0.0
 41
1.0
 10
-36.59669304521375
 20
9.37453986368276
 30
0.0
 41
1.000000000000001
 10
-36.55127822304427
 20
9.374539742185123
 30
0.0
 41
1.000000000000003
 10
-36.34096022352539
 20
9.3745391098412
 30
0.0
 41
1.000000000000002
 10
-36.0403328690002
 20
9.374538188522973
 30
0.0
 41
1.000000000000003
 10
-35.512411035972
 20
9.374536547762723
 30
0.0
 41
1.000000000000002
 10
-35.04994702119442
 20
9.374535098255661
 30
0.0
 41
1.000000000000002
 10
-34.7216908756551
 20
9.374534069035374
 30
0.0
 41
1.000000000000002
 10
-0.4399819881693467
 20
9.374480155123859
 30
0.0
 41
1.0
  0
SPLINE
  5
78
330
1F
100
AcDbEntity
  8
Layer 01
370
    -3
100
AcDbSpline
210
0.0
220
0.0
230
1.0
 70
     8
 71
     2
 72
    12
 73
     9
 74
     0
 42
0.000000001
 43
0.0000000001
 40
0.0
 40
0.0
 40
0.0
 40
1.0
 40
2.0
 40
3.0
 40
4.0
 40
5.0
 40
6.0
 40
7.0
 40
7.0
 40
7.0
 10
-32.90052900997772
 20
15.81531469673978
 30
0.0
 10
-30.85370804925966
 20
15.84683079213456
 30
0.0
 10
-26.76717166680158
 20
16.09429371162128
 30
0.0
 10
-22.67839044707443
 20
16.29387570153292
 30
0.0
 10
-18.5854127848525
 20
16.37959354362928
 30
0.0
 10
-14.50379670135531
 20
16.33539048628321
 30
0.0
 10
-10.41306384371157
 20
16.17744703657096
 30
0.0
 10
-6.328370815909182
 20
15.90297622631096
 30
0.0
 10
-4.283250551331339
 20
15.82093130669888
 30
0.0
  0
SPLINE
  5
79
330
1F
100
AcDbEntity
  8
Layer 01
370
    -3
100
AcDbSpline
210
0.0
220
0.0
230
1.0
 70
     8
 71
     3
 72
    52
 73
    48
 74
     0
 42
0.000000001
 43
0.0000000001
 40
0.0075705054645208
 40
0.0075705054645208
 40
0.0075705054645208
 40
0.0075705054645208
 40
1.0
 40
1.0
 40
2.0
 40
2.0
 40
3.0
 40
3.0
 40
3.0
 40
3.692613100214435
 40
3.692613100214435
 40
3.692613100214435
 40
4.17131580880293
 40
4.17131580880293
 40
4.17131580880293
 40
4.366142543643644
 40
4.366142543643644
 40
4.366142543643644
 40
6.273636549091722
 40
6.273636549091722
 40
6.273636549091722
 40
6.461047518253512
 40
6.461047518253512
 40
6.461047518253512
 40
7.461047518253512
 40
7.461047518253512
 40
8.461047518253512
 40
8.461047518253512
 40
8.461047518253512
 40
9.461047518253512
 40
9.461047518253512
 40
9.461047518253512
 40
10.46104751825351
 40
10.46104751825351
 40
11.46104751825351
 40
11.46104751825351
 40
11.46104751825351
 40
12.46104751825352
 40
12.46104751825352
 40
13.46104751825352
 40
13.46104751825352
 40
14.46104751825352
 40
14.46104751825352
 40
14.46104751825352
 40
15.46104751825352
 40
15.46104751825352
 40
16.46104751825352
 40
16.46104751825352
 40
16.46104751825352
 40
16.46104751825352
 10
34.73448093884107
 20
15.80835102659927
 30
0.0
 10
35.24055149911459
 20
17.02449690065434
 30
0.0
 10
35.73048492944219
 20
18.24741371762734
 30
0.0
 10
36.68169176930352
 20
20.71616960947304
 30
0.0
 10
37.15663891293837
 20
21.95609257901716
 30
0.0
 10
38.10160640851848
 20
24.43764819328403
 30
0.0
 10
38.56873366565668
 20
25.68078456444916
 30
0.0
 10
39.03050443214301
 20
26.92627949964596
 30
0.0
 10
39.11041802375185
 20
27.1405588197488
 30
0.0
 10
39.17119182682807
 20
27.33527616434864
 30
0.0
 10
39.20013733029659
 20
27.48244965601616
 30
0.0
 10
39.21600927857101
 20
27.5631506204908
 30
0.0
 10
39.23216501533215
 20
27.67513955247714
 30
0.0
 10
39.19519483979027
 20
27.75752855384712
 30
0.0
 10
39.17562563599909
 20
27.801139035386
 30
0.0
 10
39.14020989705631
 20
27.84247259668632
 30
0.0
 10
39.08575004701938
 20
27.86438662169476
 30
0.0
 10
38.50276807061283
 20
28.10081831505235
 30
0.0
 10
37.91978609420627
 20
28.33725000840994
 30
0.0
 10
37.33680411779972
 20
28.57368170176752
 30
0.0
 10
37.28561407398765
 20
28.59462959838597
 30
0.0
 10
37.23335257631294
 20
28.59190551012462
 30
0.0
 10
37.18863297600956
 20
28.57585705206574
 30
0.0
 10
36.72906070714028
 20
28.42329504508497
 30
0.0
 10
36.2714323200907
 20
28.26509781760393
 30
0.0
 10
35.36006330963092
 20
27.93743292164125
 30
0.0
 10
34.90675402130501
 20
27.76727181497807
 30
0.0
 10
34.45581994988307
 20
27.59078204963307
 30
0.0
 10
34.25505052243926
 20
27.51220349151641
 30
0.0
 10
34.147575119756
 20
27.23855348018147
 30
0.0
 10
34.05448930483562
 20
27.00566537344462
 30
0.0
 10
33.84425275639929
 20
26.47968199161455
 30
0.0
 10
33.62527311645387
 20
25.95767949224616
 30
0.0
 10
33.16982765354483
 20
24.92163625843274
 30
0.0
 10
32.93171854828278
 20
24.40807100344126
 30
0.0
 10
32.68322306921319
 20
23.89896211036501
 30
0.0
 10
32.43472759014361
 20
23.38985321728876
 30
0.0
 10
32.20460636126543
 20
22.87255660743706
 30
0.0
 10
31.78111240389191
 20
21.82158795418278
 30
0.0
 10
31.58454239646982
 20
21.29055633614923
 30
0.0
 10
31.221756324155
 20
20.21739851726931
 30
0.0
 10
31.05069910973409
 20
19.67752577904661
 30
0.0
 10
30.88997771704969
 20
19.13435921204115
 30
0.0
 10
30.72925632436529
 20
18.5911926450357
 30
0.0
 10
30.55549802959405
 20
18.05233334474019
 30
0.0
 10
30.18190763587787
 20
16.98322927756904
 30
0.0
 10
29.98865236640252
 20
16.45095566546495
 30
0.0
 10
29.78893702430994
 20
15.92096047484232
 30
0.0
  0
SPLINE
  5
7A
330
1F
100
AcDbEntity
  8
Layer 01
370
    -3
100
AcDbSpline
210
0.0
220
0.0
230
1.0
 70
    12
 71
     3
 72
    48
 73
    44
 74
     0
 42
0.000000001
 43
0.0000000001
 40
51.22197565227982
 40
51.22197565227982
 40
51.22197565227982
 40
51.22197565227982
 40
53.35467995410598
 40
53.35467995410598
 40
53.35467995410598
 40
54.2007875592741
 40
54.2007875592741
 40
54.2007875592741
 40
55.03314372917384
 40
55.03314372917384
 40
55.03314372917384
 40
57.03473130808052
 40
57.03473130808052
 40
57.03473130808052
 40
61.77427620042234
 40
61.77427620042234
 40
61.77427620042234
 40
66.52108382960135
 40
66.52108382960135
 40
66.52108382960135
 40
71.00289690192739
 40
71.00289690192739
 40
71.00289690192739
 40
80.23469978001158
 40
80.23469978001158
 40
80.23469978001158
 40
84.98658018411155
 40
84.98658018411155
 40
84.98658018411155
 40
86.9831073230826
 40
86.9831073230826
 40
86.9831073230826
 40
87.81628954921031
 40
87.81628954921031
 40
87.81628954921031
 40
88.64592015674171
 40
88.64592015674171
 40
88.64592015674171
 40
89.49141167105802
 40
90.33267929698584
 40
90.33267929698584
 40
90.33267929698584
 40
104.5709926742846
 40
104.5709926742846
 40
104.5709926742846
 40
104.5709926742846
 10
34.05448930483562
 20
27.00566537344461
 30
0.0
 41
1.000000000000001
 10
34.0544893048333
 20
27.6889471759205
 30
0.0
 41
1.000000000000001
 10
34.05448930482999
 20
28.37168158275582
 30
0.0
 41
1.0
 10
34.05449570062171
 20
29.05462888230029
 30
0.0
 41
1.000000000000001
 10
34.05430386856104
 20
29.32818914458624
 30
0.0
 41
1.000000000000001
 10
33.93943343858148
 20
29.59688790035301
 30
0.0
 41
1.000000000000001
 10
33.7443945450833
 20
29.7878066330977
 30
0.0
 41
1.000000000000001
 10
33.55219321770621
 20
29.97594774278374
 30
0.0
 41
1.000000000000001
 10
33.28509880667601
 20
30.08595006009411
 30
0.0
 41
1.000000000000001
 10
33.0136923470321
 20
30.0876812779632
 30
0.0
 41
1.000000000000001
 10
32.35487361575766
 20
30.09315900859594
 30
0.0
 41
1.000000000000001
 10
31.67180205836589
 20
30.09608143657382
 30
0.0
 41
1.000000000000001
 10
31.01271301715823
 20
30.09831582043651
 30
0.0
 41
1.000000000000001
 10
29.43249308287755
 20
30.10367293867077
 30
0.0
 41
1.000000000000001
 10
27.85253859547372
 20
30.10553859226177
 30
0.0
 41
1.000000000000001
 10
26.2734202509427
 20
30.10626898643859
 30
0.0
 41
1.000000000000001
 10
24.69149737772295
 20
30.10700067780218
 30
0.0
 41
1.000000000000001
 10
23.10921067329837
 20
30.10663457709303
 30
0.0
 41
1.000000000000001
 10
21.52662214179005
 20
30.10613176540367
 30
0.0
 41
1.000000000000001
 10
20.03200791768599
 20
30.10565690444771
 30
0.0
 41
1.000000000000001
 10
18.53807204354222
 20
30.10507617945814
 30
0.0
 41
1.000000000000001
 10
17.04481502728228
 20
30.1050842552685
 30
0.0
 41
1.000000000000001
 10
13.98256945039866
 20
30.10510088167312
 30
0.0
 41
1.000000000000001
 10
10.90530603713229
 20
30.10765691942123
 30
0.0
 41
1.000000000000001
 10
7.825115261553083
 20
30.10624340946094
 30
0.0
 41
1.000000000000001
 10
6.242241421931983
 20
30.10551702330462
 30
0.0
 41
1.000000000000001
 10
4.658207729517802
 20
30.10373069929094
 30
0.0
 41
1.000000000000001
 10
3.073486831974027
 20
30.09832915070799
 30
0.0
 41
1.000000000000001
 10
2.412985778520255
 20
30.09607782144563
 30
0.0
 41
1.000000000000001
 10
1.73778736670555
 20
30.09315046039377
 30
0.0
 41
1.000000000000001
 10
1.077568998735526
 20
30.08767955380357
 30
0.0
 41
1.000000000000001
 10
0.8058652146435925
 20
30.08595366928459
 30
0.0
 41
1.000000000000001
 10
0.5385360399449901
 20
29.9761168433003
 30
0.0
 41
1.000000000000001
 10
0.346124534827954
 20
29.78773093322928
 30
0.0
 41
1.000000000000001
 10
0.1548972039338032
 20
29.60050442232477
 30
0.0
 41
1.000000000000001
 10
0.0407655832071789
 20
29.33852965911455
 30
0.0
 41
1.000000000000001
 10
0.0361706063086338
 20
29.06245517689214
 30
0.0
 41
1.000000000000001
 10
0.0361070120162204
 20
28.78228678040645
 30
0.0
 41
1.000000000000001
 10
0.0361070120225158
 20
28.24466896350177
 30
0.0
 41
1.000000000000001
 10
0.0361070120242495
 20
27.70422160835663
 30
0.0
 41
1.000000000000001
 10
0.03610701202469
 20
27.43442060163984
 30
0.0
 41
1.000000000000001
 10
0.0361070120321458
 20
22.86808384416928
 30
0.0
 41
1.000000000000001
 10
0.0361070120396021
 20
18.30174708669872
 30
0.0
 41
1.000000000000001
 10
0.0361070120470579
 20
13.73541032922816
 30
0.0
 41
1.000000000000001
  0
SPLINE
  5
7B
330
1F
100
AcDbEntity
  8
Layer 01
370
    -3
100
AcDbSpline
210
0.0
220
0.0
230
1.0
 70
    24
 71
     3
 72
     8
 73
     4
 74
     0
 42
0.000000001
 43
0.0000000001
 40
-10.134324539376
 40
-10.134324539376
 40
-10.134324539376
 40
-10.134324539376
 40
-3.250653396313236
 40
-3.250653396313236
 40
-3.250653396313236
 40
-3.250653396313236
 10
26.08513534101838
 20
5.123314814973055
 30
0.0
 10
28.09420456981867
 20
5.123314814973054
 30
0.0
 10
30.07804919429487
 20
5.123314814973053
 30
0.0
 10
32.03063684411539
 20
5.123314814973052
 30
0.0
  0
SPLINE
  5
7C
330
1F
100
AcDbEntity
  8
Layer 01
370
    -3
100
AcDbSpline
210
0.0
220
0.0
230
1.0
 70
    24
 71
     3
 72
     8
 73
     4
 74
     0
 42
0.000000001
 43
0.0000000001
 40
-64.38845629293908
 40
-64.38845629293908
 40
-64.38845629293908
 40
-64.38845629293908
 40
-13.4489000554522
 40
-13.4489000554522
 40
-13.4489000554522
 40
-13.4489000554522
 10
-23.1660860530812
 20
5.123314814973053
 30
0.0
 10
-8.129448242631689
 20
5.123314814973053
 30
0.0
 10
8.129448242631705
 20
5.123314814973053
 30
0.0
 10
23.16608605308122
 20
5.123314814973052
 30
0.0
  0
SPLINE
  5
7D
330
1F
100
AcDbEntity
  8
Layer 01
370
    -3
100
AcDbSpline
210
0.0
220
0.0
230
1.0
 70
    24
 71
     3
 72
     8
 73
     4
 74
     0
 42
0.000000001
 43
0.0000000001
 40
-74.58670295207806
 40
-74.58670295207806
 40
-74.58670295207806
 40
-74.58670295207806
 40
-67.70303180901529
 40
-67.70303180901529
 40
-67.70303180901529
 40
-67.70303180901529
 10
-32.03063684411539
 20
5.123314814973052
 30
0.0
 10
-30.07804919429487
 20
5.123314814973053
 30
0.0
 10
-28.09420456981867
 20
5.123314814973053
 30
0.0
 10
-26.08513534101838
 20
5.123314814973053
 30
0.0
  0
SPLINE
  5
7E
330
1F
100
AcDbEntity
  8
Layer 01
370
    -3
100
AcDbSpline
210
0.0
220
0.0
230
1.0
 70
     8
 71
     3
 72
   178
 73
   174
 74
     0
 42
0.000000001
 43
0.0000000001
 40
-1.315499952746201
 40
-1.315499952746201
 40
-1.315499952746201
 40
-1.315499952746201
 40
0.8188415190143188
 40
0.8188415190143188
 40
0.8188415190143188
 40
1.818841519014319
 40
1.818841519014319
 40
2.818841519014319
 40
2.818841519014319
 40
3.818841519014319
 40
3.818841519014319
 40
4.818841519014319
 40
4.818841519014319
 40
5.818841519014319
 40
5.818841519014319
 40
5.818841519014319
 40
6.818841519014319
 40
6.818841519014319
 40
6.818841519014319
 40
7.818841519014319
 40
7.818841519014319
 40
8.818841519014319
 40
8.818841519014319
 40
9.818841519014319
 40
9.818841519014319
 40
10.81884151901432
 40
10.81884151901432
 40
11.81884151901432
 40
11.81884151901432
 40
12.81884151901432
 40
12.81884151901432
 40
13.81884151901432
 40
13.81884151901432
 40
14.81884151901432
 40
14.81884151901432
 40
15.81884151901432
 40
15.81884151901432
 40
16.81884151901432
 40
16.81884151901432
 40
17.81884151901432
 40
17.81884151901432
 40
18.81884151901432
 40
18.81884151901432
 40
19.81884151901432
 40
19.81884151901432
 40
20.81884151901432
 40
20.81884151901432
 40
21.81884151901432
 40
21.81884151901432
 40
22.81884151901432
 40
22.81884151901432
 40
23.81884151901432
 40
23.81884151901432
 40
24.81884151901432
 40
24.81884151901432
 40
25.81884151901432
 40
25.81884151901432
 40
26.81884151901432
 40
26.81884151901432
 40
27.81884151901432
 40
27.81884151901432
 40
28.81884151901432
 40
28.81884151901432
 40
28.81884151901432
 40
29.81884151901432
 40
29.81884151901432
 40
30.81884151901432
 40
30.81884151901432
 40
31.81884151901432
 40
31.81884151901432
 40
32.81884151901432
 40
32.81884151901432
 40
33.81884151901432
 40
33.81884151901432
 40
34.81884151901432
 40
34.81884151901432
 40
35.81884151901432
 40
35.81884151901432
 40
36.81884151901432
 40
36.81884151901432
 40
37.81884151901432
 40
37.81884151901432
 40
38.81884151901432
 40
38.81884151901432
 40
39.81884151901432
 40
39.81884151901432
 40
40.81884151901432
 40
40.81884151901432
 40
41.81884151901432
 40
41.81884151901432
 40
41.81884151901432
 40
42.81884151901432
 40
42.81884151901432
 40
43.81884151901432
 40
43.81884151901432
 40
44.81884151901432
 40
44.81884151901432
 40
45.81884151901432
 40
45.81884151901432
 40
46.81884151901432
 40
46.81884151901432
 40
47.81884151901432
 40
47.81884151901432
 40
48.81884151901432
 40
48.81884151901432
 40
49.81884151901432
 40
49.81884151901432
 40
50.81884151901432
 40
50.81884151901432
 40
51.81884151901432
 40
51.81884151901432
 40
52.81884151901432
 40
52.81884151901432
 40
53.81884151901431
 40
53.81884151901431
 40
54.81884151901431
 40
54.81884151901431
 40
55.81884151901431
 40
55.81884151901431
 40
56.81884151901431
 40
56.81884151901431
 40
57.81884151901431
 40
57.81884151901431
 40
58.81884151901431
 40
58.81884151901431
 40
59.81884151901431
 40
59.81884151901431
 40
60.81884151901431
 40
60.81884151901431
 40
61.81884151901431
 40
61.81884151901431
 40
62.81884151901431
 40
62.81884151901431
 40
63.81884151901431
 40
63.81884151901431
 40
64.81884151901431
 40
64.81884151901431
 40
65.81884151901431
 40
65.81884151901431
 40
66.81884151901431
 40
66.81884151901431
 40
67.81884151901431
 40
67.81884151901431
 40
68.81884151901431
 40
68.81884151901431
 40
69.81884151901431
 40
69.81884151901431
 40
70.81884151901431
 40
70.81884151901431
 40
71.81884151901431
 40
71.81884151901431
 40
72.81884151901431
 40
72.81884151901431
 40
72.81884151901431
 40
73.81884196936142
 40
73.81884196936142
 40
74.81884241970853
 40
74.81884241970853
 40
75.81884151901431
 40
75.81884151901431
 40
75.81884151901431
 40
75.82077870395024
 40
75.82077870395024
 40
75.82077870395024
 40
76.81959644756652
 40
76.81959644756652
 40
76.81959644756652
 40
77.81999053302776
 40
77.81999053302776
 40
77.81999053302776
 40
78.820384618489
 40
78.820384618489
 40
79.82077870395024
 40
79.82077870395024
 40
79.82077870395024
 40
79.82077870395024
 10
33.66983990617464
 20
5.123314814973052
 30
0.0
 10
38.02023425546936
 20
5.12531417698756
 30
0.0
 10
37.5756586987662
 20
5.12500934736715
 30
0.0
 10
38.29436593509556
 20
5.124999250135918
 30
0.0
 10
38.31343672660012
 20
5.124970026657251
 30
0.0
 10
38.33248084452551
 20
5.125152436547284
 30
0.0
 10
38.370515733218
 20
5.125940523064755
 30
0.0
 10
38.3895234022943
 20
5.126608552405905
 30
0.0
 10
38.42751918990698
 20
5.128492583253036
 30
0.0
 10
38.44649226326759
 20
5.129823845649672
 30
0.0
 10
38.48438876909739
 20
5.133264864389088
 30
0.0
 10
38.5032569510304
 20
5.135647191130375
 30
0.0
 10
38.54083317293262
 20
5.14173547935611
 30
0.0
 10
38.5594196815141
 20
5.145703021057916
 30
0.0
 10
38.57780458772596
 20
5.15059396034866
 30
0.0
 10
38.59618949393784
 20
5.155484899639403
 30
0.0
 10
38.61469591051797
 20
5.159936199910341
 30
0.0
 10
38.63332383746636
 20
5.163947861161468
 30
0.0
 10
38.65195176441475
 20
5.167959522412596
 30
0.0
 10
38.67009014243452
 20
5.173541429617599
 30
0.0
 10
38.70538780061685
 20
5.187845735935363
 30
0.0
 10
38.72238333719019
 20
5.196333821369158
 30
0.0
 10
38.75506782530123
 20
5.215981856786571
 30
0.0
 10
38.77053665081429
 20
5.227015491474556
 30
0.0
 10
38.79972746475548
 20
5.251501994809087
 30
0.0
 10
38.81349639442969
 20
5.264606137552217
 30
0.0
 10
38.83938129918535
 20
5.292536205190203
 30
0.0
 10
38.85161587165244
 20
5.307090961158656
 30
0.0
 10
38.87466925676513
 20
5.33737991739449
 30
0.0
 10
38.88558959842628
 20
5.352946793854755
 30
0.0
 10
38.90621757995818
 20
5.38492534345998
 30
0.0
 10
38.91608003765735
 20
5.401186855149657
 30
0.0
 10
38.93490188692211
 20
5.43425435230314
 30
0.0
 10
38.94390435881361
 20
5.451006901629012
 30
0.0
 10
38.9610923971149
 20
5.484949601779019
 30
0.0
 10
38.96936376213395
 20
5.502076024946972
 30
0.0
 10
38.9852611839089
 20
5.536639017468772
 30
0.0
 10
38.99298577910363
 20
5.554019687889657
 30
0.0
 10
39.00798673810771
 20
5.588979377051392
 30
0.0
 10
39.01530013558121
 20
5.60653702531818
 30
0.0
 10
39.02955276647118
 20
5.641807929223595
 30
0.0
 10
39.03652457109739
 20
5.659504125859056
 30
0.0
 10
39.05015915871222
 20
5.695018008495492
 30
0.0
 10
39.05686683716945
 20
5.712816163925775
 30
0.0
 10
39.07006296338355
 20
5.748494903010463
 30
0.0
 10
39.07657560277871
 20
5.766365372103913
 30
0.0
 10
39.08943003414525
 20
5.80216850939302
 30
0.0
 10
39.09578698693676
 20
5.82009497510509
 30
0.0
 10
39.10836036673631
 20
5.855997700664261
 30
0.0
 10
39.11458699872728
 20
5.87396985811012
 30
0.0
 10
39.12692014689161
 20
5.909955762334387
 30
0.0
 10
39.13303499089647
 20
5.927966268793789
 30
0.0
 10
39.14516121875157
 20
5.964022390407138
 30
0.0
 10
39.15118034361025
 20
5.982065121079572
 30
0.0
 10
39.16313061518981
 20
6.018179922155952
 30
0.0
 10
39.16906717994736
 20
6.036250005651289
 30
0.0
 10
39.18086316739799
 20
6.072415538556251
 30
0.0
 10
39.18672086786518
 20
6.090511266815088
 30
0.0
 10
39.19835568228329
 20
6.12672864694547
 30
0.0
 10
39.20416311395972
 20
6.144840940778042
 30
0.0
 10
39.21575802624736
 20
6.181072735977939
 30
0.0
 10
39.22138851052544
 20
6.199239437415854
 30
0.0
 10
39.22685202293777
 20
6.217456942691737
 30
0.0
 10
39.33379862238966
 20
6.555853812039096
 30
0.0
 10
39.43680046590794
 20
6.895448507819328
 30
0.0
 10
39.63491464107726
 20
7.577033552245538
 30
0.0
 10
39.72969191109607
 20
7.919011898480107
 30
0.0
 10
39.91068681600203
 20
8.605340238992172
 30
0.0
 10
39.9970655997917
 20
8.949537490367328
 30
0.0
 10
40.16158583004446
 20
9.639998155355903
 30
0.0
 10
40.23976440164272
 20
9.98614995039459
 30
0.0
 10
40.38795845778298
 20
10.68029646556078
 30
0.0
 10
40.45807276922231
 20
11.02817212128637
 30
0.0
 10
40.59033595883932
 20
11.72552822902253
 30
0.0
 10
40.65253335046332
 20
12.07490615980921
 30
0.0
 10
40.76905972734223
 20
12.77506177521977
 30
0.0
 10
40.82352172001992
 20
13.12572958490082
 30
0.0
 10
40.92484331385173
 20
13.82824520821447
 30
0.0
 10
40.97180340175569
 20
14.17999651852925
 30
0.0
 10
41.05832215953976
 20
14.88448613647471
 30
0.0
 10
41.09796242151357
 20
15.23713770061105
 30
0.0
 10
41.17000471162475
 20
15.94325433921095
 30
0.0
 10
41.20252742603525
 20
16.29663389585285
 30
0.0
 10
41.26057599356607
 20
17.00403548382052
 30
0.0
 10
41.28615213175447
 20
17.35798541699666
 30
0.0
 10
41.33040811697725
 20
18.06638356173356
 30
0.0
 10
41.34926705625607
 20
18.42075629956743
 30
0.0
 10
41.38044682814864
 20
19.12984910616602
 30
0.0
 10
41.39263149409572
 20
19.48451283823773
 30
0.0
 10
41.40141094004363
 20
19.83929389908185
 30
0.0
 10
41.40223509942247
 20
19.87321455354089
 30
0.0
 10
41.40303129010094
 20
19.90713587179457
 30
0.0
 10
41.4045677340571
 20
19.97497983589119
 30
0.0
 10
41.40530695338688
 20
20.00890244483686
 30
0.0
 10
41.40672738674995
 20
20.07674891652288
 30
0.0
 10
41.407407531993
 20
20.1106727506057
 30
0.0
 10
41.40870767960217
 20
20.17852161525097
 30
0.0
 10
41.4093268140931
 20
20.21244661805715
 30
0.0
 10
41.41050320444768
 20
20.2802977646366
 30
0.0
 10
41.41106053627725
 20
20.31422384413277
 30
0.0
 10
41.41211347324092
 20
20.38207701553798
 30
0.0
 10
41.41260916998631
 20
20.4160040506038
 30
0.0
 10
41.41353902000418
 20
20.48385901946188
 30
0.0
 10
41.41397323624309
 20
20.51778689689294
 30
0.0
 10
41.41478025118082
 20
20.58564343775908
 30
0.0
 10
41.41515294185603
 20
20.61957205115458
 30
0.0
 10
41.41583668961916
 20
20.68742996387041
 30
0.0
 10
41.41614772680728
 20
20.72135919450292
 30
0.0
 10
41.41670812779665
 20
20.7892182043171
 30
0.0
 10
41.41695673429173
 20
20.82314794746632
 30
0.0
 10
41.41739075928271
 20
20.89100791024905
 30
0.0
 10
41.41757466996684
 20
20.92493806178743
 30
0.0
 10
41.41787628771235
 20
20.9927987051582
 30
0.0
 10
41.41799230318516
 20
21.02672916212161
 30
0.0
 10
41.41815474733086
 20
21.09459034660444
 30
0.0
 10
41.41819783433576
 20
21.12852097949826
 30
0.0
 10
41.41820773820974
 20
21.19638232659073
 30
0.0
 10
41.41817102156929
 20
21.23031295881344
 30
0.0
 10
41.41801425113344
 20
21.2981741406118
 30
0.0
 10
41.41788755669165
 20
21.33210455406274
 30
0.0
 10
41.41753754936035
 20
21.39996502606814
 30
0.0
 10
41.41730688062015
 20
21.43389488910876
 30
0.0
 10
41.41673421299066
 20
21.50175386926582
 30
0.0
 10
41.41638356469755
 20
21.53568269823061
 30
0.0
 10
41.41555363915463
 20
21.60353903393272
 30
0.0
 10
41.4150662219314
 20
21.637466166375
 30
0.0
 10
41.41394647858139
 20
21.70531836044206
 30
0.0
 10
41.4133089943133
 20
21.73924300476735
 30
0.0
 10
41.41187880059097
 20
21.80708938800147
 30
0.0
 10
41.41107988882097
 20
21.84101060861718
 30
0.0
 10
41.40931443546334
 20
21.90884910784591
 30
0.0
 10
41.40833934248496
 20
21.94276571375872
 30
0.0
 10
41.40620442392908
 20
22.01059363818122
 30
0.0
 10
41.40502983116383
 20
22.04450391029667
 30
0.0
 10
41.40246637865874
 20
22.11231707433592
 30
0.0
 10
41.40105620603133
 20
22.1462183359711
 30
0.0
 10
41.39797896802685
 20
22.21401021847258
 30
0.0
 10
41.39628148380741
 20
22.24789831906276
 30
0.0
 10
41.39256878493411
 20
22.315658838922
 30
0.0
 10
41.39050526374146
 20
22.34952628470811
 30
0.0
 10
41.38596387784417
 20
22.41723554799329
 30
0.0
 10
41.3834038331912
 20
22.45107049595105
 30
0.0
 10
41.37770504047667
 20
22.5187010244969
 30
0.0
 10
41.37432456275885
 20
22.55245516685108
 30
0.0
 10
41.36650144460206
 20
22.61984120772194
 30
0.0
 10
41.36160107817295
 20
22.65345212343857
 30
0.0
 10
41.34982273061325
 20
22.72050974543417
 30
0.0
 10
41.3381737194206
 20
22.75241628141281
 30
0.0
 10
41.30335602220972
 20
22.81298480333177
 30
0.0
 10
41.27801633512377
 20
22.83347329767362
 30
0.0
 10
41.21147528399082
 20
22.85485875312203
 30
0.0
 10
41.17822504570236
 20
22.8629553385904
 30
0.0
 10
41.14499509469194
 20
22.86845578180293
 30
0.0
 10
41.06194563059228
 20
22.88427819984967
 30
0.0
 10
40.97830438333249
 20
22.89538364918342
 30
0.0
 10
40.80983832249267
 20
22.90816061042491
 30
0.0
 10
40.72555407072181
 20
22.9134400885823
 30
0.0
 10
40.5568832384188
 20
22.92178103433586
 30
0.0
 10
40.47248206801375
 20
22.92326965374539
 30
0.0
 10
40.3880150863848
 20
22.92207642250492
 30
0.0
 10
40.3876419214147
 20
22.92207577577946
 30
0.0
 10
40.38726870191319
 20
22.92210616712721
 30
0.0
 10
40.38689542788028
 20
22.92216759654819
 30
0.0
 10
40.15058312050649
 20
22.92167653514086
 30
0.0
 10
39.91427436379615
 20
22.92181712638306
 30
0.0
 10
39.67796915774927
 20
22.9225893702748
 30
0.0
 10
39.44129101300879
 20
22.92336283292779
 30
0.0
 10
39.20459532564279
 20
22.92256937977206
 30
0.0
 10
38.96788209565124
 20
22.92020901080762
 30
0.0
 10
38.7311688656597
 20
22.91784864184318
 30
0.0
 10
38.49456178470002
 20
22.92187313650255
 30
0.0
 10
38.02155992084444
 20
22.94269185306895
 30
0.0
 10
37.78567356817044
 20
22.96113110981139
 30
0.0
 10
37.55040179475024
 20
22.98760026501308
 30
0.0
  0
SPLINE
  5
7F
330
1F
100
AcDbEntity
  8
Layer 01
370
    -3
100
AcDbSpline
210
0.0
220
0.0
230
1.0
 70
     8
 71
     3
 72
   178
 73
   174
 74
     0
 42
0.000000001
 43
0.0000000001
 40
-157.6581350524621
 40
-157.6581350524621
 40
-157.6581350524621
 40
-157.6581350524621
 40
-156.6577409669763
 40
-156.6577409669763
 40
-155.6573468814905
 40
-155.6573468814905
 40
-155.6573468814905
 40
-154.6569527960048
 40
-154.6569527960048
 40
-154.6569527960048
 40
-153.6581350524621
 40
-153.6581350524621
 40
-153.6581350524621
 40
-153.6561978674056
 40
-153.6561978674056
 40
-153.6561978674056
 40
-152.6561987680998
 40
-152.6561987680998
 40
-151.6561983177527
 40
-151.6561983177527
 40
-150.6561978674056
 40
-150.6561978674056
 40
-150.6561978674056
 40
-149.6561978674056
 40
-149.6561978674056
 40
-148.6561978674056
 40
-148.6561978674056
 40
-147.6561978674056
 40
-147.6561978674056
 40
-146.6561978674056
 40
-146.6561978674056
 40
-145.6561978674056
 40
-145.6561978674056
 40
-144.6561978674056
 40
-144.6561978674056
 40
-143.6561978674056
 40
-143.6561978674056
 40
-142.6561978674056
 40
-142.6561978674056
 40
-141.6561978674056
 40
-141.6561978674056
 40
-140.6561978674056
 40
-140.6561978674056
 40
-139.6561978674056
 40
-139.6561978674056
 40
-138.6561978674056
 40
-138.6561978674056
 40
-137.6561978674056
 40
-137.6561978674056
 40
-136.6561978674056
 40
-136.6561978674056
 40
-135.6561978674056
 40
-135.6561978674056
 40
-134.6561978674056
 40
-134.6561978674056
 40
-133.6561978674056
 40
-133.6561978674056
 40
-132.6561978674056
 40
-132.6561978674056
 40
-131.6561978674056
 40
-131.6561978674056
 40
-130.6561978674056
 40
-130.6561978674056
 40
-129.6561978674056
 40
-129.6561978674056
 40
-128.6561978674056
 40
-128.6561978674056
 40
-127.6561978674056
 40
-127.6561978674056
 40
-126.6561978674056
 40
-126.6561978674056
 40
-125.6561978674056
 40
-125.6561978674056
 40
-124.6561978674056
 40
-124.6561978674056
 40
-123.6561978674056
 40
-123.6561978674056
 40
-122.6561978674056
 40
-122.6561978674056
 40
-121.6561978674056
 40
-121.6561978674056
 40
-120.6561978674056
 40
-120.6561978674056
 40
-119.6561978674056
 40
-119.6561978674056
 40
-119.6561978674056
 40
-118.6561978674056
 40
-118.6561978674056
 40
-117.6561978674056
 40
-117.6561978674056
 40
-116.6561978674056
 40
-116.6561978674056
 40
-115.6561978674056
 40
-115.6561978674056
 40
-114.6561978674056
 40
-114.6561978674056
 40
-113.6561978674056
 40
-113.6561978674056
 40
-112.6561978674056
 40
-112.6561978674056
 40
-111.6561978674056
 40
-111.6561978674056
 40
-110.6561978674056
 40
-110.6561978674056
 40
-109.6561978674056
 40
-109.6561978674056
 40
-108.6561978674056
 40
-108.6561978674056
 40
-107.6561978674056
 40
-107.6561978674056
 40
-106.6561978674056
 40
-106.6561978674056
 40
-106.6561978674056
 40
-105.6561978674056
 40
-105.6561978674056
 40
-104.6561978674056
 40
-104.6561978674056
 40
-103.6561978674056
 40
-103.6561978674056
 40
-102.6561978674056
 40
-102.6561978674056
 40
-101.6561978674056
 40
-101.6561978674056
 40
-100.6561978674056
 40
-100.6561978674056
 40
-99.65619786740561
 40
-99.65619786740561
 40
-98.65619786740561
 40
-98.65619786740561
 40
-97.65619786740561
 40
-97.65619786740561
 40
-96.65619786740561
 40
-96.65619786740561
 40
-95.65619786740561
 40
-95.65619786740561
 40
-94.65619786740561
 40
-94.65619786740561
 40
-93.65619786740561
 40
-93.65619786740561
 40
-92.65619786740561
 40
-92.65619786740561
 40
-91.65619786740561
 40
-91.65619786740561
 40
-90.65619786740561
 40
-90.65619786740561
 40
-89.65619786740561
 40
-89.65619786740561
 40
-88.65619786740561
 40
-88.65619786740561
 40
-87.65619786740561
 40
-87.65619786740561
 40
-86.65619786740561
 40
-86.65619786740561
 40
-85.65619786740561
 40
-85.65619786740561
 40
-84.65619786740561
 40
-84.65619786740561
 40
-84.65619786740561
 40
-83.65619786740561
 40
-83.65619786740561
 40
-83.65619786740561
 40
-82.65619786740561
 40
-82.65619786740561
 40
-81.65619786740561
 40
-81.65619786740561
 40
-80.65619786740561
 40
-80.65619786740561
 40
-79.65619786740561
 40
-79.65619786740561
 40
-78.65619786740561
 40
-78.65619786740561
 40
-78.65619786740561
 40
-76.52185639564509
 40
-76.52185639564509
 40
-76.52185639564509
 40
-76.52185639564509
 10
-37.55040179475024
 20
22.98760026501308
 30
0.0
 10
-37.78567356817044
 20
22.96113110981139
 30
0.0
 10
-38.02155992084444
 20
22.94269185306895
 30
0.0
 10
-38.49456178470003
 20
22.92187313650256
 30
0.0
 10
-38.7311688656597
 20
22.91784864184318
 30
0.0
 10
-38.96788209565124
 20
22.92020901080762
 30
0.0
 10
-39.20459532564279
 20
22.92256937977206
 30
0.0
 10
-39.44129101300879
 20
22.92336283292779
 30
0.0
 10
-39.67796915774929
 20
22.9225893702748
 30
0.0
 10
-39.91427436377296
 20
22.92181712638313
 30
0.0
 10
-40.15058312046008
 20
22.92167653514088
 30
0.0
 10
-40.38689542781067
 20
22.92216759654802
 30
0.0
 10
-40.38726870186976
 20
22.92210616712712
 30
0.0
 10
-40.38764192139446
 20
22.92207577577942
 30
0.0
 10
-40.3880150863848
 20
22.92207642250492
 30
0.0
 10
-40.47248206801375
 20
22.92326965374539
 30
0.0
 10
-40.5568832384188
 20
22.92178103433586
 30
0.0
 10
-40.7255540707218
 20
22.9134400885823
 30
0.0
 10
-40.80983832249267
 20
22.90816061042491
 30
0.0
 10
-40.97830438333249
 20
22.89538364918342
 30
0.0
 10
-41.06194563059228
 20
22.88427819984967
 30
0.0
 10
-41.14499509469194
 20
22.86845578180293
 30
0.0
 10
-41.17822504570236
 20
22.8629553385904
 30
0.0
 10
-41.21147528399082
 20
22.85485875312203
 30
0.0
 10
-41.27801633512378
 20
22.83347329767362
 30
0.0
 10
-41.30335602220972
 20
22.81298480333177
 30
0.0
 10
-41.3381737194206
 20
22.75241628141281
 30
0.0
 10
-41.34982273061325
 20
22.72050974543417
 30
0.0
 10
-41.36160107817295
 20
22.65345212343857
 30
0.0
 10
-41.36650144460206
 20
22.61984120772195
 30
0.0
 10
-41.37432456275885
 20
22.55245516685108
 30
0.0
 10
-41.37770504047668
 20
22.5187010244969
 30
0.0
 10
-41.3834038331912
 20
22.45107049595105
 30
0.0
 10
-41.38596387784417
 20
22.41723554799329
 30
0.0
 10
-41.39050526374146
 20
22.34952628470811
 30
0.0
 10
-41.39256878493411
 20
22.315658838922
 30
0.0
 10
-41.39628148380741
 20
22.24789831906276
 30
0.0
 10
-41.39797896802686
 20
22.21401021847258
 30
0.0
 10
-41.40105620603133
 20
22.1462183359711
 30
0.0
 10
-41.40246637865874
 20
22.11231707433592
 30
0.0
 10
-41.40502983116384
 20
22.04450391029667
 30
0.0
 10
-41.40620442392908
 20
22.01059363818122
 30
0.0
 10
-41.40833934248496
 20
21.94276571375871
 30
0.0
 10
-41.40931443546334
 20
21.90884910784591
 30
0.0
 10
-41.41107988882097
 20
21.84101060861718
 30
0.0
 10
-41.41187880059097
 20
21.80708938800147
 30
0.0
 10
-41.41330899431331
 20
21.73924300476735
 30
0.0
 10
-41.41394647858139
 20
21.70531836044206
 30
0.0
 10
-41.41506622193141
 20
21.637466166375
 30
0.0
 10
-41.41555363915463
 20
21.60353903393271
 30
0.0
 10
-41.41638356469755
 20
21.53568269823061
 30
0.0
 10
-41.41673421299065
 20
21.50175386926582
 30
0.0
 10
-41.41730688062015
 20
21.43389488910876
 30
0.0
 10
-41.41753754936035
 20
21.39996502606814
 30
0.0
 10
-41.41788755669165
 20
21.33210455406274
 30
0.0
 10
-41.41801425113344
 20
21.2981741406118
 30
0.0
 10
-41.41817102156929
 20
21.23031295881344
 30
0.0
 10
-41.41820773820975
 20
21.19638232659073
 30
0.0
 10
-41.41819783433576
 20
21.12852097949826
 30
0.0
 10
-41.41815474733084
 20
21.09459034660444
 30
0.0
 10
-41.41799230318516
 20
21.02672916212161
 30
0.0
 10
-41.41787628771235
 20
20.9927987051582
 30
0.0
 10
-41.41757466996684
 20
20.92493806178743
 30
0.0
 10
-41.41739075928271
 20
20.89100791024905
 30
0.0
 10
-41.41695673429173
 20
20.82314794746632
 30
0.0
 10
-41.41670812779665
 20
20.7892182043171
 30
0.0
 10
-41.41614772680728
 20
20.72135919450292
 30
0.0
 10
-41.41583668961916
 20
20.68742996387041
 30
0.0
 10
-41.41515294185603
 20
20.61957205115458
 30
0.0
 10
-41.41478025118082
 20
20.58564343775909
 30
0.0
 10
-41.41397323624309
 20
20.51778689689293
 30
0.0
 10
-41.41353902000419
 20
20.48385901946188
 30
0.0
 10
-41.41260916998631
 20
20.4160040506038
 30
0.0
 10
-41.41211347324092
 20
20.38207701553798
 30
0.0
 10
-41.41106053627725
 20
20.31422384413277
 30
0.0
 10
-41.41050320444768
 20
20.2802977646366
 30
0.0
 10
-41.4093268140931
 20
20.21244661805715
 30
0.0
 10
-41.40870767960217
 20
20.17852161525097
 30
0.0
 10
-41.40740753199301
 20
20.1106727506057
 30
0.0
 10
-41.40672738674995
 20
20.07674891652288
 30
0.0
 10
-41.40530695338688
 20
20.00890244483686
 30
0.0
 10
-41.40456773405708
 20
19.97497983589119
 30
0.0
 10
-41.40303129010093
 20
19.90713587179457
 30
0.0
 10
-41.40223509942248
 20
19.87321455354089
 30
0.0
 10
-41.40141094004363
 20
19.83929389908185
 30
0.0
 10
-41.39263149409572
 20
19.48451283823773
 30
0.0
 10
-41.38044682814864
 20
19.12984910616602
 30
0.0
 10
-41.34926705625607
 20
18.42075629956743
 30
0.0
 10
-41.33040811697724
 20
18.06638356173356
 30
0.0
 10
-41.28615213175448
 20
17.35798541699666
 30
0.0
 10
-41.26057599356607
 20
17.00403548382052
 30
0.0
 10
-41.20252742603525
 20
16.29663389585285
 30
0.0
 10
-41.17000471162475
 20
15.94325433921095
 30
0.0
 10
-41.09796242151358
 20
15.23713770061105
 30
0.0
 10
-41.05832215953976
 20
14.88448613647471
 30
0.0
 10
-40.97180340175569
 20
14.17999651852925
 30
0.0
 10
-40.92484331385173
 20
13.82824520821447
 30
0.0
 10
-40.82352172001992
 20
13.12572958490082
 30
0.0
 10
-40.76905972734223
 20
12.77506177521977
 30
0.0
 10
-40.65253335046332
 20
12.07490615980921
 30
0.0
 10
-40.59033595883933
 20
11.72552822902253
 30
0.0
 10
-40.4580727692223
 20
11.02817212128637
 30
0.0
 10
-40.38795845778299
 20
10.68029646556078
 30
0.0
 10
-40.23976440164272
 20
9.986149950394593
 30
0.0
 10
-40.16158583004446
 20
9.639998155355903
 30
0.0
 10
-39.9970655997917
 20
8.94953749036733
 30
0.0
 10
-39.91068681600203
 20
8.60534023899217
 30
0.0
 10
-39.72969191109608
 20
7.919011898480107
 30
0.0
 10
-39.63491464107726
 20
7.577033552245538
 30
0.0
 10
-39.43680046590794
 20
6.895448507819329
 30
0.0
 10
-39.33379862238966
 20
6.555853812039095
 30
0.0
 10
-39.22685202293777
 20
6.217456942691737
 30
0.0
 10
-39.22138851052544
 20
6.199239437415854
 30
0.0
 10
-39.21575802624736
 20
6.181072735977938
 30
0.0
 10
-39.20416311395971
 20
6.144840940778042
 30
0.0
 10
-39.19835568228328
 20
6.126728646945472
 30
0.0
 10
-39.18672086786519
 20
6.090511266815088
 30
0.0
 10
-39.18086316739799
 20
6.072415538556251
 30
0.0
 10
-39.16906717994736
 20
6.036250005651289
 30
0.0
 10
-39.16313061518981
 20
6.018179922155952
 30
0.0
 10
-39.15118034361025
 20
5.982065121079571
 30
0.0
 10
-39.14516121875157
 20
5.964022390407139
 30
0.0
 10
-39.13303499089647
 20
5.927966268793789
 30
0.0
 10
-39.12692014689161
 20
5.909955762334385
 30
0.0
 10
-39.11458699872728
 20
5.873969858110121
 30
0.0
 10
-39.10836036673631
 20
5.855997700664261
 30
0.0
 10
-39.09578698693676
 20
5.820094975105089
 30
0.0
 10
-39.08943003414525
 20
5.80216850939302
 30
0.0
 10
-39.07657560277871
 20
5.766365372103913
 30
0.0
 10
-39.07006296338355
 20
5.748494903010463
 30
0.0
 10
-39.05686683716945
 20
5.712816163925775
 30
0.0
 10
-39.05015915871222
 20
5.695018008495494
 30
0.0
 10
-39.03652457109739
 20
5.659504125859056
 30
0.0
 10
-39.02955276647118
 20
5.641807929223593
 30
0.0
 10
-39.01530013558121
 20
5.60653702531818
 30
0.0
 10
-39.00798673810771
 20
5.588979377051392
 30
0.0
 10
-38.99298577910363
 20
5.554019687889657
 30
0.0
 10
-38.98526118390888
 20
5.536639017468772
 30
0.0
 10
-38.96936376213395
 20
5.502076024946973
 30
0.0
 10
-38.9610923971149
 20
5.484949601779019
 30
0.0
 10
-38.94390435881361
 20
5.451006901629012
 30
0.0
 10
-38.93490188692209
 20
5.43425435230314
 30
0.0
 10
-38.91608003765735
 20
5.401186855149657
 30
0.0
 10
-38.90621757995818
 20
5.38492534345998
 30
0.0
 10
-38.88558959842628
 20
5.352946793854755
 30
0.0
 10
-38.87466925676513
 20
5.33737991739449
 30
0.0
 10
-38.85161587165243
 20
5.307090961158657
 30
0.0
 10
-38.83938129918535
 20
5.292536205190202
 30
0.0
 10
-38.81349639442968
 20
5.264606137552218
 30
0.0
 10
-38.79972746475548
 20
5.251501994809089
 30
0.0
 10
-38.77053665081429
 20
5.227015491474555
 30
0.0
 10
-38.75506782530123
 20
5.21598185678657
 30
0.0
 10
-38.72238333719019
 20
5.196333821369159
 30
0.0
 10
-38.70538780061685
 20
5.187845735935363
 30
0.0
 10
-38.67009014243452
 20
5.173541429617599
 30
0.0
 10
-38.65195176441475
 20
5.167959522412595
 30
0.0
 10
-38.63332383746636
 20
5.163947861161468
 30
0.0
 10
-38.61469591051797
 20
5.159936199910341
 30
0.0
 10
-38.59618949393784
 20
5.155484899639404
 30
0.0
 10
-38.57780458772597
 20
5.15059396034866
 30
0.0
 10
-38.5594196815141
 20
5.145703021057916
 30
0.0
 10
-38.54083317293262
 20
5.14173547935611
 30
0.0
 10
-38.50325695103039
 20
5.135647191130375
 30
0.0
 10
-38.48438876909739
 20
5.133264864389088
 30
0.0
 10
-38.44649226326759
 20
5.129823845649672
 30
0.0
 10
-38.42751918990697
 20
5.128492583253036
 30
0.0
 10
-38.3895234022943
 20
5.126608552405904
 30
0.0
 10
-38.37051573321801
 20
5.125940523064755
 30
0.0
 10
-38.33248084452551
 20
5.125152436547284
 30
0.0
 10
-38.31343672660012
 20
5.124970026657251
 30
0.0
 10
-38.29436593509556
 20
5.124999250135918
 30
0.0
 10
-37.5756586987662
 20
5.12500934736715
 30
0.0
 10
-38.02023425546936
 20
5.12531417698756
 30
0.0
 10
-33.66983990617464
 20
5.123314814973052
 30
0.0
  0
SPLINE
  5
80
330
1F
100
AcDbEntity
  8
Layer 01
370
    -3
100
AcDbSpline
210
0.0
220
0.0
230
1.0
 70
     8
 71
     3
 72
    60
 73
    56
 74
     0
 42
0.000000001
 43
0.0000000001
 40
-3398.533251796977
 40
-3398.533251796977
 40
-3398.533251796977
 40
-3398.533251796977
 40
-3367.822240491563
 40
-3367.822240491563
 40
-3367.822240491563
 40
-3366.822240491563
 40
-3366.822240491563
 40
-3365.822240491563
 40
-3365.822240491563
 40
-3364.822240491563
 40
-3364.822240491563
 40
-3363.822240491563
 40
-3363.822240491563
 40
-3362.822240491563
 40
-3362.822240491563
 40
-3361.822240491563
 40
-3361.822240491563
 40
-3361.822240491563
 40
-3339.624588344059
 40
-3339.624588344059
 40
-3339.624588344059
 40
-3339.292461924704
 40
-3339.292461924704
 40
-3339.292461924704
 40
-3338.769568563172
 40
-3338.769568563172
 40
-3338.769568563172
 40
-3338.156187165414
 40
-3338.156187165414
 40
-3338.156187165414
 40
-3337.156187165414
 40
-3337.156187165414
 40
-3336.156187165414
 40
-3336.156187165414
 40
-3336.156187165414
 40
-3335.156187165414
 40
-3335.156187165414
 40
-3334.156187165414
 40
-3334.156187165414
 40
-3334.156187165414
 40
-3333.156187165414
 40
-3333.156187165414
 40
-3332.156187165414
 40
-3332.156187165414
 40
-3332.156187165414
 40
-3331.543194918559
 40
-3331.543194918559
 40
-3331.543194918559
 40
-3331.01984290797
 40
-3331.01984290797
 40
-3331.01984290797
 40
-3330.662000337857
 40
-3330.662000337857
 40
-3330.662000337857
 40
-3324.822973284544
 40
-3324.822973284544
 40
-3324.822973284544
 40
-3324.822973284544
 10
-31.2842651554063
 20
73.79668005335598
 30
0.0
 10
-21.05128083014859
 20
73.79668005335598
 30
0.0
 10
-10.81829650489088
 20
73.79668005335598
 30
0.0
 10
-0.5853121796331688
 20
73.79668005335598
 30
0.0
 10
-0.5409937549197625
 20
73.80612805312816
 30
0.0
 10
-0.4972310573056928
 20
73.8177165650888
 30
0.0
 10
-0.410817116276232
 20
73.84517461338699
 30
0.0
 10
-0.3688205691939466
 20
73.86201347764528
 30
0.0
 10
-0.2872483218942667
 20
73.90191088638012
 30
0.0
 10
-0.2489458344733668
 20
73.9259241080512
 30
0.0
 10
-0.1773081320894407
 20
73.98207958600068
 30
0.0
 10
-0.1460061702224973
 20
74.01457965958565
 30
0.0
 10
-0.0924360251386513
 20
74.088424475976
 30
0.0
 10
-0.0718682311815275
 20
74.12855541131042
 30
0.0
 10
-0.0431672004368813
 20
74.21523433625782
 30
0.0
 10
-0.0359979905456806
 20
74.2599582993784
 30
0.0
 10
-0.0360100861356027
 20
74.30606676314581
 30
0.0
 10
-0.0362345840407889
 20
76.35485723893542
 30
0.0
 10
-0.0364590819459747
 20
78.40364771472504
 30
0.0
 10
-0.0366835798511609
 20
80.45243819051467
 30
0.0
 10
-0.0455777704446714
 20
80.55606729632427
 30
0.0
 10
-0.0908244193804872
 20
80.6465269200852
 30
0.0
 10
-0.1546362830129109
 20
80.71583361381575
 30
0.0
 10
-0.2476428394917658
 20
80.81684895105687
 30
0.0
 10
-0.3805143579247865
 20
80.87395592267077
 30
0.0
 10
-0.5079824514980569
 20
80.90850419239926
 30
0.0
 10
-0.6701660025085996
 20
80.9524615538751
 30
0.0
 10
-0.8585762696147068
 20
80.97256366593648
 30
0.0
 10
-1.064231116037226
 20
80.98169278838236
 30
0.0
 10
-2.827065227783691
 20
81.05437467327202
 30
0.0
 10
-4.602660345878791
 20
81.09490999560411
 30
0.0
 10
-8.155255935484313
 20
81.1116875151531
 30
0.0
 10
-9.931492573309667
 20
81.1135977104944
 30
0.0
 10
-11.7076680541576
 20
81.10902934140253
 30
0.0
 10
-13.48384353500554
 20
81.10446097231068
 30
0.0
 10
-15.26003181805408
 20
81.10214486168013
 30
0.0
 10
-18.81243398855236
 20
81.10201715734165
 30
0.0
 10
-20.58862236544675
 20
81.10432710110663
 30
0.0
 10
-22.36479803398636
 20
81.10901084080584
 30
0.0
 10
-24.14097370252598
 20
81.11369458050504
 30
0.0
 10
-25.91720967445367
 20
81.1118030099165
 30
0.0
 10
-29.46980222508519
 20
81.09486924816383
 30
0.0
 10
-31.24643929334669
 20
81.05437252619143
 30
0.0
 10
-33.02341715455393
 20
80.98184596312294
 30
0.0
 10
-33.23195179759514
 20
80.97255814033439
 30
0.0
 10
-33.42040107764441
 20
80.9524117643446
 30
0.0
 10
-33.58236538202797
 20
80.9085227227941
 30
0.0
 10
-33.70985785725193
 20
80.87397484779301
 30
0.0
 10
-33.8428754176665
 20
80.81683886765808
 30
0.0
 10
-33.93588942294812
 20
80.71577859530431
 30
0.0
 10
-34.00461585978828
 20
80.64110691114297
 30
0.0
 10
-34.0518172249132
 20
80.5417984222297
 30
0.0
 10
-34.05435362545257
 20
80.42259520444219
 30
0.0
 10
-34.0543876928479
 20
78.5432904335788
 30
0.0
 10
-34.05442176024323
 20
76.6639856627154
 30
0.0
 10
-34.05445582763856
 20
74.78468089185202
 30
0.0
  0
SPLINE
  5
81
330
1F
100
AcDbEntity
  8
Layer 01
370
    -3
100
AcDbSpline
210
0.0
220
0.0
230
1.0
 70
    12
 71
     3
 72
    69
 73
    65
 74
     0
 42
0.000000001
 43
0.0000000001
 40
0.0
 40
0.0
 40
0.0
 40
0.0
 40
1.0
 40
1.0
 40
1.0
 40
2.0
 40
2.0
 40
2.0
 40
3.0
 40
3.0
 40
4.0
 40
4.0
 40
4.0
 40
5.0
 40
5.0
 40
6.0
 40
6.0
 40
7.0
 40
7.0
 40
8.0
 40
8.0
 40
9.0
 40
9.0
 40
10.0
 40
10.0
 40
10.0
 40
11.0
 40
11.0
 40
12.0
 40
12.0
 40
12.0
 40
40.76809551780453
 40
40.76809551780453
 40
40.76809551780453
 40
41.76809551780453
 40
41.76809551780453
 40
42.76809551780453
 40
42.76809551780453
 40
42.76809551780453
 40
43.76809551780453
 40
43.76809551780453
 40
44.76809551780453
 40
44.76809551780453
 40
45.76809551780453
 40
45.76809551780453
 40
46.76809551780453
 40
46.76809551780453
 40
47.76809551780453
 40
47.76809551780453
 40
48.76809551780453
 40
48.76809551780453
 40
49.76809551780453
 40
49.76809551780453
 40
49.76809551780453
 40
50.76809551780453
 40
50.76809551780453
 40
50.76809551780453
 40
50.91729435418198
 40
50.91729435418198
 40
50.91729435418198
 40
51.35200101479114
 40
51.35200101479114
 40
51.35200101479114
 40
54.8216119762591
 40
54.8216119762591
 40
54.8216119762591
 40
54.8216119762591
 10
-0.0000128280302274
 20
74.30671311596005
 30
0.0
 41
1.0
 10
-0.0000083109165416
 20
70.92241025871554
 30
0.0
 41
1.0
 10
-0.0000037938028557
 20
67.53810740147102
 30
0.0
 41
1.0
 10
0.0000007233108301
 20
64.1538045442265
 30
0.0
 41
1.0
 10
0.0000052404895623
 20
60.76950177023294
 30
0.0
 41
1.0
 10
-0.0000147325946673
 20
57.38519815934671
 30
0.0
 41
1.0
 10
-0.0000591959418568
 20
54.00089371156778
 30
0.0
 41
1.0
 10
-0.000848207204641
 20
53.72819102006454
 30
0.0
 41
1.0
 10
-0.0012445416308573
 20
53.45549019315128
 30
0.0
 41
1.0
 10
-0.0012518568101552
 20
52.91009226850468
 30
0.0
 41
1.0
 10
0.0005739104888671
 20
52.63739606385136
 30
0.0
 41
1.0
 10
0.0042291026765611
 20
52.364702616868
 30
0.0
 41
1.0
 10
0.007884294864255
 20
52.09200916988465
 30
0.0
 41
1.0
 10
0.0011682165402838
 20
51.81933797353844
 30
0.0
 41
1.0
 10
-0.0330064811309936
 20
51.27404008212032
 30
0.0
 41
1.0
 10
-0.0767050432122391
 20
51.00530522727171
 30
0.0
 41
1.0
 10
-0.2173245938659401
 20
50.47566369929539
 30
0.0
 41
1.0
 10
-0.3274037809327845
 20
50.22691360930738
 30
0.0
 41
1.0
 10
-0.6271009785464576
 20
49.76155477733162
 30
0.0
 41
1.0
 10
-0.8219820874950079
 20
49.57616542458811
 30
0.0
 41
1.0
 10
-1.301809325675539
 20
49.29996684558986
 30
0.0
 41
1.0
 10
-1.557639188930329
 20
49.21081655675368
 30
0.0
 41
1.0
 10
-2.101131403768961
 20
49.13041398040724
 30
0.0
 41
1.0
 10
-2.373388231350455
 20
49.11518521966696
 30
0.0
 41
1.0
 10
-2.646155779094126
 20
49.12492898635958
 30
0.0
 41
1.0
 10
-2.918923326837798
 20
49.13467275305221
 30
0.0
 41
1.0
 10
-3.191640196922642
 20
49.13951659088945
 30
0.0
 41
1.0
 10
-3.736972581774678
 20
49.13940440885313
 30
0.0
 41
1.0
 10
-4.009716787970485
 20
49.13844472493375
 30
0.0
 41
1.0
 10
-4.28253900793608
 20
49.13658144811311
 30
0.0
 41
1.0
 10
-17.79329381201747
 20
49.13650278510056
 30
0.0
 41
1.0
 10
-27.38276863046503
 20
49.13642412208801
 30
0.0
 41
1.0
 10
-33.03890513363779
 20
49.13634545907544
 30
0.0
 41
1.0
 10
-33.29484535925803
 20
49.13745858711749
 30
0.0
 41
1.0
 10
-33.55073178724068
 20
49.13845297032626
 30
0.0
 41
1.0
 10
-34.06239704793077
 20
49.14020424707734
 30
0.0
 41
1.0
 10
-34.31822455825328
 20
49.13661013889688
 30
0.0
 41
1.0
 10
-34.57404694855322
 20
49.12854628416042
 30
0.0
 41
1.0
 10
-34.82986933885317
 20
49.12048242942397
 30
0.0
 41
1.0
 10
-35.08560023854317
 20
49.12669119934639
 30
0.0
 41
1.0
 10
-35.59687905670329
 20
49.16765398850897
 30
0.0
 41
1.0
 10
-35.84648137522949
 20
49.22283601156331
 30
0.0
 41
1.0
 10
-36.33361183117415
 20
49.40260131461809
 30
0.0
 41
1.0
 10
-36.54115953939797
 20
49.54551600853733
 30
0.0
 41
1.0
 10
-36.88421991634861
 20
49.93740948115948
 30
0.0
 41
1.0
 10
-37.00967143582853
 20
50.15841794603775
 30
0.0
 41
1.0
 10
-37.16841713679759
 20
50.65055833292868
 30
0.0
 41
1.0
 10
-37.20919075893595
 20
50.90209199256632
 30
0.0
 41
1.0
 10
-37.21353954652028
 20
51.41608624422605
 30
0.0
 41
1.0
 10
-37.1972259391508
 20
51.67138312886079
 30
0.0
 41
1.0
 10
-37.12762272208856
 20
52.17857641574005
 30
0.0
 41
1.0
 10
-37.0881774316676
 20
52.43138171619514
 30
0.0
 41
1.0
 10
-37.04408845935681
 20
52.68339567366571
 30
0.0
 41
1.0
 10
-36.99999948704601
 20
52.93540963113628
 30
0.0
 41
1.0
 10
-36.95857421711656
 20
53.18786511810288
 30
0.0
 41
1.0
 10
-36.91981264956848
 20
53.44076213456549
 30
0.0
 41
1.0
 10
-36.91216129847132
 20
53.4899024031604
 30
0.0
 41
0.9999999700748893
 10
-36.90452467138616
 20
53.53904496208799
 30
0.0
 41
0.9999999700748893
 10
-36.89690276899857
 20
53.58818980693648
 30
0.0
 41
1.0
 10
-36.8746764464717
 20
53.73140889919199
 30
0.0
 41
1.0
 10
-36.85247174094379
 20
53.87449759083445
 30
0.0
 41
1.0
 10
-36.82979603977784
 20
54.01760752458213
 30
0.0
 41
1.0
 10
-36.64880994397221
 20
55.15983937842606
 30
0.0
 41
1.0
 10
-36.46782384816657
 20
56.30207123226998
 30
0.0
 41
1.0
 10
-36.28683775236094
 20
57.44430308611391
 30
0.0
 41
1.0
  0
SPLINE
  5
82
330
1F
100
AcDbEntity
  8
Layer 01
370
    -3
100
AcDbSpline
210
0.0
220
0.0
230
1.0
 70
     8
 71
     3
 72
    60
 73
    56
 74
     0
 42
0.000000001
 43
0.0000000001
 40
-3398.533251796977
 40
-3398.533251796977
 40
-3398.533251796977
 40
-3398.533251796977
 40
-3367.822240491563
 40
-3367.822240491563
 40
-3367.822240491563
 40
-3366.822240491563
 40
-3366.822240491563
 40
-3365.822240491563
 40
-3365.822240491563
 40
-3364.822240491563
 40
-3364.822240491563
 40
-3363.822240491563
 40
-3363.822240491563
 40
-3362.822240491563
 40
-3362.822240491563
 40
-3361.822240491563
 40
-3361.822240491563
 40
-3361.822240491563
 40
-3339.624588344059
 40
-3339.624588344059
 40
-3339.624588344059
 40
-3339.292461924704
 40
-3339.292461924704
 40
-3339.292461924704
 40
-3338.769568563172
 40
-3338.769568563172
 40
-3338.769568563172
 40
-3338.156187165414
 40
-3338.156187165414
 40
-3338.156187165414
 40
-3337.156187165414
 40
-3337.156187165414
 40
-3336.156187165414
 40
-3336.156187165414
 40
-3336.156187165414
 40
-3335.156187165414
 40
-3335.156187165414
 40
-3334.156187165414
 40
-3334.156187165414
 40
-3334.156187165414
 40
-3333.156187165414
 40
-3333.156187165414
 40
-3332.156187165414
 40
-3332.156187165414
 40
-3332.156187165414
 40
-3331.543194918559
 40
-3331.543194918559
 40
-3331.543194918559
 40
-3331.01984290797
 40
-3331.01984290797
 40
-3331.01984290797
 40
-3330.662000337857
 40
-3330.662000337857
 40
-3330.662000337857
 40
-3324.822973284544
 40
-3324.822973284544
 40
-3324.822973284544
 40
-3324.822973284544
 10
31.2842651554063
 20
73.79668005335598
 30
0.0
 10
21.05128083014859
 20
73.79668005335598
 30
0.0
 10
10.81829650489088
 20
73.79668005335598
 30
0.0
 10
0.5853121796331688
 20
73.79668005335598
 30
0.0
 10
0.5409937549197625
 20
73.80612805312816
 30
0.0
 10
0.4972310573056928
 20
73.8177165650888
 30
0.0
 10
0.410817116276232
 20
73.84517461338699
 30
0.0
 10
0.3688205691939466
 20
73.86201347764528
 30
0.0
 10
0.2872483218942667
 20
73.90191088638012
 30
0.0
 10
0.2489458344733668
 20
73.9259241080512
 30
0.0
 10
0.1773081320894407
 20
73.98207958600068
 30
0.0
 10
0.1460061702224973
 20
74.01457965958565
 30
0.0
 10
0.0924360251386513
 20
74.088424475976
 30
0.0
 10
0.0718682311815275
 20
74.12855541131042
 30
0.0
 10
0.0431672004368813
 20
74.21523433625782
 30
0.0
 10
0.0359979905456806
 20
74.2599582993784
 30
0.0
 10
0.0360100861356027
 20
74.30606676314581
 30
0.0
 10
0.0362345840407889
 20
76.35485723893542
 30
0.0
 10
0.0364590819459747
 20
78.40364771472504
 30
0.0
 10
0.0366835798511609
 20
80.45243819051467
 30
0.0
 10
0.0455777704446714
 20
80.55606729632427
 30
0.0
 10
0.0908244193804872
 20
80.6465269200852
 30
0.0
 10
0.1546362830129109
 20
80.71583361381575
 30
0.0
 10
0.2476428394917658
 20
80.81684895105687
 30
0.0
 10
0.3805143579247865
 20
80.87395592267077
 30
0.0
 10
0.5079824514980569
 20
80.90850419239926
 30
0.0
 10
0.6701660025085996
 20
80.9524615538751
 30
0.0
 10
0.8585762696147068
 20
80.97256366593648
 30
0.0
 10
1.064231116037226
 20
80.98169278838236
 30
0.0
 10
2.827065227783691
 20
81.05437467327202
 30
0.0
 10
4.602660345878791
 20
81.09490999560411
 30
0.0
 10
8.155255935484313
 20
81.1116875151531
 30
0.0
 10
9.931492573309667
 20
81.1135977104944
 30
0.0
 10
11.7076680541576
 20
81.10902934140253
 30
0.0
 10
13.48384353500554
 20
81.10446097231068
 30
0.0
 10
15.26003181805408
 20
81.10214486168013
 30
0.0
 10
18.81243398855236
 20
81.10201715734165
 30
0.0
 10
20.58862236544675
 20
81.10432710110663
 30
0.0
 10
22.36479803398636
 20
81.10901084080584
 30
0.0
 10
24.14097370252598
 20
81.11369458050504
 30
0.0
 10
25.91720967445367
 20
81.1118030099165
 30
0.0
 10
29.46980222508519
 20
81.09486924816383
 30
0.0
 10
31.24643929334669
 20
81.05437252619143
 30
0.0
 10
33.02341715455393
 20
80.98184596312294
 30
0.0
 10
33.23195179759514
 20
80.97255814033439
 30
0.0
 10
33.42040107764441
 20
80.9524117643446
 30
0.0
 10
33.58236538202797
 20
80.9085227227941
 30
0.0
 10
33.70985785725193
 20
80.87397484779301
 30
0.0
 10
33.8428754176665
 20
80.81683886765808
 30
0.0
 10
33.93588942294812
 20
80.71577859530431
 30
0.0
 10
34.00461585978828
 20
80.64110691114297
 30
0.0
 10
34.0518172249132
 20
80.5417984222297
 30
0.0
 10
34.05435362545257
 20
80.42259520444219
 30
0.0
 10
34.0543876928479
 20
78.5432904335788
 30
0.0
 10
34.05442176024323
 20
76.6639856627154
 30
0.0
 10
34.05445582763856
 20
74.78468089185202
 30
0.0
  0
SPLINE
  5
83
330
1F
100
AcDbEntity
  8
Layer 01
370
    -3
100
AcDbSpline
210
0.0
220
0.0
230
1.0
 70
    12
 71
     3
 72
    69
 73
    65
 74
     0
 42
0.000000001
 43
0.0000000001
 40
0.0
 40
0.0
 40
0.0
 40
0.0
 40
1.0
 40
1.0
 40
1.0
 40
2.0
 40
2.0
 40
2.0
 40
3.0
 40
3.0
 40
4.0
 40
4.0
 40
4.0
 40
5.0
 40
5.0
 40
6.0
 40
6.0
 40
7.0
 40
7.0
 40
8.0
 40
8.0
 40
9.0
 40
9.0
 40
10.0
 40
10.0
 40
10.0
 40
11.0
 40
11.0
 40
12.0
 40
12.0
 40
12.0
 40
40.76809551780453
 40
40.76809551780453
 40
40.76809551780453
 40
41.76809551780453
 40
41.76809551780453
 40
42.76809551780453
 40
42.76809551780453
 40
42.76809551780453
 40
43.76809551780453
 40
43.76809551780453
 40
44.76809551780453
 40
44.76809551780453
 40
45.76809551780453
 40
45.76809551780453
 40
46.76809551780453
 40
46.76809551780453
 40
47.76809551780453
 40
47.76809551780453
 40
48.76809551780453
 40
48.76809551780453
 40
49.76809551780453
 40
49.76809551780453
 40
49.76809551780453
 40
50.76809551780453
 40
50.76809551780453
 40
50.76809551780453
 40
50.91729435418198
 40
50.91729435418198
 40
50.91729435418198
 40
51.35200101479114
 40
51.35200101479114
 40
51.35200101479114
 40
54.8216119762591
 40
54.8216119762591
 40
54.8216119762591
 40
54.8216119762591
 10
0.0000128280302274
 20
74.30671311596005
 30
0.0
 41
1.0
 10
0.0000083109165416
 20
70.92241025871554
 30
0.0
 41
1.0
 10
0.0000037938028557
 20
67.53810740147102
 30
0.0
 41
1.0
 10
-0.0000007233108301
 20
64.1538045442265
 30
0.0
 41
1.0
 10
-0.0000052404895623
 20
60.76950177023294
 30
0.0
 41
1.0
 10
0.0000147325946673
 20
57.38519815934671
 30
0.0
 41
1.0
 10
0.0000591959418568
 20
54.00089371156778
 30
0.0
 41
1.0
 10
0.000848207204641
 20
53.72819102006454
 30
0.0
 41
1.0
 10
0.0012445416308573
 20
53.45549019315128
 30
0.0
 41
1.0
 10
0.0012518568101552
 20
52.91009226850468
 30
0.0
 41
1.0
 10
-0.0005739104888671
 20
52.63739606385136
 30
0.0
 41
1.0
 10
-0.0042291026765611
 20
52.364702616868
 30
0.0
 41
1.0
 10
-0.007884294864255
 20
52.09200916988465
 30
0.0
 41
1.0
 10
-0.0011682165402838
 20
51.81933797353844
 30
0.0
 41
1.0
 10
0.0330064811309936
 20
51.27404008212032
 30
0.0
 41
1.0
 10
0.0767050432122391
 20
51.00530522727171
 30
0.0
 41
1.0
 10
0.2173245938659401
 20
50.47566369929539
 30
0.0
 41
1.0
 10
0.3274037809327845
 20
50.22691360930738
 30
0.0
 41
1.0
 10
0.6271009785464576
 20
49.76155477733162
 30
0.0
 41
1.0
 10
0.8219820874950079
 20
49.57616542458811
 30
0.0
 41
1.0
 10
1.301809325675539
 20
49.29996684558986
 30
0.0
 41
1.0
 10
1.557639188930329
 20
49.21081655675368
 30
0.0
 41
1.0
 10
2.101131403768961
 20
49.13041398040724
 30
0.0
 41
1.0
 10
2.373388231350455
 20
49.11518521966696
 30
0.0
 41
1.0
 10
2.646155779094126
 20
49.12492898635958
 30
0.0
 41
1.0
 10
2.918923326837798
 20
49.13467275305221
 30
0.0
 41
1.0
 10
3.191640196922642
 20
49.13951659088945
 30
0.0
 41
1.0
 10
3.736972581774678
 20
49.13940440885313
 30
0.0
 41
1.0
 10
4.009716787970485
 20
49.13844472493375
 30
0.0
 41
1.0
 10
4.28253900793608
 20
49.13658144811311
 30
0.0
 41
1.0
 10
17.79329381201747
 20
49.13650278510056
 30
0.0
 41
1.0
 10
27.38276863046503
 20
49.13642412208801
 30
0.0
 41
1.0
 10
33.03890513363779
 20
49.13634545907544
 30
0.0
 41
1.0
 10
33.29484535925803
 20
49.13745858711749
 30
0.0
 41
1.0
 10
33.55073178724068
 20
49.13845297032626
 30
0.0
 41
1.0
 10
34.06239704793077
 20
49.14020424707734
 30
0.0
 41
1.0
 10
34.31822455825328
 20
49.13661013889688
 30
0.0
 41
1.0
 10
34.57404694855322
 20
49.12854628416042
 30
0.0
 41
1.0
 10
34.82986933885317
 20
49.12048242942397
 30
0.0
 41
1.0
 10
35.08560023854317
 20
49.12669119934639
 30
0.0
 41
1.0
 10
35.59687905670329
 20
49.16765398850897
 30
0.0
 41
1.0
 10
35.84648137522949
 20
49.22283601156331
 30
0.0
 41
1.0
 10
36.33361183117415
 20
49.40260131461809
 30
0.0
 41
1.0
 10
36.54115953939797
 20
49.54551600853733
 30
0.0
 41
1.0
 10
36.88421991634861
 20
49.93740948115948
 30
0.0
 41
1.0
 10
37.00967143582853
 20
50.15841794603775
 30
0.0
 41
1.0
 10
37.16841713679759
 20
50.65055833292868
 30
0.0
 41
1.0
 10
37.20919075893595
 20
50.90209199256632
 30
0.0
 41
1.0
 10
37.21353954652028
 20
51.41608624422605
 30
0.0
 41
1.0
 10
37.1972259391508
 20
51.67138312886079
 30
0.0
 41
1.0
 10
37.12762272208856
 20
52.17857641574005
 30
0.0
 41
1.0
 10
37.0881774316676
 20
52.43138171619514
 30
0.0
 41
1.0
 10
37.04408845935681
 20
52.68339567366571
 30
0.0
 41
1.0
 10
36.99999948704601
 20
52.93540963113628
 30
0.0
 41
1.0
 10
36.95857421711656
 20
53.18786511810288
 30
0.0
 41
1.0
 10
36.91981264956848
 20
53.44076213456549
 30
0.0
 41
1.0
 10
36.91216129847132
 20
53.4899024031604
 30
0.0
 41
0.9999999700748893
 10
36.90452467138616
 20
53.53904496208799
 30
0.0
 41
0.9999999700748893
 10
36.89690276899857
 20
53.58818980693648
 30
0.0
 41
1.0
 10
36.8746764464717
 20
53.73140889919199
 30
0.0
 41
1.0
 10
36.85247174094379
 20
53.87449759083445
 30
0.0
 41
1.0
 10
36.82979603977784
 20
54.01760752458213
 30
0.0
 41
1.0
 10
36.64880994397221
 20
55.15983937842606
 30
0.0
 41
1.0
 10
36.46782384816657
 20
56.30207123226998
 30
0.0
 41
1.0
 10
36.28683775236094
 20
57.44430308611391
 30
0.0
 41
1.0
  0
SPLINE
  5
84
330
1F
100
AcDbEntity
  8
Layer 01
370
    -3
100
AcDbSpline
210
0.0
220
0.0
230
1.0
 70
     8
 71
     3
 72
   135
 73
   131
 74
     0
 42
0.000000001
 43
0.0000000001
 40
0.0
 40
0.0
 40
0.0
 40
0.0
 40
1.000000705311531
 40
1.000000705311531
 40
2.000001410623062
 40
2.000001410623062
 40
3.000002115934593
 40
3.000002115934593
 40
3.000002115934593
 40
4.000002821246124
 40
4.000002821246124
 40
4.000002821246124
 40
5.0
 40
5.0
 40
5.0
 40
5.567148270540656
 40
5.567148270540656
 40
6.567148270540656
 40
6.567148270540656
 40
6.567148270540656
 40
7.567148270540656
 40
7.567148270540656
 40
7.567148270540656
 40
8.567148270540656
 40
8.567148270540656
 40
8.567148270540656
 40
9.567148270540656
 40
9.567148270540656
 40
10.56714827054066
 40
10.56714827054066
 40
10.56714827054066
 40
11.56714827054066
 40
11.56714827054066
 40
11.56714827054066
 40
12.5671460230017
 40
12.5671460230017
 40
13.56714627272825
 40
13.56714627272825
 40
14.5671465224548
 40
14.5671465224548
 40
15.56714677218135
 40
15.56714677218135
 40
16.5671470219079
 40
16.5671470219079
 40
17.56714727163445
 40
17.56714727163445
 40
18.567147521361
 40
18.567147521361
 40
19.56714777108755
 40
19.56714777108755
 40
20.56714802081411
 40
20.56714802081411
 40
21.56714827054066
 40
21.56714827054066
 40
21.56714827054066
 40
22.56714827054066
 40
22.56714827054066
 40
22.56714827054066
 40
23.56714827054066
 40
23.56714827054066
 40
23.56714827054066
 40
24.56714827054066
 40
24.56714827054066
 40
24.56714827054066
 40
25.56714827054066
 40
25.56714827054066
 40
25.56714827054066
 40
26.56714827054066
 40
26.56714827054066
 40
26.56714827054066
 40
27.56714827054066
 40
27.56714827054066
 40
27.56714827054066
 40
28.56714827054066
 40
28.56714827054066
 40
28.56714827054066
 40
29.56714827054066
 40
29.56714827054066
 40
29.56714827054066
 40
30.56714852026721
 40
30.56714852026721
 40
31.56714876999376
 40
31.56714876999376
 40
32.5671490197203
 40
32.5671490197203
 40
33.56714926944686
 40
33.56714926944686
 40
34.56714951917341
 40
34.56714951917341
 40
35.56714976889996
 40
35.56714976889996
 40
36.56715001862651
 40
36.56715001862651
 40
37.56715026835306
 40
37.56715026835306
 40
38.56715051807961
 40
38.56715051807961
 40
39.56714827054066
 40
39.56714827054066
 40
39.56714827054066
 40
40.56714827054066
 40
40.56714827054066
 40
40.56714827054066
 40
41.56714827054066
 40
41.56714827054066
 40
42.56714827054066
 40
42.56714827054066
 40
42.56714827054066
 40
43.56714827054066
 40
43.56714827054066
 40
43.56714827054066
 40
44.56714827054066
 40
44.56714827054066
 40
44.56714827054066
 40
45.56714827054066
 40
45.56714827054066
 40
46.13429654108131
 40
46.13429654108131
 40
46.13429654108131
 40
47.13429371983519
 40
47.13429371983519
 40
47.13429371983519
 40
48.13429442514672
 40
48.13429442514672
 40
48.13429442514672
 40
49.13429513045826
 40
49.13429513045826
 40
50.13429583576978
 40
50.13429583576978
 40
51.13429654108131
 40
51.13429654108131
 40
51.13429654108131
 40
51.13429654108131
 10
-36.92453281211376
 20
53.41049269079938
 30
0.0
 10
-37.04330057979799
 20
53.21280640794649
 30
0.0
 10
-37.19587900256747
 20
53.04625937355257
 30
0.0
 10
-37.56865715827694
 20
52.77544380168263
 30
0.0
 10
-37.77415437633558
 20
52.68469431862903
 30
0.0
 10
-38.22336509286066
 20
52.59251195828465
 30
0.0
 10
-38.44932824741262
 20
52.56440336560622
 30
0.0
 10
-38.67664919825398
 20
52.55427736042154
 30
0.0
 10
-38.90397014909533
 20
52.54415135523687
 30
0.0
 10
-39.12980736966621
 20
52.52003284828245
 30
0.0
 10
-39.35416085996657
 20
52.48192183955828
 30
0.0
 10
-39.57851355907196
 20
52.44381096523469
 30
0.0
 10
-39.80364380014341
 20
52.41198387980597
 30
0.0
 10
-40.0295515831809
 20
52.38644058327209
 30
0.0
 10
-40.17922375105064
 20
52.37049982142922
 30
0.0
 10
-40.32936678289185
 20
52.36061057933102
 30
0.0
 10
-40.74570563293816
 20
52.35147242734482
 30
0.0
 10
-41.01126188531466
 20
52.3500887281898
 30
0.0
 10
-41.27670785559058
 20
52.35315240033937
 30
0.0
 10
-41.38089766415426
 20
52.35356343152798
 30
0.0
 10
-41.42526010418496
 20
52.41555808612867
 30
0.0
 10
-41.41498415144763
 20
52.52217194060058
 30
0.0
 10
-41.1951233031735
 20
54.80324631697485
 30
0.0
 10
-40.95305547863453
 20
57.08209571120364
 30
0.0
 10
-40.6887806778307
 20
59.35872012328693
 30
0.0
 10
-40.42450587702687
 20
61.63534453537023
 30
0.0
 10
-40.16286319626137
 20
63.91221136613787
 30
0.0
 10
-39.64484207480703
 20
68.46642986504183
 30
0.0
 10
-39.38865838368393
 20
70.74391972763726
 30
0.0
 10
-39.13530156216487
 20
73.02179020337616
 30
0.0
 10
-38.88194474064582
 20
75.29966067911505
 30
0.0
 10
-38.6068434812782
 20
77.57475936868532
 30
0.0
 10
-38.30999778406201
 20
79.84708627208695
 30
0.0
 10
-38.25609786026378
 20
80.18731731551152
 30
0.0
 10
-38.19032150165102
 20
80.52532172942297
 30
0.0
 10
-38.03501572087637
 20
81.1968781367478
 30
0.0
 10
-37.93255839182702
 20
81.5255851091352
 30
0.0
 10
-37.67803505032438
 20
82.16885575283185
 30
0.0
 10
-37.50858675391555
 20
82.46696528092406
 30
0.0
 10
-37.08531690978292
 20
83.01613274959614
 30
0.0
 10
-36.83915899403366
 20
83.25466156323016
 30
0.0
 10
-36.27779717516925
 20
83.65960934909425
 30
0.0
 10
-35.98498262163474
 20
83.84147039386812
 30
0.0
 10
-35.37508622636113
 20
84.16396678709954
 30
0.0
 10
-35.05722018044847
 20
84.29416627682753
 30
0.0
 10
-34.39565239207144
 20
84.492467842508
 30
0.0
 10
-34.05975271565146
 20
84.56719721022442
 30
0.0
 10
-33.37772179834854
 20
84.66781311540969
 30
0.0
 10
-33.03552233733523
 20
84.70631112017993
 30
0.0
 10
-32.34875541058489
 20
84.7596872340756
 30
0.0
 10
-31.99564532668028
 20
84.78407471571202
 30
0.0
 10
-31.26997191781216
 20
84.82824852836202
 30
0.0
 10
-30.91644375452159
 20
84.84457062189955
 30
0.0
 10
-30.57222413237449
 20
84.8551279026496
 30
0.0
 10
-28.03042749593537
 20
84.9330852850121
 30
0.0
 10
-25.47830703122621
 20
84.96108731797162
 30
0.0
 10
-22.91586273824699
 20
84.93913400152817
 30
0.0
 10
-20.35341844526777
 20
84.91718068508473
 30
0.0
 10
-17.80072215384383
 20
84.90719556110248
 30
0.0
 10
-15.25777386397516
 20
84.90917862958145
 30
0.0
 10
-12.71482557410649
 20
84.9111616980604
 30
0.0
 10
-10.17186726928399
 20
84.91197825566937
 30
0.0
 10
-7.628898949507643
 20
84.91162830240837
 30
0.0
 10
-5.085930629731298
 20
84.91127834914738
 30
0.0
 10
-2.54296431322875
 20
84.91116169806038
 30
0.0
 10
0.0
 20
84.91127834914738
 30
0.0
 10
2.54296431322875
 20
84.91116169806038
 30
0.0
 10
5.085930629731298
 20
84.91127834914738
 30
0.0
 10
7.628898949507644
 20
84.91162830240836
 30
0.0
 10
10.17186726928399
 20
84.91197825566935
 30
0.0
 10
12.7148255741065
 20
84.91116169806038
 30
0.0
 10
15.25777386397516
 20
84.90917862958145
 30
0.0
 10
17.80072215384383
 20
84.90719556110251
 30
0.0
 10
20.35341844526777
 20
84.91718068508474
 30
0.0
 10
22.91586273824699
 20
84.93913400152817
 30
0.0
 10
25.47830703122621
 20
84.9610873179716
 30
0.0
 10
28.03042749593537
 20
84.9330852850121
 30
0.0
 10
30.57222413237449
 20
84.8551279026496
 30
0.0
 10
30.91644375452159
 20
84.84457062189956
 30
0.0
 10
31.26997191781215
 20
84.82824852836204
 30
0.0
 10
31.99564532668028
 20
84.78407471571201
 30
0.0
 10
32.34875541058489
 20
84.7596872340756
 30
0.0
 10
33.03552233733524
 20
84.70631112017993
 30
0.0
 10
33.37772179834855
 20
84.66781311540969
 30
0.0
 10
34.05975271565145
 20
84.56719721022442
 30
0.0
 10
34.39565239207144
 20
84.49246784250799
 30
0.0
 10
35.05722018044847
 20
84.29416627682754
 30
0.0
 10
35.37508622636113
 20
84.16396678709955
 30
0.0
 10
35.98498262163474
 20
83.84147039386812
 30
0.0
 10
36.27779717516925
 20
83.65960934909425
 30
0.0
 10
36.83915899403366
 20
83.25466156323016
 30
0.0
 10
37.08531690978292
 20
83.01613274959612
 30
0.0
 10
37.50858675391555
 20
82.46696528092406
 30
0.0
 10
37.67803505032437
 20
82.16885575283186
 30
0.0
 10
37.93255839182703
 20
81.52558510913519
 30
0.0
 10
38.03501572087637
 20
81.1968781367478
 30
0.0
 10
38.19032150165101
 20
80.52532172942298
 30
0.0
 10
38.25609786026378
 20
80.18731731551152
 30
0.0
 10
38.30999778406201
 20
79.84708627208695
 30
0.0
 10
38.6068434812782
 20
77.57475936868532
 30
0.0
 10
38.88194474064583
 20
75.29966067911506
 30
0.0
 10
39.13530156216488
 20
73.02179020337616
 30
0.0
 10
39.38865838368393
 20
70.74391972763725
 30
0.0
 10
39.64484207480704
 20
68.46642986504183
 30
0.0
 10
40.16286319626136
 20
63.91221136613787
 30
0.0
 10
40.42450587702687
 20
61.63534453537023
 30
0.0
 10
40.6887806778307
 20
59.35872012328693
 30
0.0
 10
40.95305547863453
 20
57.08209571120364
 30
0.0
 10
41.1951233031735
 20
54.80324631697486
 30
0.0
 10
41.41498415144763
 20
52.52217194060058
 30
0.0
 10
41.42526010418496
 20
52.41555808612867
 30
0.0
 10
41.38089766415426
 20
52.35356343152798
 30
0.0
 10
41.27670785559058
 20
52.35315240033937
 30
0.0
 10
41.01126188531466
 20
52.3500887281898
 30
0.0
 10
40.74570563293815
 20
52.35147242734482
 30
0.0
 10
40.32936678289186
 20
52.36061057933101
 30
0.0
 10
40.17922375105064
 20
52.37049982142922
 30
0.0
 10
40.0295515831809
 20
52.3864405832721
 30
0.0
 10
39.80364380014342
 20
52.41198387980597
 30
0.0
 10
39.57851355907197
 20
52.44381096523469
 30
0.0
 10
39.35416085996656
 20
52.48192183955828
 30
0.0
 10
39.12980736966619
 20
52.52003284828245
 30
0.0
 10
38.90397014909534
 20
52.54415135523687
 30
0.0
 10
38.67664919825398
 20
52.55427736042154
 30
0.0
 10
38.44932824741261
 20
52.56440336560621
 30
0.0
 10
38.22336509286066
 20
52.59251195828465
 30
0.0
 10
37.77415437633558
 20
52.68469431862903
 30
0.0
 10
37.56865715827694
 20
52.77544380168263
 30
0.0
 10
37.19587900256747
 20
53.04625937355257
 30
0.0
 10
37.04330057979799
 20
53.21280640794649
 30
0.0
 10
36.92453281211376
 20
53.41049269079938
 30
0.0
  0
LINE
  5
85
330
1F
100
AcDbEntity
  8
Layer 01
100
AcDbLine
 10
61.28219369548378
 20
29.36769612796679
 30
0.0
 11
63.06475385855097
 21
22.94561162499962
 31
0.0
  0
LINE
  5
86
330
1F
100
AcDbEntity
  8
Layer 01
100
AcDbLine
 10
63.87193883323744
 20
30.08734121274212
 30
0.0
 11
65.85945928124971
 21
22.9268399668557
 31
0.0
  0
SPLINE
  5
87
330
1F
100
AcDbEntity
  8
Layer 01
370
    -3
100
AcDbSpline
210
0.0
220
0.0
230
1.0
 70
    12
 71
     3
 72
    25
 73
    21
 74
     0
 42
0.000000001
 43
0.0000000001
 40
-3.136874573836996
 40
-3.136874573836996
 40
-3.136874573836996
 40
-3.136874573836996
 40
-0.0010398074830542
 40
-0.0010398074830542
 40
-0.0010398074830542
 40
0.6515389151311903
 40
1.285059157330669
 40
1.285059157330669
 40
1.285059157330669
 40
2.221527517828212
 40
8.901288607977122
 40
15.58105692285874
 40
16.28314306198926
 40
16.28314306198926
 40
16.28314306198926
 40
16.91666330418873
 40
17.56924202680299
 40
17.56924202680299
 40
17.56924202680299
 40
21.87803798511278
 40
21.87803798511278
 40
21.87803798511278
 40
21.87803798511278
 10
67.52119600902239
 20
22.92191007991401
 30
0.0
 41
1.0
 10
67.38526440104005
 20
23.89153184732266
 30
0.0
 41
1.0
 10
67.24806304370732
 20
24.86215072188588
 30
0.0
 41
1.000000000000001
 10
67.10998907081006
 20
25.83402879887052
 30
0.0
 41
1.000000000000001
 10
67.08205171816337
 20
26.03786516820701
 30
0.0
 41
1.000000000000001
 10
67.20844630218504
 20
26.44893019853828
 30
0.0
 41
1.0
 10
67.6096786388268
 20
26.64200523515711
 30
0.0
 41
1.000000000000002
 10
67.8180876077081
 20
26.65450399231058
 30
0.0
 41
1.000000000000001
 10
68.12364232631494
 20
26.67545474125245
 30
0.0
 41
1.000000000000001
 10
70.60921805648348
 20
26.84633612683215
 30
0.0
 41
1.0
 10
75.28155427798549
 20
27.16595087135389
 30
0.0
 41
1.000000000000001
 10
79.8854607280773
 20
27.46567370417238
 30
0.0
 41
1.000000000000002
 10
82.30557281785137
 20
27.62271609752381
 30
0.0
 41
1.000000000000002
 10
82.53577871103988
 20
27.63768627259705
 30
0.0
 41
1.000000000000002
 10
82.74470824489333
 20
27.65306679691323
 30
0.0
 41
1.000000000000002
 10
83.19128988466166
 20
27.51662786478318
 30
0.0
 41
1.000000000000002
 10
83.42787500660796
 20
27.12981070833509
 30
0.0
 41
1.000000000000002
 10
83.45540130037432
 20
26.92496306290751
 30
0.0
 41
1.000000000000002
 10
83.64526036905232
 20
25.58857879240832
 30
0.0
 41
1.000000000000002
 10
83.83333349671277
 20
24.25554643310607
 30
0.0
 41
1.000000000000001
 10
84.01872885691283
 20
22.92421153219128
 30
0.0
 41
1.000000000000001
  0
SPLINE
  5
88
330
1F
100
AcDbEntity
  8
Layer 01
370
    -3
100
AcDbSpline
210
0.0
220
0.0
230
1.0
 70
    12
 71
     2
 72
    13
 73
    10
 74
     0
 42
0.000000001
 43
0.0000000001
 40
3.848783253809924
 40
3.848783253809924
 40
3.848783253809924
 40
3.957569161308947
 40
3.957569161308947
 40
4.17877976627981
 40
4.17877976627981
 40
5.052109310618194
 40
6.052109310618194
 40
7.052109310618194
 40
8.052109310618194
 40
8.052109310618194
 40
8.052109310618194
 10
61.07893732911131
 20
22.9991534154114
 30
0.0
 41
1.0
 10
60.93005593118295
 20
23.0052634975035
 30
0.0
 41
1.0
 10
60.78118413376939
 20
23.01200144940817
 30
0.0
 41
1.0
 10
60.66885367385061
 20
23.01708553685461
 30
0.0
 41
0.9756325444084553
 10
60.56951529064145
 20
23.06977202271297
 30
0.0
 41
1.0
 10
60.23809501720399
 20
23.24554868612883
 30
0.0
 41
1.0
 10
59.46579918803323
 20
23.47694150119725
 30
0.0
 41
1.0
 10
58.61103217618478
 20
23.53471334921776
 30
0.0
 41
1.0
 10
57.74194850987746
 20
23.34721621586363
 30
0.0
 41
1.0
 10
57.3680105061012
 20
22.97770700602036
 30
0.0
 41
1.0
  0
SPLINE
  5
89
330
1F
100
AcDbEntity
  8
Layer 01
370
    -3
100
AcDbSpline
210
0.0
220
0.0
230
1.0
 70
    15
 71
     2
 72
    75
 73
    72
 74
     0
 42
0.000000001
 43
0.0000000001
 40
0.0
 40
0.0
 40
0.0
 40
1.0
 40
2.0
 40
3.0
 40
4.0
 40
5.0
 40
6.0
 40
7.0
 40
8.0
 40
9.0
 40
10.0
 40
10.0
 40
10.14953567745907
 40
10.14953567745907
 40
11.14953567745907
 40
12.14953567745907
 40
13.14953567745907
 40
14.14953567745907
 40
15.14953567745907
 40
16.14953567745907
 40
17.14953567745907
 40
18.14953567745907
 40
19.14953567745907
 40
20.14953567745907
 40
20.14953567745907
 40
20.30019290250588
 40
20.30019290250588
 40
43.22882135526936
 40
43.22882135526936
 40
44.22882135526936
 40
45.22882135526936
 40
46.22882135526936
 40
47.22882135526936
 40
48.22882135526936
 40
49.22882135526936
 40
50.22882135526936
 40
51.22882135526936
 40
52.22882135526936
 40
53.22882135526936
 40
54.22882135526936
 40
55.22882135526936
 40
56.22882135526936
 40
57.22882135526936
 40
57.22882135526936
 40
58.22882135526936
 40
59.22882135526936
 40
60.22882135526936
 40
61.22882135526936
 40
61.22882135526936
 40
62.22882135526936
 40
63.22882135526936
 40
64.22882135526936
 40
65.22882135526936
 40
66.22882135526936
 40
67.22882135526936
 40
68.22882135526936
 40
69.22882135526936
 40
70.22882135526936
 40
71.22882135526936
 40
71.22882135526936
 40
72.22882135526936
 40
73.22882135526936
 40
74.22882135526936
 40
75.22882135526936
 40
75.22882135526936
 40
88.35382079950361
 40
88.35382079950361
 40
89.35382079950361
 40
90.35382079950361
 40
91.35382079950361
 40
92.20260405331354
 40
92.20260405331354
 40
92.20260405331354
 10
61.07898500307874
 20
23.00031506378311
 30
0.0
 41
1.0
 10
60.9467230336989
 20
23.29366630007662
 30
0.0
 41
1.0
 10
60.66309385704528
 20
23.8689762506029
 30
0.0
 41
1.0
 10
60.38442052141545
 20
24.44668929603909
 30
0.0
 41
1.0
 10
60.11042043776166
 20
25.02664971421235
 30
0.0
 41
1.0
 10
59.83638188983201
 20
25.60653375947572
 30
0.0
 41
1.0
 10
59.55959921999209
 20
26.18542923378905
 30
0.0
 41
1.0
 10
59.21165824901038
 20
26.72725497568256
 30
0.0
 41
1.0
 10
58.72817214959701
 20
27.15455584558348
 30
0.0
 41
1.0
 10
58.14665469594769
 20
27.43524217805681
 30
0.0
 41
1.0
 10
57.50285685561823
 20
27.52976345176059
 30
0.0
 41
1.0
 10
57.19682739461467
 20
27.40915703922068
 30
0.0
 41
1.0
 10
57.1175473084789
 20
27.3780164683159
 30
0.0
 41
0.8263828856525697
 10
57.11710302300418
 20
27.29259155006813
 30
0.0
 41
1.0
 10
57.12398272120362
 20
26.1586576673395
 30
0.0
 41
1.0
 10
57.24049877144091
 20
23.89359121051744
 30
0.0
 41
1.0
 10
57.50683850363873
 20
21.64162472246868
 30
0.0
 41
1.0
 10
57.89093202840206
 20
19.40681030142681
 30
0.0
 41
1.0
 10
58.3142693626159
 20
17.1794990282146
 30
0.0
 41
1.0
 10
58.78993018612363
 20
14.96261536190721
 30
0.0
 41
1.0
 10
59.32168943726828
 20
12.75840986496288
 30
0.0
 41
1.0
 10
59.9154278418641
 20
10.57075577752462
 30
0.0
 41
1.0
 10
60.5775374435041
 20
8.398602783342135
 30
0.0
 41
1.0
 10
61.30452391374746
 20
6.271903947363549
 30
0.0
 41
1.0
 10
61.7110563643904
 20
5.207508558372646
 30
0.0
 41
1.0
 10
61.74263577637328
 20
5.124999272650705
 30
0.0
 41
0.8238483759148773
 10
61.82863607170214
 20
5.12499927265068
 30
0.0
 41
1.0
 10
73.2929502980839
 20
5.124999171363047
 30
0.0
 41
1.0
 10
84.75726452446565
 20
5.124999070075415
 30
0.0
 41
1.0
 10
84.94725508146092
 20
5.124991928564078
 30
0.0
 41
1.0
 10
85.32723557145766
 20
5.125722163399399
 30
0.0
 41
1.0
 10
85.70721310480218
 20
5.127408321590785
 30
0.0
 41
1.0
 10
86.08718339416185
 20
5.130329172265289
 30
0.0
 41
1.0
 10
86.4671374604448
 20
5.134900002213991
 30
0.0
 41
1.0
 10
86.84706207184405
 20
5.141598813466986
 30
0.0
 41
1.0
 10
87.22690375498814
 20
5.151892690590804
 30
0.0
 41
1.0
 10
87.60667302823771
 20
5.16480410278164
 30
0.0
 41
1.0
 10
87.98610094208152
 20
5.185525098105412
 30
0.0
 41
1.0
 10
88.36459636752716
 20
5.221140455490471
 30
0.0
 41
1.0
 10
88.73857446812548
 20
5.287739295669072
 30
0.0
 41
1.0
 10
89.10287319718304
 20
5.409882759250613
 30
0.0
 41
1.0
 10
89.37718449106745
 20
5.684455874792803
 30
0.0
 41
1.0
 10
89.45282505810604
 20
6.064562619960576
 30
0.0
 41
1.0
 10
89.44656592007567
 20
6.254361810081679
 30
0.0
 41
1.0
 10
89.47266367990301
 20
7.953264256815094
 30
0.0
 41
1.0
 10
89.56991308698093
 20
11.35004854491473
 30
0.0
 41
1.0
 10
89.66326963560232
 20
14.74694442185212
 30
0.0
 41
1.0
 10
89.70326643668926
 20
18.14498573862237
 30
0.0
 41
1.0
 10
89.67908302574568
 20
19.84400039472068
 30
0.0
 41
1.0
 10
89.67672741691638
 20
20.02264055098665
 30
0.0
 41
1.0
 10
89.67199313139884
 20
20.37992024321182
 30
0.0
 41
1.0
 10
89.66765018581015
 20
20.73720627135165
 30
0.0
 41
1.0
 10
89.66412114485433
 20
21.09449415257514
 30
0.0
 41
1.0
 10
89.65752756152386
 20
21.45178972933986
 30
0.0
 41
1.0
 10
89.63012261068303
 20
21.80824007883892
 30
0.0
 41
1.0
 10
89.56386909514362
 20
22.15994167072423
 30
0.0
 41
1.0
 10
89.43243968158583
 20
22.49461153286005
 30
0.0
 41
1.0
 10
89.18683273292044
 20
22.76378073925048
 30
0.0
 41
1.0
 10
88.83813590364798
 20
22.86436547085041
 30
0.0
 41
1.0
 10
88.65371721856025
 20
22.86977537679463
 30
0.0
 41
1.0
 10
88.16029868360403
 20
22.88753074189519
 30
0.0
 41
1.0
 10
87.18411615476714
 20
22.91352667816349
 30
0.0
 41
1.0
 10
86.20751639795799
 20
22.91626893369657
 30
0.0
 41
1.0
 10
85.23098501622087
 20
22.9228368058458
 30
0.0
 41
1.0
 10
84.7427017793845
 20
22.92221796676868
 30
0.0
 41
1.0
 10
78.1802020572899
 20
22.92220077687934
 30
0.0
 41
1.0
 10
71.6177023351953
 20
22.92218358698999
 30
0.0
 41
1.0
 10
70.24855673533378
 20
22.92139037967326
 30
0.0
 41
1.0
 10
67.51024831045243
 20
22.92052424076761
 30
0.0
 41
1.0
 10
64.77202559316967
 20
22.93089596401967
 30
0.0
 41
1.0
 10
62.2405587217217
 20
22.9514805552183
 30
0.0
 41
1.0
 10
61.07898500307874
 20
23.00031506378311
 30
0.0
 41
1.0
  0
SPLINE
  5
8A
330
1F
100
AcDbEntity
  8
Layer 01
370
    -3
100
AcDbSpline
210
0.0
220
0.0
230
1.0
 70
     8
 71
     3
 72
     8
 73
     4
 74
     0
 42
0.000000001
 43
0.0000000001
 40
1.277392689630241
 40
1.277392689630241
 40
1.277392689630241
 40
1.277392689630241
 40
1.283143176259052
 40
1.283143176259052
 40
1.283143176259052
 40
1.283143176259052
 10
91.96802211247916
 20
15.75919944567937
 30
0.0
 10
91.96882953099049
 20
15.75879407981809
 30
0.0
 10
91.96964067325757
 20
15.75838386168891
 30
0.0
 10
91.97045543838556
 20
15.75796871812083
 30
0.0
  0
SPLINE
  5
8B
330
1F
100
AcDbEntity
  8
Layer 01
370
    -3
100
AcDbSpline
210
0.0
220
0.0
230
1.0
 70
     8
 71
     3
 72
    11
 73
     7
 74
     0
 42
0.000000001
 43
0.0000000001
 40
0.3104244740719413
 40
0.3104244740719413
 40
0.3104244740719413
 40
0.3104244740719413
 40
0.3178483463389734
 40
0.3178483463389734
 40
0.3178483463389734
 40
0.3186231747494122
 40
0.3186231747494122
 40
0.3186231747494122
 40
0.3186231747494122
 10
61.08252411050665
 20
22.99375507104968
 30
0.0
 10
61.08141316184475
 20
22.9962124366664
 30
0.0
 10
61.08028017246585
 20
22.99871819053449
 30
0.0
 10
61.07912444138833
 20
23.00127385972375
 30
0.0
 10
61.07909421050545
 20
23.00134070930274
 30
0.0
 10
61.07906362199014
 20
23.00140832764592
 30
0.0
 10
61.07903267704614
 20
23.00147671215482
 30
0.0
  0
SPLINE
  5
8C
330
1F
100
AcDbEntity
  8
Layer 01
370
    -3
100
AcDbSpline
210
0.0
220
0.0
230
1.0
 70
    11
 71
     2
 72
    34
 73
    31
 74
     0
 42
0.000000001
 43
0.0000000001
 40
4.125864932866482
 40
4.125864932866482
 40
4.125864932866482
 40
5.125864932866482
 40
6.125864932866482
 40
7.125864932866482
 40
8.125864932866481
 40
9.125864932866481
 40
10.12586493286648
 40
11.12586493286648
 40
12.12586493286648
 40
13.12586493286648
 40
14.12586493286648
 40
14.12586493286648
 40
15.12560050242706
 40
15.12560050242706
 40
16.12560050242706
 40
17.12560050242706
 40
18.12560050242706
 40
19.12560050242706
 40
20.12560050242706
 40
21.12560050242706
 40
22.12560050242706
 40
23.12560050242706
 40
24.12560050242706
 40
25.12560050242706
 40
25.12560050242706
 40
29.25147041697531
 40
29.25147041697531
 40
30.845701156439
 40
30.845701156439
 40
34.97156608930548
 40
34.97156608930548
 40
34.97156608930548
 10
64.09270430005697
 20
1.000001833683352
 30
0.0
 10
64.0935593550619
 20
0.9579288537818136
 30
0.0
 10
64.09584971326427
 20
0.873796517009051
 30
0.0
 10
64.09896557675842
 20
0.7896901686129967
 30
0.0
 10
64.1032731580259
 20
0.7056355442077394
 30
0.0
 10
64.1093413797185
 20
0.6216856726019638
 30
0.0
 10
64.11811325847714
 20
0.5379758789043229
 30
0.0
 10
64.13129345265997
 20
0.4547774918732204
 30
0.0
 10
64.15234419388077
 20
0.3733882543120477
 30
0.0
 10
64.18944475288117
 20
0.2957826596879867
 30
0.0
 10
64.26193794110878
 20
0.2519585314694999
 30
0.0
 10
64.30533416687382
 20
0.2508762313591824
 30
0.0
 10
64.80520195165167
 20
0.2508746696915818
 30
0.0
 10
65.30506973642952
 20
0.2508731080239812
 30
0.0
 10
65.34846596798582
 20
0.2519551368674748
 30
0.0
 10
65.42095943133126
 20
0.2957788121186052
 30
0.0
 10
65.45806047574166
 20
0.3733841780493573
 30
0.0
 10
65.47911172305453
 20
0.4547732732792961
 30
0.0
 10
65.49229243915545
 20
0.5379715881615994
 30
0.0
 10
65.50106484074479
 20
0.6216813275272542
 30
0.0
 10
65.50713358687054
 20
0.7056311603336981
 30
0.0
 10
65.51144169322146
 20
0.7896857556375529
 30
0.0
 10
65.51455808234829
 20
0.8737920884042126
 30
0.0
 10
65.51684896593582
 20
0.9579243991548085
 30
0.0
 10
65.51770428402065
 20
0.9999973817535164
 30
0.0
 10
65.56001844201957
 20
3.062498327202138
 30
0.0
 10
65.60233260001849
 20
5.12499927265076
 30
0.0
 10
64.80521723028664
 20
5.124999272650759
 30
0.0
 10
64.0081018605548
 20
5.124999272650758
 30
0.0
 10
64.05040308030588
 20
3.062500553167055
 30
0.0
 10
64.09270430005697
 20
1.000001833683352
 30
0.0
  0
SPLINE
  5
8D
330
1F
100
AcDbEntity
  8
Layer 01
370
    -3
100
AcDbSpline
210
0.0
220
0.0
230
1.0
 70
    11
 71
     2
 72
    17
 73
    14
 74
     0
 42
0.000000001
 43
0.0000000001
 40
0.0
 40
0.0
 40
0.0
 40
1.0
 40
2.0
 40
3.0
 40
4.0
 40
5.0
 40
6.0
 40
7.0
 40
8.0
 40
9.0
 40
10.0
 40
10.0
 40
10.61642907657518
 40
10.61642907657518
 40
10.61642907657518
 10
88.02971177107298
 20
0.2433563458020558
 30
0.0
 10
88.04794603084446
 20
0.2067420737560939
 30
0.0
 10
88.09581766613223
 20
0.1403968462530356
 30
0.0
 10
88.15388139737195
 20
0.0827855669295607
 30
0.0
 10
88.22027348611823
 20
0.0349632338234423
 30
0.0
 10
88.29508944089093
 20
0.0009830909612903
 30
0.0
 10
88.37819297825541
 20
0.0000482007269705
 30
0.0
 10
88.4536885265893
 20
0.0324647063952585
 30
0.0
 10
88.52045965367824
 20
0.0798161015074288
 30
0.0
 10
88.57906785792733
 20
0.1368589481927905
 30
0.0
 10
88.62755164108694
 20
0.2027612727839725
 30
0.0
 10
88.64612685601213
 20
0.2392030932461073
 30
0.0
 10
88.33791931354256
 20
0.2412797195240816
 30
0.0
 10
88.02971177107298
 20
0.2433563458020558
 30
0.0
  0
SPLINE
  5
8E
330
1F
100
AcDbEntity
  8
Layer 01
370
    -3
100
AcDbSpline
210
0.0
220
0.0
230
1.0
 70
    11
 71
     2
 72
    17
 73
    14
 74
     0
 42
0.000000001
 43
0.0000000001
 40
0.0
 40
0.0
 40
0.0
 40
1.0
 40
2.0
 40
3.0
 40
4.0
 40
5.0
 40
6.0
 40
7.0
 40
8.0
 40
9.0
 40
10.0
 40
10.0
 40
10.61642907657513
 40
10.61642907657513
 40
10.61642907657513
 10
64.49544837173335
 20
0.2433563458020558
 30
0.0
 10
64.51368263150482
 20
0.2067420737560939
 30
0.0
 10
64.56155426679254
 20
0.1403968462530356
 30
0.0
 10
64.61961799803225
 20
0.0827855669295607
 30
0.0
 10
64.68601008677857
 20
0.0349632338234423
 30
0.0
 10
64.76082604155127
 20
0.0009830909612903
 30
0.0
 10
64.84392957891578
 20
0.0000482007269705
 30
0.0
 10
64.91942512724967
 20
0.0324647063952585
 30
0.0
 10
64.98619625433858
 20
0.0798161015074288
 30
0.0
 10
65.04480445858763
 20
0.1368589481927905
 30
0.0
 10
65.09328824174727
 20
0.2027612727839725
 30
0.0
 10
65.11186345667244
 20
0.2392030932461073
 30
0.0
 10
64.80365591420289
 20
0.2412797195240816
 30
0.0
 10
64.49544837173335
 20
0.2433563458020558
 30
0.0
  0
SPLINE
  5
8F
330
1F
100
AcDbEntity
  8
Layer 01
370
    -3
100
AcDbSpline
210
0.0
220
0.0
230
1.0
 70
    15
 71
     3
 72
    69
 73
    65
 74
     0
 42
0.000000001
 43
0.0000000001
 40
29.14673741578554
 40
29.14673741578554
 40
29.14673741578554
 40
29.14673741578554
 40
31.05527791616235
 40
31.05527791616235
 40
31.05527791616235
 40
36.71447044188648
 40
42.5533503623432
 40
42.5533503623432
 40
42.5533503623432
 40
42.87819413848559
 40
42.87819413848559
 40
42.87819413848559
 40
43.33643050661988
 40
43.33643050661988
 40
43.33643050661988
 40
44.03713951400434
 40
44.03713951400434
 40
44.03713951400434
 40
44.7398714873844
 40
44.7398714873844
 40
44.7398714873844
 40
51.42075114170867
 40
51.42075114170867
 40
51.42075114170867
 40
58.1016236475628
 40
58.1016236475628
 40
58.1016236475628
 40
59.03889048415691
 40
59.03889048415691
 40
59.03889048415691
 40
59.72899166768882
 40
59.72899166768882
 40
59.72899166768882
 40
60.0523126438788
 40
60.0523126438788
 40
60.0523126438788
 40
60.45940586605062
 40
60.45940586605062
 40
60.45940586605062
 40
62.35706559073392
 40
62.35706559073392
 40
62.35706559073392
 40
67.93345465521303
 40
67.93345465521303
 40
67.93345465521303
 40
73.77307242431161
 40
73.77307242431161
 40
73.77307242431161
 40
74.08779355360956
 40
74.08779355360956
 40
74.08779355360956
 40
74.54602992174387
 40
74.54602992174387
 40
74.54602992174387
 40
75.23834045964807
 40
75.23834045964807
 40
75.23834045964807
 40
75.94042665712027
 40
82.62019497774342
 40
89.29995607235101
 40
90.23642447570771
 40
90.23642447570771
 40
90.23642447570771
 40
91.23642447570771
 40
91.23642447570771
 40
91.23642447570771
 40
91.23642447570771
 10
33.05612979215396
 20
56.63746536194571
 30
0.0
 41
0.9999999999999998
 10
33.63942996371308
 20
56.72977441109072
 30
0.0
 41
0.9999999999999998
 10
34.2227301352722
 20
56.82208346023572
 30
0.0
 41
0.9999999999999998
 10
34.80603030683132
 20
56.91439250938071
 30
0.0
 41
0.9999999999999998
 10
35.48556127982599
 20
57.15679056882519
 30
0.0
 41
1.0
 10
36.85397990231652
 20
57.64735899796504
 30
0.0
 41
0.9999999999999998
 10
38.20987409201111
 20
58.13594573353167
 30
0.0
 41
1.000000000000001
 10
38.91860999405156
 20
58.38965401943972
 30
0.0
 41
1.000000000000001
 10
38.99482051268847
 20
58.41570400212012
 30
0.0
 41
1.000000000000001
 10
39.05081279022024
 20
58.46947056111888
 30
0.0
 41
1.000000000000001
 10
39.09164358991838
 20
58.53120266937508
 30
0.0
 41
1.000000000000001
 10
39.14868420162085
 20
58.61744240121105
 30
0.0
 41
1.000000000000001
 10
39.18286892168316
 20
58.72686427273347
 30
0.0
 41
1.000000000000001
 10
39.20148725459844
 20
58.85194153800909
 30
0.0
 41
1.000000000000001
 10
39.22986066987919
 20
59.04255308234006
 30
0.0
 41
1.000000000000001
 10
39.22160784625097
 20
59.273346210569
 30
0.0
 41
1.000000000000001
 10
39.18111342966933
 20
59.50057146245655
 30
0.0
 41
1.000000000000001
 10
39.14051518019638
 20
59.73145286220306
 30
0.0
 41
1.000000000000001
 10
39.09995098547036
 20
59.96151284548145
 30
0.0
 41
1.000000000000001
 10
39.05929860508757
 20
60.19154613201863
 30
0.0
 41
1.000000000000001
 10
38.67276131305388
 20
62.37878443930759
 30
0.0
 41
1.000000000000001
 10
38.27756916087079
 20
64.56485724170116
 30
0.0
 41
1.000000000000001
 10
37.87297531887216
 20
66.74961030113435
 30
0.0
 41
1.000000000000001
 10
37.46837478919766
 20
68.93439947312977
 30
0.0
 41
1.000000000000001
 10
37.05421795089503
 20
71.11845161634984
 30
0.0
 41
1.000000000000001
 10
36.63144363863471
 20
73.30117246981091
 30
0.0
 41
1.000000000000001
 10
36.57213917654945
 20
73.60735258138088
 30
0.0
 41
1.000000000000001
 10
36.51267142411807
 20
73.91352784381156
 30
0.0
 41
1.000000000000001
 10
36.45154868552178
 20
74.22714034490585
 30
0.0
 41
1.000000000000001
 10
36.4059895987537
 20
74.45724051497865
 30
0.0
 41
1.000000000000001
 10
36.33426252217642
 20
74.66046493306251
 30
0.0
 41
1.000000000000001
 10
36.24097887177032
 20
74.81173316393368
 30
0.0
 41
1.000000000000001
 10
36.19698094735752
 20
74.8830799450572
 30
0.0
 41
1.000000000000001
 10
36.14693818307435
 20
74.94398303740203
 30
0.0
 41
1.000000000000001
 10
36.08960522587935
 20
74.98973149333985
 30
0.0
 41
1.000000000000001
 10
36.0170601405116
 20
75.04761836685591
 30
0.0
 41
1.000000000000001
 10
35.92658505388535
 20
75.08525383845218
 30
0.0
 41
1.000000000000001
 10
35.82628384829409
 20
75.06919150550051
 30
0.0
 41
1.000000000000001
 10
35.24462583057544
 20
74.9771367510332
 30
0.0
 41
1.000000000000001
 10
34.66296781285678
 20
74.8850819965659
 30
0.0
 41
1.000000000000001
 10
34.08130979513811
 20
74.79302724209856
 30
0.0
 41
1.000000000000001
 10
33.32087101822798
 20
74.5281913823298
 30
0.0
 41
1.000000000000001
 10
32.65574374910081
 20
74.28988684751752
 30
0.0
 41
1.000000000000001
 10
31.99504210760019
 20
74.05243527068235
 30
0.0
 41
1.000000000000001
 10
31.30314833080831
 20
73.80377345726754
 30
0.0
 41
1.000000000000001
 10
30.61595577649481
 20
73.55599184067559
 30
0.0
 41
1.000000000000001
 10
29.93333578222039
 20
73.30852805317195
 30
0.0
 41
1.000000000000001
 10
29.8584364869101
 20
73.28081914986772
 30
0.0
 41
1.000000000000001
 10
29.80464675068531
 20
73.22848755781504
 30
0.0
 41
1.000000000000001
 10
29.76508830341034
 20
73.16867911987897
 30
0.0
 41
1.000000000000001
 10
29.70804769170791
 20
73.08243938804304
 30
0.0
 41
1.000000000000001
 10
29.67386297164554
 20
72.9730175165205
 30
0.0
 41
1.000000000000001
 10
29.65524463873029
 20
72.84794025124496
 30
0.0
 41
1.000000000000001
 10
29.62721129794522
 20
72.65961331467676
 30
0.0
 41
1.000000000000001
 10
29.63493147736917
 20
72.43206222857172
 30
0.0
 41
1.000000000000001
 10
29.67888163680886
 20
72.20583586421489
 30
0.0
 41
1.000000000000001
 10
29.72338235852955
 20
71.97321927576603
 30
0.0
 41
1.000000000000001
 10
30.14235410015784
 20
69.55310757537042
 30
0.0
 41
1.0
 10
30.97471046772793
 20
64.94920003051642
 30
0.0
 41
1.000000000000001
 10
31.86043119088467
 20
60.27686449319658
 30
0.0
 41
1.0
 10
32.3509281014679
 20
57.79128880177243
 30
0.0
 41
1.0
 10
32.4115763671029
 20
57.48573406433437
 30
0.0
 41
1.0
 10
32.51819053553118
 20
56.94859645783898
 30
0.0
 41
1.0
 10
32.62081872077252
 20
56.47978306050143
 30
0.0
 41
1.0
 10
33.05612979215396
 20
56.63746536194571
 30
0.0
 41
1.0
  0
SPLINE
  5
90
330
1F
100
AcDbEntity
  8
Layer 01
370
    -3
100
AcDbSpline
210
0.0
220
0.0
230
1.0
 70
    12
 71
     3
 72
    23
 73
    19
 74
     0
 42
0.000000001
 43
0.0000000001
 40
29.14673741578554
 40
29.14673741578554
 40
29.14673741578554
 40
29.14673741578554
 40
34.80592994193928
 40
40.64480986239124
 40
40.64480986239124
 40
40.64480986239124
 40
41.2973885850055
 40
41.92878285028488
 40
41.92878285028488
 40
41.92878285028488
 40
42.6308689905463
 40
49.31063730542791
 40
55.99039839557683
 40
56.92686675610149
 40
56.92686675610149
 40
56.92686675610149
 40
57.55826102138042
 40
58.15291543225155
 40
58.15291543225155
 40
58.15291543225155
 40
58.15291543225155
 10
33.05612979215397
 20
56.63746536194571
 30
0.0
 41
0.9999999999999996
 10
33.71728714256056
 20
56.87695573901807
 30
0.0
 41
1.000000000000001
 10
35.07290921093635
 20
57.36549907404938
 30
0.0
 41
1.000000000000002
 10
36.44105905737514
 20
57.8560253050551
 30
0.0
 41
0.9999999999999989
 10
37.14214591351368
 20
58.10611664141821
 30
0.0
 41
1.0
 10
37.23857199213577
 20
58.13857726158599
 30
0.0
 41
1.0
 10
37.38227894372908
 20
58.42408451669692
 30
0.0
 41
0.9999999999999996
 10
37.36437636634204
 20
58.9626191591407
 30
0.0
 41
1.0
 10
37.3156049342506
 20
59.2152975063817
 30
0.0
 41
1.0
 10
37.27188186685147
 20
59.4447429527935
 30
0.0
 41
1.0
 10
36.81324959421486
 20
61.8573460357608
 30
0.0
 41
0.9999999999999998
 10
35.95468593021027
 20
66.45563919348004
 30
0.0
 41
1.000000000000002
 10
35.09373299205085
 20
71.13247118312034
 30
0.0
 41
1.000000000000002
 10
34.64318476833443
 20
73.62526060872752
 30
0.0
 41
1.0
 10
34.58797028746287
 20
73.93179488065019
 30
0.0
 41
1.0
 10
34.54292546817193
 20
74.18528658363226
 30
0.0
 41
1.0
 10
34.37914408762062
 20
74.64693516690151
 30
0.0
 41
1.000000000000001
 10
34.16664259234901
 20
74.80711749323447
 30
0.0
 41
1.000000000000001
 10
34.07661573595933
 20
74.79243054594129
 30
0.0
 41
1.0
  0
SPLINE
  5
91
330
1F
100
AcDbEntity
  8
Layer 01
370
    -3
100
AcDbSpline
210
0.0
220
0.0
230
1.0
 70
    12
 71
     3
 72
    46
 73
    42
 74
     0
 42
0.000000001
 43
0.0000000001
 40
0.0
 40
0.0
 40
0.0
 40
0.0
 40
1.0
 40
1.0
 40
2.0
 40
2.0
 40
3.0
 40
3.0
 40
4.0
 40
4.0
 40
5.0
 40
5.0
 40
6.0
 40
6.0
 40
7.0
 40
7.0
 40
8.0
 40
8.0
 40
9.0
 40
9.0
 40
10.0
 40
10.0
 40
11.0
 40
11.0
 40
12.0
 40
12.0
 40
13.0
 40
13.0
 40
14.0
 40
14.0
 40
15.0
 40
15.0
 40
16.0
 40
16.0
 40
17.0
 40
17.0
 40
18.0
 40
18.0
 40
18.0
 40
18.93646840338393
 40
21.70678854870023
 40
21.70678854870023
 40
21.70678854870023
 40
21.70678854870023
 10
37.33688202810555
 20
28.5737438689808
 30
0.0
 41
1.0
 10
37.34448464501617
 20
28.33096887926255
 30
0.0
 41
1.0
 10
37.30027417627327
 20
28.09254378440592
 30
0.0
 41
1.0
 10
37.10822706748046
 20
27.62439338441588
 30
0.0
 41
1.0
 10
37.01555806133048
 20
27.39150788144321
 30
0.0
 41
1.0
 10
36.83692914552337
 20
26.92811626954257
 30
0.0
 41
1.0
 10
36.74715451778584
 20
26.69617150198991
 30
0.0
 41
1.0
 10
36.56668492264289
 20
26.23178404367992
 30
0.0
 41
1.0
 10
36.47663660510666
 20
25.99959134110452
 30
0.0
 41
1.0
 10
36.29691293010466
 20
25.53520798911291
 30
0.0
 41
1.0
 10
36.20711876614377
 20
25.3029775825106
 30
0.0
 41
1.0
 10
36.02766578530221
 20
24.83843930809296
 30
0.0
 41
1.0
 10
35.93801949283802
 20
24.60614137608036
 30
0.0
 41
1.0
 10
35.75888730382277
 20
24.1414879224476
 30
0.0
 41
1.0
 10
35.66939136768436
 20
23.90913380425194
 30
0.0
 41
1.0
 10
35.49053981214594
 20
23.4443707851021
 30
0.0
 41
1.0
 10
35.40117817411726
 20
23.21196467773015
 30
0.0
 41
1.0
 10
35.22258317754095
 20
22.74710326739223
 30
0.0
 41
1.0
 10
35.13334220935185
 20
22.51465084775859
 30
0.0
 41
1.0
 10
34.95497333317176
 20
22.04970257956196
 30
0.0
 41
1.0
 10
34.86584622354486
 20
21.81720647622022
 30
0.0
 41
1.0
 10
34.68770666121739
 20
21.35217033104989
 30
0.0
 41
1.0
 10
34.59870200110338
 20
21.11962729951172
 30
0.0
 41
1.0
 10
34.42082292297483
 20
20.65449131852934
 30
0.0
 41
1.0
 10
34.33195627282799
 20
20.42189567059408
 30
0.0
 41
1.0
 10
34.15436875036916
 20
19.95664905983541
 30
0.0
 41
1.0
 10
34.06565063318409
 20
19.72399579444351
 30
0.0
 41
1.0
 10
33.88836568690262
 20
19.25862934363462
 30
0.0
 41
1.0
 10
33.7998317502658
 20
19.0259112961424
 30
0.0
 41
1.0
 10
33.62298094999998
 20
18.56040555698237
 30
0.0
 41
1.0
 10
33.53452120755387
 20
18.32762808349519
 30
0.0
 41
1.0
 10
33.35753303803525
 20
17.86202392870649
 30
0.0
 41
1.0
 10
33.26988626547566
 20
17.62911967298133
 30
0.0
 41
1.0
 10
33.09628734475589
 20
17.1631068048694
 30
0.0
 41
1.0
 10
33.00523184456095
 20
16.93043763921075
 30
0.0
 41
1.0
 10
32.81460876450094
 20
16.46577384468807
 30
0.0
 41
1.0
 10
32.68424101602336
 20
16.25717548281693
 30
0.0
 41
1.0
 10
32.51881705909819
 20
16.07231065633599
 30
0.0
 41
1.0
 10
32.46049342833638
 20
16.0524802328618
 30
0.0
 41
1.0
 10
32.23035872789257
 20
15.97369161914735
 30
0.0
 41
0.9999999999999998
 10
32.00214107262121
 20
15.8941225678585
 30
0.0
 41
0.9999999999999999
 10
31.83240487104743
 20
15.83431980724957
 30
0.0
 41
1.0
  0
SPLINE
  5
92
330
1F
100
AcDbEntity
  8
Layer 01
370
    -3
100
AcDbSpline
210
0.0
220
0.0
230
1.0
 70
    15
 71
     3
 72
    69
 73
    65
 74
     0
 42
0.000000001
 43
0.0000000001
 40
29.14673741578554
 40
29.14673741578554
 40
29.14673741578554
 40
29.14673741578554
 40
31.05527791616235
 40
31.05527791616235
 40
31.05527791616235
 40
36.71447044188648
 40
42.5533503623432
 40
42.5533503623432
 40
42.5533503623432
 40
42.87819413848559
 40
42.87819413848559
 40
42.87819413848559
 40
43.33643050661988
 40
43.33643050661988
 40
43.33643050661988
 40
44.03713951400434
 40
44.03713951400434
 40
44.03713951400434
 40
44.7398714873844
 40
44.7398714873844
 40
44.7398714873844
 40
51.42075114170867
 40
51.42075114170867
 40
51.42075114170867
 40
58.1016236475628
 40
58.1016236475628
 40
58.1016236475628
 40
59.03889048415691
 40
59.03889048415691
 40
59.03889048415691
 40
59.72899166768882
 40
59.72899166768882
 40
59.72899166768882
 40
60.0523126438788
 40
60.0523126438788
 40
60.0523126438788
 40
60.45940586605062
 40
60.45940586605062
 40
60.45940586605062
 40
62.35706559073392
 40
62.35706559073392
 40
62.35706559073392
 40
67.93345465521303
 40
67.93345465521303
 40
67.93345465521303
 40
73.77307242431161
 40
73.77307242431161
 40
73.77307242431161
 40
74.08779355360956
 40
74.08779355360956
 40
74.08779355360956
 40
74.54602992174387
 40
74.54602992174387
 40
74.54602992174387
 40
75.23834045964807
 40
75.23834045964807
 40
75.23834045964807
 40
75.94042665712027
 40
82.62019497774342
 40
89.29995607235101
 40
90.23642447570771
 40
90.23642447570771
 40
90.23642447570771
 40
91.23642447570771
 40
91.23642447570771
 40
91.23642447570771
 40
91.23642447570771
 10
-33.05612979215396
 20
56.63746536194571
 30
0.0
 41
0.9999999999999998
 10
-33.63942996371308
 20
56.72977441109072
 30
0.0
 41
0.9999999999999998
 10
-34.2227301352722
 20
56.82208346023572
 30
0.0
 41
0.9999999999999998
 10
-34.80603030683132
 20
56.91439250938071
 30
0.0
 41
0.9999999999999998
 10
-35.48556127982599
 20
57.15679056882519
 30
0.0
 41
1.0
 10
-36.85397990231652
 20
57.64735899796504
 30
0.0
 41
0.9999999999999998
 10
-38.20987409201111
 20
58.13594573353167
 30
0.0
 41
1.000000000000001
 10
-38.91860999405156
 20
58.38965401943972
 30
0.0
 41
1.000000000000001
 10
-38.99482051268847
 20
58.41570400212012
 30
0.0
 41
1.000000000000001
 10
-39.05081279022024
 20
58.46947056111888
 30
0.0
 41
1.000000000000001
 10
-39.09164358991838
 20
58.53120266937508
 30
0.0
 41
1.000000000000001
 10
-39.14868420162085
 20
58.61744240121105
 30
0.0
 41
1.000000000000001
 10
-39.18286892168316
 20
58.72686427273347
 30
0.0
 41
1.000000000000001
 10
-39.20148725459844
 20
58.85194153800909
 30
0.0
 41
1.000000000000001
 10
-39.22986066987919
 20
59.04255308234006
 30
0.0
 41
1.000000000000001
 10
-39.22160784625097
 20
59.273346210569
 30
0.0
 41
1.000000000000001
 10
-39.18111342966933
 20
59.50057146245655
 30
0.0
 41
1.000000000000001
 10
-39.14051518019638
 20
59.73145286220306
 30
0.0
 41
1.000000000000001
 10
-39.09995098547036
 20
59.96151284548145
 30
0.0
 41
1.000000000000001
 10
-39.05929860508757
 20
60.19154613201863
 30
0.0
 41
1.000000000000001
 10
-38.67276131305388
 20
62.37878443930759
 30
0.0
 41
1.000000000000001
 10
-38.27756916087079
 20
64.56485724170116
 30
0.0
 41
1.000000000000001
 10
-37.87297531887216
 20
66.74961030113435
 30
0.0
 41
1.000000000000001
 10
-37.46837478919766
 20
68.93439947312977
 30
0.0
 41
1.000000000000001
 10
-37.05421795089503
 20
71.11845161634984
 30
0.0
 41
1.000000000000001
 10
-36.63144363863471
 20
73.30117246981091
 30
0.0
 41
1.000000000000001
 10
-36.57213917654945
 20
73.60735258138088
 30
0.0
 41
1.000000000000001
 10
-36.51267142411807
 20
73.91352784381156
 30
0.0
 41
1.000000000000001
 10
-36.45154868552178
 20
74.22714034490585
 30
0.0
 41
1.000000000000001
 10
-36.4059895987537
 20
74.45724051497865
 30
0.0
 41
1.000000000000001
 10
-36.33426252217642
 20
74.66046493306251
 30
0.0
 41
1.000000000000001
 10
-36.24097887177032
 20
74.81173316393368
 30
0.0
 41
1.000000000000001
 10
-36.19698094735752
 20
74.8830799450572
 30
0.0
 41
1.000000000000001
 10
-36.14693818307435
 20
74.94398303740203
 30
0.0
 41
1.000000000000001
 10
-36.08960522587935
 20
74.98973149333985
 30
0.0
 41
1.000000000000001
 10
-36.0170601405116
 20
75.04761836685591
 30
0.0
 41
1.000000000000001
 10
-35.92658505388535
 20
75.08525383845218
 30
0.0
 41
1.000000000000001
 10
-35.82628384829409
 20
75.06919150550051
 30
0.0
 41
1.000000000000001
 10
-35.24462583057544
 20
74.9771367510332
 30
0.0
 41
1.000000000000001
 10
-34.66296781285678
 20
74.8850819965659
 30
0.0
 41
1.000000000000001
 10
-34.08130979513811
 20
74.79302724209856
 30
0.0
 41
1.000000000000001
 10
-33.32087101822798
 20
74.5281913823298
 30
0.0
 41
1.000000000000001
 10
-32.65574374910081
 20
74.28988684751752
 30
0.0
 41
1.000000000000001
 10
-31.99504210760019
 20
74.05243527068235
 30
0.0
 41
1.000000000000001
 10
-31.30314833080831
 20
73.80377345726754
 30
0.0
 41
1.000000000000001
 10
-30.61595577649481
 20
73.55599184067559
 30
0.0
 41
1.000000000000001
 10
-29.93333578222039
 20
73.30852805317195
 30
0.0
 41
1.000000000000001
 10
-29.8584364869101
 20
73.28081914986772
 30
0.0
 41
1.000000000000001
 10
-29.80464675068531
 20
73.22848755781504
 30
0.0
 41
1.000000000000001
 10
-29.76508830341034
 20
73.16867911987897
 30
0.0
 41
1.000000000000001
 10
-29.70804769170791
 20
73.08243938804304
 30
0.0
 41
1.000000000000001
 10
-29.67386297164554
 20
72.9730175165205
 30
0.0
 41
1.000000000000001
 10
-29.65524463873029
 20
72.84794025124496
 30
0.0
 41
1.000000000000001
 10
-29.62721129794522
 20
72.65961331467676
 30
0.0
 41
1.000000000000001
 10
-29.63493147736917
 20
72.43206222857172
 30
0.0
 41
1.000000000000001
 10
-29.67888163680886
 20
72.20583586421489
 30
0.0
 41
1.000000000000001
 10
-29.72338235852955
 20
71.97321927576603
 30
0.0
 41
1.000000000000001
 10
-30.14235410015784
 20
69.55310757537042
 30
0.0
 41
1.0
 10
-30.97471046772793
 20
64.94920003051642
 30
0.0
 41
1.000000000000001
 10
-31.86043119088467
 20
60.27686449319658
 30
0.0
 41
1.0
 10
-32.3509281014679
 20
57.79128880177243
 30
0.0
 41
1.0
 10
-32.4115763671029
 20
57.48573406433437
 30
0.0
 41
1.0
 10
-32.51819053553118
 20
56.94859645783898
 30
0.0
 41
1.0
 10
-32.62081872077252
 20
56.47978306050143
 30
0.0
 41
1.0
 10
-33.05612979215396
 20
56.63746536194571
 30
0.0
 41
1.0
  0
SPLINE
  5
93
330
1F
100
AcDbEntity
  8
Layer 01
370
    -3
100
AcDbSpline
210
0.0
220
0.0
230
1.0
 70
    12
 71
     3
 72
    23
 73
    19
 74
     0
 42
0.000000001
 43
0.0000000001
 40
29.14673741578554
 40
29.14673741578554
 40
29.14673741578554
 40
29.14673741578554
 40
34.80592994193928
 40
40.64480986239124
 40
40.64480986239124
 40
40.64480986239124
 40
41.2973885850055
 40
41.92878285028488
 40
41.92878285028488
 40
41.92878285028488
 40
42.6308689905463
 40
49.31063730542791
 40
55.99039839557683
 40
56.92686675610149
 40
56.92686675610149
 40
56.92686675610149
 40
57.55826102138042
 40
58.15291543225155
 40
58.15291543225155
 40
58.15291543225155
 40
58.15291543225155
 10
-33.05612979215397
 20
56.63746536194571
 30
0.0
 41
0.9999999999999996
 10
-33.71728714256056
 20
56.87695573901807
 30
0.0
 41
1.000000000000001
 10
-35.07290921093635
 20
57.36549907404938
 30
0.0
 41
1.000000000000002
 10
-36.44105905737514
 20
57.8560253050551
 30
0.0
 41
0.9999999999999989
 10
-37.14214591351368
 20
58.10611664141821
 30
0.0
 41
1.0
 10
-37.23857199213577
 20
58.13857726158599
 30
0.0
 41
1.0
 10
-37.38227894372908
 20
58.42408451669692
 30
0.0
 41
0.9999999999999996
 10
-37.36437636634204
 20
58.9626191591407
 30
0.0
 41
1.0
 10
-37.3156049342506
 20
59.2152975063817
 30
0.0
 41
1.0
 10
-37.27188186685147
 20
59.4447429527935
 30
0.0
 41
1.0
 10
-36.81324959421486
 20
61.8573460357608
 30
0.0
 41
0.9999999999999998
 10
-35.95468593021027
 20
66.45563919348004
 30
0.0
 41
1.000000000000002
 10
-35.09373299205085
 20
71.13247118312034
 30
0.0
 41
1.000000000000002
 10
-34.64318476833443
 20
73.62526060872752
 30
0.0
 41
1.0
 10
-34.58797028746287
 20
73.93179488065019
 30
0.0
 41
1.0
 10
-34.54292546817193
 20
74.18528658363226
 30
0.0
 41
1.0
 10
-34.37914408762062
 20
74.64693516690151
 30
0.0
 41
1.000000000000001
 10
-34.16664259234901
 20
74.80711749323447
 30
0.0
 41
1.000000000000001
 10
-34.07661573595933
 20
74.79243054594129
 30
0.0
 41
1.0
  0
SPLINE
  5
94
330
1F
100
AcDbEntity
  8
Layer 01
370
    -3
100
AcDbSpline
210
0.0
220
0.0
230
1.0
 70
    11
 71
     2
 72
    17
 73
    14
 74
     0
 42
0.000000001
 43
0.0000000001
 40
0.6164290765751537
 40
0.6164290765751537
 40
0.6164290765751537
 40
1.616429076575154
 40
2.616429076575153
 40
3.616429076575153
 40
4.616429076575153
 40
5.616429076575153
 40
6.616429076575153
 40
7.616429076575153
 40
8.616429076575153
 40
9.616429076575153
 40
10.61642907657515
 40
10.61642907657515
 40
11.23285815315031
 40
11.23285815315031
 40
11.23285815315031
 10
24.93486706872196
 20
0.2433563458020558
 30
0.0
 10
24.91663280895048
 20
0.2067420737560939
 30
0.0
 10
24.86876117366273
 20
0.1403968462530356
 30
0.0
 10
24.81069744242302
 20
0.0827855669295607
 30
0.0
 10
24.74430535367672
 20
0.0349632338234423
 30
0.0
 10
24.66948939890402
 20
0.0009830909612903
 30
0.0
 10
24.58638586153951
 20
0.0000482007269705
 30
0.0
 10
24.51089031320564
 20
0.0324647063952585
 30
0.0
 10
24.44411918611671
 20
0.0798161015074288
 30
0.0
 10
24.38551098186764
 20
0.1368589481927905
 30
0.0
 10
24.33702719870801
 20
0.2027612727839725
 30
0.0
 10
24.31845198378284
 20
0.2392030932461073
 30
0.0
 10
24.6266595262524
 20
0.2412797195240816
 30
0.0
 10
24.93486706872196
 20
0.2433563458020558
 30
0.0
  0
SPLINE
  5
95
330
1F
100
AcDbEntity
  8
Layer 01
370
    -3
100
AcDbSpline
210
0.0
220
0.0
230
1.0
 70
    11
 71
     2
 72
    17
 73
    14
 74
     0
 42
0.000000001
 43
0.0000000001
 40
0.6164290765751537
 40
0.6164290765751537
 40
0.6164290765751537
 40
1.616429076575154
 40
2.616429076575153
 40
3.616429076575153
 40
4.616429076575153
 40
5.616429076575153
 40
6.616429076575153
 40
7.616429076575153
 40
8.616429076575153
 40
9.616429076575153
 40
10.61642907657515
 40
10.61642907657515
 40
11.23285815315031
 40
11.23285815315031
 40
11.23285815315031
 10
33.15858934376667
 20
0.2433563458020558
 30
0.0
 10
33.1403550839952
 20
0.2067420737560939
 30
0.0
 10
33.09248344870745
 20
0.1403968462530356
 30
0.0
 10
33.03441971746773
 20
0.0827855669295607
 30
0.0
 10
32.96802762872144
 20
0.0349632338234423
 30
0.0
 10
32.89321167394873
 20
0.0009830909612903
 30
0.0
 10
32.81010813658423
 20
0.0000482007269705
 30
0.0
 10
32.73461258825035
 20
0.0324647063952585
 30
0.0
 10
32.66784146116142
 20
0.0798161015074288
 30
0.0
 10
32.60923325691235
 20
0.1368589481927905
 30
0.0
 10
32.56074947375273
 20
0.2027612727839725
 30
0.0
 10
32.54217425882755
 20
0.2392030932461073
 30
0.0
 10
32.85038180129711
 20
0.2412797195240816
 30
0.0
 10
33.15858934376667
 20
0.2433563458020558
 30
0.0
  0
SPLINE
  5
96
330
1F
100
AcDbEntity
  8
Layer 01
370
    -3
100
AcDbSpline
210
0.0
220
0.0
230
1.0
 70
    11
 71
     2
 72
    26
 73
    23
 74
     0
 42
0.000000001
 43
0.0000000001
 40
7.881243012236046
 40
7.881243012236046
 40
7.881243012236046
 40
8.881243012236046
 40
9.881243012236046
 40
10.88124301223605
 40
11.88124301223605
 40
12.88124301223605
 40
13.88124301223605
 40
13.88124301223605
 40
15.33124301223604
 40
15.33124301223604
 40
16.33124301223604
 40
17.33124301223604
 40
18.33124301223604
 40
19.33124301223604
 40
20.33124301223604
 40
21.33124301223604
 40
21.33124301223604
 40
26.21283833104022
 40
26.21283833104022
 40
29.21277272343648
 40
29.21277272343648
 40
34.09408134327627
 40
34.09408134327627
 40
34.09408134327627
 10
25.86311103983436
 20
1.000000099387261
 30
0.0
 10
25.8585215878931
 20
0.9174598502445461
 30
0.0
 10
25.82629048850967
 20
0.7553008244293059
 30
0.0
 10
25.77191270530053
 20
0.599128620813262
 30
0.0
 10
25.69277609122932
 20
0.453737910208431
 30
0.0
 10
25.5827753960061
 20
0.3290600681179145
 30
0.0
 10
25.43490778779641
 20
0.2502867400138776
 30
0.0
 10
25.35061110101815
 20
0.2500000575820031
 30
0.0
 10
24.62561110101815
 20
0.2499999984376746
 30
0.0
 10
23.90061110101816
 20
0.249999939293346
 30
0.0
 10
23.81631442653184
 20
0.2502866048549611
 30
0.0
 10
23.66844679068758
 20
0.3290599126555699
 30
0.0
 10
23.55844607745178
 20
0.4537377369383937
 30
0.0
 10
23.4793094414004
 20
0.5991284301681433
 30
0.0
 10
23.42493163154654
 20
0.7553006264547494
 30
0.0
 10
23.39270050520473
 20
0.9174596490723668
 30
0.0
 10
23.38811103983439
 20
0.9999998974807625
 30
0.0
 10
23.25687339249578
 20
3.437266787668573
 30
0.0
 10
23.12563574515717
 20
5.874533677856383
 30
0.0
 10
24.62560293453694
 20
5.874390658102611
 30
0.0
 10
26.1255701239167
 20
5.874247638348839
 30
0.0
 10
25.99434058187553
 20
3.43712386886805
 30
0.0
 10
25.86311103983436
 20
1.000000099387261
 30
0.0
  0
SPLINE
  5
97
330
1F
100
AcDbEntity
  8
Layer 01
370
    -3
100
AcDbSpline
210
0.0
220
0.0
230
1.0
 70
    15
 71
     2
 72
    26
 73
    23
 74
     0
 42
0.000000001
 43
0.0000000001
 40
0.0
 40
0.0
 40
0.0
 40
4.876277273933268
 40
4.876277273933268
 40
5.879507633729289
 40
6.882737993525309
 40
7.88596835332133
 40
8.88919871311735
 40
9.892429072913371
 40
10.87627727393327
 40
10.87627727393327
 40
11.91299828092846
 40
11.91299828092846
 40
12.91299828092846
 40
13.91299828092846
 40
14.91299828092846
 40
15.91299828092846
 40
16.91299828092846
 40
17.91299828092846
 40
17.91299828092846
 40
22.78903151145726
 40
22.78903151145726
 40
24.4609896428817
 40
24.4609896428817
 40
24.4609896428817
 10
32.01425485197979
 20
5.874533677856562
 30
0.0
 41
1.0
 10
32.06741258607787
 20
3.437279910274195
 30
0.0
 41
0.999999999772586
 10
32.12046636298824
 20
1.000023877552165
 30
0.0
 41
1.0
 10
32.12193139503836
 20
0.9302258843538626
 30
0.0
 41
1.0
 10
32.12710370118177
 20
0.7906935046963841
 30
0.0
 41
1.0
 10
32.13593022865348
 20
0.6513316829917604
 30
0.0
 41
1.0
 10
32.15167609759069
 20
0.512552455780981
 30
0.0
 41
1.0
 10
32.18040472950555
 20
0.3756908467133107
 30
0.0
 41
1.0
 10
32.25792547503126
 20
0.2538083811395253
 30
0.0
 41
1.0
 10
32.33244758952364
 20
0.2512986346871848
 30
0.0
 41
1.0
 10
32.84933337606287
 20
0.2513488624320246
 30
0.0
 41
1.0
 10
33.3662191626021
 20
0.2513990901768643
 30
0.0
 41
1.0
 10
33.44277759461577
 20
0.2531860281200808
 30
0.0
 41
1.0
 10
33.52031342663033
 20
0.3765547550072683
 30
0.0
 41
1.0
 10
33.54892283986425
 20
0.5132039830672666
 30
0.0
 41
1.0
 10
33.56460451604133
 20
0.6518077207527728
 30
0.0
 41
1.0
 10
33.57340705202255
 20
0.7909805025629165
 30
0.0
 41
1.0
 10
33.57856810795912
 20
0.9303246987693881
 30
0.0
 41
1.0
 10
33.58003094303105
 20
1.000028321437666
 30
0.0
 41
1.0
 10
33.63306998070838
 20
3.437162788116239
 30
0.0
 41
0.9999999997726037
 10
33.68621296636429
 20
5.874294990370613
 30
0.0
 41
1.0
 10
32.85023390916953
 20
5.874414334113587
 30
0.0
 41
1.0
 10
32.01425485197478
 20
5.874533677856562
 30
0.0
 41
1.0
  0
SPLINE
  5
98
330
1F
100
AcDbEntity
  8
Layer 01
370
    -3
100
AcDbSpline
210
0.0
220
0.0
230
1.0
 70
    11
 71
     2
 72
    17
 73
    14
 74
     0
 42
0.000000001
 43
0.0000000001
 40
0.0
 40
0.0
 40
0.0
 40
1.0
 40
2.0
 40
3.0
 40
4.0
 40
5.0
 40
6.0
 40
7.0
 40
8.0
 40
9.0
 40
10.0
 40
10.0
 40
10.61642907657515
 40
10.61642907657515
 40
10.61642907657515
 10
-24.93486706872196
 20
0.2433563458020558
 30
0.0
 10
-24.91663280895048
 20
0.2067420737560939
 30
0.0
 10
-24.86876117366273
 20
0.1403968462530356
 30
0.0
 10
-24.81069744242302
 20
0.0827855669295607
 30
0.0
 10
-24.74430535367672
 20
0.0349632338234423
 30
0.0
 10
-24.66948939890402
 20
0.0009830909612903
 30
0.0
 10
-24.58638586153951
 20
0.0000482007269705
 30
0.0
 10
-24.51089031320564
 20
0.0324647063952585
 30
0.0
 10
-24.44411918611671
 20
0.0798161015074288
 30
0.0
 10
-24.38551098186764
 20
0.1368589481927905
 30
0.0
 10
-24.33702719870801
 20
0.2027612727839725
 30
0.0
 10
-24.31845198378284
 20
0.2392030932461073
 30
0.0
 10
-24.6266595262524
 20
0.2412797195240816
 30
0.0
 10
-24.93486706872196
 20
0.2433563458020558
 30
0.0
  0
SPLINE
  5
99
330
1F
100
AcDbEntity
  8
Layer 01
370
    -3
100
AcDbSpline
210
0.0
220
0.0
230
1.0
 70
    11
 71
     2
 72
    17
 73
    14
 74
     0
 42
0.000000001
 43
0.0000000001
 40
0.0
 40
0.0
 40
0.0
 40
1.0
 40
2.0
 40
3.0
 40
4.0
 40
5.0
 40
6.0
 40
7.0
 40
8.0
 40
9.0
 40
10.0
 40
10.0
 40
10.61642907657515
 40
10.61642907657515
 40
10.61642907657515
 10
-33.15858934376667
 20
0.2433563458020558
 30
0.0
 10
-33.1403550839952
 20
0.2067420737560939
 30
0.0
 10
-33.09248344870745
 20
0.1403968462530356
 30
0.0
 10
-33.03441971746773
 20
0.0827855669295607
 30
0.0
 10
-32.96802762872144
 20
0.0349632338234423
 30
0.0
 10
-32.89321167394873
 20
0.0009830909612903
 30
0.0
 10
-32.81010813658423
 20
0.0000482007269705
 30
0.0
 10
-32.73461258825035
 20
0.0324647063952585
 30
0.0
 10
-32.66784146116142
 20
0.0798161015074288
 30
0.0
 10
-32.60923325691235
 20
0.1368589481927905
 30
0.0
 10
-32.56074947375273
 20
0.2027612727839725
 30
0.0
 10
-32.54217425882755
 20
0.2392030932461073
 30
0.0
 10
-32.85038180129711
 20
0.2412797195240816
 30
0.0
 10
-33.15858934376667
 20
0.2433563458020558
 30
0.0
  0
SPLINE
  5
9A
330
1F
100
AcDbEntity
  8
Layer 01
370
    -3
100
AcDbSpline
210
0.0
220
0.0
230
1.0
 70
    15
 71
     2
 72
    26
 73
    23
 74
     0
 42
0.000000001
 43
0.0000000001
 40
1.67195813142444
 40
1.67195813142444
 40
1.67195813142444
 40
6.548235405357708
 40
6.548235405357708
 40
7.551465765153729
 40
8.55469612494975
 40
9.55792648474577
 40
10.56115684454179
 40
11.56438720433781
 40
12.54823540535771
 40
12.54823540535771
 40
13.5849564123529
 40
13.5849564123529
 40
14.5849564123529
 40
15.5849564123529
 40
16.5849564123529
 40
17.5849564123529
 40
18.5849564123529
 40
19.5849564123529
 40
19.5849564123529
 40
24.4609896428817
 40
24.4609896428817
 40
26.13294777430614
 40
26.13294777430614
 40
26.13294777430614
 10
-32.01425485197979
 20
5.874533677856562
 30
0.0
 41
1.0
 10
-32.06741258607787
 20
3.437279910274195
 30
0.0
 41
0.999999999772586
 10
-32.12046636298824
 20
1.000023877552165
 30
0.0
 41
1.0
 10
-32.12193139503836
 20
0.9302258843538626
 30
0.0
 41
1.0
 10
-32.12710370118177
 20
0.7906935046963841
 30
0.0
 41
1.0
 10
-32.13593022865348
 20
0.6513316829917604
 30
0.0
 41
1.0
 10
-32.15167609759069
 20
0.512552455780981
 30
0.0
 41
1.0
 10
-32.18040472950555
 20
0.3756908467133107
 30
0.0
 41
1.0
 10
-32.25792547503126
 20
0.2538083811395253
 30
0.0
 41
1.0
 10
-32.33244758952364
 20
0.2512986346871848
 30
0.0
 41
1.0
 10
-32.84933337606287
 20
0.2513488624320246
 30
0.0
 41
1.0
 10
-33.3662191626021
 20
0.2513990901768643
 30
0.0
 41
1.0
 10
-33.44277759461577
 20
0.2531860281200808
 30
0.0
 41
1.0
 10
-33.52031342663033
 20
0.3765547550072683
 30
0.0
 41
1.0
 10
-33.54892283986425
 20
0.5132039830672666
 30
0.0
 41
1.0
 10
-33.56460451604133
 20
0.6518077207527728
 30
0.0
 41
1.0
 10
-33.57340705202255
 20
0.7909805025629165
 30
0.0
 41
1.0
 10
-33.57856810795912
 20
0.9303246987693881
 30
0.0
 41
1.0
 10
-33.58003094303105
 20
1.000028321437666
 30
0.0
 41
1.0
 10
-33.63306998070838
 20
3.437162788116239
 30
0.0
 41
0.9999999997726037
 10
-33.68621296636429
 20
5.874294990370613
 30
0.0
 41
1.0
 10
-32.85023390916953
 20
5.874414334113587
 30
0.0
 41
1.0
 10
-32.01425485197478
 20
5.874533677856562
 30
0.0
 41
1.0
  0
SPLINE
  5
9B
330
1F
100
AcDbEntity
  8
Layer 01
370
    -3
100
AcDbSpline
210
0.0
220
0.0
230
1.0
 70
    11
 71
     2
 72
    26
 73
    23
 74
     0
 42
0.000000001
 43
0.0000000001
 40
4.881308619839785
 40
4.881308619839785
 40
4.881308619839785
 40
5.881308619839785
 40
6.881308619839785
 40
7.881308619839785
 40
8.881308619839785
 40
9.881308619839785
 40
10.88130861983979
 40
10.88130861983979
 40
12.33130861983978
 40
12.33130861983978
 40
13.33130861983978
 40
14.33130861983978
 40
15.33130861983978
 40
16.33130861983978
 40
17.33130861983978
 40
18.33130861983978
 40
18.33130861983978
 40
23.21290393864395
 40
23.21290393864395
 40
26.21283833104022
 40
26.21283833104022
 40
31.09414695088
 40
31.09414695088
 40
31.09414695088
 10
-25.86311103983436
 20
1.000000099387261
 30
0.0
 10
-25.8585215878931
 20
0.9174598502445461
 30
0.0
 10
-25.82629048850967
 20
0.7553008244293059
 30
0.0
 10
-25.77191270530053
 20
0.599128620813262
 30
0.0
 10
-25.69277609122932
 20
0.453737910208431
 30
0.0
 10
-25.5827753960061
 20
0.3290600681179145
 30
0.0
 10
-25.43490778779641
 20
0.2502867400138776
 30
0.0
 10
-25.35061110101815
 20
0.2500000575820031
 30
0.0
 10
-24.62561110101815
 20
0.2499999984376746
 30
0.0
 10
-23.90061110101816
 20
0.249999939293346
 30
0.0
 10
-23.81631442653184
 20
0.2502866048549611
 30
0.0
 10
-23.66844679068758
 20
0.3290599126555699
 30
0.0
 10
-23.55844607745178
 20
0.4537377369383937
 30
0.0
 10
-23.4793094414004
 20
0.5991284301681433
 30
0.0
 10
-23.42493163154654
 20
0.7553006264547494
 30
0.0
 10
-23.39270050520473
 20
0.9174596490723668
 30
0.0
 10
-23.38811103983439
 20
0.9999998974807625
 30
0.0
 10
-23.25687339249578
 20
3.437266787668573
 30
0.0
 10
-23.12563574515717
 20
5.874533677856383
 30
0.0
 10
-24.62560293453694
 20
5.874390658102611
 30
0.0
 10
-26.1255701239167
 20
5.874247638348839
 30
0.0
 10
-25.99434058187553
 20
3.43712386886805
 30
0.0
 10
-25.86311103983436
 20
1.000000099387261
 30
0.0
  0
SPLINE
  5
9C
330
1F
100
AcDbEntity
  8
Layer 01
370
    -3
100
AcDbSpline
210
0.0
220
0.0
230
1.0
 70
     8
 71
     2
 72
    13
 73
    10
 74
     0
 42
0.000000001
 43
0.0000000001
 40
153.6581350524621
 40
153.6581350524621
 40
153.6581350524621
 40
154.6561978674056
 40
155.6561978674056
 40
156.6561978674056
 40
157.6561978674056
 40
158.6561978674056
 40
159.6561978674056
 40
160.6561978674056
 40
161.6561978674056
 40
161.6561978674056
 40
161.6561978674056
 10
-40.38577679661448
 20
22.92207187332854
 30
0.0
 10
-39.80920563611173
 20
22.92072741661775
 30
0.0
 10
-38.71016662017476
 20
22.56207135396405
 30
0.0
 10
-37.80002358980941
 20
21.8433038827713
 30
0.0
 10
-37.23044295434929
 20
20.83669676269581
 30
0.0
 10
-36.90049644457661
 20
19.73638775094019
 30
0.0
 10
-36.7027059086738
 20
18.60648229525765
 30
0.0
 10
-36.57185566410158
 20
17.46745526383719
 30
0.0
 10
-36.46316929464798
 20
16.32623339680279
 30
0.0
 10
-36.41180900236105
 20
15.75534960382925
 30
0.0
  0
SPLINE
  5
9D
330
1F
100
AcDbEntity
  8
Layer 01
370
    -3
100
AcDbSpline
210
0.0
220
0.0
230
1.0
 70
    11
 71
     2
 72
    24
 73
    21
 74
     0
 42
0.000000001
 43
0.0000000001
 40
-7.000000006200441
 40
-7.000000006200441
 40
-7.000000006200441
 40
-6.000000006200441
 40
-5.000000006200441
 40
-5.000000006200441
 40
-2.0
 40
-2.0
 40
-1.0
 40
0.0
 40
0.0
 40
72.95729070948269
 40
72.95729070948269
 40
73.95729070948269
 40
74.95729070948269
 40
74.95729070948269
 40
77.95729071568313
 40
77.95729071568313
 40
78.95729071568313
 40
79.95729071568313
 40
79.95729071568313
 40
152.9145814251868
 40
152.9145814251868
 40
152.9145814251868
 10
-36.45452869546989
 20
9.374533684046861
 30
0.0
 10
-36.55744470566842
 20
9.369560983261671
 30
0.0
 10
-36.70380228750516
 20
9.22819875202142
 30
0.0
 10
-36.70465687364801
 20
9.124533684051856
 30
0.0
 10
-36.70465687364802
 20
7.624533680951636
 30
0.0
 10
-36.70465687364803
 20
6.124533677851415
 30
0.0
 10
-36.70380228721455
 20
6.020868610074391
 30
0.0
 10
-36.5574447077894
 20
5.879506379296019
 30
0.0
 10
-36.4545286954699
 20
5.874533677856411
 30
0.0
 10
3.93333831527481
 20
5.874533677856373
 30
0.0
 10
36.47864535475187
 20
5.874533677856336
 30
0.0
 10
36.58156136707137
 20
5.879506379296019
 30
0.0
 10
36.72791894649652
 20
6.020868610074391
 30
0.0
 10
36.72877353293
 20
6.124533677851415
 30
0.0
 10
36.72877353292999
 20
7.624533680951636
 30
0.0
 10
36.72877353292998
 20
9.124533684051856
 30
0.0
 10
36.72791894678713
 20
9.22819875202142
 30
0.0
 10
36.58156136495039
 20
9.369560983261671
 30
0.0
 10
36.47864535475186
 20
9.374533684046861
 30
0.0
 10
3.93333831527481
 20
9.374533684046861
 30
0.0
 10
-36.45452869546989
 20
9.374533684046861
 30
0.0
  0
SPLINE
  5
9E
330
1F
100
AcDbEntity
  8
Layer 01
370
    -3
100
AcDbSpline
210
0.0
220
0.0
230
1.0
 70
     8
 71
     3
 72
    11
 73
     7
 74
     0
 42
0.000000001
 43
0.0000000001
 40
0.1218401718276826
 40
0.1218401718276826
 40
0.1218401718276826
 40
0.1218401718276826
 40
0.3865545720813788
 40
0.895212546220733
 40
1.403870520360278
 40
1.912528494499633
 40
1.912528494499633
 40
1.912528494499633
 40
1.912528494499633
 10
36.72774851287641
 20
6.153113401648476
 30
0.0
 10
36.76546564363681
 20
6.074430485387705
 30
0.0
 10
36.88740690258
 20
5.850088937639896
 30
0.0
 10
37.14835657712072
 20
5.51342804943198
 30
0.0
 10
37.57036821409073
 20
5.21809222306517
 30
0.0
 10
37.90527628238072
 20
5.155548916798299
 30
0.0
 10
38.07222087249072
 20
5.15291671227406
 30
0.0
  0
SPLINE
  5
9F
330
1F
100
AcDbEntity
  8
Layer 01
370
    -3
100
AcDbSpline
210
0.0
220
0.0
230
1.0
 70
     8
 71
     2
 72
    13
 73
    10
 74
     0
 42
0.000000001
 43
0.0000000001
 40
-83.81884151901431
 40
-83.81884151901431
 40
-83.81884151901431
 40
-82.81884151901431
 40
-81.81884151901431
 40
-80.81884151901431
 40
-79.81884151901431
 40
-78.81884151901431
 40
-77.81884151901431
 40
-76.81884151901431
 40
-75.82077870395024
 40
-75.82077870395024
 40
-75.82077870395024
 10
36.41180900236105
 20
15.75534960382925
 30
0.0
 10
36.46316929464798
 20
16.32623339680279
 30
0.0
 10
36.57185566410158
 20
17.46745526383719
 30
0.0
 10
36.7027059086738
 20
18.60648229525765
 30
0.0
 10
36.90049644457661
 20
19.73638775094019
 30
0.0
 10
37.23044295434929
 20
20.83669676269581
 30
0.0
 10
37.80002358980941
 20
21.8433038827713
 30
0.0
 10
38.71016662017476
 20
22.56207135396405
 30
0.0
 10
39.80920563617803
 20
22.92072741663938
 30
0.0
 10
40.38577679675372
 20
22.92207187332887
 30
0.0
  0
SPLINE
  5
A0
330
1F
100
AcDbEntity
  8
Layer 01
370
    -3
100
AcDbSpline
210
0.0
220
0.0
230
1.0
 70
    15
 71
     3
 72
   104
 73
   100
 74
     0
 42
0.000000001
 43
0.0000000001
 40
3.571487916190767
 40
3.571487916190767
 40
3.571487916190767
 40
3.571487916190767
 40
4.571487916190766
 40
4.571487916190766
 40
4.571487916190766
 40
5.571487916190765
 40
5.571487916190765
 40
6.571487916190765
 40
6.571487916190765
 40
7.571487916190764
 40
7.571487916190764
 40
8.571487916190764
 40
8.571487916190764
 40
9.571487916190764
 40
9.571487916190764
 40
10.57148791619076
 40
10.57148791619076
 40
11.57148791619076
 40
11.57148791619076
 40
11.57148791619076
 40
12.57148791619076
 40
12.57148791619076
 40
13.57148791619076
 40
13.57148791619076
 40
14.57148791619076
 40
14.57148791619076
 40
15.57148791619076
 40
15.57148791619076
 40
16.57148791619076
 40
16.57148791619076
 40
17.57148791619076
 40
17.57148791619076
 40
18.57148791619076
 40
18.57148791619076
 40
19.57148791619076
 40
19.57148791619076
 40
20.57148791619076
 40
20.57148791619076
 40
21.57148791619076
 40
21.57148791619076
 40
21.57148791619076
 40
22.57148791619076
 40
22.57148791619076
 40
23.57148791619076
 40
23.57148791619076
 40
23.57148791619076
 40
52.76000782172329
 40
52.76000782172329
 40
52.76000782172329
 40
53.76000782172329
 40
53.76000782172329
 40
54.76000782172329
 40
54.76000782172329
 40
55.76000782172329
 40
55.76000782172329
 40
55.76000782172329
 40
56.76000782172329
 40
56.76000782172329
 40
57.76000782172329
 40
57.76000782172329
 40
58.76000782172329
 40
58.76000782172329
 40
59.76000782172329
 40
59.76000782172329
 40
60.76000782172329
 40
60.76000782172329
 40
61.76000782172329
 40
61.76000782172329
 40
62.76000782172329
 40
62.76000782172329
 40
63.76000782172329
 40
63.76000782172329
 40
64.76000782172329
 40
64.76000782172329
 40
64.76000782172329
 40
65.76000597176514
 40
65.76000597176514
 40
66.7600062800915
 40
66.7600062800915
 40
67.76000658841785
 40
67.76000658841785
 40
68.76000689674422
 40
68.76000689674422
 40
69.76000720507058
 40
69.76000720507058
 40
70.76000751339693
 40
70.76000751339693
 40
71.76000782172329
 40
71.76000782172329
 40
71.76000782172329
 40
72.76000782172329
 40
72.76000782172329
 40
72.76000782172329
 40
73.15600388754335
 40
73.55252923204434
 40
73.95021662479682
 40
74.34820316464528
 40
75.20213981682464
 40
75.33149573791405
 40
75.33149573791405
 40
75.33149573791405
 40
75.33149573791405
 10
0.4399819881693467
 20
9.374480155123859
 30
0.0
 41
1.0
 10
0.3306322388782856
 20
9.37442440041225
 30
0.0
 41
1.0
 10
0.2630434494446217
 20
9.43656367726445
 30
0.0
 41
1.0
 10
0.2439532539065006
 20
9.545861878053753
 30
0.0
 41
1.0
 10
0.1961932793195587
 20
9.819304823238454
 30
0.0
 41
1.0
 10
0.155465139997748
 20
10.09379127228075
 30
0.0
 41
1.0
 10
0.0880725318843876
 20
10.64485117808053
 30
0.0
 41
1.0
 10
0.061291382431655
 20
10.92104835066599
 30
0.0
 41
1.0
 10
0.0215593927340842
 20
11.47477713520804
 30
0.0
 41
1.0
 10
0.0081743972700243
 20
11.75195201787061
 30
0.0
 41
1.0
 10
-0.0056335948886441
 20
12.30692276397888
 30
0.0
 41
1.0
 10
-0.0062509520296627
 20
12.58442248558187
 30
0.0
 41
1.0
 10
0.0050876115649312
 20
13.13945062588555
 30
0.0
 41
1.0
 10
0.0173003122509736
 20
13.41667553224567
 30
0.0
 41
1.0
 10
0.0548125514005484
 20
13.97054701738247
 30
0.0
 41
1.0
 10
0.0796599905669222
 20
14.2469343282129
 30
0.0
 41
1.0
 10
0.1415375080828412
 20
14.79861208639783
 30
0.0
 41
1.0
 10
0.185169750820239
 20
15.09827354602984
 30
0.0
 41
1.0
 10
0.2414954775370752
 20
15.42175758620139
 30
0.0
 41
1.0
 10
0.2769087246070425
 20
15.52597775706869
 30
0.0
 41
1.0
 10
0.3413156085169637
 20
15.60401354477371
 30
0.0
 41
1.0
 10
0.5281166500167167
 20
15.70771635385917
 30
0.0
 41
1.0
 10
0.6270528556313506
 20
15.7394369878181
 30
0.0
 41
1.0
 10
0.8359966365901315
 20
15.76261671456837
 30
0.0
 41
1.0
 10
0.9403029470842954
 20
15.77151977485321
 30
0.0
 41
1.0
 10
1.148584408102168
 20
15.78395228924231
 30
0.0
 41
1.0
 10
1.252847643962485
 20
15.78885053513418
 30
0.0
 41
1.0
 10
1.461619126385881
 20
15.79601100431259
 30
0.0
 41
1.0
 10
1.566012553058314
 20
15.79886884417059
 30
0.0
 41
1.0
 10
1.774814777324651
 20
15.80313973442419
 30
0.0
 41
1.0
 10
1.879225468532463
 20
15.80476512664152
 30
0.0
 41
1.0
 10
2.088066009097373
 20
15.80699580525728
 30
0.0
 41
1.0
 10
2.192487887392234
 20
15.80784617400067
 30
0.0
 41
1.0
 10
2.401334860006768
 20
15.80901697035845
 30
0.0
 41
1.0
 10
2.505758638670683
 20
15.80954567503898
 30
0.0
 41
1.0
 10
2.714606780711806
 20
15.81048969740331
 30
0.0
 41
1.0
 10
2.819030967376838
 20
15.81093749917502
 30
0.0
 41
1.0
 10
3.027879571995845
 20
15.81178468389757
 30
0.0
 41
1.0
 10
3.132303913852288
 20
15.81219563700718
 30
0.0
 41
1.0
 10
3.236728295255673
 20
15.81259395086514
 30
0.0
 41
1.0
 10
3.341152676659057
 20
15.81299226472309
 30
0.0
 41
1.0
 10
3.445577055180992
 20
15.81339175439782
 30
0.0
 41
1.0
 10
3.654425806461965
 20
15.81419308538083
 30
0.0
 41
1.0
 10
3.758850129274776
 20
15.81460709719734
 30
0.0
 41
1.0
 10
3.863274399259911
 20
15.81503445533887
 30
0.0
 41
1.0
 10
13.59278103379899
 20
15.81492299603664
 30
0.0
 41
1.0
 10
23.3102293386971
 20
15.8148115367344
 30
0.0
 41
1.0
 10
33.03973597323618
 20
15.81470007743216
 30
0.0
 41
1.0
 10
33.14973549653443
 20
15.81419698634104
 30
0.0
 41
1.0
 10
33.25973518733863
 20
15.81373446207186
 30
0.0
 41
1.0
 10
33.47973490395894
 20
15.81289054717738
 30
0.0
 41
1.0
 10
33.5897348423703
 20
15.81249077715766
 30
0.0
 41
1.0
 10
33.80973487939539
 20
15.81173561197326
 30
0.0
 41
1.0
 10
33.91973490713438
 20
15.8113619982641
 30
0.0
 41
1.0
 10
34.02973494409981
 20
15.81099235343799
 30
0.0
 41
1.0
 10
34.13973498106523
 20
15.81062270861188
 30
0.0
 41
1.0
 10
34.24973498724287
 20
15.81023784274884
 30
0.0
 41
1.0
 10
34.46973493802254
 20
15.80943766894891
 30
0.0
 41
1.0
 10
34.57973467679021
 20
15.80900877587722
 30
0.0
 41
1.0
 10
34.79973368108116
 20
15.80809337739039
 30
0.0
 41
1.0
 10
34.90973360558628
 20
15.80755957096303
 30
0.0
 41
1.0
 10
35.12973429931572
 20
15.80633974374039
 30
0.0
 41
1.0
 10
35.23972808726523
 20
15.80543514643394
 30
0.0
 41
1.0
 10
35.45970254533385
 20
15.80303658443077
 30
0.0
 41
1.0
 10
35.56970747090359
 20
15.80134324591345
 30
0.0
 41
1.0
 10
35.78975271511394
 20
15.79696845384734
 30
0.0
 41
1.0
 10
35.89958822039151
 20
15.79308668409988
 30
0.0
 41
1.0
 10
36.11888499729146
 20
15.78193439717614
 30
0.0
 41
1.0
 10
36.22921076035783
 20
15.77563740969528
 30
0.0
 41
1.0
 10
36.45121703572333
 20
15.76160174669561
 30
0.0
 41
1.0
 10
36.55534133663766
 20
15.72932262237124
 30
0.0
 41
1.0
 10
36.74983226492943
 20
15.61424178807339
 30
0.0
 41
1.0
 10
36.8139297248341
 20
15.52939915072908
 30
0.0
 41
1.0
 10
36.84487918049756
 20
15.41725429318937
 30
0.0
 41
1.0
 10
36.91517561077798
 20
15.14218619967626
 30
0.0
 41
1.0
 10
36.97528272099366
 20
14.86491186468619
 30
0.0
 41
1.0
 10
37.07511840903258
 20
14.30595010855245
 30
0.0
 41
1.0
 10
37.11512640245968
 20
14.02505807295056
 30
0.0
 41
1.0
 10
37.17532258039218
 20
13.4604522898765
 30
0.0
 41
1.0
 10
37.19528396254728
 20
13.17743327751291
 30
0.0
 41
1.0
 10
37.21493331323519
 20
12.60996301113264
 30
0.0
 41
1.0
 10
37.21442828318266
 20
12.32624086124359
 30
0.0
 41
1.0
 10
37.19275881228462
 20
11.75882252806764
 30
0.0
 41
1.0
 10
37.17112840230797
 20
11.47593437384736
 30
0.0
 41
1.0
 10
37.10627623329939
 20
10.91180009014217
 30
0.0
 41
1.0
 10
37.06271501745231
 20
10.63145381654605
 30
0.0
 41
1.0
 10
36.95332232307261
 20
10.07420300586678
 30
0.0
 41
1.0
 10
36.88704985896915
 20
9.798354987230608
 30
0.0
 41
1.0
 10
36.80920127795209
 20
9.525284355297906
 30
0.0
 41
1.0
 10
36.78142865266142
 20
9.427865902199928
 30
0.0
 41
1.0
 10
36.70753470596225
 20
9.374540079140187
 30
0.0
 41
1.0
 10
36.60546135399469
 20
9.374539880726871
 30
0.0
 41
1.0
 10
36.59669304521375
 20
9.37453986368276
 30
0.0
 41
1.000000000000001
 10
36.55127822304427
 20
9.374539742185123
 30
0.0
 41
1.000000000000003
 10
36.34096022352539
 20
9.3745391098412
 30
0.0
 41
1.000000000000002
 10
36.0403328690002
 20
9.374538188522973
 30
0.0
 41
1.000000000000003
 10
35.512411035972
 20
9.374536547762723
 30
0.0
 41
1.000000000000002
 10
35.04994702119442
 20
9.374535098255661
 30
0.0
 41
1.000000000000002
 10
34.7216908756551
 20
9.374534069035374
 30
0.0
 41
1.000000000000002
 10
0.4399819881693467
 20
9.374480155123859
 30
0.0
 41
1.0
  0
SPLINE
  5
A1
330
1F
100
AcDbEntity
  8
Layer 01
370
    -3
100
AcDbSpline
210
0.0
220
0.0
230
1.0
 70
     8
 71
     2
 72
    12
 73
     9
 74
     0
 42
0.000000001
 43
0.0000000001
 40
0.0
 40
0.0
 40
0.0
 40
1.0
 40
2.0
 40
3.0
 40
4.0
 40
5.0
 40
6.0
 40
7.0
 40
7.0
 40
7.0
 10
32.90052900997772
 20
15.81531469673978
 30
0.0
 10
30.85370804925966
 20
15.84683079213456
 30
0.0
 10
26.76717166680158
 20
16.09429371162128
 30
0.0
 10
22.67839044707443
 20
16.29387570153292
 30
0.0
 10
18.5854127848525
 20
16.37959354362928
 30
0.0
 10
14.50379670135531
 20
16.33539048628321
 30
0.0
 10
10.41306384371157
 20
16.17744703657096
 30
0.0
 10
6.328370815909182
 20
15.90297622631096
 30
0.0
 10
4.283250551331339
 20
15.82093130669888
 30
0.0
  0
SPLINE
  5
A2
330
1F
100
AcDbEntity
  8
Layer 01
370
    -3
100
AcDbSpline
210
0.0
220
0.0
230
1.0
 70
     8
 71
     3
 72
    11
 73
     7
 74
     0
 42
0.000000001
 43
0.0000000001
 40
0.1218401718276826
 40
0.1218401718276826
 40
0.1218401718276826
 40
0.1218401718276826
 40
0.3865545720813788
 40
0.895212546220733
 40
1.403870520360278
 40
1.912528494499633
 40
1.912528494499633
 40
1.912528494499633
 40
1.912528494499633
 10
-36.7277485128764
 20
6.153113401648476
 30
0.0
 10
-36.7654656436368
 20
6.074430485387705
 30
0.0
 10
-36.88740690258
 20
5.850088937639896
 30
0.0
 10
-37.14835657712071
 20
5.51342804943198
 30
0.0
 10
-37.57036821409072
 20
5.21809222306517
 30
0.0
 10
-37.90527628238071
 20
5.155548916798299
 30
0.0
 10
-38.07222087249072
 20
5.15291671227406
 30
0.0
  0
SPLINE
  5
A3
330
1F
100
AcDbEntity
  8
Layer 01
370
    -3
100
AcDbSpline
210
0.0
220
0.0
230
1.0
 70
     8
 71
     3
 72
    24
 73
    20
 74
     0
 42
0.000000001
 43
0.0000000001
 40
0.0
 40
0.0
 40
0.0
 40
0.0
 40
1.0
 40
1.0
 40
2.0
 40
2.0
 40
3.0
 40
3.0
 40
4.0
 40
4.0
 40
5.0
 40
5.0
 40
6.0
 40
6.0
 40
7.0
 40
7.0
 40
8.0
 40
8.0
 40
8.383552854681795
 40
8.383552854681795
 40
8.383552854681795
 40
8.383552854681795
 10
-36.88242485494433
 20
57.66060862422494
 30
0.0
 10
-36.9253053068983
 20
57.39859231404011
 30
0.0
 10
-36.9686688418081
 20
57.13665345484151
 30
0.0
 10
-37.05636207753935
 20
56.61293063841683
 30
0.0
 10
-37.10337798772892
 20
56.35162544636151
 30
0.0
 10
-37.20374839275598
 20
55.8301274945649
 30
0.0
 10
-37.26058423715337
 20
55.57080304234865
 30
0.0
 10
-37.38755720971589
 20
55.05500318528032
 30
0.0
 10
-37.46176263694555
 20
54.8001432774179
 30
0.0
 10
-37.63161137330171
 20
54.29650350303653
 30
0.0
 10
-37.73414273803549
 20
54.05169673630849
 30
0.0
 10
-37.97441946061446
 20
53.57610944377767
 30
0.0
 10
-38.12387326172027
 20
53.35738327836646
 30
0.0
 10
-38.48141174356462
 20
52.95806590925235
 30
0.0
 10
-38.69139907584272
 20
52.79958430503982
 30
0.0
 10
-39.17380992311072
 20
52.56497525730376
 30
0.0
 10
-39.42560041189734
 20
52.4829441800571
 30
0.0
 10
-39.78861085854869
 20
52.41825252672732
 30
0.0
 10
-39.88948782392902
 20
52.40332891429614
 30
0.0
 10
-39.99060686197758
 20
52.39141571213827
 30
0.0
  0
SPLINE
  5
A4
330
1F
100
AcDbEntity
  8
Layer 01
370
    -3
100
AcDbSpline
210
0.0
220
0.0
230
1.0
 70
     8
 71
     3
 72
     8
 73
     4
 74
     0
 42
0.000000001
 43
0.0000000001
 40
8.383552854681795
 40
8.383552854681795
 40
8.383552854681795
 40
8.383552854681795
 40
8.432851729459344
 40
8.432851729459344
 40
8.432851729459344
 40
8.432851729459344
 10
-39.99060686197758
 20
52.39141571213827
 30
0.0
 10
-40.0036039097991
 20
52.3898844825979
 30
0.0
 10
-40.01660495678571
 20
52.38840298658483
 30
0.0
 10
-40.0296100029374
 20
52.38697122409906
 30
0.0
  0
SPLINE
  5
A5
330
1F
100
AcDbEntity
  8
Layer 01
370
    -3
100
AcDbSpline
210
0.0
220
0.0
230
1.0
 70
     8
 71
     3
 72
    24
 73
    20
 74
     0
 42
0.000000001
 43
0.0000000001
 40
49.61644714596605
 40
49.61644714596605
 40
49.61644714596605
 40
49.61644714596605
 40
50.0
 40
50.0
 40
51.0
 40
51.0
 40
52.0
 40
52.0
 40
53.0
 40
53.0
 40
54.0
 40
54.0
 40
55.0
 40
55.0
 40
56.0
 40
56.0
 40
57.0
 40
57.0
 40
58.0
 40
58.0
 40
58.0
 40
58.0
 10
39.99060686146519
 20
52.39141571219864
 30
0.0
 10
39.88948782358825
 20
52.40332891434657
 30
0.0
 10
39.78861085837871
 20
52.41825252675762
 30
0.0
 10
39.42560041189734
 20
52.48294418005711
 30
0.0
 10
39.17380992311072
 20
52.56497525730376
 30
0.0
 10
38.69139907584271
 20
52.79958430503984
 30
0.0
 10
38.48141174356463
 20
52.95806590925236
 30
0.0
 10
38.12387326172027
 20
53.35738327836645
 30
0.0
 10
37.97441946061444
 20
53.57610944377768
 30
0.0
 10
37.73414273803549
 20
54.05169673630849
 30
0.0
 10
37.63161137330171
 20
54.29650350303654
 30
0.0
 10
37.46176263694555
 20
54.80014327741788
 30
0.0
 10
37.38755720971589
 20
55.05500318528032
 30
0.0
 10
37.26058423715338
 20
55.57080304234866
 30
0.0
 10
37.20374839275598
 20
55.83012749456489
 30
0.0
 10
37.10337798772892
 20
56.35162544636151
 30
0.0
 10
37.05636207753935
 20
56.61293063841683
 30
0.0
 10
36.9686688418081
 20
57.13665345484151
 30
0.0
 10
36.9253053068983
 20
57.39859231404011
 30
0.0
 10
36.88242485494433
 20
57.66060862422494
 30
0.0
  0
SPLINE
  5
A6
330
1F
100
AcDbEntity
  8
Layer 01
370
    -3
100
AcDbSpline
210
0.0
220
0.0
230
1.0
 70
    12
 71
     3
 72
    22
 73
    18
 74
     0
 42
0.000000001
 43
0.0000000001
 40
0.0047869785387464
 40
0.0047869785387464
 40
0.0047869785387464
 40
0.0047869785387464
 40
0.5394522531465389
 40
1.075334392332061
 40
1.075334392332061
 40
1.075334392332061
 40
3.100361303005504
 40
7.907568290106696
 40
12.7140903619081
 40
17.26768394457056
 40
26.62779977937235
 40
31.43500694227782
 40
33.46004189472526
 40
33.46004189472526
 40
33.46004189472526
 40
33.99600102254077
 40
34.53060092086616
 40
34.53060092086616
 40
34.53060092086616
 40
34.53060092086616
 10
34.0543988988227
 20
77.92512042933276
 30
0.0
 41
1.0
 10
34.05581396045151
 20
78.00514866058032
 30
0.0
 41
1.000000000000001
 10
33.82711908267525
 20
78.14416384772623
 30
0.0
 41
1.000000000000002
 10
33.28517021874107
 20
78.21647142324159
 30
0.0
 41
0.9999999999999996
 10
33.00825804405544
 20
78.2094018933307
 30
0.0
 41
1.0
 10
32.34299673789197
 20
78.19190325931436
 30
0.0
 41
0.9999999999999998
 10
30.09783874710857
 20
78.1661617413076
 30
0.0
 41
0.9999999999999993
 10
26.27164771677366
 20
78.15913531704413
 30
0.0
 41
0.9999999999999973
 10
21.61363800835648
 20
78.16098137875329
 30
0.0
 41
0.9999999999999991
 10
15.45898662209222
 20
78.16513976039542
 30
0.0
 41
0.9999999999999977
 10
9.303810809431509
 20
78.15647337251806
 30
0.0
 41
0.9999999999999986
 10
3.98049733945242
 20
78.16607839032982
 30
0.0
 41
0.9999999999999987
 10
1.747442598484384
 20
78.19187003961909
 30
0.0
 41
1.000000000000001
 10
1.082176539534967
 20
78.20936083055238
 30
0.0
 41
1.000000000000002
 10
0.8052092267581713
 20
78.21643456295831
 30
0.0
 41
1.000000000000002
 10
0.2632643081456836
 20
78.14413335992855
 30
0.0
 41
1.000000000000003
 10
0.0346026704169073
 20
78.00513290801617
 30
0.0
 41
1.000000000000003
 10
0.036016606012998
 20
77.92522431561477
 30
0.0
 41
1.000000000000002
  0
SPLINE
  5
A7
330
1F
100
AcDbEntity
  8
Layer 01
370
    -3
100
AcDbSpline
210
0.0
220
0.0
230
1.0
 70
    12
 71
     3
 72
    22
 73
    18
 74
     0
 42
0.000000001
 43
0.0000000001
 40
0.0047869785387464
 40
0.0047869785387464
 40
0.0047869785387464
 40
0.0047869785387464
 40
0.5394522531465389
 40
1.075334392332061
 40
1.075334392332061
 40
1.075334392332061
 40
3.100361303005504
 40
7.907568290106696
 40
12.7140903619081
 40
17.26768394457056
 40
26.62779977937235
 40
31.43500694227782
 40
33.46004189472526
 40
33.46004189472526
 40
33.46004189472526
 40
33.99600102254077
 40
34.53060092086616
 40
34.53060092086616
 40
34.53060092086616
 40
34.53060092086616
 10
-34.0543988988227
 20
77.92512042933276
 30
0.0
 41
1.0
 10
-34.05581396045151
 20
78.00514866058032
 30
0.0
 41
1.000000000000001
 10
-33.82711908267525
 20
78.14416384772623
 30
0.0
 41
1.000000000000002
 10
-33.28517021874107
 20
78.21647142324159
 30
0.0
 41
0.9999999999999996
 10
-33.00825804405544
 20
78.2094018933307
 30
0.0
 41
1.0
 10
-32.34299673789197
 20
78.19190325931436
 30
0.0
 41
0.9999999999999998
 10
-30.09783874710857
 20
78.1661617413076
 30
0.0
 41
0.9999999999999993
 10
-26.27164771677366
 20
78.15913531704413
 30
0.0
 41
0.9999999999999973
 10
-21.61363800835648
 20
78.16098137875329
 30
0.0
 41
0.9999999999999991
 10
-15.45898662209222
 20
78.16513976039542
 30
0.0
 41
0.9999999999999977
 10
-9.303810809431509
 20
78.15647337251806
 30
0.0
 41
0.9999999999999986
 10
-3.98049733945242
 20
78.16607839032982
 30
0.0
 41
0.9999999999999987
 10
-1.747442598484384
 20
78.19187003961909
 30
0.0
 41
1.000000000000001
 10
-1.082176539534967
 20
78.20936083055238
 30
0.0
 41
1.000000000000002
 10
-0.8052092267581713
 20
78.21643456295831
 30
0.0
 41
1.000000000000002
 10
-0.2632643081456836
 20
78.14413335992855
 30
0.0
 41
1.000000000000003
 10
-0.0346026704169073
 20
78.00513290801617
 30
0.0
 41
1.000000000000003
 10
-0.036016606012998
 20
77.92522431561477
 30
0.0
 41
1.000000000000002
  0
SPLINE
  5
A8
330
1F
100
AcDbEntity
  8
Layer 01
370
    -3
100
AcDbSpline
210
0.0
220
0.0
230
1.0
 70
     8
 71
     3
 72
     8
 73
     4
 74
     0
 42
0.000000001
 43
0.0000000001
 40
49.56714827054066
 40
49.56714827054066
 40
49.56714827054066
 40
49.56714827054066
 40
49.61644714596605
 40
49.61644714596605
 40
49.61644714596605
 40
49.61644714596605
 10
36.09627168766261
 20
52.38697122409907
 30
0.0
 10
36.08326664134001
 20
52.38840298660366
 30
0.0
 10
36.0702655941826
 20
52.38988448263685
 30
0.0
 10
36.05726854619039
 20
52.39141571219864
 30
0.0
  0
SPLINE
  5
A9
330
1F
100
AcDbEntity
  8
Layer 01
370
    -3
100
AcDbSpline
210
0.0
220
0.0
230
1.0
 70
    12
 71
     3
 72
    59
 73
    55
 74
     0
 42
0.000000001
 43
0.0000000001
 40
-4.674756550360757
 40
-4.674756550360757
 40
-4.674756550360757
 40
-4.674756550360757
 40
0.0
 40
0.0
 40
0.0
 40
1.0
 40
1.0
 40
2.0
 40
2.0
 40
3.0
 40
3.0
 40
4.0
 40
4.0
 40
5.0
 40
5.0
 40
6.0
 40
6.0
 40
7.0
 40
7.0
 40
8.0
 40
8.0
 40
9.0
 40
9.0
 40
10.0
 40
10.0
 40
10.0
 40
24.38345493329909
 40
38.76681824760448
 40
38.76681824760448
 40
38.76681824760448
 40
39.76681824760448
 40
39.76681824760448
 40
40.76681824760448
 40
40.76681824760448
 40
41.76681824760448
 40
41.76681824760448
 40
42.76681824760448
 40
42.76681824760448
 40
43.76681824760448
 40
43.76681824760448
 40
44.76681824760448
 40
44.76681824760448
 40
45.76681824760448
 40
45.76681824760448
 40
46.76681824760448
 40
46.76681824760448
 40
47.76681824760448
 40
47.76681824760448
 40
48.76681824760448
 40
48.76681824760448
 40
48.76681824760448
 40
49.76681824760448
 40
49.76681824760448
 40
50.76681824760448
 40
50.76681824760448
 40
50.76681824760448
 40
50.76681824760448
 10
35.95003400454894
 20
57.32351001035053
 30
0.0
 41
1.0
 10
36.13044953597607
 20
56.20367151887336
 30
0.0
 41
1.0
 10
36.3108650674032
 20
55.0838330273962
 30
0.0
 41
1.0
 10
36.49128059883034
 20
53.96399453591903
 30
0.0
 41
1.0
 10
36.52987416610674
 20
53.7244444161613
 30
0.0
 41
1.0
 10
36.56807214782739
 20
53.48482247175948
 30
0.0
 41
1.0
 10
36.64367694015725
 20
53.00543493366764
 30
0.0
 41
1.0
 10
36.68219115601738
 20
52.76589819812128
 30
0.0
 41
1.0
 10
36.76064322712806
 20
52.2871387940277
 30
0.0
 41
1.0
 10
36.79547140334559
 20
52.04680575526769
 30
0.0
 41
1.0
 10
36.85633203710503
 20
51.56423300432123
 30
0.0
 41
1.0
 10
36.85200850856337
 20
51.32213938441769
 30
0.0
 41
1.0
 10
36.77385376063734
 20
50.83633765574999
 30
0.0
 41
1.0
 10
36.67554071747986
 20
50.61833405004291
 30
0.0
 41
1.0
 10
36.36044329277598
 20
50.23212135588224
 30
0.0
 41
1.0
 10
36.16609100350384
 20
50.09274223881777
 30
0.0
 41
1.0
 10
35.7037792711191
 20
49.92143846472057
 30
0.0
 41
1.0
 10
35.46648273189273
 20
49.87449487574912
 30
0.0
 41
1.0
 10
34.97960830737201
 20
49.85802429396059
 30
0.0
 41
1.0
 10
34.73663897469967
 20
49.8543929377246
 30
0.0
 41
1.0
 10
34.25163606853106
 20
49.85633809456915
 30
0.0
 41
1.0
 10
34.00905355439733
 20
49.85800765955292
 30
0.0
 41
1.0
 10
33.52372640403106
 20
49.86274076264349
 30
0.0
 41
1.0
 10
33.28108478053912
 20
49.86206235669641
 30
0.0
 41
1.0
 10
33.03846510873839
 20
49.858338993257
 30
0.0
 41
1.0
 10
28.24391723194431
 20
49.86122227808653
 30
0.0
 41
1.0
 10
22.58804416822715
 20
49.86374760367693
 30
0.0
 41
1.000000000000001
 10
12.99880647783235
 20
49.86191473030755
 30
0.0
 41
0.9999999999999991
 10
4.282437537655403
 20
49.85884289928435
 30
0.0
 41
0.9999999999999996
 10
4.035747641785987
 20
49.8608058697129
 30
0.0
 41
0.9999999999999996
 10
3.789238943848345
 20
49.86145674238518
 30
0.0
 41
0.9999999999999996
 10
3.296583943836613
 20
49.86013429221723
 30
0.0
 41
0.9999999999999996
 10
3.050320228815042
 20
49.85838065791503
 30
0.0
 41
0.9999999999999996
 10
2.557920368740488
 20
49.85268857087419
 30
0.0
 41
0.9999999999999996
 10
2.311353946480844
 20
49.85695440226709
 30
0.0
 41
0.9999999999999996
 10
1.817488117516825
 20
49.87970981487951
 30
0.0
 41
0.9999999999999996
 10
1.57781149365474
 20
49.93118173678452
 30
0.0
 41
0.9999999999999996
 10
1.112970827170414
 20
50.11431401179212
 30
0.0
 41
0.9999999999999996
 10
0.9100527322608674
 20
50.24999221425387
 30
0.0
 41
0.9999999999999996
 10
0.5632210191070026
 20
50.60957274909325
 30
0.0
 41
0.9999999999999996
 10
0.4390914313593237
 20
50.81863451265385
 30
0.0
 41
0.9999999999999996
 10
0.2894047935224711
 20
51.29530103205684
 30
0.0
 41
0.9999999999999996
 10
0.2464660712958535
 20
51.53766484508269
 30
0.0
 41
0.9999999999999996
 10
0.224397820226236
 20
52.03045357778311
 30
0.0
 41
0.9999999999999996
 10
0.2201921476455109
 20
52.27679641808729
 30
0.0
 41
0.9999999999999996
 10
0.2254377083922252
 20
52.76937904660352
 30
0.0
 41
0.9999999999999996
 10
0.2275484603618647
 20
53.01567904647879
 30
0.0
 41
0.9999999999999996
 10
0.230745907493711
 20
53.5082964174637
 30
0.0
 41
0.9999999999999996
 10
0.2301572977327284
 20
53.75460057526514
 30
0.0
 41
0.9999999999999996
 10
0.2273813546448391
 20
54.00090020537557
 30
0.0
 41
0.9999999999999996
 10
0.2266269975154476
 20
57.32619591247212
 30
0.0
 41
0.9999999999999996
 10
0.2252630182568041
 20
60.6514913868082
 30
0.0
 41
0.9999999999999996
 10
0.2213158154810131
 20
67.30208186995942
 30
0.0
 41
0.9999999999999996
 10
0.2184684969009867
 20
70.62737636988305
 30
0.0
 41
0.9999999999999996
 10
0.2147474611288285
 20
73.95267012815471
 30
0.0
 41
0.9999999999999996
  0
SPLINE
  5
AA
330
1F
100
AcDbEntity
  8
Layer 01
370
    -3
100
AcDbSpline
210
0.0
220
0.0
230
1.0
 70
    12
 71
     3
 72
    59
 73
    55
 74
     0
 42
0.000000001
 43
0.0000000001
 40
-4.674756550360757
 40
-4.674756550360757
 40
-4.674756550360757
 40
-4.674756550360757
 40
0.0
 40
0.0
 40
0.0
 40
1.0
 40
1.0
 40
2.0
 40
2.0
 40
3.0
 40
3.0
 40
4.0
 40
4.0
 40
5.0
 40
5.0
 40
6.0
 40
6.0
 40
7.0
 40
7.0
 40
8.0
 40
8.0
 40
9.0
 40
9.0
 40
10.0
 40
10.0
 40
10.0
 40
24.38345493329909
 40
38.76681824760448
 40
38.76681824760448
 40
38.76681824760448
 40
39.76681824760448
 40
39.76681824760448
 40
40.76681824760448
 40
40.76681824760448
 40
41.76681824760448
 40
41.76681824760448
 40
42.76681824760448
 40
42.76681824760448
 40
43.76681824760448
 40
43.76681824760448
 40
44.76681824760448
 40
44.76681824760448
 40
45.76681824760448
 40
45.76681824760448
 40
46.76681824760448
 40
46.76681824760448
 40
47.76681824760448
 40
47.76681824760448
 40
48.76681824760448
 40
48.76681824760448
 40
48.76681824760448
 40
49.76681824760448
 40
49.76681824760448
 40
50.76681824760448
 40
50.76681824760448
 40
50.76681824760448
 40
50.76681824760448
 10
-35.95003400454894
 20
57.32351001035053
 30
0.0
 41
1.0
 10
-36.13044953597607
 20
56.20367151887336
 30
0.0
 41
1.0
 10
-36.3108650674032
 20
55.0838330273962
 30
0.0
 41
1.0
 10
-36.49128059883034
 20
53.96399453591903
 30
0.0
 41
1.0
 10
-36.52987416610674
 20
53.7244444161613
 30
0.0
 41
1.0
 10
-36.56807214782739
 20
53.48482247175948
 30
0.0
 41
1.0
 10
-36.64367694015725
 20
53.00543493366764
 30
0.0
 41
1.0
 10
-36.68219115601738
 20
52.76589819812128
 30
0.0
 41
1.0
 10
-36.76064322712806
 20
52.2871387940277
 30
0.0
 41
1.0
 10
-36.79547140334559
 20
52.04680575526769
 30
0.0
 41
1.0
 10
-36.85633203710503
 20
51.56423300432123
 30
0.0
 41
1.0
 10
-36.85200850856337
 20
51.32213938441769
 30
0.0
 41
1.0
 10
-36.77385376063734
 20
50.83633765574999
 30
0.0
 41
1.0
 10
-36.67554071747986
 20
50.61833405004291
 30
0.0
 41
1.0
 10
-36.36044329277598
 20
50.23212135588224
 30
0.0
 41
1.0
 10
-36.16609100350384
 20
50.09274223881777
 30
0.0
 41
1.0
 10
-35.7037792711191
 20
49.92143846472057
 30
0.0
 41
1.0
 10
-35.46648273189273
 20
49.87449487574912
 30
0.0
 41
1.0
 10
-34.97960830737201
 20
49.85802429396059
 30
0.0
 41
1.0
 10
-34.73663897469967
 20
49.8543929377246
 30
0.0
 41
1.0
 10
-34.25163606853106
 20
49.85633809456915
 30
0.0
 41
1.0
 10
-34.00905355439733
 20
49.85800765955292
 30
0.0
 41
1.0
 10
-33.52372640403106
 20
49.86274076264349
 30
0.0
 41
1.0
 10
-33.28108478053912
 20
49.86206235669641
 30
0.0
 41
1.0
 10
-33.03846510873839
 20
49.858338993257
 30
0.0
 41
1.0
 10
-28.24391723194431
 20
49.86122227808653
 30
0.0
 41
1.0
 10
-22.58804416822715
 20
49.86374760367693
 30
0.0
 41
1.000000000000001
 10
-12.99880647783235
 20
49.86191473030755
 30
0.0
 41
0.9999999999999991
 10
-4.282437537655403
 20
49.85884289928435
 30
0.0
 41
0.9999999999999996
 10
-4.035747641785987
 20
49.8608058697129
 30
0.0
 41
0.9999999999999996
 10
-3.789238943848345
 20
49.86145674238518
 30
0.0
 41
0.9999999999999996
 10
-3.296583943836613
 20
49.86013429221723
 30
0.0
 41
0.9999999999999996
 10
-3.050320228815042
 20
49.85838065791503
 30
0.0
 41
0.9999999999999996
 10
-2.557920368740488
 20
49.85268857087419
 30
0.0
 41
0.9999999999999996
 10
-2.311353946480844
 20
49.85695440226709
 30
0.0
 41
0.9999999999999996
 10
-1.817488117516825
 20
49.87970981487951
 30
0.0
 41
0.9999999999999996
 10
-1.57781149365474
 20
49.93118173678452
 30
0.0
 41
0.9999999999999996
 10
-1.112970827170414
 20
50.11431401179212
 30
0.0
 41
0.9999999999999996
 10
-0.9100527322608674
 20
50.24999221425387
 30
0.0
 41
0.9999999999999996
 10
-0.5632210191070026
 20
50.60957274909325
 30
0.0
 41
0.9999999999999996
 10
-0.4390914313593237
 20
50.81863451265385
 30
0.0
 41
0.9999999999999996
 10
-0.2894047935224711
 20
51.29530103205684
 30
0.0
 41
0.9999999999999996
 10
-0.2464660712958535
 20
51.53766484508269
 30
0.0
 41
0.9999999999999996
 10
-0.224397820226236
 20
52.03045357778311
 30
0.0
 41
0.9999999999999996
 10
-0.2201921476455109
 20
52.27679641808729
 30
0.0
 41
0.9999999999999996
 10
-0.2254377083922252
 20
52.76937904660352
 30
0.0
 41
0.9999999999999996
 10
-0.2275484603618647
 20
53.01567904647879
 30
0.0
 41
0.9999999999999996
 10
-0.230745907493711
 20
53.5082964174637
 30
0.0
 41
0.9999999999999996
 10
-0.2301572977327284
 20
53.75460057526514
 30
0.0
 41
0.9999999999999996
 10
-0.2273813546448391
 20
54.00090020537557
 30
0.0
 41
0.9999999999999996
 10
-0.2266269975154476
 20
57.32619591247212
 30
0.0
 41
0.9999999999999996
 10
-0.2252630182568041
 20
60.6514913868082
 30
0.0
 41
0.9999999999999996
 10
-0.2213158154810131
 20
67.30208186995942
 30
0.0
 41
0.9999999999999996
 10
-0.2184684969009867
 20
70.62737636988305
 30
0.0
 41
0.9999999999999996
 10
-0.2147474611288285
 20
73.95267012815471
 30
0.0
 41
0.9999999999999996
  0
ENDSEC
  0
SECTION
  2
OBJECTS
  0
DICTIONARY
  5
C
330
0
100
AcDbDictionary
281
     1
  3
ACAD_DETAILVIEWSTYLE
350
E6
  3
ACAD_GROUP
350
D
  3
ACAD_LAYOUT
350
1A
  3
ACAD_MATERIAL
350
43
  3
ACAD_MLEADERSTYLE
350
6B
  3
ACAD_MLINESTYLE
350
17
  3
ACAD_PLOTSETTINGS
350
19
  3
ACAD_PLOTSTYLENAME
350
E
  3
ACAD_SCALELIST
350
47
  3
ACAD_SECTIONVIEWSTYLE
350
E7
  3
ACAD_TABLESTYLE
350
69
  3
ACAD_VISUALSTYLE
350
2A
  3
ACDB_RECOMPOSE_DATA
350
E3
  3
AcDbVariableDictionary
350
AB
  0
SUN
  5
6D
330
29
100
AcDbSun
 90
        1
290
     0
 63
     7
421
 16777215
 40
1.0
291
     1
 91
  2455826
 92
 54000000
292
     0
 70
     2
 71
   256
280
     1
  0
DICTIONARY
  5
E6
102
{ACAD_REACTORS
330
C
102
}
330
C
100
AcDbDictionary
281
     1
  0
DICTIONARY
  5
D
102
{ACAD_REACTORS
330
C
102
}
330
C
100
AcDbDictionary
281
     1
  0
DICTIONARY
  5
1A
102
{ACAD_REACTORS
330
C
102
}
330
C
100
AcDbDictionary
281
     1
  3
Layout1
350
1E
  3
Layout2
350
26
  3
Model
350
22
  0
DICTIONARY
  5
43
102
{ACAD_REACTORS
330
C
102
}
330
C
100
AcDbDictionary
281
     1
  3
ByBlock
350
45
  3
ByLayer
350
44
  3
Global
350
46
  0
DICTIONARY
  5
6B
102
{ACAD_REACTORS
330
C
102
}
330
C
100
AcDbDictionary
281
     1
  3
Standard
350
6C
  0
DICTIONARY
  5
17
102
{ACAD_REACTORS
330
C
102
}
330
C
100
AcDbDictionary
281
     1
  3
Standard
350
18
  0
DICTIONARY
  5
19
102
{ACAD_REACTORS
330
C
102
}
330
C
100
AcDbDictionary
281
     1
  0
ACDBDICTIONARYWDFLT
  5
E
102
{ACAD_REACTORS
330
C
102
}
330
C
100
AcDbDictionary
281
     1
  3
Normal
350
F
100
AcDbDictionaryWithDefault
340
F
  0
DICTIONARY
  5
47
102
{ACAD_REACTORS
330
C
102
}
330
C
100
AcDbDictionary
281
     1
  3
A0
350
48
  3
A1
350
49
  3
A2
350
4A
  3
A3
350
4B
  3
A4
350
4C
  3
A5
350
4D
  3
A6
350
4E
  3
A7
350
4F
  3
A8
350
50
  3
A9
350
51
  3
B0
350
52
  3
B1
350
53
  3
B2
350
54
  3
B3
350
55
  3
B4
350
56
  3
B5
350
57
  3
B6
350
58
  3
B7
350
59
  3
B8
350
5A
  3
B9
350
5B
  3
C0
350
5C
  3
C1
350
5D
  3
C2
350
5E
  3
C3
350
5F
  3
C4
350
60
  3
C5
350
61
  3
C6
350
62
  3
C7
350
63
  3
C8
350
64
  3
C9
350
65
  3
D0
350
66
  3
D1
350
67
  3
D2
350
68
  0
DICTIONARY
  5
E7
102
{ACAD_REACTORS
330
C
102
}
330
C
100
AcDbDictionary
281
     1
  0
DICTIONARY
  5
69
102
{ACAD_REACTORS
330
C
102
}
330
C
100
AcDbDictionary
281
     1
  3
Standard
350
6A
  0
DICTIONARY
  5
2A
102
{ACAD_REACTORS
330
C
102
}
330
C
100
AcDbDictionary
281
     1
  3
2dWireframe
350
2F
  3
Basic
350
32
  3
Brighten
350
36
  3
ColorChange
350
3A
  3
Conceptual
350
34
  3
Dim
350
35
  3
EdgeColorOff
350
3D
  3
Facepattern
350
39
  3
Flat
350
2B
  3
FlatWithEdges
350
2C
  3
Gouraud
350
2D
  3
GouraudWithEdges
350
2E
  3
Hidden
350
31
  3
JitterOff
350
3B
  3
Linepattern
350
38
  3
OverhangOff
350
3C
  3
Realistic
350
33
  3
Shaded
350
42
  3
Shaded with edges
350
41
  3
Shades of Gray
350
3E
  3
Sketchy
350
3F
  3
Thicken
350
37
  3
Wireframe
350
30
  3
X-Ray
350
40
  0
XRECORD
  5
E3
102
{ACAD_REACTORS
330
C
102
}
330
C
100
AcDbXrecord
280
     1
 90
        1
330
6A
  0
DICTIONARY
  5
AB
102
{ACAD_REACTORS
330
C
102
}
330
C
100
AcDbDictionary
281
     1
  3
CANNOSCALE
350
AC
  3
CMLEADERSTYLE
350
E5
  3
CTABLESTYLE
350
E4
  3
XCLIPFRAME
350
AD
  0
LAYOUT
  5
1E
102
{ACAD_REACTORS
330
1A
102
}
330
1A
100
AcDbPlotSettings
  1

  2
none_device
  4

  6

 40
0.0
 41
0.0
 42
0.0
 43
0.0
 44
0.0
 45
0.0
 46
0.0
 47
0.0
 48
0.0
 49
0.0
140
0.0
141
0.0
142
1.0
143
1.0
 70
   688
 72
     0
 73
     0
 74
     5
  7

 75
    16
 76
     0
 77
     2
 78
   300
147
1.0
148
0.0
149
0.0
100
AcDbLayout
  1
Layout1
 70
     1
 71
     1
 10
0.0
 20
0.0
 11
12.0
 21
9.0
 12
0.0
 22
0.0
 32
0.0
 14
1.000000000000000E+20
 24
1.000000000000000E+20
 34
1.000000000000000E+20
 15
-1.000000000000000E+20
 25
-1.000000000000000E+20
 35
-1.000000000000000E+20
146
0.0
 13
0.0
 23
0.0
 33
0.0
 16
1.0
 26
0.0
 36
0.0
 17
0.0
 27
1.0
 37
0.0
 76
     0
330
1B
  0
LAYOUT
  5
26
102
{ACAD_REACTORS
330
1A
102
}
330
1A
100
AcDbPlotSettings
  1

  2
none_device
  4

  6

 40
0.0
 41
0.0
 42
0.0
 43
0.0
 44
0.0
 45
0.0
 46
0.0
 47
0.0
 48
0.0
 49
0.0
140
0.0
141
0.0
142
1.0
143
1.0
 70
   688
 72
     0
 73
     0
 74
     5
  7

 75
    16
 76
     0
 77
     2
 78
   300
147
1.0
148
0.0
149
0.0
100
AcDbLayout
  1
Layout2
 70
     1
 71
     2
 10
0.0
 20
0.0
 11
0.0
 21
0.0
 12
0.0
 22
0.0
 32
0.0
 14
0.0
 24
0.0
 34
0.0
 15
0.0
 25
0.0
 35
0.0
146
0.0
 13
0.0
 23
0.0
 33
0.0
 16
1.0
 26
0.0
 36
0.0
 17
0.0
 27
1.0
 37
0.0
 76
     0
330
23
  0
LAYOUT
  5
22
102
{ACAD_REACTORS
330
1A
102
}
330
1A
100
AcDbPlotSettings
  1

  2
none_device
  4
Letter_(8.50_x_11.00_Inches)
  6

 40
6.35
 41
6.35
 42
6.35000508
 43
6.35000508
 44
215.9
 45
279.4
 46
0.0
 47
0.0
 48
0.0
 49
0.0
140
0.0
141
0.0
142
1.0
143
1.0
 70
  1712
 72
     0
 73
     0
 74
     0
  7

 75
     0
 76
     0
 77
     2
 78
   300
147
1.0
148
0.0
149
0.0
100
AcDbLayout
  1
Model
 70
     1
 71
     0
 10
0.0
 20
0.0
 11
12.0
 21
9.0
 12
0.0
 22
0.0
 32
0.0
 14
1.000000000000000E+20
 24
1.000000000000000E+20
 34
1.000000000000000E+20
 15
-1.000000000000000E+20
 25
-1.000000000000000E+20
 35
-1.000000000000000E+20
146
0.0
 13
0.0
 23
0.0
 33
0.0
 16
1.0
 26
0.0
 36
0.0
 17
0.0
 27
1.0
 37
0.0
 76
     0
330
1F
331
29
  0
MATERIAL
  5
45
102
{ACAD_REACTORS
330
43
102
}
330
43
100
AcDbMaterial
  1
ByBlock
 72
     1
 94
      127
  0
MATERIAL
  5
44
102
{ACAD_REACTORS
330
43
102
}
330
43
100
AcDbMaterial
  1
ByLayer
 72
     1
 94
      127
  0
MATERIAL
  5
46
102
{ACAD_REACTORS
330
43
102
}
330
43
100
AcDbMaterial
  1
Global
 72
     1
 94
      127
  0
MLEADERSTYLE
  5
6C
102
{ACAD_REACTORS
330
6B
102
}
102
{ACAD_XDICTIONARY
360
E1
102
}
330
6B
100
AcDbMLeaderStyle
170
     2
171
     1
172
     0
 90
        2
 40
0.0
 41
0.0
173
     1
 91
-1056964608
340
14
 92
       -2
290
     1
 42
0.09
291
     1
 43
0.36
  3
Standard
341
0
 44
0.18
300

342
11
174
     1
178
     6
175
     1
176
     0
 93
-1056964608
 45
0.18
292
     0
297
     0
 46
0.18
343
0
 94
-1056964608
 47
1.0
 49
1.0
140
1.0
293
     1
141
0.0
294
     1
177
     0
142
1.0
295
     0
296
     0
143
0.125
1001
ACAD_MLEADERVER
1070
     2
  0
MLINESTYLE
  5
18
102
{ACAD_REACTORS
330
17
102
}
330
17
100
AcDbMlineStyle
  2
Standard
 70
     0
  3

 62
   256
 51
90.0
 52
90.0
 71
     2
 49
0.5
 62
   256
  6
BYLAYER
 49
-0.5
 62
   256
  6
BYLAYER
  0
ACDBPLACEHOLDER
  5
F
102
{ACAD_REACTORS
330
E
102
}
330
E
  0
SCALE
  5
48
102
{ACAD_REACTORS
330
47
102
}
330
47
100
AcDbScale
 70
     0
300
1:1
140
1.0
141
1.0
290
     1
  0
SCALE
  5
49
102
{ACAD_REACTORS
330
47
102
}
330
47
100
AcDbScale
 70
     0
300
1:2
140
1.0
141
2.0
290
     0
  0
SCALE
  5
4A
102
{ACAD_REACTORS
330
47
102
}
330
47
100
AcDbScale
 70
     0
300
1:4
140
1.0
141
4.0
290
     0
  0
SCALE
  5
4B
102
{ACAD_REACTORS
330
47
102
}
330
47
100
AcDbScale
 70
     0
300
1:5
140
1.0
141
5.0
290
     0
  0
SCALE
  5
4C
102
{ACAD_REACTORS
330
47
102
}
330
47
100
AcDbScale
 70
     0
300
1:8
140
1.0
141
8.0
290
     0
  0
SCALE
  5
4D
102
{ACAD_REACTORS
330
47
102
}
330
47
100
AcDbScale
 70
     0
300
1:10
140
1.0
141
10.0
290
     0
  0
SCALE
  5
4E
102
{ACAD_REACTORS
330
47
102
}
330
47
100
AcDbScale
 70
     0
300
1:16
140
1.0
141
16.0
290
     0
  0
SCALE
  5
4F
102
{ACAD_REACTORS
330
47
102
}
330
47
100
AcDbScale
 70
     0
300
1:20
140
1.0
141
20.0
290
     0
  0
SCALE
  5
50
102
{ACAD_REACTORS
330
47
102
}
330
47
100
AcDbScale
 70
     0
300
1:30
140
1.0
141
30.0
290
     0
  0
SCALE
  5
51
102
{ACAD_REACTORS
330
47
102
}
330
47
100
AcDbScale
 70
     0
300
1:40
140
1.0
141
40.0
290
     0
  0
SCALE
  5
52
102
{ACAD_REACTORS
330
47
102
}
330
47
100
AcDbScale
 70
     0
300
1:50
140
1.0
141
50.0
290
     0
  0
SCALE
  5
53
102
{ACAD_REACTORS
330
47
102
}
330
47
100
AcDbScale
 70
     0
300
1:100
140
1.0
141
100.0
290
     0
  0
SCALE
  5
54
102
{ACAD_REACTORS
330
47
102
}
330
47
100
AcDbScale
 70
     0
300
2:1
140
2.0
141
1.0
290
     0
  0
SCALE
  5
55
102
{ACAD_REACTORS
330
47
102
}
330
47
100
AcDbScale
 70
     0
300
4:1
140
4.0
141
1.0
290
     0
  0
SCALE
  5
56
102
{ACAD_REACTORS
330
47
102
}
330
47
100
AcDbScale
 70
     0
300
8:1
140
8.0
141
1.0
290
     0
  0
SCALE
  5
57
102
{ACAD_REACTORS
330
47
102
}
330
47
100
AcDbScale
 70
     0
300
10:1
140
10.0
141
1.0
290
     0
  0
SCALE
  5
58
102
{ACAD_REACTORS
330
47
102
}
330
47
100
AcDbScale
 70
     0
300
100:1
140
100.0
141
1.0
290
     0
  0
SCALE
  5
59
102
{ACAD_REACTORS
330
47
102
}
330
47
100
AcDbScale
 70
     0
300
1/128" = 1'-0"
140
0.0078125
141
12.0
290
     0
  0
SCALE
  5
5A
102
{ACAD_REACTORS
330
47
102
}
330
47
100
AcDbScale
 70
     0
300
1/64" = 1'-0"
140
0.015625
141
12.0
290
     0
  0
SCALE
  5
5B
102
{ACAD_REACTORS
330
47
102
}
330
47
100
AcDbScale
 70
     0
300
1/32" = 1'-0"
140
0.03125
141
12.0
290
     0
  0
SCALE
  5
5C
102
{ACAD_REACTORS
330
47
102
}
330
47
100
AcDbScale
 70
     0
300
1/16" = 1'-0"
140
0.0625
141
12.0
290
     0
  0
SCALE
  5
5D
102
{ACAD_REACTORS
330
47
102
}
330
47
100
AcDbScale
 70
     0
300
3/32" = 1'-0"
140
0.09375
141
12.0
290
     0
  0
SCALE
  5
5E
102
{ACAD_REACTORS
330
47
102
}
330
47
100
AcDbScale
 70
     0
300
1/8" = 1'-0"
140
0.125
141
12.0
290
     0
  0
SCALE
  5
5F
102
{ACAD_REACTORS
330
47
102
}
330
47
100
AcDbScale
 70
     0
300
3/16" = 1'-0"
140
0.1875
141
12.0
290
     0
  0
SCALE
  5
60
102
{ACAD_REACTORS
330
47
102
}
330
47
100
AcDbScale
 70
     0
300
1/4" = 1'-0"
140
0.25
141
12.0
290
     0
  0
SCALE
  5
61
102
{ACAD_REACTORS
330
47
102
}
330
47
100
AcDbScale
 70
     0
300
3/8" = 1'-0"
140
0.375
141
12.0
290
     0
  0
SCALE
  5
62
102
{ACAD_REACTORS
330
47
102
}
330
47
100
AcDbScale
 70
     0
300
1/2" = 1'-0"
140
0.5
141
12.0
290
     0
  0
SCALE
  5
63
102
{ACAD_REACTORS
330
47
102
}
330
47
100
AcDbScale
 70
     0
300
3/4" = 1'-0"
140
0.75
141
12.0
290
     0
  0
SCALE
  5
64
102
{ACAD_REACTORS
330
47
102
}
330
47
100
AcDbScale
 70
     0
300
1" = 1'-0"
140
1.0
141
12.0
290
     0
  0
SCALE
  5
65
102
{ACAD_REACTORS
330
47
102
}
330
47
100
AcDbScale
 70
     0
300
1-1/2" = 1'-0"
140
1.5
141
12.0
290
     0
  0
SCALE
  5
66
102
{ACAD_REACTORS
330
47
102
}
330
47
100
AcDbScale
 70
     0
300
3" = 1'-0"
140
3.0
141
12.0
290
     0
  0
SCALE
  5
67
102
{ACAD_REACTORS
330
47
102
}
330
47
100
AcDbScale
 70
     0
300
6" = 1'-0"
140
6.0
141
12.0
290
     0
  0
SCALE
  5
68
102
{ACAD_REACTORS
330
47
102
}
330
47
100
AcDbScale
 70
     0
300
1'-0" = 1'-0"
140
12.0
141
12.0
290
     0
  0
TABLESTYLE
  5
6A
102
{ACAD_REACTORS
330
69
102
}
102
{ACAD_XDICTIONARY
360
DE
102
}
330
69
100
AcDbTableStyle
  3
Standard
 70
     0
 71
     0
 40
0.06
 41
0.06
280
     0
281
     0
  7
Standard
140
0.18
170
     2
 62
     0
 63
   257
283
     0
 90
        4
 91
        0
  1

274
    -2
284
     1
 64
     0
275
    -2
285
     1
 65
     0
276
    -2
286
     1
 66
     0
277
    -2
287
     1
 67
     0
278
    -2
288
     1
 68
     0
279
    -2
289
     1
 69
     0
  7
Standard
140
0.25
170
     5
 62
     0
 63
   257
283
     0
 90
        4
 91
        0
  1

274
    -2
284
     1
 64
     0
275
    -2
285
     1
 65
     0
276
    -2
286
     1
 66
     0
277
    -2
287
     1
 67
     0
278
    -2
288
     1
 68
     0
279
    -2
289
     1
 69
     0
  7
Standard
140
0.18
170
     5
 62
     0
 63
   257
283
     0
 90
        4
 91
        0
  1

274
    -2
284
     1
 64
     0
275
    -2
285
     1
 65
     0
276
    -2
286
     1
 66
     0
277
    -2
287
     1
 67
     0
278
    -2
288
     1
 68
     0
279
    -2
289
     1
 69
     0
  0
VISUALSTYLE
  5
2F
102
{ACAD_REACTORS
330
2A
102
}
102
{ACAD_XDICTIONARY
360
B6
102
}
330
2A
100
AcDbVisualStyle
  2
2dWireframe
 70
     4
 71
     0
 72
     2
 73
     0
 90
        0
 40
0.6
 41
30.0
 62
     5
 63
     7
421
 16777215
 74
     1
 91
        4
 64
     7
 65
   257
 75
     1
175
     1
 42
1.0
 92
        0
 66
   257
 43
1.0
 76
     1
 77
     6
 78
     2
 67
     7
 79
     5
170
     0
171
     0
290
     0
174
     0
 93
        1
 44
0.0
173
     0
291
     0
 45
0.0
  0
VISUALSTYLE
  5
32
102
{ACAD_REACTORS
330
2A
102
}
102
{ACAD_XDICTIONARY
360
BC
102
}
330
2A
100
AcDbVisualStyle
  2
Basic
 70
     7
 71
     1
 72
     0
 73
     1
 90
        0
 40
0.6
 41
30.0
 62
     5
 63
     7
421
 16777215
 74
     0
 91
        4
 64
     7
 65
   257
 75
     1
175
     1
 42
1.0
 92
        8
 66
     7
 43
1.0
 76
     1
 77
     6
 78
     2
 67
     7
 79
     5
170
     0
171
     0
290
     0
174
     0
 93
        1
 44
0.0
173
     0
291
     1
 45
0.0
  0
VISUALSTYLE
  5
36
102
{ACAD_REACTORS
330
2A
102
}
102
{ACAD_XDICTIONARY
360
C4
102
}
330
2A
100
AcDbVisualStyle
  2
Brighten
 70
    12
 71
     2
 72
     2
 73
     0
 90
        0
 40
0.6
 41
30.0
 62
     5
 63
     7
421
 16777215
 74
     1
 91
        4
 64
     7
 65
   257
 75
     1
175
     1
 42
1.0
 92
        8
 66
     7
 43
1.0
 76
     1
 77
     6
 78
     2
 67
     7
 79
     5
170
     0
171
     0
290
     0
174
     0
 93
        1
 44
50.0
173
     0
291
     1
 45
0.0
  0
VISUALSTYLE
  5
3A
102
{ACAD_REACTORS
330
2A
102
}
102
{ACAD_XDICTIONARY
360
CC
102
}
330
2A
100
AcDbVisualStyle
  2
ColorChange
 70
    16
 71
     2
 72
     2
 73
     3
 90
        0
 40
0.6
 41
30.0
 62
     5
 63
     8
421
  8421504
 74
     1
 91
        4
 64
     7
 65
   257
 75
     1
175
     1
 42
1.0
 92
        8
 66
     8
424
  8421504
 43
1.0
 76
     1
 77
     6
 78
     2
 67
     7
 79
     5
170
     0
171
     0
290
     0
174
     0
 93
        1
 44
0.0
173
     0
291
     1
 45
0.0
  0
VISUALSTYLE
  5
34
102
{ACAD_REACTORS
330
2A
102
}
102
{ACAD_XDICTIONARY
360
C0
102
}
330
2A
100
AcDbVisualStyle
  2
Conceptual
 70
     9
 71
     3
 72
     2
 73
     0
 90
        0
 40
0.6
 41
30.0
 62
     5
 63
     7
421
 16777215
 74
     2
 91
        2
 64
     7
 65
   257
 75
     1
175
     1
 42
179.0
 92
        8
 66
     7
 43
1.0
 76
     1
 77
     6
 78
     2
 67
     7
 79
     3
170
     0
171
     0
290
     0
174
     0
 93
        1
 44
0.0
173
     0
291
     0
 45
0.0
  0
VISUALSTYLE
  5
35
102
{ACAD_REACTORS
330
2A
102
}
102
{ACAD_XDICTIONARY
360
C2
102
}
330
2A
100
AcDbVisualStyle
  2
Dim
 70
    11
 71
     2
 72
     2
 73
     0
 90
        0
 40
0.6
 41
30.0
 62
     5
 63
     7
421
 16777215
 74
     1
 91
        4
 64
     7
 65
   257
 75
     1
175
     1
 42
1.0
 92
        8
 66
     7
 43
1.0
 76
     1
 77
     6
 78
     2
 67
     7
 79
     5
170
     0
171
     0
290
     0
174
     0
 93
        1
 44
-50.0
173
     0
291
     1
 45
0.0
  0
VISUALSTYLE
  5
3D
102
{ACAD_REACTORS
330
2A
102
}
102
{ACAD_XDICTIONARY
360
D2
102
}
330
2A
100
AcDbVisualStyle
  2
EdgeColorOff
 70
    22
 71
     2
 72
     2
 73
     0
 90
        0
 40
0.6
 41
30.0
 62
     5
 63
     7
421
 16777215
 74
     1
 91
        4
 64
     7
 65
   257
 75
     1
175
     1
 42
1.0
 92
        8
 66
     7
 43
1.0
 76
     1
 77
     6
 78
     2
 67
     7
 79
     5
170
     0
171
     0
290
     0
174
     0
 93
        1
 44
0.0
173
     0
291
     1
 45
0.0
  0
VISUALSTYLE
  5
39
102
{ACAD_REACTORS
330
2A
102
}
102
{ACAD_XDICTIONARY
360
CA
102
}
330
2A
100
AcDbVisualStyle
  2
Facepattern
 70
    15
 71
     2
 72
     2
 73
     0
 90
        0
 40
0.6
 41
30.0
 62
     5
 63
     7
421
 16777215
 74
     1
 91
        4
 64
     7
 65
   257
 75
     1
175
     1
 42
1.0
 92
        8
 66
     7
 43
1.0
 76
     1
 77
     6
 78
     2
 67
     7
 79
     5
170
     0
171
     0
290
     0
174
     0
 93
        1
 44
0.0
173
     0
291
     1
 45
0.0
  0
VISUALSTYLE
  5
2B
102
{ACAD_REACTORS
330
2A
102
}
102
{ACAD_XDICTIONARY
360
AE
102
}
330
2A
100
AcDbVisualStyle
  2
Flat
 70
     0
 71
     2
 72
     1
 73
     1
 90
        2
 40
0.6
 41
30.0
 62
     5
 63
     7
421
 16777215
 74
     0
 91
        0
 64
     7
 65
   257
 75
     1
175
     1
 42
1.0
 92
        8
 66
     7
 43
1.0
 76
     1
 77
     6
 78
     2
 67
     7
 79
     5
170
     0
171
     0
290
     0
174
     0
 93
       13
 44
0.0
173
     0
291
     1
 45
0.0
  0
VISUALSTYLE
  5
2C
102
{ACAD_REACTORS
330
2A
102
}
102
{ACAD_XDICTIONARY
360
B0
102
}
330
2A
100
AcDbVisualStyle
  2
FlatWithEdges
 70
     1
 71
     2
 72
     1
 73
     1
 90
        2
 40
0.6
 41
30.0
 62
     5
 63
     7
421
 16777215
 74
     1
 91
        0
 64
     7
 65
   257
 75
     1
175
     1
 42
1.0
 92
        0
 66
   257
 43
1.0
 76
     1
 77
     6
 78
     2
 67
     7
 79
     5
170
     0
171
     0
290
     0
174
     0
 93
       13
 44
0.0
173
     0
291
     1
 45
0.0
  0
VISUALSTYLE
  5
2D
102
{ACAD_REACTORS
330
2A
102
}
102
{ACAD_XDICTIONARY
360
B2
102
}
330
2A
100
AcDbVisualStyle
  2
Gouraud
 70
     2
 71
     2
 72
     2
 73
     1
 90
        2
 40
0.6
 41
30.0
 62
     5
 63
     7
421
 16777215
 74
     0
 91
        0
 64
     7
 65
   257
 75
     1
175
     1
 42
1.0
 92
        0
 66
     7
 43
1.0
 76
     1
 77
     6
 78
     2
 67
     7
 79
     5
170
     0
171
     0
290
     0
174
     0
 93
       13
 44
0.0
173
     0
291
     1
 45
0.0
  0
VISUALSTYLE
  5
2E
102
{ACAD_REACTORS
330
2A
102
}
102
{ACAD_XDICTIONARY
360
B4
102
}
330
2A
100
AcDbVisualStyle
  2
GouraudWithEdges
 70
     3
 71
     2
 72
     2
 73
     1
 90
        2
 40
0.6
 41
30.0
 62
     5
 63
     7
421
 16777215
 74
     1
 91
        0
 64
     7
 65
   257
 75
     1
175
     1
 42
1.0
 92
        0
 66
   257
 43
1.0
 76
     1
 77
     6
 78
     2
 67
     7
 79
     5
170
     0
171
     0
290
     0
174
     0
 93
       13
 44
0.0
173
     0
291
     1
 45
0.0
  0
VISUALSTYLE
  5
31
102
{ACAD_REACTORS
330
2A
102
}
102
{ACAD_XDICTIONARY
360
BA
102
}
330
2A
100
AcDbVisualStyle
  2
Hidden
 70
     6
 71
     1
 72
     2
 73
     2
 90
        0
 40
0.6
 41
30.0
 62
     5
 63
     7
421
 16777215
 74
     2
 91
        2
 64
     7
 65
   257
 75
     2
175
     1
 42
40.0
 92
        0
 66
   257
 43
1.0
 76
     1
 77
     6
 78
     2
 67
     7
 79
     3
170
     0
171
     0
290
     0
174
     0
 93
        1
 44
0.0
173
     0
291
     0
 45
0.0
  0
VISUALSTYLE
  5
3B
102
{ACAD_REACTORS
330
2A
102
}
102
{ACAD_XDICTIONARY
360
CE
102
}
330
2A
100
AcDbVisualStyle
  2
JitterOff
 70
    20
 71
     2
 72
     2
 73
     0
 90
        0
 40
0.6
 41
30.0
 62
     5
 63
     7
421
 16777215
 74
     1
 91
        4
 64
     7
 65
   257
 75
     1
175
     1
 42
1.0
 92
       10
 66
     7
 43
1.0
 76
     1
 77
     6
 78
     2
 67
     7
 79
     5
170
     0
171
     0
290
     0
174
     0
 93
        1
 44
0.0
173
     0
291
     1
 45
0.0
  0
VISUALSTYLE
  5
38
102
{ACAD_REACTORS
330
2A
102
}
102
{ACAD_XDICTIONARY
360
C8
102
}
330
2A
100
AcDbVisualStyle
  2
Linepattern
 70
    14
 71
     2
 72
     2
 73
     0
 90
        0
 40
0.6
 41
30.0
 62
     5
 63
     7
421
 16777215
 74
     1
 91
        4
 64
     7
 65
   257
 75
     7
175
     7
 42
1.0
 92
        8
 66
     7
 43
1.0
 76
     1
 77
     6
 78
     2
 67
     7
 79
     5
170
     0
171
     0
290
     0
174
     0
 93
        1
 44
0.0
173
     0
291
     1
 45
0.0
  0
VISUALSTYLE
  5
3C
102
{ACAD_REACTORS
330
2A
102
}
102
{ACAD_XDICTIONARY
360
D0
102
}
330
2A
100
AcDbVisualStyle
  2
OverhangOff
 70
    21
 71
     2
 72
     2
 73
     0
 90
        0
 40
0.6
 41
30.0
 62
     5
 63
     7
421
 16777215
 74
     1
 91
        4
 64
     7
 65
   257
 75
     1
175
     1
 42
1.0
 92
        9
 66
     7
 43
1.0
 76
     1
 77
     6
 78
     2
 67
     7
 79
     5
170
     0
171
     0
290
     0
174
     0
 93
        1
 44
0.0
173
     0
291
     1
 45
0.0
  0
VISUALSTYLE
  5
33
102
{ACAD_REACTORS
330
2A
102
}
102
{ACAD_XDICTIONARY
360
BE
102
}
330
2A
100
AcDbVisualStyle
  2
Realistic
 70
     8
 71
     2
 72
     3
 73
     0
 90
        2
 40
0.6
 41
30.0
 62
     5
 63
     7
421
 16777215
 74
     0
 91
        0
 64
     7
 65
   257
 75
     1
175
     1
 42
1.0
 92
        8
 66
   257
 43
1.0
 76
     1
 77
     6
 78
     2
 67
     7
 79
     3
170
     0
171
     0
290
     0
174
     0
 93
       13
 44
0.0
173
     0
291
     0
 45
0.0
  0
VISUALSTYLE
  5
42
102
{ACAD_REACTORS
330
2A
102
}
102
{ACAD_XDICTIONARY
360
DC
102
}
330
2A
100
AcDbVisualStyle
  2
Shaded
 70
    27
 71
     2
 72
     2
 73
     1
 90
        2
 40
0.6
 41
30.0
 62
     5
 63
     7
421
 16777215
 74
     0
 91
        4
 64
     7
 65
   257
 75
     1
175
     1
 42
1.0
 92
        8
 66
   257
 43
1.0
 76
     1
 77
     6
 78
     2
 67
     8
425
  7895160
 79
     3
170
     0
171
     0
290
     0
174
     0
 93
        5
 44
0.0
173
     0
291
     0
 45
0.0
  0
VISUALSTYLE
  5
41
102
{ACAD_REACTORS
330
2A
102
}
102
{ACAD_XDICTIONARY
360
DA
102
}
330
2A
100
AcDbVisualStyle
  2
Shaded with edges
 70
    26
 71
     2
 72
     2
 73
     1
 90
        2
 40
0.6
 41
30.0
 62
     5
 63
     7
421
 16777215
 74
     1
 91
       10
 64
     7
 65
   257
 75
     2
175
     1
 42
1.0
 92
        8
 66
   257
 43
1.0
 76
     1
 77
     6
 78
     2
 67
     7
 79
     3
170
     0
171
     0
290
     0
174
     0
 93
        5
 44
0.0
173
     0
291
     0
 45
0.0
  0
VISUALSTYLE
  5
3E
102
{ACAD_REACTORS
330
2A
102
}
102
{ACAD_XDICTIONARY
360
D4
102
}
330
2A
100
AcDbVisualStyle
  2
Shades of Gray
 70
    23
 71
     2
 72
     2
 73
     3
 90
        0
 40
0.6
 41
30.0
 62
     5
 63
     7
421
 16777215
 74
     2
 91
        2
 64
     7
 65
     7
 75
     1
175
     1
 42
40.0
 92
        8
 66
     7
 43
1.0
 76
     1
 77
     6
 78
     2
 67
     7
 79
     3
170
     0
171
     0
290
     0
174
     0
 93
        1
 44
0.0
173
     0
291
     0
 45
0.0
  0
VISUALSTYLE
  5
3F
102
{ACAD_REACTORS
330
2A
102
}
102
{ACAD_XDICTIONARY
360
D6
102
}
330
2A
100
AcDbVisualStyle
  2
Sketchy
 70
    24
 71
     1
 72
     2
 73
     2
 90
        0
 40
0.6
 41
30.0
 62
     5
 63
     7
421
 16777215
 74
     2
 91
        2
 64
     7
 65
     7
 75
     1
175
     1
 42
40.0
 92
       11
 66
     7
 43
1.0
 76
     1
 77
     6
 78
     2
 67
     7
 79
     6
170
     0
171
     0
290
     0
174
     0
 93
        1
 44
0.0
173
     0
291
     0
 45
0.0
  0
VISUALSTYLE
  5
37
102
{ACAD_REACTORS
330
2A
102
}
102
{ACAD_XDICTIONARY
360
C6
102
}
330
2A
100
AcDbVisualStyle
  2
Thicken
 70
    13
 71
     2
 72
     2
 73
     0
 90
        0
 40
0.6
 41
30.0
 62
     5
 63
     7
421
 16777215
 74
     1
 91
        4
 64
     7
 65
   257
 75
     1
175
     1
 42
1.0
 92
       12
 66
     7
 43
1.0
 76
     1
 77
     6
 78
     2
 67
     7
 79
     5
170
     0
171
     0
290
     0
174
     0
 93
        1
 44
0.0
173
     0
291
     1
 45
0.0
  0
VISUALSTYLE
  5
30
102
{ACAD_REACTORS
330
2A
102
}
102
{ACAD_XDICTIONARY
360
B8
102
}
330
2A
100
AcDbVisualStyle
  2
Wireframe
 70
     5
 71
     0
 72
     2
 73
     0
 90
        0
 40
0.6
 41
30.0
 62
     5
 63
     7
421
 16777215
 74
     1
 91
        4
 64
     7
 65
   257
 75
     1
175
     1
 42
1.0
 92
        0
 66
   257
 43
1.0
 76
     1
 77
     6
 78
     2
 67
     7
 79
     3
170
     0
171
     0
290
     0
174
     0
 93
        1
 44
0.0
173
     0
291
     0
 45
0.0
  0
VISUALSTYLE
  5
40
102
{ACAD_REACTORS
330
2A
102
}
102
{ACAD_XDICTIONARY
360
D8
102
}
330
2A
100
AcDbVisualStyle
  2
X-Ray
 70
    25
 71
     2
 72
     2
 73
     1
 90
        1
 40
0.5
 41
30.0
 62
     5
 63
     7
421
 16777215
 74
     1
 91
        0
 64
     7
 65
   257
 75
     1
175
     1
 42
1.0
 92
        8
 66
     7
 43
1.0
 76
     1
 77
     6
 78
     2
 67
     7
 79
     3
170
     0
171
     0
290
     0
174
     0
 93
       13
 44
0.0
173
     0
291
     0
 45
0.0
  0
DICTIONARYVAR
  5
AC
102
{ACAD_REACTORS
330
AB
102
}
330
AB
100
DictionaryVariables
280
     0
  1
1:1
  0
DICTIONARYVAR
  5
E5
102
{ACAD_REACTORS
330
AB
102
}
330
AB
100
DictionaryVariables
280
     0
  1
Standard
  0
DICTIONARYVAR
  5
E4
102
{ACAD_REACTORS
330
AB
102
}
330
AB
100
DictionaryVariables
280
     0
  1
Standard
  0
DICTIONARYVAR
  5
AD
102
{ACAD_REACTORS
330
AB
102
}
330
AB
100
DictionaryVariables
280
     0
  1
2
  0
DICTIONARY
  5
E1
330
6C
100
AcDbDictionary
280
     1
281
     1
  3
ACAD_XREC_ROUNDTRIP
360
E2
  0
DICTIONARY
  5
DE
330
6A
100
AcDbDictionary
280
     1
281
     1
  3
ACAD_ROUNDTRIP_2008_TABLESTYLE_CELLSTYLEMAP
360
DF
  0
DICTIONARY
  5
B6
330
2F
100
AcDbDictionary
280
     1
281
     1
  3
ACAD_XREC_ROUNDTRIP
360
B7
  0
DICTIONARY
  5
BC
330
32
100
AcDbDictionary
280
     1
281
     1
  3
ACAD_XREC_ROUNDTRIP
360
BD
  0
DICTIONARY
  5
C4
330
36
100
AcDbDictionary
280
     1
281
     1
  3
ACAD_XREC_ROUNDTRIP
360
C5
  0
DICTIONARY
  5
CC
330
3A
100
AcDbDictionary
280
     1
281
     1
  3
ACAD_XREC_ROUNDTRIP
360
CD
  0
DICTIONARY
  5
C0
330
34
100
AcDbDictionary
280
     1
281
     1
  3
ACAD_XREC_ROUNDTRIP
360
C1
  0
DICTIONARY
  5
C2
330
35
100
AcDbDictionary
280
     1
281
     1
  3
ACAD_XREC_ROUNDTRIP
360
C3
  0
DICTIONARY
  5
D2
330
3D
100
AcDbDictionary
280
     1
281
     1
  3
ACAD_XREC_ROUNDTRIP
360
D3
  0
DICTIONARY
  5
CA
330
39
100
AcDbDictionary
280
     1
281
     1
  3
ACAD_XREC_ROUNDTRIP
360
CB
  0
DICTIONARY
  5
AE
330
2B
100
AcDbDictionary
280
     1
281
     1
  3
ACAD_XREC_ROUNDTRIP
360
AF
  0
DICTIONARY
  5
B0
330
2C
100
AcDbDictionary
280
     1
281
     1
  3
ACAD_XREC_ROUNDTRIP
360
B1
  0
DICTIONARY
  5
B2
330
2D
100
AcDbDictionary
280
     1
281
     1
  3
ACAD_XREC_ROUNDTRIP
360
B3
  0
DICTIONARY
  5
B4
330
2E
100
AcDbDictionary
280
     1
281
     1
  3
ACAD_XREC_ROUNDTRIP
360
B5
  0
DICTIONARY
  5
BA
330
31
100
AcDbDictionary
280
     1
281
     1
  3
ACAD_XREC_ROUNDTRIP
360
BB
  0
DICTIONARY
  5
CE
330
3B
100
AcDbDictionary
280
     1
281
     1
  3
ACAD_XREC_ROUNDTRIP
360
CF
  0
DICTIONARY
  5
C8
330
38
100
AcDbDictionary
280
     1
281
     1
  3
ACAD_XREC_ROUNDTRIP
360
C9
  0
DICTIONARY
  5
D0
330
3C
100
AcDbDictionary
280
     1
281
     1
  3
ACAD_XREC_ROUNDTRIP
360
D1
  0
DICTIONARY
  5
BE
330
33
100
AcDbDictionary
280
     1
281
     1
  3
ACAD_XREC_ROUNDTRIP
360
BF
  0
DICTIONARY
  5
DC
330
42
100
AcDbDictionary
280
     1
281
     1
  3
ACAD_XREC_ROUNDTRIP
360
DD
  0
DICTIONARY
  5
DA
330
41
100
AcDbDictionary
280
     1
281
     1
  3
ACAD_XREC_ROUNDTRIP
360
DB
  0
DICTIONARY
  5
D4
330
3E
100
AcDbDictionary
280
     1
281
     1
  3
ACAD_XREC_ROUNDTRIP
360
D5
  0
DICTIONARY
  5
D6
330
3F
100
AcDbDictionary
280
     1
281
     1
  3
ACAD_XREC_ROUNDTRIP
360
D7
  0
DICTIONARY
  5
C6
330
37
100
AcDbDictionary
280
     1
281
     1
  3
ACAD_XREC_ROUNDTRIP
360
C7
  0
DICTIONARY
  5
B8
330
30
100
AcDbDictionary
280
     1
281
     1
  3
ACAD_XREC_ROUNDTRIP
360
B9
  0
DICTIONARY
  5
D8
330
40
100
AcDbDictionary
280
     1
281
     1
  3
ACAD_XREC_ROUNDTRIP
360
D9
  0
XRECORD
  5
E2
102
{ACAD_REACTORS
330
E1
102
}
330
E1
100
AcDbXrecord
280
     1
102
ACAD_ROUNDTRIP_2010_MLEADER_STYLE
  0
CELLSTYLEMAP
  5
DF
102
{ACAD_REACTORS
330
DE
102
}
330
DE
100
AcDbCellStyleMap
 90
        3
300
CELLSTYLE
  1
TABLEFORMAT_BEGIN
 90
        5
170
     1
 91
        0
 92
    32768
 62
   257
 93
        1
300
CONTENTFORMAT
  1
CONTENTFORMAT_BEGIN
 90
        0
 91
        0
 92
        4
 93
        0
300

 40
0.0
140
1.0
 94
        5
 62
     0
340
11
144
0.25
309
CONTENTFORMAT_END
171
     1
301
MARGIN
  1
CELLMARGIN_BEGIN
 40
0.06
 40
0.06
 40
0.06
 40
0.06
 40
0.06
 40
0.06
309
CELLMARGIN_END
 94
        6
 95
        1
302
GRIDFORMAT
  1
GRIDFORMAT_BEGIN
 90
        0
 91
        1
 62
     0
 92
       -2
340
14
 93
        0
 40
0.045
309
GRIDFORMAT_END
 95
        2
302
GRIDFORMAT
  1
GRIDFORMAT_BEGIN
 90
        0
 91
        1
 62
     0
 92
       -2
340
14
 93
        0
 40
0.045
309
GRIDFORMAT_END
 95
        4
302
GRIDFORMAT
  1
GRIDFORMAT_BEGIN
 90
        0
 91
        1
 62
     0
 92
       -2
340
14
 93
        0
 40
0.045
309
GRIDFORMAT_END
 95
        8
302
GRIDFORMAT
  1
GRIDFORMAT_BEGIN
 90
        0
 91
        1
 62
     0
 92
       -2
340
14
 93
        0
 40
0.045
309
GRIDFORMAT_END
 95
       16
302
GRIDFORMAT
  1
GRIDFORMAT_BEGIN
 90
        0
 91
        1
 62
     0
 92
       -2
340
14
 93
        0
 40
0.045
309
GRIDFORMAT_END
 95
       32
302
GRIDFORMAT
  1
GRIDFORMAT_BEGIN
 90
        0
 91
        1
 62
     0
 92
       -2
340
14
 93
        0
 40
0.045
309
GRIDFORMAT_END
309
TABLEFORMAT_END
  1
CELLSTYLE_BEGIN
 90
        1
 91
        1
300
_TITLE
309
CELLSTYLE_END
300
CELLSTYLE
  1
TABLEFORMAT_BEGIN
 90
        5
170
     1
 91
        0
 92
        0
 62
   257
 93
        1
300
CONTENTFORMAT
  1
CONTENTFORMAT_BEGIN
 90
        0
 91
        0
 92
        4
 93
        0
300

 40
0.0
140
1.0
 94
        5
 62
     0
340
11
144
0.18
309
CONTENTFORMAT_END
171
     1
301
MARGIN
  1
CELLMARGIN_BEGIN
 40
0.06
 40
0.06
 40
0.06
 40
0.06
 40
0.06
 40
0.06
309
CELLMARGIN_END
 94
        6
 95
        1
302
GRIDFORMAT
  1
GRIDFORMAT_BEGIN
 90
        0
 91
        1
 62
     0
 92
       -2
340
14
 93
        0
 40
0.045
309
GRIDFORMAT_END
 95
        2
302
GRIDFORMAT
  1
GRIDFORMAT_BEGIN
 90
        0
 91
        1
 62
     0
 92
       -2
340
14
 93
        0
 40
0.045
309
GRIDFORMAT_END
 95
        4
302
GRIDFORMAT
  1
GRIDFORMAT_BEGIN
 90
        0
 91
        1
 62
     0
 92
       -2
340
14
 93
        0
 40
0.045
309
GRIDFORMAT_END
 95
        8
302
GRIDFORMAT
  1
GRIDFORMAT_BEGIN
 90
        0
 91
        1
 62
     0
 92
       -2
340
14
 93
        0
 40
0.045
309
GRIDFORMAT_END
 95
       16
302
GRIDFORMAT
  1
GRIDFORMAT_BEGIN
 90
        0
 91
        1
 62
     0
 92
       -2
340
14
 93
        0
 40
0.045
309
GRIDFORMAT_END
 95
       32
302
GRIDFORMAT
  1
GRIDFORMAT_BEGIN
 90
        0
 91
        1
 62
     0
 92
       -2
340
14
 93
        0
 40
0.045
309
GRIDFORMAT_END
309
TABLEFORMAT_END
  1
CELLSTYLE_BEGIN
 90
        2
 91
        1
300
_HEADER
309
CELLSTYLE_END
300
CELLSTYLE
  1
TABLEFORMAT_BEGIN
 90
        5
170
     1
 91
        0
 92
        0
 62
   257
 93
        1
300
CONTENTFORMAT
  1
CONTENTFORMAT_BEGIN
 90
        0
 91
        0
 92
        4
 93
        0
300

 40
0.0
140
1.0
 94
        2
 62
     0
340
11
144
0.18
309
CONTENTFORMAT_END
171
     1
301
MARGIN
  1
CELLMARGIN_BEGIN
 40
0.06
 40
0.06
 40
0.06
 40
0.06
 40
0.06
 40
0.06
309
CELLMARGIN_END
 94
        6
 95
        1
302
GRIDFORMAT
  1
GRIDFORMAT_BEGIN
 90
        0
 91
        1
 62
     0
 92
       -2
340
14
 93
        0
 40
0.045
309
GRIDFORMAT_END
 95
        2
302
GRIDFORMAT
  1
GRIDFORMAT_BEGIN
 90
        0
 91
        1
 62
     0
 92
       -2
340
14
 93
        0
 40
0.045
309
GRIDFORMAT_END
 95
        4
302
GRIDFORMAT
  1
GRIDFORMAT_BEGIN
 90
        0
 91
        1
 62
     0
 92
       -2
340
14
 93
        0
 40
0.045
309
GRIDFORMAT_END
 95
        8
302
GRIDFORMAT
  1
GRIDFORMAT_BEGIN
 90
        0
 91
        1
 62
     0
 92
       -2
340
14
 93
        0
 40
0.045
309
GRIDFORMAT_END
 95
       16
302
GRIDFORMAT
  1
GRIDFORMAT_BEGIN
 90
        0
 91
        1
 62
     0
 92
       -2
340
14
 93
        0
 40
0.045
309
GRIDFORMAT_END
 95
       32
302
GRIDFORMAT
  1
GRIDFORMAT_BEGIN
 90
        0
 91
        1
 62
     0
 92
       -2
340
14
 93
        0
 40
0.045
309
GRIDFORMAT_END
309
TABLEFORMAT_END
  1
CELLSTYLE_BEGIN
 90
        3
 91
        2
300
_DATA
309
CELLSTYLE_END
  0
XRECORD
  5
B7
102
{ACAD_REACTORS
330
B6
102
}
330
B6
100
AcDbXrecord
280
     1
102
RTVSPropertyOp0
 70
     1
102
RTVSPropertyOp1
 70
     1
102
RTVSPropertyOp2
 70
     1
102
RTVSPropertyOp3
 70
     1
102
RTVSPropertyOp4
 70
     1
102
RTVSPropertyOp5
 70
     1
102
RTVSPropertyOp6
 70
     1
102
RTVSPropertyOp7
 70
     1
102
RTVSPropertyOp8
 70
     1
102
RTVSPropertyOp9
 70
     1
102
RTVSPropertyOp10
 70
     1
102
RTVSPropertyOp11
 70
     1
102
RTVSPropertyOp12
 70
     1
102
RTVSPropertyOp13
 70
     1
102
RTVSPropertyOp14
 70
     1
102
RTVSPropertyOp15
 70
     1
102
RTVSPropertyOp16
 70
     1
102
RTVSPropertyOp17
 70
     1
102
RTVSPropertyOp18
 70
     1
102
RTVSPropertyOp19
 70
     1
102
RTVSPropertyOp20
 70
     1
102
RTVSPropertyOp21
 70
     1
102
RTVSPropertyOp22
 70
     1
102
RTVSPropertyOp23
 70
     1
102
RTVSPropertyOp24
 70
     1
102
RTVSPropertyOp25
 70
     1
102
RTVSPropertyOp26
 70
     1
102
RTVSPropertyOp27
 70
     1
102
RTVSPropertyOp28
 70
     1
102
RTVSPropertyOp29
 70
     1
102
RTVSPropertyOp30
 70
     1
102
RTVSPropertyOp31
 70
     1
102
RTVSPropertyOp32
 70
     1
102
RTVSPropertyOp33
 70
     1
102
RTVSPropertyOp34
 70
     1
102
RTVSPropertyOp35
 70
     1
102
RTVSPropertyOp36
 70
     1
102
RTVSPropertyOp37
 70
     1
102
RTVSPropertyOp38
 70
     1
102
RTVSPropertyOp39
 70
     1
102
RTVSPropertyOp40
 70
     1
102
RTVSPropertyOp41
 70
     1
102
RTVSPropertyOp42
 70
     1
102
RTVSPropertyOp43
 70
     1
102
RTVSPropertyOp44
 70
     1
102
RTVSPropertyOp45
 70
     1
102
RTVSPropertyOp46
 70
     1
102
RTVSPropertyOp47
 70
     1
102
RTVSPropertyOp48
 70
     1
102
RTVSPropertyOp49
 70
     1
102
RTVSPropertyOp50
 70
     1
102
RTVSPropertyOp51
 70
     0
102
RTVSPropertyOp52
 70
     0
102
RTVSPropertyOp53
 70
     1
102
RTVSPropertyOp54
 70
     1
102
RTVSPropertyOp55
 70
     1
102
RTVSPropertyOp56
 70
     1
102
RTVSPropertyOp57
 70
     1
102
RTVSPost2010Prop28
280
     1
102
RTVSPost2010PropOp28
 70
     1
102
RTVSPost2010Prop29
280
     1
102
RTVSPost2010PropOp29
 70
     1
102
RTVSPost2010Prop30
280
     0
102
RTVSPost2010PropOp30
 70
     1
102
RTVSPost2010Prop31
280
     0
102
RTVSPost2010PropOp31
 70
     1
102
RTVSPost2010Prop32
280
     0
102
RTVSPost2010PropOp32
 70
     1
102
RTVSPost2010Prop33
280
     0
102
RTVSPost2010PropOp33
 70
     1
102
RTVSPost2010Prop34
280
     0
102
RTVSPost2010PropOp34
 70
     1
102
RTVSPost2010Prop35
280
     0
102
RTVSPost2010PropOp35
 70
     1
102
RTVSPost2010Prop36
280
     0
102
RTVSPost2010PropOp36
 70
     1
102
RTVSPost2010Prop37
 90
       50
102
RTVSPost2010PropOp37
 70
     1
102
RTVSPost2010Prop38
140
0.0
102
RTVSPost2010PropOp38
 70
     1
102
RTVSPost2010Prop39
140
1.0
102
RTVSPost2010PropOp39
 70
     1
102
RTVSPost2010Prop40
 90
        0
102
RTVSPost2010PropOp40
 70
     1
102
RTVSPost2010Prop41ColorIndex
 90
       18
102
RTVSPost2010Prop41ColorRGB
 90
        0
102
RTVSPost2010PropOp41
 70
     1
102
RTVSPost2010Prop42
 90
       50
102
RTVSPost2010PropOp42
 70
     1
102
RTVSPost2010Prop43
 90
        3
102
RTVSPost2010PropOp43
 70
     1
102
RTVSPost2010Prop44ColorIndex
 90
        5
102
RTVSPost2010Prop44ColorRGB
 90
      255
102
RTVSPost2010PropOp44
 70
     1
102
RTVSPost2010Prop45
280
     0
102
RTVSPost2010PropOp45
 70
     1
102
RTVSPost2010Prop46
 90
       50
102
RTVSPost2010PropOp46
 70
     1
102
RTVSPost2010Prop47
 90
       50
102
RTVSPost2010PropOp47
 70
     1
102
RTVSPost2010Prop48
 90
       50
102
RTVSPost2010PropOp48
 70
     1
102
RTVSPost2010Prop49
280
     0
102
RTVSPost2010PropOp49
 70
     1
102
RTVSPost2010Prop50
 90
       50
102
RTVSPost2010PropOp50
 70
     1
102
RTVSPost2010Prop51ColorIndex
 90
      256
102
RTVSPost2010Prop51ColorRGB
 90
-16777216
102
RTVSPost2010PropOp51
 70
     0
102
RTVSPost2010Prop52
140
1.0
102
RTVSPost2010PropOp52
 70
     0
102
RTVSPost2010Prop53
 90
        2
102
RTVSPost2010PropOp53
 70
     1
102
RTVSPost2010Prop54
  1
strokes_ogs.tif
102
RTVSPost2010PropOp54
 70
     1
102
RTVSPost2010Prop55
280
     0
102
RTVSPost2010PropOp55
 70
     1
102
RTVSPost2010Prop56
140
1.0
102
RTVSPost2010PropOp56
 70
     1
102
RTVSPost2010Prop57
140
1.0
102
RTVSPost2010PropOp57
 70
     1
  0
XRECORD
  5
BD
102
{ACAD_REACTORS
330
BC
102
}
330
BC
100
AcDbXrecord
280
     1
102
RTVSPropertyOp0
 70
     1
102
RTVSPropertyOp1
 70
     1
102
RTVSPropertyOp2
 70
     1
102
RTVSPropertyOp3
 70
     1
102
RTVSPropertyOp4
 70
     1
102
RTVSPropertyOp5
 70
     1
102
RTVSPropertyOp6
 70
     1
102
RTVSPropertyOp7
 70
     1
102
RTVSPropertyOp8
 70
     1
102
RTVSPropertyOp9
 70
     1
102
RTVSPropertyOp10
 70
     1
102
RTVSPropertyOp11
 70
     1
102
RTVSPropertyOp12
 70
     1
102
RTVSPropertyOp13
 70
     1
102
RTVSPropertyOp14
 70
     1
102
RTVSPropertyOp15
 70
     1
102
RTVSPropertyOp16
 70
     1
102
RTVSPropertyOp17
 70
     1
102
RTVSPropertyOp18
 70
     1
102
RTVSPropertyOp19
 70
     1
102
RTVSPropertyOp20
 70
     1
102
RTVSPropertyOp21
 70
     1
102
RTVSPropertyOp22
 70
     1
102
RTVSPropertyOp23
 70
     1
102
RTVSPropertyOp24
 70
     1
102
RTVSPropertyOp25
 70
     1
102
RTVSPropertyOp26
 70
     1
102
RTVSPropertyOp27
 70
     1
102
RTVSPropertyOp28
 70
     1
102
RTVSPropertyOp29
 70
     1
102
RTVSPropertyOp30
 70
     1
102
RTVSPropertyOp31
 70
     1
102
RTVSPropertyOp32
 70
     1
102
RTVSPropertyOp33
 70
     1
102
RTVSPropertyOp34
 70
     1
102
RTVSPropertyOp35
 70
     1
102
RTVSPropertyOp36
 70
     1
102
RTVSPropertyOp37
 70
     1
102
RTVSPropertyOp38
 70
     1
102
RTVSPropertyOp39
 70
     1
102
RTVSPropertyOp40
 70
     1
102
RTVSPropertyOp41
 70
     1
102
RTVSPropertyOp42
 70
     1
102
RTVSPropertyOp43
 70
     1
102
RTVSPropertyOp44
 70
     1
102
RTVSPropertyOp45
 70
     1
102
RTVSPropertyOp46
 70
     1
102
RTVSPropertyOp47
 70
     1
102
RTVSPropertyOp48
 70
     1
102
RTVSPropertyOp49
 70
     1
102
RTVSPropertyOp50
 70
     1
102
RTVSPropertyOp51
 70
     0
102
RTVSPropertyOp52
 70
     0
102
RTVSPropertyOp53
 70
     1
102
RTVSPropertyOp54
 70
     1
102
RTVSPropertyOp55
 70
     1
102
RTVSPropertyOp56
 70
     1
102
RTVSPropertyOp57
 70
     1
102
RTVSPost2010Prop28
280
     0
102
RTVSPost2010PropOp28
 70
     1
102
RTVSPost2010Prop29
280
     1
102
RTVSPost2010PropOp29
 70
     1
102
RTVSPost2010Prop30
280
     1
102
RTVSPost2010PropOp30
 70
     1
102
RTVSPost2010Prop31
280
     0
102
RTVSPost2010PropOp31
 70
     1
102
RTVSPost2010Prop32
280
     0
102
RTVSPost2010PropOp32
 70
     1
102
RTVSPost2010Prop33
280
     0
102
RTVSPost2010PropOp33
 70
     1
102
RTVSPost2010Prop34
280
     0
102
RTVSPost2010PropOp34
 70
     1
102
RTVSPost2010Prop35
280
     0
102
RTVSPost2010PropOp35
 70
     1
102
RTVSPost2010Prop36
280
     0
102
RTVSPost2010PropOp36
 70
     1
102
RTVSPost2010Prop37
 90
       50
102
RTVSPost2010PropOp37
 70
     1
102
RTVSPost2010Prop38
140
0.0
102
RTVSPost2010PropOp38
 70
     1
102
RTVSPost2010Prop39
140
1.0
102
RTVSPost2010PropOp39
 70
     1
102
RTVSPost2010Prop40
 90
        0
102
RTVSPost2010PropOp40
 70
     1
102
RTVSPost2010Prop41ColorIndex
 90
       18
102
RTVSPost2010Prop41ColorRGB
 90
        0
102
RTVSPost2010PropOp41
 70
     1
102
RTVSPost2010Prop42
 90
       50
102
RTVSPost2010PropOp42
 70
     1
102
RTVSPost2010Prop43
 90
        3
102
RTVSPost2010PropOp43
 70
     1
102
RTVSPost2010Prop44ColorIndex
 90
        5
102
RTVSPost2010Prop44ColorRGB
 90
      255
102
RTVSPost2010PropOp44
 70
     1
102
RTVSPost2010Prop45
280
     0
102
RTVSPost2010PropOp45
 70
     1
102
RTVSPost2010Prop46
 90
       50
102
RTVSPost2010PropOp46
 70
     1
102
RTVSPost2010Prop47
 90
       50
102
RTVSPost2010PropOp47
 70
     1
102
RTVSPost2010Prop48
 90
       50
102
RTVSPost2010PropOp48
 70
     1
102
RTVSPost2010Prop49
280
     0
102
RTVSPost2010PropOp49
 70
     1
102
RTVSPost2010Prop50
 90
       50
102
RTVSPost2010PropOp50
 70
     1
102
RTVSPost2010Prop51ColorIndex
 90
      256
102
RTVSPost2010Prop51ColorRGB
 90
-16777216
102
RTVSPost2010PropOp51
 70
     0
102
RTVSPost2010Prop52
140
1.0
102
RTVSPost2010PropOp52
 70
     0
102
RTVSPost2010Prop53
 90
        2
102
RTVSPost2010PropOp53
 70
     1
102
RTVSPost2010Prop54
  1
strokes_ogs.tif
102
RTVSPost2010PropOp54
 70
     1
102
RTVSPost2010Prop55
280
     0
102
RTVSPost2010PropOp55
 70
     1
102
RTVSPost2010Prop56
140
1.0
102
RTVSPost2010PropOp56
 70
     1
102
RTVSPost2010Prop57
140
1.0
102
RTVSPost2010PropOp57
 70
     1
  0
XRECORD
  5
C5
102
{ACAD_REACTORS
330
C4
102
}
330
C4
100
AcDbXrecord
280
     1
102
RTVSPropertyOp0
 70
     1
102
RTVSPropertyOp1
 70
     1
102
RTVSPropertyOp2
 70
     1
102
RTVSPropertyOp3
 70
     1
102
RTVSPropertyOp4
 70
     1
102
RTVSPropertyOp5
 70
     1
102
RTVSPropertyOp6
 70
     1
102
RTVSPropertyOp7
 70
     1
102
RTVSPropertyOp8
 70
     1
102
RTVSPropertyOp9
 70
     1
102
RTVSPropertyOp10
 70
     1
102
RTVSPropertyOp11
 70
     1
102
RTVSPropertyOp12
 70
     1
102
RTVSPropertyOp13
 70
     1
102
RTVSPropertyOp14
 70
     1
102
RTVSPropertyOp15
 70
     1
102
RTVSPropertyOp16
 70
     1
102
RTVSPropertyOp17
 70
     1
102
RTVSPropertyOp18
 70
     1
102
RTVSPropertyOp19
 70
     1
102
RTVSPropertyOp20
 70
     1
102
RTVSPropertyOp21
 70
     1
102
RTVSPropertyOp22
 70
     1
102
RTVSPropertyOp23
 70
     1
102
RTVSPropertyOp24
 70
     1
102
RTVSPropertyOp25
 70
     1
102
RTVSPropertyOp26
 70
     1
102
RTVSPropertyOp27
 70
     1
102
RTVSPropertyOp28
 70
     1
102
RTVSPropertyOp29
 70
     1
102
RTVSPropertyOp30
 70
     1
102
RTVSPropertyOp31
 70
     1
102
RTVSPropertyOp32
 70
     1
102
RTVSPropertyOp33
 70
     1
102
RTVSPropertyOp34
 70
     1
102
RTVSPropertyOp35
 70
     1
102
RTVSPropertyOp36
 70
     1
102
RTVSPropertyOp37
 70
     1
102
RTVSPropertyOp38
 70
     1
102
RTVSPropertyOp39
 70
     1
102
RTVSPropertyOp40
 70
     1
102
RTVSPropertyOp41
 70
     1
102
RTVSPropertyOp42
 70
     1
102
RTVSPropertyOp43
 70
     1
102
RTVSPropertyOp44
 70
     1
102
RTVSPropertyOp45
 70
     1
102
RTVSPropertyOp46
 70
     1
102
RTVSPropertyOp47
 70
     1
102
RTVSPropertyOp48
 70
     1
102
RTVSPropertyOp49
 70
     1
102
RTVSPropertyOp50
 70
     1
102
RTVSPropertyOp51
 70
     0
102
RTVSPropertyOp52
 70
     0
102
RTVSPropertyOp53
 70
     1
102
RTVSPropertyOp54
 70
     1
102
RTVSPropertyOp55
 70
     1
102
RTVSPropertyOp56
 70
     1
102
RTVSPropertyOp57
 70
     1
102
RTVSPost2010Prop28
280
     0
102
RTVSPost2010PropOp28
 70
     1
102
RTVSPost2010Prop29
280
     1
102
RTVSPost2010PropOp29
 70
     1
102
RTVSPost2010Prop30
280
     1
102
RTVSPost2010PropOp30
 70
     1
102
RTVSPost2010Prop31
280
     0
102
RTVSPost2010PropOp31
 70
     1
102
RTVSPost2010Prop32
280
     0
102
RTVSPost2010PropOp32
 70
     1
102
RTVSPost2010Prop33
280
     0
102
RTVSPost2010PropOp33
 70
     1
102
RTVSPost2010Prop34
280
     0
102
RTVSPost2010PropOp34
 70
     1
102
RTVSPost2010Prop35
280
     0
102
RTVSPost2010PropOp35
 70
     1
102
RTVSPost2010Prop36
280
     0
102
RTVSPost2010PropOp36
 70
     1
102
RTVSPost2010Prop37
 90
       50
102
RTVSPost2010PropOp37
 70
     1
102
RTVSPost2010Prop38
140
0.0
102
RTVSPost2010PropOp38
 70
     1
102
RTVSPost2010Prop39
140
1.0
102
RTVSPost2010PropOp39
 70
     1
102
RTVSPost2010Prop40
 90
        0
102
RTVSPost2010PropOp40
 70
     1
102
RTVSPost2010Prop41ColorIndex
 90
       18
102
RTVSPost2010Prop41ColorRGB
 90
        0
102
RTVSPost2010PropOp41
 70
     1
102
RTVSPost2010Prop42
 90
       50
102
RTVSPost2010PropOp42
 70
     1
102
RTVSPost2010Prop43
 90
        3
102
RTVSPost2010PropOp43
 70
     1
102
RTVSPost2010Prop44ColorIndex
 90
        5
102
RTVSPost2010Prop44ColorRGB
 90
      255
102
RTVSPost2010PropOp44
 70
     1
102
RTVSPost2010Prop45
280
     0
102
RTVSPost2010PropOp45
 70
     1
102
RTVSPost2010Prop46
 90
       50
102
RTVSPost2010PropOp46
 70
     1
102
RTVSPost2010Prop47
 90
       50
102
RTVSPost2010PropOp47
 70
     1
102
RTVSPost2010Prop48
 90
       50
102
RTVSPost2010PropOp48
 70
     1
102
RTVSPost2010Prop49
280
     0
102
RTVSPost2010PropOp49
 70
     1
102
RTVSPost2010Prop50
 90
       50
102
RTVSPost2010PropOp50
 70
     1
102
RTVSPost2010Prop51ColorIndex
 90
      256
102
RTVSPost2010Prop51ColorRGB
 90
-16777216
102
RTVSPost2010PropOp51
 70
     0
102
RTVSPost2010Prop52
140
1.0
102
RTVSPost2010PropOp52
 70
     0
102
RTVSPost2010Prop53
 90
        2
102
RTVSPost2010PropOp53
 70
     1
102
RTVSPost2010Prop54
  1
strokes_ogs.tif
102
RTVSPost2010PropOp54
 70
     1
102
RTVSPost2010Prop55
280
     0
102
RTVSPost2010PropOp55
 70
     1
102
RTVSPost2010Prop56
140
1.0
102
RTVSPost2010PropOp56
 70
     1
102
RTVSPost2010Prop57
140
1.0
102
RTVSPost2010PropOp57
 70
     1
  0
XRECORD
  5
CD
102
{ACAD_REACTORS
330
CC
102
}
330
CC
100
AcDbXrecord
280
     1
102
RTVSPropertyOp0
 70
     1
102
RTVSPropertyOp1
 70
     1
102
RTVSPropertyOp2
 70
     1
102
RTVSPropertyOp3
 70
     1
102
RTVSPropertyOp4
 70
     1
102
RTVSPropertyOp5
 70
     1
102
RTVSPropertyOp6
 70
     1
102
RTVSPropertyOp7
 70
     1
102
RTVSPropertyOp8
 70
     1
102
RTVSPropertyOp9
 70
     1
102
RTVSPropertyOp10
 70
     1
102
RTVSPropertyOp11
 70
     1
102
RTVSPropertyOp12
 70
     1
102
RTVSPropertyOp13
 70
     1
102
RTVSPropertyOp14
 70
     1
102
RTVSPropertyOp15
 70
     1
102
RTVSPropertyOp16
 70
     1
102
RTVSPropertyOp17
 70
     1
102
RTVSPropertyOp18
 70
     1
102
RTVSPropertyOp19
 70
     1
102
RTVSPropertyOp20
 70
     1
102
RTVSPropertyOp21
 70
     1
102
RTVSPropertyOp22
 70
     1
102
RTVSPropertyOp23
 70
     1
102
RTVSPropertyOp24
 70
     1
102
RTVSPropertyOp25
 70
     1
102
RTVSPropertyOp26
 70
     1
102
RTVSPropertyOp27
 70
     1
102
RTVSPropertyOp28
 70
     1
102
RTVSPropertyOp29
 70
     1
102
RTVSPropertyOp30
 70
     1
102
RTVSPropertyOp31
 70
     1
102
RTVSPropertyOp32
 70
     1
102
RTVSPropertyOp33
 70
     1
102
RTVSPropertyOp34
 70
     1
102
RTVSPropertyOp35
 70
     1
102
RTVSPropertyOp36
 70
     1
102
RTVSPropertyOp37
 70
     1
102
RTVSPropertyOp38
 70
     1
102
RTVSPropertyOp39
 70
     1
102
RTVSPropertyOp40
 70
     1
102
RTVSPropertyOp41
 70
     1
102
RTVSPropertyOp42
 70
     1
102
RTVSPropertyOp43
 70
     1
102
RTVSPropertyOp44
 70
     1
102
RTVSPropertyOp45
 70
     1
102
RTVSPropertyOp46
 70
     1
102
RTVSPropertyOp47
 70
     1
102
RTVSPropertyOp48
 70
     1
102
RTVSPropertyOp49
 70
     1
102
RTVSPropertyOp50
 70
     1
102
RTVSPropertyOp51
 70
     0
102
RTVSPropertyOp52
 70
     0
102
RTVSPropertyOp53
 70
     1
102
RTVSPropertyOp54
 70
     1
102
RTVSPropertyOp55
 70
     1
102
RTVSPropertyOp56
 70
     1
102
RTVSPropertyOp57
 70
     1
102
RTVSPost2010Prop28
280
     0
102
RTVSPost2010PropOp28
 70
     1
102
RTVSPost2010Prop29
280
     1
102
RTVSPost2010PropOp29
 70
     1
102
RTVSPost2010Prop30
280
     1
102
RTVSPost2010PropOp30
 70
     1
102
RTVSPost2010Prop31
280
     0
102
RTVSPost2010PropOp31
 70
     1
102
RTVSPost2010Prop32
280
     0
102
RTVSPost2010PropOp32
 70
     1
102
RTVSPost2010Prop33
280
     0
102
RTVSPost2010PropOp33
 70
     1
102
RTVSPost2010Prop34
280
     0
102
RTVSPost2010PropOp34
 70
     1
102
RTVSPost2010Prop35
280
     0
102
RTVSPost2010PropOp35
 70
     1
102
RTVSPost2010Prop36
280
     0
102
RTVSPost2010PropOp36
 70
     1
102
RTVSPost2010Prop37
 90
       50
102
RTVSPost2010PropOp37
 70
     1
102
RTVSPost2010Prop38
140
0.0
102
RTVSPost2010PropOp38
 70
     1
102
RTVSPost2010Prop39
140
1.0
102
RTVSPost2010PropOp39
 70
     1
102
RTVSPost2010Prop40
 90
        0
102
RTVSPost2010PropOp40
 70
     1
102
RTVSPost2010Prop41ColorIndex
 90
       18
102
RTVSPost2010Prop41ColorRGB
 90
        0
102
RTVSPost2010PropOp41
 70
     1
102
RTVSPost2010Prop42
 90
       50
102
RTVSPost2010PropOp42
 70
     1
102
RTVSPost2010Prop43
 90
        3
102
RTVSPost2010PropOp43
 70
     1
102
RTVSPost2010Prop44ColorIndex
 90
        5
102
RTVSPost2010Prop44ColorRGB
 90
      255
102
RTVSPost2010PropOp44
 70
     1
102
RTVSPost2010Prop45
280
     0
102
RTVSPost2010PropOp45
 70
     1
102
RTVSPost2010Prop46
 90
       50
102
RTVSPost2010PropOp46
 70
     1
102
RTVSPost2010Prop47
 90
       50
102
RTVSPost2010PropOp47
 70
     1
102
RTVSPost2010Prop48
 90
       50
102
RTVSPost2010PropOp48
 70
     1
102
RTVSPost2010Prop49
280
     0
102
RTVSPost2010PropOp49
 70
     1
102
RTVSPost2010Prop50
 90
       50
102
RTVSPost2010PropOp50
 70
     1
102
RTVSPost2010Prop51ColorIndex
 90
      256
102
RTVSPost2010Prop51ColorRGB
 90
-16777216
102
RTVSPost2010PropOp51
 70
     0
102
RTVSPost2010Prop52
140
1.0
102
RTVSPost2010PropOp52
 70
     0
102
RTVSPost2010Prop53
 90
        2
102
RTVSPost2010PropOp53
 70
     1
102
RTVSPost2010Prop54
  1
strokes_ogs.tif
102
RTVSPost2010PropOp54
 70
     1
102
RTVSPost2010Prop55
280
     0
102
RTVSPost2010PropOp55
 70
     1
102
RTVSPost2010Prop56
140
1.0
102
RTVSPost2010PropOp56
 70
     1
102
RTVSPost2010Prop57
140
1.0
102
RTVSPost2010PropOp57
 70
     1
  0
XRECORD
  5
C1
102
{ACAD_REACTORS
330
C0
102
}
330
C0
100
AcDbXrecord
280
     1
102
RTVSPropertyOp0
 70
     1
102
RTVSPropertyOp1
 70
     1
102
RTVSPropertyOp2
 70
     1
102
RTVSPropertyOp3
 70
     1
102
RTVSPropertyOp4
 70
     1
102
RTVSPropertyOp5
 70
     1
102
RTVSPropertyOp6
 70
     1
102
RTVSPropertyOp7
 70
     1
102
RTVSPropertyOp8
 70
     1
102
RTVSPropertyOp9
 70
     1
102
RTVSPropertyOp10
 70
     1
102
RTVSPropertyOp11
 70
     1
102
RTVSPropertyOp12
 70
     1
102
RTVSPropertyOp13
 70
     1
102
RTVSPropertyOp14
 70
     1
102
RTVSPropertyOp15
 70
     1
102
RTVSPropertyOp16
 70
     1
102
RTVSPropertyOp17
 70
     1
102
RTVSPropertyOp18
 70
     1
102
RTVSPropertyOp19
 70
     1
102
RTVSPropertyOp20
 70
     1
102
RTVSPropertyOp21
 70
     1
102
RTVSPropertyOp22
 70
     1
102
RTVSPropertyOp23
 70
     1
102
RTVSPropertyOp24
 70
     1
102
RTVSPropertyOp25
 70
     1
102
RTVSPropertyOp26
 70
     1
102
RTVSPropertyOp27
 70
     1
102
RTVSPropertyOp28
 70
     1
102
RTVSPropertyOp29
 70
     1
102
RTVSPropertyOp30
 70
     1
102
RTVSPropertyOp31
 70
     1
102
RTVSPropertyOp32
 70
     1
102
RTVSPropertyOp33
 70
     1
102
RTVSPropertyOp34
 70
     1
102
RTVSPropertyOp35
 70
     1
102
RTVSPropertyOp36
 70
     1
102
RTVSPropertyOp37
 70
     1
102
RTVSPropertyOp38
 70
     1
102
RTVSPropertyOp39
 70
     1
102
RTVSPropertyOp40
 70
     1
102
RTVSPropertyOp41
 70
     1
102
RTVSPropertyOp42
 70
     1
102
RTVSPropertyOp43
 70
     1
102
RTVSPropertyOp44
 70
     1
102
RTVSPropertyOp45
 70
     1
102
RTVSPropertyOp46
 70
     1
102
RTVSPropertyOp47
 70
     1
102
RTVSPropertyOp48
 70
     1
102
RTVSPropertyOp49
 70
     1
102
RTVSPropertyOp50
 70
     1
102
RTVSPropertyOp51
 70
     0
102
RTVSPropertyOp52
 70
     0
102
RTVSPropertyOp53
 70
     1
102
RTVSPropertyOp54
 70
     1
102
RTVSPropertyOp55
 70
     1
102
RTVSPropertyOp56
 70
     1
102
RTVSPropertyOp57
 70
     1
102
RTVSPost2010Prop28
280
     0
102
RTVSPost2010PropOp28
 70
     1
102
RTVSPost2010Prop29
280
     1
102
RTVSPost2010PropOp29
 70
     1
102
RTVSPost2010Prop30
280
     1
102
RTVSPost2010PropOp30
 70
     1
102
RTVSPost2010Prop31
280
     0
102
RTVSPost2010PropOp31
 70
     1
102
RTVSPost2010Prop32
280
     0
102
RTVSPost2010PropOp32
 70
     1
102
RTVSPost2010Prop33
280
     0
102
RTVSPost2010PropOp33
 70
     1
102
RTVSPost2010Prop34
280
     0
102
RTVSPost2010PropOp34
 70
     1
102
RTVSPost2010Prop35
280
     0
102
RTVSPost2010PropOp35
 70
     1
102
RTVSPost2010Prop36
280
     0
102
RTVSPost2010PropOp36
 70
     1
102
RTVSPost2010Prop37
 90
       50
102
RTVSPost2010PropOp37
 70
     1
102
RTVSPost2010Prop38
140
0.0
102
RTVSPost2010PropOp38
 70
     1
102
RTVSPost2010Prop39
140
1.0
102
RTVSPost2010PropOp39
 70
     1
102
RTVSPost2010Prop40
 90
        0
102
RTVSPost2010PropOp40
 70
     1
102
RTVSPost2010Prop41ColorIndex
 90
       18
102
RTVSPost2010Prop41ColorRGB
 90
        0
102
RTVSPost2010PropOp41
 70
     1
102
RTVSPost2010Prop42
 90
       50
102
RTVSPost2010PropOp42
 70
     1
102
RTVSPost2010Prop43
 90
        3
102
RTVSPost2010PropOp43
 70
     1
102
RTVSPost2010Prop44ColorIndex
 90
        5
102
RTVSPost2010Prop44ColorRGB
 90
      255
102
RTVSPost2010PropOp44
 70
     1
102
RTVSPost2010Prop45
280
     0
102
RTVSPost2010PropOp45
 70
     1
102
RTVSPost2010Prop46
 90
       50
102
RTVSPost2010PropOp46
 70
     1
102
RTVSPost2010Prop47
 90
       50
102
RTVSPost2010PropOp47
 70
     1
102
RTVSPost2010Prop48
 90
       50
102
RTVSPost2010PropOp48
 70
     1
102
RTVSPost2010Prop49
280
     0
102
RTVSPost2010PropOp49
 70
     1
102
RTVSPost2010Prop50
 90
       50
102
RTVSPost2010PropOp50
 70
     1
102
RTVSPost2010Prop51ColorIndex
 90
      256
102
RTVSPost2010Prop51ColorRGB
 90
-16777216
102
RTVSPost2010PropOp51
 70
     0
102
RTVSPost2010Prop52
140
1.0
102
RTVSPost2010PropOp52
 70
     0
102
RTVSPost2010Prop53
 90
        2
102
RTVSPost2010PropOp53
 70
     1
102
RTVSPost2010Prop54
  1
strokes_ogs.tif
102
RTVSPost2010PropOp54
 70
     1
102
RTVSPost2010Prop55
280
     0
102
RTVSPost2010PropOp55
 70
     1
102
RTVSPost2010Prop56
140
1.0
102
RTVSPost2010PropOp56
 70
     1
102
RTVSPost2010Prop57
140
1.0
102
RTVSPost2010PropOp57
 70
     1
  0
XRECORD
  5
C3
102
{ACAD_REACTORS
330
C2
102
}
330
C2
100
AcDbXrecord
280
     1
102
RTVSPropertyOp0
 70
     1
102
RTVSPropertyOp1
 70
     1
102
RTVSPropertyOp2
 70
     1
102
RTVSPropertyOp3
 70
     1
102
RTVSPropertyOp4
 70
     1
102
RTVSPropertyOp5
 70
     1
102
RTVSPropertyOp6
 70
     1
102
RTVSPropertyOp7
 70
     1
102
RTVSPropertyOp8
 70
     1
102
RTVSPropertyOp9
 70
     1
102
RTVSPropertyOp10
 70
     1
102
RTVSPropertyOp11
 70
     1
102
RTVSPropertyOp12
 70
     1
102
RTVSPropertyOp13
 70
     1
102
RTVSPropertyOp14
 70
     1
102
RTVSPropertyOp15
 70
     1
102
RTVSPropertyOp16
 70
     1
102
RTVSPropertyOp17
 70
     1
102
RTVSPropertyOp18
 70
     1
102
RTVSPropertyOp19
 70
     1
102
RTVSPropertyOp20
 70
     1
102
RTVSPropertyOp21
 70
     1
102
RTVSPropertyOp22
 70
     1
102
RTVSPropertyOp23
 70
     1
102
RTVSPropertyOp24
 70
     1
102
RTVSPropertyOp25
 70
     1
102
RTVSPropertyOp26
 70
     1
102
RTVSPropertyOp27
 70
     1
102
RTVSPropertyOp28
 70
     1
102
RTVSPropertyOp29
 70
     1
102
RTVSPropertyOp30
 70
     1
102
RTVSPropertyOp31
 70
     1
102
RTVSPropertyOp32
 70
     1
102
RTVSPropertyOp33
 70
     1
102
RTVSPropertyOp34
 70
     1
102
RTVSPropertyOp35
 70
     1
102
RTVSPropertyOp36
 70
     1
102
RTVSPropertyOp37
 70
     1
102
RTVSPropertyOp38
 70
     1
102
RTVSPropertyOp39
 70
     1
102
RTVSPropertyOp40
 70
     1
102
RTVSPropertyOp41
 70
     1
102
RTVSPropertyOp42
 70
     1
102
RTVSPropertyOp43
 70
     1
102
RTVSPropertyOp44
 70
     1
102
RTVSPropertyOp45
 70
     1
102
RTVSPropertyOp46
 70
     1
102
RTVSPropertyOp47
 70
     1
102
RTVSPropertyOp48
 70
     1
102
RTVSPropertyOp49
 70
     1
102
RTVSPropertyOp50
 70
     1
102
RTVSPropertyOp51
 70
     0
102
RTVSPropertyOp52
 70
     0
102
RTVSPropertyOp53
 70
     1
102
RTVSPropertyOp54
 70
     1
102
RTVSPropertyOp55
 70
     1
102
RTVSPropertyOp56
 70
     1
102
RTVSPropertyOp57
 70
     1
102
RTVSPost2010Prop28
280
     0
102
RTVSPost2010PropOp28
 70
     1
102
RTVSPost2010Prop29
280
     1
102
RTVSPost2010PropOp29
 70
     1
102
RTVSPost2010Prop30
280
     1
102
RTVSPost2010PropOp30
 70
     1
102
RTVSPost2010Prop31
280
     0
102
RTVSPost2010PropOp31
 70
     1
102
RTVSPost2010Prop32
280
     0
102
RTVSPost2010PropOp32
 70
     1
102
RTVSPost2010Prop33
280
     0
102
RTVSPost2010PropOp33
 70
     1
102
RTVSPost2010Prop34
280
     0
102
RTVSPost2010PropOp34
 70
     1
102
RTVSPost2010Prop35
280
     0
102
RTVSPost2010PropOp35
 70
     1
102
RTVSPost2010Prop36
280
     0
102
RTVSPost2010PropOp36
 70
     1
102
RTVSPost2010Prop37
 90
       50
102
RTVSPost2010PropOp37
 70
     1
102
RTVSPost2010Prop38
140
0.0
102
RTVSPost2010PropOp38
 70
     1
102
RTVSPost2010Prop39
140
1.0
102
RTVSPost2010PropOp39
 70
     1
102
RTVSPost2010Prop40
 90
        0
102
RTVSPost2010PropOp40
 70
     1
102
RTVSPost2010Prop41ColorIndex
 90
       18
102
RTVSPost2010Prop41ColorRGB
 90
        0
102
RTVSPost2010PropOp41
 70
     1
102
RTVSPost2010Prop42
 90
       50
102
RTVSPost2010PropOp42
 70
     1
102
RTVSPost2010Prop43
 90
        3
102
RTVSPost2010PropOp43
 70
     1
102
RTVSPost2010Prop44ColorIndex
 90
        5
102
RTVSPost2010Prop44ColorRGB
 90
      255
102
RTVSPost2010PropOp44
 70
     1
102
RTVSPost2010Prop45
280
     0
102
RTVSPost2010PropOp45
 70
     1
102
RTVSPost2010Prop46
 90
       50
102
RTVSPost2010PropOp46
 70
     1
102
RTVSPost2010Prop47
 90
       50
102
RTVSPost2010PropOp47
 70
     1
102
RTVSPost2010Prop48
 90
       50
102
RTVSPost2010PropOp48
 70
     1
102
RTVSPost2010Prop49
280
     0
102
RTVSPost2010PropOp49
 70
     1
102
RTVSPost2010Prop50
 90
       50
102
RTVSPost2010PropOp50
 70
     1
102
RTVSPost2010Prop51ColorIndex
 90
      256
102
RTVSPost2010Prop51ColorRGB
 90
-16777216
102
RTVSPost2010PropOp51
 70
     0
102
RTVSPost2010Prop52
140
1.0
102
RTVSPost2010PropOp52
 70
     0
102
RTVSPost2010Prop53
 90
        2
102
RTVSPost2010PropOp53
 70
     1
102
RTVSPost2010Prop54
  1
strokes_ogs.tif
102
RTVSPost2010PropOp54
 70
     1
102
RTVSPost2010Prop55
280
     0
102
RTVSPost2010PropOp55
 70
     1
102
RTVSPost2010Prop56
140
1.0
102
RTVSPost2010PropOp56
 70
     1
102
RTVSPost2010Prop57
140
1.0
102
RTVSPost2010PropOp57
 70
     1
  0
XRECORD
  5
D3
102
{ACAD_REACTORS
330
D2
102
}
330
D2
100
AcDbXrecord
280
     1
102
RTVSPropertyOp0
 70
     0
102
RTVSPropertyOp1
 70
     0
102
RTVSPropertyOp2
 70
     0
102
RTVSPropertyOp3
 70
     0
102
RTVSPropertyOp4
 70
     0
102
RTVSPropertyOp5
 70
     0
102
RTVSPropertyOp6
 70
     0
102
RTVSPropertyOp7
 70
     0
102
RTVSPropertyOp8
 70
     0
102
RTVSPropertyOp9
 70
     0
102
RTVSPropertyOp10
 70
     0
102
RTVSPropertyOp11
 70
     0
102
RTVSPropertyOp12
 70
     0
102
RTVSPropertyOp13
 70
     0
102
RTVSPropertyOp14
 70
     2
102
RTVSPropertyOp15
 70
     0
102
RTVSPropertyOp16
 70
     0
102
RTVSPropertyOp17
 70
     0
102
RTVSPropertyOp18
 70
     0
102
RTVSPropertyOp19
 70
     0
102
RTVSPropertyOp20
 70
     0
102
RTVSPropertyOp21
 70
     0
102
RTVSPropertyOp22
 70
     0
102
RTVSPropertyOp23
 70
     0
102
RTVSPropertyOp24
 70
     0
102
RTVSPropertyOp25
 70
     0
102
RTVSPropertyOp26
 70
     0
102
RTVSPropertyOp27
 70
     0
102
RTVSPropertyOp28
 70
     0
102
RTVSPropertyOp29
 70
     0
102
RTVSPropertyOp30
 70
     0
102
RTVSPropertyOp31
 70
     0
102
RTVSPropertyOp32
 70
     0
102
RTVSPropertyOp33
 70
     0
102
RTVSPropertyOp34
 70
     0
102
RTVSPropertyOp35
 70
     0
102
RTVSPropertyOp36
 70
     0
102
RTVSPropertyOp37
 70
     0
102
RTVSPropertyOp38
 70
     0
102
RTVSPropertyOp39
 70
     0
102
RTVSPropertyOp40
 70
     0
102
RTVSPropertyOp41
 70
     0
102
RTVSPropertyOp42
 70
     0
102
RTVSPropertyOp43
 70
     0
102
RTVSPropertyOp44
 70
     0
102
RTVSPropertyOp45
 70
     0
102
RTVSPropertyOp46
 70
     0
102
RTVSPropertyOp47
 70
     0
102
RTVSPropertyOp48
 70
     0
102
RTVSPropertyOp49
 70
     0
102
RTVSPropertyOp50
 70
     0
102
RTVSPropertyOp51
 70
     0
102
RTVSPropertyOp52
 70
     0
102
RTVSPropertyOp53
 70
     0
102
RTVSPropertyOp54
 70
     0
102
RTVSPropertyOp55
 70
     0
102
RTVSPropertyOp56
 70
     0
102
RTVSPropertyOp57
 70
     0
102
RTVSPost2010Prop28
280
     0
102
RTVSPost2010PropOp28
 70
     0
102
RTVSPost2010Prop29
280
     1
102
RTVSPost2010PropOp29
 70
     0
102
RTVSPost2010Prop30
280
     1
102
RTVSPost2010PropOp30
 70
     0
102
RTVSPost2010Prop31
280
     0
102
RTVSPost2010PropOp31
 70
     0
102
RTVSPost2010Prop32
280
     0
102
RTVSPost2010PropOp32
 70
     0
102
RTVSPost2010Prop33
280
     0
102
RTVSPost2010PropOp33
 70
     0
102
RTVSPost2010Prop34
280
     0
102
RTVSPost2010PropOp34
 70
     0
102
RTVSPost2010Prop35
280
     0
102
RTVSPost2010PropOp35
 70
     0
102
RTVSPost2010Prop36
280
     0
102
RTVSPost2010PropOp36
 70
     0
102
RTVSPost2010Prop37
 90
       50
102
RTVSPost2010PropOp37
 70
     0
102
RTVSPost2010Prop38
140
0.0
102
RTVSPost2010PropOp38
 70
     0
102
RTVSPost2010Prop39
140
1.0
102
RTVSPost2010PropOp39
 70
     0
102
RTVSPost2010Prop40
 90
        0
102
RTVSPost2010PropOp40
 70
     0
102
RTVSPost2010Prop41ColorIndex
 90
       18
102
RTVSPost2010Prop41ColorRGB
 90
        0
102
RTVSPost2010PropOp41
 70
     0
102
RTVSPost2010Prop42
 90
       50
102
RTVSPost2010PropOp42
 70
     0
102
RTVSPost2010Prop43
 90
        3
102
RTVSPost2010PropOp43
 70
     0
102
RTVSPost2010Prop44ColorIndex
 90
        5
102
RTVSPost2010Prop44ColorRGB
 90
      255
102
RTVSPost2010PropOp44
 70
     0
102
RTVSPost2010Prop45
280
     0
102
RTVSPost2010PropOp45
 70
     0
102
RTVSPost2010Prop46
 90
       50
102
RTVSPost2010PropOp46
 70
     0
102
RTVSPost2010Prop47
 90
       50
102
RTVSPost2010PropOp47
 70
     0
102
RTVSPost2010Prop48
 90
       50
102
RTVSPost2010PropOp48
 70
     0
102
RTVSPost2010Prop49
280
     0
102
RTVSPost2010PropOp49
 70
     0
102
RTVSPost2010Prop50
 90
       50
102
RTVSPost2010PropOp50
 70
     0
102
RTVSPost2010Prop51ColorIndex
 90
      256
102
RTVSPost2010Prop51ColorRGB
 90
-16777216
102
RTVSPost2010PropOp51
 70
     0
102
RTVSPost2010Prop52
140
1.0
102
RTVSPost2010PropOp52
 70
     0
102
RTVSPost2010Prop53
 90
        2
102
RTVSPost2010PropOp53
 70
     0
102
RTVSPost2010Prop54
  1
strokes_ogs.tif
102
RTVSPost2010PropOp54
 70
     0
102
RTVSPost2010Prop55
280
     0
102
RTVSPost2010PropOp55
 70
     0
102
RTVSPost2010Prop56
140
1.0
102
RTVSPost2010PropOp56
 70
     0
102
RTVSPost2010Prop57
140
1.0
102
RTVSPost2010PropOp57
 70
     0
  0
XRECORD
  5
CB
102
{ACAD_REACTORS
330
CA
102
}
330
CA
100
AcDbXrecord
280
     1
102
RTVSPropertyOp0
 70
     1
102
RTVSPropertyOp1
 70
     1
102
RTVSPropertyOp2
 70
     1
102
RTVSPropertyOp3
 70
     1
102
RTVSPropertyOp4
 70
     1
102
RTVSPropertyOp5
 70
     1
102
RTVSPropertyOp6
 70
     1
102
RTVSPropertyOp7
 70
     1
102
RTVSPropertyOp8
 70
     1
102
RTVSPropertyOp9
 70
     1
102
RTVSPropertyOp10
 70
     1
102
RTVSPropertyOp11
 70
     1
102
RTVSPropertyOp12
 70
     1
102
RTVSPropertyOp13
 70
     1
102
RTVSPropertyOp14
 70
     1
102
RTVSPropertyOp15
 70
     1
102
RTVSPropertyOp16
 70
     1
102
RTVSPropertyOp17
 70
     1
102
RTVSPropertyOp18
 70
     1
102
RTVSPropertyOp19
 70
     1
102
RTVSPropertyOp20
 70
     1
102
RTVSPropertyOp21
 70
     1
102
RTVSPropertyOp22
 70
     1
102
RTVSPropertyOp23
 70
     1
102
RTVSPropertyOp24
 70
     1
102
RTVSPropertyOp25
 70
     1
102
RTVSPropertyOp26
 70
     1
102
RTVSPropertyOp27
 70
     1
102
RTVSPropertyOp28
 70
     1
102
RTVSPropertyOp29
 70
     1
102
RTVSPropertyOp30
 70
     1
102
RTVSPropertyOp31
 70
     1
102
RTVSPropertyOp32
 70
     1
102
RTVSPropertyOp33
 70
     1
102
RTVSPropertyOp34
 70
     1
102
RTVSPropertyOp35
 70
     1
102
RTVSPropertyOp36
 70
     1
102
RTVSPropertyOp37
 70
     1
102
RTVSPropertyOp38
 70
     1
102
RTVSPropertyOp39
 70
     1
102
RTVSPropertyOp40
 70
     1
102
RTVSPropertyOp41
 70
     1
102
RTVSPropertyOp42
 70
     1
102
RTVSPropertyOp43
 70
     1
102
RTVSPropertyOp44
 70
     1
102
RTVSPropertyOp45
 70
     1
102
RTVSPropertyOp46
 70
     1
102
RTVSPropertyOp47
 70
     1
102
RTVSPropertyOp48
 70
     1
102
RTVSPropertyOp49
 70
     1
102
RTVSPropertyOp50
 70
     1
102
RTVSPropertyOp51
 70
     0
102
RTVSPropertyOp52
 70
     0
102
RTVSPropertyOp53
 70
     1
102
RTVSPropertyOp54
 70
     1
102
RTVSPropertyOp55
 70
     1
102
RTVSPropertyOp56
 70
     1
102
RTVSPropertyOp57
 70
     1
102
RTVSPost2010Prop28
280
     0
102
RTVSPost2010PropOp28
 70
     1
102
RTVSPost2010Prop29
280
     1
102
RTVSPost2010PropOp29
 70
     1
102
RTVSPost2010Prop30
280
     1
102
RTVSPost2010PropOp30
 70
     1
102
RTVSPost2010Prop31
280
     0
102
RTVSPost2010PropOp31
 70
     1
102
RTVSPost2010Prop32
280
     0
102
RTVSPost2010PropOp32
 70
     1
102
RTVSPost2010Prop33
280
     0
102
RTVSPost2010PropOp33
 70
     1
102
RTVSPost2010Prop34
280
     0
102
RTVSPost2010PropOp34
 70
     1
102
RTVSPost2010Prop35
280
     0
102
RTVSPost2010PropOp35
 70
     1
102
RTVSPost2010Prop36
280
     0
102
RTVSPost2010PropOp36
 70
     1
102
RTVSPost2010Prop37
 90
       50
102
RTVSPost2010PropOp37
 70
     1
102
RTVSPost2010Prop38
140
0.0
102
RTVSPost2010PropOp38
 70
     1
102
RTVSPost2010Prop39
140
1.0
102
RTVSPost2010PropOp39
 70
     1
102
RTVSPost2010Prop40
 90
        0
102
RTVSPost2010PropOp40
 70
     1
102
RTVSPost2010Prop41ColorIndex
 90
       18
102
RTVSPost2010Prop41ColorRGB
 90
        0
102
RTVSPost2010PropOp41
 70
     1
102
RTVSPost2010Prop42
 90
       50
102
RTVSPost2010PropOp42
 70
     1
102
RTVSPost2010Prop43
 90
        3
102
RTVSPost2010PropOp43
 70
     1
102
RTVSPost2010Prop44ColorIndex
 90
        5
102
RTVSPost2010Prop44ColorRGB
 90
      255
102
RTVSPost2010PropOp44
 70
     1
102
RTVSPost2010Prop45
280
     0
102
RTVSPost2010PropOp45
 70
     1
102
RTVSPost2010Prop46
 90
       50
102
RTVSPost2010PropOp46
 70
     1
102
RTVSPost2010Prop47
 90
       50
102
RTVSPost2010PropOp47
 70
     1
102
RTVSPost2010Prop48
 90
       50
102
RTVSPost2010PropOp48
 70
     1
102
RTVSPost2010Prop49
280
     0
102
RTVSPost2010PropOp49
 70
     1
102
RTVSPost2010Prop50
 90
       50
102
RTVSPost2010PropOp50
 70
     1
102
RTVSPost2010Prop51ColorIndex
 90
      256
102
RTVSPost2010Prop51ColorRGB
 90
-16777216
102
RTVSPost2010PropOp51
 70
     0
102
RTVSPost2010Prop52
140
1.0
102
RTVSPost2010PropOp52
 70
     0
102
RTVSPost2010Prop53
 90
        2
102
RTVSPost2010PropOp53
 70
     1
102
RTVSPost2010Prop54
  1
strokes_ogs.tif
102
RTVSPost2010PropOp54
 70
     1
102
RTVSPost2010Prop55
280
     0
102
RTVSPost2010PropOp55
 70
     1
102
RTVSPost2010Prop56
140
1.0
102
RTVSPost2010PropOp56
 70
     1
102
RTVSPost2010Prop57
140
1.0
102
RTVSPost2010PropOp57
 70
     1
  0
XRECORD
  5
AF
102
{ACAD_REACTORS
330
AE
102
}
330
AE
100
AcDbXrecord
280
     1
102
RTVSPropertyOp0
 70
     1
102
RTVSPropertyOp1
 70
     1
102
RTVSPropertyOp2
 70
     1
102
RTVSPropertyOp3
 70
     1
102
RTVSPropertyOp4
 70
     1
102
RTVSPropertyOp5
 70
     1
102
RTVSPropertyOp6
 70
     1
102
RTVSPropertyOp7
 70
     1
102
RTVSPropertyOp8
 70
     1
102
RTVSPropertyOp9
 70
     1
102
RTVSPropertyOp10
 70
     1
102
RTVSPropertyOp11
 70
     1
102
RTVSPropertyOp12
 70
     1
102
RTVSPropertyOp13
 70
     1
102
RTVSPropertyOp14
 70
     1
102
RTVSPropertyOp15
 70
     1
102
RTVSPropertyOp16
 70
     1
102
RTVSPropertyOp17
 70
     1
102
RTVSPropertyOp18
 70
     1
102
RTVSPropertyOp19
 70
     1
102
RTVSPropertyOp20
 70
     1
102
RTVSPropertyOp21
 70
     1
102
RTVSPropertyOp22
 70
     1
102
RTVSPropertyOp23
 70
     1
102
RTVSPropertyOp24
 70
     1
102
RTVSPropertyOp25
 70
     1
102
RTVSPropertyOp26
 70
     1
102
RTVSPropertyOp27
 70
     1
102
RTVSPropertyOp28
 70
     1
102
RTVSPropertyOp29
 70
     1
102
RTVSPropertyOp30
 70
     1
102
RTVSPropertyOp31
 70
     1
102
RTVSPropertyOp32
 70
     1
102
RTVSPropertyOp33
 70
     1
102
RTVSPropertyOp34
 70
     1
102
RTVSPropertyOp35
 70
     1
102
RTVSPropertyOp36
 70
     1
102
RTVSPropertyOp37
 70
     1
102
RTVSPropertyOp38
 70
     1
102
RTVSPropertyOp39
 70
     1
102
RTVSPropertyOp40
 70
     1
102
RTVSPropertyOp41
 70
     1
102
RTVSPropertyOp42
 70
     1
102
RTVSPropertyOp43
 70
     1
102
RTVSPropertyOp44
 70
     1
102
RTVSPropertyOp45
 70
     1
102
RTVSPropertyOp46
 70
     1
102
RTVSPropertyOp47
 70
     1
102
RTVSPropertyOp48
 70
     1
102
RTVSPropertyOp49
 70
     1
102
RTVSPropertyOp50
 70
     1
102
RTVSPropertyOp51
 70
     0
102
RTVSPropertyOp52
 70
     0
102
RTVSPropertyOp53
 70
     1
102
RTVSPropertyOp54
 70
     1
102
RTVSPropertyOp55
 70
     1
102
RTVSPropertyOp56
 70
     1
102
RTVSPropertyOp57
 70
     1
102
RTVSPost2010Prop28
280
     0
102
RTVSPost2010PropOp28
 70
     1
102
RTVSPost2010Prop29
280
     1
102
RTVSPost2010PropOp29
 70
     1
102
RTVSPost2010Prop30
280
     1
102
RTVSPost2010PropOp30
 70
     1
102
RTVSPost2010Prop31
280
     0
102
RTVSPost2010PropOp31
 70
     1
102
RTVSPost2010Prop32
280
     0
102
RTVSPost2010PropOp32
 70
     1
102
RTVSPost2010Prop33
280
     0
102
RTVSPost2010PropOp33
 70
     1
102
RTVSPost2010Prop34
280
     0
102
RTVSPost2010PropOp34
 70
     1
102
RTVSPost2010Prop35
280
     0
102
RTVSPost2010PropOp35
 70
     1
102
RTVSPost2010Prop36
280
     0
102
RTVSPost2010PropOp36
 70
     1
102
RTVSPost2010Prop37
 90
       50
102
RTVSPost2010PropOp37
 70
     1
102
RTVSPost2010Prop38
140
0.0
102
RTVSPost2010PropOp38
 70
     1
102
RTVSPost2010Prop39
140
1.0
102
RTVSPost2010PropOp39
 70
     1
102
RTVSPost2010Prop40
 90
        0
102
RTVSPost2010PropOp40
 70
     1
102
RTVSPost2010Prop41ColorIndex
 90
       18
102
RTVSPost2010Prop41ColorRGB
 90
        0
102
RTVSPost2010PropOp41
 70
     1
102
RTVSPost2010Prop42
 90
       50
102
RTVSPost2010PropOp42
 70
     1
102
RTVSPost2010Prop43
 90
        3
102
RTVSPost2010PropOp43
 70
     1
102
RTVSPost2010Prop44ColorIndex
 90
        5
102
RTVSPost2010Prop44ColorRGB
 90
      255
102
RTVSPost2010PropOp44
 70
     1
102
RTVSPost2010Prop45
280
     0
102
RTVSPost2010PropOp45
 70
     1
102
RTVSPost2010Prop46
 90
       50
102
RTVSPost2010PropOp46
 70
     1
102
RTVSPost2010Prop47
 90
       50
102
RTVSPost2010PropOp47
 70
     1
102
RTVSPost2010Prop48
 90
       50
102
RTVSPost2010PropOp48
 70
     1
102
RTVSPost2010Prop49
280
     0
102
RTVSPost2010PropOp49
 70
     1
102
RTVSPost2010Prop50
 90
       50
102
RTVSPost2010PropOp50
 70
     1
102
RTVSPost2010Prop51ColorIndex
 90
      256
102
RTVSPost2010Prop51ColorRGB
 90
-16777216
102
RTVSPost2010PropOp51
 70
     0
102
RTVSPost2010Prop52
140
1.0
102
RTVSPost2010PropOp52
 70
     0
102
RTVSPost2010Prop53
 90
        2
102
RTVSPost2010PropOp53
 70
     1
102
RTVSPost2010Prop54
  1
strokes_ogs.tif
102
RTVSPost2010PropOp54
 70
     1
102
RTVSPost2010Prop55
280
     0
102
RTVSPost2010PropOp55
 70
     1
102
RTVSPost2010Prop56
140
1.0
102
RTVSPost2010PropOp56
 70
     1
102
RTVSPost2010Prop57
140
1.0
102
RTVSPost2010PropOp57
 70
     1
  0
XRECORD
  5
B1
102
{ACAD_REACTORS
330
B0
102
}
330
B0
100
AcDbXrecord
280
     1
102
RTVSPropertyOp0
 70
     1
102
RTVSPropertyOp1
 70
     1
102
RTVSPropertyOp2
 70
     1
102
RTVSPropertyOp3
 70
     1
102
RTVSPropertyOp4
 70
     1
102
RTVSPropertyOp5
 70
     1
102
RTVSPropertyOp6
 70
     1
102
RTVSPropertyOp7
 70
     1
102
RTVSPropertyOp8
 70
     1
102
RTVSPropertyOp9
 70
     1
102
RTVSPropertyOp10
 70
     1
102
RTVSPropertyOp11
 70
     1
102
RTVSPropertyOp12
 70
     1
102
RTVSPropertyOp13
 70
     1
102
RTVSPropertyOp14
 70
     1
102
RTVSPropertyOp15
 70
     1
102
RTVSPropertyOp16
 70
     1
102
RTVSPropertyOp17
 70
     1
102
RTVSPropertyOp18
 70
     1
102
RTVSPropertyOp19
 70
     1
102
RTVSPropertyOp20
 70
     1
102
RTVSPropertyOp21
 70
     1
102
RTVSPropertyOp22
 70
     1
102
RTVSPropertyOp23
 70
     1
102
RTVSPropertyOp24
 70
     1
102
RTVSPropertyOp25
 70
     1
102
RTVSPropertyOp26
 70
     1
102
RTVSPropertyOp27
 70
     1
102
RTVSPropertyOp28
 70
     1
102
RTVSPropertyOp29
 70
     1
102
RTVSPropertyOp30
 70
     1
102
RTVSPropertyOp31
 70
     1
102
RTVSPropertyOp32
 70
     1
102
RTVSPropertyOp33
 70
     1
102
RTVSPropertyOp34
 70
     1
102
RTVSPropertyOp35
 70
     1
102
RTVSPropertyOp36
 70
     1
102
RTVSPropertyOp37
 70
     1
102
RTVSPropertyOp38
 70
     1
102
RTVSPropertyOp39
 70
     1
102
RTVSPropertyOp40
 70
     1
102
RTVSPropertyOp41
 70
     1
102
RTVSPropertyOp42
 70
     1
102
RTVSPropertyOp43
 70
     1
102
RTVSPropertyOp44
 70
     1
102
RTVSPropertyOp45
 70
     1
102
RTVSPropertyOp46
 70
     1
102
RTVSPropertyOp47
 70
     1
102
RTVSPropertyOp48
 70
     1
102
RTVSPropertyOp49
 70
     1
102
RTVSPropertyOp50
 70
     1
102
RTVSPropertyOp51
 70
     0
102
RTVSPropertyOp52
 70
     0
102
RTVSPropertyOp53
 70
     1
102
RTVSPropertyOp54
 70
     1
102
RTVSPropertyOp55
 70
     1
102
RTVSPropertyOp56
 70
     1
102
RTVSPropertyOp57
 70
     1
102
RTVSPost2010Prop28
280
     0
102
RTVSPost2010PropOp28
 70
     1
102
RTVSPost2010Prop29
280
     1
102
RTVSPost2010PropOp29
 70
     1
102
RTVSPost2010Prop30
280
     1
102
RTVSPost2010PropOp30
 70
     1
102
RTVSPost2010Prop31
280
     0
102
RTVSPost2010PropOp31
 70
     1
102
RTVSPost2010Prop32
280
     0
102
RTVSPost2010PropOp32
 70
     1
102
RTVSPost2010Prop33
280
     0
102
RTVSPost2010PropOp33
 70
     1
102
RTVSPost2010Prop34
280
     0
102
RTVSPost2010PropOp34
 70
     1
102
RTVSPost2010Prop35
280
     0
102
RTVSPost2010PropOp35
 70
     1
102
RTVSPost2010Prop36
280
     0
102
RTVSPost2010PropOp36
 70
     1
102
RTVSPost2010Prop37
 90
       50
102
RTVSPost2010PropOp37
 70
     1
102
RTVSPost2010Prop38
140
0.0
102
RTVSPost2010PropOp38
 70
     1
102
RTVSPost2010Prop39
140
1.0
102
RTVSPost2010PropOp39
 70
     1
102
RTVSPost2010Prop40
 90
        0
102
RTVSPost2010PropOp40
 70
     1
102
RTVSPost2010Prop41ColorIndex
 90
       18
102
RTVSPost2010Prop41ColorRGB
 90
        0
102
RTVSPost2010PropOp41
 70
     1
102
RTVSPost2010Prop42
 90
       50
102
RTVSPost2010PropOp42
 70
     1
102
RTVSPost2010Prop43
 90
        3
102
RTVSPost2010PropOp43
 70
     1
102
RTVSPost2010Prop44ColorIndex
 90
        5
102
RTVSPost2010Prop44ColorRGB
 90
      255
102
RTVSPost2010PropOp44
 70
     1
102
RTVSPost2010Prop45
280
     0
102
RTVSPost2010PropOp45
 70
     1
102
RTVSPost2010Prop46
 90
       50
102
RTVSPost2010PropOp46
 70
     1
102
RTVSPost2010Prop47
 90
       50
102
RTVSPost2010PropOp47
 70
     1
102
RTVSPost2010Prop48
 90
       50
102
RTVSPost2010PropOp48
 70
     1
102
RTVSPost2010Prop49
280
     0
102
RTVSPost2010PropOp49
 70
     1
102
RTVSPost2010Prop50
 90
       50
102
RTVSPost2010PropOp50
 70
     1
102
RTVSPost2010Prop51ColorIndex
 90
      256
102
RTVSPost2010Prop51ColorRGB
 90
-16777216
102
RTVSPost2010PropOp51
 70
     0
102
RTVSPost2010Prop52
140
1.0
102
RTVSPost2010PropOp52
 70
     0
102
RTVSPost2010Prop53
 90
        2
102
RTVSPost2010PropOp53
 70
     1
102
RTVSPost2010Prop54
  1
strokes_ogs.tif
102
RTVSPost2010PropOp54
 70
     1
102
RTVSPost2010Prop55
280
     0
102
RTVSPost2010PropOp55
 70
     1
102
RTVSPost2010Prop56
140
1.0
102
RTVSPost2010PropOp56
 70
     1
102
RTVSPost2010Prop57
140
1.0
102
RTVSPost2010PropOp57
 70
     1
  0
XRECORD
  5
B3
102
{ACAD_REACTORS
330
B2
102
}
330
B2
100
AcDbXrecord
280
     1
102
RTVSPropertyOp0
 70
     1
102
RTVSPropertyOp1
 70
     1
102
RTVSPropertyOp2
 70
     1
102
RTVSPropertyOp3
 70
     1
102
RTVSPropertyOp4
 70
     1
102
RTVSPropertyOp5
 70
     1
102
RTVSPropertyOp6
 70
     1
102
RTVSPropertyOp7
 70
     1
102
RTVSPropertyOp8
 70
     1
102
RTVSPropertyOp9
 70
     1
102
RTVSPropertyOp10
 70
     1
102
RTVSPropertyOp11
 70
     1
102
RTVSPropertyOp12
 70
     1
102
RTVSPropertyOp13
 70
     1
102
RTVSPropertyOp14
 70
     1
102
RTVSPropertyOp15
 70
     1
102
RTVSPropertyOp16
 70
     1
102
RTVSPropertyOp17
 70
     1
102
RTVSPropertyOp18
 70
     1
102
RTVSPropertyOp19
 70
     1
102
RTVSPropertyOp20
 70
     1
102
RTVSPropertyOp21
 70
     1
102
RTVSPropertyOp22
 70
     1
102
RTVSPropertyOp23
 70
     1
102
RTVSPropertyOp24
 70
     1
102
RTVSPropertyOp25
 70
     1
102
RTVSPropertyOp26
 70
     1
102
RTVSPropertyOp27
 70
     1
102
RTVSPropertyOp28
 70
     1
102
RTVSPropertyOp29
 70
     1
102
RTVSPropertyOp30
 70
     1
102
RTVSPropertyOp31
 70
     1
102
RTVSPropertyOp32
 70
     1
102
RTVSPropertyOp33
 70
     1
102
RTVSPropertyOp34
 70
     1
102
RTVSPropertyOp35
 70
     1
102
RTVSPropertyOp36
 70
     1
102
RTVSPropertyOp37
 70
     1
102
RTVSPropertyOp38
 70
     1
102
RTVSPropertyOp39
 70
     1
102
RTVSPropertyOp40
 70
     1
102
RTVSPropertyOp41
 70
     1
102
RTVSPropertyOp42
 70
     1
102
RTVSPropertyOp43
 70
     1
102
RTVSPropertyOp44
 70
     1
102
RTVSPropertyOp45
 70
     1
102
RTVSPropertyOp46
 70
     1
102
RTVSPropertyOp47
 70
     1
102
RTVSPropertyOp48
 70
     1
102
RTVSPropertyOp49
 70
     1
102
RTVSPropertyOp50
 70
     1
102
RTVSPropertyOp51
 70
     0
102
RTVSPropertyOp52
 70
     0
102
RTVSPropertyOp53
 70
     1
102
RTVSPropertyOp54
 70
     1
102
RTVSPropertyOp55
 70
     1
102
RTVSPropertyOp56
 70
     1
102
RTVSPropertyOp57
 70
     1
102
RTVSPost2010Prop28
280
     0
102
RTVSPost2010PropOp28
 70
     1
102
RTVSPost2010Prop29
280
     1
102
RTVSPost2010PropOp29
 70
     1
102
RTVSPost2010Prop30
280
     1
102
RTVSPost2010PropOp30
 70
     1
102
RTVSPost2010Prop31
280
     0
102
RTVSPost2010PropOp31
 70
     1
102
RTVSPost2010Prop32
280
     0
102
RTVSPost2010PropOp32
 70
     1
102
RTVSPost2010Prop33
280
     0
102
RTVSPost2010PropOp33
 70
     1
102
RTVSPost2010Prop34
280
     0
102
RTVSPost2010PropOp34
 70
     1
102
RTVSPost2010Prop35
280
     0
102
RTVSPost2010PropOp35
 70
     1
102
RTVSPost2010Prop36
280
     0
102
RTVSPost2010PropOp36
 70
     1
102
RTVSPost2010Prop37
 90
       50
102
RTVSPost2010PropOp37
 70
     1
102
RTVSPost2010Prop38
140
0.0
102
RTVSPost2010PropOp38
 70
     1
102
RTVSPost2010Prop39
140
1.0
102
RTVSPost2010PropOp39
 70
     1
102
RTVSPost2010Prop40
 90
        0
102
RTVSPost2010PropOp40
 70
     1
102
RTVSPost2010Prop41ColorIndex
 90
       18
102
RTVSPost2010Prop41ColorRGB
 90
        0
102
RTVSPost2010PropOp41
 70
     1
102
RTVSPost2010Prop42
 90
       50
102
RTVSPost2010PropOp42
 70
     1
102
RTVSPost2010Prop43
 90
        3
102
RTVSPost2010PropOp43
 70
     1
102
RTVSPost2010Prop44ColorIndex
 90
        5
102
RTVSPost2010Prop44ColorRGB
 90
      255
102
RTVSPost2010PropOp44
 70
     1
102
RTVSPost2010Prop45
280
     0
102
RTVSPost2010PropOp45
 70
     1
102
RTVSPost2010Prop46
 90
       50
102
RTVSPost2010PropOp46
 70
     1
102
RTVSPost2010Prop47
 90
       50
102
RTVSPost2010PropOp47
 70
     1
102
RTVSPost2010Prop48
 90
       50
102
RTVSPost2010PropOp48
 70
     1
102
RTVSPost2010Prop49
280
     0
102
RTVSPost2010PropOp49
 70
     1
102
RTVSPost2010Prop50
 90
       50
102
RTVSPost2010PropOp50
 70
     1
102
RTVSPost2010Prop51ColorIndex
 90
      256
102
RTVSPost2010Prop51ColorRGB
 90
-16777216
102
RTVSPost2010PropOp51
 70
     0
102
RTVSPost2010Prop52
140
1.0
102
RTVSPost2010PropOp52
 70
     0
102
RTVSPost2010Prop53
 90
        2
102
RTVSPost2010PropOp53
 70
     1
102
RTVSPost2010Prop54
  1
strokes_ogs.tif
102
RTVSPost2010PropOp54
 70
     1
102
RTVSPost2010Prop55
280
     0
102
RTVSPost2010PropOp55
 70
     1
102
RTVSPost2010Prop56
140
1.0
102
RTVSPost2010PropOp56
 70
     1
102
RTVSPost2010Prop57
140
1.0
102
RTVSPost2010PropOp57
 70
     1
  0
XRECORD
  5
B5
102
{ACAD_REACTORS
330
B4
102
}
330
B4
100
AcDbXrecord
280
     1
102
RTVSPropertyOp0
 70
     1
102
RTVSPropertyOp1
 70
     1
102
RTVSPropertyOp2
 70
     1
102
RTVSPropertyOp3
 70
     1
102
RTVSPropertyOp4
 70
     1
102
RTVSPropertyOp5
 70
     1
102
RTVSPropertyOp6
 70
     1
102
RTVSPropertyOp7
 70
     1
102
RTVSPropertyOp8
 70
     1
102
RTVSPropertyOp9
 70
     1
102
RTVSPropertyOp10
 70
     1
102
RTVSPropertyOp11
 70
     1
102
RTVSPropertyOp12
 70
     1
102
RTVSPropertyOp13
 70
     1
102
RTVSPropertyOp14
 70
     1
102
RTVSPropertyOp15
 70
     1
102
RTVSPropertyOp16
 70
     1
102
RTVSPropertyOp17
 70
     1
102
RTVSPropertyOp18
 70
     1
102
RTVSPropertyOp19
 70
     1
102
RTVSPropertyOp20
 70
     1
102
RTVSPropertyOp21
 70
     1
102
RTVSPropertyOp22
 70
     1
102
RTVSPropertyOp23
 70
     1
102
RTVSPropertyOp24
 70
     1
102
RTVSPropertyOp25
 70
     1
102
RTVSPropertyOp26
 70
     1
102
RTVSPropertyOp27
 70
     1
102
RTVSPropertyOp28
 70
     1
102
RTVSPropertyOp29
 70
     1
102
RTVSPropertyOp30
 70
     1
102
RTVSPropertyOp31
 70
     1
102
RTVSPropertyOp32
 70
     1
102
RTVSPropertyOp33
 70
     1
102
RTVSPropertyOp34
 70
     1
102
RTVSPropertyOp35
 70
     1
102
RTVSPropertyOp36
 70
     1
102
RTVSPropertyOp37
 70
     1
102
RTVSPropertyOp38
 70
     1
102
RTVSPropertyOp39
 70
     1
102
RTVSPropertyOp40
 70
     1
102
RTVSPropertyOp41
 70
     1
102
RTVSPropertyOp42
 70
     1
102
RTVSPropertyOp43
 70
     1
102
RTVSPropertyOp44
 70
     1
102
RTVSPropertyOp45
 70
     1
102
RTVSPropertyOp46
 70
     1
102
RTVSPropertyOp47
 70
     1
102
RTVSPropertyOp48
 70
     1
102
RTVSPropertyOp49
 70
     1
102
RTVSPropertyOp50
 70
     1
102
RTVSPropertyOp51
 70
     0
102
RTVSPropertyOp52
 70
     0
102
RTVSPropertyOp53
 70
     1
102
RTVSPropertyOp54
 70
     1
102
RTVSPropertyOp55
 70
     1
102
RTVSPropertyOp56
 70
     1
102
RTVSPropertyOp57
 70
     1
102
RTVSPost2010Prop28
280
     0
102
RTVSPost2010PropOp28
 70
     1
102
RTVSPost2010Prop29
280
     1
102
RTVSPost2010PropOp29
 70
     1
102
RTVSPost2010Prop30
280
     1
102
RTVSPost2010PropOp30
 70
     1
102
RTVSPost2010Prop31
280
     0
102
RTVSPost2010PropOp31
 70
     1
102
RTVSPost2010Prop32
280
     0
102
RTVSPost2010PropOp32
 70
     1
102
RTVSPost2010Prop33
280
     0
102
RTVSPost2010PropOp33
 70
     1
102
RTVSPost2010Prop34
280
     0
102
RTVSPost2010PropOp34
 70
     1
102
RTVSPost2010Prop35
280
     0
102
RTVSPost2010PropOp35
 70
     1
102
RTVSPost2010Prop36
280
     0
102
RTVSPost2010PropOp36
 70
     1
102
RTVSPost2010Prop37
 90
       50
102
RTVSPost2010PropOp37
 70
     1
102
RTVSPost2010Prop38
140
0.0
102
RTVSPost2010PropOp38
 70
     1
102
RTVSPost2010Prop39
140
1.0
102
RTVSPost2010PropOp39
 70
     1
102
RTVSPost2010Prop40
 90
        0
102
RTVSPost2010PropOp40
 70
     1
102
RTVSPost2010Prop41ColorIndex
 90
       18
102
RTVSPost2010Prop41ColorRGB
 90
        0
102
RTVSPost2010PropOp41
 70
     1
102
RTVSPost2010Prop42
 90
       50
102
RTVSPost2010PropOp42
 70
     1
102
RTVSPost2010Prop43
 90
        3
102
RTVSPost2010PropOp43
 70
     1
102
RTVSPost2010Prop44ColorIndex
 90
        5
102
RTVSPost2010Prop44ColorRGB
 90
      255
102
RTVSPost2010PropOp44
 70
     1
102
RTVSPost2010Prop45
280
     0
102
RTVSPost2010PropOp45
 70
     1
102
RTVSPost2010Prop46
 90
       50
102
RTVSPost2010PropOp46
 70
     1
102
RTVSPost2010Prop47
 90
       50
102
RTVSPost2010PropOp47
 70
     1
102
RTVSPost2010Prop48
 90
       50
102
RTVSPost2010PropOp48
 70
     1
102
RTVSPost2010Prop49
280
     0
102
RTVSPost2010PropOp49
 70
     1
102
RTVSPost2010Prop50
 90
       50
102
RTVSPost2010PropOp50
 70
     1
102
RTVSPost2010Prop51ColorIndex
 90
      256
102
RTVSPost2010Prop51ColorRGB
 90
-16777216
102
RTVSPost2010PropOp51
 70
     0
102
RTVSPost2010Prop52
140
1.0
102
RTVSPost2010PropOp52
 70
     0
102
RTVSPost2010Prop53
 90
        2
102
RTVSPost2010PropOp53
 70
     1
102
RTVSPost2010Prop54
  1
strokes_ogs.tif
102
RTVSPost2010PropOp54
 70
     1
102
RTVSPost2010Prop55
280
     0
102
RTVSPost2010PropOp55
 70
     1
102
RTVSPost2010Prop56
140
1.0
102
RTVSPost2010PropOp56
 70
     1
102
RTVSPost2010Prop57
140
1.0
102
RTVSPost2010PropOp57
 70
     1
  0
XRECORD
  5
BB
102
{ACAD_REACTORS
330
BA
102
}
330
BA
100
AcDbXrecord
280
     1
102
RTVSPropertyOp0
 70
     1
102
RTVSPropertyOp1
 70
     1
102
RTVSPropertyOp2
 70
     1
102
RTVSPropertyOp3
 70
     1
102
RTVSPropertyOp4
 70
     1
102
RTVSPropertyOp5
 70
     1
102
RTVSPropertyOp6
 70
     1
102
RTVSPropertyOp7
 70
     1
102
RTVSPropertyOp8
 70
     1
102
RTVSPropertyOp9
 70
     1
102
RTVSPropertyOp10
 70
     1
102
RTVSPropertyOp11
 70
     1
102
RTVSPropertyOp12
 70
     1
102
RTVSPropertyOp13
 70
     1
102
RTVSPropertyOp14
 70
     1
102
RTVSPropertyOp15
 70
     1
102
RTVSPropertyOp16
 70
     1
102
RTVSPropertyOp17
 70
     1
102
RTVSPropertyOp18
 70
     1
102
RTVSPropertyOp19
 70
     1
102
RTVSPropertyOp20
 70
     1
102
RTVSPropertyOp21
 70
     1
102
RTVSPropertyOp22
 70
     1
102
RTVSPropertyOp23
 70
     1
102
RTVSPropertyOp24
 70
     1
102
RTVSPropertyOp25
 70
     1
102
RTVSPropertyOp26
 70
     1
102
RTVSPropertyOp27
 70
     1
102
RTVSPropertyOp28
 70
     1
102
RTVSPropertyOp29
 70
     1
102
RTVSPropertyOp30
 70
     1
102
RTVSPropertyOp31
 70
     1
102
RTVSPropertyOp32
 70
     1
102
RTVSPropertyOp33
 70
     1
102
RTVSPropertyOp34
 70
     1
102
RTVSPropertyOp35
 70
     1
102
RTVSPropertyOp36
 70
     1
102
RTVSPropertyOp37
 70
     1
102
RTVSPropertyOp38
 70
     1
102
RTVSPropertyOp39
 70
     1
102
RTVSPropertyOp40
 70
     1
102
RTVSPropertyOp41
 70
     1
102
RTVSPropertyOp42
 70
     1
102
RTVSPropertyOp43
 70
     1
102
RTVSPropertyOp44
 70
     1
102
RTVSPropertyOp45
 70
     1
102
RTVSPropertyOp46
 70
     1
102
RTVSPropertyOp47
 70
     1
102
RTVSPropertyOp48
 70
     1
102
RTVSPropertyOp49
 70
     1
102
RTVSPropertyOp50
 70
     1
102
RTVSPropertyOp51
 70
     0
102
RTVSPropertyOp52
 70
     0
102
RTVSPropertyOp53
 70
     1
102
RTVSPropertyOp54
 70
     1
102
RTVSPropertyOp55
 70
     1
102
RTVSPropertyOp56
 70
     1
102
RTVSPropertyOp57
 70
     1
102
RTVSPost2010Prop28
280
     0
102
RTVSPost2010PropOp28
 70
     1
102
RTVSPost2010Prop29
280
     1
102
RTVSPost2010PropOp29
 70
     1
102
RTVSPost2010Prop30
280
     1
102
RTVSPost2010PropOp30
 70
     1
102
RTVSPost2010Prop31
280
     0
102
RTVSPost2010PropOp31
 70
     1
102
RTVSPost2010Prop32
280
     0
102
RTVSPost2010PropOp32
 70
     1
102
RTVSPost2010Prop33
280
     0
102
RTVSPost2010PropOp33
 70
     1
102
RTVSPost2010Prop34
280
     0
102
RTVSPost2010PropOp34
 70
     1
102
RTVSPost2010Prop35
280
     0
102
RTVSPost2010PropOp35
 70
     1
102
RTVSPost2010Prop36
280
     0
102
RTVSPost2010PropOp36
 70
     1
102
RTVSPost2010Prop37
 90
       50
102
RTVSPost2010PropOp37
 70
     1
102
RTVSPost2010Prop38
140
0.0
102
RTVSPost2010PropOp38
 70
     1
102
RTVSPost2010Prop39
140
1.0
102
RTVSPost2010PropOp39
 70
     1
102
RTVSPost2010Prop40
 90
        0
102
RTVSPost2010PropOp40
 70
     1
102
RTVSPost2010Prop41ColorIndex
 90
       18
102
RTVSPost2010Prop41ColorRGB
 90
        0
102
RTVSPost2010PropOp41
 70
     1
102
RTVSPost2010Prop42
 90
       50
102
RTVSPost2010PropOp42
 70
     1
102
RTVSPost2010Prop43
 90
        3
102
RTVSPost2010PropOp43
 70
     1
102
RTVSPost2010Prop44ColorIndex
 90
        5
102
RTVSPost2010Prop44ColorRGB
 90
      255
102
RTVSPost2010PropOp44
 70
     1
102
RTVSPost2010Prop45
280
     0
102
RTVSPost2010PropOp45
 70
     1
102
RTVSPost2010Prop46
 90
       50
102
RTVSPost2010PropOp46
 70
     1
102
RTVSPost2010Prop47
 90
       50
102
RTVSPost2010PropOp47
 70
     1
102
RTVSPost2010Prop48
 90
       50
102
RTVSPost2010PropOp48
 70
     1
102
RTVSPost2010Prop49
280
     0
102
RTVSPost2010PropOp49
 70
     1
102
RTVSPost2010Prop50
 90
       50
102
RTVSPost2010PropOp50
 70
     1
102
RTVSPost2010Prop51ColorIndex
 90
      256
102
RTVSPost2010Prop51ColorRGB
 90
-16777216
102
RTVSPost2010PropOp51
 70
     0
102
RTVSPost2010Prop52
140
1.0
102
RTVSPost2010PropOp52
 70
     0
102
RTVSPost2010Prop53
 90
        2
102
RTVSPost2010PropOp53
 70
     1
102
RTVSPost2010Prop54
  1
strokes_ogs.tif
102
RTVSPost2010PropOp54
 70
     1
102
RTVSPost2010Prop55
280
     0
102
RTVSPost2010PropOp55
 70
     1
102
RTVSPost2010Prop56
140
1.0
102
RTVSPost2010PropOp56
 70
     1
102
RTVSPost2010Prop57
140
1.0
102
RTVSPost2010PropOp57
 70
     1
  0
XRECORD
  5
CF
102
{ACAD_REACTORS
330
CE
102
}
330
CE
100
AcDbXrecord
280
     1
102
RTVSPropertyOp0
 70
     0
102
RTVSPropertyOp1
 70
     0
102
RTVSPropertyOp2
 70
     0
102
RTVSPropertyOp3
 70
     0
102
RTVSPropertyOp4
 70
     0
102
RTVSPropertyOp5
 70
     0
102
RTVSPropertyOp6
 70
     0
102
RTVSPropertyOp7
 70
     0
102
RTVSPropertyOp8
 70
     0
102
RTVSPropertyOp9
 70
     0
102
RTVSPropertyOp10
 70
     0
102
RTVSPropertyOp11
 70
     0
102
RTVSPropertyOp12
 70
     0
102
RTVSPropertyOp13
 70
     0
102
RTVSPropertyOp14
 70
     2
102
RTVSPropertyOp15
 70
     0
102
RTVSPropertyOp16
 70
     0
102
RTVSPropertyOp17
 70
     0
102
RTVSPropertyOp18
 70
     0
102
RTVSPropertyOp19
 70
     0
102
RTVSPropertyOp20
 70
     0
102
RTVSPropertyOp21
 70
     0
102
RTVSPropertyOp22
 70
     0
102
RTVSPropertyOp23
 70
     0
102
RTVSPropertyOp24
 70
     0
102
RTVSPropertyOp25
 70
     0
102
RTVSPropertyOp26
 70
     0
102
RTVSPropertyOp27
 70
     0
102
RTVSPropertyOp28
 70
     0
102
RTVSPropertyOp29
 70
     0
102
RTVSPropertyOp30
 70
     0
102
RTVSPropertyOp31
 70
     0
102
RTVSPropertyOp32
 70
     0
102
RTVSPropertyOp33
 70
     0
102
RTVSPropertyOp34
 70
     0
102
RTVSPropertyOp35
 70
     0
102
RTVSPropertyOp36
 70
     0
102
RTVSPropertyOp37
 70
     0
102
RTVSPropertyOp38
 70
     0
102
RTVSPropertyOp39
 70
     0
102
RTVSPropertyOp40
 70
     0
102
RTVSPropertyOp41
 70
     0
102
RTVSPropertyOp42
 70
     0
102
RTVSPropertyOp43
 70
     0
102
RTVSPropertyOp44
 70
     0
102
RTVSPropertyOp45
 70
     0
102
RTVSPropertyOp46
 70
     0
102
RTVSPropertyOp47
 70
     0
102
RTVSPropertyOp48
 70
     0
102
RTVSPropertyOp49
 70
     0
102
RTVSPropertyOp50
 70
     0
102
RTVSPropertyOp51
 70
     0
102
RTVSPropertyOp52
 70
     0
102
RTVSPropertyOp53
 70
     0
102
RTVSPropertyOp54
 70
     0
102
RTVSPropertyOp55
 70
     0
102
RTVSPropertyOp56
 70
     0
102
RTVSPropertyOp57
 70
     0
102
RTVSPost2010Prop28
280
     0
102
RTVSPost2010PropOp28
 70
     0
102
RTVSPost2010Prop29
280
     1
102
RTVSPost2010PropOp29
 70
     0
102
RTVSPost2010Prop30
280
     1
102
RTVSPost2010PropOp30
 70
     0
102
RTVSPost2010Prop31
280
     0
102
RTVSPost2010PropOp31
 70
     0
102
RTVSPost2010Prop32
280
     0
102
RTVSPost2010PropOp32
 70
     0
102
RTVSPost2010Prop33
280
     0
102
RTVSPost2010PropOp33
 70
     0
102
RTVSPost2010Prop34
280
     0
102
RTVSPost2010PropOp34
 70
     0
102
RTVSPost2010Prop35
280
     0
102
RTVSPost2010PropOp35
 70
     0
102
RTVSPost2010Prop36
280
     0
102
RTVSPost2010PropOp36
 70
     0
102
RTVSPost2010Prop37
 90
       50
102
RTVSPost2010PropOp37
 70
     0
102
RTVSPost2010Prop38
140
0.0
102
RTVSPost2010PropOp38
 70
     0
102
RTVSPost2010Prop39
140
1.0
102
RTVSPost2010PropOp39
 70
     0
102
RTVSPost2010Prop40
 90
        0
102
RTVSPost2010PropOp40
 70
     0
102
RTVSPost2010Prop41ColorIndex
 90
       18
102
RTVSPost2010Prop41ColorRGB
 90
        0
102
RTVSPost2010PropOp41
 70
     0
102
RTVSPost2010Prop42
 90
       50
102
RTVSPost2010PropOp42
 70
     0
102
RTVSPost2010Prop43
 90
        3
102
RTVSPost2010PropOp43
 70
     0
102
RTVSPost2010Prop44ColorIndex
 90
        5
102
RTVSPost2010Prop44ColorRGB
 90
      255
102
RTVSPost2010PropOp44
 70
     0
102
RTVSPost2010Prop45
280
     0
102
RTVSPost2010PropOp45
 70
     0
102
RTVSPost2010Prop46
 90
       50
102
RTVSPost2010PropOp46
 70
     0
102
RTVSPost2010Prop47
 90
       50
102
RTVSPost2010PropOp47
 70
     0
102
RTVSPost2010Prop48
 90
       50
102
RTVSPost2010PropOp48
 70
     0
102
RTVSPost2010Prop49
280
     0
102
RTVSPost2010PropOp49
 70
     0
102
RTVSPost2010Prop50
 90
       50
102
RTVSPost2010PropOp50
 70
     0
102
RTVSPost2010Prop51ColorIndex
 90
      256
102
RTVSPost2010Prop51ColorRGB
 90
-16777216
102
RTVSPost2010PropOp51
 70
     0
102
RTVSPost2010Prop52
140
1.0
102
RTVSPost2010PropOp52
 70
     0
102
RTVSPost2010Prop53
 90
        2
102
RTVSPost2010PropOp53
 70
     0
102
RTVSPost2010Prop54
  1
strokes_ogs.tif
102
RTVSPost2010PropOp54
 70
     0
102
RTVSPost2010Prop55
280
     0
102
RTVSPost2010PropOp55
 70
     0
102
RTVSPost2010Prop56
140
1.0
102
RTVSPost2010PropOp56
 70
     0
102
RTVSPost2010Prop57
140
1.0
102
RTVSPost2010PropOp57
 70
     0
  0
XRECORD
  5
C9
102
{ACAD_REACTORS
330
C8
102
}
330
C8
100
AcDbXrecord
280
     1
102
RTVSPropertyOp0
 70
     1
102
RTVSPropertyOp1
 70
     1
102
RTVSPropertyOp2
 70
     1
102
RTVSPropertyOp3
 70
     1
102
RTVSPropertyOp4
 70
     1
102
RTVSPropertyOp5
 70
     1
102
RTVSPropertyOp6
 70
     1
102
RTVSPropertyOp7
 70
     1
102
RTVSPropertyOp8
 70
     1
102
RTVSPropertyOp9
 70
     1
102
RTVSPropertyOp10
 70
     1
102
RTVSPropertyOp11
 70
     1
102
RTVSPropertyOp12
 70
     1
102
RTVSPropertyOp13
 70
     1
102
RTVSPropertyOp14
 70
     1
102
RTVSPropertyOp15
 70
     1
102
RTVSPropertyOp16
 70
     1
102
RTVSPropertyOp17
 70
     1
102
RTVSPropertyOp18
 70
     1
102
RTVSPropertyOp19
 70
     1
102
RTVSPropertyOp20
 70
     1
102
RTVSPropertyOp21
 70
     1
102
RTVSPropertyOp22
 70
     1
102
RTVSPropertyOp23
 70
     1
102
RTVSPropertyOp24
 70
     1
102
RTVSPropertyOp25
 70
     1
102
RTVSPropertyOp26
 70
     1
102
RTVSPropertyOp27
 70
     1
102
RTVSPropertyOp28
 70
     1
102
RTVSPropertyOp29
 70
     1
102
RTVSPropertyOp30
 70
     1
102
RTVSPropertyOp31
 70
     1
102
RTVSPropertyOp32
 70
     1
102
RTVSPropertyOp33
 70
     1
102
RTVSPropertyOp34
 70
     1
102
RTVSPropertyOp35
 70
     1
102
RTVSPropertyOp36
 70
     1
102
RTVSPropertyOp37
 70
     1
102
RTVSPropertyOp38
 70
     1
102
RTVSPropertyOp39
 70
     1
102
RTVSPropertyOp40
 70
     1
102
RTVSPropertyOp41
 70
     1
102
RTVSPropertyOp42
 70
     1
102
RTVSPropertyOp43
 70
     1
102
RTVSPropertyOp44
 70
     1
102
RTVSPropertyOp45
 70
     1
102
RTVSPropertyOp46
 70
     1
102
RTVSPropertyOp47
 70
     1
102
RTVSPropertyOp48
 70
     1
102
RTVSPropertyOp49
 70
     1
102
RTVSPropertyOp50
 70
     1
102
RTVSPropertyOp51
 70
     0
102
RTVSPropertyOp52
 70
     0
102
RTVSPropertyOp53
 70
     1
102
RTVSPropertyOp54
 70
     1
102
RTVSPropertyOp55
 70
     1
102
RTVSPropertyOp56
 70
     1
102
RTVSPropertyOp57
 70
     1
102
RTVSPost2010Prop28
280
     0
102
RTVSPost2010PropOp28
 70
     1
102
RTVSPost2010Prop29
280
     1
102
RTVSPost2010PropOp29
 70
     1
102
RTVSPost2010Prop30
280
     1
102
RTVSPost2010PropOp30
 70
     1
102
RTVSPost2010Prop31
280
     0
102
RTVSPost2010PropOp31
 70
     1
102
RTVSPost2010Prop32
280
     0
102
RTVSPost2010PropOp32
 70
     1
102
RTVSPost2010Prop33
280
     0
102
RTVSPost2010PropOp33
 70
     1
102
RTVSPost2010Prop34
280
     0
102
RTVSPost2010PropOp34
 70
     1
102
RTVSPost2010Prop35
280
     0
102
RTVSPost2010PropOp35
 70
     1
102
RTVSPost2010Prop36
280
     0
102
RTVSPost2010PropOp36
 70
     1
102
RTVSPost2010Prop37
 90
       50
102
RTVSPost2010PropOp37
 70
     1
102
RTVSPost2010Prop38
140
0.0
102
RTVSPost2010PropOp38
 70
     1
102
RTVSPost2010Prop39
140
1.0
102
RTVSPost2010PropOp39
 70
     1
102
RTVSPost2010Prop40
 90
        0
102
RTVSPost2010PropOp40
 70
     1
102
RTVSPost2010Prop41ColorIndex
 90
       18
102
RTVSPost2010Prop41ColorRGB
 90
        0
102
RTVSPost2010PropOp41
 70
     1
102
RTVSPost2010Prop42
 90
       50
102
RTVSPost2010PropOp42
 70
     1
102
RTVSPost2010Prop43
 90
        3
102
RTVSPost2010PropOp43
 70
     1
102
RTVSPost2010Prop44ColorIndex
 90
        5
102
RTVSPost2010Prop44ColorRGB
 90
      255
102
RTVSPost2010PropOp44
 70
     1
102
RTVSPost2010Prop45
280
     0
102
RTVSPost2010PropOp45
 70
     1
102
RTVSPost2010Prop46
 90
       50
102
RTVSPost2010PropOp46
 70
     1
102
RTVSPost2010Prop47
 90
       50
102
RTVSPost2010PropOp47
 70
     1
102
RTVSPost2010Prop48
 90
       50
102
RTVSPost2010PropOp48
 70
     1
102
RTVSPost2010Prop49
280
     0
102
RTVSPost2010PropOp49
 70
     1
102
RTVSPost2010Prop50
 90
       50
102
RTVSPost2010PropOp50
 70
     1
102
RTVSPost2010Prop51ColorIndex
 90
      256
102
RTVSPost2010Prop51ColorRGB
 90
-16777216
102
RTVSPost2010PropOp51
 70
     0
102
RTVSPost2010Prop52
140
1.0
102
RTVSPost2010PropOp52
 70
     0
102
RTVSPost2010Prop53
 90
        2
102
RTVSPost2010PropOp53
 70
     1
102
RTVSPost2010Prop54
  1
strokes_ogs.tif
102
RTVSPost2010PropOp54
 70
     1
102
RTVSPost2010Prop55
280
     0
102
RTVSPost2010PropOp55
 70
     1
102
RTVSPost2010Prop56
140
1.0
102
RTVSPost2010PropOp56
 70
     1
102
RTVSPost2010Prop57
140
1.0
102
RTVSPost2010PropOp57
 70
     1
  0
XRECORD
  5
D1
102
{ACAD_REACTORS
330
D0
102
}
330
D0
100
AcDbXrecord
280
     1
102
RTVSPropertyOp0
 70
     0
102
RTVSPropertyOp1
 70
     0
102
RTVSPropertyOp2
 70
     0
102
RTVSPropertyOp3
 70
     0
102
RTVSPropertyOp4
 70
     0
102
RTVSPropertyOp5
 70
     0
102
RTVSPropertyOp6
 70
     0
102
RTVSPropertyOp7
 70
     0
102
RTVSPropertyOp8
 70
     0
102
RTVSPropertyOp9
 70
     0
102
RTVSPropertyOp10
 70
     0
102
RTVSPropertyOp11
 70
     0
102
RTVSPropertyOp12
 70
     0
102
RTVSPropertyOp13
 70
     0
102
RTVSPropertyOp14
 70
     2
102
RTVSPropertyOp15
 70
     0
102
RTVSPropertyOp16
 70
     0
102
RTVSPropertyOp17
 70
     0
102
RTVSPropertyOp18
 70
     0
102
RTVSPropertyOp19
 70
     0
102
RTVSPropertyOp20
 70
     0
102
RTVSPropertyOp21
 70
     0
102
RTVSPropertyOp22
 70
     0
102
RTVSPropertyOp23
 70
     0
102
RTVSPropertyOp24
 70
     0
102
RTVSPropertyOp25
 70
     0
102
RTVSPropertyOp26
 70
     0
102
RTVSPropertyOp27
 70
     0
102
RTVSPropertyOp28
 70
     0
102
RTVSPropertyOp29
 70
     0
102
RTVSPropertyOp30
 70
     0
102
RTVSPropertyOp31
 70
     0
102
RTVSPropertyOp32
 70
     0
102
RTVSPropertyOp33
 70
     0
102
RTVSPropertyOp34
 70
     0
102
RTVSPropertyOp35
 70
     0
102
RTVSPropertyOp36
 70
     0
102
RTVSPropertyOp37
 70
     0
102
RTVSPropertyOp38
 70
     0
102
RTVSPropertyOp39
 70
     0
102
RTVSPropertyOp40
 70
     0
102
RTVSPropertyOp41
 70
     0
102
RTVSPropertyOp42
 70
     0
102
RTVSPropertyOp43
 70
     0
102
RTVSPropertyOp44
 70
     0
102
RTVSPropertyOp45
 70
     0
102
RTVSPropertyOp46
 70
     0
102
RTVSPropertyOp47
 70
     0
102
RTVSPropertyOp48
 70
     0
102
RTVSPropertyOp49
 70
     0
102
RTVSPropertyOp50
 70
     0
102
RTVSPropertyOp51
 70
     0
102
RTVSPropertyOp52
 70
     0
102
RTVSPropertyOp53
 70
     0
102
RTVSPropertyOp54
 70
     0
102
RTVSPropertyOp55
 70
     0
102
RTVSPropertyOp56
 70
     0
102
RTVSPropertyOp57
 70
     0
102
RTVSPost2010Prop28
280
     0
102
RTVSPost2010PropOp28
 70
     0
102
RTVSPost2010Prop29
280
     1
102
RTVSPost2010PropOp29
 70
     0
102
RTVSPost2010Prop30
280
     1
102
RTVSPost2010PropOp30
 70
     0
102
RTVSPost2010Prop31
280
     0
102
RTVSPost2010PropOp31
 70
     0
102
RTVSPost2010Prop32
280
     0
102
RTVSPost2010PropOp32
 70
     0
102
RTVSPost2010Prop33
280
     0
102
RTVSPost2010PropOp33
 70
     0
102
RTVSPost2010Prop34
280
     0
102
RTVSPost2010PropOp34
 70
     0
102
RTVSPost2010Prop35
280
     0
102
RTVSPost2010PropOp35
 70
     0
102
RTVSPost2010Prop36
280
     0
102
RTVSPost2010PropOp36
 70
     0
102
RTVSPost2010Prop37
 90
       50
102
RTVSPost2010PropOp37
 70
     0
102
RTVSPost2010Prop38
140
0.0
102
RTVSPost2010PropOp38
 70
     0
102
RTVSPost2010Prop39
140
1.0
102
RTVSPost2010PropOp39
 70
     0
102
RTVSPost2010Prop40
 90
        0
102
RTVSPost2010PropOp40
 70
     0
102
RTVSPost2010Prop41ColorIndex
 90
       18
102
RTVSPost2010Prop41ColorRGB
 90
        0
102
RTVSPost2010PropOp41
 70
     0
102
RTVSPost2010Prop42
 90
       50
102
RTVSPost2010PropOp42
 70
     0
102
RTVSPost2010Prop43
 90
        3
102
RTVSPost2010PropOp43
 70
     0
102
RTVSPost2010Prop44ColorIndex
 90
        5
102
RTVSPost2010Prop44ColorRGB
 90
      255
102
RTVSPost2010PropOp44
 70
     0
102
RTVSPost2010Prop45
280
     0
102
RTVSPost2010PropOp45
 70
     0
102
RTVSPost2010Prop46
 90
       50
102
RTVSPost2010PropOp46
 70
     0
102
RTVSPost2010Prop47
 90
       50
102
RTVSPost2010PropOp47
 70
     0
102
RTVSPost2010Prop48
 90
       50
102
RTVSPost2010PropOp48
 70
     0
102
RTVSPost2010Prop49
280
     0
102
RTVSPost2010PropOp49
 70
     0
102
RTVSPost2010Prop50
 90
       50
102
RTVSPost2010PropOp50
 70
     0
102
RTVSPost2010Prop51ColorIndex
 90
      256
102
RTVSPost2010Prop51ColorRGB
 90
-16777216
102
RTVSPost2010PropOp51
 70
     0
102
RTVSPost2010Prop52
140
1.0
102
RTVSPost2010PropOp52
 70
     0
102
RTVSPost2010Prop53
 90
        2
102
RTVSPost2010PropOp53
 70
     0
102
RTVSPost2010Prop54
  1
strokes_ogs.tif
102
RTVSPost2010PropOp54
 70
     0
102
RTVSPost2010Prop55
280
     0
102
RTVSPost2010PropOp55
 70
     0
102
RTVSPost2010Prop56
140
1.0
102
RTVSPost2010PropOp56
 70
     0
102
RTVSPost2010Prop57
140
1.0
102
RTVSPost2010PropOp57
 70
     0
  0
XRECORD
  5
BF
102
{ACAD_REACTORS
330
BE
102
}
330
BE
100
AcDbXrecord
280
     1
102
RTVSPropertyOp0
 70
     1
102
RTVSPropertyOp1
 70
     1
102
RTVSPropertyOp2
 70
     1
102
RTVSPropertyOp3
 70
     1
102
RTVSPropertyOp4
 70
     1
102
RTVSPropertyOp5
 70
     1
102
RTVSPropertyOp6
 70
     1
102
RTVSPropertyOp7
 70
     1
102
RTVSPropertyOp8
 70
     1
102
RTVSPropertyOp9
 70
     1
102
RTVSPropertyOp10
 70
     1
102
RTVSPropertyOp11
 70
     1
102
RTVSPropertyOp12
 70
     1
102
RTVSPropertyOp13
 70
     1
102
RTVSPropertyOp14
 70
     1
102
RTVSPropertyOp15
 70
     1
102
RTVSPropertyOp16
 70
     1
102
RTVSPropertyOp17
 70
     1
102
RTVSPropertyOp18
 70
     1
102
RTVSPropertyOp19
 70
     1
102
RTVSPropertyOp20
 70
     1
102
RTVSPropertyOp21
 70
     1
102
RTVSPropertyOp22
 70
     1
102
RTVSPropertyOp23
 70
     1
102
RTVSPropertyOp24
 70
     1
102
RTVSPropertyOp25
 70
     1
102
RTVSPropertyOp26
 70
     1
102
RTVSPropertyOp27
 70
     1
102
RTVSPropertyOp28
 70
     1
102
RTVSPropertyOp29
 70
     1
102
RTVSPropertyOp30
 70
     1
102
RTVSPropertyOp31
 70
     1
102
RTVSPropertyOp32
 70
     1
102
RTVSPropertyOp33
 70
     1
102
RTVSPropertyOp34
 70
     1
102
RTVSPropertyOp35
 70
     1
102
RTVSPropertyOp36
 70
     1
102
RTVSPropertyOp37
 70
     1
102
RTVSPropertyOp38
 70
     1
102
RTVSPropertyOp39
 70
     1
102
RTVSPropertyOp40
 70
     1
102
RTVSPropertyOp41
 70
     1
102
RTVSPropertyOp42
 70
     1
102
RTVSPropertyOp43
 70
     1
102
RTVSPropertyOp44
 70
     1
102
RTVSPropertyOp45
 70
     1
102
RTVSPropertyOp46
 70
     1
102
RTVSPropertyOp47
 70
     1
102
RTVSPropertyOp48
 70
     1
102
RTVSPropertyOp49
 70
     1
102
RTVSPropertyOp50
 70
     1
102
RTVSPropertyOp51
 70
     0
102
RTVSPropertyOp52
 70
     0
102
RTVSPropertyOp53
 70
     1
102
RTVSPropertyOp54
 70
     1
102
RTVSPropertyOp55
 70
     1
102
RTVSPropertyOp56
 70
     1
102
RTVSPropertyOp57
 70
     1
102
RTVSPost2010Prop28
280
     0
102
RTVSPost2010PropOp28
 70
     1
102
RTVSPost2010Prop29
280
     1
102
RTVSPost2010PropOp29
 70
     1
102
RTVSPost2010Prop30
280
     1
102
RTVSPost2010PropOp30
 70
     1
102
RTVSPost2010Prop31
280
     0
102
RTVSPost2010PropOp31
 70
     1
102
RTVSPost2010Prop32
280
     0
102
RTVSPost2010PropOp32
 70
     1
102
RTVSPost2010Prop33
280
     0
102
RTVSPost2010PropOp33
 70
     1
102
RTVSPost2010Prop34
280
     0
102
RTVSPost2010PropOp34
 70
     1
102
RTVSPost2010Prop35
280
     0
102
RTVSPost2010PropOp35
 70
     1
102
RTVSPost2010Prop36
280
     0
102
RTVSPost2010PropOp36
 70
     1
102
RTVSPost2010Prop37
 90
       50
102
RTVSPost2010PropOp37
 70
     1
102
RTVSPost2010Prop38
140
0.0
102
RTVSPost2010PropOp38
 70
     1
102
RTVSPost2010Prop39
140
1.0
102
RTVSPost2010PropOp39
 70
     1
102
RTVSPost2010Prop40
 90
        0
102
RTVSPost2010PropOp40
 70
     1
102
RTVSPost2010Prop41ColorIndex
 90
       18
102
RTVSPost2010Prop41ColorRGB
 90
        0
102
RTVSPost2010PropOp41
 70
     1
102
RTVSPost2010Prop42
 90
       50
102
RTVSPost2010PropOp42
 70
     1
102
RTVSPost2010Prop43
 90
        3
102
RTVSPost2010PropOp43
 70
     1
102
RTVSPost2010Prop44ColorIndex
 90
        5
102
RTVSPost2010Prop44ColorRGB
 90
      255
102
RTVSPost2010PropOp44
 70
     1
102
RTVSPost2010Prop45
280
     0
102
RTVSPost2010PropOp45
 70
     1
102
RTVSPost2010Prop46
 90
       50
102
RTVSPost2010PropOp46
 70
     1
102
RTVSPost2010Prop47
 90
       50
102
RTVSPost2010PropOp47
 70
     1
102
RTVSPost2010Prop48
 90
       50
102
RTVSPost2010PropOp48
 70
     1
102
RTVSPost2010Prop49
280
     0
102
RTVSPost2010PropOp49
 70
     1
102
RTVSPost2010Prop50
 90
       50
102
RTVSPost2010PropOp50
 70
     1
102
RTVSPost2010Prop51ColorIndex
 90
      256
102
RTVSPost2010Prop51ColorRGB
 90
-16777216
102
RTVSPost2010PropOp51
 70
     0
102
RTVSPost2010Prop52
140
1.0
102
RTVSPost2010PropOp52
 70
     0
102
RTVSPost2010Prop53
 90
        2
102
RTVSPost2010PropOp53
 70
     1
102
RTVSPost2010Prop54
  1
strokes_ogs.tif
102
RTVSPost2010PropOp54
 70
     1
102
RTVSPost2010Prop55
280
     0
102
RTVSPost2010PropOp55
 70
     1
102
RTVSPost2010Prop56
140
1.0
102
RTVSPost2010PropOp56
 70
     1
102
RTVSPost2010Prop57
140
1.0
102
RTVSPost2010PropOp57
 70
     1
  0
XRECORD
  5
DD
102
{ACAD_REACTORS
330
DC
102
}
330
DC
100
AcDbXrecord
280
     1
102
RTVSPropertyOp0
 70
     1
102
RTVSPropertyOp1
 70
     1
102
RTVSPropertyOp2
 70
     1
102
RTVSPropertyOp3
 70
     1
102
RTVSPropertyOp4
 70
     1
102
RTVSPropertyOp5
 70
     1
102
RTVSPropertyOp6
 70
     1
102
RTVSPropertyOp7
 70
     1
102
RTVSPropertyOp8
 70
     1
102
RTVSPropertyOp9
 70
     1
102
RTVSPropertyOp10
 70
     1
102
RTVSPropertyOp11
 70
     1
102
RTVSPropertyOp12
 70
     1
102
RTVSPropertyOp13
 70
     1
102
RTVSPropertyOp14
 70
     1
102
RTVSPropertyOp15
 70
     1
102
RTVSPropertyOp16
 70
     1
102
RTVSPropertyOp17
 70
     1
102
RTVSPropertyOp18
 70
     1
102
RTVSPropertyOp19
 70
     1
102
RTVSPropertyOp20
 70
     1
102
RTVSPropertyOp21
 70
     1
102
RTVSPropertyOp22
 70
     1
102
RTVSPropertyOp23
 70
     1
102
RTVSPropertyOp24
 70
     1
102
RTVSPropertyOp25
 70
     1
102
RTVSPropertyOp26
 70
     1
102
RTVSPropertyOp27
 70
     1
102
RTVSPropertyOp28
 70
     1
102
RTVSPropertyOp29
 70
     1
102
RTVSPropertyOp30
 70
     1
102
RTVSPropertyOp31
 70
     1
102
RTVSPropertyOp32
 70
     1
102
RTVSPropertyOp33
 70
     1
102
RTVSPropertyOp34
 70
     1
102
RTVSPropertyOp35
 70
     1
102
RTVSPropertyOp36
 70
     1
102
RTVSPropertyOp37
 70
     1
102
RTVSPropertyOp38
 70
     1
102
RTVSPropertyOp39
 70
     1
102
RTVSPropertyOp40
 70
     1
102
RTVSPropertyOp41
 70
     1
102
RTVSPropertyOp42
 70
     1
102
RTVSPropertyOp43
 70
     1
102
RTVSPropertyOp44
 70
     1
102
RTVSPropertyOp45
 70
     1
102
RTVSPropertyOp46
 70
     1
102
RTVSPropertyOp47
 70
     1
102
RTVSPropertyOp48
 70
     1
102
RTVSPropertyOp49
 70
     1
102
RTVSPropertyOp50
 70
     1
102
RTVSPropertyOp51
 70
     0
102
RTVSPropertyOp52
 70
     0
102
RTVSPropertyOp53
 70
     1
102
RTVSPropertyOp54
 70
     1
102
RTVSPropertyOp55
 70
     1
102
RTVSPropertyOp56
 70
     1
102
RTVSPropertyOp57
 70
     1
102
RTVSPost2010Prop28
280
     0
102
RTVSPost2010PropOp28
 70
     1
102
RTVSPost2010Prop29
280
     1
102
RTVSPost2010PropOp29
 70
     1
102
RTVSPost2010Prop30
280
     1
102
RTVSPost2010PropOp30
 70
     1
102
RTVSPost2010Prop31
280
     0
102
RTVSPost2010PropOp31
 70
     1
102
RTVSPost2010Prop32
280
     0
102
RTVSPost2010PropOp32
 70
     1
102
RTVSPost2010Prop33
280
     0
102
RTVSPost2010PropOp33
 70
     1
102
RTVSPost2010Prop34
280
     0
102
RTVSPost2010PropOp34
 70
     1
102
RTVSPost2010Prop35
280
     0
102
RTVSPost2010PropOp35
 70
     1
102
RTVSPost2010Prop36
280
     0
102
RTVSPost2010PropOp36
 70
     1
102
RTVSPost2010Prop37
 90
       50
102
RTVSPost2010PropOp37
 70
     1
102
RTVSPost2010Prop38
140
0.0
102
RTVSPost2010PropOp38
 70
     1
102
RTVSPost2010Prop39
140
1.0
102
RTVSPost2010PropOp39
 70
     1
102
RTVSPost2010Prop40
 90
        0
102
RTVSPost2010PropOp40
 70
     1
102
RTVSPost2010Prop41ColorIndex
 90
       18
102
RTVSPost2010Prop41ColorRGB
 90
        0
102
RTVSPost2010PropOp41
 70
     1
102
RTVSPost2010Prop42
 90
       50
102
RTVSPost2010PropOp42
 70
     1
102
RTVSPost2010Prop43
 90
        3
102
RTVSPost2010PropOp43
 70
     1
102
RTVSPost2010Prop44ColorIndex
 90
        5
102
RTVSPost2010Prop44ColorRGB
 90
      255
102
RTVSPost2010PropOp44
 70
     1
102
RTVSPost2010Prop45
280
     0
102
RTVSPost2010PropOp45
 70
     1
102
RTVSPost2010Prop46
 90
       50
102
RTVSPost2010PropOp46
 70
     1
102
RTVSPost2010Prop47
 90
       50
102
RTVSPost2010PropOp47
 70
     1
102
RTVSPost2010Prop48
 90
       50
102
RTVSPost2010PropOp48
 70
     1
102
RTVSPost2010Prop49
280
     0
102
RTVSPost2010PropOp49
 70
     1
102
RTVSPost2010Prop50
 90
       50
102
RTVSPost2010PropOp50
 70
     1
102
RTVSPost2010Prop51ColorIndex
 90
      256
102
RTVSPost2010Prop51ColorRGB
 90
-16777216
102
RTVSPost2010PropOp51
 70
     0
102
RTVSPost2010Prop52
140
1.0
102
RTVSPost2010PropOp52
 70
     0
102
RTVSPost2010Prop53
 90
        2
102
RTVSPost2010PropOp53
 70
     1
102
RTVSPost2010Prop54
  1
strokes_ogs.tif
102
RTVSPost2010PropOp54
 70
     1
102
RTVSPost2010Prop55
280
     0
102
RTVSPost2010PropOp55
 70
     1
102
RTVSPost2010Prop56
140
1.0
102
RTVSPost2010PropOp56
 70
     1
102
RTVSPost2010Prop57
140
1.0
102
RTVSPost2010PropOp57
 70
     1
  0
XRECORD
  5
DB
102
{ACAD_REACTORS
330
DA
102
}
330
DA
100
AcDbXrecord
280
     1
102
RTVSPropertyOp0
 70
     1
102
RTVSPropertyOp1
 70
     1
102
RTVSPropertyOp2
 70
     1
102
RTVSPropertyOp3
 70
     1
102
RTVSPropertyOp4
 70
     1
102
RTVSPropertyOp5
 70
     1
102
RTVSPropertyOp6
 70
     1
102
RTVSPropertyOp7
 70
     1
102
RTVSPropertyOp8
 70
     1
102
RTVSPropertyOp9
 70
     1
102
RTVSPropertyOp10
 70
     1
102
RTVSPropertyOp11
 70
     1
102
RTVSPropertyOp12
 70
     1
102
RTVSPropertyOp13
 70
     1
102
RTVSPropertyOp14
 70
     1
102
RTVSPropertyOp15
 70
     1
102
RTVSPropertyOp16
 70
     1
102
RTVSPropertyOp17
 70
     1
102
RTVSPropertyOp18
 70
     1
102
RTVSPropertyOp19
 70
     1
102
RTVSPropertyOp20
 70
     1
102
RTVSPropertyOp21
 70
     1
102
RTVSPropertyOp22
 70
     1
102
RTVSPropertyOp23
 70
     1
102
RTVSPropertyOp24
 70
     1
102
RTVSPropertyOp25
 70
     1
102
RTVSPropertyOp26
 70
     1
102
RTVSPropertyOp27
 70
     1
102
RTVSPropertyOp28
 70
     1
102
RTVSPropertyOp29
 70
     1
102
RTVSPropertyOp30
 70
     1
102
RTVSPropertyOp31
 70
     1
102
RTVSPropertyOp32
 70
     1
102
RTVSPropertyOp33
 70
     1
102
RTVSPropertyOp34
 70
     1
102
RTVSPropertyOp35
 70
     1
102
RTVSPropertyOp36
 70
     1
102
RTVSPropertyOp37
 70
     1
102
RTVSPropertyOp38
 70
     1
102
RTVSPropertyOp39
 70
     1
102
RTVSPropertyOp40
 70
     1
102
RTVSPropertyOp41
 70
     1
102
RTVSPropertyOp42
 70
     1
102
RTVSPropertyOp43
 70
     1
102
RTVSPropertyOp44
 70
     1
102
RTVSPropertyOp45
 70
     1
102
RTVSPropertyOp46
 70
     1
102
RTVSPropertyOp47
 70
     1
102
RTVSPropertyOp48
 70
     1
102
RTVSPropertyOp49
 70
     1
102
RTVSPropertyOp50
 70
     1
102
RTVSPropertyOp51
 70
     0
102
RTVSPropertyOp52
 70
     0
102
RTVSPropertyOp53
 70
     1
102
RTVSPropertyOp54
 70
     1
102
RTVSPropertyOp55
 70
     1
102
RTVSPropertyOp56
 70
     1
102
RTVSPropertyOp57
 70
     1
102
RTVSPost2010Prop28
280
     0
102
RTVSPost2010PropOp28
 70
     1
102
RTVSPost2010Prop29
280
     1
102
RTVSPost2010PropOp29
 70
     1
102
RTVSPost2010Prop30
280
     1
102
RTVSPost2010PropOp30
 70
     1
102
RTVSPost2010Prop31
280
     0
102
RTVSPost2010PropOp31
 70
     1
102
RTVSPost2010Prop32
280
     0
102
RTVSPost2010PropOp32
 70
     1
102
RTVSPost2010Prop33
280
     0
102
RTVSPost2010PropOp33
 70
     1
102
RTVSPost2010Prop34
280
     0
102
RTVSPost2010PropOp34
 70
     1
102
RTVSPost2010Prop35
280
     0
102
RTVSPost2010PropOp35
 70
     1
102
RTVSPost2010Prop36
280
     0
102
RTVSPost2010PropOp36
 70
     1
102
RTVSPost2010Prop37
 90
       50
102
RTVSPost2010PropOp37
 70
     1
102
RTVSPost2010Prop38
140
0.0
102
RTVSPost2010PropOp38
 70
     1
102
RTVSPost2010Prop39
140
1.0
102
RTVSPost2010PropOp39
 70
     1
102
RTVSPost2010Prop40
 90
        0
102
RTVSPost2010PropOp40
 70
     1
102
RTVSPost2010Prop41ColorIndex
 90
       18
102
RTVSPost2010Prop41ColorRGB
 90
        0
102
RTVSPost2010PropOp41
 70
     1
102
RTVSPost2010Prop42
 90
       50
102
RTVSPost2010PropOp42
 70
     1
102
RTVSPost2010Prop43
 90
        3
102
RTVSPost2010PropOp43
 70
     1
102
RTVSPost2010Prop44ColorIndex
 90
        5
102
RTVSPost2010Prop44ColorRGB
 90
      255
102
RTVSPost2010PropOp44
 70
     1
102
RTVSPost2010Prop45
280
     0
102
RTVSPost2010PropOp45
 70
     1
102
RTVSPost2010Prop46
 90
       50
102
RTVSPost2010PropOp46
 70
     1
102
RTVSPost2010Prop47
 90
       50
102
RTVSPost2010PropOp47
 70
     1
102
RTVSPost2010Prop48
 90
       50
102
RTVSPost2010PropOp48
 70
     1
102
RTVSPost2010Prop49
280
     0
102
RTVSPost2010PropOp49
 70
     1
102
RTVSPost2010Prop50
 90
       50
102
RTVSPost2010PropOp50
 70
     1
102
RTVSPost2010Prop51ColorIndex
 90
      256
102
RTVSPost2010Prop51ColorRGB
 90
-16777216
102
RTVSPost2010PropOp51
 70
     0
102
RTVSPost2010Prop52
140
1.0
102
RTVSPost2010PropOp52
 70
     0
102
RTVSPost2010Prop53
 90
        2
102
RTVSPost2010PropOp53
 70
     1
102
RTVSPost2010Prop54
  1
strokes_ogs.tif
102
RTVSPost2010PropOp54
 70
     1
102
RTVSPost2010Prop55
280
     0
102
RTVSPost2010PropOp55
 70
     1
102
RTVSPost2010Prop56
140
1.0
102
RTVSPost2010PropOp56
 70
     1
102
RTVSPost2010Prop57
140
1.0
102
RTVSPost2010PropOp57
 70
     1
  0
XRECORD
  5
D5
102
{ACAD_REACTORS
330
D4
102
}
330
D4
100
AcDbXrecord
280
     1
102
RTVSPropertyOp0
 70
     1
102
RTVSPropertyOp1
 70
     1
102
RTVSPropertyOp2
 70
     1
102
RTVSPropertyOp3
 70
     1
102
RTVSPropertyOp4
 70
     1
102
RTVSPropertyOp5
 70
     1
102
RTVSPropertyOp6
 70
     1
102
RTVSPropertyOp7
 70
     1
102
RTVSPropertyOp8
 70
     1
102
RTVSPropertyOp9
 70
     1
102
RTVSPropertyOp10
 70
     1
102
RTVSPropertyOp11
 70
     1
102
RTVSPropertyOp12
 70
     1
102
RTVSPropertyOp13
 70
     1
102
RTVSPropertyOp14
 70
     1
102
RTVSPropertyOp15
 70
     1
102
RTVSPropertyOp16
 70
     1
102
RTVSPropertyOp17
 70
     1
102
RTVSPropertyOp18
 70
     1
102
RTVSPropertyOp19
 70
     1
102
RTVSPropertyOp20
 70
     1
102
RTVSPropertyOp21
 70
     1
102
RTVSPropertyOp22
 70
     1
102
RTVSPropertyOp23
 70
     1
102
RTVSPropertyOp24
 70
     1
102
RTVSPropertyOp25
 70
     1
102
RTVSPropertyOp26
 70
     1
102
RTVSPropertyOp27
 70
     1
102
RTVSPropertyOp28
 70
     1
102
RTVSPropertyOp29
 70
     1
102
RTVSPropertyOp30
 70
     1
102
RTVSPropertyOp31
 70
     1
102
RTVSPropertyOp32
 70
     1
102
RTVSPropertyOp33
 70
     1
102
RTVSPropertyOp34
 70
     1
102
RTVSPropertyOp35
 70
     1
102
RTVSPropertyOp36
 70
     1
102
RTVSPropertyOp37
 70
     1
102
RTVSPropertyOp38
 70
     1
102
RTVSPropertyOp39
 70
     1
102
RTVSPropertyOp40
 70
     1
102
RTVSPropertyOp41
 70
     1
102
RTVSPropertyOp42
 70
     1
102
RTVSPropertyOp43
 70
     1
102
RTVSPropertyOp44
 70
     1
102
RTVSPropertyOp45
 70
     1
102
RTVSPropertyOp46
 70
     1
102
RTVSPropertyOp47
 70
     1
102
RTVSPropertyOp48
 70
     1
102
RTVSPropertyOp49
 70
     1
102
RTVSPropertyOp50
 70
     1
102
RTVSPropertyOp51
 70
     0
102
RTVSPropertyOp52
 70
     0
102
RTVSPropertyOp53
 70
     1
102
RTVSPropertyOp54
 70
     1
102
RTVSPropertyOp55
 70
     1
102
RTVSPropertyOp56
 70
     1
102
RTVSPropertyOp57
 70
     1
102
RTVSPost2010Prop28
280
     0
102
RTVSPost2010PropOp28
 70
     1
102
RTVSPost2010Prop29
280
     1
102
RTVSPost2010PropOp29
 70
     1
102
RTVSPost2010Prop30
280
     1
102
RTVSPost2010PropOp30
 70
     1
102
RTVSPost2010Prop31
280
     0
102
RTVSPost2010PropOp31
 70
     1
102
RTVSPost2010Prop32
280
     0
102
RTVSPost2010PropOp32
 70
     1
102
RTVSPost2010Prop33
280
     0
102
RTVSPost2010PropOp33
 70
     1
102
RTVSPost2010Prop34
280
     0
102
RTVSPost2010PropOp34
 70
     1
102
RTVSPost2010Prop35
280
     0
102
RTVSPost2010PropOp35
 70
     1
102
RTVSPost2010Prop36
280
     0
102
RTVSPost2010PropOp36
 70
     1
102
RTVSPost2010Prop37
 90
       50
102
RTVSPost2010PropOp37
 70
     1
102
RTVSPost2010Prop38
140
0.0
102
RTVSPost2010PropOp38
 70
     1
102
RTVSPost2010Prop39
140
1.0
102
RTVSPost2010PropOp39
 70
     1
102
RTVSPost2010Prop40
 90
        0
102
RTVSPost2010PropOp40
 70
     1
102
RTVSPost2010Prop41ColorIndex
 90
       18
102
RTVSPost2010Prop41ColorRGB
 90
        0
102
RTVSPost2010PropOp41
 70
     1
102
RTVSPost2010Prop42
 90
       50
102
RTVSPost2010PropOp42
 70
     1
102
RTVSPost2010Prop43
 90
        3
102
RTVSPost2010PropOp43
 70
     1
102
RTVSPost2010Prop44ColorIndex
 90
        5
102
RTVSPost2010Prop44ColorRGB
 90
      255
102
RTVSPost2010PropOp44
 70
     1
102
RTVSPost2010Prop45
280
     0
102
RTVSPost2010PropOp45
 70
     1
102
RTVSPost2010Prop46
 90
       50
102
RTVSPost2010PropOp46
 70
     1
102
RTVSPost2010Prop47
 90
       50
102
RTVSPost2010PropOp47
 70
     1
102
RTVSPost2010Prop48
 90
       50
102
RTVSPost2010PropOp48
 70
     1
102
RTVSPost2010Prop49
280
     0
102
RTVSPost2010PropOp49
 70
     1
102
RTVSPost2010Prop50
 90
       50
102
RTVSPost2010PropOp50
 70
     1
102
RTVSPost2010Prop51ColorIndex
 90
      256
102
RTVSPost2010Prop51ColorRGB
 90
-16777216
102
RTVSPost2010PropOp51
 70
     0
102
RTVSPost2010Prop52
140
1.0
102
RTVSPost2010PropOp52
 70
     0
102
RTVSPost2010Prop53
 90
        2
102
RTVSPost2010PropOp53
 70
     1
102
RTVSPost2010Prop54
  1
strokes_ogs.tif
102
RTVSPost2010PropOp54
 70
     1
102
RTVSPost2010Prop55
280
     0
102
RTVSPost2010PropOp55
 70
     1
102
RTVSPost2010Prop56
140
1.0
102
RTVSPost2010PropOp56
 70
     1
102
RTVSPost2010Prop57
140
1.0
102
RTVSPost2010PropOp57
 70
     1
  0
XRECORD
  5
D7
102
{ACAD_REACTORS
330
D6
102
}
330
D6
100
AcDbXrecord
280
     1
102
RTVSPropertyOp0
 70
     1
102
RTVSPropertyOp1
 70
     1
102
RTVSPropertyOp2
 70
     1
102
RTVSPropertyOp3
 70
     1
102
RTVSPropertyOp4
 70
     1
102
RTVSPropertyOp5
 70
     1
102
RTVSPropertyOp6
 70
     1
102
RTVSPropertyOp7
 70
     1
102
RTVSPropertyOp8
 70
     1
102
RTVSPropertyOp9
 70
     1
102
RTVSPropertyOp10
 70
     1
102
RTVSPropertyOp11
 70
     1
102
RTVSPropertyOp12
 70
     1
102
RTVSPropertyOp13
 70
     1
102
RTVSPropertyOp14
 70
     1
102
RTVSPropertyOp15
 70
     1
102
RTVSPropertyOp16
 70
     1
102
RTVSPropertyOp17
 70
     1
102
RTVSPropertyOp18
 70
     1
102
RTVSPropertyOp19
 70
     1
102
RTVSPropertyOp20
 70
     1
102
RTVSPropertyOp21
 70
     1
102
RTVSPropertyOp22
 70
     1
102
RTVSPropertyOp23
 70
     1
102
RTVSPropertyOp24
 70
     1
102
RTVSPropertyOp25
 70
     1
102
RTVSPropertyOp26
 70
     1
102
RTVSPropertyOp27
 70
     1
102
RTVSPropertyOp28
 70
     1
102
RTVSPropertyOp29
 70
     1
102
RTVSPropertyOp30
 70
     1
102
RTVSPropertyOp31
 70
     1
102
RTVSPropertyOp32
 70
     1
102
RTVSPropertyOp33
 70
     1
102
RTVSPropertyOp34
 70
     1
102
RTVSPropertyOp35
 70
     1
102
RTVSPropertyOp36
 70
     1
102
RTVSPropertyOp37
 70
     1
102
RTVSPropertyOp38
 70
     1
102
RTVSPropertyOp39
 70
     1
102
RTVSPropertyOp40
 70
     1
102
RTVSPropertyOp41
 70
     1
102
RTVSPropertyOp42
 70
     1
102
RTVSPropertyOp43
 70
     1
102
RTVSPropertyOp44
 70
     1
102
RTVSPropertyOp45
 70
     1
102
RTVSPropertyOp46
 70
     1
102
RTVSPropertyOp47
 70
     1
102
RTVSPropertyOp48
 70
     1
102
RTVSPropertyOp49
 70
     1
102
RTVSPropertyOp50
 70
     1
102
RTVSPropertyOp51
 70
     0
102
RTVSPropertyOp52
 70
     0
102
RTVSPropertyOp53
 70
     1
102
RTVSPropertyOp54
 70
     1
102
RTVSPropertyOp55
 70
     1
102
RTVSPropertyOp56
 70
     1
102
RTVSPropertyOp57
 70
     1
102
RTVSPost2010Prop28
280
     0
102
RTVSPost2010PropOp28
 70
     1
102
RTVSPost2010Prop29
280
     1
102
RTVSPost2010PropOp29
 70
     1
102
RTVSPost2010Prop30
280
     1
102
RTVSPost2010PropOp30
 70
     1
102
RTVSPost2010Prop31
280
     0
102
RTVSPost2010PropOp31
 70
     1
102
RTVSPost2010Prop32
280
     0
102
RTVSPost2010PropOp32
 70
     1
102
RTVSPost2010Prop33
280
     0
102
RTVSPost2010PropOp33
 70
     1
102
RTVSPost2010Prop34
280
     0
102
RTVSPost2010PropOp34
 70
     1
102
RTVSPost2010Prop35
280
     0
102
RTVSPost2010PropOp35
 70
     1
102
RTVSPost2010Prop36
280
     0
102
RTVSPost2010PropOp36
 70
     1
102
RTVSPost2010Prop37
 90
       50
102
RTVSPost2010PropOp37
 70
     1
102
RTVSPost2010Prop38
140
0.0
102
RTVSPost2010PropOp38
 70
     1
102
RTVSPost2010Prop39
140
1.0
102
RTVSPost2010PropOp39
 70
     1
102
RTVSPost2010Prop40
 90
        0
102
RTVSPost2010PropOp40
 70
     1
102
RTVSPost2010Prop41ColorIndex
 90
       18
102
RTVSPost2010Prop41ColorRGB
 90
        0
102
RTVSPost2010PropOp41
 70
     1
102
RTVSPost2010Prop42
 90
       50
102
RTVSPost2010PropOp42
 70
     1
102
RTVSPost2010Prop43
 90
        3
102
RTVSPost2010PropOp43
 70
     1
102
RTVSPost2010Prop44ColorIndex
 90
        5
102
RTVSPost2010Prop44ColorRGB
 90
      255
102
RTVSPost2010PropOp44
 70
     1
102
RTVSPost2010Prop45
280
     0
102
RTVSPost2010PropOp45
 70
     1
102
RTVSPost2010Prop46
 90
       50
102
RTVSPost2010PropOp46
 70
     1
102
RTVSPost2010Prop47
 90
       50
102
RTVSPost2010PropOp47
 70
     1
102
RTVSPost2010Prop48
 90
       50
102
RTVSPost2010PropOp48
 70
     1
102
RTVSPost2010Prop49
280
     0
102
RTVSPost2010PropOp49
 70
     1
102
RTVSPost2010Prop50
 90
       50
102
RTVSPost2010PropOp50
 70
     1
102
RTVSPost2010Prop51ColorIndex
 90
      256
102
RTVSPost2010Prop51ColorRGB
 90
-16777216
102
RTVSPost2010PropOp51
 70
     0
102
RTVSPost2010Prop52
140
1.0
102
RTVSPost2010PropOp52
 70
     0
102
RTVSPost2010Prop53
 90
        2
102
RTVSPost2010PropOp53
 70
     1
102
RTVSPost2010Prop54
  1
strokes_ogs.tif
102
RTVSPost2010PropOp54
 70
     1
102
RTVSPost2010Prop55
280
     0
102
RTVSPost2010PropOp55
 70
     1
102
RTVSPost2010Prop56
140
1.0
102
RTVSPost2010PropOp56
 70
     1
102
RTVSPost2010Prop57
140
1.0
102
RTVSPost2010PropOp57
 70
     1
  0
XRECORD
  5
C7
102
{ACAD_REACTORS
330
C6
102
}
330
C6
100
AcDbXrecord
280
     1
102
RTVSPropertyOp0
 70
     1
102
RTVSPropertyOp1
 70
     1
102
RTVSPropertyOp2
 70
     1
102
RTVSPropertyOp3
 70
     1
102
RTVSPropertyOp4
 70
     1
102
RTVSPropertyOp5
 70
     1
102
RTVSPropertyOp6
 70
     1
102
RTVSPropertyOp7
 70
     1
102
RTVSPropertyOp8
 70
     1
102
RTVSPropertyOp9
 70
     1
102
RTVSPropertyOp10
 70
     1
102
RTVSPropertyOp11
 70
     1
102
RTVSPropertyOp12
 70
     1
102
RTVSPropertyOp13
 70
     1
102
RTVSPropertyOp14
 70
     1
102
RTVSPropertyOp15
 70
     1
102
RTVSPropertyOp16
 70
     1
102
RTVSPropertyOp17
 70
     1
102
RTVSPropertyOp18
 70
     1
102
RTVSPropertyOp19
 70
     1
102
RTVSPropertyOp20
 70
     1
102
RTVSPropertyOp21
 70
     1
102
RTVSPropertyOp22
 70
     1
102
RTVSPropertyOp23
 70
     1
102
RTVSPropertyOp24
 70
     1
102
RTVSPropertyOp25
 70
     1
102
RTVSPropertyOp26
 70
     1
102
RTVSPropertyOp27
 70
     1
102
RTVSPropertyOp28
 70
     1
102
RTVSPropertyOp29
 70
     1
102
RTVSPropertyOp30
 70
     1
102
RTVSPropertyOp31
 70
     1
102
RTVSPropertyOp32
 70
     1
102
RTVSPropertyOp33
 70
     1
102
RTVSPropertyOp34
 70
     1
102
RTVSPropertyOp35
 70
     1
102
RTVSPropertyOp36
 70
     1
102
RTVSPropertyOp37
 70
     1
102
RTVSPropertyOp38
 70
     1
102
RTVSPropertyOp39
 70
     1
102
RTVSPropertyOp40
 70
     1
102
RTVSPropertyOp41
 70
     1
102
RTVSPropertyOp42
 70
     1
102
RTVSPropertyOp43
 70
     1
102
RTVSPropertyOp44
 70
     1
102
RTVSPropertyOp45
 70
     1
102
RTVSPropertyOp46
 70
     1
102
RTVSPropertyOp47
 70
     1
102
RTVSPropertyOp48
 70
     1
102
RTVSPropertyOp49
 70
     1
102
RTVSPropertyOp50
 70
     1
102
RTVSPropertyOp51
 70
     0
102
RTVSPropertyOp52
 70
     0
102
RTVSPropertyOp53
 70
     1
102
RTVSPropertyOp54
 70
     1
102
RTVSPropertyOp55
 70
     1
102
RTVSPropertyOp56
 70
     1
102
RTVSPropertyOp57
 70
     1
102
RTVSPost2010Prop28
280
     0
102
RTVSPost2010PropOp28
 70
     1
102
RTVSPost2010Prop29
280
     1
102
RTVSPost2010PropOp29
 70
     1
102
RTVSPost2010Prop30
280
     1
102
RTVSPost2010PropOp30
 70
     1
102
RTVSPost2010Prop31
280
     0
102
RTVSPost2010PropOp31
 70
     1
102
RTVSPost2010Prop32
280
     0
102
RTVSPost2010PropOp32
 70
     1
102
RTVSPost2010Prop33
280
     0
102
RTVSPost2010PropOp33
 70
     1
102
RTVSPost2010Prop34
280
     0
102
RTVSPost2010PropOp34
 70
     1
102
RTVSPost2010Prop35
280
     0
102
RTVSPost2010PropOp35
 70
     1
102
RTVSPost2010Prop36
280
     0
102
RTVSPost2010PropOp36
 70
     1
102
RTVSPost2010Prop37
 90
       50
102
RTVSPost2010PropOp37
 70
     1
102
RTVSPost2010Prop38
140
0.0
102
RTVSPost2010PropOp38
 70
     1
102
RTVSPost2010Prop39
140
1.0
102
RTVSPost2010PropOp39
 70
     1
102
RTVSPost2010Prop40
 90
        0
102
RTVSPost2010PropOp40
 70
     1
102
RTVSPost2010Prop41ColorIndex
 90
       18
102
RTVSPost2010Prop41ColorRGB
 90
        0
102
RTVSPost2010PropOp41
 70
     1
102
RTVSPost2010Prop42
 90
       50
102
RTVSPost2010PropOp42
 70
     1
102
RTVSPost2010Prop43
 90
        3
102
RTVSPost2010PropOp43
 70
     1
102
RTVSPost2010Prop44ColorIndex
 90
        5
102
RTVSPost2010Prop44ColorRGB
 90
      255
102
RTVSPost2010PropOp44
 70
     1
102
RTVSPost2010Prop45
280
     0
102
RTVSPost2010PropOp45
 70
     1
102
RTVSPost2010Prop46
 90
       50
102
RTVSPost2010PropOp46
 70
     1
102
RTVSPost2010Prop47
 90
       50
102
RTVSPost2010PropOp47
 70
     1
102
RTVSPost2010Prop48
 90
       50
102
RTVSPost2010PropOp48
 70
     1
102
RTVSPost2010Prop49
280
     0
102
RTVSPost2010PropOp49
 70
     1
102
RTVSPost2010Prop50
 90
       50
102
RTVSPost2010PropOp50
 70
     1
102
RTVSPost2010Prop51ColorIndex
 90
      256
102
RTVSPost2010Prop51ColorRGB
 90
-16777216
102
RTVSPost2010PropOp51
 70
     0
102
RTVSPost2010Prop52
140
1.0
102
RTVSPost2010PropOp52
 70
     0
102
RTVSPost2010Prop53
 90
        2
102
RTVSPost2010PropOp53
 70
     1
102
RTVSPost2010Prop54
  1
strokes_ogs.tif
102
RTVSPost2010PropOp54
 70
     1
102
RTVSPost2010Prop55
280
     0
102
RTVSPost2010PropOp55
 70
     1
102
RTVSPost2010Prop56
140
1.0
102
RTVSPost2010PropOp56
 70
     1
102
RTVSPost2010Prop57
140
1.0
102
RTVSPost2010PropOp57
 70
     1
  0
XRECORD
  5
B9
102
{ACAD_REACTORS
330
B8
102
}
330
B8
100
AcDbXrecord
280
     1
102
RTVSPropertyOp0
 70
     1
102
RTVSPropertyOp1
 70
     1
102
RTVSPropertyOp2
 70
     1
102
RTVSPropertyOp3
 70
     1
102
RTVSPropertyOp4
 70
     1
102
RTVSPropertyOp5
 70
     1
102
RTVSPropertyOp6
 70
     1
102
RTVSPropertyOp7
 70
     1
102
RTVSPropertyOp8
 70
     1
102
RTVSPropertyOp9
 70
     1
102
RTVSPropertyOp10
 70
     1
102
RTVSPropertyOp11
 70
     1
102
RTVSPropertyOp12
 70
     1
102
RTVSPropertyOp13
 70
     1
102
RTVSPropertyOp14
 70
     1
102
RTVSPropertyOp15
 70
     1
102
RTVSPropertyOp16
 70
     1
102
RTVSPropertyOp17
 70
     1
102
RTVSPropertyOp18
 70
     1
102
RTVSPropertyOp19
 70
     1
102
RTVSPropertyOp20
 70
     1
102
RTVSPropertyOp21
 70
     1
102
RTVSPropertyOp22
 70
     1
102
RTVSPropertyOp23
 70
     1
102
RTVSPropertyOp24
 70
     1
102
RTVSPropertyOp25
 70
     1
102
RTVSPropertyOp26
 70
     1
102
RTVSPropertyOp27
 70
     1
102
RTVSPropertyOp28
 70
     1
102
RTVSPropertyOp29
 70
     1
102
RTVSPropertyOp30
 70
     1
102
RTVSPropertyOp31
 70
     1
102
RTVSPropertyOp32
 70
     1
102
RTVSPropertyOp33
 70
     1
102
RTVSPropertyOp34
 70
     1
102
RTVSPropertyOp35
 70
     1
102
RTVSPropertyOp36
 70
     1
102
RTVSPropertyOp37
 70
     1
102
RTVSPropertyOp38
 70
     1
102
RTVSPropertyOp39
 70
     1
102
RTVSPropertyOp40
 70
     1
102
RTVSPropertyOp41
 70
     1
102
RTVSPropertyOp42
 70
     1
102
RTVSPropertyOp43
 70
     1
102
RTVSPropertyOp44
 70
     1
102
RTVSPropertyOp45
 70
     1
102
RTVSPropertyOp46
 70
     1
102
RTVSPropertyOp47
 70
     1
102
RTVSPropertyOp48
 70
     1
102
RTVSPropertyOp49
 70
     1
102
RTVSPropertyOp50
 70
     1
102
RTVSPropertyOp51
 70
     0
102
RTVSPropertyOp52
 70
     0
102
RTVSPropertyOp53
 70
     1
102
RTVSPropertyOp54
 70
     1
102
RTVSPropertyOp55
 70
     1
102
RTVSPropertyOp56
 70
     1
102
RTVSPropertyOp57
 70
     1
102
RTVSPost2010Prop28
280
     0
102
RTVSPost2010PropOp28
 70
     1
102
RTVSPost2010Prop29
280
     1
102
RTVSPost2010PropOp29
 70
     1
102
RTVSPost2010Prop30
280
     1
102
RTVSPost2010PropOp30
 70
     1
102
RTVSPost2010Prop31
280
     0
102
RTVSPost2010PropOp31
 70
     1
102
RTVSPost2010Prop32
280
     0
102
RTVSPost2010PropOp32
 70
     1
102
RTVSPost2010Prop33
280
     0
102
RTVSPost2010PropOp33
 70
     1
102
RTVSPost2010Prop34
280
     0
102
RTVSPost2010PropOp34
 70
     1
102
RTVSPost2010Prop35
280
     0
102
RTVSPost2010PropOp35
 70
     1
102
RTVSPost2010Prop36
280
     0
102
RTVSPost2010PropOp36
 70
     1
102
RTVSPost2010Prop37
 90
       50
102
RTVSPost2010PropOp37
 70
     1
102
RTVSPost2010Prop38
140
0.0
102
RTVSPost2010PropOp38
 70
     1
102
RTVSPost2010Prop39
140
1.0
102
RTVSPost2010PropOp39
 70
     1
102
RTVSPost2010Prop40
 90
        0
102
RTVSPost2010PropOp40
 70
     1
102
RTVSPost2010Prop41ColorIndex
 90
       18
102
RTVSPost2010Prop41ColorRGB
 90
        0
102
RTVSPost2010PropOp41
 70
     1
102
RTVSPost2010Prop42
 90
       50
102
RTVSPost2010PropOp42
 70
     1
102
RTVSPost2010Prop43
 90
        3
102
RTVSPost2010PropOp43
 70
     1
102
RTVSPost2010Prop44ColorIndex
 90
        5
102
RTVSPost2010Prop44ColorRGB
 90
      255
102
RTVSPost2010PropOp44
 70
     1
102
RTVSPost2010Prop45
280
     0
102
RTVSPost2010PropOp45
 70
     1
102
RTVSPost2010Prop46
 90
       50
102
RTVSPost2010PropOp46
 70
     1
102
RTVSPost2010Prop47
 90
       50
102
RTVSPost2010PropOp47
 70
     1
102
RTVSPost2010Prop48
 90
       50
102
RTVSPost2010PropOp48
 70
     1
102
RTVSPost2010Prop49
280
     0
102
RTVSPost2010PropOp49
 70
     1
102
RTVSPost2010Prop50
 90
       50
102
RTVSPost2010PropOp50
 70
     1
102
RTVSPost2010Prop51ColorIndex
 90
      256
102
RTVSPost2010Prop51ColorRGB
 90
-16777216
102
RTVSPost2010PropOp51
 70
     0
102
RTVSPost2010Prop52
140
1.0
102
RTVSPost2010PropOp52
 70
     0
102
RTVSPost2010Prop53
 90
        2
102
RTVSPost2010PropOp53
 70
     1
102
RTVSPost2010Prop54
  1
strokes_ogs.tif
102
RTVSPost2010PropOp54
 70
     1
102
RTVSPost2010Prop55
280
     0
102
RTVSPost2010PropOp55
 70
     1
102
RTVSPost2010Prop56
140
1.0
102
RTVSPost2010PropOp56
 70
     1
102
RTVSPost2010Prop57
140
1.0
102
RTVSPost2010PropOp57
 70
     1
  0
XRECORD
  5
D9
102
{ACAD_REACTORS
330
D8
102
}
330
D8
100
AcDbXrecord
280
     1
102
RTVSPropertyOp0
 70
     1
102
RTVSPropertyOp1
 70
     1
102
RTVSPropertyOp2
 70
     1
102
RTVSPropertyOp3
 70
     1
102
RTVSPropertyOp4
 70
     1
102
RTVSPropertyOp5
 70
     1
102
RTVSPropertyOp6
 70
     1
102
RTVSPropertyOp7
 70
     1
102
RTVSPropertyOp8
 70
     1
102
RTVSPropertyOp9
 70
     1
102
RTVSPropertyOp10
 70
     1
102
RTVSPropertyOp11
 70
     1
102
RTVSPropertyOp12
 70
     1
102
RTVSPropertyOp13
 70
     1
102
RTVSPropertyOp14
 70
     1
102
RTVSPropertyOp15
 70
     1
102
RTVSPropertyOp16
 70
     1
102
RTVSPropertyOp17
 70
     1
102
RTVSPropertyOp18
 70
     1
102
RTVSPropertyOp19
 70
     1
102
RTVSPropertyOp20
 70
     1
102
RTVSPropertyOp21
 70
     1
102
RTVSPropertyOp22
 70
     1
102
RTVSPropertyOp23
 70
     1
102
RTVSPropertyOp24
 70
     1
102
RTVSPropertyOp25
 70
     1
102
RTVSPropertyOp26
 70
     1
102
RTVSPropertyOp27
 70
     1
102
RTVSPropertyOp28
 70
     1
102
RTVSPropertyOp29
 70
     1
102
RTVSPropertyOp30
 70
     1
102
RTVSPropertyOp31
 70
     1
102
RTVSPropertyOp32
 70
     1
102
RTVSPropertyOp33
 70
     1
102
RTVSPropertyOp34
 70
     1
102
RTVSPropertyOp35
 70
     1
102
RTVSPropertyOp36
 70
     1
102
RTVSPropertyOp37
 70
     1
102
RTVSPropertyOp38
 70
     1
102
RTVSPropertyOp39
 70
     1
102
RTVSPropertyOp40
 70
     1
102
RTVSPropertyOp41
 70
     1
102
RTVSPropertyOp42
 70
     1
102
RTVSPropertyOp43
 70
     1
102
RTVSPropertyOp44
 70
     1
102
RTVSPropertyOp45
 70
     1
102
RTVSPropertyOp46
 70
     1
102
RTVSPropertyOp47
 70
     1
102
RTVSPropertyOp48
 70
     1
102
RTVSPropertyOp49
 70
     1
102
RTVSPropertyOp50
 70
     1
102
RTVSPropertyOp51
 70
     0
102
RTVSPropertyOp52
 70
     0
102
RTVSPropertyOp53
 70
     1
102
RTVSPropertyOp54
 70
     1
102
RTVSPropertyOp55
 70
     1
102
RTVSPropertyOp56
 70
     1
102
RTVSPropertyOp57
 70
     1
102
RTVSPost2010Prop28
280
     0
102
RTVSPost2010PropOp28
 70
     1
102
RTVSPost2010Prop29
280
     1
102
RTVSPost2010PropOp29
 70
     1
102
RTVSPost2010Prop30
280
     1
102
RTVSPost2010PropOp30
 70
     1
102
RTVSPost2010Prop31
280
     0
102
RTVSPost2010PropOp31
 70
     1
102
RTVSPost2010Prop32
280
     0
102
RTVSPost2010PropOp32
 70
     1
102
RTVSPost2010Prop33
280
     0
102
RTVSPost2010PropOp33
 70
     1
102
RTVSPost2010Prop34
280
     0
102
RTVSPost2010PropOp34
 70
     1
102
RTVSPost2010Prop35
280
     0
102
RTVSPost2010PropOp35
 70
     1
102
RTVSPost2010Prop36
280
     0
102
RTVSPost2010PropOp36
 70
     1
102
RTVSPost2010Prop37
 90
       50
102
RTVSPost2010PropOp37
 70
     1
102
RTVSPost2010Prop38
140
0.0
102
RTVSPost2010PropOp38
 70
     1
102
RTVSPost2010Prop39
140
1.0
102
RTVSPost2010PropOp39
 70
     1
102
RTVSPost2010Prop40
 90
        0
102
RTVSPost2010PropOp40
 70
     1
102
RTVSPost2010Prop41ColorIndex
 90
       18
102
RTVSPost2010Prop41ColorRGB
 90
        0
102
RTVSPost2010PropOp41
 70
     1
102
RTVSPost2010Prop42
 90
       50
102
RTVSPost2010PropOp42
 70
     1
102
RTVSPost2010Prop43
 90
        3
102
RTVSPost2010PropOp43
 70
     1
102
RTVSPost2010Prop44ColorIndex
 90
        5
102
RTVSPost2010Prop44ColorRGB
 90
      255
102
RTVSPost2010PropOp44
 70
     1
102
RTVSPost2010Prop45
280
     0
102
RTVSPost2010PropOp45
 70
     1
102
RTVSPost2010Prop46
 90
       50
102
RTVSPost2010PropOp46
 70
     1
102
RTVSPost2010Prop47
 90
       50
102
RTVSPost2010PropOp47
 70
     1
102
RTVSPost2010Prop48
 90
       50
102
RTVSPost2010PropOp48
 70
     1
102
RTVSPost2010Prop49
280
     0
102
RTVSPost2010PropOp49
 70
     1
102
RTVSPost2010Prop50
 90
       50
102
RTVSPost2010PropOp50
 70
     1
102
RTVSPost2010Prop51ColorIndex
 90
      256
102
RTVSPost2010Prop51ColorRGB
 90
-16777216
102
RTVSPost2010PropOp51
 70
     0
102
RTVSPost2010Prop52
140
1.0
102
RTVSPost2010PropOp52
 70
     0
102
RTVSPost2010Prop53
 90
        2
102
RTVSPost2010PropOp53
 70
     1
102
RTVSPost2010Prop54
  1
strokes_ogs.tif
102
RTVSPost2010PropOp54
 70
     1
102
RTVSPost2010Prop55
280
     0
102
RTVSPost2010PropOp55
 70
     1
102
RTVSPost2010Prop56
140
1.0
102
RTVSPost2010PropOp56
 70
     1
102
RTVSPost2010Prop57
140
1.0
102
RTVSPost2010PropOp57
 70
     1
  0
ENDSEC
  0
EOF
