  0
SECTION
  2
HEADER
  9
$ACADVER
  1
AC1014
  9
$ACADMAINTVER
 70
     9
  9
$DWGCODEPAGE
  3
ANSI_1252
  9
$INSBASE
 10
0.0
 20
0.0
 30
0.0
  9
$EXTMIN
 10
1.000000000000000E+20
 20
1.000000000000000E+20
 30
1.000000000000000E+20
  9
$EXTMAX
 10
-1.000000000000000E+20
 20
-1.000000000000000E+20
 30
-1.000000000000000E+20
  9
$LIMMIN
 10
0.0
 20
0.0
  9
$LIMMAX
 10
12.0
 20
9.0
  9
$ORTHOMODE
 70
     0
  9
$REGENMODE
 70
     1
  9
$FILLMODE
 70
     1
  9
$QTEXTMODE
 70
     0
  9
$MIRRTEXT
 70
     1
  9
$DRAGMODE
 70
     2
  9
$LTSCALE
 40
1.0
  9
$OSMODE
 70
    37
  9
$ATTMODE
 70
     1
  9
$TEXTSIZE
 40
0.2
  9
$TRACEWID
 40
0.05
  9
$TEXTSTYLE
  7
STANDARD
  9
$CLAYER
  8
DEFAULT
  9
$CELTYPE
  6
BYLAYER
  9
$CECOLOR
 62
   256
  9
$CELTSCALE
 40
1.0
  9
$DELOBJ
 70
     1
  9
$DISPSILH
 70
     0
  9
$DIMSCALE
 40
1.0
  9
$DIMASZ
 40
0.18
  9
$DIMEXO
 40
0.0625
  9
$DIMDLI
 40
0.38
  9
$DIMRND
 40
0.0
  9
$DIMDLE
 40
0.0
  9
$DIMEXE
 40
0.18
  9
$DIMTP
 40
0.0
  9
$DIMTM
 40
0.0
  9
$DIMTXT
 40
0.18
  9
$DIMCEN
 40
0.09
  9
$DIMTSZ
 40
0.0
  9
$DIMTOL
 70
     0
  9
$DIMLIM
 70
     0
  9
$DIMTIH
 70
     1
  9
$DIMTOH
 70
     1
  9
$DIMSE1
 70
     0
  9
$DIMSE2
 70
     0
  9
$DIMTAD
 70
     0
  9
$DIMZIN
 70
     0
  9
$DIMBLK
  1

  9
$DIMASO
 70
     1
  9
$DIMSHO
 70
     1
  9
$DIMPOST
  1

  9
$DIMAPOST
  1

  9
$DIMALT
 70
     0
  9
$DIMALTD
 70
     2
  9
$DIMALTF
 40
25.4
  9
$DIMLFAC
 40
1.0
  9
$DIMTOFL
 70
     0
  9
$DIMTVP
 40
0.0
  9
$DIMTIX
 70
     0
  9
$DIMSOXD
 70
     0
  9
$DIMSAH
 70
     0
  9
$DIMBLK1
  1

  9
$DIMBLK2
  1

  9
$DIMSTYLE
  2
STANDARD
  9
$DIMCLRD
 70
     0
  9
$DIMCLRE
 70
     0
  9
$DIMCLRT
 70
     0
  9
$DIMTFAC
 40
1.0
  9
$DIMGAP
 40
0.09
  9
$DIMJUST
 70
     0
  9
$DIMSD1
 70
     0
  9
$DIMSD2
 70
     0
  9
$DIMTOLJ
 70
     1
  9
$DIMTZIN
 70
     0
  9
$DIMALTZ
 70
     0
  9
$DIMALTTZ
 70
     0
  9
$DIMFIT
 70
     3
  9
$DIMUPT
 70
     0
  9
$DIMUNIT
 70
     2
  9
$DIMDEC
 70
     4
  9
$DIMTDEC
 70
     4
  9
$DIMALTU
 70
     2
  9
$DIMALTTD
 70
     2
  9
$DIMTXSTY
  7
STANDARD
  9
$DIMAUNIT
 70
     0
  9
$LUNITS
 70
     2
  9
$LUPREC
 70
     3
  9
$SKETCHINC
 40
0.1
  9
$FILLETRAD
 40
0.5
  9
$AUNITS
 70
     0
  9
$AUPREC
 70
     0
  9
$MENU
  1
.
  9
$ELEVATION
 40
0.0
  9
$PELEVATION
 40
0.0
  9
$THICKNESS
 40
0.0
  9
$LIMCHECK
 70
     0
  9
$CHAMFERA
 40
0.5
  9
$CHAMFERB
 40
0.5
  9
$CHAMFERC
 40
1.0
  9
$CHAMFERD
 40
0.0
  9
$SKPOLY
 70
     0
  9
$TDCREATE
 40
2453717.50699309
  9
$TDUPDATE
 40
2453717.506993102
  9
$TDINDWG
 40
0.0000000116
  9
$TDUSRTIMER
 40
0.0000000116
  9
$USRTIMER
 70
     1
  9
$ANGBASE
 50
0.0
  9
$ANGDIR
 70
     0
  9
$PDMODE
 70
     0
  9
$PDSIZE
 40
0.0
  9
$PLINEWID
 40
0.0
  9
$COORDS
 70
     1
  9
$SPLFRAME
 70
     0
  9
$SPLINETYPE
 70
     6
  9
$SPLINESEGS
 70
     8
  9
$ATTDIA
 70
     0
  9
$ATTREQ
 70
     1
  9
$HANDLING
 70
     1
  9
$HANDSEED
  5
234
  9
$SURFTAB1
 70
     6
  9
$SURFTAB2
 70
     6
  9
$SURFTYPE
 70
     6
  9
$SURFU
 70
     6
  9
$SURFV
 70
     6
  9
$UCSNAME
  2

  9
$UCSORG
 10
0.0
 20
0.0
 30
0.0
  9
$UCSXDIR
 10
1.0
 20
0.0
 30
0.0
  9
$UCSYDIR
 10
0.0
 20
1.0
 30
0.0
  9
$PUCSNAME
  2

  9
$PUCSORG
 10
0.0
 20
0.0
 30
0.0
  9
$PUCSXDIR
 10
1.0
 20
0.0
 30
0.0
  9
$PUCSYDIR
 10
0.0
 20
1.0
 30
0.0
  9
$USERI1
 70
     0
  9
$USERI2
 70
     0
  9
$USERI3
 70
     0
  9
$USERI4
 70
     0
  9
$USERI5
 70
     0
  9
$USERR1
 40
0.0
  9
$USERR2
 40
0.0
  9
$USERR3
 40
0.0
  9
$USERR4
 40
0.0
  9
$USERR5
 40
0.0
  9
$WORLDVIEW
 70
     1
  9
$SHADEDGE
 70
     3
  9
$SHADEDIF
 70
    70
  9
$TILEMODE
 70
     1
  9
$MAXACTVP
 70
    64
  9
$PINSBASE
 10
0.0
 20
0.0
 30
0.0
  9
$PLIMCHECK
 70
     0
  9
$PEXTMIN
 10
1.000000000000000E+20
 20
1.000000000000000E+20
 30
1.000000000000000E+20
  9
$PEXTMAX
 10
-1.000000000000000E+20
 20
-1.000000000000000E+20
 30
-1.000000000000000E+20
  9
$PLIMMIN
 10
0.0
 20
0.0
  9
$PLIMMAX
 10
12.0
 20
9.0
  9
$UNITMODE
 70
     0
  9
$VISRETAIN
 70
     1
  9
$PLINEGEN
 70
     0
  9
$PSLTSCALE
 70
     1
  9
$TREEDEPTH
 70
  3020
  9
$PICKSTYLE
 70
     1
  9
$CMLSTYLE
  2
STANDARD
  9
$CMLJUST
 70
     0
  9
$CMLSCALE
 40
1.0
  9
$PROXYGRAPHICS
 70
     1
  9
$MEASUREMENT
 70
     0
  0
ENDSEC
  0
SECTION
  2
CLASSES
  0
CLASS
  1
ACDBDICTIONARYWDFLT
  2
AcDbDictionaryWithDefault
  3
ObjectDBX Classes
 90
        0
280
     0
281
     0
  0
CLASS
  1
XRECORD
  2
AcDbXrecord
  3
AutoCAD 2000
 90
        0
280
     0
281
     0
  0
CLASS
  1
LWPOLYLINE
  2
AcDbPolyline
  3
AutoCAD 2000
 90
        0
280
     0
281
     1
  0
CLASS
  1
HATCH
  2
AcDbHatch
  3
AutoCAD 2000
 90
        0
280
     0
281
     1
  0
CLASS
  1
ACDBPLACEHOLDER
  2
AcDbPlaceHolder
  3
ObjectDBX Classes
 90
        0
280
     0
281
     0
  0
CLASS
  1
LAYOUT
  2
AcDbLayout
  3
ObjectDBX Classes
 90
        0
280
     0
281
     0
  0
ENDSEC
  0
SECTION
  2
TABLES
  0
TABLE
  2
VPORT
  5
8
330
0
100
AcDbSymbolTable
 70
     2
  0
VPORT
  5
29
102
{ACAD_XDICTIONARY
360
232
102
}
330
8
100
AcDbSymbolTableRecord
100
AcDbViewportTableRecord
  2
*ACTIVE
 70
     0
 10
0.0
 20
0.0
 11
1.0
 21
1.0
 12
31.48876718060419
 22
22.50653285166348
 13
0.0
 23
0.0
 14
0.5
 24
0.5
 15
0.5
 25
0.5
 16
0.0
 26
0.0
 36
100.0
 17
0.0
 27
0.0
 37
0.0
 40
45.00961722587836
 41
1.972972972850329
 42
50.0
 43
0.0
 44
0.0
 50
0.0
 51
0.0
 71
     0
 72
   100
 73
     1
 74
     3
 75
     0
 76
     0
 77
     0
 78
     0
  0
ENDTAB
  0
TABLE
  2
LTYPE
  5
5
330
0
100
AcDbSymbolTable
 70
     1
  0
LTYPE
  5
14
330
5
100
AcDbSymbolTableRecord
100
AcDbLinetypeTableRecord
  2
BYBLOCK
 70
     0
  3

 72
    65
 73
     0
 40
0.0
  0
LTYPE
  5
15
330
5
100
AcDbSymbolTableRecord
100
AcDbLinetypeTableRecord
  2
BYLAYER
 70
     0
  3

 72
    65
 73
     0
 40
0.0
  0
LTYPE
  5
16
330
5
100
AcDbSymbolTableRecord
100
AcDbLinetypeTableRecord
  2
CONTINUOUS
 70
     0
  3
Solid line
 72
    65
 73
     0
 40
0.0
  0
ENDTAB
  0
TABLE
  2
LAYER
  5
2
330
0
100
AcDbSymbolTable
 70
     2
  0
LAYER
  5
10
330
2
100
AcDbSymbolTableRecord
100
AcDbLayerTableRecord
  2
0
 70
     0
 62
     7
  6
CONTINUOUS
  0
LAYER
  5
2A
330
2
100
AcDbSymbolTableRecord
100
AcDbLayerTableRecord
  2
DEFAULT
 70
     0
 62
     7
  6
CONTINUOUS
  0
ENDTAB
  0
TABLE
  2
STYLE
  5
3
330
0
100
AcDbSymbolTable
 70
     1
  0
STYLE
  5
11
330
3
100
AcDbSymbolTableRecord
100
AcDbTextStyleTableRecord
  2
STANDARD
 70
     0
 40
0.0
 41
1.0
 50
0.0
 71
     0
 42
0.2
  3
txt
  4

  0
ENDTAB
  0
TABLE
  2
VIEW
  5
6
330
0
100
AcDbSymbolTable
 70
     0
  0
ENDTAB
  0
TABLE
  2
UCS
  5
7
330
0
100
AcDbSymbolTable
 70
     0
  0
ENDTAB
  0
TABLE
  2
APPID
  5
9
330
0
100
AcDbSymbolTable
 70
     1
  0
APPID
  5
12
330
9
100
AcDbSymbolTableRecord
100
AcDbRegAppTableRecord
  2
ACAD
 70
     0
  0
ENDTAB
  0
TABLE
  2
DIMSTYLE
  5
A
330
0
100
AcDbSymbolTable
 70
     1
  0
DIMSTYLE
105
27
330
A
100
AcDbSymbolTableRecord
100
AcDbDimStyleTableRecord
  2
STANDARD
 70
     0
  3

  4

  5

  6

  7

 40
1.0
 41
0.18
 42
0.0625
 43
0.38
 44
0.18
 45
0.0
 46
0.0
 47
0.0
 48
0.0
140
0.18
141
0.09
142
0.0
143
25.4
144
1.0
145
0.0
146
1.0
147
0.09
 71
     0
 72
     0
 73
     1
 74
     1
 75
     0
 76
     0
 77
     0
 78
     0
170
     0
171
     2
172
     0
173
     0
174
     0
175
     0
176
     0
177
     0
178
     0
270
     2
271
     4
272
     4
273
     2
274
     2
340
11
275
     0
280
     0
281
     0
282
     0
283
     1
284
     0
285
     0
286
     0
287
     3
288
     0
  0
ENDTAB
  0
TABLE
  2
BLOCK_RECORD
  5
1
330
0
100
AcDbSymbolTable
 70
     1
  0
BLOCK_RECORD
  5
1F
330
1
100
AcDbSymbolTableRecord
100
AcDbBlockTableRecord
  2
*MODEL_SPACE
  0
BLOCK_RECORD
  5
1B
330
1
100
AcDbSymbolTableRecord
100
AcDbBlockTableRecord
  2
*PAPER_SPACE
  0
ENDTAB
  0
ENDSEC
  0
SECTION
  2
BLOCKS
  0
BLOCK
  5
20
330
1F
100
AcDbEntity
  8
0
100
AcDbBlockBegin
  2
*MODEL_SPACE
 70
     0
 71
     0
 10
0.0
 20
0.0
 30
0.0
  3
*MODEL_SPACE
  1

  0
ENDBLK
  5
21
330
1F
100
AcDbEntity
  8
0
100
AcDbBlockEnd
  0
BLOCK
  5
1C
330
1B
100
AcDbEntity
 67
     1
  8
0
100
AcDbBlockBegin
  2
*PAPER_SPACE
 70
     0
 71
     0
 10
0.0
 20
0.0
 30
0.0
  3
*PAPER_SPACE
  1

  0
ENDBLK
  5
1D
330
1B
100
AcDbEntity
 67
     1
  8
0
100
AcDbBlockEnd
  0
ENDSEC
  0
SECTION
  2
ENTITIES
  0
SPLINE
  5
2B
330
1F
100
AcDbEntity
  8
DEFAULT
100
AcDbSpline
210
0.0
220
0.0
230
1.0
 70
     8
 71
     3
 72
     9
 73
     5
 74
     0
 42
0.0000000001
 43
0.0000000001
 40
4.054189517210808
 40
4.054189517210808
 40
4.054189517210808
 40
4.054189517210808
 40
4.628588285719637
 40
4.699359268503144
 40
4.699359268503144
 40
4.699359268503144
 40
4.699359268503144
 10
44.68464507095638
 20
20.65361258176583
 30
0.0
 10
45.51636345709358
 20
23.30246562070814
 30
0.0
 10
45.97413092319045
 20
25.01125111833389
 30
0.0
 10
46.16895129912936
 20
26.06569518405866
 30
0.0
 10
46.19557684387802
 20
26.19728139512343
 30
0.0
  0
LINE
  5
2C
330
1F
100
AcDbEntity
  8
DEFAULT
100
AcDbLine
 10
44.68464507095638
 20
20.65361258176583
 30
0.0
 11
43.75638135886376
 21
17.34859150967895
 31
0.0
  0
ARC
  5
2D
330
1F
100
AcDbEntity
  8
DEFAULT
100
AcDbCircle
 10
43.51569446813603
 20
17.41619195813757
 30
0.0
 40
0.2499999999999712
100
AcDbArc
 50
255.9037388984643
 51
344.3118226829551
  0
LINE
  5
2E
330
1F
100
AcDbEntity
  8
DEFAULT
100
AcDbLine
 10
43.45480653783274
 20
17.17371998049197
 30
0.0
 11
41.91637176201478
 21
17.56004136210371
 31
0.0
  0
ARC
  5
2F
330
1F
100
AcDbEntity
  8
DEFAULT
100
AcDbCircle
 10
41.97725969231831
 20
17.80251333974949
 30
0.0
 40
0.2500000000002017
100
AcDbArc
 50
171.2570385142866
 51
255.9037388984205
  0
SPLINE
  5
30
330
1F
100
AcDbEntity
  8
DEFAULT
100
AcDbSpline
210
0.0
220
0.0
230
1.0
 70
     8
 71
     3
 72
    19
 73
    15
 74
     0
 42
0.0000000001
 43
0.0000000001
 40
2.684992732043717
 40
2.684992732043717
 40
2.684992732043717
 40
2.684992732043717
 40
4.638609786486654
 40
6.506765540174101
 40
7.450523030132501
 40
9.677365555575477
 40
11.0071752933211
 40
12.11947015171476
 40
13.28123246980458
 40
14.55561691832815
 40
16.97815722636344
 40
19.86051482092576
 40
21.99536297182735
 40
25.8960272038534
 40
25.8960272038534
 40
25.8960272038534
 40
25.8960272038534
 10
41.7301646446568
 20
17.84051383213121
 30
0.0
 10
41.82914891429293
 20
18.48415082972034
 30
0.0
 10
42.01533719296528
 20
19.74439875889412
 30
0.0
 10
42.21879631121517
 20
21.32001193925851
 30
0.0
 10
42.3937395021809
 20
22.99040878466525
 30
0.0
 10
42.49950141748957
 20
24.4877662009011
 30
0.0
 10
42.49378483784182
 20
26.0449948829152
 30
0.0
 10
42.40894511523228
 20
27.24393720774844
 30
0.0
 10
42.24994117681472
 20
28.41652622988107
 30
0.0
 10
41.94914641108558
 20
30.00831490139787
 30
0.0
 10
41.46255083502441
 20
32.14681709461803
 30
0.0
 10
40.93710556398254
 20
34.57056708449512
 30
0.0
 10
40.39776828556793
 20
37.49426848494451
 30
0.0
 10
40.11068462339301
 20
39.48607434953287
 30
0.0
 10
39.95479743296733
 20
40.77691705902143
 30
0.0
  0
LINE
  5
31
330
1F
100
AcDbEntity
  8
DEFAULT
100
AcDbLine
 10
39.95479743296733
 20
40.77691705902143
 30
0.0
 11
39.92039616540351
 21
41.0617809103145
 31
0.0
  0
LINE
  5
32
330
1F
100
AcDbEntity
  8
DEFAULT
100
AcDbLine
 10
39.92039616540351
 20
41.0617809103145
 30
0.0
 11
39.65708921217394
 21
41.1757998094693
 31
0.0
  0
ARC
  5
33
330
1F
100
AcDbEntity
  8
DEFAULT
100
AcDbCircle
 10
40.45183001497449
 20
43.01111641876697
 30
0.0
 40
1.999999999999998
100
AcDbArc
 50
185.9277295250286
 51
246.586107837113
  0
ARC
  5
34
330
1F
100
AcDbEntity
  8
DEFAULT
100
AcDbCircle
 10
40.4518300149745
 20
43.01111641876697
 30
0.0
 40
2.000000000000015
100
AcDbArc
 50
125.2693512129445
 51
185.9277295250285
  0
ARC
  5
35
330
1F
100
AcDbEntity
  8
DEFAULT
100
AcDbCircle
 10
40.45183001497448
 20
43.0111164187671
 30
0.0
 40
1.999999999999891
100
AcDbArc
 50
64.61097290085806
 51
125.2693512129461
  0
ARC
  5
36
330
1F
100
AcDbEntity
  8
DEFAULT
100
AcDbCircle
 10
40.45183001497469
 20
43.01111641876714
 30
0.0
 40
1.99999999999977
100
AcDbArc
 50
16.08663982243118
 51
64.61097290086322
  0
SPLINE
  5
37
330
1F
100
AcDbEntity
  8
DEFAULT
100
AcDbSpline
210
0.0
220
0.0
230
1.0
 70
     8
 71
     3
 72
    10
 73
     6
 74
     0
 42
0.0000000001
 43
0.0000000001
 40
36.51528740633677
 40
36.51528740633677
 40
36.51528740633677
 40
36.51528740633677
 40
37.51528740633677
 40
38.51528740633677
 40
39.51528740633677
 40
39.51528740633677
 40
39.51528740633677
 40
39.51528740633677
 10
42.37351759900399
 20
43.56529764308522
 30
0.0
 10
43.07389975337688
 20
41.13664140019244
 30
0.0
 10
44.13335975765168
 20
35.89988195049132
 30
0.0
 10
45.70741462114567
 20
31.81339336257427
 30
0.0
 10
46.2825500520377
 20
29.4523110673333
 30
0.0
 10
46.32140948514091
 20
27.70785135133493
 30
0.0
  0
LINE
  5
38
330
1F
100
AcDbEntity
  8
DEFAULT
 62
     7
100
AcDbLine
 10
4.040667605387985
 20
20.66330902438634
 30
0.0
 11
4.023173124270559
 21
20.96519275209887
 31
0.0
  0
ARC
  5
39
330
1F
100
AcDbEntity
  8
DEFAULT
 62
     7
100
AcDbCircle
 10
115.755709559882
 20
27.44990031463181
 30
0.0
 40
111.9205572292544
100
AcDbArc
 50
180.0044605294964
 51
183.3215933108343
  0
SPLINE
  5
3A
330
1F
100
AcDbEntity
  8
DEFAULT
 62
     7
100
AcDbSpline
210
0.0
220
0.0
230
1.0
 70
     8
 71
     3
 72
     9
 73
     5
 74
     0
 42
0.0000000001
 43
0.0000000001
 40
-17.94818855746097
 40
-17.94818855746097
 40
-17.94818855746097
 40
-17.94818855746097
 40
-17.19502139411279
 40
-7.297303955941357
 40
-7.297303955941357
 40
-7.297303955941357
 40
-7.297303955941357
 10
3.835152669789767
 20
27.44118719561137
 30
0.0
 10
3.835133898037511
 20
27.68231152333203
 30
0.0
 10
3.845926232210426
 20
31.09213876045107
 30
0.0
 10
4.094504375439902
 20
34.49301627685475
 30
0.0
 10
4.30147536798768
 20
36.75797041830777
 30
0.0
  0
ARC
  5
3B
330
1F
100
AcDbEntity
  8
DEFAULT
 62
     7
100
AcDbCircle
 10
1.882413415376362
 20
36.97901945024381
 30
0.0
 40
2.429140466315513
100
AcDbArc
 50
354.7789261884994
 51
0.0001415389209159
  0
LINE
  5
3C
330
1F
100
AcDbEntity
  8
DEFAULT
 62
     7
100
AcDbLine
 10
4.311553881684461
 20
36.97902545099855
 30
0.0
 11
4.311536425473591
 21
44.0454012785069
 31
0.0
  0
ARC
  5
3D
330
1F
100
AcDbEntity
  8
DEFAULT
 62
     7
100
AcDbCircle
 10
4.786967509567148
 20
44.05002604126054
 30
0.0
 40
0.4754535772847895
100
AcDbArc
 50
100.9104627013788
 51
180.5573279461986
  0
SPLINE
  5
3E
330
1F
100
AcDbEntity
  8
DEFAULT
 62
     7
100
AcDbSpline
210
0.0
220
0.0
230
1.0
 70
     8
 71
     3
 72
     8
 73
     4
 74
     0
 42
0.0000000001
 43
0.0000000001
 40
0.0528258433901119
 40
0.0528258433901119
 40
0.0528258433901119
 40
0.0528258433901119
 40
0.9470306990256123
 40
0.9470306990256123
 40
0.9470306990256123
 40
0.9470306990256123
 10
4.696976150721509
 20
44.5168853985471
 30
0.0
 10
7.427980468610518
 20
45.04331115342232
 30
0.0
 10
19.21945696498627
 20
45.05727067182762
 30
0.0
 10
21.94319691301805
 20
44.51704045909862
 30
0.0
  0
ARC
  5
3F
330
1F
100
AcDbEntity
  8
DEFAULT
 62
     7
100
AcDbCircle
 10
21.84747813145975
 20
44.04556655374718
 30
0.0
 40
0.4810922245997708
100
AcDbArc
 50
0.0001415389222997
 51
78.52376901034624
  0
LINE
  5
40
330
1F
100
AcDbEntity
  8
DEFAULT
 62
     7
100
AcDbLine
 10
22.32857035605804
 20
44.04556774219903
 30
0.0
 11
22.32858781278589
 21
36.97898272728705
 31
0.0
  0
ARC
  5
41
330
1F
100
AcDbEntity
  8
DEFAULT
 62
     7
100
AcDbCircle
 10
23.68836616613622
 20
36.9302281650171
 30
0.0
 40
1.36065211482666
100
AcDbArc
 50
177.9465517159705
 51
187.2749444103224
  0
SPLINE
  5
42
330
1F
100
AcDbEntity
  8
DEFAULT
 62
     7
100
AcDbSpline
210
0.0
220
0.0
230
1.0
 70
     8
 71
     3
 72
     9
 73
     5
 74
     0
 42
0.0000000001
 43
0.0000000001
 40
8.297304475691654
 40
8.297304475691654
 40
8.297304475691654
 40
8.297304475691654
 40
18.19502191386309
 40
18.94818907721126
 40
18.94818907721126
 40
18.94818907721126
 40
18.94818907721126
 10
22.33866741863632
 20
36.75792764679541
 30
0.0
 10
22.62686087964684
 20
34.50039320999778
 30
0.0
 10
22.79424454725813
 20
31.0920938283891
 30
0.0
 10
22.80507456347253
 20
27.68226653672701
 30
0.0
 10
22.80503614771931
 20
27.44114221241202
 30
0.0
  0
ARC
  5
43
330
1F
100
AcDbEntity
  8
DEFAULT
 62
     7
100
AcDbCircle
 10
-89.45044942809943
 20
27.45902667530834
 30
0.0
 40
112.2554870004886
100
AcDbArc
 50
356.6836397031478
 51
359.9908716778615
  0
LINE
  5
44
330
1F
100
AcDbEntity
  8
DEFAULT
 62
     7
100
AcDbLine
 10
22.61704768879888
 20
20.96514866052777
 30
0.0
 11
22.5995572493088
 21
20.66330902438634
 31
0.0
  0
SPLINE
  5
45
330
1F
100
AcDbEntity
  8
DEFAULT
100
AcDbSpline
210
0.0
220
0.0
230
1.0
 70
     8
 71
     3
 72
     8
 73
     4
 74
     0
 42
0.0000000001
 43
0.0000000001
 40
0.0515254300017919
 40
0.0515254300017919
 40
0.0515254300017919
 40
0.0515254300017919
 40
0.7906552532814644
 40
0.7906552532814644
 40
0.7906552532814644
 40
0.7906552532814644
 10
23.16407584268426
 20
25.91420830884768
 30
0.0
 10
22.92697397377541
 20
24.47532668878884
 30
0.0
 10
22.80766644691089
 20
22.34273133035519
 30
0.0
 10
22.76655066108415
 20
20.96517070631332
 30
0.0
  0
LINE
  5
46
330
1F
100
AcDbEntity
  8
DEFAULT
100
AcDbLine
 10
22.76655066108415
 20
20.96517070631332
 30
0.0
 11
22.75754105377772
 21
20.66330902438634
 31
0.0
  0
LINE
  5
47
330
1F
100
AcDbEntity
  8
DEFAULT
 62
     7
100
AcDbLine
 10
13.32011040653472
 20
28.18086691168955
 30
0.0
 11
13.32011040653472
 21
20.66330902438633
 31
0.0
  0
SPLINE
  5
48
330
1F
100
AcDbEntity
  8
DEFAULT
100
AcDbSpline
210
0.0
220
0.0
230
1.0
 70
     8
 71
     3
 72
     8
 73
     4
 74
     0
 42
0.0000000001
 43
0.0000000001
 40
0.0515254300017919
 40
0.0515254300017919
 40
0.0515254300017919
 40
0.0515254300017919
 40
0.8471232330462865
 40
0.8471232330462865
 40
0.8471232330462865
 40
0.8471232330462865
 10
3.476144970385175
 20
25.91420830884768
 30
0.0
 10
3.731360928475732
 20
24.36539912850596
 30
0.0
 10
3.850096536117692
 20
22.01283068026342
 30
0.0
 10
3.881742160822022
 20
20.66330902438633
 30
0.0
  0
LINE
  5
49
330
1F
100
AcDbEntity
  8
DEFAULT
 62
     7
100
AcDbLine
 10
13.32011040653472
 20
20.66330902438633
 30
0.0
 11
23.1723178016511
 21
20.66330902438634
 31
0.0
  0
ARC
  5
4A
330
1F
100
AcDbEntity
  8
DEFAULT
 62
     7
100
AcDbCircle
 10
23.16393457206648
 20
20.19929755536145
 30
0.0
 40
0.4640871921577955
100
AcDbArc
 50
19.03919202145913
 51
88.96495786172596
  0
SPLINE
  5
4B
330
1F
100
AcDbEntity
  8
DEFAULT
 62
     7
100
AcDbSpline
210
0.0
220
0.0
230
1.0
 70
     8
 71
     3
 72
     8
 73
     4
 74
     0
 42
0.0000000001
 43
0.0000000001
 40
11.40265252699529
 40
11.40265252699529
 40
11.40265252699529
 40
11.40265252699529
 40
12.11429809860233
 40
12.11429809860233
 40
12.11429809860233
 40
12.11429809860233
 10
23.6026341788601
 20
20.35068968502487
 30
0.0
 10
23.89893657360719
 20
19.49207342566881
 30
0.0
 10
23.89037544751914
 20
17.13926580806143
 30
0.0
 10
23.60263420153918
 20
16.2777900520083
 30
0.0
  0
ARC
  5
4C
330
1F
100
AcDbEntity
  8
DEFAULT
 62
     7
100
AcDbCircle
 10
23.17231782214463
 20
16.41764277110021
 30
0.0
 40
0.4524720647870222
100
AcDbArc
 50
270.0
 51
341.9958509440326
  0
LINE
  5
4D
330
1F
100
AcDbEntity
  8
DEFAULT
 62
     7
100
AcDbLine
 10
23.17231782214463
 20
15.96517070631318
 30
0.0
 11
3.467902990924802
 21
15.96517070631318
 31
0.0
  0
ARC
  5
4E
330
1F
100
AcDbEntity
  8
DEFAULT
 62
     7
100
AcDbCircle
 10
3.476286220722073
 20
16.42918217563055
 30
0.0
 40
0.4640871924540675
100
AcDbArc
 50
199.0391912198362
 51
268.9649578361289
  0
SPLINE
  5
4F
330
1F
100
AcDbEntity
  8
DEFAULT
 62
     7
100
AcDbSpline
210
0.0
220
0.0
230
1.0
 70
     8
 71
     3
 72
     8
 73
     4
 74
     0
 42
0.0000000001
 43
0.0000000001
 40
34.91960321177777
 40
34.91960321177777
 40
34.91960321177777
 40
34.91960321177777
 40
35.63124878338482
 40
35.63124878338482
 40
35.63124878338482
 40
35.63124878338482
 10
3.037586611530263
 20
16.2777900520083
 30
0.0
 10
2.74128423190258
 20
17.13640630650787
 30
0.0
 10
2.749845372977503
 20
19.48921392402435
 30
0.0
 10
3.037586634209345
 20
20.35068968502487
 30
0.0
  0
ARC
  5
50
330
1F
100
AcDbEntity
  8
DEFAULT
 62
     7
100
AcDbCircle
 10
3.467903011418333
 20
20.21083695977429
 30
0.0
 40
0.4524720646120386
100
AcDbArc
 50
90.0
 51
161.9958501168159
  0
LINE
  5
51
330
1F
100
AcDbEntity
  8
DEFAULT
 62
     7
100
AcDbLine
 10
3.467903011418333
 20
20.66330902438633
 30
0.0
 11
13.32011040653472
 21
20.66330902438633
 31
0.0
  0
LINE
  5
52
330
1F
100
AcDbEntity
  8
DEFAULT
100
AcDbLine
 10
53.53002475356831
 20
16.98852267741868
 30
0.0
 11
58.97644562520886
 21
16.98852267741867
 31
0.0
  0
LINE
  5
53
330
1F
100
AcDbEntity
  8
DEFAULT
100
AcDbLine
 10
58.97644562520886
 20
16.98852267741867
 30
0.0
 11
59.22644562520887
 21
16.98852267741867
 31
0.0
  0
LINE
  5
54
330
1F
100
AcDbEntity
  8
DEFAULT
100
AcDbLine
 10
59.22644562520887
 20
16.98852267741867
 30
0.0
 11
59.37644562520887
 21
16.78852267741867
 31
0.0
  0
ARC
  5
55
330
1F
100
AcDbEntity
  8
DEFAULT
100
AcDbCircle
 10
60.97644562520885
 20
17.98852267741868
 30
0.0
 40
1.999999999999998
100
AcDbArc
 50
216.8698976458445
 51
275.1524232343833
  0
ARC
  5
56
330
1F
100
AcDbEntity
  8
DEFAULT
100
AcDbCircle
 10
60.97644562520881
 20
17.98852267741872
 30
0.0
 40
2.00000000000004
100
AcDbArc
 50
275.1524232343845
 51
333.4349488229216
  0
ARC
  5
57
330
1F
100
AcDbEntity
  8
DEFAULT
100
AcDbCircle
 10
60.97644562520881
 20
17.98852267741869
 30
0.0
 40
2.000000000000028
100
AcDbArc
 50
333.4349488229224
 51
31.71747441146078
  0
ARC
  5
58
330
1F
100
AcDbEntity
  8
DEFAULT
100
AcDbCircle
 10
60.97644562520883
 20
17.98852267741864
 30
0.0
 40
2.000000000000036
100
AcDbArc
 50
31.71747441146222
 51
90.0
  0
LINE
  5
59
330
1F
100
AcDbEntity
  8
DEFAULT
100
AcDbLine
 10
60.97644562520883
 20
19.98852267741868
 30
0.0
 11
54.70082694274569
 21
19.98852267741868
 31
0.0
  0
LINE
  5
5A
330
1F
100
AcDbEntity
  8
DEFAULT
100
AcDbLine
 10
51.69459171901237
 20
19.9686623428814
 30
0.0
 11
44.7126446713396
 21
19.9686623428814
 31
0.0
  0
ARC
  5
5B
330
1F
100
AcDbEntity
  8
DEFAULT
100
AcDbCircle
 10
44.71264467133955
 20
19.71866234288141
 30
0.0
 40
0.2499999999999886
100
AcDbArc
 50
89.9999999999886
 51
164.3135230130789
  0
LINE
  5
5C
330
1F
100
AcDbEntity
  8
DEFAULT
100
AcDbLine
 10
44.47195577458262
 20
19.78625564859968
 30
0.0
 11
43.76987409747758
 21
17.28625564859968
 31
0.0
  0
ARC
  5
5D
330
1F
100
AcDbEntity
  8
DEFAULT
100
AcDbCircle
 10
44.01056299423433
 20
17.21866234288123
 30
0.0
 40
0.2499999999998614
100
AcDbArc
 50
164.3135230130274
 51
270.0
  0
LINE
  5
5E
330
1F
100
AcDbEntity
  8
DEFAULT
100
AcDbLine
 10
44.01056299423433
 20
16.96866234288137
 30
0.0
 11
50.90363350178227
 21
16.9686623428814
 31
0.0
  0
SPLINE
  5
5F
330
1F
100
AcDbEntity
  8
DEFAULT
100
AcDbSpline
210
0.0
220
0.0
230
1.0
 70
     8
 71
     2
 72
     6
 73
     3
 74
     0
 42
0.0000000001
 43
0.0000000001
 40
-1.472563269139118
 40
-1.472563269139118
 40
-1.472563269139118
 40
-1.061017722540972
 40
-1.061017722540972
 40
-1.061017722540972
 10
1.589058815537097
 20
26.66336767316602
 30
0.0
 10
1.471064771267173
 20
26.71902698830764
 30
0.0
 10
1.321386962110164
 20
26.86023246864445
 30
0.0
  0
ARC
  5
60
330
1F
100
AcDbEntity
  8
DEFAULT
100
AcDbCircle
 10
1.83605228228202
 20
27.40577770802656
 30
0.0
 40
0.7500000000000551
100
AcDbArc
 50
175.6980746021743
 51
226.6683374482902
  0
LINE
  5
61
330
1F
100
AcDbEntity
  8
DEFAULT
100
AcDbLine
 10
1.088165322279149
 20
27.46203688556895
 30
0.0
 11
1.096726610455885
 21
27.57584721959637
 31
0.0
  0
ARC
  5
62
330
1F
100
AcDbEntity
  8
DEFAULT
100
AcDbCircle
 10
1.346022263790156
 20
27.55709416041557
 30
0.0
 40
0.25
100
AcDbArc
 50
89.99999999999639
 51
175.6980746021729
  0
LINE
  5
63
330
1F
100
AcDbEntity
  8
DEFAULT
100
AcDbLine
 10
1.346022263790172
 20
27.80709416041557
 30
0.0
 11
1.572123519389546
 21
27.80709416041555
 31
0.0
  0
SPLINE
  5
64
330
1F
100
AcDbEntity
  8
DEFAULT
100
AcDbSpline
210
0.0
220
0.0
230
1.0
 70
     8
 71
     3
 72
     9
 73
     5
 74
     0
 42
0.0000000001
 43
0.0000000001
 40
0.0
 40
0.0
 40
0.0
 40
0.0
 40
1.0
 40
1.933820915470664
 40
1.933820915470664
 40
1.933820915470664
 40
1.933820915470664
 10
3.56444133233887
 20
28.82506711154021
 30
0.0
 10
3.283585095473566
 20
28.82506711154021
 30
0.0
 10
3.200921766185314
 20
27.41779720288303
 30
0.0
 10
3.278114512017153
 20
26.01052729422594
 30
0.0
 10
3.511752813763533
 20
25.92355883951582
 30
0.0
  0
ARC
  5
65
330
1F
100
AcDbEntity
  8
DEFAULT
100
AcDbCircle
 10
3.546637908010805
 20
26.01727666172353
 30
0.0
 40
0.0999999999999797
100
AcDbArc
 50
249.5829502756459
 51
296.8458706024153
  0
SPLINE
  5
66
330
1F
100
AcDbEntity
  8
DEFAULT
100
AcDbSpline
210
0.0
220
0.0
230
1.0
 70
     8
 71
     3
 72
     8
 73
     4
 74
     0
 42
0.0000000001
 43
0.0000000001
 40
2.016310272851632
 40
2.016310272851632
 40
2.016310272851632
 40
2.016310272851632
 40
2.295111565237342
 40
2.295111565237342
 40
2.295111565237342
 40
2.295111565237342
 10
3.591797107422192
 20
25.92805420542177
 30
0.0
 10
3.674714894511407
 20
25.97002234928512
 30
0.0
 10
3.757632681600608
 20
26.01199049314846
 30
0.0
 10
3.83756953902056
 20
26.28050929187471
 30
0.0
  0
ARC
  5
67
330
1F
100
AcDbEntity
  8
DEFAULT
100
AcDbCircle
 10
-9.932154424804457
 20
23.23065131768892
 30
0.0
 40
13.90206267861486
100
AcDbArc
 50
7.013325101547936
 51
11.40807155442851
  0
LINE
  5
68
330
1F
100
AcDbEntity
  8
DEFAULT
100
AcDbLine
 10
1.888793663945062
 20
28.82506711154021
 30
0.0
 11
3.56444133233887
 21
28.82506711154021
 31
0.0
  0
LINE
  5
69
330
1F
100
AcDbEntity
  8
DEFAULT
100
AcDbLine
 10
1.888793663945062
 20
25.91420830884768
 30
0.0
 11
3.564441332338884
 21
25.91420830884768
 31
0.0
  0
SPLINE
  5
6A
330
1F
100
AcDbEntity
  8
DEFAULT
100
AcDbSpline
210
0.0
220
0.0
230
1.0
 70
     8
 71
     3
 72
     9
 73
     5
 74
     0
 42
0.0000000001
 43
0.0000000001
 40
0.0
 40
0.0
 40
0.0
 40
0.0
 40
1.0
 40
2.0
 40
2.0
 40
2.0
 40
2.0
 10
1.888793663945062
 20
28.82506711154021
 30
0.0
 10
1.607937427079758
 20
28.82506711154021
 30
0.0
 10
1.522445199100485
 20
27.36963771019395
 30
0.0
 10
1.607937427079758
 20
25.91420830884768
 30
0.0
 10
1.888793663945062
 20
25.91420830884768
 30
0.0
  0
SPLINE
  5
6B
330
1F
100
AcDbEntity
  8
DEFAULT
100
AcDbSpline
210
0.0
220
0.0
230
1.0
 70
     8
 71
     2
 72
     6
 73
     3
 74
     0
 42
0.0000000001
 43
0.0000000001
 40
0.0
 40
0.0
 40
0.0
 40
1.0
 40
1.0
 40
1.0
 10
3.56444133233887
 20
28.82506711154021
 30
0.0
 10
3.746236040916326
 20
28.82506711154021
 30
0.0
 10
3.838240043053627
 20
28.79702827518484
 30
0.0
  0
LINE
  5
6C
330
1F
100
AcDbEntity
  8
DEFAULT
100
AcDbLine
 10
2.955272201982428
 20
16.6010122541201
 30
0.0
 11
2.805239046920729
 21
16.6010122541201
 31
0.0
  0
ARC
  5
6D
330
1F
100
AcDbEntity
  8
DEFAULT
100
AcDbCircle
 10
2.805239046920365
 20
16.85101225411972
 30
0.0
 40
0.249999999999617
100
AcDbArc
 50
182.9309856210852
 51
270.0000000000833
  0
SPLINE
  5
6E
330
1F
100
AcDbEntity
  8
DEFAULT
100
AcDbSpline
210
0.0
220
0.0
230
1.0
 70
     8
 71
     3
 72
     9
 73
     5
 74
     0
 42
0.0000000001
 43
0.0000000001
 40
0.1434876878760727
 40
0.1434876878760727
 40
0.1434876878760727
 40
0.1434876878760727
 40
0.5364068672093507
 40
1.294908489819102
 40
1.294908489819102
 40
1.294908489819102
 40
1.294908489819102
 10
2.555566084315299
 20
16.83822899382282
 30
0.0
 10
2.496020034900507
 20
18.00123735190348
 30
0.0
 10
2.537222258632276
 20
21.60451252440851
 30
0.0
 10
2.494154286263065
 20
24.91414859181287
 30
0.0
 10
2.339831331251684
 20
25.91420830884769
 30
0.0
  0
LINE
  5
6F
330
1F
100
AcDbEntity
  8
DEFAULT
 62
     7
100
AcDbLine
 10
4.309000626602041
 20
36.86767139608883
 30
0.0
 11
22.33114161802874
 21
36.86762866026698
 31
0.0
  0
LINE
  5
70
330
1F
100
AcDbEntity
  8
DEFAULT
100
AcDbLine
 10
23.68494861108701
 20
16.6010122541201
 30
0.0
 11
23.83498176614871
 21
16.6010122541201
 31
0.0
  0
ARC
  5
71
330
1F
100
AcDbEntity
  8
DEFAULT
100
AcDbCircle
 10
23.83498176614907
 20
16.85101225411972
 30
0.0
 40
0.2499999999996166
100
AcDbArc
 50
269.9999999999162
 51
357.0690143789148
  0
SPLINE
  5
72
330
1F
100
AcDbEntity
  8
DEFAULT
100
AcDbSpline
210
0.0
220
0.0
230
1.0
 70
     8
 71
     3
 72
     9
 73
     5
 74
     0
 42
0.0000000001
 43
0.0000000001
 40
0.1434876878760727
 40
0.1434876878760727
 40
0.1434876878760727
 40
0.1434876878760727
 40
0.5364068672093507
 40
1.294908489819102
 40
1.294908489819102
 40
1.294908489819102
 40
1.294908489819102
 10
24.08465472875414
 20
16.83822899382282
 30
0.0
 10
24.14420077816893
 20
18.00123735190348
 30
0.0
 10
24.10299855443716
 20
21.60451252440851
 30
0.0
 10
24.14606652680637
 20
24.91414859181287
 30
0.0
 10
24.30038948181775
 20
25.91420830884769
 30
0.0
  0
SPLINE
  5
73
330
1F
100
AcDbEntity
  8
DEFAULT
100
AcDbSpline
210
0.0
220
0.0
230
1.0
 70
     8
 71
     2
 72
     6
 73
     3
 74
     0
 42
0.0000000001
 43
0.0000000001
 40
0.0
 40
0.0
 40
0.0
 40
1.0
 40
1.0
 40
1.0
 10
23.07577948073057
 20
28.82506711154021
 30
0.0
 10
22.89398477215311
 20
28.82506711154021
 30
0.0
 10
22.80198077001581
 20
28.79702827518484
 30
0.0
  0
SPLINE
  5
74
330
1F
100
AcDbEntity
  8
DEFAULT
100
AcDbSpline
210
0.0
220
0.0
230
1.0
 70
     8
 71
     3
 72
     9
 73
     5
 74
     0
 42
0.0000000001
 43
0.0000000001
 40
0.0
 40
0.0
 40
0.0
 40
0.0
 40
1.0
 40
2.0
 40
2.0
 40
2.0
 40
2.0
 10
24.75142714912438
 20
28.82506711154021
 30
0.0
 10
25.03228338598968
 20
28.82506711154021
 30
0.0
 10
25.11777561396895
 20
27.36963771019395
 30
0.0
 10
25.03228338598968
 20
25.91420830884768
 30
0.0
 10
24.75142714912438
 20
25.91420830884768
 30
0.0
  0
LINE
  5
75
330
1F
100
AcDbEntity
  8
DEFAULT
100
AcDbLine
 10
24.75142714912438
 20
25.91420830884768
 30
0.0
 11
23.07577948073055
 21
25.91420830884768
 31
0.0
  0
LINE
  5
76
330
1F
100
AcDbEntity
  8
DEFAULT
100
AcDbLine
 10
24.75142714912438
 20
28.82506711154021
 30
0.0
 11
23.07577948073057
 21
28.82506711154021
 31
0.0
  0
ARC
  5
77
330
1F
100
AcDbEntity
  8
DEFAULT
100
AcDbCircle
 10
36.5723752378739
 20
23.23065131768892
 30
0.0
 40
13.90206267861487
100
AcDbArc
 50
168.5919284455715
 51
172.9866748984521
  0
SPLINE
  5
78
330
1F
100
AcDbEntity
  8
DEFAULT
100
AcDbSpline
210
0.0
220
0.0
230
1.0
 70
     8
 71
     3
 72
     9
 73
     5
 74
     0
 42
0.0000000001
 43
0.0000000001
 40
0.0
 40
0.0
 40
0.0
 40
0.0
 40
1.0
 40
1.933820915470664
 40
1.933820915470664
 40
1.933820915470664
 40
1.933820915470664
 10
23.07577948073057
 20
28.82506711154021
 30
0.0
 10
23.35663571759587
 20
28.82506711154021
 30
0.0
 10
23.43929904688412
 20
27.41779720288303
 30
0.0
 10
23.36210630105228
 20
26.01052729422594
 30
0.0
 10
23.1284679993059
 20
25.92355883951582
 30
0.0
  0
ARC
  5
79
330
1F
100
AcDbEntity
  8
DEFAULT
100
AcDbCircle
 10
23.09358290505863
 20
26.01727666172353
 30
0.0
 40
0.0999999999999767
100
AcDbArc
 50
243.1541293975836
 51
290.4170497243546
  0
SPLINE
  5
7A
330
1F
100
AcDbEntity
  8
DEFAULT
100
AcDbSpline
210
0.0
220
0.0
230
1.0
 70
     8
 71
     3
 72
     8
 73
     4
 74
     0
 42
0.0000000001
 43
0.0000000001
 40
2.016310272851632
 40
2.016310272851632
 40
2.016310272851632
 40
2.016310272851632
 40
2.295111565237342
 40
2.295111565237342
 40
2.295111565237342
 40
2.295111565237342
 10
23.04842370564725
 20
25.92805420542177
 30
0.0
 10
22.96550591855803
 20
25.97002234928512
 30
0.0
 10
22.88258813146883
 20
26.01199049314846
 30
0.0
 10
22.80265127404888
 20
26.28050929187471
 30
0.0
  0
SPLINE
  5
7B
330
1F
100
AcDbEntity
  8
DEFAULT
100
AcDbSpline
210
0.0
220
0.0
230
1.0
 70
     8
 71
     2
 72
     6
 73
     3
 74
     0
 42
0.0000000001
 43
0.0000000001
 40
-1.472563269139118
 40
-1.472563269139118
 40
-1.472563269139118
 40
-1.061017722540972
 40
-1.061017722540972
 40
-1.061017722540972
 10
25.05116199753234
 20
26.66336767316602
 30
0.0
 10
25.16915604180226
 20
26.71902698830764
 30
0.0
 10
25.31883385095927
 20
26.86023246864445
 30
0.0
  0
ARC
  5
7C
330
1F
100
AcDbEntity
  8
DEFAULT
100
AcDbCircle
 10
24.80416853078742
 20
27.40577770802656
 30
0.0
 40
0.7500000000000535
100
AcDbArc
 50
313.3316625517097
 51
4.301925397825725
  0
LINE
  5
7D
330
1F
100
AcDbEntity
  8
DEFAULT
100
AcDbLine
 10
25.55205549079029
 20
27.46203688556895
 30
0.0
 11
25.54349420261355
 21
27.57584721959637
 31
0.0
  0
ARC
  5
7E
330
1F
100
AcDbEntity
  8
DEFAULT
100
AcDbCircle
 10
25.29419854927928
 20
27.55709416041557
 30
0.0
 40
0.2499999999999965
100
AcDbArc
 50
4.30192539782555
 51
90.00000000000325
  0
LINE
  5
7F
330
1F
100
AcDbEntity
  8
DEFAULT
100
AcDbLine
 10
25.29419854927927
 20
27.80709416041557
 30
0.0
 11
25.06809729367989
 21
27.80709416041555
 31
0.0
  0
SPLINE
  5
80
330
1F
100
AcDbEntity
  8
DEFAULT
100
AcDbSpline
210
0.0
220
0.0
230
1.0
 70
     8
 71
     3
 72
     8
 73
     4
 74
     0
 42
0.0000000001
 43
0.0000000001
 40
-1.0
 40
-1.0
 40
-1.0
 40
-1.0
 40
0.0
 40
0.0
 40
0.0
 40
0.0
 10
22.80473877412938
 20
27.71160118726417
 30
0.0
 10
21.72268370585726
 20
27.71160118726418
 30
0.0
 10
17.96242683798878
 20
28.18086691168955
 30
0.0
 10
13.32011040653472
 20
28.18086691168955
 30
0.0
  0
SPLINE
  5
81
330
1F
100
AcDbEntity
  8
DEFAULT
100
AcDbSpline
210
0.0
220
0.0
230
1.0
 70
     8
 71
     3
 72
     8
 73
     4
 74
     0
 42
0.0000000001
 43
0.0000000001
 40
0.0
 40
0.0
 40
0.0
 40
0.0
 40
1.0
 40
1.0
 40
1.0
 40
1.0
 10
13.32011040653472
 20
28.18086691168955
 30
0.0
 10
8.677793975080652
 20
28.18086691168955
 30
0.0
 10
4.917537107212173
 20
27.71160118726418
 30
0.0
 10
3.835482038940065
 20
27.71160118726417
 30
0.0
  0
LINE
  5
82
330
1F
100
AcDbEntity
  8
DEFAULT
 62
     7
100
AcDbLine
 10
57.92075995782201
 20
16.88477924651183
 30
0.0
 11
57.66177701068107
 21
16.15343414336216
 31
0.0
  0
LINE
  5
83
330
1F
100
AcDbEntity
  8
DEFAULT
 62
     7
100
AcDbLine
 10
45.21946701068108
 20
16.78419514336216
 30
0.0
 11
45.58167920453889
 21
16.81123202450702
 31
0.0
  0
LINE
  5
84
330
1F
100
AcDbEntity
  8
DEFAULT
 62
     7
100
AcDbLine
 10
48.99301701068108
 20
16.75100714336216
 30
0.0
 11
48.99228579721106
 21
16.83479417374417
 31
0.0
  0
LINE
  5
85
330
1F
100
AcDbEntity
  8
DEFAULT
 62
     7
100
AcDbLine
 10
45.03726901068108
 20
16.22728814336216
 30
0.0
 11
45.03726901068108
 21
16.58789114336216
 31
0.0
  0
LINE
  5
86
330
1F
100
AcDbEntity
  8
DEFAULT
 62
     7
100
AcDbLine
 10
48.50688001068108
 20
12.40696114336216
 30
0.0
 11
48.88270301068109
 21
12.03113714336216
 31
0.0
  0
LINE
  5
87
330
1F
100
AcDbEntity
  8
DEFAULT
 62
     7
100
AcDbLine
 10
48.50687801068109
 20
12.40696214336216
 30
0.0
 11
48.22924801068108
 21
13.28749214336216
 31
0.0
  0
LINE
  5
88
330
1F
100
AcDbEntity
  8
DEFAULT
 62
     7
100
AcDbLine
 10
48.88270301068109
 20
12.03113714336216
 30
0.0
 11
51.08742701068109
 21
12.03113714336216
 31
0.0
  0
LINE
  5
89
330
1F
100
AcDbEntity
  8
DEFAULT
 62
     7
100
AcDbLine
 10
57.21410801068108
 20
15.16546314336216
 30
0.0
 11
56.28427801068107
 21
14.93399214336216
 31
0.0
  0
LINE
  5
8A
330
1F
100
AcDbEntity
  8
DEFAULT
 62
     7
100
AcDbLine
 10
51.77883601068108
 20
12.68355814336216
 30
0.0
 11
51.76927501068106
 21
12.71298514336216
 31
0.0
  0
LINE
  5
8B
330
1F
100
AcDbEntity
  8
DEFAULT
 62
     7
100
AcDbLine
 10
48.22924801068108
 20
13.28749214336216
 30
0.0
 11
53.61626301068107
 21
15.28600514336216
 31
0.0
  0
LINE
  5
8C
330
1F
100
AcDbEntity
  8
DEFAULT
 62
     7
100
AcDbLine
 10
54.4657000106811
 20
15.60113514336216
 30
0.0
 11
55.02262301068108
 21
15.80774614336216
 31
0.0
  0
LINE
  5
8D
330
1F
100
AcDbEntity
  8
DEFAULT
 62
     7
100
AcDbLine
 10
52.10037501068108
 20
12.78803314336216
 30
0.0
 11
52.05171101068108
 21
12.93780514336216
 31
0.0
  0
LINE
  5
8E
330
1F
100
AcDbEntity
  8
DEFAULT
 62
     7
100
AcDbLine
 10
56.28427801068107
 20
14.93399214336216
 30
0.0
 11
48.50688001068108
 21
12.40696114336216
 31
0.0
  0
LINE
  5
8F
330
1F
100
AcDbEntity
  8
DEFAULT
 62
     7
100
AcDbLine
 10
51.76927501068106
 20
12.71298514336216
 30
0.0
 11
51.08742701068109
 21
12.03113714336216
 31
0.0
  0
LINE
  5
90
330
1F
100
AcDbEntity
  8
DEFAULT
 62
     7
100
AcDbLine
 10
54.14742501068107
 20
14.57798414336216
 30
0.0
 11
54.11603301068109
 21
14.54672514336216
 31
0.0
  0
LINE
  5
91
330
1F
100
AcDbEntity
  8
DEFAULT
 62
     7
100
AcDbLine
 10
55.5306540106811
 20
14.06818214336216
 30
0.0
 11
51.34320401068109
 21
12.70759714336216
 31
0.0
  0
LINE
  5
92
330
1F
100
AcDbEntity
  8
DEFAULT
 62
     7
100
AcDbLine
 10
58.44962701068109
 20
15.65318214336216
 30
0.0
 11
58.07582001068109
 21
15.45020514336216
 31
0.0
  0
LINE
  5
93
330
1F
100
AcDbEntity
  8
DEFAULT
 62
     7
100
AcDbLine
 10
57.64631601068108
 20
15.21698514336216
 30
0.0
 11
55.5306540106811
 21
14.06818214336216
 31
0.0
  0
LINE
  5
94
330
1F
100
AcDbEntity
  8
DEFAULT
 62
     7
100
AcDbLine
 10
51.77883601068108
 20
12.68355814336216
 30
0.0
 11
56.04735801068107
 21
14.07048514336216
 31
0.0
  0
LINE
  5
95
330
1F
100
AcDbEntity
  8
DEFAULT
 62
     7
100
AcDbLine
 10
45.03726901068108
 20
16.22728814336216
 30
0.0
 11
50.67710501068108
 21
16.22728814336216
 31
0.0
  0
LINE
  5
96
330
1F
100
AcDbEntity
  8
DEFAULT
 62
     7
100
AcDbLine
 10
51.79900701068109
 20
16.22728814336216
 30
0.0
 11
53.56295501068109
 21
16.22728814336216
 31
0.0
  0
LINE
  5
97
330
1F
100
AcDbEntity
  8
DEFAULT
 62
     7
100
AcDbLine
 10
56.28427801068107
 20
14.93399214336216
 30
0.0
 11
55.35444701068109
 21
15.16546314336216
 31
0.0
  0
LINE
  5
98
330
1F
100
AcDbEntity
  8
DEFAULT
 62
     7
100
AcDbLine
 10
53.95252201068109
 20
14.54672514336216
 30
0.0
 11
53.92928401068107
 21
14.56963714336216
 31
0.0
  0
LINE
  5
99
330
1F
100
AcDbEntity
  8
DEFAULT
 62
     7
100
AcDbLine
 10
57.83317201068109
 20
16.63743614336216
 30
0.0
 11
58.44963201068108
 21
16.63743614336216
 31
0.0
  0
LINE
  5
9A
330
1F
100
AcDbEntity
  8
DEFAULT
 62
     7
100
AcDbLine
 10
53.55912601068109
 20
16.35152414336216
 30
0.0
 11
51.71008801068108
 21
16.51329414336216
 31
0.0
  0
LINE
  5
9B
330
1F
100
AcDbEntity
  8
DEFAULT
 62
     7
100
AcDbLine
 10
50.74902601068109
 20
16.59737614336216
 30
0.0
 11
48.99301701068108
 21
16.75100714336216
 31
0.0
  0
LINE
  5
9C
330
1F
100
AcDbEntity
  8
DEFAULT
 62
     7
100
AcDbLine
 10
56.04265801068109
 20
16.19045914336216
 30
0.0
 11
55.96089701068109
 21
16.21234114336216
 31
0.0
  0
LINE
  5
9D
330
1F
100
AcDbEntity
  8
DEFAULT
 62
     7
100
AcDbLine
 10
55.05735001068108
 20
15.51319114336216
 30
0.0
 11
55.03431501068109
 21
15.77647514336216
 31
0.0
  0
LINE
  5
9E
330
1F
100
AcDbEntity
  8
DEFAULT
 62
     7
100
AcDbLine
 10
55.06715901068107
 20
15.68863014336216
 30
0.0
 11
54.97847101068108
 21
15.92583614336216
 31
0.0
  0
LINE
  5
9F
330
1F
100
AcDbEntity
  8
DEFAULT
 62
     7
100
AcDbLine
 10
56.04735801068107
 20
14.07048514336216
 30
0.0
 11
55.97050301068108
 21
14.30702014336216
 31
0.0
  0
LINE
  5
A0
330
1F
100
AcDbEntity
  8
DEFAULT
 62
     7
100
AcDbLine
 10
58.44963201068108
 20
15.64819414336216
 30
0.0
 11
58.44963201068108
 21
16.63743614336216
 31
0.0
  0
CIRCLE
  5
A1
330
1F
100
AcDbEntity
  8
DEFAULT
 62
     7
100
AcDbCircle
 10
57.67010401068108
 20
15.68495614336216
 30
0.0
 40
0.46875
  0
ARC
  5
A2
330
1F
100
AcDbEntity
  8
DEFAULT
 62
     7
100
AcDbCircle
 10
54.02280601068107
 20
11.21907014336216
 30
0.0
 40
0.1181107705630595
100
AcDbArc
 50
207.1273796626508
 51
262.6641492174498
  0
ARC
  5
A3
330
1F
100
AcDbEntity
  8
DEFAULT
 62
     7
100
AcDbCircle
 10
55.69184401068107
 20
11.76137314336216
 30
0.0
 40
0.1181096473916334
100
AcDbArc
 50
313.3354242050532
 51
8.873110303455448
  0
ARC
  5
A4
330
1F
100
AcDbEntity
  8
DEFAULT
 62
     7
100
AcDbCircle
 10
67.23258201068109
 20
17.98680214336216
 30
0.0
 40
14.96063000619491
100
AcDbArc
 50
199.0272548912464
 51
207.1273137063322
  0
ARC
  5
A5
330
1F
100
AcDbEntity
  8
DEFAULT
 62
     7
100
AcDbCircle
 10
41.02693701068107
 20
9.472071143362161
 30
0.0
 40
14.96062961087549
100
AcDbArc
 50
8.872692352635241
 51
16.97275036036166
  0
ARC
  5
A6
330
1F
100
AcDbEntity
  8
DEFAULT
 62
     7
100
AcDbCircle
 10
54.28462501068108
 20
13.25281114336216
 30
0.0
 40
2.168635128522747
100
AcDbArc
 50
262.6642214883349
 51
313.3357497982427
  0
ARC
  5
A7
330
1F
100
AcDbEntity
  8
DEFAULT
 62
     7
100
AcDbCircle
 10
54.77007501068109
 20
15.39913914336216
 30
0.0
 40
1.181102222144637
100
AcDbArc
 50
223.3086286638402
 51
226.1958907613743
  0
ARC
  5
A8
330
1F
100
AcDbEntity
  8
DEFAULT
 62
     7
100
AcDbCircle
 10
54.03427801068107
 20
14.63196614336216
 30
0.0
 40
0.1181100751899692
100
AcDbArc
 50
226.1955113738666
 51
313.804138521974
  0
ARC
  5
A9
330
1F
100
AcDbEntity
  8
DEFAULT
 62
     7
100
AcDbCircle
 10
53.29848001068108
 20
15.39913914336216
 30
0.0
 40
1.181102438224334
100
AcDbArc
 50
313.8041092386245
 51
316.5728776654657
  0
ARC
  5
AA
330
1F
100
AcDbEntity
  8
DEFAULT
 62
     7
100
AcDbCircle
 10
45.23411901068109
 20
16.58789114336216
 30
0.0
 40
0.1968500241554462
100
AcDbArc
 50
94.26860377754299
 51
180.0
  0
ARC
  5
AB
330
1F
100
AcDbEntity
  8
DEFAULT
 62
     7
100
AcDbCircle
 10
51.2380560106811
 20
16.65248514336216
 30
0.0
 40
0.6889769533201775
100
AcDbArc
 50
219.6308537354255
 51
320.3691993076422
  0
ARC
  5
AC
330
1F
100
AcDbEntity
  8
DEFAULT
 62
     7
100
AcDbCircle
 10
50.67710501068108
 20
16.18791814336216
 30
0.0
 40
0.0393699308164893
100
AcDbArc
 50
39.62967082352454
 51
90.0
  0
ARC
  5
AD
330
1F
100
AcDbEntity
  8
DEFAULT
 62
     7
100
AcDbCircle
 10
51.79900701068109
 20
16.18791814336216
 30
0.0
 40
0.0393695457275486
100
AcDbArc
 50
90.0
 51
140.3694009213388
  0
ARC
  5
AE
330
1F
100
AcDbEntity
  8
DEFAULT
 62
     7
100
AcDbCircle
 10
56.28427801068107
 20
15.88940514336216
 30
0.0
 40
0.3297244760387017
100
AcDbArc
 50
190.2199230700375
 51
121.539016319322
  0
CIRCLE
  5
AF
330
1F
100
AcDbEntity
  8
DEFAULT
 62
     7
100
AcDbCircle
 10
51.2380560106811
 20
16.65248514336216
 30
0.0
 40
0.1968499999999995
  0
ARC
  5
B0
330
1F
100
AcDbEntity
  8
DEFAULT
 62
     7
100
AcDbCircle
 10
56.28427801068107
 20
15.88940514336216
 30
0.0
 40
0.4724411526608132
100
AcDbArc
 50
182.0361670875957
 51
136.1236355817286
  0
ARC
  5
B1
330
1F
100
AcDbEntity
  8
DEFAULT
 62
     7
100
AcDbCircle
 10
56.27723501068109
 20
16.69646114336216
 30
0.0
 40
1.574803599408169
100
AcDbArc
 50
219.7897606840555
 51
308.4861420795911
  0
ARC
  5
B2
330
1F
100
AcDbEntity
  8
DEFAULT
 62
     7
100
AcDbCircle
 10
51.2380560106811
 20
16.65248514336216
 30
0.0
 40
0.4921258407589897
100
AcDbArc
 50
186.429560859357
 51
343.5704666158825
  0
ARC
  5
B3
330
1F
100
AcDbEntity
  8
DEFAULT
 62
     7
100
AcDbCircle
 10
57.11900301068109
 20
15.54750414336216
 30
0.0
 40
0.3937005117896591
100
AcDbArc
 50
283.9790277952809
 51
319.2447530454636
  0
ARC
  5
B4
330
1F
100
AcDbEntity
  8
DEFAULT
 62
     7
100
AcDbCircle
 10
55.44955201068108
 20
15.54750414336216
 30
0.0
 40
0.3937004428996763
100
AcDbArc
 50
184.9999668273269
 51
256.0209722047194
  0
LINE
  5
B5
330
1F
100
AcDbEntity
  8
DEFAULT
 62
     7
100
AcDbLine
 10
54.46569351872108
 20
15.60113533593116
 30
0.0
 11
54.47643800854109
 21
15.80399790268016
 31
0.0
  0
LINE
  5
B6
330
1F
100
AcDbEntity
  8
DEFAULT
 62
     7
100
AcDbLine
 10
53.59378941602108
 20
15.66856108537516
 30
0.0
 11
53.61698205415109
 21
15.28602878435816
 31
0.0
  0
ARC
  5
B7
330
1F
100
AcDbEntity
  8
DEFAULT
 62
     7
100
AcDbCircle
 10
56.41118686242705
 20
15.97171977397714
 30
0.0
 40
0.0896297111369504
100
AcDbArc
 50
333.2202335137662
 51
30.24612339277671
  0
LINE
  5
B8
330
1F
100
AcDbEntity
  8
DEFAULT
 62
     7
100
AcDbLine
 10
56.26745759317108
 20
15.76206152305316
 30
0.0
 11
56.29033075811108
 21
15.76990110507516
 31
0.0
  0
LINE
  5
B9
330
1F
100
AcDbEntity
  8
DEFAULT
 62
     7
100
AcDbLine
 10
56.29033075811108
 20
15.76990110507516
 30
0.0
 11
56.31995904700107
 21
15.78022898231816
 31
0.0
  0
LINE
  5
BA
330
1F
100
AcDbEntity
  8
DEFAULT
 62
     7
100
AcDbLine
 10
56.31995904700107
 20
15.78022898231816
 30
0.0
 11
56.39396187299109
 21
15.80775473469116
 31
0.0
  0
LINE
  5
BB
330
1F
100
AcDbEntity
  8
DEFAULT
 62
     7
100
AcDbLine
 10
56.40317670706107
 20
15.81174730838816
 30
0.0
 11
56.42759987527108
 21
15.82716524770816
 31
0.0
  0
LINE
  5
BC
330
1F
100
AcDbEntity
  8
DEFAULT
 62
     7
100
AcDbLine
 10
56.42759987527108
 20
15.82716524770816
 30
0.0
 11
56.44254648279107
 21
15.84490206246416
 31
0.0
  0
ARC
  5
BD
330
1F
100
AcDbEntity
  8
DEFAULT
 62
     7
100
AcDbCircle
 10
56.22417558121875
 20
16.11475398639468
 30
0.0
 40
0.3554942085844686
100
AcDbArc
 50
245.6854392540915
 51
276.8736881406741
  0
LINE
  5
BE
330
1F
100
AcDbEntity
  8
DEFAULT
 62
     7
100
AcDbLine
 10
54.43951598184108
 20
15.11376580479616
 30
0.0
 11
54.47643781990109
 21
15.80399778170316
 31
0.0
  0
LINE
  5
BF
330
1F
100
AcDbEntity
  8
DEFAULT
 62
     7
100
AcDbLine
 10
54.43091260437108
 20
15.06343067270716
 30
0.0
 11
54.43577383159109
 21
15.08387937005016
 31
0.0
  0
LINE
  5
C0
330
1F
100
AcDbEntity
  8
DEFAULT
 62
     7
100
AcDbLine
 10
56.34172771392107
 20
16.09642421217716
 30
0.0
 11
56.04265819787107
 21
16.19046148341116
 31
0.0
  0
LINE
  5
C1
330
1F
100
AcDbEntity
  8
DEFAULT
 62
     7
100
AcDbLine
 10
53.58673111418107
 20
15.80425121242216
 30
0.0
 11
53.62899260572109
 21
15.12221596148216
 31
0.0
  0
LINE
  5
C2
330
1F
100
AcDbEntity
  8
DEFAULT
 62
     7
100
AcDbLine
 10
53.58677977055108
 20
15.80441679358216
 30
0.0
 11
53.62907126596107
 21
15.11335003139616
 31
0.0
  0
ARC
  5
C3
330
1F
100
AcDbEntity
  8
DEFAULT
 62
     7
100
AcDbCircle
 10
53.64384959632721
 20
16.34293369863803
 30
0.0
 40
0.0877849320355607
100
AcDbArc
 50
100.9873823870641
 51
196.1937578419717
  0
LINE
  5
C4
330
1F
100
AcDbEntity
  8
DEFAULT
 62
     7
100
AcDbLine
 10
53.55985909801108
 20
16.30923833675616
 30
0.0
 11
53.56077990660108
 21
16.26926168047416
 31
0.0
  0
LINE
  5
C5
330
1F
100
AcDbEntity
  8
DEFAULT
 62
     7
100
AcDbLine
 10
53.56318440658108
 20
16.32808487882416
 30
0.0
 11
53.57265491693109
 21
16.28689849336616
 31
0.0
  0
LINE
  5
C6
330
1F
100
AcDbEntity
  8
DEFAULT
 62
     7
100
AcDbLine
 10
53.57265491693109
 20
16.28689849336616
 30
0.0
 11
53.58896442784108
 21
16.23913290288516
 31
0.0
  0
LINE
  5
C7
330
1F
100
AcDbEntity
  8
DEFAULT
 62
     7
100
AcDbLine
 10
56.34231148588108
 20
16.09625170970216
 30
0.0
 11
56.04288828469108
 21
16.19040165331316
 31
0.0
  0
LINE
  5
C8
330
1F
100
AcDbEntity
  8
DEFAULT
 62
     7
100
AcDbLine
 10
56.47876005652108
 20
16.03116296788116
 30
0.0
 11
56.34230808663107
 21
16.09625535815616
 31
0.0
  0
LINE
  5
C9
330
1F
100
AcDbEntity
  8
DEFAULT
 62
     7
100
AcDbLine
 10
56.49118668668108
 20
15.93131759323916
 30
0.0
 11
56.49866047822109
 21
15.95181509191016
 31
0.0
  0
LINE
  5
CA
330
1F
100
AcDbEntity
  8
DEFAULT
 62
     7
100
AcDbLine
 10
56.49866047822109
 20
15.95181509191016
 30
0.0
 11
56.48861412937108
 21
16.01686702578316
 31
0.0
  0
LINE
  5
CB
330
1F
100
AcDbEntity
  8
DEFAULT
 62
     7
100
AcDbLine
 10
56.43602082727107
 20
15.84548995042816
 30
0.0
 11
56.38430944398109
 21
15.80902729071016
 31
0.0
  0
LINE
  5
CC
330
1F
100
AcDbEntity
  8
DEFAULT
 62
     7
100
AcDbLine
 10
54.1231154713611
 20
15.69649677038216
 30
0.0
 11
54.15351056284109
 21
15.69303454605016
 31
0.0
  0
ARC
  5
CD
330
1F
100
AcDbEntity
  8
DEFAULT
 62
     7
100
AcDbCircle
 10
53.87786564006785
 20
16.00409065373258
 30
0.0
 40
0.1380490062357339
100
AcDbArc
 50
234.0611546427213
 51
235.5134248220838
  0
ARC
  5
CE
330
1F
100
AcDbEntity
  8
DEFAULT
 62
     7
100
AcDbCircle
 10
54.24781502702907
 20
16.35928174517786
 30
0.0
 40
0.6645504455762405
100
AcDbArc
 50
226.291831668557
 51
252.0955914267395
  0
ARC
  5
CF
330
1F
100
AcDbEntity
  8
DEFAULT
 62
     7
100
AcDbCircle
 10
53.85688668211073
 20
16.17374561021271
 30
0.0
 40
0.2930248997752512
100
AcDbArc
 50
260.5763307775558
 51
296.790338044417
  0
ARC
  5
D0
330
1F
100
AcDbEntity
  8
DEFAULT
 62
     7
100
AcDbCircle
 10
55.03606658154768
 20
12.95272702206089
 30
0.0
 40
3.13922807126533
100
AcDbArc
 50
67.55057613714205
 51
109.4847213587459
  0
LINE
  5
D1
330
1F
100
AcDbEntity
  8
DEFAULT
 62
     7
100
AcDbLine
 10
56.38389534837108
 20
15.80894497429016
 30
0.0
 11
56.33365997583109
 21
15.81578060133416
 31
0.0
  0
LINE
  5
D2
330
1F
100
AcDbEntity
  8
DEFAULT
 62
     7
100
AcDbLine
 10
56.23483585982108
 20
15.85405545045916
 30
0.0
 11
56.38389520952108
 21
15.80894567192016
 31
0.0
  0
LINE
  5
D3
330
1F
100
AcDbEntity
  8
DEFAULT
 62
     7
100
AcDbLine
 10
56.26745759323108
 20
15.76206152285516
 30
0.0
 11
56.39307652692107
 21
15.80738917621816
 31
0.0
  0
LINE
  5
D4
330
1F
100
AcDbEntity
  8
DEFAULT
 62
     7
100
AcDbLine
 10
56.40317670692107
 20
15.81174730868816
 30
0.0
 11
56.42934469099108
 21
15.82876038737316
 31
0.0
  0
LINE
  5
D5
330
1F
100
AcDbEntity
  8
DEFAULT
 62
     7
100
AcDbLine
 10
56.42934469099108
 20
15.82876038737316
 30
0.0
 11
56.44254670369107
 21
15.84490072003816
 31
0.0
  0
LINE
  5
D6
330
1F
100
AcDbEntity
  8
DEFAULT
 62
     7
100
AcDbLine
 10
56.0778010574011
 20
15.79078920611016
 30
0.0
 11
56.19714351819109
 21
15.75850908758416
 31
0.0
  0
LINE
  5
D7
330
1F
100
AcDbEntity
  8
DEFAULT
 62
     7
100
AcDbLine
 10
56.19714351819109
 20
15.75850908758416
 30
0.0
 11
56.22581802446108
 21
15.75611648250516
 31
0.0
  0
LINE
  5
D8
330
1F
100
AcDbEntity
  8
DEFAULT
 62
     7
100
AcDbLine
 10
56.22581802446108
 20
15.75611648250516
 30
0.0
 11
56.26744613516109
 21
15.76205746582716
 31
0.0
  0
SPLINE
  5
D9
330
1F
100
AcDbEntity
  8
DEFAULT
 62
     7
100
AcDbSpline
210
0.0
220
0.0
230
1.0
 70
     8
 71
     3
 72
    26
 73
    22
 74
     0
 42
0.0000000001
 43
0.0000000001
 40
0.0
 40
0.0
 40
0.0
 40
0.0
 40
0.02178645695432
 40
0.05543916163839
 40
0.09014996324618
 40
0.1262452193504
 40
0.1642612412347
 40
0.2046009615285
 40
0.2475027514138
 40
0.2931787155352
 40
0.3418748605504
 40
0.3938364745579
 40
0.4491505813239
 40
0.5077316012309
 40
0.5695959348718001
 40
0.6347879611201001
 40
0.7033191873242
 40
0.7751632767017
 40
0.8502529837437
 40
0.9283948040111
 40
1.0
 40
1.0
 40
1.0
 40
1.0
 10
54.18580638432109
 20
15.69839299804216
 30
0.0
 10
54.19936612815109
 20
15.70217023470416
 30
0.0
 10
54.23357636904108
 20
15.71288769624916
 30
0.0
 10
54.28829345132109
 20
15.73282473548416
 30
0.0
 10
54.35123159876107
 20
15.75716483627216
 30
0.0
 10
54.41685334302107
 20
15.78237299008316
 30
0.0
 10
54.48626964016108
 20
15.80783378306416
 30
0.0
 10
54.56045589966109
 20
15.83300474096716
 30
0.0
 10
54.64013830957108
 20
15.85727058588416
 30
0.0
 10
54.72590453840109
 20
15.87988964637316
 30
0.0
 10
54.81821167846109
 20
15.90038207490116
 30
0.0
 10
54.91743326572108
 20
15.91807570880916
 30
0.0
 10
55.02369439531108
 20
15.93208118261016
 30
0.0
 10
55.13690550183107
 20
15.94133534362416
 30
0.0
 10
55.25684124265109
 20
15.94460011673816
 30
0.0
 10
55.3832028166411
 20
15.94090811917216
 30
0.0
 10
55.51556170403108
 20
15.92925484339116
 30
0.0
 10
55.65331430278109
 20
15.90874386679516
 30
0.0
 10
55.79563877413107
 20
15.87857225134016
 30
0.0
 10
55.93571892218107
 20
15.83991244466916
 30
0.0
 10
56.02750440552108
 20
15.80918382049016
 30
0.0
 10
56.07094664218109
 20
15.79329169372816
 30
0.0
  0
SPLINE
  5
DA
330
1F
100
AcDbEntity
  8
DEFAULT
 62
     7
100
AcDbSpline
210
0.0
220
0.0
230
1.0
 70
     8
 71
     3
 72
     9
 73
     5
 74
     0
 42
0.0000000001
 43
0.0000000001
 40
0.0
 40
0.0
 40
0.0
 40
0.0
 40
0.5152894318114
 40
1.0
 40
1.0
 40
1.0
 40
1.0
 10
54.09397148132108
 20
15.70384992127616
 30
0.0
 10
54.09233207046108
 20
15.70370147755616
 30
0.0
 10
54.09040154036108
 20
15.70341824846216
 30
0.0
 10
54.09311081883109
 20
15.70294728005016
 30
0.0
 10
54.09485601204107
 20
15.70269020460216
 30
0.0
  0
LINE
  5
DB
330
1F
100
AcDbEntity
  8
DEFAULT
 62
     7
100
AcDbLine
 10
54.09485601204107
 20
15.70269020460216
 30
0.0
 11
54.11716774681107
 21
15.69825854209116
 31
0.0
  0
ARC
  5
DC
330
1F
100
AcDbEntity
  8
DEFAULT
 62
     7
100
AcDbCircle
 10
53.37049863031213
 20
15.3572059687258
 30
0.0
 40
1.100359924837948
100
AcDbArc
 50
314.9156648519423
 51
344.5347524279148
  0
LINE
  5
DD
330
1F
100
AcDbEntity
  8
DEFAULT
 62
     7
100
AcDbLine
 10
53.64620134431109
 20
15.03443547206816
 30
0.0
 11
53.67408850133108
 21
14.95353154516216
 31
0.0
  0
ARC
  5
DE
330
1F
100
AcDbEntity
  8
DEFAULT
 62
     7
100
AcDbCircle
 10
54.73578919352212
 20
15.38255361648194
 30
0.0
 40
1.145106238511702
100
AcDbArc
 50
202.0031151127575
 51
225.2265731252255
  0
ARC
  5
DF
330
1F
100
AcDbEntity
  8
DEFAULT
 62
     7
100
AcDbCircle
 10
54.58346859454021
 20
10.60432502640731
 30
0.0
 40
5.77469935036358
100
AcDbArc
 50
76.20031330821064
 51
97.66749527772706
  0
ARC
  5
E0
330
1F
100
AcDbEntity
  8
DEFAULT
 62
     7
100
AcDbCircle
 10
54.26767749567593
 20
10.65481086712157
 30
0.0
 40
5.809745021571525
100
AcDbArc
 50
73.05553479709833
 51
96.33010820377736
  0
LINE
  5
E1
330
1F
100
AcDbEntity
  8
DEFAULT
 62
     7
100
AcDbLine
 10
53.58401366678108
 20
15.85618838712016
 30
0.0
 11
53.58673111418107
 21
15.80425121242216
 31
0.0
  0
LINE
  5
E2
330
1F
100
AcDbEntity
  8
DEFAULT
 62
     7
100
AcDbLine
 10
53.56294987755108
 20
16.22813309696616
 30
0.0
 11
53.58403234282107
 21
15.85621673353516
 31
0.0
  0
LINE
  5
E3
330
1F
100
AcDbEntity
  8
DEFAULT
 62
     7
100
AcDbLine
 10
56.44388380237108
 20
15.84706111095816
 30
0.0
 11
56.49130950018107
 21
15.93149082777116
 31
0.0
  0
LINE
  5
E4
330
1F
100
AcDbEntity
  8
DEFAULT
 62
     7
100
AcDbLine
 10
51.8109623312811
 20
12.85958157714216
 30
0.0
 11
51.76927493631109
 21
12.71298507605116
 31
0.0
  0
SPLINE
  5
E5
330
1F
100
AcDbEntity
  8
DEFAULT
 62
     7
100
AcDbSpline
210
0.0
220
0.0
230
1.0
 70
     8
 71
     3
 72
    16
 73
    12
 74
     0
 42
0.0000000001
 43
0.0000000001
 40
0.0
 40
0.0
 40
0.0
 40
0.0
 40
0.1046095727844
 40
0.203493889368
 40
0.3020105053538
 40
0.4024152042336
 40
0.5060597585786
 40
0.6149519922982
 40
0.7316177235484001
 40
0.8590036138881
 40
1.0
 40
1.0
 40
1.0
 40
1.0
 10
51.34320354981107
 20
12.70759753595716
 30
0.0
 10
51.33434255109108
 20
12.74868184582416
 30
0.0
 10
51.30471153420108
 20
12.82667650672216
 30
0.0
 10
51.22682812886108
 20
12.92204801750716
 30
0.0
 10
51.1274551787811
 20
12.99095827926416
 30
0.0
 10
51.01394257857108
 20
13.03659632216416
 30
0.0
 10
50.89036737101107
 20
13.06242089649416
 30
0.0
 10
50.75799983241108
 20
13.07081055905016
 30
0.0
 10
50.61613009808107
 20
13.06262410508716
 30
0.0
 10
50.46328132697109
 20
13.03711215578616
 30
0.0
 10
50.35904945323107
 20
13.00869080766316
 30
0.0
 10
50.30515100238107
 20
12.99125607598316
 30
0.0
  0
ARC
  5
E6
330
1F
100
AcDbEntity
  8
DEFAULT
100
AcDbCircle
 10
57.69749396150347
 20
27.07659982496742
 30
0.0
 40
1.404840754244987
100
AcDbArc
 50
312.9412066259748
 51
51.05909245213957
  0
SPLINE
  5
E7
330
1F
100
AcDbEntity
  8
DEFAULT
100
AcDbSpline
210
0.0
220
0.0
230
1.0
 70
     8
 71
     3
 72
    12
 73
     8
 74
     0
 42
0.0000000001
 43
0.0000000001
 40
10.4954844510601
 40
10.4954844510601
 40
10.4954844510601
 40
10.4954844510601
 40
11.4954844510601
 40
12.4954844510601
 40
13.4954844510601
 40
14.4954844510601
 40
14.64772615077241
 40
14.64772615077241
 40
14.64772615077241
 40
14.64772615077241
 10
58.58046242255559
 20
28.16927738105379
 30
0.0
 10
57.81461231578432
 20
28.78814384024459
 30
0.0
 10
56.88289291773929
 20
28.91073849788209
 30
0.0
 10
53.69543181916423
 20
28.54295452496958
 30
0.0
 10
49.52721345948915
 20
27.75834871608956
 30
0.0
 10
46.65121211529883
 20
27.62642204892488
 30
0.0
 10
44.24884260938528
 20
27.83249174472098
 30
0.0
 10
43.93974335906672
 20
27.86024618820827
 30
0.0
  0
ARC
  5
E8
330
1F
100
AcDbEntity
  8
DEFAULT
100
AcDbCircle
 10
43.91738546710374
 20
27.61124794591199
 30
0.0
 40
0.249999999999346
100
AcDbArc
 50
84.86909354091934
 51
175.6293811838554
  0
LINE
  5
E9
330
1F
100
AcDbEntity
  8
DEFAULT
100
AcDbLine
 10
43.66811247647285
 20
27.63029987866435
 30
0.0
 11
43.65980581816205
 21
27.52161665023833
 31
0.0
  0
SPLINE
  5
EA
330
1F
100
AcDbEntity
  8
DEFAULT
100
AcDbSpline
210
0.0
220
0.0
230
1.0
 70
     8
 71
     3
 72
    15
 73
    11
 74
     0
 42
0.0000000001
 43
0.0000000001
 40
15.0576188621947
 40
15.0576188621947
 40
15.0576188621947
 40
15.0576188621947
 40
15.26135735237836
 40
16.26135735237835
 40
17.26135735237835
 40
18.26135735237835
 40
19.26135735237835
 40
20.26135735237835
 40
21.26135735237835
 40
21.93330959840184
 40
21.93330959840184
 40
21.93330959840184
 40
21.93330959840184
 10
43.65980581816205
 20
27.52161665023833
 30
0.0
 10
43.61915155550539
 20
26.98970160699211
 30
0.0
 10
46.17386376541496
 20
26.04702569213638
 30
0.0
 10
48.4419287616387
 20
25.84690231011662
 30
0.0
 10
50.74247048520663
 20
26.05879431097156
 30
0.0
 10
52.64949849290112
 20
26.78528117104565
 30
0.0
 10
54.49598592892277
 20
27.23933545859196
 30
0.0
 10
55.82787850572529
 20
27.23933545859196
 30
0.0
 10
56.69060659349483
 20
26.96973293116397
 30
0.0
 10
57.62533699962026
 20
26.30742464742696
 30
0.0
 10
58.0127417926327
 20
26.01509052497771
 30
0.0
  0
ARC
  5
EB
330
1F
100
AcDbEntity
  8
DEFAULT
100
AcDbCircle
 10
58.31391449159249
 20
26.41420830884768
 30
0.0
 40
0.5
100
AcDbArc
 50
232.9619402780288
 51
312.9412066259729
  0
SPLINE
  5
EC
330
1F
100
AcDbEntity
  8
DEFAULT
100
AcDbSpline
210
0.0
220
0.0
230
1.0
 70
     8
 71
     3
 72
    10
 73
     6
 74
     0
 42
0.0000000001
 43
0.0000000001
 40
0.0
 40
0.0
 40
0.0
 40
0.0
 40
1.0
 40
2.0
 40
2.893124344385568
 40
2.893124344385568
 40
2.893124344385568
 40
2.893124344385568
 10
56.45141644583386
 20
27.00987945283003
 30
0.0
 10
55.03386025438984
 20
25.65069409066603
 30
0.0
 10
53.22263945129284
 20
22.91431733778569
 30
0.0
 10
52.05398695522506
 20
20.60214465739352
 30
0.0
 10
51.37100041250459
 20
18.47817887770836
 30
0.0
 10
51.19461786072825
 20
17.52195616182939
 30
0.0
  0
ARC
  5
ED
330
1F
100
AcDbEntity
  8
DEFAULT
100
AcDbCircle
 10
51.6863227958024
 20
17.43125744726318
 30
0.0
 40
0.5000000000002466
100
AcDbArc
 50
169.5488333160591
 51
242.3149353834291
  0
ARC
  5
EE
330
1F
100
AcDbEntity
  8
DEFAULT
100
AcDbCircle
 10
52.8089750623956
 20
19.57094992465635
 30
0.0
 40
2.916326138893702
100
AcDbArc
 50
242.3149353834421
 51
276.2855750817866
  0
ARC
  5
EF
330
1F
100
AcDbEntity
  8
DEFAULT
100
AcDbCircle
 10
53.07352427214534
 20
17.16914940731071
 30
0.0
 40
0.5000000000000028
100
AcDbArc
 50
276.2855750817844
 51
348.1028291511199
  0
SPLINE
  5
F0
330
1F
100
AcDbEntity
  8
DEFAULT
100
AcDbSpline
210
0.0
220
0.0
230
1.0
 70
     8
 71
     3
 72
    10
 73
     6
 74
     0
 42
0.0000000001
 43
0.0000000001
 40
5.883940492309246
 40
5.883940492309246
 40
5.883940492309246
 40
5.883940492309246
 40
6.799683390693923
 40
7.799683390693923
 40
8.799683390693923
 40
8.799683390693923
 40
8.799683390693923
 40
8.799683390693923
 10
53.56278385507513
 20
17.06607147314743
 30
0.0
 10
53.8204928761643
 20
18.28928776282979
 30
0.0
 10
54.82853530836635
 20
21.5123127429724
 30
0.0
 10
55.69714974916538
 20
23.40396196960149
 30
0.0
 10
56.71594121819165
 20
25.03561953004661
 30
0.0
 10
57.75814183008276
 20
26.20452131839026
 30
0.0
  0
ARC
  5
F1
330
1F
100
AcDbEntity
  8
DEFAULT
 62
     7
100
AcDbCircle
 10
36.19898713101303
 20
1.136708831488142
 30
0.0
 40
0.9321897068527103
100
AcDbArc
 50
0.0000000000012419
 51
89.99999999999913
  0
ARC
  5
F2
330
1F
100
AcDbEntity
  8
DEFAULT
 62
     7
100
AcDbCircle
 10
36.19898713101304
 20
1.136708831488162
 30
0.0
 40
0.9321897068526894
100
AcDbArc
 50
89.99999999999957
 51
180.0
  0
ARC
  5
F3
330
1F
100
AcDbEntity
  8
DEFAULT
 62
     7
100
AcDbCircle
 10
36.19898713101305
 20
1.136708831488162
 30
0.0
 40
0.9321897068526961
100
AcDbArc
 50
180.0
 51
270.0
  0
ARC
  5
F4
330
1F
100
AcDbEntity
  8
DEFAULT
 62
     7
100
AcDbCircle
 10
36.19898713101305
 20
1.136708831488162
 30
0.0
 40
0.9321897068526953
100
AcDbArc
 50
270.0
 51
359.9999999999999
  0
ARC
  5
F5
330
1F
100
AcDbEntity
  8
DEFAULT
 62
     7
100
AcDbCircle
 10
36.198987131013
 20
1.136708831488043
 30
0.0
 40
1.134758094266407
100
AcDbArc
 50
359.9999999999988
 51
90.00000000000108
  0
ARC
  5
F6
330
1F
100
AcDbEntity
  8
DEFAULT
 62
     7
100
AcDbCircle
 10
36.19898713101296
 20
1.136708831488024
 30
0.0
 40
1.134758094266417
100
AcDbArc
 50
89.99999999999893
 51
180.0000000000003
  0
ARC
  5
F7
330
1F
100
AcDbEntity
  8
DEFAULT
 62
     7
100
AcDbCircle
 10
36.198987131013
 20
1.136708831488042
 30
0.0
 40
1.134758094266456
100
AcDbArc
 50
180.0000000000012
 51
269.9999999999989
  0
ARC
  5
F8
330
1F
100
AcDbEntity
  8
DEFAULT
 62
     7
100
AcDbCircle
 10
36.198987131013
 20
1.136708831487997
 30
0.0
 40
1.134758094266412
100
AcDbArc
 50
269.9999999999989
 51
0.0000000000010539
  0
ARC
  5
F9
330
1F
100
AcDbEntity
  8
DEFAULT
 62
     7
100
AcDbCircle
 10
36.19898713101293
 20
1.136708831488004
 30
0.0
 40
1.197644324640032
100
AcDbArc
 50
338.6695024422054
 51
32.53104313005007
  0
ARC
  5
FA
330
1F
100
AcDbEntity
  8
DEFAULT
 62
     7
100
AcDbCircle
 10
36.19898713101294
 20
1.136708831488012
 30
0.0
 40
1.197644324640016
100
AcDbArc
 50
32.53104313005013
 51
86.39258381789513
  0
LINE
  5
FB
330
1F
100
AcDbEntity
  8
DEFAULT
 62
     7
100
AcDbLine
 10
36.19898713101305
 20
2.501950737221585
 30
0.0
 11
37.77114289034912
 21
2.501950737221585
 31
0.0
  0
ARC
  5
FC
330
1F
100
AcDbEntity
  8
DEFAULT
 62
     7
100
AcDbCircle
 10
37.17851394543388
 20
1.207145942915357
 30
0.0
 40
0.5240519205255788
100
AcDbArc
 50
285.0499848856909
 51
357.0000000017603
  0
LINE
  5
FD
330
1F
100
AcDbEntity
  8
DEFAULT
 62
     7
100
AcDbLine
 10
37.70184767101642
 20
1.179719184549778
 30
0.0
 11
37.77114289034912
 21
2.501950737221585
 31
0.0
  0
LINE
  5
FE
330
1F
100
AcDbEntity
  8
DEFAULT
 62
     7
100
AcDbLine
 10
36.19898713101305
 20
2.501950737221585
 30
0.0
 11
36.27434255308668
 21
2.331980134877552
 31
0.0
  0
LINE
  5
FF
330
1F
100
AcDbEntity
  8
DEFAULT
 62
     7
100
AcDbLine
 10
45.18176620413873
 20
2.501950737221576
 30
0.0
 11
45.25712162621237
 21
2.331980134877543
 31
0.0
  0
LINE
  5
100
330
1F
100
AcDbEntity
  8
DEFAULT
 62
     7
100
AcDbLine
 10
46.6846267441421
 20
1.179719184549769
 30
0.0
 11
46.75392196347482
 21
2.501950737221576
 31
0.0
  0
ARC
  5
101
330
1F
100
AcDbEntity
  8
DEFAULT
 62
     7
100
AcDbCircle
 10
46.16129301855958
 20
1.207145942915329
 30
0.0
 40
0.5240519205255602
100
AcDbArc
 50
285.0499848856915
 51
357.0000000017623
  0
LINE
  5
102
330
1F
100
AcDbEntity
  8
DEFAULT
 62
     7
100
AcDbLine
 10
45.18176620413873
 20
2.501950737221576
 30
0.0
 11
46.75392196347482
 21
2.501950737221576
 31
0.0
  0
ARC
  5
103
330
1F
100
AcDbEntity
  8
DEFAULT
 62
     7
100
AcDbCircle
 10
45.18176620413865
 20
1.136708831488013
 30
0.0
 40
1.197644324639999
100
AcDbArc
 50
338.6695024422039
 51
32.5310431300501
  0
ARC
  5
104
330
1F
100
AcDbEntity
  8
DEFAULT
 62
     7
100
AcDbCircle
 10
45.18176620413864
 20
1.136708831488001
 30
0.0
 40
1.197644324640017
100
AcDbArc
 50
32.53104313005021
 51
86.39258381789581
  0
ARC
  5
105
330
1F
100
AcDbEntity
  8
DEFAULT
 62
     7
100
AcDbCircle
 10
45.18176620413865
 20
1.136708831487999
 30
0.0
 40
1.134758094266446
100
AcDbArc
 50
0.0000000000004933
 51
89.99999999999893
  0
ARC
  5
106
330
1F
100
AcDbEntity
  8
DEFAULT
 62
     7
100
AcDbCircle
 10
45.18176620413866
 20
1.13670883148801
 30
0.0
 40
1.134758094266438
100
AcDbArc
 50
89.99999999999929
 51
180.0
  0
ARC
  5
107
330
1F
100
AcDbEntity
  8
DEFAULT
 62
     7
100
AcDbCircle
 10
45.18176620413866
 20
1.136708831488
 30
0.0
 40
1.134758094266429
100
AcDbArc
 50
179.9999999999996
 51
270.0000000000007
  0
ARC
  5
108
330
1F
100
AcDbEntity
  8
DEFAULT
 62
     7
100
AcDbCircle
 10
45.18176620413866
 20
1.136708831488011
 30
0.0
 40
1.134758094266436
100
AcDbArc
 50
270.0000000000007
 51
359.9999999999999
  0
ARC
  5
109
330
1F
100
AcDbEntity
  8
DEFAULT
 62
     7
100
AcDbCircle
 10
45.18176620413875
 20
1.136708831488166
 30
0.0
 40
0.9321897068526837
100
AcDbArc
 50
359.9999999999992
 51
90.00000000000088
  0
ARC
  5
10A
330
1F
100
AcDbEntity
  8
DEFAULT
 62
     7
100
AcDbCircle
 10
45.18176620413871
 20
1.136708831488166
 30
0.0
 40
0.9321897068526752
100
AcDbArc
 50
89.99999999999869
 51
180.0000000000008
  0
ARC
  5
10B
330
1F
100
AcDbEntity
  8
DEFAULT
 62
     7
100
AcDbCircle
 10
45.18176620413873
 20
1.136708831488152
 30
0.0
 40
0.9321897068526908
100
AcDbArc
 50
180.0
 51
270.0000000000004
  0
ARC
  5
10C
330
1F
100
AcDbEntity
  8
DEFAULT
 62
     7
100
AcDbCircle
 10
45.18176620413873
 20
1.136708831488166
 30
0.0
 40
0.9321897068527077
100
AcDbArc
 50
270.0000000000004
 51
359.9999999999992
  0
LINE
  5
10D
330
1F
100
AcDbEntity
  8
DEFAULT
 62
     7
100
AcDbLine
 10
59.71620805788736
 20
2.501950737221571
 30
0.0
 11
59.79156347996101
 21
2.331980134877538
 31
0.0
  0
LINE
  5
10E
330
1F
100
AcDbEntity
  8
DEFAULT
 62
     7
100
AcDbLine
 10
61.21906859789075
 20
1.179719184549764
 30
0.0
 11
61.28836381722345
 21
2.501950737221571
 31
0.0
  0
ARC
  5
10F
330
1F
100
AcDbEntity
  8
DEFAULT
 62
     7
100
AcDbCircle
 10
60.69573487230821
 20
1.207145942915339
 30
0.0
 40
0.5240519205255755
100
AcDbArc
 50
285.049984885691
 51
357.0000000017607
  0
LINE
  5
110
330
1F
100
AcDbEntity
  8
DEFAULT
 62
     7
100
AcDbLine
 10
59.71620805788736
 20
2.501950737221571
 30
0.0
 11
61.28836381722345
 21
2.501950737221571
 31
0.0
  0
ARC
  5
111
330
1F
100
AcDbEntity
  8
DEFAULT
 62
     7
100
AcDbCircle
 10
59.71620805788728
 20
1.136708831488021
 30
0.0
 40
1.197644324639997
100
AcDbArc
 50
338.6695024422031
 51
32.53104313004936
  0
ARC
  5
112
330
1F
100
AcDbEntity
  8
DEFAULT
 62
     7
100
AcDbCircle
 10
59.71620805788729
 20
1.136708831488024
 30
0.0
 40
1.19764432463999
100
AcDbArc
 50
32.53104313004945
 51
86.39258381789641
  0
ARC
  5
113
330
1F
100
AcDbEntity
  8
DEFAULT
 62
     7
100
AcDbCircle
 10
59.71620805788727
 20
1.136708831487972
 30
0.0
 40
1.134758094266463
100
AcDbArc
 50
0.0000000000016369
 51
89.99999999999821
  0
ARC
  5
114
330
1F
100
AcDbEntity
  8
DEFAULT
 62
     7
100
AcDbCircle
 10
59.71620805788731
 20
1.136708831487987
 30
0.0
 40
1.134758094266445
100
AcDbArc
 50
90.00000000000036
 51
179.9999999999992
  0
ARC
  5
115
330
1F
100
AcDbEntity
  8
DEFAULT
 62
     7
100
AcDbCircle
 10
59.7162080578873
 20
1.136708831487995
 30
0.0
 40
1.134758094266424
100
AcDbArc
 50
179.9999999999995
 51
270.0000000000003
  0
ARC
  5
116
330
1F
100
AcDbEntity
  8
DEFAULT
 62
     7
100
AcDbCircle
 10
59.7162080578873
 20
1.136708831488008
 30
0.0
 40
1.134758094266437
100
AcDbArc
 50
270.0000000000003
 51
359.9999999999998
  0
ARC
  5
117
330
1F
100
AcDbEntity
  8
DEFAULT
 62
     7
100
AcDbCircle
 10
59.71620805788738
 20
1.136708831488176
 30
0.0
 40
0.9321897068526706
100
AcDbArc
 50
359.9999999999983
 51
90.00000000000088
  0
ARC
  5
118
330
1F
100
AcDbEntity
  8
DEFAULT
 62
     7
100
AcDbCircle
 10
59.71620805788741
 20
1.136708831488122
 30
0.0
 40
0.932189706852725
100
AcDbArc
 50
90.00000000000262
 51
179.9999999999984
  0
ARC
  5
119
330
1F
100
AcDbEntity
  8
DEFAULT
 62
     7
100
AcDbCircle
 10
59.71620805788738
 20
1.136708831488148
 30
0.0
 40
0.9321897068526944
100
AcDbArc
 50
180.0
 51
269.9999999999992
  0
ARC
  5
11A
330
1F
100
AcDbEntity
  8
DEFAULT
 62
     7
100
AcDbCircle
 10
59.71620805788738
 20
1.136708831488122
 30
0.0
 40
0.9321897068526687
100
AcDbArc
 50
269.9999999999992
 51
0.0000000000015831
  0
LINE
  5
11B
330
1F
100
AcDbEntity
  8
DEFAULT
100
AcDbLine
 10
50.96529957711797
 20
11.59512678066785
 30
0.0
 11
50.59398819888968
 21
11.90514110673564
 31
0.0
  0
LINE
  5
11C
330
1F
100
AcDbEntity
  8
DEFAULT
100
AcDbLine
 10
50.59398819888968
 20
11.90514110673564
 30
0.0
 11
49.98506501068109
 21
11.90514110673564
 31
0.0
  0
LINE
  5
11D
330
1F
100
AcDbEntity
  8
DEFAULT
100
AcDbLine
 10
49.98506501068109
 20
6.5
 30
0.0
 11
51.18506501068108
 21
6.5
 31
0.0
  0
LINE
  5
11E
330
1F
100
AcDbEntity
  8
DEFAULT
100
AcDbLine
 10
51.18506501068108
 20
6.5
 30
0.0
 11
51.18506501068108
 21
10.5
 31
0.0
  0
LINE
  5
11F
330
1F
100
AcDbEntity
  8
DEFAULT
100
AcDbLine
 10
51.18506501068108
 20
10.5
 30
0.0
 11
49.98506501068109
 21
10.5
 31
0.0
  0
LINE
  5
120
330
1F
100
AcDbEntity
  8
DEFAULT
 62
     7
100
AcDbLine
 10
50.96529957711797
 20
10.5
 30
0.0
 11
50.96529957711797
 21
11.59512678066785
 31
0.0
  0
LINE
  5
121
330
1F
100
AcDbEntity
  8
DEFAULT
100
AcDbLine
 10
50.48506501068109
 20
12.03113714336216
 30
0.0
 11
50.48506501068109
 21
11.90514110673564
 31
0.0
  0
LINE
  5
122
330
1F
100
AcDbEntity
  8
DEFAULT
100
AcDbLine
 10
49.48506501068109
 20
12.03113714336216
 30
0.0
 11
49.48506501068109
 21
11.90514110673564
 31
0.0
  0
LINE
  5
123
330
1F
100
AcDbEntity
  8
DEFAULT
 62
     7
100
AcDbLine
 10
49.00483044424421
 20
10.5
 30
0.0
 11
49.00483044424421
 21
11.59512678066785
 31
0.0
  0
LINE
  5
124
330
1F
100
AcDbEntity
  8
DEFAULT
100
AcDbLine
 10
49.00483044424421
 20
11.59512678066785
 30
0.0
 11
49.3761418224725
 21
11.90514110673564
 31
0.0
  0
LINE
  5
125
330
1F
100
AcDbEntity
  8
DEFAULT
100
AcDbLine
 10
49.3761418224725
 20
11.90514110673564
 30
0.0
 11
49.98506501068109
 21
11.90514110673564
 31
0.0
  0
LINE
  5
126
330
1F
100
AcDbEntity
  8
DEFAULT
100
AcDbLine
 10
48.7489970331813
 20
6.5
 30
0.0
 11
45.98506501068109
 21
6.5
 31
0.0
  0
LINE
  5
127
330
1F
100
AcDbEntity
  8
DEFAULT
100
AcDbLine
 10
48.78506501068109
 20
6.5
 30
0.0
 11
48.78506501068109
 21
10.5
 31
0.0
  0
LINE
  5
128
330
1F
100
AcDbEntity
  8
DEFAULT
100
AcDbLine
 10
48.78506501068109
 20
10.5
 30
0.0
 11
49.98506501068109
 21
10.5
 31
0.0
  0
SPLINE
  5
129
330
1F
100
AcDbEntity
  8
DEFAULT
100
AcDbSpline
210
0.0
220
0.0
230
1.0
 70
     8
 71
     2
 72
     6
 73
     3
 74
     0
 42
0.0000000001
 43
0.0000000001
 40
4.0
 40
4.0
 40
4.0
 40
14.29502662231397
 40
14.29502662231397
 40
14.29502662231397
 10
45.98506501068109
 20
6.5
 30
0.0
 10
40.83755169952411
 20
6.499999999999981
 30
0.0
 10
36.65745848428733
 20
3.807377317621653
 30
0.0
  0
ARC
  5
12A
330
1F
100
AcDbEntity
  8
DEFAULT
100
AcDbCircle
 10
37.19898713101276
 20
2.966695020451564
 30
0.0
 40
0.99999999999973
100
AcDbArc
 50
122.787761200693
 51
180.0000000000018
  0
LINE
  5
12B
330
1F
100
AcDbEntity
  8
DEFAULT
100
AcDbLine
 10
36.19898713101303
 20
2.966695020451533
 30
0.0
 11
36.19898713101305
 21
2.501950737221585
 31
0.0
  0
LINE
  5
12C
330
1F
100
AcDbEntity
  8
DEFAULT
100
AcDbLine
 10
49.98506501068109
 20
6.5
 30
0.0
 11
48.7489970331813
 21
6.5
 31
0.0
  0
SPLINE
  5
12D
330
1F
100
AcDbEntity
  8
DEFAULT
100
AcDbSpline
210
0.0
220
0.0
230
1.0
 70
     8
 71
     2
 72
     6
 73
     3
 74
     0
 42
0.0000000001
 43
0.0000000001
 40
1.236067977499785
 40
1.236067977499785
 40
1.236067977499785
 40
6.121303892963089
 40
6.121303892963089
 40
6.121303892963089
 10
48.7489970331813
 20
6.500000000000002
 30
0.0
 10
46.30637907544963
 20
6.500000000000001
 30
0.0
 10
45.31155132254855
 20
3.874818030840798
 30
0.0
  0
ARC
  5
12E
330
1F
100
AcDbEntity
  8
DEFAULT
100
AcDbCircle
 10
47.18176620413884
 20
3.166089382711888
 30
0.0
 40
2.000000000000107
100
AcDbArc
 50
159.2455096924809
 51
180.0
  0
LINE
  5
12F
330
1F
100
AcDbEntity
  8
DEFAULT
100
AcDbLine
 10
45.18176620413873
 20
3.166089382711887
 30
0.0
 11
45.18176620413873
 21
2.501950737221576
 31
0.0
  0
LINE
  5
130
330
1F
100
AcDbEntity
  8
DEFAULT
100
AcDbLine
 10
51.18506501068108
 20
6.5
 30
0.0
 11
53.22113298818086
 21
6.5
 31
0.0
  0
SPLINE
  5
131
330
1F
100
AcDbEntity
  8
DEFAULT
100
AcDbSpline
210
0.0
220
0.0
230
1.0
 70
     8
 71
     2
 72
     6
 73
     3
 74
     0
 42
0.0000000001
 43
0.0000000001
 40
2.036067977499789
 40
2.036067977499789
 40
2.036067977499789
 40
10.51200744323992
 40
10.51200744323992
 40
10.51200744323992
 10
53.22113298818086
 20
6.500000000000001
 30
0.0
 10
57.45910272105089
 20
6.49999999999993
 30
0.0
 10
60.70787626842495
 20
3.979326070278468
 30
0.0
  0
ARC
  5
132
330
1F
100
AcDbEntity
  8
DEFAULT
100
AcDbCircle
 10
59.78836381722341
 20
2.794211370308269
 30
0.0
 40
1.500000000000036
100
AcDbArc
 50
0.0
 51
52.19265799430144
  0
LINE
  5
133
330
1F
100
AcDbEntity
  8
DEFAULT
100
AcDbLine
 10
61.28836381722345
 20
2.794211370308269
 30
0.0
 11
61.28836381722345
 21
2.501950737221571
 31
0.0
  0
LINE
  5
134
330
1F
100
AcDbEntity
  8
DEFAULT
100
AcDbLine
 10
37.77114289034912
 20
2.501950737221585
 30
0.0
 11
37.77114289034912
 21
3.608418468391113
 31
0.0
  0
SPLINE
  5
135
330
1F
100
AcDbEntity
  8
DEFAULT
100
AcDbSpline
210
0.0
220
0.0
230
1.0
 70
     8
 71
     3
 72
     8
 73
     4
 74
     0
 42
0.0000000001
 43
0.0000000001
 40
4.0
 40
4.0
 40
4.0
 40
4.0
 40
9.431616647797313
 40
9.431616647797313
 40
9.431616647797313
 40
9.431616647797313
 10
45.98506501068109
 20
5.75
 30
0.0
 10
44.24352145344229
 20
5.75
 30
0.0
 10
42.5983531662139
 20
5.51280048672858
 30
0.0
 10
41.04242776025482
 20
5.033385135749564
 30
0.0
  0
ARC
  5
136
330
1F
100
AcDbEntity
  8
DEFAULT
100
AcDbCircle
 10
45.74609819559075
 20
-10.23220933604265
 30
0.0
 40
15.97381889660285
100
AcDbArc
 50
107.1252334667651
 51
119.9505013388923
  0
LINE
  5
137
330
1F
100
AcDbEntity
  8
DEFAULT
100
AcDbLine
 10
37.77114289034913
 20
3.608418468391112
 30
0.0
 11
37.55452863088458
 21
3.483605558014719
 31
0.0
  0
SPLINE
  5
138
330
1F
100
AcDbEntity
  8
DEFAULT
100
AcDbSpline
210
0.0
220
0.0
230
1.0
 70
     8
 71
     3
 72
     9
 73
     5
 74
     0
 42
0.0000000001
 43
0.0000000001
 40
0.0
 40
0.0
 40
0.0
 40
0.0
 40
1.0
 40
1.526815031193071
 40
1.526815031193071
 40
1.526815031193071
 40
1.526815031193071
 10
37.77114289034912
 20
2.998075542278392
 30
0.0
 10
39.68388153700231
 20
4.02763528469078
 30
0.0
 10
42.27513839823507
 20
4.67851970955019
 30
0.0
 10
44.8382694069175
 20
4.926266914521613
 30
0.0
 10
45.8163541798568
 20
4.898164342782231
 30
0.0
  0
LINE
  5
139
330
1F
100
AcDbEntity
  8
DEFAULT
100
AcDbLine
 10
45.98506501068109
 20
5.75
 30
0.0
 11
46.55144477255521
 21
5.75
 31
0.0
  0
LINE
  5
13A
330
1F
100
AcDbEntity
  8
DEFAULT
100
AcDbLine
 10
51.22113298818086
 20
4.5
 30
0.0
 11
48.7489970331813
 21
4.5
 31
0.0
  0
SPLINE
  5
13B
330
1F
100
AcDbEntity
  8
DEFAULT
100
AcDbSpline
210
0.0
220
0.0
230
1.0
 70
     8
 71
     3
 72
     9
 73
     5
 74
     0
 42
0.0000000001
 43
0.0000000001
 40
0.0
 40
0.0
 40
0.0
 40
0.0
 40
1.0
 40
1.707103615139772
 40
1.707103615139772
 40
1.707103615139772
 40
1.707103615139772
 10
49.98506501068109
 20
5.75
 30
0.0
 10
48.7489970331813
 20
5.750000000000001
 30
0.0
 10
47.73800961333358
 20
5.37385799009206
 30
0.0
 10
47.10551016566743
 20
4.52674817663822
 30
0.0
 10
46.92038031601407
 20
4.101821165471373
 30
0.0
  0
ARC
  5
13C
330
1F
100
AcDbEntity
  8
DEFAULT
100
AcDbCircle
 10
48.75392196347497
 20
3.302993883121173
 30
0.0
 40
2.000000000000156
100
AcDbArc
 50
156.4584725249547
 51
180.0
  0
LINE
  5
13D
330
1F
100
AcDbEntity
  8
DEFAULT
100
AcDbLine
 10
46.75392196347482
 20
3.302993883121173
 30
0.0
 11
46.75392196347482
 21
2.501950737221576
 31
0.0
  0
SPLINE
  5
13E
330
1F
100
AcDbEntity
  8
DEFAULT
100
AcDbSpline
210
0.0
220
0.0
230
1.0
 70
     8
 71
     3
 72
     8
 73
     4
 74
     0
 42
0.0000000001
 43
0.0000000001
 40
0.0
 40
0.0
 40
0.0
 40
0.0
 40
1.0
 40
1.0
 40
1.0
 40
1.0
 10
46.74525856720879
 20
3.103151723048079
 30
0.0
 10
47.09356023675399
 20
3.894746426559925
 30
0.0
 10
47.8640457481722
 20
4.45414001704163
 30
0.0
 10
48.7489970331813
 20
4.5
 30
0.0
  0
LINE
  5
13F
330
1F
100
AcDbEntity
  8
DEFAULT
100
AcDbLine
 10
49.98506501068109
 20
2.499999999999972
 30
0.0
 11
50.73506501068109
 21
2.499999999999972
 31
0.0
  0
LINE
  5
140
330
1F
100
AcDbEntity
  8
DEFAULT
100
AcDbLine
 10
50.73506501068109
 20
2.499999999999972
 30
0.0
 11
50.73506501068109
 21
4.500000000000004
 31
0.0
  0
LINE
  5
141
330
1F
100
AcDbEntity
  8
DEFAULT
100
AcDbLine
 10
49.98506501068109
 20
2.499999999999972
 30
0.0
 11
49.23506501068109
 21
2.499999999999972
 31
0.0
  0
LINE
  5
142
330
1F
100
AcDbEntity
  8
DEFAULT
100
AcDbLine
 10
49.23506501068109
 20
2.499999999999972
 30
0.0
 11
49.23506501068109
 21
4.500000000000004
 31
0.0
  0
LINE
  5
143
330
1F
100
AcDbEntity
  8
DEFAULT
100
AcDbLine
 10
50.04368217838631
 20
5.584789539436767
 30
0.0
 11
49.9121096395262
 21
4.70533099021392
 31
0.0
  0
LINE
  5
144
330
1F
100
AcDbEntity
  8
DEFAULT
100
AcDbLine
 10
59.71620805788736
 20
2.501950737221571
 30
0.0
 11
59.71620805788736
 21
2.78331542476528
 31
0.0
  0
ARC
  5
145
330
1F
100
AcDbEntity
  8
DEFAULT
100
AcDbCircle
 10
58.71620805788744
 20
2.783315424765333
 30
0.0
 40
0.9999999999999298
100
AcDbArc
 50
359.9999999999969
 51
52.26514496146172
  0
SPLINE
  5
146
330
1F
100
AcDbEntity
  8
DEFAULT
100
AcDbSpline
210
0.0
220
0.0
230
1.0
 70
     8
 71
     3
 72
    10
 73
     6
 74
     0
 42
0.0000000001
 43
0.0000000001
 40
1.193563551153333
 40
1.193563551153333
 40
1.193563551153333
 40
1.193563551153333
 40
2.052268928739707
 40
3.052268928739707
 40
4.052268928739707
 40
4.052268928739707
 40
4.052268928739707
 40
4.052268928739707
 10
59.32821631400216
 20
3.574166797936854
 30
0.0
 10
58.12907351086269
 20
4.50213546648557
 30
0.0
 10
56.68858134312861
 20
5.189475706881839
 30
0.0
 10
54.97171002602314
 20
5.634022744346645
 30
0.0
 10
53.22113298818086
 20
5.75
 30
0.0
 10
51.18506501068108
 20
5.75
 30
0.0
  0
SPLINE
  5
147
330
1F
100
AcDbEntity
  8
DEFAULT
100
AcDbSpline
210
0.0
220
0.0
230
1.0
 70
     8
 71
     3
 72
     9
 73
     5
 74
     0
 42
0.0000000001
 43
0.0000000001
 40
0.0126139849350941
 40
0.0126139849350941
 40
0.0126139849350941
 40
0.0126139849350941
 40
1.0
 40
2.0
 40
2.0
 40
2.0
 40
2.0
 10
59.68356084885405
 20
3.036749001485099
 30
0.0
 10
58.27063519618084
 20
4.038362504782551
 30
0.0
 10
55.36179445691598
 20
4.682650698743944
 30
0.0
 10
52.53237667431653
 20
4.84250481075521
 30
0.0
 10
51.22113298818086
 20
4.5
 30
0.0
  0
LINE
  5
148
330
1F
100
AcDbEntity
  8
DEFAULT
100
AcDbLine
 10
51.18506501068108
 20
5.75
 30
0.0
 11
49.98506501068109
 21
5.75
 31
0.0
  0
LINE
  5
149
330
1F
100
AcDbEntity
  8
DEFAULT
100
AcDbLine
 10
14.35713013378617
 20
5.68259572039238
 30
0.0
 11
14.19881119308379
 21
4.753791268271815
 31
0.0
  0
LINE
  5
14A
330
1F
100
AcDbEntity
  8
DEFAULT
100
AcDbLine
 10
12.28309067928329
 20
5.68259572039238
 30
0.0
 11
12.44140961998566
 21
4.753791268271815
 31
0.0
  0
LINE
  5
14B
330
1F
100
AcDbEntity
  8
DEFAULT
100
AcDbLine
 10
15.67125141570463
 20
6.5
 30
0.0
 11
17.12433647171533
 21
6.500000000000001
 31
0.0
  0
SPLINE
  5
14C
330
1F
100
AcDbEntity
  8
DEFAULT
100
AcDbSpline
210
0.0
220
0.0
230
1.0
 70
     8
 71
     2
 72
     6
 73
     3
 74
     0
 42
0.0000000001
 43
0.0000000001
 40
2.604226065180605
 40
2.604226065180605
 40
2.604226065180605
 40
12.19883414454914
 40
12.19883414454914
 40
12.19883414454914
 10
17.12433647171533
 20
6.5
 30
0.0
 10
21.9216405113996
 20
6.500000000000015
 30
0.0
 10
25.79069194104491
 20
3.970668918197734
 30
0.0
  0
ARC
  5
14D
330
1F
100
AcDbEntity
  8
DEFAULT
100
AcDbCircle
 10
24.96991640025516
 20
2.715150096498711
 30
0.0
 40
1.499999999999734
100
AcDbArc
 50
359.9999999999962
 51
56.82598368549599
  0
LINE
  5
14E
330
1F
100
AcDbEntity
  8
DEFAULT
100
AcDbLine
 10
26.4699164002549
 20
2.715150096498611
 30
0.0
 11
26.46991640025488
 21
2.50195073722157
 31
0.0
  0
LINE
  5
14F
330
1F
100
AcDbEntity
  8
DEFAULT
100
AcDbLine
 10
14.52011040653474
 20
6.5
 30
0.0
 11
15.67125141570463
 21
6.5
 31
0.0
  0
SPLINE
  5
150
330
1F
100
AcDbEntity
  8
DEFAULT
100
AcDbSpline
210
0.0
220
0.0
230
1.0
 70
     8
 71
     2
 72
     6
 73
     3
 74
     0
 42
0.0000000001
 43
0.0000000001
 40
1.15114100916989
 40
1.15114100916989
 40
1.15114100916989
 40
7.974546108572594
 40
7.974546108572594
 40
7.974546108572594
 10
15.67125141570464
 20
6.499999999999999
 30
0.0
 10
19.08295396540606
 20
6.500000000000049
 30
0.0
 10
21.36393034627692
 20
3.957437243511985
 30
0.0
  0
ARC
  5
151
330
1F
100
AcDbEntity
  8
DEFAULT
100
AcDbCircle
 10
20.24738996822011
 20
2.955769841542317
 30
0.0
 40
1.499999999999972
100
AcDbArc
 50
359.9999999999983
 51
41.8958211821685
  0
LINE
  5
152
330
1F
100
AcDbEntity
  8
DEFAULT
100
AcDbLine
 10
21.74738996822008
 20
2.955769841542271
 30
0.0
 11
21.74738996822007
 21
2.50195073722157
 31
0.0
  0
LINE
  5
153
330
1F
100
AcDbEntity
  8
DEFAULT
100
AcDbLine
 10
25.01239854788621
 20
2.926426995534332
 30
0.0
 11
25.01239854788621
 21
3.568690670184049
 31
0.0
  0
LINE
  5
154
330
1F
100
AcDbEntity
  8
DEFAULT
100
AcDbLine
 10
24.89777964024898
 20
2.501950737281555
 30
0.0
 11
24.89777964024898
 21
2.999277537663656
 31
0.0
  0
SPLINE
  5
155
330
1F
100
AcDbEntity
  8
DEFAULT
100
AcDbSpline
210
0.0
220
0.0
230
1.0
 70
     8
 71
     3
 72
     9
 73
     5
 74
     0
 42
0.0000000001
 43
0.0000000001
 40
-0.0206690460375186
 40
-0.0206690460375186
 40
-0.0206690460375186
 40
-0.0206690460375186
 40
0.0
 40
0.7544209151320629
 40
0.7544209151320629
 40
0.7544209151320629
 40
0.7544209151320629
 10
25.01239854788621
 20
2.926426995534332
 30
0.0
 10
24.97917420646008
 20
2.955257789467484
 30
0.0
 10
23.4931761117008
 20
3.762923621234023
 30
0.0
 10
22.1366870671121
 20
4.208173697002624
 30
0.0
 10
20.85168263800258
 20
4.482977952709192
 30
0.0
  0
ARC
  5
156
330
1F
100
AcDbEntity
  8
DEFAULT
100
AcDbCircle
 10
17.38789990437297
 20
-8.851488598349615
 30
0.0
 40
14.58493794841696
100
AcDbArc
 50
72.21383012642139
 51
82.37844479603434
  0
SPLINE
  5
157
330
1F
100
AcDbEntity
  8
DEFAULT
100
AcDbSpline
210
0.0
220
0.0
230
1.0
 70
     8
 71
     3
 72
     8
 73
     4
 74
     0
 42
0.0000000001
 43
0.0000000001
 40
7.827151018345647
 40
7.827151018345647
 40
7.827151018345647
 40
7.827151018345647
 40
12.44968901267999
 40
12.44968901267999
 40
12.44968901267999
 40
12.44968901267999
 10
21.84309482801951
 20
5.036335318718431
 30
0.0
 10
23.15314618714132
 20
4.616072633957382
 30
0.0
 10
24.39427462387398
 20
4.010783181644759
 30
0.0
 10
25.57276951675109
 20
3.215075627136711
 30
0.0
  0
SPLINE
  5
158
330
1F
100
AcDbEntity
  8
DEFAULT
100
AcDbSpline
210
0.0
220
0.0
230
1.0
 70
     8
 71
     3
 72
     9
 73
     5
 74
     0
 42
0.0000000001
 43
0.0000000001
 40
-0.0206690460375186
 40
-0.0206690460375186
 40
-0.0206690460375186
 40
-0.0206690460375186
 40
0.0
 40
0.7530485311532295
 40
0.7530485311532295
 40
0.7530485311532295
 40
0.7530485311532295
 10
20.17524034964314
 20
2.926426995534333
 30
0.0
 10
20.14201600821702
 20
2.955257789467485
 30
0.0
 10
18.65864904026879
 20
4.276947967105945
 30
0.0
 10
16.4533600316665
 20
4.821913243653762
 30
0.0
 10
14.64157196413829
 20
4.500000000000036
 30
0.0
  0
LINE
  5
159
330
1F
100
AcDbEntity
  8
DEFAULT
100
AcDbLine
 10
14.64157196413829
 20
4.500000000000036
 30
0.0
 11
13.32011040653473
 21
4.500000000000028
 31
0.0
  0
ARC
  5
15A
330
1F
100
AcDbEntity
  8
DEFAULT
100
AcDbCircle
 10
38.23237523953584
 20
0.8958403447329966
 30
0.0
 40
24.18968492034588
100
AcDbArc
 50
171.4312681210259
 51
175.8478320791582
  0
LINE
  5
15B
330
1F
100
AcDbEntity
  8
DEFAULT
100
AcDbLine
 10
13.32011040653473
 20
2.499999999999999
 30
0.0
 11
14.07011040653473
 21
2.499999999999999
 31
0.0
  0
LINE
  5
15C
330
1F
100
AcDbEntity
  8
DEFAULT
100
AcDbLine
 10
14.07011040653473
 20
2.499999999999999
 30
0.0
 11
14.07011040653473
 21
4.500000000000032
 31
0.0
  0
LINE
  5
15D
330
1F
100
AcDbEntity
  8
DEFAULT
100
AcDbLine
 10
20.17524034964314
 20
2.50195073722157
 30
0.0
 11
20.17524034964314
 21
2.732778413589563
 31
0.0
  0
ARC
  5
15E
330
1F
100
AcDbEntity
  8
DEFAULT
100
AcDbCircle
 10
18.1752403496423
 20
2.732778413589236
 30
0.0
 40
2.000000000000838
100
AcDbArc
 50
0.000000000009389
 51
46.1403896098267
  0
SPLINE
  5
15F
330
1F
100
AcDbEntity
  8
DEFAULT
100
AcDbSpline
210
0.0
220
0.0
230
1.0
 70
     8
 71
     3
 72
    10
 73
     6
 74
     0
 42
0.0000000001
 43
0.0000000001
 40
1.841431110057292
 40
1.841431110057292
 40
1.841431110057292
 40
1.841431110057292
 40
2.232866066252536
 40
3.232866066252536
 40
4.232866066252536
 40
4.232866066252536
 40
4.232866066252536
 40
4.232866066252536
 10
19.56102778310315
 20
4.174857880631654
 30
0.0
 10
19.3695388550885
 20
4.358871977048842
 30
0.0
 10
18.59780371851112
 20
4.970790350810422
 30
0.0
 10
17.12433647171533
 20
5.612810441042009
 30
0.0
 10
15.11033690793259
 20
5.722300518134714
 30
0.0
 10
13.3290326863274
 20
5.722300518134714
 30
0.0
  0
LINE
  5
160
330
1F
100
AcDbEntity
  8
DEFAULT
100
AcDbLine
 10
6.464980463426309
 20
2.50195073722157
 30
0.0
 11
6.464980463426323
 21
2.732778413589563
 31
0.0
  0
ARC
  5
161
330
1F
100
AcDbEntity
  8
DEFAULT
100
AcDbCircle
 10
8.464980463427114
 20
2.73277841358927
 30
0.0
 40
2.00000000000079
100
AcDbArc
 50
133.8596103901733
 51
179.9999999999916
  0
SPLINE
  5
162
330
1F
100
AcDbEntity
  8
DEFAULT
100
AcDbSpline
210
0.0
220
0.0
230
1.0
 70
     8
 71
     3
 72
    10
 73
     6
 74
     0
 42
0.0000000001
 43
0.0000000001
 40
1.841431110057292
 40
1.841431110057292
 40
1.841431110057292
 40
1.841431110057292
 40
2.232866066252536
 40
3.232866066252536
 40
4.232866066252536
 40
4.232866066252536
 40
4.232866066252536
 40
4.232866066252536
 10
7.079193029966299
 20
4.174857880631654
 30
0.0
 10
7.270681957980949
 20
4.358871977048842
 30
0.0
 10
8.04241709455834
 20
4.970790350810422
 30
0.0
 10
9.515884341354118
 20
5.612810441042009
 30
0.0
 10
11.52988390513688
 20
5.722300518134714
 30
0.0
 10
13.31118812674205
 20
5.722300518134714
 30
0.0
  0
LINE
  5
163
330
1F
100
AcDbEntity
  8
DEFAULT
100
AcDbLine
 10
13.32011040653473
 20
2.499999999999999
 30
0.0
 11
12.57011040653473
 21
2.499999999999999
 31
0.0
  0
LINE
  5
164
330
1F
100
AcDbEntity
  8
DEFAULT
100
AcDbLine
 10
12.57011040653473
 20
2.499999999999999
 30
0.0
 11
12.57011040653473
 21
4.500000000000032
 31
0.0
  0
ARC
  5
165
330
1F
100
AcDbEntity
  8
DEFAULT
100
AcDbCircle
 10
-11.59215442647098
 20
0.8958403447322998
 30
0.0
 40
24.18968492035052
100
AcDbArc
 50
4.152167920842667
 51
8.568731878974159
  0
SPLINE
  5
166
330
1F
100
AcDbEntity
  8
DEFAULT
100
AcDbSpline
210
0.0
220
0.0
230
1.0
 70
     8
 71
     3
 72
     9
 73
     5
 74
     0
 42
0.0000000001
 43
0.0000000001
 40
-0.0206690460375186
 40
-0.0206690460375186
 40
-0.0206690460375186
 40
-0.0206690460375186
 40
0.0
 40
0.7530485311532295
 40
0.7530485311532295
 40
0.7530485311532295
 40
0.7530485311532295
 10
6.464980463426309
 20
2.926426995534333
 30
0.0
 10
6.498204804852443
 20
2.955257789467485
 30
0.0
 10
7.981571772800657
 20
4.276947967105945
 30
0.0
 10
10.18686078140295
 20
4.821913243653762
 30
0.0
 10
11.99864884893116
 20
4.500000000000036
 30
0.0
  0
LINE
  5
167
330
1F
100
AcDbEntity
  8
DEFAULT
100
AcDbLine
 10
11.99864884893116
 20
4.500000000000036
 30
0.0
 11
13.32011040653473
 21
4.500000000000028
 31
0.0
  0
ARC
  5
168
330
1F
100
AcDbEntity
  8
DEFAULT
100
AcDbCircle
 10
9.252320908696483
 20
-8.851488598349524
 30
0.0
 40
14.58493794841687
100
AcDbArc
 50
97.62155520396574
 51
107.7861698735787
  0
SPLINE
  5
169
330
1F
100
AcDbEntity
  8
DEFAULT
100
AcDbSpline
210
0.0
220
0.0
230
1.0
 70
     8
 71
     3
 72
     8
 73
     4
 74
     0
 42
0.0000000001
 43
0.0000000001
 40
7.827151018345647
 40
7.827151018345647
 40
7.827151018345647
 40
7.827151018345647
 40
12.44968901267999
 40
12.44968901267999
 40
12.44968901267999
 40
12.44968901267999
 10
4.797125985049939
 20
5.036335318718431
 30
0.0
 10
3.487074625928139
 20
4.616072633957382
 30
0.0
 10
2.245946189195473
 20
4.010783181644759
 30
0.0
 10
1.067451296318362
 20
3.215075627136711
 30
0.0
  0
SPLINE
  5
16A
330
1F
100
AcDbEntity
  8
DEFAULT
100
AcDbSpline
210
0.0
220
0.0
230
1.0
 70
     8
 71
     3
 72
     9
 73
     5
 74
     0
 42
0.0000000001
 43
0.0000000001
 40
-0.0206690460375186
 40
-0.0206690460375186
 40
-0.0206690460375186
 40
-0.0206690460375186
 40
0.0
 40
0.7544209151320629
 40
0.7544209151320629
 40
0.7544209151320629
 40
0.7544209151320629
 10
1.627822265183249
 20
2.926426995534332
 30
0.0
 10
1.661046606609369
 20
2.955257789467484
 30
0.0
 10
3.147044701368665
 20
3.762923621234023
 30
0.0
 10
4.503533745957363
 20
4.208173697002624
 30
0.0
 10
5.788538175066869
 20
4.482977952709192
 30
0.0
  0
LINE
  5
16B
330
1F
100
AcDbEntity
  8
DEFAULT
100
AcDbLine
 10
1.742441172820486
 20
2.501950737281555
 30
0.0
 11
1.742441172820486
 21
2.999277537663656
 31
0.0
  0
LINE
  5
16C
330
1F
100
AcDbEntity
  8
DEFAULT
100
AcDbLine
 10
1.627822265183249
 20
2.926426995534332
 30
0.0
 11
1.627822265183249
 21
3.568690670184049
 31
0.0
  0
LINE
  5
16D
330
1F
100
AcDbEntity
  8
DEFAULT
100
AcDbLine
 10
12.12011040653473
 20
6.5
 30
0.0
 11
10.96896939736483
 21
6.5
 31
0.0
  0
SPLINE
  5
16E
330
1F
100
AcDbEntity
  8
DEFAULT
100
AcDbSpline
210
0.0
220
0.0
230
1.0
 70
     8
 71
     2
 72
     6
 73
     3
 74
     0
 42
0.0000000001
 43
0.0000000001
 40
1.15114100916989
 40
1.15114100916989
 40
1.15114100916989
 40
7.974546108572594
 40
7.974546108572594
 40
7.974546108572594
 10
10.96896939736483
 20
6.499999999999999
 30
0.0
 10
7.557266847663428
 20
6.500000000000012
 30
0.0
 10
5.276290466792542
 20
3.957437243512003
 30
0.0
  0
ARC
  5
16F
330
1F
100
AcDbEntity
  8
DEFAULT
100
AcDbCircle
 10
6.3928308448492
 20
2.955769841542365
 30
0.0
 40
1.499999999999837
100
AcDbArc
 50
138.1041788178284
 51
180.0000000000036
  0
LINE
  5
170
330
1F
100
AcDbEntity
  8
DEFAULT
100
AcDbLine
 10
4.892830844849365
 20
2.955769841542271
 30
0.0
 11
4.892830844849393
 21
2.50195073722157
 31
0.0
  0
LINE
  5
171
330
1F
100
AcDbEntity
  8
DEFAULT
100
AcDbLine
 10
10.96896939736483
 20
6.5
 30
0.0
 11
9.515884341354118
 21
6.500000000000001
 31
0.0
  0
SPLINE
  5
172
330
1F
100
AcDbEntity
  8
DEFAULT
100
AcDbSpline
210
0.0
220
0.0
230
1.0
 70
     8
 71
     2
 72
     6
 73
     3
 74
     0
 42
0.0000000001
 43
0.0000000001
 40
2.604226065180605
 40
2.604226065180605
 40
2.604226065180605
 40
12.19883414454914
 40
12.19883414454914
 40
12.19883414454914
 10
9.515884341354118
 20
6.5
 30
0.0
 10
4.718580301669897
 20
6.499999999999957
 30
0.0
 10
0.8495288720245651
 20
3.970668918197748
 30
0.0
  0
ARC
  5
173
330
1F
100
AcDbEntity
  8
DEFAULT
100
AcDbCircle
 10
1.670304412814284
 20
2.715150096498712
 30
0.0
 40
1.499999999999731
100
AcDbArc
 50
123.1740163145028
 51
180.0000000000038
  0
LINE
  5
174
330
1F
100
AcDbEntity
  8
DEFAULT
100
AcDbLine
 10
0.1703044128145533
 20
2.715150096498611
 30
0.0
 11
0.1703044128145675
 21
2.50195073722157
 31
0.0
  0
LINE
  5
175
330
1F
100
AcDbEntity
  8
DEFAULT
100
AcDbLine
 10
14.10617588465747
 20
2.647308665772304
 30
0.0
 11
14.10617588465748
 21
2.501950737281556
 31
0.0
  0
LINE
  5
176
330
1F
100
AcDbEntity
  8
DEFAULT
100
AcDbLine
 10
12.53403912465155
 20
2.647308665772305
 30
0.0
 11
12.53403912465059
 21
2.501950737281556
 31
0.0
  0
LINE
  5
177
330
1F
100
AcDbEntity
  8
DEFAULT
100
AcDbLine
 10
12.33987584009784
 20
11.59512678066785
 30
0.0
 11
12.45037204993381
 21
11.68738198757476
 31
0.0
  0
LINE
  5
178
330
1F
100
AcDbEntity
  8
DEFAULT
100
AcDbLine
 10
14.30034497297161
 20
11.59512678066785
 30
0.0
 11
14.18984879481141
 21
11.68738196112811
 31
0.0
  0
LINE
  5
179
330
1F
100
AcDbEntity
  8
DEFAULT
100
AcDbLine
 10
13.32011040653473
 20
6.5
 30
0.0
 11
14.52011040653472
 21
6.5
 31
0.0
  0
LINE
  5
17A
330
1F
100
AcDbEntity
  8
DEFAULT
100
AcDbLine
 10
14.52011040653472
 20
6.5
 30
0.0
 11
14.52011040653472
 21
10.5
 31
0.0
  0
LINE
  5
17B
330
1F
100
AcDbEntity
  8
DEFAULT
100
AcDbLine
 10
14.52011040653472
 20
10.5
 30
0.0
 11
13.32011040653472
 21
10.5
 31
0.0
  0
LINE
  5
17C
330
1F
100
AcDbEntity
  8
DEFAULT
 62
     7
100
AcDbLine
 10
14.30034497297161
 20
10.5
 30
0.0
 11
14.30034497297161
 21
11.59512678066785
 31
0.0
  0
LINE
  5
17D
330
1F
100
AcDbEntity
  8
DEFAULT
 62
     7
100
AcDbLine
 10
12.33987584009784
 20
10.5
 30
0.0
 11
12.33987584009784
 21
11.59512678066785
 31
0.0
  0
LINE
  5
17E
330
1F
100
AcDbEntity
  8
DEFAULT
100
AcDbLine
 10
13.32011040653472
 20
6.5
 30
0.0
 11
12.12011040653473
 21
6.5
 31
0.0
  0
LINE
  5
17F
330
1F
100
AcDbEntity
  8
DEFAULT
100
AcDbLine
 10
12.12011040653473
 20
6.5
 30
0.0
 11
12.12011040653473
 21
10.5
 31
0.0
  0
LINE
  5
180
330
1F
100
AcDbEntity
  8
DEFAULT
100
AcDbLine
 10
12.12011040653473
 20
10.5
 30
0.0
 11
13.32011040653472
 21
10.5
 31
0.0
  0
LINE
  5
181
330
1F
100
AcDbEntity
  8
DEFAULT
 62
     7
100
AcDbLine
 10
26.34527050888236
 20
0.001949284560029
 30
0.0
 11
26.08212480896331
 21
0.0019492845600279
 31
0.0
  0
LINE
  5
182
330
1F
100
AcDbEntity
  8
DEFAULT
 62
     7
100
AcDbLine
 10
25.28556542778028
 20
0.0019492845600246
 30
0.0
 11
25.02241972702284
 21
0.0019492845600235
 31
0.0
  0
LINE
  5
183
330
1F
100
AcDbEntity
  8
DEFAULT
 62
     7
100
AcDbLine
 10
26.46992345506549
 20
2.501950737221625
 30
0.0
 11
24.89776678167798
 21
2.501950737221619
 31
0.0
  0
LINE
  5
184
330
1F
100
AcDbEntity
  8
DEFAULT
 62
     7
100
AcDbLine
 10
26.08212480896331
 20
0.0019625803938256
 30
0.0
 11
26.08212480896331
 21
0.8159797435157692
 31
0.0
  0
LINE
  5
185
330
1F
100
AcDbEntity
  8
DEFAULT
 62
     7
100
AcDbLine
 10
25.28556542778028
 20
0.0019625803938224
 30
0.0
 11
25.28556542778028
 21
0.8159467584110294
 31
0.0
  0
LINE
  5
186
330
1F
100
AcDbEntity
  8
DEFAULT
 62
     7
100
AcDbLine
 10
26.63913063173963
 20
2.068898286692258
 30
0.0
 11
26.63913063173964
 21
0.2045177887805925
 31
0.0
  0
LINE
  5
187
330
1F
100
AcDbEntity
  8
DEFAULT
 62
     7
100
AcDbLine
 10
24.72855960500394
 20
0.2045177887806324
 30
0.0
 11
24.72855960500393
 21
2.06889828669225
 31
0.0
  0
SPLINE
  5
188
330
1F
100
AcDbEntity
  8
DEFAULT
 62
     7
100
AcDbSpline
210
0.0
220
0.0
230
1.0
 70
     8
 71
     5
 72
    12
 73
     6
 74
     0
 42
0.0000000001
 43
0.0000000001
 40
0.0
 40
0.0
 40
0.0
 40
0.0
 40
0.0
 40
0.0
 40
1.0
 40
1.0
 40
1.0
 40
1.0
 40
1.0
 40
1.0
 10
26.63913063173964
 20
0.2045177887805925
 30
0.0
 10
26.63913063173964
 20
0.1331349419032484
 30
0.0
 10
26.63913063173964
 20
0.0617520950259044
 30
0.0
 10
26.48803620263704
 20
0.0019492845600296
 30
0.0
 10
26.4166533557597
 20
0.0019492845600293
 30
0.0
 10
26.34527050888236
 20
0.001949284560029
 30
0.0
  0
SPLINE
  5
189
330
1F
100
AcDbEntity
  8
DEFAULT
 62
     7
100
AcDbSpline
210
0.0
220
0.0
230
1.0
 70
     8
 71
     5
 72
    12
 73
     6
 74
     0
 42
0.0000000001
 43
0.0000000001
 40
0.0
 40
0.0
 40
0.0
 40
0.0
 40
0.0
 40
0.0
 40
1.0
 40
1.0
 40
1.0
 40
1.0
 40
1.0
 40
1.0
 10
25.02241972702284
 20
0.0019492845600235
 30
0.0
 10
24.95103688028355
 20
0.0019492845600232
 30
0.0
 10
24.87965403354426
 20
0.0019492845600229
 30
0.0
 10
24.72855960500394
 20
0.0617520953020446
 30
0.0
 10
24.72855960500394
 20
0.1331349420413385
 30
0.0
 10
24.72855960500394
 20
0.2045177887806324
 30
0.0
  0
ARC
  5
18A
330
1F
100
AcDbEntity
  8
DEFAULT
 62
     7
100
AcDbCircle
 10
26.44780777298931
 20
2.069641961037918
 30
0.0
 40
0.1913243040806097
100
AcDbArc
 50
359.7772917098211
 51
87.16168972788805
  0
ARC
  5
18B
330
1F
100
AcDbEntity
  8
DEFAULT
 62
     7
100
AcDbCircle
 10
24.91988246375059
 20
2.069641961071595
 30
0.0
 40
0.1913243040770631
100
AcDbArc
 50
92.83831038459815
 51
180.222708300285
  0
SPLINE
  5
18C
330
1F
100
AcDbEntity
  8
DEFAULT
 62
     7
100
AcDbSpline
210
0.0
220
0.0
230
1.0
 70
     8
 71
     3
 72
     9
 73
     5
 74
     0
 42
0.0000000001
 43
0.0000000001
 40
-2.0
 40
-2.0
 40
-2.0
 40
-2.0
 40
-1.0
 40
0.0
 40
0.0
 40
0.0
 40
0.0
 10
26.46991640025588
 20
2.501950737281609
 30
0.0
 10
26.45771406260707
 20
1.74586649048654
 30
0.0
 10
26.27120299417619
 20
0.9230235415267133
 30
0.0
 10
26.02983572914797
 20
0.692096551381079
 30
0.0
 10
25.68384802025243
 20
0.6920965513810776
 30
0.0
  0
SPLINE
  5
18D
330
1F
100
AcDbEntity
  8
DEFAULT
 62
     7
100
AcDbSpline
210
0.0
220
0.0
230
1.0
 70
     8
 71
     3
 72
     9
 73
     5
 74
     0
 42
0.0000000001
 43
0.0000000001
 40
0.0
 40
0.0
 40
0.0
 40
0.0
 40
1.0
 40
2.0
 40
2.0
 40
2.0
 40
2.0
 10
25.68384802025243
 20
0.6920965513810776
 30
0.0
 10
25.3378603113569
 20
0.6920965513810762
 30
0.0
 10
25.09649304632868
 20
0.9230235415267085
 30
0.0
 10
24.90998197789779
 20
1.745866490486534
 30
0.0
 10
24.89777964024898
 20
2.501950737281603
 30
0.0
  0
SPLINE
  5
18E
330
1F
100
AcDbEntity
  8
DEFAULT
 62
     7
100
AcDbSpline
210
0.0
220
0.0
230
1.0
 70
     8
 71
     3
 72
     9
 73
     5
 74
     0
 42
0.0000000001
 43
0.0000000001
 40
0.0
 40
0.0
 40
0.0
 40
0.0
 40
1.0
 40
2.0
 40
2.0
 40
2.0
 40
2.0
 10
20.96132158821759
 20
0.6920965513810576
 30
0.0
 10
20.61533387932206
 20
0.6920965513810562
 30
0.0
 10
20.37396661429384
 20
0.9230235415266885
 30
0.0
 10
20.18745554586295
 20
1.745866490486514
 30
0.0
 10
20.17525320821414
 20
2.501950737281583
 30
0.0
  0
SPLINE
  5
18F
330
1F
100
AcDbEntity
  8
DEFAULT
 62
     7
100
AcDbSpline
210
0.0
220
0.0
230
1.0
 70
     8
 71
     3
 72
     9
 73
     5
 74
     0
 42
0.0000000001
 43
0.0000000001
 40
-2.0
 40
-2.0
 40
-2.0
 40
-2.0
 40
-1.0
 40
0.0
 40
0.0
 40
0.0
 40
0.0
 10
21.74738996822104
 20
2.50195073728159
 30
0.0
 10
21.73518763057223
 20
1.74586649048652
 30
0.0
 10
21.54867656214135
 20
0.9230235415266934
 30
0.0
 10
21.30730929711313
 20
0.6920965513810591
 30
0.0
 10
20.96132158821759
 20
0.6920965513810576
 30
0.0
  0
ARC
  5
190
330
1F
100
AcDbEntity
  8
DEFAULT
 62
     7
100
AcDbCircle
 10
20.19735603171577
 20
2.069641961071561
 30
0.0
 40
0.1913243040770843
100
AcDbArc
 50
92.83831038460423
 51
180.2227083002808
  0
ARC
  5
191
330
1F
100
AcDbEntity
  8
DEFAULT
 62
     7
100
AcDbCircle
 10
21.72528134095447
 20
2.069641961037894
 30
0.0
 40
0.1913243040806137
100
AcDbArc
 50
359.7772917098222
 51
87.1616897278881
  0
SPLINE
  5
192
330
1F
100
AcDbEntity
  8
DEFAULT
 62
     7
100
AcDbSpline
210
0.0
220
0.0
230
1.0
 70
     8
 71
     5
 72
    12
 73
     6
 74
     0
 42
0.0000000001
 43
0.0000000001
 40
0.0
 40
0.0
 40
0.0
 40
0.0
 40
0.0
 40
0.0
 40
1.0
 40
1.0
 40
1.0
 40
1.0
 40
1.0
 40
1.0
 10
20.299893294988
 20
0.0019492845600036
 30
0.0
 10
20.22851044824871
 20
0.0019492845600033
 30
0.0
 10
20.15712760150942
 20
0.001949284560003
 30
0.0
 10
20.0060331729691
 20
0.0617520953020247
 30
0.0
 10
20.0060331729691
 20
0.1331349420413186
 30
0.0
 10
20.0060331729691
 20
0.2045177887806125
 30
0.0
  0
SPLINE
  5
193
330
1F
100
AcDbEntity
  8
DEFAULT
 62
     7
100
AcDbSpline
210
0.0
220
0.0
230
1.0
 70
     8
 71
     5
 72
    12
 73
     6
 74
     0
 42
0.0000000001
 43
0.0000000001
 40
0.0
 40
0.0
 40
0.0
 40
0.0
 40
0.0
 40
0.0
 40
1.0
 40
1.0
 40
1.0
 40
1.0
 40
1.0
 40
1.0
 10
21.9166041997048
 20
0.2045177887805725
 30
0.0
 10
21.9166041997048
 20
0.1331349419032285
 30
0.0
 10
21.9166041997048
 20
0.0617520950258845
 30
0.0
 10
21.7655097706022
 20
0.0019492845600096
 30
0.0
 10
21.69412692372486
 20
0.0019492845600094
 30
0.0
 10
21.62274407684752
 20
0.0019492845600091
 30
0.0
  0
LINE
  5
194
330
1F
100
AcDbEntity
  8
DEFAULT
 62
     7
100
AcDbLine
 10
20.0060331729691
 20
0.2045177887806125
 30
0.0
 11
20.00603317296909
 21
2.06889828669223
 31
0.0
  0
LINE
  5
195
330
1F
100
AcDbEntity
  8
DEFAULT
 62
     7
100
AcDbLine
 10
21.91660419970479
 20
2.068898286692238
 30
0.0
 11
21.9166041997048
 21
0.2045177887805725
 31
0.0
  0
LINE
  5
196
330
1F
100
AcDbEntity
  8
DEFAULT
 62
     7
100
AcDbLine
 10
20.56303899574544
 20
0.0019625803938024
 30
0.0
 11
20.56303899574544
 21
0.8159467584110094
 31
0.0
  0
LINE
  5
197
330
1F
100
AcDbEntity
  8
DEFAULT
 62
     7
100
AcDbLine
 10
21.35959837692847
 20
0.0019625803938057
 30
0.0
 11
21.35959837692847
 21
0.8159797435157493
 31
0.0
  0
LINE
  5
198
330
1F
100
AcDbEntity
  8
DEFAULT
 62
     7
100
AcDbLine
 10
21.74739702303065
 20
2.501950737221605
 30
0.0
 11
20.17524034964314
 21
2.501950737221599
 31
0.0
  0
LINE
  5
199
330
1F
100
AcDbEntity
  8
DEFAULT
 62
     7
100
AcDbLine
 10
20.56303899574544
 20
0.0019492845600047
 30
0.0
 11
20.299893294988
 21
0.0019492845600036
 31
0.0
  0
LINE
  5
19A
330
1F
100
AcDbEntity
  8
DEFAULT
 62
     7
100
AcDbLine
 10
21.62274407684752
 20
0.0019492845600091
 30
0.0
 11
21.35959837692847
 21
0.001949284560008
 31
0.0
  0
LINE
  5
19B
330
1F
100
AcDbEntity
  8
DEFAULT
 62
     7
100
AcDbLine
 10
5.017476736221945
 20
0.0019492845599748
 30
0.0
 11
5.280622436140996
 21
0.0019492845599748
 31
0.0
  0
LINE
  5
19C
330
1F
100
AcDbEntity
  8
DEFAULT
 62
     7
100
AcDbLine
 10
6.07718181732404
 20
0.0019492845599748
 30
0.0
 11
6.340327518081474
 21
0.0019492845599748
 31
0.0
  0
LINE
  5
19D
330
1F
100
AcDbEntity
  8
DEFAULT
 62
     7
100
AcDbLine
 10
4.892823790038812
 20
2.50195073722157
 30
0.0
 11
6.464980463426309
 21
2.50195073722157
 31
0.0
  0
LINE
  5
19E
330
1F
100
AcDbEntity
  8
DEFAULT
 62
     7
100
AcDbLine
 10
5.280622436140996
 20
0.0019625803937725
 30
0.0
 11
5.280622436140996
 21
0.8159797435157161
 31
0.0
  0
LINE
  5
19F
330
1F
100
AcDbEntity
  8
DEFAULT
 62
     7
100
AcDbLine
 10
6.07718181732404
 20
0.0019625803937725
 30
0.0
 11
6.07718181732404
 21
0.8159467584109795
 31
0.0
  0
LINE
  5
1A0
330
1F
100
AcDbEntity
  8
DEFAULT
 62
     7
100
AcDbLine
 10
4.723616613364677
 20
2.068898286692202
 30
0.0
 11
4.723616613364677
 21
0.204517788780537
 31
0.0
  0
LINE
  5
1A1
330
1F
100
AcDbEntity
  8
DEFAULT
 62
     7
100
AcDbLine
 10
6.634187640100358
 20
0.2045177887805849
 30
0.0
 11
6.634187640100358
 21
2.068898286692202
 31
0.0
  0
SPLINE
  5
1A2
330
1F
100
AcDbEntity
  8
DEFAULT
 62
     7
100
AcDbSpline
210
0.0
220
0.0
230
1.0
 70
     8
 71
     5
 72
    12
 73
     6
 74
     0
 42
0.0000000001
 43
0.0000000001
 40
0.0
 40
0.0
 40
0.0
 40
0.0
 40
0.0
 40
0.0
 40
1.0
 40
1.0
 40
1.0
 40
1.0
 40
1.0
 40
1.0
 10
4.723616613364677
 20
0.204517788780537
 30
0.0
 10
4.723616613364677
 20
0.133134941903193
 30
0.0
 10
4.723616613364677
 20
0.061752095025849
 30
0.0
 10
4.874711042467276
 20
0.0019492845599748
 30
0.0
 10
4.946093889344604
 20
0.0019492845599748
 30
0.0
 10
5.017476736221945
 20
0.0019492845599748
 30
0.0
  0
SPLINE
  5
1A3
330
1F
100
AcDbEntity
  8
DEFAULT
 62
     7
100
AcDbSpline
210
0.0
220
0.0
230
1.0
 70
     8
 71
     5
 72
    12
 73
     6
 74
     0
 42
0.0000000001
 43
0.0000000001
 40
0.0
 40
0.0
 40
0.0
 40
0.0
 40
0.0
 40
0.0
 40
1.0
 40
1.0
 40
1.0
 40
1.0
 40
1.0
 40
1.0
 10
6.340327518081474
 20
0.0019492845599748
 30
0.0
 10
6.411710364820757
 20
0.0019492845599748
 30
0.0
 10
6.483093211560054
 20
0.0019492845599748
 30
0.0
 10
6.634187640100358
 20
0.0617520953019971
 30
0.0
 10
6.634187640100358
 20
0.133134942041291
 30
0.0
 10
6.634187640100358
 20
0.2045177887805849
 30
0.0
  0
ARC
  5
1A4
330
1F
100
AcDbEntity
  8
DEFAULT
 62
     7
100
AcDbCircle
 10
4.914939472114989
 20
2.069641961037864
 30
0.0
 40
0.1913243040806091
100
AcDbArc
 50
92.83831027211117
 51
180.2227082901793
  0
ARC
  5
1A5
330
1F
100
AcDbEntity
  8
DEFAULT
 62
     7
100
AcDbCircle
 10
6.442864781353699
 20
2.069641961071539
 30
0.0
 40
0.1913243040770737
100
AcDbArc
 50
359.7772916997174
 51
87.16168961539883
  0
SPLINE
  5
1A6
330
1F
100
AcDbEntity
  8
DEFAULT
 62
     7
100
AcDbSpline
210
0.0
220
0.0
230
1.0
 70
     8
 71
     3
 72
     9
 73
     5
 74
     0
 42
0.0000000001
 43
0.0000000001
 40
-2.0
 40
-2.0
 40
-2.0
 40
-2.0
 40
-1.0
 40
0.0
 40
0.0
 40
0.0
 40
0.0
 10
4.892830844848427
 20
2.501950737281555
 30
0.0
 10
4.905033182497228
 20
1.745866490486486
 30
0.0
 10
5.091544250928117
 20
0.9230235415266594
 30
0.0
 10
5.332911515956334
 20
0.6920965513810261
 30
0.0
 10
5.678899224851883
 20
0.6920965513810261
 30
0.0
  0
SPLINE
  5
1A7
330
1F
100
AcDbEntity
  8
DEFAULT
 62
     7
100
AcDbSpline
210
0.0
220
0.0
230
1.0
 70
     8
 71
     3
 72
     9
 73
     5
 74
     0
 42
0.0000000001
 43
0.0000000001
 40
0.0
 40
0.0
 40
0.0
 40
0.0
 40
1.0
 40
2.0
 40
2.0
 40
2.0
 40
2.0
 10
5.678899224851883
 20
0.6920965513810261
 30
0.0
 10
6.024886933747419
 20
0.6920965513810261
 30
0.0
 10
6.266254198775621
 20
0.9230235415266594
 30
0.0
 10
6.45276526720651
 20
1.745866490486486
 30
0.0
 10
6.464967604855326
 20
2.501950737281555
 30
0.0
  0
SPLINE
  5
1A8
330
1F
100
AcDbEntity
  8
DEFAULT
 62
     7
100
AcDbSpline
210
0.0
220
0.0
230
1.0
 70
     8
 71
     3
 72
     9
 73
     5
 74
     0
 42
0.0000000001
 43
0.0000000001
 40
0.0
 40
0.0
 40
0.0
 40
0.0
 40
1.0
 40
2.0
 40
2.0
 40
2.0
 40
2.0
 10
0.9563727928170435
 20
0.6920965513810266
 30
0.0
 10
1.302360501712579
 20
0.6920965513810266
 30
0.0
 10
1.543727766740781
 20
0.9230235415266599
 30
0.0
 10
1.73023883517167
 20
1.745866490486486
 30
0.0
 10
1.742441172820486
 20
2.501950737281555
 30
0.0
  0
SPLINE
  5
1A9
330
1F
100
AcDbEntity
  8
DEFAULT
 62
     7
100
AcDbSpline
210
0.0
220
0.0
230
1.0
 70
     8
 71
     3
 72
     9
 73
     5
 74
     0
 42
0.0000000001
 43
0.0000000001
 40
-2.0
 40
-2.0
 40
-2.0
 40
-2.0
 40
-1.0
 40
0.0
 40
0.0
 40
0.0
 40
0.0
 10
0.170304412813587
 20
2.501950737281555
 30
0.0
 10
0.1825067504623886
 20
1.745866490486486
 30
0.0
 10
0.3690178188932775
 20
0.9230235415266599
 30
0.0
 10
0.610385083921494
 20
0.6920965513810266
 30
0.0
 10
0.9563727928170435
 20
0.6920965513810266
 30
0.0
  0
ARC
  5
1AA
330
1F
100
AcDbEntity
  8
DEFAULT
 62
     7
100
AcDbCircle
 10
1.720338349318862
 20
2.069641961071541
 30
0.0
 40
0.1913243040770717
100
AcDbArc
 50
359.7772916997168
 51
87.1616896153994
  0
ARC
  5
1AB
330
1F
100
AcDbEntity
  8
DEFAULT
 62
     7
100
AcDbCircle
 10
0.1924130400801451
 20
2.069641961037868
 30
0.0
 40
0.1913243040806054
100
AcDbArc
 50
92.83831027210991
 51
180.2227082901804
  0
SPLINE
  5
1AC
330
1F
100
AcDbEntity
  8
DEFAULT
 62
     7
100
AcDbSpline
210
0.0
220
0.0
230
1.0
 70
     8
 71
     5
 72
    12
 73
     6
 74
     0
 42
0.0000000001
 43
0.0000000001
 40
0.0
 40
0.0
 40
0.0
 40
0.0
 40
0.0
 40
0.0
 40
1.0
 40
1.0
 40
1.0
 40
1.0
 40
1.0
 40
1.0
 10
1.617801086046634
 20
0.0019492845599752
 30
0.0
 10
1.689183932785917
 20
0.0019492845599752
 30
0.0
 10
1.760566779525215
 20
0.0019492845599752
 30
0.0
 10
1.911661208065519
 20
0.0617520953019975
 30
0.0
 10
1.911661208065519
 20
0.1331349420412914
 30
0.0
 10
1.911661208065519
 20
0.2045177887805853
 30
0.0
  0
SPLINE
  5
1AD
330
1F
100
AcDbEntity
  8
DEFAULT
 62
     7
100
AcDbSpline
210
0.0
220
0.0
230
1.0
 70
     8
 71
     5
 72
    12
 73
     6
 74
     0
 42
0.0000000001
 43
0.0000000001
 40
0.0
 40
0.0
 40
0.0
 40
0.0
 40
0.0
 40
0.0
 40
1.0
 40
1.0
 40
1.0
 40
1.0
 40
1.0
 40
1.0
 10
0.0010901813298373
 20
0.2045177887805375
 30
0.0
 10
0.0010901813298373
 20
0.1331349419031934
 30
0.0
 10
0.0010901813298373
 20
0.0617520950258494
 30
0.0
 10
0.1521846104324366
 20
0.0019492845599752
 30
0.0
 10
0.2235674573097638
 20
0.0019492845599752
 30
0.0
 10
0.2949503041871052
 20
0.0019492845599752
 30
0.0
  0
LINE
  5
1AE
330
1F
100
AcDbEntity
  8
DEFAULT
 62
     7
100
AcDbLine
 10
1.911661208065519
 20
0.2045177887805853
 30
0.0
 11
1.911661208065519
 21
2.068898286692203
 31
0.0
  0
LINE
  5
1AF
330
1F
100
AcDbEntity
  8
DEFAULT
 62
     7
100
AcDbLine
 10
0.0010901813298373
 20
2.068898286692203
 30
0.0
 11
0.0010901813298373
 21
0.2045177887805374
 31
0.0
  0
LINE
  5
1B0
330
1F
100
AcDbEntity
  8
DEFAULT
 62
     7
100
AcDbLine
 10
1.3546553852892
 20
0.001962580393773
 30
0.0
 11
1.3546553852892
 21
0.81594675841098
 31
0.0
  0
LINE
  5
1B1
330
1F
100
AcDbEntity
  8
DEFAULT
 62
     7
100
AcDbLine
 10
0.5580960041061557
 20
0.001962580393773
 30
0.0
 11
0.5580960041061557
 21
0.8159797435157166
 31
0.0
  0
LINE
  5
1B2
330
1F
100
AcDbEntity
  8
DEFAULT
 62
     7
100
AcDbLine
 10
0.1702973580039723
 20
2.501950737221571
 30
0.0
 11
1.742454031391469
 21
2.501950737221571
 31
0.0
  0
LINE
  5
1B3
330
1F
100
AcDbEntity
  8
DEFAULT
 62
     7
100
AcDbLine
 10
1.3546553852892
 20
0.0019492845599752
 30
0.0
 11
1.617801086046634
 21
0.0019492845599752
 31
0.0
  0
LINE
  5
1B4
330
1F
100
AcDbEntity
  8
DEFAULT
 62
     7
100
AcDbLine
 10
0.2949503041871052
 20
0.0019492845599752
 30
0.0
 11
0.5580960041061557
 21
0.0019492845599752
 31
0.0
  0
LINE
  5
1B5
330
1F
100
AcDbEntity
  8
DEFAULT
 62
     7
100
AcDbLine
 10
12.6586850160241
 20
0.0019492845599757
 30
0.0
 11
12.92183071594315
 21
0.0019492845599757
 31
0.0
  0
SPLINE
  5
1B6
330
1F
100
AcDbEntity
  8
DEFAULT
 62
     7
100
AcDbSpline
210
0.0
220
0.0
230
1.0
 70
     8
 71
     3
 72
     9
 73
     5
 74
     0
 42
0.0000000001
 43
0.0000000001
 40
0.0
 40
0.0
 40
0.0
 40
0.0
 40
1.0
 40
2.0
 40
2.0
 40
2.0
 40
2.0
 10
13.32010750465404
 20
0.692096551381027
 30
0.0
 10
13.66609521354958
 20
0.692096551381027
 30
0.0
 10
13.90746247857778
 20
0.9230235415266603
 30
0.0
 10
14.09397354700867
 20
1.745866490486487
 30
0.0
 10
14.10617588465748
 20
2.501950737281556
 30
0.0
  0
SPLINE
  5
1B7
330
1F
100
AcDbEntity
  8
DEFAULT
 62
     7
100
AcDbSpline
210
0.0
220
0.0
230
1.0
 70
     8
 71
     3
 72
     9
 73
     5
 74
     0
 42
0.0000000001
 43
0.0000000001
 40
-2.0
 40
-2.0
 40
-2.0
 40
-2.0
 40
-1.0
 40
0.0
 40
0.0
 40
0.0
 40
0.0
 10
12.53403912465059
 20
2.501950737281556
 30
0.0
 10
12.54624146229939
 20
1.745866490486487
 30
0.0
 10
12.73275253073028
 20
0.9230235415266603
 30
0.0
 10
12.97411979575849
 20
0.692096551381027
 30
0.0
 10
13.32010750465404
 20
0.692096551381027
 30
0.0
  0
ARC
  5
1B8
330
1F
100
AcDbEntity
  8
DEFAULT
 62
     7
100
AcDbCircle
 10
14.08407306115586
 20
2.069641961071544
 30
0.0
 40
0.1913243040770684
100
AcDbArc
 50
359.7772916997161
 51
87.16168961540036
  0
ARC
  5
1B9
330
1F
100
AcDbEntity
  8
DEFAULT
 62
     7
100
AcDbCircle
 10
12.55614775191715
 20
2.069641961037863
 30
0.0
 40
0.191324304080611
100
AcDbArc
 50
92.83831027211194
 51
180.2227082901788
  0
SPLINE
  5
1BA
330
1F
100
AcDbEntity
  8
DEFAULT
 62
     7
100
AcDbSpline
210
0.0
220
0.0
230
1.0
 70
     8
 71
     5
 72
    12
 73
     6
 74
     0
 42
0.0000000001
 43
0.0000000001
 40
0.0
 40
0.0
 40
0.0
 40
0.0
 40
0.0
 40
0.0
 40
1.0
 40
1.0
 40
1.0
 40
1.0
 40
1.0
 40
1.0
 10
13.98153579788363
 20
0.0019492845599757
 30
0.0
 10
14.05291864462292
 20
0.0019492845599757
 30
0.0
 10
14.12430149136221
 20
0.0019492845599757
 30
0.0
 10
14.27539591990252
 20
0.061752095301998
 30
0.0
 10
14.27539591990252
 20
0.1331349420412919
 30
0.0
 10
14.27539591990252
 20
0.2045177887805858
 30
0.0
  0
SPLINE
  5
1BB
330
1F
100
AcDbEntity
  8
DEFAULT
 62
     7
100
AcDbSpline
210
0.0
220
0.0
230
1.0
 70
     8
 71
     5
 72
    12
 73
     6
 74
     0
 42
0.0000000001
 43
0.0000000001
 40
0.0
 40
0.0
 40
0.0
 40
0.0
 40
0.0
 40
0.0
 40
1.0
 40
1.0
 40
1.0
 40
1.0
 40
1.0
 40
1.0
 10
12.36482489316684
 20
0.2045177887805379
 30
0.0
 10
12.36482489316684
 20
0.1331349419031939
 30
0.0
 10
12.36482489316684
 20
0.0617520950258499
 30
0.0
 10
12.51591932226943
 20
0.0019492845599757
 30
0.0
 10
12.58730216914676
 20
0.0019492845599757
 30
0.0
 10
12.6586850160241
 20
0.0019492845599757
 30
0.0
  0
LINE
  5
1BC
330
1F
100
AcDbEntity
  8
DEFAULT
 62
     7
100
AcDbLine
 10
14.27539591990252
 20
0.2045177887805858
 30
0.0
 11
14.27539591990252
 21
2.068898286692203
 31
0.0
  0
LINE
  5
1BD
330
1F
100
AcDbEntity
  8
DEFAULT
 62
     7
100
AcDbLine
 10
12.36482489316684
 20
2.068898286692203
 30
0.0
 11
12.36482489316684
 21
0.2045177887805378
 31
0.0
  0
LINE
  5
1BE
330
1F
100
AcDbEntity
  8
DEFAULT
 62
     7
100
AcDbLine
 10
13.7183900971262
 20
0.0019625803937734
 30
0.0
 11
13.7183900971262
 21
0.8159467584109804
 31
0.0
  0
LINE
  5
1BF
330
1F
100
AcDbEntity
  8
DEFAULT
 62
     7
100
AcDbLine
 10
12.92183071594315
 20
0.0019625803937734
 30
0.0
 11
12.92183071594315
 21
0.815979743515717
 31
0.0
  0
LINE
  5
1C0
330
1F
100
AcDbEntity
  8
DEFAULT
 62
     7
100
AcDbLine
 10
12.53403206984097
 20
2.501950737221571
 30
0.0
 11
14.10618874322847
 21
2.501950737221571
 31
0.0
  0
LINE
  5
1C1
330
1F
100
AcDbEntity
  8
DEFAULT
 62
     7
100
AcDbLine
 10
13.7183900971262
 20
0.0019492845599757
 30
0.0
 11
13.98153579788363
 21
0.0019492845599757
 31
0.0
  0
SPLINE
  5
1C2
330
1F
100
AcDbEntity
  8
DEFAULT
 62
     7
100
AcDbSpline
210
0.0
220
0.0
230
1.0
 70
    12
 71
     2
 72
     6
 73
     3
 74
     0
 42
0.0000000001
 43
0.0000000001
 40
1.570796326794897
 40
1.570796326794897
 40
1.570796326794897
 40
3.141592653589793
 40
3.141592653589793
 40
3.141592653589793
 10
13.32011066467681
 20
12.21003721876488
 30
0.0
 41
1.0
 10
12.44407676019062
 20
12.21003721876532
 30
0.0
 41
0.7071067811865475
 10
12.44407676019046
 20
11.90107766002921
 30
0.0
 41
1.0
  0
SPLINE
  5
1C3
330
1F
100
AcDbEntity
  8
DEFAULT
 62
     7
100
AcDbSpline
210
0.0
220
0.0
230
1.0
 70
    12
 71
     2
 72
     6
 73
     3
 74
     0
 42
0.0000000001
 43
0.0000000001
 40
0.0
 40
0.0
 40
0.0
 40
1.570796326794897
 40
1.570796326794897
 40
1.570796326794897
 10
14.19614456916285
 20
11.90107766002833
 30
0.0
 41
1.0
 10
14.19614456916299
 20
12.21003721876444
 30
0.0
 41
0.7071067811865475
 10
13.32011066467681
 20
12.21003721876488
 30
0.0
 41
1.0
  0
LINE
  5
1C4
330
1F
100
AcDbEntity
  8
DEFAULT
 62
     7
100
AcDbLine
 10
9.845701432935295
 20
15.52569705116469
 30
0.0
 11
9.845701432935295
 21
15.93274405116469
 31
0.0
  0
LINE
  5
1C5
330
1F
100
AcDbEntity
  8
DEFAULT
 62
     7
100
AcDbLine
 10
9.993338432935284
 20
15.52569705116469
 30
0.0
 11
9.993338432935284
 21
15.93274405116469
 31
0.0
  0
LINE
  5
1C6
330
1F
100
AcDbEntity
  8
DEFAULT
 62
     7
100
AcDbLine
 10
6.854181432935286
 20
15.64301005116469
 30
0.0
 11
7.459874432935288
 21
15.83899405116469
 31
0.0
  0
LINE
  5
1C7
330
1F
100
AcDbEntity
  8
DEFAULT
 62
     7
100
AcDbLine
 10
10.24924443293529
 20
15.33803005116469
 30
0.0
 11
10.21007043293529
 21
15.56950105116469
 31
0.0
  0
LINE
  5
1C8
330
1F
100
AcDbEntity
  8
DEFAULT
 62
     7
100
AcDbLine
 10
11.42018543293529
 20
14.47452305116469
 30
0.0
 11
11.42018543293529
 21
14.71105805116469
 31
0.0
  0
LINE
  5
1C9
330
1F
100
AcDbEntity
  8
DEFAULT
 62
     7
100
AcDbLine
 10
12.21774843293529
 20
12.43517505116469
 30
0.0
 11
12.24300043293528
 21
12.43517505116469
 31
0.0
  0
LINE
  5
1CA
330
1F
100
AcDbEntity
  8
DEFAULT
 62
     7
100
AcDbLine
 10
14.42247243293529
 20
12.43517505116469
 30
0.0
 11
14.39722043293529
 21
12.43517505116469
 31
0.0
  0
LINE
  5
1CB
330
1F
100
AcDbEntity
  8
DEFAULT
 62
     7
100
AcDbLine
 10
11.3611854329353
 20
13.29173805116469
 30
0.0
 11
12.21774843293529
 21
12.43517505116469
 31
0.0
  0
LINE
  5
1CC
330
1F
100
AcDbEntity
  8
DEFAULT
 62
     7
100
AcDbLine
 10
10.24924443293529
 20
15.33803005116469
 30
0.0
 11
11.28300943293528
 21
13.39455705116469
 31
0.0
  0
LINE
  5
1CD
330
1F
100
AcDbEntity
  8
DEFAULT
 62
     7
100
AcDbLine
 10
10.09420443293529
 20
15.81337405116469
 30
0.0
 11
11.42018543293529
 21
14.49941005116469
 31
0.0
  0
LINE
  5
1CE
330
1F
100
AcDbEntity
  8
DEFAULT
 62
     7
100
AcDbLine
 10
12.10234443293529
 20
13.19207105116469
 30
0.0
 11
11.42018543293529
 21
14.47452305116469
 31
0.0
  0
LINE
  5
1CF
330
1F
100
AcDbEntity
  8
DEFAULT
 62
     7
100
AcDbLine
 10
12.13121643293528
 20
13.18707105116469
 30
0.0
 11
12.17134243293529
 21
13.11163505116469
 31
0.0
  0
LINE
  5
1D0
330
1F
100
AcDbEntity
  8
DEFAULT
 62
     7
100
AcDbLine
 10
11.60566443293529
 20
14.42585905116469
 30
0.0
 11
12.15702243293529
 21
13.38931005116469
 31
0.0
  0
LINE
  5
1D1
330
1F
100
AcDbEntity
  8
DEFAULT
 62
     7
100
AcDbLine
 10
11.78491443293529
 20
14.42585905116469
 30
0.0
 11
12.14208143293529
 21
13.75438705116469
 31
0.0
  0
LINE
  5
1D2
330
1F
100
AcDbEntity
  8
DEFAULT
 62
     7
100
AcDbLine
 10
15.16558443293529
 20
14.42585905116469
 30
0.0
 11
11.60566443293529
 21
14.42585905116469
 31
0.0
  0
LINE
  5
1D3
330
1F
100
AcDbEntity
  8
DEFAULT
 62
     7
100
AcDbLine
 10
11.42018543293529
 20
14.47452305116469
 30
0.0
 11
15.35719343293529
 21
14.47452305116469
 31
0.0
  0
LINE
  5
1D4
330
1F
100
AcDbEntity
  8
DEFAULT
 62
     7
100
AcDbLine
 10
11.42018543293529
 20
14.71105805116469
 30
0.0
 11
15.35719343293529
 21
14.71105805116469
 31
0.0
  0
LINE
  5
1D5
330
1F
100
AcDbEntity
  8
DEFAULT
 62
     7
100
AcDbLine
 10
9.782332432935286
 20
14.91789405116469
 30
0.0
 11
10.37129143293529
 21
14.91789405116469
 31
0.0
  0
LINE
  5
1D6
330
1F
100
AcDbEntity
  8
DEFAULT
 62
     7
100
AcDbLine
 10
16.26892943293529
 20
14.91789405116469
 30
0.0
 11
16.85788843293529
 21
14.91789405116469
 31
0.0
  0
LINE
  5
1D7
330
1F
100
AcDbEntity
  8
DEFAULT
 62
     7
100
AcDbLine
 10
10.01302343293529
 20
15.33803005116469
 30
0.0
 11
10.24924443293529
 21
15.33803005116469
 31
0.0
  0
LINE
  5
1D8
330
1F
100
AcDbEntity
  8
DEFAULT
 62
     7
100
AcDbLine
 10
16.39097643293528
 20
15.33803005116469
 30
0.0
 11
16.62719743293528
 21
15.33803005116469
 31
0.0
  0
LINE
  5
1D9
330
1F
100
AcDbEntity
  8
DEFAULT
 62
     7
100
AcDbLine
 10
16.7945194329353
 20
15.52569605116469
 30
0.0
 11
16.64688243293529
 21
15.52569605116469
 31
0.0
  0
LINE
  5
1DA
330
1F
100
AcDbEntity
  8
DEFAULT
 62
     7
100
AcDbLine
 10
9.993338432935284
 20
15.52569605116469
 30
0.0
 11
9.845701432935295
 21
15.52569605116469
 31
0.0
  0
LINE
  5
1DB
330
1F
100
AcDbEntity
  8
DEFAULT
 62
     7
100
AcDbLine
 10
7.459874432935288
 20
15.93274405116469
 30
0.0
 11
10.01302343293529
 21
15.93274405116469
 31
0.0
  0
LINE
  5
1DC
330
1F
100
AcDbEntity
  8
DEFAULT
 62
     7
100
AcDbLine
 10
15.35719343293529
 20
14.47452305116469
 30
0.0
 11
15.35719343293529
 21
14.71105805116469
 31
0.0
  0
LINE
  5
1DD
330
1F
100
AcDbEntity
  8
DEFAULT
 62
     7
100
AcDbLine
 10
14.46887843293529
 20
13.11163505116469
 30
0.0
 11
14.50900443293529
 21
13.18707105116469
 31
0.0
  0
LINE
  5
1DE
330
1F
100
AcDbEntity
  8
DEFAULT
 62
     7
100
AcDbLine
 10
14.95029343293529
 20
14.42585905116469
 30
0.0
 11
14.49719343293529
 21
13.71663605116469
 31
0.0
  0
LINE
  5
1DF
330
1F
100
AcDbEntity
  8
DEFAULT
 62
     7
100
AcDbLine
 10
14.48129343293528
 20
13.35476005116469
 30
0.0
 11
15.16558443293529
 21
14.42585905116469
 31
0.0
  0
LINE
  5
1E0
330
1F
100
AcDbEntity
  8
DEFAULT
 62
     7
100
AcDbLine
 10
15.35719343293529
 20
14.47452305116469
 30
0.0
 11
14.53787643293529
 21
13.19207105116469
 31
0.0
  0
LINE
  5
1E1
330
1F
100
AcDbEntity
  8
DEFAULT
 62
     7
100
AcDbLine
 10
16.5460164329353
 20
15.81337405116469
 30
0.0
 11
15.35719343293529
 21
14.63532505116469
 31
0.0
  0
LINE
  5
1E2
330
1F
100
AcDbEntity
  8
DEFAULT
 62
     7
100
AcDbLine
 10
15.3572114329353
 20
13.39455805116469
 30
0.0
 11
16.39097643293528
 21
15.33803005116469
 31
0.0
  0
LINE
  5
1E3
330
1F
100
AcDbEntity
  8
DEFAULT
 62
     7
100
AcDbLine
 10
15.27903443293529
 20
13.29173805116469
 30
0.0
 11
14.42247243293529
 21
12.43517505116469
 31
0.0
  0
LINE
  5
1E4
330
1F
100
AcDbEntity
  8
DEFAULT
 62
     7
100
AcDbLine
 10
16.39097643293528
 20
15.33803005116469
 30
0.0
 11
16.43015043293529
 21
15.56950105116469
 31
0.0
  0
ARC
  5
1E5
330
1F
100
AcDbEntity
  8
DEFAULT
 62
     7
100
AcDbCircle
 10
16.26892943293529
 20
15.03600405116469
 30
0.0
 40
0.1181101473285774
100
AcDbArc
 50
225.2154172852637
 51
269.9999999999983
  0
ARC
  5
1E6
330
1F
100
AcDbEntity
  8
DEFAULT
 62
     7
100
AcDbCircle
 10
10.37129143293529
 20
15.03600405116469
 30
0.0
 40
0.1181101473285774
100
AcDbArc
 50
270.0
 51
314.7845827147363
  0
SPLINE
  5
1E7
330
1F
100
AcDbEntity
  8
DEFAULT
 62
     7
100
AcDbSpline
210
0.0
220
0.0
230
1.0
 70
     8
 71
     3
 72
    19
 73
    15
 74
     0
 42
0.0000000001
 43
0.0000000001
 40
0.0
 40
0.0
 40
0.0
 40
0.0
 40
0.1235919666214
 40
0.2451043183287
 40
0.3625079393068
 40
0.4738760400769
 40
0.5774394841606
 40
0.6716499905291
 40
0.7552606378014
 40
0.8274447239784
 40
0.8880009336909001
 40
0.9377477976750001
 40
0.9792454826625
 40
1.0
 40
1.0
 40
1.0
 40
1.0
 10
13.32011040653472
 20
14.24336869008869
 30
0.0
 10
13.37373129805347
 20
14.24336869008869
 30
0.0
 10
13.48008485042629
 20
14.24113963146369
 30
0.0
 10
13.6370899690002
 20
14.23114488544569
 30
0.0
 10
13.78822563232719
 20
14.21470045207569
 30
0.0
 10
13.93069646535359
 20
14.19212272412969
 30
0.0
 10
14.06188490688589
 20
14.16384602993869
 30
0.0
 10
14.17940502503348
 20
14.13041401201269
 30
0.0
 10
14.28116711162149
 20
14.09245623841069
 30
0.0
 10
14.36545671779428
 20
14.05065837509269
 30
0.0
 10
14.43100618010629
 20
14.00559786055169
 30
0.0
 10
14.47698584341929
 20
13.95753865547769
 30
0.0
 10
14.49862249464028
 20
13.91265910044969
 30
0.0
 10
14.50126355270229
 20
13.88534663608369
 30
0.0
 10
14.50110088609729
 20
13.87626307018969
 30
0.0
  0
SPLINE
  5
1E8
330
1F
100
AcDbEntity
  8
DEFAULT
 62
     7
100
AcDbSpline
210
0.0
220
0.0
230
1.0
 70
     8
 71
     3
 72
    19
 73
    15
 74
     0
 42
0.0000000001
 43
0.0000000001
 40
0.0
 40
0.0
 40
0.0
 40
0.0
 40
0.1235919666214
 40
0.2451043183287
 40
0.3625079393068
 40
0.4738760400769
 40
0.5774394841606
 40
0.6716499905291
 40
0.7552606378014
 40
0.8274447239784
 40
0.8880009336909001
 40
0.9377477976750001
 40
0.9792454826625
 40
1.0
 40
1.0
 40
1.0
 40
1.0
 10
13.32011040653472
 20
14.24336869008869
 30
0.0
 10
13.26648951501597
 20
14.24336869008869
 30
0.0
 10
13.16013596264309
 20
14.24113963146369
 30
0.0
 10
13.00313084406919
 20
14.23114488544569
 30
0.0
 10
12.85199518074229
 20
14.21470045207569
 30
0.0
 10
12.70952434771579
 20
14.19212272412969
 30
0.0
 10
12.57833590618349
 20
14.16384602993869
 30
0.0
 10
12.46081578803598
 20
14.13041401201269
 30
0.0
 10
12.35905370144799
 20
14.09245623841069
 30
0.0
 10
12.27476409527528
 20
14.05065837509269
 30
0.0
 10
12.20921463296329
 20
14.00559786055169
 30
0.0
 10
12.16323496965029
 20
13.95753865547769
 30
0.0
 10
12.14159831842928
 20
13.91265910044969
 30
0.0
 10
12.13895726036729
 20
13.88534663608369
 30
0.0
 10
12.13911992697229
 20
13.87626307018969
 30
0.0
  0
ARC
  5
1E9
330
1F
100
AcDbEntity
  8
DEFAULT
 62
     7
100
AcDbCircle
 10
13.32011024761416
 20
13.65685022844397
 30
0.0
 40
2.168636166413279
100
AcDbArc
 50
270.0000041987116
 51
288.134598683537
  0
ARC
  5
1EA
330
1F
100
AcDbEntity
  8
DEFAULT
 62
     7
100
AcDbCircle
 10
0.8758962334342412
 20
14.13265522814391
 30
0.0
 40
13.62770861666498
100
AcDbArc
 50
350.4018149654515
 51
358.9219654432366
  0
ARC
  5
1EB
330
1F
100
AcDbEntity
  8
DEFAULT
 62
     7
100
AcDbCircle
 10
12.72053697191398
 20
12.0096386720002
 30
0.0
 40
0.4205216471543634
100
AcDbArc
 50
200.7859393359005
 51
259.6688401733286
  0
ARC
  5
1EC
330
1F
100
AcDbEntity
  8
DEFAULT
 62
     7
100
AcDbCircle
 10
13.32011050575619
 20
13.65684985435664
 30
0.0
 40
2.168635792325953
100
AcDbArc
 50
251.8653997391743
 51
269.9999973785492
  0
ARC
  5
1ED
330
1F
100
AcDbEntity
  8
DEFAULT
 62
     7
100
AcDbCircle
 10
13.91968404261049
 20
12.00963843008757
 30
0.0
 40
0.420521372962182
100
AcDbArc
 50
280.331138807535
 51
339.2140817385225
  0
ARC
  5
1EE
330
1F
100
AcDbEntity
  8
DEFAULT
 62
     7
100
AcDbCircle
 10
25.76432457977969
 20
14.13265522815675
 30
0.0
 40
13.62770861680956
100
AcDbArc
 50
181.0780345568058
 51
189.5981850345004
  0
LINE
  5
1EF
330
1F
100
AcDbEntity
  8
DEFAULT
 62
     7
100
AcDbLine
 10
16.85605376488228
 20
15.70024079506269
 30
0.0
 11
16.7945199348333
 21
15.65738972965169
 31
0.0
  0
LINE
  5
1F0
330
1F
100
AcDbEntity
  8
DEFAULT
 62
     7
100
AcDbLine
 10
16.64690000811928
 20
15.56416272696269
 30
0.0
 11
16.62720330086629
 21
15.55933575225169
 31
0.0
  0
LINE
  5
1F1
330
1F
100
AcDbEntity
  8
DEFAULT
 62
     7
100
AcDbLine
 10
16.86631182330329
 20
15.70460634132769
 30
0.0
 11
16.79452036636329
 21
15.65567435694269
 31
0.0
  0
ARC
  5
1F2
330
1F
100
AcDbEntity
  8
DEFAULT
 62
     7
100
AcDbCircle
 10
16.89884366038451
 20
15.41503773878769
 30
0.0
 40
0.4988175671943114
100
AcDbArc
 50
265.290435782527
 51
297.4423517610165
  0
SPLINE
  5
1F3
330
1F
100
AcDbEntity
  8
DEFAULT
 62
     7
100
AcDbSpline
210
0.0
220
0.0
230
1.0
 70
     8
 71
     3
 72
    12
 73
     8
 74
     0
 42
0.0000000001
 43
0.0000000001
 40
0.0
 40
0.0
 40
0.0
 40
0.0
 40
0.1840635851457
 40
0.4195278296395
 40
0.6365271123991
 40
0.8210471680773001
 40
1.0
 40
1.0
 40
1.0
 40
1.0
 10
17.13664776909429
 20
14.97758802539269
 30
0.0
 10
17.24196456256028
 20
15.05024493392369
 30
0.0
 10
17.47407611746929
 20
15.22703159327369
 30
0.0
 10
17.84223872633029
 20
15.47321890037969
 30
0.0
 10
18.22834929788629
 20
15.69097879731069
 30
0.0
 10
18.59769860488928
 20
15.85564557770269
 30
0.0
 10
18.84002642250429
 20
15.92904673939169
 30
0.0
 10
18.9601972830673
 20
15.96126265520869
 30
0.0
  0
LINE
  5
1F4
330
1F
100
AcDbEntity
  8
DEFAULT
 62
     7
100
AcDbLine
 10
9.775208630520291
 20
15.70648729600069
 30
0.0
 11
9.443935345085288
 21
15.93314729406369
 31
0.0
  0
LINE
  5
1F5
330
1F
100
AcDbEntity
  8
DEFAULT
 62
     7
100
AcDbLine
 10
9.845700850323292
 20
15.65738976494069
 30
0.0
 11
9.782042743606292
 21
15.70172130280969
 31
0.0
  0
LINE
  5
1F6
330
1F
100
AcDbEntity
  8
DEFAULT
 62
     7
100
AcDbLine
 10
9.845700339408291
 20
15.65567444324969
 30
0.0
 11
9.773908986636295
 21
15.70460633813369
 31
0.0
  0
LINE
  5
1F7
330
1F
100
AcDbEntity
  8
DEFAULT
 62
     7
100
AcDbLine
 10
9.773909851761284
 20
15.70460759343969
 30
0.0
 11
9.43408488923229
 21
15.93313247832469
 31
0.0
  0
ARC
  5
1F8
330
1F
100
AcDbEntity
  8
DEFAULT
 62
     7
100
AcDbCircle
 10
9.743047258448152
 20
15.43157319138396
 30
0.0
 40
0.5151686926318904
100
AcDbArc
 50
244.2708867979254
 51
274.3734534942093
  0
SPLINE
  5
1F9
330
1F
100
AcDbEntity
  8
DEFAULT
 62
     7
100
AcDbSpline
210
0.0
220
0.0
230
1.0
 70
     8
 71
     3
 72
    11
 73
     7
 74
     0
 42
0.0000000001
 43
0.0000000001
 40
0.0
 40
0.0
 40
0.0
 40
0.0
 40
0.1655284487019
 40
0.4133547098342
 40
0.7148220717768
 40
1.0
 40
1.0
 40
1.0
 40
1.0
 10
7.780547535076289
 20
15.93321143416769
 30
0.0
 10
7.885583951002283
 20
15.90268250610969
 30
0.0
 10
8.145262698678289
 20
15.81702886252769
 30
0.0
 10
8.570959327805293
 20
15.60999791998869
 30
0.0
 10
9.040193936429285
 20
15.31939783815269
 30
0.0
 10
9.348460113065281
 20
15.08434100687569
 30
0.0
 10
9.503568616828284
 20
14.97758145531769
 30
0.0
  0
LINE
  5
1FA
330
1F
100
AcDbEntity
  8
DEFAULT
 62
     7
100
AcDbLine
 10
11.28300875566029
 20
13.39456074873069
 30
0.0
 11
11.36146813698029
 21
13.29145203995269
 31
0.0
  0
LINE
  5
1FB
330
1F
100
AcDbEntity
  8
DEFAULT
 62
     7
100
AcDbLine
 10
15.27875163218429
 20
13.29145095404169
 30
0.0
 11
15.35721277461529
 21
13.39456209846269
 31
0.0
  0
LINE
  5
1FC
330
1F
100
AcDbEntity
  8
DEFAULT
 62
     7
100
AcDbLine
 10
14.53787664556629
 20
13.19207079143269
 30
0.0
 11
14.47023899760529
 21
13.17995796969269
 31
0.0
  0
LINE
  5
1FD
330
1F
100
AcDbEntity
  8
DEFAULT
 62
     7
100
AcDbLine
 10
12.16998017681129
 20
13.17995825212469
 30
0.0
 11
12.10234416750329
 21
13.19207079143269
 31
0.0
  0
LINE
  5
1FE
330
1F
100
AcDbEntity
  8
DEFAULT
 62
     7
100
AcDbLine
 10
12.14783059642029
 20
13.92239940090969
 30
0.0
 11
12.0310909721493
 21
13.96259276439669
 31
0.0
  0
LINE
  5
1FF
330
1F
100
AcDbEntity
  8
DEFAULT
 62
     7
100
AcDbLine
 10
14.66973881217428
 20
13.98633111991769
 30
0.0
 11
14.4923902612543
 21
13.92239942034869
 31
0.0
  0
ARC
  5
200
330
1F
100
AcDbEntity
  8
DEFAULT
 62
     7
100
AcDbCircle
 10
10.01853976608457
 20
15.70153873721338
 30
0.0
 40
0.135026676828936
100
AcDbArc
 50
55.91873565754023
 51
92.34124092924667
  0
ARC
  5
201
330
1F
100
AcDbEntity
  8
DEFAULT
 62
     7
100
AcDbCircle
 10
17.03836662406727
 20
15.05267518088358
 30
0.0
 40
0.7981454461333728
100
AcDbArc
 50
121.0078985511392
 51
139.6441362532341
  0
SPLINE
  5
202
330
1F
100
AcDbEntity
  8
DEFAULT
 62
     7
100
AcDbSpline
210
0.0
220
0.0
230
1.0
 70
     8
 71
     3
 72
    16
 73
    12
 74
     0
 42
0.0000000001
 43
0.0000000001
 40
0.0
 40
0.0
 40
0.0
 40
0.0
 40
0.04908139450617
 40
0.08034089603321
 40
0.124826527752
 40
0.1955205185391
 40
0.2976803761667
 40
0.4367466031031
 40
0.6171147575657
 40
0.8400812200043
 40
1.0
 40
1.0
 40
1.0
 40
1.0
 10
15.35760219888729
 20
13.39529421303469
 30
0.0
 10
15.36478109794629
 20
13.40892666483269
 30
0.0
 10
15.37850538536729
 20
13.43436740102969
 30
0.0
 10
15.35412674117829
 20
13.47242914589569
 30
0.0
 10
15.30393273426828
 20
13.47308117152169
 30
0.0
 10
15.23813516479928
 20
13.46299476648769
 30
0.0
 10
15.14342398492229
 20
13.43418716676669
 30
0.0
 10
15.02015081822429
 20
13.38693967412769
 30
0.0
 10
14.86447308354529
 20
13.31744367307869
 30
0.0
 10
14.70602835059629
 20
13.23900853027069
 30
0.0
 10
14.59972076946529
 20
13.18289936432569
 30
0.0
 10
14.55553967287728
 20
13.15905659096469
 30
0.0
  0
LINE
  5
203
330
1F
100
AcDbEntity
  8
DEFAULT
 62
     7
100
AcDbLine
 10
14.55553967287728
 20
13.15905659096469
 30
0.0
 11
14.46887876196129
 21
13.11163544400269
 31
0.0
  0
LINE
  5
204
330
1F
100
AcDbEntity
  8
DEFAULT
 62
     7
100
AcDbLine
 10
12.17134205059929
 20
13.11163544375969
 30
0.0
 11
12.08468112177529
 21
13.15905659344569
 31
0.0
  0
SPLINE
  5
205
330
1F
100
AcDbEntity
  8
DEFAULT
 62
     7
100
AcDbSpline
210
0.0
220
0.0
230
1.0
 70
     8
 71
     3
 72
    16
 73
    12
 74
     0
 42
0.0000000001
 43
0.0000000001
 40
0.0
 40
0.0
 40
0.0
 40
0.0
 40
0.159911413108
 40
0.3829279516347
 40
0.5633434502925
 40
0.7024102460688
 40
0.8045578086353
 40
0.8752284969232
 40
0.9196804783738
 40
0.950922273791
 40
1.0
 40
1.0
 40
1.0
 40
1.0
 10
12.08468112177529
 20
13.15905659344569
 30
0.0
 10
12.04050194825029
 20
13.18289832414769
 30
0.0
 10
11.93418226343028
 20
13.23901392548269
 30
0.0
 10
11.77571165170429
 20
13.31746154444469
 30
0.0
 10
11.62000419563729
 20
13.38696771580769
 30
0.0
 10
11.49671867122128
 20
13.43421529513069
 30
0.0
 10
11.40201502362229
 20
13.46301092880369
 30
0.0
 10
11.33623726469929
 20
13.47308781963969
 30
0.0
 10
11.28606689304228
 20
13.47241148529969
 30
0.0
 10
11.26172230115129
 20
13.43435623029669
 30
0.0
 10
11.27544033706129
 20
13.40892544155269
 30
0.0
 10
11.2826187354013
 20
13.39529398378569
 30
0.0
  0
ARC
  5
206
330
1F
100
AcDbEntity
  8
DEFAULT
 62
     7
100
AcDbCircle
 10
9.601854188887737
 20
15.05267518075621
 30
0.0
 40
0.7981454463846973
100
AcDbArc
 50
40.35586374343423
 51
58.992101450109
  0
ARC
  5
207
330
1F
100
AcDbEntity
  8
DEFAULT
 62
     7
100
AcDbCircle
 10
16.62168104701775
 20
15.7015387373786
 30
0.0
 40
0.1350266765905784
100
AcDbArc
 50
87.65875908052078
 51
124.0812643385191
  0
ARC
  5
208
330
1F
100
AcDbEntity
  8
DEFAULT
 62
     7
100
AcDbCircle
 10
13.320110406533
 20
-5.402543461118878
 30
0.0
 40
21.45976727026806
100
AcDbArc
 50
81.35432930039899
 51
84.69115911345081
  0
ARC
  5
209
330
1F
100
AcDbEntity
  8
DEFAULT
 62
     7
100
AcDbCircle
 10
13.320110406533
 20
-5.402543461118878
 30
0.0
 40
21.45976727026806
100
AcDbArc
 50
95.30884088654916
 51
98.64567069912127
  0
LINE
  5
20A
330
1F
100
AcDbEntity
  8
DEFAULT
 62
     7
100
AcDbLine
 10
16.62719743293528
 20
15.33803005116469
 30
0.0
 11
16.62719743293528
 21
15.96517070631332
 31
0.0
  0
LINE
  5
20B
330
1F
100
AcDbEntity
  8
DEFAULT
 62
     7
100
AcDbLine
 10
16.64688243293529
 20
15.52569705116469
 30
0.0
 11
16.64688243293529
 21
15.96517070631332
 31
0.0
  0
LINE
  5
20C
330
1F
100
AcDbEntity
  8
DEFAULT
 62
     7
100
AcDbLine
 10
16.7945194329353
 20
15.52569705116469
 30
0.0
 11
16.7945194329353
 21
15.96517070631332
 31
0.0
  0
LINE
  5
20D
330
1F
100
AcDbEntity
  8
DEFAULT
 62
     7
100
AcDbLine
 10
10.01302343293529
 20
15.33803005116469
 30
0.0
 11
10.01302343293529
 21
15.96517070631332
 31
0.0
  0
LINE
  5
20E
330
1F
100
AcDbEntity
  8
DEFAULT
 62
     7
100
AcDbLine
 10
7.459874432935288
 20
15.83899405116469
 30
0.0
 11
7.459874432935288
 21
15.96517070631332
 31
0.0
  0
ARC
  5
20F
330
1F
100
AcDbEntity
  8
DEFAULT
 62
     7
100
AcDbCircle
 10
6.709874432935288
 20
16.08899405116469
 30
0.0
 40
0.4687496544052054
100
AcDbArc
 50
195.3168476521932
 51
287.9300199327035
  0
ARC
  5
210
330
1F
100
AcDbEntity
  8
DEFAULT
 62
     7
100
AcDbCircle
 10
20.75543489038233
 20
10.49146473401931
 30
0.0
 40
6.504009222807822
100
AcDbArc
 50
122.6916488513663
 51
126.723781585546
  0
ARC
  5
211
330
1F
100
AcDbEntity
  8
DEFAULT
 62
     7
100
AcDbCircle
 10
20.57585534674616
 20
10.83919678843333
 30
0.0
 40
6.120528109315264
100
AcDbArc
 50
123.1223983998814
 51
127.3220530052167
  0
ENDSEC
  0
SECTION
  2
OBJECTS
  0
DICTIONARY
  5
C
330
0
100
AcDbDictionary
  3
ACAD_GROUP
350
D
  3
ACAD_LAYOUT
350
1A
  3
ACAD_MLINESTYLE
350
17
  3
ACAD_PLOTSETTINGS
350
19
  3
ACDBHEADERROUNDTRIPXREC
350
212
  0
DICTIONARY
  5
232
330
29
100
AcDbDictionary
280
     1
  3
ACAD_XREC_ROUNDTRIP
360
233
  0
DICTIONARY
  5
D
102
{ACAD_REACTORS
330
C
102
}
330
C
100
AcDbDictionary
  0
DICTIONARY
  5
1A
102
{ACAD_REACTORS
330
C
102
}
330
C
100
AcDbDictionary
  0
DICTIONARY
  5
17
102
{ACAD_REACTORS
330
C
102
}
330
C
100
AcDbDictionary
  3
STANDARD
350
18
  0
DICTIONARY
  5
19
102
{ACAD_REACTORS
330
C
102
}
330
C
100
AcDbDictionary
  0
DICTIONARY
  5
212
102
{ACAD_REACTORS
330
C
102
}
330
C
100
AcDbDictionary
  3
CEPSNTYPE
350
21B
  3
DIMSTYLEDATA
350
231
  3
FINGERPRINTGUID
350
21C
  3
HYPERLINKBASE
350
215
  3
INSUNITS
350
21A
  3
LAYOUTDICT
350
217
  3
LWETCUNION
350
219
  3
PLOTSETDICT
350
218
  3
PSVPSCALE
350
21E
  3
PUCSBASE
350
221
  3
PUCSORGBACK
350
227
  3
PUCSORGBOTTOM
350
223
  3
PUCSORGFRONT
350
226
  3
PUCSORGLEFT
350
224
  3
PUCSORGRIGHT
350
225
  3
PUCSORGTOP
350
222
  3
PUCSORTHOREF
350
21F
  3
PUCSORTHOVIEW
350
220
  3
STYLESHEET
350
216
  3
TSTACKALIGN
350
213
  3
TSTACKSIZE
350
214
  3
UCSBASE
350
22A
  3
UCSORGBACK
350
230
  3
UCSORGBOTTOM
350
22C
  3
UCSORGFRONT
350
22F
  3
UCSORGLEFT
350
22D
  3
UCSORGRIGHT
350
22E
  3
UCSORGTOP
350
22B
  3
UCSORTHOREF
350
228
  3
UCSORTHOVIEW
350
229
  3
VERSIONGUID
350
21D
  0
XRECORD
  5
233
102
{ACAD_REACTORS
330
232
102
}
330
232
100
AcDbXrecord
102
UCS
 74
     0
 71
     1
 10
0.0
 20
0.0
 30
0.0
 10
1.0
 20
0.0
 30
0.0
 10
0.0
 20
1.0
 30
0.0
146
0.0
 79
     0
102
VIEW
281
     0
  0
MLINESTYLE
  5
18
102
{ACAD_REACTORS
330
17
102
}
330
17
100
AcDbMlineStyle
  2
Standard
 70
     0
  3

 62
   256
 51
90.0
 52
90.0
 71
     2
 49
0.5
 62
   256
  6
BYLAYER
 49
-0.5
 62
   256
  6
BYLAYER
  0
XRECORD
  5
21B
102
{ACAD_REACTORS
330
212
102
}
330
212
100
AcDbXrecord
 90
        0
  0
XRECORD
  5
231
102
{ACAD_REACTORS
330
212
102
}
330
212
100
AcDbXrecord
1000
DSTYLE
1002
{
1070
   340
340
11
1002
}
  0
XRECORD
  5
21C
102
{ACAD_REACTORS
330
212
102
}
330
212
100
AcDbXrecord
  1
{FAEB1C30-E019-11D5-929B-00C0DF256EC4}
  0
XRECORD
  5
215
102
{ACAD_REACTORS
330
212
102
}
330
212
100
AcDbXrecord
  1

  0
XRECORD
  5
21A
102
{ACAD_REACTORS
330
212
102
}
330
212
100
AcDbXrecord
 90
        1
  0
XRECORD
  5
217
102
{ACAD_REACTORS
330
212
102
}
330
212
100
AcDbXrecord
340
1A
  0
XRECORD
  5
219
102
{ACAD_REACTORS
330
212
102
}
330
212
100
AcDbXrecord
 90
     2560
  0
XRECORD
  5
218
102
{ACAD_REACTORS
330
212
102
}
330
212
100
AcDbXrecord
340
19
  0
XRECORD
  5
21E
102
{ACAD_REACTORS
330
212
102
}
330
212
100
AcDbXrecord
 40
0.0
  0
XRECORD
  5
221
102
{ACAD_REACTORS
330
212
102
}
330
212
100
AcDbXrecord
340
0
  0
XRECORD
  5
227
102
{ACAD_REACTORS
330
212
102
}
330
212
100
AcDbXrecord
 10
0.0
 20
0.0
 30
0.0
  0
XRECORD
  5
223
102
{ACAD_REACTORS
330
212
102
}
330
212
100
AcDbXrecord
 10
0.0
 20
0.0
 30
0.0
  0
XRECORD
  5
226
102
{ACAD_REACTORS
330
212
102
}
330
212
100
AcDbXrecord
 10
0.0
 20
0.0
 30
0.0
  0
XRECORD
  5
224
102
{ACAD_REACTORS
330
212
102
}
330
212
100
AcDbXrecord
 10
0.0
 20
0.0
 30
0.0
  0
XRECORD
  5
225
102
{ACAD_REACTORS
330
212
102
}
330
212
100
AcDbXrecord
 10
0.0
 20
0.0
 30
0.0
  0
XRECORD
  5
222
102
{ACAD_REACTORS
330
212
102
}
330
212
100
AcDbXrecord
 10
0.0
 20
0.0
 30
0.0
  0
XRECORD
  5
21F
102
{ACAD_REACTORS
330
212
102
}
330
212
100
AcDbXrecord
340
0
  0
XRECORD
  5
220
102
{ACAD_REACTORS
330
212
102
}
330
212
100
AcDbXrecord
 70
     0
  0
XRECORD
  5
216
102
{ACAD_REACTORS
330
212
102
}
330
212
100
AcDbXrecord
  1

  0
XRECORD
  5
213
102
{ACAD_REACTORS
330
212
102
}
330
212
100
AcDbXrecord
 90
        1
  0
XRECORD
  5
214
102
{ACAD_REACTORS
330
212
102
}
330
212
100
AcDbXrecord
 90
       70
  0
XRECORD
  5
22A
102
{ACAD_REACTORS
330
212
102
}
330
212
100
AcDbXrecord
340
0
  0
XRECORD
  5
230
102
{ACAD_REACTORS
330
212
102
}
330
212
100
AcDbXrecord
 10
0.0
 20
0.0
 30
0.0
  0
XRECORD
  5
22C
102
{ACAD_REACTORS
330
212
102
}
330
212
100
AcDbXrecord
 10
0.0
 20
0.0
 30
0.0
  0
XRECORD
  5
22F
102
{ACAD_REACTORS
330
212
102
}
330
212
100
AcDbXrecord
 10
0.0
 20
0.0
 30
0.0
  0
XRECORD
  5
22D
102
{ACAD_REACTORS
330
212
102
}
330
212
100
AcDbXrecord
 10
0.0
 20
0.0
 30
0.0
  0
XRECORD
  5
22E
102
{ACAD_REACTORS
330
212
102
}
330
212
100
AcDbXrecord
 10
0.0
 20
0.0
 30
0.0
  0
XRECORD
  5
22B
102
{ACAD_REACTORS
330
212
102
}
330
212
100
AcDbXrecord
 10
0.0
 20
0.0
 30
0.0
  0
XRECORD
  5
228
102
{ACAD_REACTORS
330
212
102
}
330
212
100
AcDbXrecord
340
0
  0
XRECORD
  5
229
102
{ACAD_REACTORS
330
212
102
}
330
212
100
AcDbXrecord
 70
     0
  0
XRECORD
  5
21D
102
{ACAD_REACTORS
330
212
102
}
330
212
100
AcDbXrecord
  1
{FAEB1C32-E019-11D5-929B-00C0DF256EC4}
  0
ENDSEC
  0
EOF
