  0
SECTION
  2
HEADER
  9
$ACADVER
  1
AC1018
  9
$ACADMAINTVER
 70
     0
  9
$DWGCODEPAGE
  3
ANSI_1252
  9
$INSBASE
 10
0.0
 20
0.0
 30
0.0
  9
$EXTMIN
 10
0.003995
 20
0.002626
 30
0.0
  9
$EXTMAX
 10
63.479351
 20
80.023006
 30
0.0
  9
$LIMMIN
 10
0.0
 20
0.0
  9
$LIMMAX
 10
12.0
 20
9.0
  9
$ORTHOMODE
 70
     0
  9
$REGENMODE
 70
     1
  9
$FILLMODE
 70
     1
  9
$QTEXTMODE
 70
     0
  9
$MIRRTEXT
 70
     1
  9
$LTSCALE
 40
1.0
  9
$ATTMODE
 70
     1
  9
$TEXTSIZE
 40
0.2
  9
$TRACEWID
 40
0.05
  9
$TEXTSTYLE
  7
Standard
  9
$CLAYER
  8
DEFAULT
  9
$CELTYPE
  6
ByLayer
  9
$CECOLOR
 62
   256
  9
$CELTSCALE
 40
1.0
  9
$DISPSILH
 70
     0
  9
$DIMSCALE
 40
1.0
  9
$DIMASZ
 40
0.18
  9
$DIMEXO
 40
0.0625
  9
$DIMDLI
 40
0.38
  9
$DIMRND
 40
0.0
  9
$DIMDLE
 40
0.0
  9
$DIMEXE
 40
0.18
  9
$DIMTP
 40
0.0
  9
$DIMTM
 40
0.0
  9
$DIMTXT
 40
0.18
  9
$DIMCEN
 40
0.09
  9
$DIMTSZ
 40
0.0
  9
$DIMTOL
 70
     0
  9
$DIMLIM
 70
     0
  9
$DIMTIH
 70
     1
  9
$DIMTOH
 70
     1
  9
$DIMSE1
 70
     0
  9
$DIMSE2
 70
     0
  9
$DIMTAD
 70
     0
  9
$DIMZIN
 70
     0
  9
$DIMBLK
  1

  9
$DIMASO
 70
     1
  9
$DIMSHO
 70
     1
  9
$DIMPOST
  1

  9
$DIMAPOST
  1

  9
$DIMALT
 70
     0
  9
$DIMALTD
 70
     2
  9
$DIMALTF
 40
25.4
  9
$DIMLFAC
 40
1.0
  9
$DIMTOFL
 70
     0
  9
$DIMTVP
 40
0.0
  9
$DIMTIX
 70
     0
  9
$DIMSOXD
 70
     0
  9
$DIMSAH
 70
     0
  9
$DIMBLK1
  1

  9
$DIMBLK2
  1

  9
$DIMSTYLE
  2
Standard
  9
$DIMCLRD
 70
     0
  9
$DIMCLRE
 70
     0
  9
$DIMCLRT
 70
     0
  9
$DIMTFAC
 40
1.0
  9
$DIMGAP
 40
0.09
  9
$DIMJUST
 70
     0
  9
$DIMSD1
 70
     0
  9
$DIMSD2
 70
     0
  9
$DIMTOLJ
 70
     1
  9
$DIMTZIN
 70
     0
  9
$DIMALTZ
 70
     0
  9
$DIMALTTZ
 70
     0
  9
$DIMUPT
 70
     0
  9
$DIMDEC
 70
     4
  9
$DIMTDEC
 70
     4
  9
$DIMALTU
 70
     2
  9
$DIMALTTD
 70
     2
  9
$DIMTXSTY
  7
Standard
  9
$DIMAUNIT
 70
     0
  9
$DIMADEC
 70
     0
  9
$DIMALTRND
 40
0.0
  9
$DIMAZIN
 70
     0
  9
$DIMDSEP
 70
    46
  9
$DIMATFIT
 70
     3
  9
$DIMFRAC
 70
     0
  9
$DIMLDRBLK
  1

  9
$DIMLUNIT
 70
     2
  9
$DIMLWD
 70
    -2
  9
$DIMLWE
 70
    -2
  9
$DIMTMOVE
 70
     0
  9
$LUNITS
 70
     2
  9
$LUPREC
 70
     4
  9
$SKETCHINC
 40
0.1
  9
$FILLETRAD
 40
0.5
  9
$AUNITS
 70
     0
  9
$AUPREC
 70
     0
  9
$MENU
  1
.
  9
$ELEVATION
 40
0.0
  9
$PELEVATION
 40
0.0
  9
$THICKNESS
 40
0.0
  9
$LIMCHECK
 70
     0
  9
$CHAMFERA
 40
0.5
  9
$CHAMFERB
 40
0.5
  9
$CHAMFERC
 40
1.0
  9
$CHAMFERD
 40
0.0
  9
$SKPOLY
 70
     0
  9
$TDCREATE
 40
2454580.387712384
  9
$TDUCREATE
 40
2454580.554379051
  9
$TDUPDATE
 40
2454580.387712396
  9
$TDUUPDATE
 40
2454580.554379063
  9
$TDINDWG
 40
0.0000000116
  9
$TDUSRTIMER
 40
0.0000000116
  9
$USRTIMER
 70
     1
  9
$ANGBASE
 50
0.0
  9
$ANGDIR
 70
     0
  9
$PDMODE
 70
     0
  9
$PDSIZE
 40
0.0
  9
$PLINEWID
 40
0.0
  9
$SPLFRAME
 70
     0
  9
$SPLINETYPE
 70
     6
  9
$SPLINESEGS
 70
     8
  9
$HANDSEED
  5
297
  9
$SURFTAB1
 70
     6
  9
$SURFTAB2
 70
     6
  9
$SURFTYPE
 70
     6
  9
$SURFU
 70
     6
  9
$SURFV
 70
     6
  9
$UCSBASE
  2

  9
$UCSNAME
  2

  9
$UCSORG
 10
0.0
 20
0.0
 30
0.0
  9
$UCSXDIR
 10
1.0
 20
0.0
 30
0.0
  9
$UCSYDIR
 10
0.0
 20
1.0
 30
0.0
  9
$UCSORTHOREF
  2

  9
$UCSORTHOVIEW
 70
     0
  9
$UCSORGTOP
 10
0.0
 20
0.0
 30
0.0
  9
$UCSORGBOTTOM
 10
0.0
 20
0.0
 30
0.0
  9
$UCSORGLEFT
 10
0.0
 20
0.0
 30
0.0
  9
$UCSORGRIGHT
 10
0.0
 20
0.0
 30
0.0
  9
$UCSORGFRONT
 10
0.0
 20
0.0
 30
0.0
  9
$UCSORGBACK
 10
0.0
 20
0.0
 30
0.0
  9
$PUCSBASE
  2

  9
$PUCSNAME
  2

  9
$PUCSORG
 10
0.0
 20
0.0
 30
0.0
  9
$PUCSXDIR
 10
1.0
 20
0.0
 30
0.0
  9
$PUCSYDIR
 10
0.0
 20
1.0
 30
0.0
  9
$PUCSORTHOREF
  2

  9
$PUCSORTHOVIEW
 70
     0
  9
$PUCSORGTOP
 10
0.0
 20
0.0
 30
0.0
  9
$PUCSORGBOTTOM
 10
0.0
 20
0.0
 30
0.0
  9
$PUCSORGLEFT
 10
0.0
 20
0.0
 30
0.0
  9
$PUCSORGRIGHT
 10
0.0
 20
0.0
 30
0.0
  9
$PUCSORGFRONT
 10
0.0
 20
0.0
 30
0.0
  9
$PUCSORGBACK
 10
0.0
 20
0.0
 30
0.0
  9
$USERI1
 70
     0
  9
$USERI2
 70
     0
  9
$USERI3
 70
     0
  9
$USERI4
 70
     0
  9
$USERI5
 70
     0
  9
$USERR1
 40
0.0
  9
$USERR2
 40
0.0
  9
$USERR3
 40
0.0
  9
$USERR4
 40
0.0
  9
$USERR5
 40
0.0
  9
$WORLDVIEW
 70
     1
  9
$SHADEDGE
 70
     3
  9
$SHADEDIF
 70
    70
  9
$TILEMODE
 70
     1
  9
$MAXACTVP
 70
    64
  9
$PINSBASE
 10
0.0
 20
0.0
 30
0.0
  9
$PLIMCHECK
 70
     0
  9
$PEXTMIN
 10
1.000000000000000E+20
 20
1.000000000000000E+20
 30
1.000000000000000E+20
  9
$PEXTMAX
 10
-1.000000000000000E+20
 20
-1.000000000000000E+20
 30
-1.000000000000000E+20
  9
$PLIMMIN
 10
0.0
 20
0.0
  9
$PLIMMAX
 10
12.0
 20
9.0
  9
$UNITMODE
 70
     0
  9
$VISRETAIN
 70
     1
  9
$PLINEGEN
 70
     0
  9
$PSLTSCALE
 70
     1
  9
$TREEDEPTH
 70
  3020
  9
$CMLSTYLE
  2
Standard
  9
$CMLJUST
 70
     0
  9
$CMLSCALE
 40
1.0
  9
$PROXYGRAPHICS
 70
     1
  9
$MEASUREMENT
 70
     0
  9
$CELWEIGHT
370
    -1
  9
$ENDCAPS
280
     0
  9
$JOINSTYLE
280
     0
  9
$LWDISPLAY
290
     0
  9
$INSUNITS
 70
     4
  9
$HYPERLINKBASE
  1

  9
$STYLESHEET
  1

  9
$XEDIT
290
     1
  9
$CEPSNTYPE
380
     0
  9
$PSTYLEMODE
290
     1
  9
$FINGERPRINTGUID
  2
{180B3957-08AF-40FE-B1F1-1702F8C3B762}
  9
$VERSIONGUID
  2
{FAEB1C32-E019-11D5-929B-00C0DF256EC4}
  9
$EXTNAMES
290
     1
  9
$PSVPSCALE
 40
0.0
  9
$OLESTARTUP
290
     0
  9
$SORTENTS
280
   127
  9
$INDEXCTL
280
     0
  9
$HIDETEXT
280
     1
  9
$XCLIPFRAME
290
     0
  9
$HALOGAP
280
     0
  9
$OBSCOLOR
 70
   257
  9
$OBSLTYPE
280
     0
  9
$INTERSECTIONDISPLAY
280
     0
  9
$INTERSECTIONCOLOR
 70
   257
  9
$DIMASSOC
280
     2
  9
$PROJECTNAME
  1

  0
ENDSEC
  0
SECTION
  2
CLASSES
  0
CLASS
  1
ACDBDICTIONARYWDFLT
  2
AcDbDictionaryWithDefault
  3
ObjectDBX Classes
 90
        0
 91
        3
280
     0
281
     0
  0
CLASS
  1
VISUALSTYLE
  2
AcDbVisualStyle
  3
ObjectDBX Classes
 90
     4095
 91
        3
280
     0
281
     0
  0
CLASS
  1
SCALE
  2
AcDbScale
  3
ObjectDBX Classes
 90
     1153
 91
        3
280
     0
281
     0
  0
ENDSEC
  0
SECTION
  2
TABLES
  0
TABLE
  2
VPORT
  5
8
330
0
100
AcDbSymbolTable
 70
     1
  0
VPORT
  5
29
330
8
100
AcDbSymbolTableRecord
100
AcDbViewportTableRecord
  2
*Active
 70
     0
 10
0.0
 20
0.0
 11
1.0
 21
1.0
 12
0.0
 22
0.0
 13
0.0
 23
0.0
 14
0.5
 24
0.5
 15
0.5
 25
0.5
 16
0.0
 26
0.0
 36
1.0
 17
31.741673
 27
40.012816
 37
0.0
 40
81.62078759999999
 41
0.7932398721425719
 42
50.0
 43
0.0
 44
0.0
 50
0.0
 51
0.0
 71
     0
 72
   100
 73
     1
 74
     3
 75
     0
 76
     0
 77
     0
 78
     0
281
     0
 65
     1
110
0.0
120
0.0
130
0.0
111
1.0
121
0.0
131
0.0
112
0.0
122
1.0
132
0.0
 79
     0
146
0.0
  0
ENDTAB
  0
TABLE
  2
LTYPE
  5
5
330
0
100
AcDbSymbolTable
 70
     1
  0
LTYPE
  5
14
330
5
100
AcDbSymbolTableRecord
100
AcDbLinetypeTableRecord
  2
ByBlock
 70
     0
  3

 72
    65
 73
     0
 40
0.0
  0
LTYPE
  5
15
330
5
100
AcDbSymbolTableRecord
100
AcDbLinetypeTableRecord
  2
ByLayer
 70
     0
  3

 72
    65
 73
     0
 40
0.0
  0
LTYPE
  5
16
330
5
100
AcDbSymbolTableRecord
100
AcDbLinetypeTableRecord
  2
Continuous
 70
     0
  3
Solid line
 72
    65
 73
     0
 40
0.0
  0
ENDTAB
  0
TABLE
  2
LAYER
  5
2
330
0
100
AcDbSymbolTable
 70
     2
  0
LAYER
  5
10
330
2
100
AcDbSymbolTableRecord
100
AcDbLayerTableRecord
  2
0
 70
     0
 62
     7
  6
Continuous
370
    -3
390
F
  0
LAYER
  5
5D
330
2
100
AcDbSymbolTableRecord
100
AcDbLayerTableRecord
  2
DEFAULT
 70
     0
 62
     7
  6
Continuous
370
    -3
390
F
  0
ENDTAB
  0
TABLE
  2
STYLE
  5
3
330
0
100
AcDbSymbolTable
 70
     1
  0
STYLE
  5
11
330
3
100
AcDbSymbolTableRecord
100
AcDbTextStyleTableRecord
  2
Standard
 70
     0
 40
0.0
 41
1.0
 50
0.0
 71
     0
 42
0.2
  3
txt
  4

  0
ENDTAB
  0
TABLE
  2
VIEW
  5
6
330
0
100
AcDbSymbolTable
 70
     0
  0
ENDTAB
  0
TABLE
  2
UCS
  5
7
330
0
100
AcDbSymbolTable
 70
     0
  0
ENDTAB
  0
TABLE
  2
APPID
  5
9
330
0
100
AcDbSymbolTable
 70
     1
  0
APPID
  5
12
330
9
100
AcDbSymbolTableRecord
100
AcDbRegAppTableRecord
  2
ACAD
 70
     0
  0
ENDTAB
  0
TABLE
  2
DIMSTYLE
  5
A
330
0
100
AcDbSymbolTable
 70
     1
100
AcDbDimStyleTable
  0
DIMSTYLE
105
27
330
A
100
AcDbSymbolTableRecord
100
AcDbDimStyleTableRecord
  2
Standard
 70
     0
340
11
  0
ENDTAB
  0
TABLE
  2
BLOCK_RECORD
  5
1
330
0
100
AcDbSymbolTable
 70
     1
  0
BLOCK_RECORD
  5
1F
330
1
100
AcDbSymbolTableRecord
100
AcDbBlockTableRecord
  2
*Model_Space
340
22
  0
BLOCK_RECORD
  5
1B
330
1
100
AcDbSymbolTableRecord
100
AcDbBlockTableRecord
  2
*Paper_Space
340
1E
  0
BLOCK_RECORD
  5
23
330
1
100
AcDbSymbolTableRecord
100
AcDbBlockTableRecord
  2
*Paper_Space0
340
26
  0
ENDTAB
  0
ENDSEC
  0
SECTION
  2
BLOCKS
  0
BLOCK
  5
20
330
1F
100
AcDbEntity
  8
0
100
AcDbBlockBegin
  2
*Model_Space
 70
     0
 10
0.0
 20
0.0
 30
0.0
  3
*Model_Space
  1

  0
ENDBLK
  5
21
330
1F
100
AcDbEntity
  8
0
100
AcDbBlockEnd
  0
BLOCK
  5
1C
330
1B
100
AcDbEntity
 67
     1
  8
0
100
AcDbBlockBegin
  2
*Paper_Space
 70
     0
 10
0.0
 20
0.0
 30
0.0
  3
*Paper_Space
  1

  0
ENDBLK
  5
1D
330
1B
100
AcDbEntity
 67
     1
  8
0
100
AcDbBlockEnd
  0
BLOCK
  5
24
330
23
100
AcDbEntity
  8
0
100
AcDbBlockBegin
  2
*Paper_Space0
 70
     0
 10
0.0
 20
0.0
 30
0.0
  3
*Paper_Space0
  1

  0
ENDBLK
  5
25
330
23
100
AcDbEntity
  8
0
100
AcDbBlockEnd
  0
ENDSEC
  0
SECTION
  2
ENTITIES
  0
LINE
  5
5E
330
1F
100
AcDbEntity
  8
DEFAULT
100
AcDbLine
 10
51.187971
 20
5.750677
 30
0.0
 11
49.987971
 21
5.750677
 31
0.0
  0
SPLINE
  5
5F
330
1F
100
AcDbEntity
  8
DEFAULT
100
AcDbSpline
210
0.0
220
0.0
230
1.0
 70
     8
 71
     3
 72
     9
 73
     5
 74
     0
 42
0.0000000001
 43
0.0000000001
 40
0.0126139849350941
 40
0.0126139849350941
 40
0.0126139849350941
 40
0.0126139849350941
 40
1.0
 40
2.0
 40
2.0
 40
2.0
 40
2.0
 10
59.68646652860052
 20
3.037426213042663
 30
0.0
 10
58.27354087592731
 20
4.039039716340115
 30
0.0
 10
55.36470013666245
 20
4.683327910301509
 30
0.0
 10
52.53528235406301
 20
4.843182022312773
 30
0.0
 10
51.22403866792736
 20
4.500677211557564
 30
0.0
  0
SPLINE
  5
60
330
1F
100
AcDbEntity
  8
DEFAULT
100
AcDbSpline
210
0.0
220
0.0
230
1.0
 70
     8
 71
     3
 72
    10
 73
     6
 74
     0
 42
0.0000000001
 43
0.0000000001
 40
1.193563551153332
 40
1.193563551153332
 40
1.193563551153332
 40
1.193563551153332
 40
2.052268928739707
 40
3.052268928739707
 40
4.052268928739707
 40
4.052268928739707
 40
4.052268928739707
 40
4.052268928739707
 10
59.33112199374862
 20
3.574844009494419
 30
0.0
 10
58.13197919060916
 20
4.502812678043133
 30
0.0
 10
56.69148702287508
 20
5.190152918439404
 30
0.0
 10
54.97461570576962
 20
5.634699955904209
 30
0.0
 10
53.22403866792736
 20
5.750677211557564
 30
0.0
 10
51.18797069042756
 20
5.750677211557564
 30
0.0
  0
ARC
  5
61
330
1F
100
AcDbEntity
  8
DEFAULT
100
AcDbCircle
 10
58.719114
 20
2.783993
 30
0.0
 40
1.0
100
AcDbArc
 50
0.0
 51
52.26514499999993
  0
LINE
  5
62
330
1F
100
AcDbEntity
  8
DEFAULT
100
AcDbLine
 10
59.719114
 20
2.502628
 30
0.0
 11
59.719114
 21
2.783993
 31
0.0
  0
LINE
  5
63
330
1F
100
AcDbEntity
  8
DEFAULT
100
AcDbLine
 10
50.046588
 20
5.585467
 30
0.0
 11
49.915015
 21
4.706008
 31
0.0
  0
LINE
  5
64
330
1F
100
AcDbEntity
  8
DEFAULT
100
AcDbLine
 10
49.237971
 20
2.500677
 30
0.0
 11
49.237971
 21
4.500677
 31
0.0
  0
LINE
  5
65
330
1F
100
AcDbEntity
  8
DEFAULT
100
AcDbLine
 10
49.987971
 20
2.500677
 30
0.0
 11
49.237971
 21
2.500677
 31
0.0
  0
LINE
  5
66
330
1F
100
AcDbEntity
  8
DEFAULT
100
AcDbLine
 10
50.737971
 20
2.500677
 30
0.0
 11
50.737971
 21
4.500677
 31
0.0
  0
LINE
  5
67
330
1F
100
AcDbEntity
  8
DEFAULT
100
AcDbLine
 10
49.987971
 20
2.500677
 30
0.0
 11
50.737971
 21
2.500677
 31
0.0
  0
ARC
  5
68
330
1F
100
AcDbEntity
  8
DEFAULT
100
AcDbCircle
 10
48.889516
 20
2.167699
 30
0.0
 40
2.337033
100
AcDbArc
 50
93.37573300000001
 51
156.386596
  0
LINE
  5
69
330
1F
100
AcDbEntity
  8
DEFAULT
100
AcDbLine
 10
46.756828
 20
3.303671
 30
0.0
 11
46.756828
 21
2.502628
 31
0.0
  0
ARC
  5
6A
330
1F
100
AcDbEntity
  8
DEFAULT
100
AcDbCircle
 10
48.756828
 20
3.303671
 30
0.0
 40
2.0
100
AcDbArc
 50
156.4584730000001
 51
180.0
  0
SPLINE
  5
6B
330
1F
100
AcDbEntity
  8
DEFAULT
100
AcDbSpline
210
0.0
220
0.0
230
1.0
 70
     8
 71
     3
 72
     9
 73
     5
 74
     0
 42
0.0000000001
 43
0.0000000001
 40
0.0
 40
0.0
 40
0.0
 40
0.0
 40
1.0
 40
1.707103615139772
 40
1.707103615139772
 40
1.707103615139772
 40
1.707103615139772
 10
49.98797069042756
 20
5.750677211557564
 30
0.0
 10
48.75190271292779
 20
5.750677211557564
 30
0.0
 10
47.74091529308005
 20
5.374535201649623
 30
0.0
 10
47.10841584541392
 20
4.527425388195782
 30
0.0
 10
46.92328599576055
 20
4.102498377028928
 30
0.0
  0
LINE
  5
6C
330
1F
100
AcDbEntity
  8
DEFAULT
100
AcDbLine
 10
51.224039
 20
4.500677
 30
0.0
 11
48.751903
 21
4.500677
 31
0.0
  0
LINE
  5
6D
330
1F
100
AcDbEntity
  8
DEFAULT
100
AcDbLine
 10
45.987971
 20
5.750677
 30
0.0
 11
46.55435
 21
5.750677
 31
0.0
  0
SPLINE
  5
6E
330
1F
100
AcDbEntity
  8
DEFAULT
100
AcDbSpline
210
0.0
220
0.0
230
1.0
 70
     8
 71
     3
 72
     9
 73
     5
 74
     0
 42
0.0000000001
 43
0.0000000001
 40
0.0
 40
0.0
 40
0.0
 40
0.0
 40
1.0
 40
1.526815031193071
 40
1.526815031193071
 40
1.526815031193071
 40
1.526815031193071
 10
37.7740485700956
 20
2.998752753835957
 30
0.0
 10
39.68678721674878
 20
4.028312496248345
 30
0.0
 10
42.27804407798154
 20
4.679196921107755
 30
0.0
 10
44.84117508666397
 20
4.926944126079176
 30
0.0
 10
45.81925985960328
 20
4.898841554339795
 30
0.0
  0
LINE
  5
6F
330
1F
100
AcDbEntity
  8
DEFAULT
100
AcDbLine
 10
37.774049
 20
3.609096
 30
0.0
 11
37.557434
 21
3.484283
 31
0.0
  0
ARC
  5
70
330
1F
100
AcDbEntity
  8
DEFAULT
100
AcDbCircle
 10
45.749004
 20
-10.231532
 30
0.0
 40
15.973819
100
AcDbArc
 50
107.125233
 51
119.950501
  0
ARC
  5
71
330
1F
100
AcDbEntity
  8
DEFAULT
100
AcDbCircle
 10
45.883282
 20
-10.930753
 30
0.0
 40
16.681759
100
AcDbArc
 50
89.640429
 51
106.858812
  0
LINE
  5
72
330
1F
100
AcDbEntity
  8
DEFAULT
100
AcDbLine
 10
37.774049
 20
2.502628
 30
0.0
 11
37.774049
 21
3.609096
 31
0.0
  0
LINE
  5
73
330
1F
100
AcDbEntity
  8
DEFAULT
100
AcDbLine
 10
61.291269
 20
2.794889
 30
0.0
 11
61.291269
 21
2.502628
 31
0.0
  0
ARC
  5
74
330
1F
100
AcDbEntity
  8
DEFAULT
100
AcDbCircle
 10
59.791269
 20
2.794889
 30
0.0
 40
1.5
100
AcDbArc
 50
0.0
 51
52.19265800000006
  0
ARC
  5
75
330
1F
100
AcDbEntity
  8
DEFAULT
100
AcDbCircle
 10
53.394234
 20
-5.372477
 30
0.0
 40
11.874374
100
AcDbArc
 50
51.96353799999999
 51
90.82124999999998
  0
LINE
  5
76
330
1F
100
AcDbEntity
  8
DEFAULT
100
AcDbLine
 10
51.187971
 20
6.500677
 30
0.0
 11
53.224039
 21
6.500677
 31
0.0
  0
LINE
  5
77
330
1F
100
AcDbEntity
  8
DEFAULT
100
AcDbLine
 10
45.184672
 20
3.166767
 30
0.0
 11
45.184672
 21
2.502628
 31
0.0
  0
ARC
  5
78
330
1F
100
AcDbEntity
  8
DEFAULT
100
AcDbCircle
 10
47.184672
 20
3.166767
 30
0.0
 40
2.0
100
AcDbArc
 50
159.24551
 51
180.0
  0
SPLINE
  5
79
330
1F
100
AcDbEntity
  8
DEFAULT
100
AcDbSpline
210
0.0
220
0.0
230
1.0
 70
     8
 71
     2
 72
     6
 73
     3
 74
     0
 42
0.0000000001
 43
0.0000000001
 40
1.236067977499784
 40
1.236067977499784
 40
1.236067977499784
 40
6.121303892963089
 40
6.121303892963089
 40
6.121303892963089
 10
48.75190271292779
 20
6.500677211557566
 30
0.0
 10
46.3092847551961
 20
6.500677211557568
 30
0.0
 10
45.31445700229501
 20
3.875495242398364
 30
0.0
  0
LINE
  5
7A
330
1F
100
AcDbEntity
  8
DEFAULT
100
AcDbLine
 10
49.987971
 20
6.500677
 30
0.0
 11
48.751903
 21
6.500677
 31
0.0
  0
LINE
  5
7B
330
1F
100
AcDbEntity
  8
DEFAULT
100
AcDbLine
 10
36.201893
 20
2.967372
 30
0.0
 11
36.201893
 21
2.502628
 31
0.0
  0
ARC
  5
7C
330
1F
100
AcDbEntity
  8
DEFAULT
100
AcDbCircle
 10
37.201893
 20
2.967372
 30
0.0
 40
1.0
100
AcDbArc
 50
122.7877609999998
 51
179.9999999999998
  0
ARC
  5
7D
330
1F
100
AcDbEntity
  8
DEFAULT
100
AcDbCircle
 10
45.802443
 20
-10.358982
 30
0.0
 40
16.86068
100
AcDbArc
 50
89.369529
 51
122.834411
  0
LINE
  5
7E
330
1F
100
AcDbEntity
  8
DEFAULT
100
AcDbLine
 10
48.787971
 20
10.500677
 30
0.0
 11
49.987971
 21
10.500677
 31
0.0
  0
LINE
  5
7F
330
1F
100
AcDbEntity
  8
DEFAULT
100
AcDbLine
 10
48.787971
 20
6.500677
 30
0.0
 11
48.787971
 21
10.500677
 31
0.0
  0
LINE
  5
80
330
1F
100
AcDbEntity
  8
DEFAULT
100
AcDbLine
 10
48.751903
 20
6.500677
 30
0.0
 11
45.987971
 21
6.500677
 31
0.0
  0
LINE
  5
81
330
1F
100
AcDbEntity
  8
DEFAULT
100
AcDbLine
 10
49.379048
 20
11.905818
 30
0.0
 11
49.987971
 21
11.905818
 31
0.0
  0
LINE
  5
82
330
1F
100
AcDbEntity
  8
DEFAULT
100
AcDbLine
 10
49.007736
 20
11.595804
 30
0.0
 11
49.379048
 21
11.905818
 31
0.0
  0
LINE
  5
83
330
1F
100
AcDbEntity
  8
DEFAULT
100
AcDbLine
 10
49.007736
 20
10.500677
 30
0.0
 11
49.007736
 21
11.595804
 31
0.0
  0
LINE
  5
84
330
1F
100
AcDbEntity
  8
DEFAULT
100
AcDbLine
 10
49.487971
 20
12.031814
 30
0.0
 11
49.487971
 21
11.905818
 31
0.0
  0
LINE
  5
85
330
1F
100
AcDbEntity
  8
DEFAULT
100
AcDbLine
 10
50.487971
 20
12.031814
 30
0.0
 11
50.487971
 21
11.905818
 31
0.0
  0
LINE
  5
86
330
1F
100
AcDbEntity
  8
DEFAULT
100
AcDbLine
 10
50.968205
 20
10.500677
 30
0.0
 11
50.968205
 21
11.595804
 31
0.0
  0
LINE
  5
87
330
1F
100
AcDbEntity
  8
DEFAULT
100
AcDbLine
 10
51.187971
 20
10.500677
 30
0.0
 11
49.987971
 21
10.500677
 31
0.0
  0
LINE
  5
88
330
1F
100
AcDbEntity
  8
DEFAULT
100
AcDbLine
 10
51.187971
 20
6.500677
 30
0.0
 11
51.187971
 21
10.500677
 31
0.0
  0
LINE
  5
89
330
1F
100
AcDbEntity
  8
DEFAULT
100
AcDbLine
 10
49.987971
 20
6.500677
 30
0.0
 11
51.187971
 21
6.500677
 31
0.0
  0
LINE
  5
8A
330
1F
100
AcDbEntity
  8
DEFAULT
100
AcDbLine
 10
50.596894
 20
11.905818
 30
0.0
 11
49.987971
 21
11.905818
 31
0.0
  0
LINE
  5
8B
330
1F
100
AcDbEntity
  8
DEFAULT
100
AcDbLine
 10
50.968205
 20
11.595804
 30
0.0
 11
50.596894
 21
11.905818
 31
0.0
  0
ARC
  5
8C
330
1F
100
AcDbEntity
  8
DEFAULT
100
AcDbCircle
 10
59.719114
 20
1.137386
 30
0.0
 40
0.93219
100
AcDbArc
 50
270.0
 51
0.0
  0
ARC
  5
8D
330
1F
100
AcDbEntity
  8
DEFAULT
100
AcDbCircle
 10
59.719114
 20
1.137386
 30
0.0
 40
0.93219
100
AcDbArc
 50
180.0
 51
270.0
  0
ARC
  5
8E
330
1F
100
AcDbEntity
  8
DEFAULT
100
AcDbCircle
 10
59.719114
 20
1.137386
 30
0.0
 40
0.93219
100
AcDbArc
 50
90.0
 51
180.0
  0
ARC
  5
8F
330
1F
100
AcDbEntity
  8
DEFAULT
100
AcDbCircle
 10
59.719114
 20
1.137386
 30
0.0
 40
0.93219
100
AcDbArc
 50
0.0
 51
90.0
  0
ARC
  5
90
330
1F
100
AcDbEntity
  8
DEFAULT
100
AcDbCircle
 10
59.719114
 20
1.137386
 30
0.0
 40
1.134758
100
AcDbArc
 50
270.0
 51
0.0
  0
ARC
  5
91
330
1F
100
AcDbEntity
  8
DEFAULT
100
AcDbCircle
 10
59.719114
 20
1.137386
 30
0.0
 40
1.134758
100
AcDbArc
 50
180.0
 51
270.0
  0
ARC
  5
92
330
1F
100
AcDbEntity
  8
DEFAULT
100
AcDbCircle
 10
59.719114
 20
1.137386
 30
0.0
 40
1.134758
100
AcDbArc
 50
90.0
 51
180.0
  0
ARC
  5
93
330
1F
100
AcDbEntity
  8
DEFAULT
100
AcDbCircle
 10
59.719114
 20
1.137386
 30
0.0
 40
1.134758
100
AcDbArc
 50
0.0
 51
90.0
  0
ARC
  5
94
330
1F
100
AcDbEntity
  8
DEFAULT
100
AcDbCircle
 10
59.719114
 20
1.137386
 30
0.0
 40
1.197644
100
AcDbArc
 50
32.53104299999992
 51
86.3925839999999
  0
ARC
  5
95
330
1F
100
AcDbEntity
  8
DEFAULT
100
AcDbCircle
 10
59.719114
 20
1.137386
 30
0.0
 40
1.197644
100
AcDbArc
 50
338.6695019999999
 51
32.53104299999991
  0
LINE
  5
96
330
1F
100
AcDbEntity
  8
DEFAULT
100
AcDbLine
 10
59.719114
 20
2.502628
 30
0.0
 11
61.291269
 21
2.502628
 31
0.0
  0
ARC
  5
97
330
1F
100
AcDbEntity
  8
DEFAULT
100
AcDbCircle
 10
60.698641
 20
1.207823
 30
0.0
 40
0.524052
100
AcDbArc
 50
285.049985
 51
357.0000000000001
  0
LINE
  5
98
330
1F
100
AcDbEntity
  8
DEFAULT
100
AcDbLine
 10
61.221974
 20
1.180396
 30
0.0
 11
61.291269
 21
2.502628
 31
0.0
  0
LINE
  5
99
330
1F
100
AcDbEntity
  8
DEFAULT
100
AcDbLine
 10
59.719114
 20
2.502628
 30
0.0
 11
59.794469
 21
2.332657
 31
0.0
  0
ARC
  5
9A
330
1F
100
AcDbEntity
  8
DEFAULT
100
AcDbCircle
 10
45.184672
 20
1.137386
 30
0.0
 40
0.93219
100
AcDbArc
 50
270.0
 51
0.0
  0
ARC
  5
9B
330
1F
100
AcDbEntity
  8
DEFAULT
100
AcDbCircle
 10
45.184672
 20
1.137386
 30
0.0
 40
0.93219
100
AcDbArc
 50
180.0
 51
270.0
  0
ARC
  5
9C
330
1F
100
AcDbEntity
  8
DEFAULT
100
AcDbCircle
 10
45.184672
 20
1.137386
 30
0.0
 40
0.93219
100
AcDbArc
 50
90.0
 51
180.0
  0
ARC
  5
9D
330
1F
100
AcDbEntity
  8
DEFAULT
100
AcDbCircle
 10
45.184672
 20
1.137386
 30
0.0
 40
0.93219
100
AcDbArc
 50
0.0
 51
90.0
  0
ARC
  5
9E
330
1F
100
AcDbEntity
  8
DEFAULT
100
AcDbCircle
 10
45.184672
 20
1.137386
 30
0.0
 40
1.134758
100
AcDbArc
 50
270.0
 51
0.0
  0
ARC
  5
9F
330
1F
100
AcDbEntity
  8
DEFAULT
100
AcDbCircle
 10
45.184672
 20
1.137386
 30
0.0
 40
1.134758
100
AcDbArc
 50
180.0
 51
270.0
  0
ARC
  5
A0
330
1F
100
AcDbEntity
  8
DEFAULT
100
AcDbCircle
 10
45.184672
 20
1.137386
 30
0.0
 40
1.134758
100
AcDbArc
 50
90.0
 51
180.0
  0
ARC
  5
A1
330
1F
100
AcDbEntity
  8
DEFAULT
100
AcDbCircle
 10
45.184672
 20
1.137386
 30
0.0
 40
1.134758
100
AcDbArc
 50
0.0
 51
90.0
  0
ARC
  5
A2
330
1F
100
AcDbEntity
  8
DEFAULT
100
AcDbCircle
 10
45.184672
 20
1.137386
 30
0.0
 40
1.197644
100
AcDbArc
 50
32.53104299999992
 51
86.3925839999999
  0
ARC
  5
A3
330
1F
100
AcDbEntity
  8
DEFAULT
100
AcDbCircle
 10
45.184672
 20
1.137386
 30
0.0
 40
1.197644
100
AcDbArc
 50
338.6695019999999
 51
32.53104299999991
  0
LINE
  5
A4
330
1F
100
AcDbEntity
  8
DEFAULT
100
AcDbLine
 10
45.184672
 20
2.502628
 30
0.0
 11
46.756828
 21
2.502628
 31
0.0
  0
ARC
  5
A5
330
1F
100
AcDbEntity
  8
DEFAULT
100
AcDbCircle
 10
46.164199
 20
1.207823
 30
0.0
 40
0.524052
100
AcDbArc
 50
285.049985
 51
357.0000000000001
  0
LINE
  5
A6
330
1F
100
AcDbEntity
  8
DEFAULT
100
AcDbLine
 10
46.687532
 20
1.180396
 30
0.0
 11
46.756828
 21
2.502628
 31
0.0
  0
LINE
  5
A7
330
1F
100
AcDbEntity
  8
DEFAULT
100
AcDbLine
 10
45.184672
 20
2.502628
 30
0.0
 11
45.260027
 21
2.332657
 31
0.0
  0
LINE
  5
A8
330
1F
100
AcDbEntity
  8
DEFAULT
100
AcDbLine
 10
36.201893
 20
2.502628
 30
0.0
 11
36.277248
 21
2.332657
 31
0.0
  0
LINE
  5
A9
330
1F
100
AcDbEntity
  8
DEFAULT
100
AcDbLine
 10
37.704753
 20
1.180396
 30
0.0
 11
37.774049
 21
2.502628
 31
0.0
  0
ARC
  5
AA
330
1F
100
AcDbEntity
  8
DEFAULT
100
AcDbCircle
 10
37.18142
 20
1.207823
 30
0.0
 40
0.524052
100
AcDbArc
 50
285.049985
 51
357.0000000000001
  0
LINE
  5
AB
330
1F
100
AcDbEntity
  8
DEFAULT
100
AcDbLine
 10
36.201893
 20
2.502628
 30
0.0
 11
37.774049
 21
2.502628
 31
0.0
  0
ARC
  5
AC
330
1F
100
AcDbEntity
  8
DEFAULT
100
AcDbCircle
 10
36.201893
 20
1.137386
 30
0.0
 40
1.197644
100
AcDbArc
 50
32.53104299999992
 51
86.3925839999999
  0
ARC
  5
AD
330
1F
100
AcDbEntity
  8
DEFAULT
100
AcDbCircle
 10
36.201893
 20
1.137386
 30
0.0
 40
1.197644
100
AcDbArc
 50
338.6695019999999
 51
32.53104299999991
  0
ARC
  5
AE
330
1F
100
AcDbEntity
  8
DEFAULT
100
AcDbCircle
 10
36.201893
 20
1.137386
 30
0.0
 40
1.134758
100
AcDbArc
 50
270.0
 51
0.0
  0
ARC
  5
AF
330
1F
100
AcDbEntity
  8
DEFAULT
100
AcDbCircle
 10
36.201893
 20
1.137386
 30
0.0
 40
1.134758
100
AcDbArc
 50
180.0
 51
270.0
  0
ARC
  5
B0
330
1F
100
AcDbEntity
  8
DEFAULT
100
AcDbCircle
 10
36.201893
 20
1.137386
 30
0.0
 40
1.134758
100
AcDbArc
 50
90.0
 51
180.0
  0
ARC
  5
B1
330
1F
100
AcDbEntity
  8
DEFAULT
100
AcDbCircle
 10
36.201893
 20
1.137386
 30
0.0
 40
1.134758
100
AcDbArc
 50
0.0
 51
90.0
  0
ARC
  5
B2
330
1F
100
AcDbEntity
  8
DEFAULT
100
AcDbCircle
 10
36.201893
 20
1.137386
 30
0.0
 40
0.93219
100
AcDbArc
 50
270.0
 51
0.0
  0
ARC
  5
B3
330
1F
100
AcDbEntity
  8
DEFAULT
100
AcDbCircle
 10
36.201893
 20
1.137386
 30
0.0
 40
0.93219
100
AcDbArc
 50
180.0
 51
270.0
  0
ARC
  5
B4
330
1F
100
AcDbEntity
  8
DEFAULT
100
AcDbCircle
 10
36.201893
 20
1.137386
 30
0.0
 40
0.93219
100
AcDbArc
 50
90.0
 51
180.0
  0
ARC
  5
B5
330
1F
100
AcDbEntity
  8
DEFAULT
100
AcDbCircle
 10
36.201893
 20
1.137386
 30
0.0
 40
0.93219
100
AcDbArc
 50
0.0
 51
90.0
  0
LINE
  5
B6
330
1F
100
AcDbEntity
  8
DEFAULT
100
AcDbLine
 10
60.979351
 20
20.965848
 30
0.0
 11
54.703733
 21
20.965848
 31
0.0
  0
ARC
  5
B7
330
1F
100
AcDbEntity
  8
DEFAULT
100
AcDbCircle
 10
60.979351
 20
18.465848
 30
0.0
 40
2.5
100
AcDbArc
 50
31.71747400000005
 51
90.0
  0
ARC
  5
B8
330
1F
100
AcDbEntity
  8
DEFAULT
100
AcDbCircle
 10
60.979351
 20
18.465848
 30
0.0
 40
2.5
100
AcDbArc
 50
333.434949
 51
31.7174739999999
  0
ARC
  5
B9
330
1F
100
AcDbEntity
  8
DEFAULT
100
AcDbCircle
 10
60.979351
 20
18.465848
 30
0.0
 40
2.5
100
AcDbArc
 50
275.152423
 51
333.434949
  0
ARC
  5
BA
330
1F
100
AcDbEntity
  8
DEFAULT
100
AcDbCircle
 10
60.979351
 20
18.465848
 30
0.0
 40
2.5
100
AcDbArc
 50
216.8698979999999
 51
275.152423
  0
LINE
  5
BB
330
1F
100
AcDbEntity
  8
DEFAULT
100
AcDbLine
 10
53.53293
 20
16.965848
 30
0.0
 11
58.979351
 21
16.965848
 31
0.0
  0
LINE
  5
BC
330
1F
100
AcDbEntity
  8
DEFAULT
100
AcDbLine
 10
43.94952
 20
16.965848
 30
0.0
 11
51.502349
 21
16.965848
 31
0.0
  0
ARC
  5
BD
330
1F
100
AcDbEntity
  8
DEFAULT
100
AcDbCircle
 10
43.94952
 20
17.215848
 30
0.0
 40
0.25
100
AcDbArc
 50
217.1567619999994
 51
270.0
  0
ARC
  5
BE
330
1F
100
AcDbEntity
  8
DEFAULT
100
AcDbCircle
 10
43.94952
 20
17.215848
 30
0.0
 40
0.25
100
AcDbArc
 50
164.3135229999997
 51
217.1567619999994
  0
LINE
  5
BF
330
1F
100
AcDbEntity
  8
DEFAULT
100
AcDbLine
 10
44.691745
 20
20.783441
 30
0.0
 11
43.708831
 21
17.283441
 31
0.0
  0
ARC
  5
C0
330
1F
100
AcDbEntity
  8
DEFAULT
100
AcDbCircle
 10
44.932434
 20
20.715848
 30
0.0
 40
0.25
100
AcDbArc
 50
90.0
 51
164.3135229999997
  0
LINE
  5
C1
330
1F
100
AcDbEntity
  8
DEFAULT
100
AcDbLine
 10
52.293307
 20
20.965848
 30
0.0
 11
44.932434
 21
20.965848
 31
0.0
  0
SPLINE
  5
C2
330
1F
100
AcDbEntity
  8
DEFAULT
100
AcDbSpline
210
0.0
220
0.0
230
1.0
 70
     8
 71
     3
 72
    10
 73
     6
 74
     0
 42
0.0000000001
 43
0.0000000001
 40
5.883940492309246
 40
5.883940492309246
 40
5.883940492309246
 40
5.883940492309246
 40
6.799683390693923
 40
7.799683390693923
 40
8.799683390693923
 40
8.799683390693923
 40
8.799683390693923
 40
8.799683390693923
 10
53.5656895348216
 20
17.06674868470499
 30
0.0
 10
53.82339855591077
 20
18.28996497438735
 30
0.0
 10
54.83144098811282
 20
21.51298995452996
 30
0.0
 10
55.70005542891188
 20
23.40463918115906
 30
0.0
 10
56.71884689793812
 20
25.03629674160418
 30
0.0
 10
57.76104750982923
 20
26.20519852994782
 30
0.0
  0
ARC
  5
C3
330
1F
100
AcDbEntity
  8
DEFAULT
100
AcDbCircle
 10
53.07643
 20
17.169827
 30
0.0
 40
0.5
100
AcDbArc
 50
276.2855750000001
 51
348.1028289999999
  0
ARC
  5
C4
330
1F
100
AcDbEntity
  8
DEFAULT
100
AcDbCircle
 10
52.811881
 20
19.571627
 30
0.0
 40
2.916326
100
AcDbArc
 50
242.314935
 51
276.285575
  0
ARC
  5
C5
330
1F
100
AcDbEntity
  8
DEFAULT
100
AcDbCircle
 10
51.689228
 20
17.431935
 30
0.0
 40
0.5
100
AcDbArc
 50
169.5488329999999
 51
242.3149349999999
  0
SPLINE
  5
C6
330
1F
100
AcDbEntity
  8
DEFAULT
100
AcDbSpline
210
0.0
220
0.0
230
1.0
 70
     8
 71
     3
 72
    10
 73
     6
 74
     0
 42
0.0000000001
 43
0.0000000001
 40
0.0
 40
0.0
 40
0.0
 40
0.0
 40
1.0
 40
2.0
 40
2.893124344385568
 40
2.893124344385568
 40
2.893124344385568
 40
2.893124344385568
 10
56.45432212558033
 20
27.01055666438759
 30
0.0
 10
55.03676593413631
 20
25.65137130222359
 30
0.0
 10
53.22554513103933
 20
22.91499454934325
 30
0.0
 10
52.05689263497155
 20
20.60282186895108
 30
0.0
 10
51.37390609225106
 20
18.47885608926592
 30
0.0
 10
51.19752354047473
 20
17.52263337338695
 30
0.0
  0
ARC
  5
C7
330
1F
100
AcDbEntity
  8
DEFAULT
100
AcDbCircle
 10
58.31682
 20
26.414886
 30
0.0
 40
0.5
100
AcDbArc
 50
232.9619399999999
 51
312.9412070000004
  0
SPLINE
  5
C8
330
1F
100
AcDbEntity
  8
DEFAULT
100
AcDbSpline
210
0.0
220
0.0
230
1.0
 70
     8
 71
     3
 72
    15
 73
    11
 74
     0
 42
0.0000000001
 43
0.0000000001
 40
15.0576188621947
 40
15.0576188621947
 40
15.0576188621947
 40
15.0576188621947
 40
15.26135735237836
 40
16.26135735237835
 40
17.26135735237835
 40
18.26135735237835
 40
19.26135735237835
 40
20.26135735237835
 40
21.26135735237835
 40
21.93330959840184
 40
21.93330959840184
 40
21.93330959840184
 40
21.93330959840184
 10
43.66271149790853
 20
27.52229386179589
 30
0.0
 10
43.62205723525187
 20
26.99037881854967
 30
0.0
 10
46.17676944516144
 20
26.04770290369394
 30
0.0
 10
48.44483444138517
 20
25.84757952167418
 30
0.0
 10
50.74537616495311
 20
26.05947152252912
 30
0.0
 10
52.65240417264761
 20
26.78595838260321
 30
0.0
 10
54.49889160866925
 20
27.24001267014952
 30
0.0
 10
55.83078418547176
 20
27.24001267014952
 30
0.0
 10
56.6935122732413
 20
26.97041014272153
 30
0.0
 10
57.62824267936672
 20
26.30810185898451
 30
0.0
 10
58.01564747237919
 20
26.01576773653527
 30
0.0
  0
LINE
  5
C9
330
1F
100
AcDbEntity
  8
DEFAULT
100
AcDbLine
 10
43.671018
 20
27.630977
 30
0.0
 11
43.662711
 21
27.522294
 31
0.0
  0
ARC
  5
CA
330
1F
100
AcDbEntity
  8
DEFAULT
100
AcDbCircle
 10
43.920291
 20
27.611925
 30
0.0
 40
0.25
100
AcDbArc
 50
130.2492369999997
 51
175.6293809999995
  0
ARC
  5
CB
330
1F
100
AcDbEntity
  8
DEFAULT
100
AcDbCircle
 10
43.920291
 20
27.611925
 30
0.0
 40
0.25
100
AcDbArc
 50
84.86909400000033
 51
130.249237000001
  0
SPLINE
  5
CC
330
1F
100
AcDbEntity
  8
DEFAULT
100
AcDbSpline
210
0.0
220
0.0
230
1.0
 70
     8
 71
     3
 72
    12
 73
     8
 74
     0
 42
0.0000000001
 43
0.0000000001
 40
10.4954844510601
 40
10.4954844510601
 40
10.4954844510601
 40
10.4954844510601
 40
11.4954844510601
 40
12.4954844510601
 40
13.4954844510601
 40
14.4954844510601
 40
14.64772615077241
 40
14.64772615077241
 40
14.64772615077241
 40
14.64772615077241
 10
58.58336810230206
 20
28.16995459261135
 30
0.0
 10
57.81751799553079
 20
28.78882105180215
 30
0.0
 10
56.88579859748577
 20
28.91141570943965
 30
0.0
 10
53.69833749891072
 20
28.54363173652714
 30
0.0
 10
49.53011913923562
 20
27.75902592764712
 30
0.0
 10
46.65411779504531
 20
27.62709926048244
 30
0.0
 10
44.25174828913175
 20
27.83316895627854
 30
0.0
 10
43.94264903881319
 20
27.86092339976583
 30
0.0
  0
ARC
  5
CD
330
1F
100
AcDbEntity
  8
DEFAULT
100
AcDbCircle
 10
57.7004
 20
27.077277
 30
0.0
 40
1.404841
100
AcDbArc
 50
2.000150000000031
 51
51.05909199999996
  0
ARC
  5
CE
330
1F
100
AcDbEntity
  8
DEFAULT
100
AcDbCircle
 10
57.7004
 20
27.077277
 30
0.0
 40
1.404841
100
AcDbArc
 50
312.941207
 51
2.000150000000041
  0
SPLINE
  5
CF
330
1F
100
AcDbEntity
  8
DEFAULT
100
AcDbSpline
210
0.0
220
0.0
230
1.0
 70
     8
 71
     3
 72
    16
 73
    12
 74
     0
 42
0.0000000001
 43
0.0000000001
 40
0.0
 40
0.0
 40
0.0
 40
0.0
 40
0.1046095727844
 40
0.203493889368
 40
0.3020105053538
 40
0.4024152042336
 40
0.5060597585786
 40
0.6149519922982
 40
0.7316177235484
 40
0.8590036138881
 40
1.0
 40
1.0
 40
1.0
 40
1.0
 10
51.34610922955757
 20
12.70827474751472
 30
0.0
 10
51.33724823083756
 20
12.74935905738173
 30
0.0
 10
51.30761721394757
 20
12.82735371827973
 30
0.0
 10
51.22973380860756
 20
12.92272522906473
 30
0.0
 10
51.13036085852757
 20
12.99163549082173
 30
0.0
 10
51.01684825831757
 20
13.03727353372173
 30
0.0
 10
50.89327305075756
 20
13.06309810805172
 30
0.0
 10
50.76090551215756
 20
13.07148777060773
 30
0.0
 10
50.61903577782756
 20
13.06330131664472
 30
0.0
 10
50.46618700671756
 20
13.03778936734373
 30
0.0
 10
50.36195513297756
 20
13.00936801922072
 30
0.0
 10
50.30805668212756
 20
12.99193328754072
 30
0.0
  0
LINE
  5
D0
330
1F
100
AcDbEntity
  8
DEFAULT
100
AcDbLine
 10
51.813868
 20
12.860259
 30
0.0
 11
51.772181
 21
12.713662
 31
0.0
  0
LINE
  5
D1
330
1F
100
AcDbEntity
  8
DEFAULT
100
AcDbLine
 10
56.446789
 20
15.847738
 30
0.0
 11
56.494215
 21
15.932168
 31
0.0
  0
LINE
  5
D2
330
1F
100
AcDbEntity
  8
DEFAULT
100
AcDbLine
 10
53.565856
 20
16.22881
 30
0.0
 11
53.586938
 21
15.856894
 31
0.0
  0
LINE
  5
D3
330
1F
100
AcDbEntity
  8
DEFAULT
100
AcDbLine
 10
53.586919
 20
15.856866
 30
0.0
 11
53.589637
 21
15.804928
 31
0.0
  0
ARC
  5
D4
330
1F
100
AcDbEntity
  8
DEFAULT
100
AcDbCircle
 10
54.270583
 20
10.655488
 30
0.0
 40
5.809745
100
AcDbArc
 50
73.055535
 51
96.33010800000001
  0
ARC
  5
D5
330
1F
100
AcDbEntity
  8
DEFAULT
100
AcDbCircle
 10
54.586374
 20
10.605002
 30
0.0
 40
5.774699
100
AcDbArc
 50
76.20031299999997
 51
97.66749499999997
  0
ARC
  5
D6
330
1F
100
AcDbEntity
  8
DEFAULT
100
AcDbCircle
 10
54.738695
 20
15.383231
 30
0.0
 40
1.145106
100
AcDbArc
 50
202.0031150000001
 51
225.2265729999999
  0
LINE
  5
D7
330
1F
100
AcDbEntity
  8
DEFAULT
100
AcDbLine
 10
53.649107
 20
15.035113
 30
0.0
 11
53.676994
 21
14.954209
 31
0.0
  0
ARC
  5
D8
330
1F
100
AcDbEntity
  8
DEFAULT
100
AcDbCircle
 10
53.373404
 20
15.357883
 30
0.0
 40
1.10036
100
AcDbArc
 50
314.9156649999999
 51
344.5347519999999
  0
LINE
  5
D9
330
1F
100
AcDbEntity
  8
DEFAULT
100
AcDbLine
 10
54.097762
 20
15.703367
 30
0.0
 11
54.120073
 21
15.698936
 31
0.0
  0
SPLINE
  5
DA
330
1F
100
AcDbEntity
  8
DEFAULT
100
AcDbSpline
210
0.0
220
0.0
230
1.0
 70
     8
 71
     3
 72
     9
 73
     5
 74
     0
 42
0.0000000001
 43
0.0000000001
 40
0.0
 40
0.0
 40
0.0
 40
0.0
 40
0.5152894318114
 40
1.0
 40
1.0
 40
1.0
 40
1.0
 10
54.09687716106757
 20
15.70452713283373
 30
0.0
 10
54.09523775020756
 20
15.70437868911373
 30
0.0
 10
54.09330722010756
 20
15.70409546001972
 30
0.0
 10
54.09601649857757
 20
15.70362449160772
 30
0.0
 10
54.09776169178755
 20
15.70336741615972
 30
0.0
  0
SPLINE
  5
DB
330
1F
100
AcDbEntity
  8
DEFAULT
100
AcDbSpline
210
0.0
220
0.0
230
1.0
 70
     8
 71
     3
 72
    26
 73
    22
 74
     0
 42
0.0000000001
 43
0.0000000001
 40
0.0
 40
0.0
 40
0.0
 40
0.0
 40
0.02178645695432
 40
0.05543916163839
 40
0.09014996324618
 40
0.1262452193504
 40
0.1642612412347
 40
0.2046009615285
 40
0.2475027514138
 40
0.2931787155352
 40
0.3418748605504
 40
0.3938364745579
 40
0.4491505813239
 40
0.5077316012309
 40
0.5695959348718
 40
0.6347879611201
 40
0.7033191873242
 40
0.7751632767017
 40
0.8502529837437
 40
0.9283948040111
 40
1.0
 40
1.0
 40
1.0
 40
1.0
 10
54.18871206406757
 20
15.69907020959973
 30
0.0
 10
54.20227180789757
 20
15.70284744626173
 30
0.0
 10
54.23648204878756
 20
15.71356490780673
 30
0.0
 10
54.29119913106757
 20
15.73350194704173
 30
0.0
 10
54.35413727850757
 20
15.75784204782972
 30
0.0
 10
54.41975902276756
 20
15.78305020164072
 30
0.0
 10
54.48917531990756
 20
15.80851099462173
 30
0.0
 10
54.56336157940757
 20
15.83368195252473
 30
0.0
 10
54.64304398931756
 20
15.85794779744173
 30
0.0
 10
54.72881021814757
 20
15.88056685793073
 30
0.0
 10
54.82111735820757
 20
15.90105928645873
 30
0.0
 10
54.92033894546756
 20
15.91875292036673
 30
0.0
 10
55.02660007505756
 20
15.93275839416773
 30
0.0
 10
55.13981118157756
 20
15.94201255518172
 30
0.0
 10
55.25974692239757
 20
15.94527732829573
 30
0.0
 10
55.38610849638756
 20
15.94158533072972
 30
0.0
 10
55.51846738377756
 20
15.92993205494872
 30
0.0
 10
55.65621998252757
 20
15.90942107835272
 30
0.0
 10
55.79854445387755
 20
15.87924946289773
 30
0.0
 10
55.93862460192756
 20
15.84058965622672
 30
0.0
 10
56.03041008526756
 20
15.80986103204773
 30
0.0
 10
56.07385232192757
 20
15.79396890528573
 30
0.0
  0
LINE
  5
DC
330
1F
100
AcDbEntity
  8
DEFAULT
100
AcDbLine
 10
56.228724
 20
15.756794
 30
0.0
 11
56.270352
 21
15.762735
 31
0.0
  0
LINE
  5
DD
330
1F
100
AcDbEntity
  8
DEFAULT
100
AcDbLine
 10
56.200049
 20
15.759186
 30
0.0
 11
56.228724
 21
15.756794
 31
0.0
  0
LINE
  5
DE
330
1F
100
AcDbEntity
  8
DEFAULT
100
AcDbLine
 10
56.080707
 20
15.791466
 30
0.0
 11
56.200049
 21
15.759186
 31
0.0
  0
LINE
  5
DF
330
1F
100
AcDbEntity
  8
DEFAULT
100
AcDbLine
 10
56.43225
 20
15.829438
 30
0.0
 11
56.445452
 21
15.845578
 31
0.0
  0
LINE
  5
E0
330
1F
100
AcDbEntity
  8
DEFAULT
100
AcDbLine
 10
56.406082
 20
15.812425
 30
0.0
 11
56.43225
 21
15.829438
 31
0.0
  0
LINE
  5
E1
330
1F
100
AcDbEntity
  8
DEFAULT
100
AcDbLine
 10
56.270363
 20
15.762739
 30
0.0
 11
56.395982
 21
15.808066
 31
0.0
  0
LINE
  5
E2
330
1F
100
AcDbEntity
  8
DEFAULT
100
AcDbLine
 10
56.237742
 20
15.854733
 30
0.0
 11
56.386801
 21
15.809623
 31
0.0
  0
LINE
  5
E3
330
1F
100
AcDbEntity
  8
DEFAULT
100
AcDbLine
 10
56.386801
 20
15.809622
 30
0.0
 11
56.336566
 21
15.816458
 31
0.0
  0
ARC
  5
E4
330
1F
100
AcDbEntity
  8
DEFAULT
100
AcDbCircle
 10
55.038972
 20
12.953404
 30
0.0
 40
3.139228
100
AcDbArc
 50
67.55057599999996
 51
109.4847209999999
  0
ARC
  5
E5
330
1F
100
AcDbEntity
  8
DEFAULT
100
AcDbCircle
 10
53.859792
 20
16.174423
 30
0.0
 40
0.293025
100
AcDbArc
 50
260.5763309999999
 51
296.7903379999996
  0
ARC
  5
E6
330
1F
100
AcDbEntity
  8
DEFAULT
100
AcDbCircle
 10
54.250721
 20
16.359959
 30
0.0
 40
0.66455
100
AcDbArc
 50
226.2918320000001
 51
252.0955910000002
  0
LINE
  5
E7
330
1F
100
AcDbEntity
  8
DEFAULT
100
AcDbLine
 10
54.126021
 20
15.697174
 30
0.0
 11
54.156416
 21
15.693712
 31
0.0
  0
LINE
  5
E8
330
1F
100
AcDbEntity
  8
DEFAULT
100
AcDbLine
 10
56.438927
 20
15.846167
 30
0.0
 11
56.387215
 21
15.809705
 31
0.0
  0
LINE
  5
E9
330
1F
100
AcDbEntity
  8
DEFAULT
100
AcDbLine
 10
56.501566
 20
15.952492
 30
0.0
 11
56.49152
 21
16.017544
 31
0.0
  0
LINE
  5
EA
330
1F
100
AcDbEntity
  8
DEFAULT
100
AcDbLine
 10
56.494092
 20
15.931995
 30
0.0
 11
56.501566
 21
15.952492
 31
0.0
  0
LINE
  5
EB
330
1F
100
AcDbEntity
  8
DEFAULT
100
AcDbLine
 10
56.481666
 20
16.03184
 30
0.0
 11
56.345214
 21
16.096933
 31
0.0
  0
LINE
  5
EC
330
1F
100
AcDbEntity
  8
DEFAULT
100
AcDbLine
 10
56.345217
 20
16.096929
 30
0.0
 11
56.045794
 21
16.191079
 31
0.0
  0
LINE
  5
ED
330
1F
100
AcDbEntity
  8
DEFAULT
100
AcDbLine
 10
53.575561
 20
16.287576
 30
0.0
 11
53.59187
 21
16.23981
 31
0.0
  0
LINE
  5
EE
330
1F
100
AcDbEntity
  8
DEFAULT
100
AcDbLine
 10
53.56609
 20
16.328762
 30
0.0
 11
53.575561
 21
16.287576
 31
0.0
  0
LINE
  5
EF
330
1F
100
AcDbEntity
  8
DEFAULT
100
AcDbLine
 10
53.562765
 20
16.309916
 30
0.0
 11
53.563686
 21
16.269939
 31
0.0
  0
ARC
  5
F0
330
1F
100
AcDbEntity
  8
DEFAULT
100
AcDbCircle
 10
53.646755
 20
16.343611
 30
0.0
 40
0.087785
100
AcDbArc
 50
148.5905700000005
 51
196.1937580000002
  0
ARC
  5
F1
330
1F
100
AcDbEntity
  8
DEFAULT
100
AcDbCircle
 10
53.646755
 20
16.343611
 30
0.0
 40
0.087785
100
AcDbArc
 50
100.9873819999977
 51
148.5905699999985
  0
LINE
  5
F2
330
1F
100
AcDbEntity
  8
DEFAULT
100
AcDbLine
 10
53.589685
 20
15.805094
 30
0.0
 11
53.631977
 21
15.114027
 31
0.0
  0
LINE
  5
F3
330
1F
100
AcDbEntity
  8
DEFAULT
100
AcDbLine
 10
53.589637
 20
15.804928
 30
0.0
 11
53.631898
 21
15.122893
 31
0.0
  0
LINE
  5
F4
330
1F
100
AcDbEntity
  8
DEFAULT
100
AcDbLine
 10
56.344633
 20
16.097101
 30
0.0
 11
56.045564
 21
16.191139
 31
0.0
  0
LINE
  5
F5
330
1F
100
AcDbEntity
  8
DEFAULT
100
AcDbLine
 10
54.433818
 20
15.064108
 30
0.0
 11
54.43868
 21
15.084557
 31
0.0
  0
LINE
  5
F6
330
1F
100
AcDbEntity
  8
DEFAULT
100
AcDbLine
 10
54.442422
 20
15.114443
 30
0.0
 11
54.479343
 21
15.804675
 31
0.0
  0
ARC
  5
F7
330
1F
100
AcDbEntity
  8
DEFAULT
100
AcDbCircle
 10
56.227081
 20
16.115431
 30
0.0
 40
0.355494
100
AcDbArc
 50
245.6854389999998
 51
276.8736880000002
  0
LINE
  5
F8
330
1F
100
AcDbEntity
  8
DEFAULT
100
AcDbLine
 10
56.430506
 20
15.827842
 30
0.0
 11
56.445452
 21
15.845579
 31
0.0
  0
LINE
  5
F9
330
1F
100
AcDbEntity
  8
DEFAULT
100
AcDbLine
 10
56.406082
 20
15.812425
 30
0.0
 11
56.430506
 21
15.827842
 31
0.0
  0
LINE
  5
FA
330
1F
100
AcDbEntity
  8
DEFAULT
100
AcDbLine
 10
56.322865
 20
15.780906
 30
0.0
 11
56.396868
 21
15.808432
 31
0.0
  0
LINE
  5
FB
330
1F
100
AcDbEntity
  8
DEFAULT
100
AcDbLine
 10
56.293236
 20
15.770578
 30
0.0
 11
56.322865
 21
15.780906
 31
0.0
  0
LINE
  5
FC
330
1F
100
AcDbEntity
  8
DEFAULT
100
AcDbLine
 10
56.270363
 20
15.762739
 30
0.0
 11
56.293236
 21
15.770578
 31
0.0
  0
ARC
  5
FD
330
1F
100
AcDbEntity
  8
DEFAULT
100
AcDbCircle
 10
56.414093
 20
15.972397
 30
0.0
 40
0.08963
100
AcDbArc
 50
333.2202339999992
 51
30.2461229999984
  0
LINE
  5
FE
330
1F
100
AcDbEntity
  8
DEFAULT
100
AcDbLine
 10
53.596695
 20
15.669238
 30
0.0
 11
53.619888
 21
15.286706
 31
0.0
  0
LINE
  5
FF
330
1F
100
AcDbEntity
  8
DEFAULT
100
AcDbLine
 10
54.468599
 20
15.601813
 30
0.0
 11
54.479344
 21
15.804675
 31
0.0
  0
ARC
  5
100
330
1F
100
AcDbEntity
  8
DEFAULT
100
AcDbCircle
 10
55.452458
 20
15.548181
 30
0.0
 40
0.3937
100
AcDbArc
 50
184.9999670000001
 51
256.0209719999996
  0
ARC
  5
101
330
1F
100
AcDbEntity
  8
DEFAULT
100
AcDbCircle
 10
57.121909
 20
15.548181
 30
0.0
 40
0.393701
100
AcDbArc
 50
283.9790279999996
 51
319.2447529999997
  0
ARC
  5
102
330
1F
100
AcDbEntity
  8
DEFAULT
100
AcDbCircle
 10
51.240962
 20
16.653162
 30
0.0
 40
0.492126
100
AcDbArc
 50
265.0000139999999
 51
343.5704669999996
  0
ARC
  5
103
330
1F
100
AcDbEntity
  8
DEFAULT
100
AcDbCircle
 10
51.240962
 20
16.653162
 30
0.0
 40
0.492126
100
AcDbArc
 50
186.429561
 51
265.0000139999999
  0
ARC
  5
104
330
1F
100
AcDbEntity
  8
DEFAULT
100
AcDbCircle
 10
56.280141
 20
16.697138
 30
0.0
 40
1.574804
100
AcDbArc
 50
219.7897610000001
 51
308.486142
  0
ARC
  5
105
330
1F
100
AcDbEntity
  8
DEFAULT
100
AcDbCircle
 10
56.287184
 20
15.890082
 30
0.0
 40
0.472441
100
AcDbArc
 50
57.60176799999955
 51
136.1236359999991
  0
ARC
  5
106
330
1F
100
AcDbEntity
  8
DEFAULT
100
AcDbCircle
 10
56.287184
 20
15.890082
 30
0.0
 40
0.472441
100
AcDbArc
 50
339.0799009999998
 51
57.60176799999955
  0
ARC
  5
107
330
1F
100
AcDbEntity
  8
DEFAULT
100
AcDbCircle
 10
56.287184
 20
15.890082
 30
0.0
 40
0.472441
100
AcDbArc
 50
260.5580339999996
 51
339.0799009999994
  0
ARC
  5
108
330
1F
100
AcDbEntity
  8
DEFAULT
100
AcDbCircle
 10
56.287184
 20
15.890082
 30
0.0
 40
0.472441
100
AcDbArc
 50
182.0361670000001
 51
260.5580339999996
  0
ARC
  5
109
330
1F
100
AcDbEntity
  8
DEFAULT
100
AcDbCircle
 10
51.240962
 20
16.653162
 30
0.0
 40
0.19685
100
AcDbArc
 50
270.0
 51
0.0
  0
ARC
  5
10A
330
1F
100
AcDbEntity
  8
DEFAULT
100
AcDbCircle
 10
51.240962
 20
16.653162
 30
0.0
 40
0.19685
100
AcDbArc
 50
180.0
 51
270.0
  0
ARC
  5
10B
330
1F
100
AcDbEntity
  8
DEFAULT
100
AcDbCircle
 10
51.240962
 20
16.653162
 30
0.0
 40
0.19685
100
AcDbArc
 50
90.0
 51
180.0
  0
ARC
  5
10C
330
1F
100
AcDbEntity
  8
DEFAULT
100
AcDbCircle
 10
51.240962
 20
16.653162
 30
0.0
 40
0.19685
100
AcDbArc
 50
0.0
 51
90.0
  0
ARC
  5
10D
330
1F
100
AcDbEntity
  8
DEFAULT
100
AcDbCircle
 10
56.287184
 20
15.890082
 30
0.0
 40
0.329724
100
AcDbArc
 50
48.7092429999993
 51
121.5390159999994
  0
ARC
  5
10E
330
1F
100
AcDbEntity
  8
DEFAULT
100
AcDbCircle
 10
56.287184
 20
15.890082
 30
0.0
 40
0.329724
100
AcDbArc
 50
335.8794700000004
 51
48.70924300000064
  0
ARC
  5
10F
330
1F
100
AcDbEntity
  8
DEFAULT
100
AcDbCircle
 10
56.287184
 20
15.890082
 30
0.0
 40
0.329724
100
AcDbArc
 50
263.0496960000006
 51
335.8794700000007
  0
ARC
  5
110
330
1F
100
AcDbEntity
  8
DEFAULT
100
AcDbCircle
 10
56.287184
 20
15.890082
 30
0.0
 40
0.329724
100
AcDbArc
 50
190.219923
 51
263.0496959999994
  0
LINE
  5
111
330
1F
100
AcDbEntity
  8
DEFAULT
100
AcDbLine
 10
51.801913
 20
16.227965
 30
0.0
 11
51.771591
 21
16.213707
 31
0.0
  0
LINE
  5
112
330
1F
100
AcDbEntity
  8
DEFAULT
100
AcDbLine
 10
50.710333
 20
16.213706
 30
0.0
 11
50.680011
 21
16.227965
 31
0.0
  0
ARC
  5
113
330
1F
100
AcDbEntity
  8
DEFAULT
100
AcDbCircle
 10
51.240962
 20
16.653162
 30
0.0
 40
0.688977
100
AcDbArc
 50
270.0000269999999
 51
320.3691990000002
  0
ARC
  5
114
330
1F
100
AcDbEntity
  8
DEFAULT
100
AcDbCircle
 10
51.240962
 20
16.653162
 30
0.0
 40
0.688977
100
AcDbArc
 50
219.6308539999997
 51
270.0000269999999
  0
ARC
  5
115
330
1F
100
AcDbEntity
  8
DEFAULT
100
AcDbCircle
 10
45.237025
 20
16.588568
 30
0.0
 40
0.19685
100
AcDbArc
 50
94.2686040000005
 51
180.0
  0
LINE
  5
116
330
1F
100
AcDbEntity
  8
DEFAULT
100
AcDbLine
 10
54.118939
 20
14.547402
 30
0.0
 11
54.159161
 21
14.587889
 31
0.0
  0
ARC
  5
117
330
1F
100
AcDbEntity
  8
DEFAULT
100
AcDbCircle
 10
54.037184
 20
14.632643
 30
0.0
 40
0.11811
100
AcDbArc
 50
226.1955109999982
 51
313.8041390000008
  0
LINE
  5
118
330
1F
100
AcDbEntity
  8
DEFAULT
100
AcDbLine
 10
53.913529
 20
14.589665
 30
0.0
 11
53.955428
 21
14.547402
 31
0.0
  0
ARC
  5
119
330
1F
100
AcDbEntity
  8
DEFAULT
100
AcDbCircle
 10
54.287531
 20
13.253488
 30
0.0
 40
2.168635
100
AcDbArc
 50
262.664221
 51
313.33575
  0
ARC
  5
11A
330
1F
100
AcDbEntity
  8
DEFAULT
100
AcDbCircle
 10
41.029843
 20
9.472748
 30
0.0
 40
14.96063
100
AcDbArc
 50
8.872691999999997
 51
16.97275
  0
ARC
  5
11B
330
1F
100
AcDbEntity
  8
DEFAULT
100
AcDbCircle
 10
67.235488
 20
17.987479
 30
0.0
 40
14.96063
100
AcDbArc
 50
199.027255
 51
207.127314
  0
ARC
  5
11C
330
1F
100
AcDbEntity
  8
DEFAULT
100
AcDbCircle
 10
55.69475
 20
11.76205
 30
0.0
 40
0.11811
100
AcDbArc
 50
313.3354239999999
 51
8.873109999999715
  0
ARC
  5
11D
330
1F
100
AcDbEntity
  8
DEFAULT
100
AcDbCircle
 10
54.025712
 20
11.219747
 30
0.0
 40
0.118111
100
AcDbArc
 50
207.1273799999988
 51
262.6641490000016
  0
ARC
  5
11E
330
1F
100
AcDbEntity
  8
DEFAULT
100
AcDbCircle
 10
57.67301
 20
15.685633
 30
0.0
 40
0.46875
100
AcDbArc
 50
270.0
 51
0.0
  0
ARC
  5
11F
330
1F
100
AcDbEntity
  8
DEFAULT
100
AcDbCircle
 10
57.67301
 20
15.685633
 30
0.0
 40
0.46875
100
AcDbArc
 50
180.0
 51
270.0
  0
ARC
  5
120
330
1F
100
AcDbEntity
  8
DEFAULT
100
AcDbCircle
 10
57.67301
 20
15.685633
 30
0.0
 40
0.46875
100
AcDbArc
 50
90.0
 51
180.0
  0
ARC
  5
121
330
1F
100
AcDbEntity
  8
DEFAULT
100
AcDbCircle
 10
57.67301
 20
15.685633
 30
0.0
 40
0.46875
100
AcDbArc
 50
0.0
 51
90.0
  0
LINE
  5
122
330
1F
100
AcDbEntity
  8
DEFAULT
100
AcDbLine
 10
58.452538
 20
15.648871
 30
0.0
 11
58.452538
 21
16.638113
 31
0.0
  0
LINE
  5
123
330
1F
100
AcDbEntity
  8
DEFAULT
100
AcDbLine
 10
56.050264
 20
14.071162
 30
0.0
 11
55.973409
 21
14.307697
 31
0.0
  0
LINE
  5
124
330
1F
100
AcDbEntity
  8
DEFAULT
100
AcDbLine
 10
55.070065
 20
15.689307
 30
0.0
 11
54.981377
 21
15.926513
 31
0.0
  0
LINE
  5
125
330
1F
100
AcDbEntity
  8
DEFAULT
100
AcDbLine
 10
55.060256
 20
15.513868
 30
0.0
 11
55.037221
 21
15.777152
 31
0.0
  0
LINE
  5
126
330
1F
100
AcDbEntity
  8
DEFAULT
100
AcDbLine
 10
56.045564
 20
16.191136
 30
0.0
 11
55.963803
 21
16.213018
 31
0.0
  0
LINE
  5
127
330
1F
100
AcDbEntity
  8
DEFAULT
100
AcDbLine
 10
50.751932
 20
16.598053
 30
0.0
 11
48.995923
 21
16.751684
 31
0.0
  0
LINE
  5
128
330
1F
100
AcDbEntity
  8
DEFAULT
100
AcDbLine
 10
53.562032
 20
16.352201
 30
0.0
 11
51.712994
 21
16.513971
 31
0.0
  0
LINE
  5
129
330
1F
100
AcDbEntity
  8
DEFAULT
100
AcDbLine
 10
57.836078
 20
16.638113
 30
0.0
 11
58.452538
 21
16.638113
 31
0.0
  0
LINE
  5
12A
330
1F
100
AcDbEntity
  8
DEFAULT
100
AcDbLine
 10
53.955428
 20
14.547402
 30
0.0
 11
53.93219
 21
14.570314
 31
0.0
  0
LINE
  5
12B
330
1F
100
AcDbEntity
  8
DEFAULT
100
AcDbLine
 10
56.287184
 20
14.934669
 30
0.0
 11
55.357353
 21
15.16614
 31
0.0
  0
LINE
  5
12C
330
1F
100
AcDbEntity
  8
DEFAULT
100
AcDbLine
 10
51.801913
 20
16.227965
 30
0.0
 11
53.565861
 21
16.227965
 31
0.0
  0
LINE
  5
12D
330
1F
100
AcDbEntity
  8
DEFAULT
100
AcDbLine
 10
45.040175
 20
16.227965
 30
0.0
 11
50.680011
 21
16.227965
 31
0.0
  0
LINE
  5
12E
330
1F
100
AcDbEntity
  8
DEFAULT
100
AcDbLine
 10
51.781742
 20
12.684235
 30
0.0
 11
56.050264
 21
14.071162
 31
0.0
  0
LINE
  5
12F
330
1F
100
AcDbEntity
  8
DEFAULT
100
AcDbLine
 10
57.649222
 20
15.217662
 30
0.0
 11
55.53356
 21
14.068859
 31
0.0
  0
LINE
  5
130
330
1F
100
AcDbEntity
  8
DEFAULT
100
AcDbLine
 10
58.452533
 20
15.653859
 30
0.0
 11
58.078726
 21
15.450882
 31
0.0
  0
LINE
  5
131
330
1F
100
AcDbEntity
  8
DEFAULT
100
AcDbLine
 10
55.53356
 20
14.068859
 30
0.0
 11
51.34611
 21
12.708274
 31
0.0
  0
LINE
  5
132
330
1F
100
AcDbEntity
  8
DEFAULT
100
AcDbLine
 10
54.150331
 20
14.578661
 30
0.0
 11
54.118939
 21
14.547402
 31
0.0
  0
LINE
  5
133
330
1F
100
AcDbEntity
  8
DEFAULT
100
AcDbLine
 10
51.772181
 20
12.713662
 30
0.0
 11
51.090333
 21
12.031814
 31
0.0
  0
LINE
  5
134
330
1F
100
AcDbEntity
  8
DEFAULT
100
AcDbLine
 10
56.287184
 20
14.934669
 30
0.0
 11
48.509786
 21
12.407638
 31
0.0
  0
LINE
  5
135
330
1F
100
AcDbEntity
  8
DEFAULT
100
AcDbLine
 10
52.103281
 20
12.78871
 30
0.0
 11
52.054617
 21
12.938482
 31
0.0
  0
LINE
  5
136
330
1F
100
AcDbEntity
  8
DEFAULT
100
AcDbLine
 10
54.468606
 20
15.601812
 30
0.0
 11
55.025529
 21
15.808423
 31
0.0
  0
LINE
  5
137
330
1F
100
AcDbEntity
  8
DEFAULT
100
AcDbLine
 10
48.232154
 20
13.288169
 30
0.0
 11
53.619169
 21
15.286682
 31
0.0
  0
LINE
  5
138
330
1F
100
AcDbEntity
  8
DEFAULT
100
AcDbLine
 10
51.781742
 20
12.684235
 30
0.0
 11
51.772181
 21
12.713662
 31
0.0
  0
LINE
  5
139
330
1F
100
AcDbEntity
  8
DEFAULT
100
AcDbLine
 10
57.217014
 20
15.16614
 30
0.0
 11
56.287184
 21
14.934669
 31
0.0
  0
LINE
  5
13A
330
1F
100
AcDbEntity
  8
DEFAULT
100
AcDbLine
 10
48.885609
 20
12.031814
 30
0.0
 11
51.090333
 21
12.031814
 31
0.0
  0
LINE
  5
13B
330
1F
100
AcDbEntity
  8
DEFAULT
100
AcDbLine
 10
48.509784
 20
12.407639
 30
0.0
 11
48.232154
 21
13.288169
 31
0.0
  0
LINE
  5
13C
330
1F
100
AcDbEntity
  8
DEFAULT
100
AcDbLine
 10
48.509786
 20
12.407638
 30
0.0
 11
48.885609
 21
12.031814
 31
0.0
  0
LINE
  5
13D
330
1F
100
AcDbEntity
  8
DEFAULT
100
AcDbLine
 10
45.040175
 20
16.227965
 30
0.0
 11
45.040175
 21
16.588568
 31
0.0
  0
LINE
  5
13E
330
1F
100
AcDbEntity
  8
DEFAULT
100
AcDbLine
 10
48.995923
 20
16.751684
 30
0.0
 11
48.995191
 21
16.835471
 31
0.0
  0
LINE
  5
13F
330
1F
100
AcDbEntity
  8
DEFAULT
100
AcDbLine
 10
45.222373
 20
16.784872
 30
0.0
 11
45.584585
 21
16.811909
 31
0.0
  0
LINE
  5
140
330
1F
100
AcDbEntity
  8
DEFAULT
100
AcDbLine
 10
57.923666
 20
16.885456
 30
0.0
 11
57.664683
 21
16.154111
 31
0.0
  0
SPLINE
  5
141
330
1F
100
AcDbEntity
  8
DEFAULT
100
AcDbSpline
210
0.0
220
0.0
230
1.0
 70
     8
 71
     3
 72
     9
 73
     5
 74
     0
 42
0.0000000001
 43
0.0000000001
 40
0.0
 40
0.0
 40
0.0
 40
0.0
 40
1.0
 40
2.0
 40
2.0
 40
2.0
 40
2.0
 10
46.38897067834289
 20
27.70691195778257
 30
0.0
 10
46.50038580863701
 20
29.79609517484855
 30
0.0
 10
45.83837465739445
 20
33.0080752049513
 30
0.0
 10
44.39175769727184
 20
37.0291799754616
 30
0.0
 10
42.18532476538076
 20
40.29471319676119
 30
0.0
  0
ARC
  5
142
330
1F
100
AcDbEntity
  8
DEFAULT
100
AcDbCircle
 10
40.992392
 20
17.883347
 30
0.0
 40
0.25
100
AcDbArc
 50
171.1079530000004
 51
255.9037390000017
  0
LINE
  5
143
330
1F
100
AcDbEntity
  8
DEFAULT
100
AcDbLine
 10
40.931504
 20
17.640875
 30
0.0
 11
43.383806
 21
17.025069
 31
0.0
  0
ARC
  5
144
330
1F
100
AcDbEntity
  8
DEFAULT
100
AcDbCircle
 10
43.444694
 20
17.267541
 30
0.0
 40
0.25
100
AcDbArc
 50
255.9037390000001
 51
344.3135230000005
  0
LINE
  5
145
330
1F
100
AcDbEntity
  8
DEFAULT
100
AcDbLine
 10
43.685383
 20
17.199948
 30
0.0
 11
44.742971
 21
20.965848
 31
0.0
  0
SPLINE
  5
146
330
1F
100
AcDbEntity
  8
DEFAULT
100
AcDbSpline
210
0.0
220
0.0
230
1.0
 70
     8
 71
     3
 72
     8
 73
     4
 74
     0
 42
0.0000000001
 43
0.0000000001
 40
0.0
 40
0.0
 40
0.0
 40
0.0
 40
0.5743987685088291
 40
0.5743987685088291
 40
0.5743987685088291
 40
0.5743987685088291
 10
44.74297097433738
 20
20.96584791787089
 30
0.0
 10
45.57490075504022
 20
23.61498591086887
 30
0.0
 10
45.98697315917725
 20
25.14847675776899
 30
0.0
 10
46.19259015122928
 20
26.18382538510316
 30
0.0
  0
ARC
  5
147
330
1F
100
AcDbEntity
  8
DEFAULT
100
AcDbCircle
 10
39.63599
 20
37.778515
 30
0.0
 40
1.285504
100
AcDbArc
 50
246.355442
 51
273.6465989999999
  0
ARC
  5
148
330
1F
100
AcDbEntity
  8
DEFAULT
100
AcDbCircle
 10
40.121909
 20
38.888386
 30
0.0
 40
2.497086
100
AcDbArc
 50
193.335707
 51
246.3554419999999
  0
ARC
  5
149
330
1F
100
AcDbEntity
  8
DEFAULT
100
AcDbCircle
 10
40.121909
 20
38.888386
 30
0.0
 40
2.497086
100
AcDbArc
 50
140.315972
 51
193.335707
  0
ARC
  5
14A
330
1F
100
AcDbEntity
  8
DEFAULT
100
AcDbCircle
 10
40.121909
 20
38.888386
 30
0.0
 40
2.497086
100
AcDbArc
 50
87.29623699999999
 51
140.315972
  0
ARC
  5
14B
330
1F
100
AcDbEntity
  8
DEFAULT
100
AcDbCircle
 10
40.121909
 20
38.888386
 30
0.0
 40
2.497086
100
AcDbArc
 50
34.27650200000002
 51
87.29623700000015
  0
SPLINE
  5
14C
330
1F
100
AcDbEntity
  8
DEFAULT
100
AcDbSpline
210
0.0
220
0.0
230
1.0
 70
     8
 71
     3
 72
     9
 73
     5
 74
     0
 42
0.0000000001
 43
0.0000000001
 40
0.0
 40
0.0
 40
0.0
 40
0.0
 40
1.0
 40
2.0
 40
2.0
 40
2.0
 40
2.0
 10
40.74539638173322
 20
17.92198994593643
 30
0.0
 10
41.7526239166836
 20
24.6720076309625
 30
0.0
 10
41.89326313441366
 20
28.68022533626939
 30
0.0
 10
40.90878861030319
 20
33.46195873909165
 30
0.0
 10
39.71775119283532
 20
36.49561362634823
 30
0.0
  0
LINE
  5
14D
330
1F
100
AcDbEntity
  8
DEFAULT
100
AcDbLine
 10
17.234324
 20
15.965848
 30
0.0
 11
16.867918
 21
15.707164
 31
0.0
  0
LINE
  5
14E
330
1F
100
AcDbEntity
  8
DEFAULT
100
AcDbLine
 10
17.24541
 20
15.965848
 30
0.0
 11
16.869217
 21
15.705284
 31
0.0
  0
ARC
  5
14F
330
1F
100
AcDbEntity
  8
DEFAULT
100
AcDbCircle
 10
6.71278
 20
16.089671
 30
0.0
 40
0.46875
100
AcDbArc
 50
241.6234340000001
 51
287.9300200000001
  0
ARC
  5
150
330
1F
100
AcDbEntity
  8
DEFAULT
100
AcDbCircle
 10
6.71278
 20
16.089671
 30
0.0
 40
0.46875
100
AcDbArc
 50
195.3168479999999
 51
241.623434
  0
LINE
  5
151
330
1F
100
AcDbEntity
  8
DEFAULT
100
AcDbLine
 10
7.46278
 20
15.839671
 30
0.0
 11
7.46278
 21
15.965848
 31
0.0
  0
LINE
  5
152
330
1F
100
AcDbEntity
  8
DEFAULT
100
AcDbLine
 10
10.015929
 20
15.338707
 30
0.0
 11
10.015929
 21
15.965848
 31
0.0
  0
LINE
  5
153
330
1F
100
AcDbEntity
  8
DEFAULT
100
AcDbLine
 10
16.797425
 20
15.526374
 30
0.0
 11
16.797425
 21
15.965848
 31
0.0
  0
LINE
  5
154
330
1F
100
AcDbEntity
  8
DEFAULT
100
AcDbLine
 10
16.649788
 20
15.526374
 30
0.0
 11
16.649788
 21
15.965848
 31
0.0
  0
LINE
  5
155
330
1F
100
AcDbEntity
  8
DEFAULT
100
AcDbLine
 10
16.630103
 20
15.338707
 30
0.0
 11
16.630103
 21
15.965848
 31
0.0
  0
ARC
  5
156
330
1F
100
AcDbEntity
  8
DEFAULT
100
AcDbCircle
 10
13.323016
 20
-5.401866
 30
0.0
 40
21.459767
100
AcDbArc
 50
95.308841
 51
98.645671
  0
ARC
  5
157
330
1F
100
AcDbEntity
  8
DEFAULT
100
AcDbCircle
 10
13.323016
 20
-5.401866
 30
0.0
 40
21.459767
100
AcDbArc
 50
81.354329
 51
84.69115900000001
  0
ARC
  5
158
330
1F
100
AcDbEntity
  8
DEFAULT
100
AcDbCircle
 10
16.624587
 20
15.702216
 30
0.0
 40
0.135027
100
AcDbArc
 50
87.6587589999998
 51
124.0812639999999
  0
ARC
  5
159
330
1F
100
AcDbEntity
  8
DEFAULT
100
AcDbCircle
 10
9.60476
 20
15.053352
 30
0.0
 40
0.798145
100
AcDbArc
 50
40.35586399999996
 51
58.99210099999998
  0
SPLINE
  5
15A
330
1F
100
AcDbEntity
  8
DEFAULT
100
AcDbSpline
210
0.0
220
0.0
230
1.0
 70
     8
 71
     3
 72
    16
 73
    12
 74
     0
 42
0.0000000001
 43
0.0000000001
 40
0.0
 40
0.0
 40
0.0
 40
0.0
 40
0.159911413108
 40
0.3829279516347
 40
0.5633434502925
 40
0.7024102460688
 40
0.8045578086353
 40
0.8752284969232
 40
0.9196804783738
 40
0.950922273791
 40
1.0
 40
1.0
 40
1.0
 40
1.0
 10
12.08758680152175
 20
13.15973380500325
 30
0.0
 10
12.04340762799676
 20
13.18357553570525
 30
0.0
 10
11.93708794317675
 20
13.23969113704025
 30
0.0
 10
11.77861733145076
 20
13.31813875600225
 30
0.0
 10
11.62290987538376
 20
13.38764492736525
 30
0.0
 10
11.49962435096775
 20
13.43489250668826
 30
0.0
 10
11.40492070336876
 20
13.46368814036125
 30
0.0
 10
11.33914294444576
 20
13.47376503119725
 30
0.0
 10
11.28897257278875
 20
13.47308869685725
 30
0.0
 10
11.26462798089776
 20
13.43503344185425
 30
0.0
 10
11.27834601680776
 20
13.40960265311025
 30
0.0
 10
11.28552441514776
 20
13.39597119534326
 30
0.0
  0
LINE
  5
15B
330
1F
100
AcDbEntity
  8
DEFAULT
100
AcDbLine
 10
12.174248
 20
13.112313
 30
0.0
 11
12.087587
 21
13.159734
 31
0.0
  0
LINE
  5
15C
330
1F
100
AcDbEntity
  8
DEFAULT
100
AcDbLine
 10
14.558445
 20
13.159734
 30
0.0
 11
14.471784
 21
13.112313
 31
0.0
  0
SPLINE
  5
15D
330
1F
100
AcDbEntity
  8
DEFAULT
100
AcDbSpline
210
0.0
220
0.0
230
1.0
 70
     8
 71
     3
 72
    16
 73
    12
 74
     0
 42
0.0000000001
 43
0.0000000001
 40
0.0
 40
0.0
 40
0.0
 40
0.0
 40
0.04908139450617
 40
0.08034089603321
 40
0.124826527752
 40
0.1955205185391
 40
0.2976803761667
 40
0.4367466031031
 40
0.6171147575657
 40
0.8400812200043
 40
1.0
 40
1.0
 40
1.0
 40
1.0
 10
15.36050787863376
 20
13.39597142459225
 30
0.0
 10
15.36768677769276
 20
13.40960387639026
 30
0.0
 10
15.38141106511375
 20
13.43504461258725
 30
0.0
 10
15.35703242092475
 20
13.47310635745325
 30
0.0
 10
15.30683841401475
 20
13.47375838307926
 30
0.0
 10
15.24104084454575
 20
13.46367197804525
 30
0.0
 10
15.14632966466876
 20
13.43486437832425
 30
0.0
 10
15.02305649797076
 20
13.38761688568525
 30
0.0
 10
14.86737876329176
 20
13.31812088463626
 30
0.0
 10
14.70893403034276
 20
13.23968574182825
 30
0.0
 10
14.60262644921176
 20
13.18357657588326
 30
0.0
 10
14.55844535262375
 20
13.15973380252225
 30
0.0
  0
ARC
  5
15E
330
1F
100
AcDbEntity
  8
DEFAULT
100
AcDbCircle
 10
17.041272
 20
15.053352
 30
0.0
 40
0.798145
100
AcDbArc
 50
121.007899
 51
139.644136
  0
ARC
  5
15F
330
1F
100
AcDbEntity
  8
DEFAULT
100
AcDbCircle
 10
10.021445
 20
15.702216
 30
0.0
 40
0.135027
100
AcDbArc
 50
55.91873600000012
 51
92.34124100000024
  0
LINE
  5
160
330
1F
100
AcDbEntity
  8
DEFAULT
100
AcDbLine
 10
14.672644
 20
13.987008
 30
0.0
 11
14.495296
 21
13.923077
 31
0.0
  0
LINE
  5
161
330
1F
100
AcDbEntity
  8
DEFAULT
100
AcDbLine
 10
12.150736
 20
13.923077
 30
0.0
 11
12.033997
 21
13.96327
 31
0.0
  0
LINE
  5
162
330
1F
100
AcDbEntity
  8
DEFAULT
100
AcDbLine
 10
12.172886
 20
13.180635
 30
0.0
 11
12.10525
 21
13.192748
 31
0.0
  0
LINE
  5
163
330
1F
100
AcDbEntity
  8
DEFAULT
100
AcDbLine
 10
14.540782
 20
13.192748
 30
0.0
 11
14.473145
 21
13.180635
 31
0.0
  0
LINE
  5
164
330
1F
100
AcDbEntity
  8
DEFAULT
100
AcDbLine
 10
15.281657
 20
13.292128
 30
0.0
 11
15.360118
 21
13.395239
 31
0.0
  0
LINE
  5
165
330
1F
100
AcDbEntity
  8
DEFAULT
100
AcDbLine
 10
11.285914
 20
13.395238
 30
0.0
 11
11.364374
 21
13.292129
 31
0.0
  0
SPLINE
  5
166
330
1F
100
AcDbEntity
  8
DEFAULT
100
AcDbSpline
210
0.0
220
0.0
230
1.0
 70
     8
 71
     3
 72
    11
 73
     7
 74
     0
 42
0.0000000001
 43
0.0000000001
 40
0.0
 40
0.0
 40
0.0
 40
0.0
 40
0.1655284487019
 40
0.4133547098342
 40
0.7148220717768
 40
1.0
 40
1.0
 40
1.0
 40
1.0
 10
7.783453214822758
 20
15.93388864572526
 30
0.0
 10
7.888489630748753
 20
15.90335971766725
 30
0.0
 10
8.148168378424758
 20
15.81770607408525
 30
0.0
 10
8.573865007551762
 20
15.61067513154625
 30
0.0
 10
9.043099616175754
 20
15.32007504971025
 30
0.0
 10
9.35136579281175
 20
15.08501821843325
 30
0.0
 10
9.506474296574753
 20
14.97825866687525
 30
0.0
  0
ARC
  5
167
330
1F
100
AcDbEntity
  8
DEFAULT
100
AcDbCircle
 10
9.745953
 20
15.43225
 30
0.0
 40
0.515169
100
AcDbArc
 50
244.2708869999998
 51
274.3734529999999
  0
LINE
  5
168
330
1F
100
AcDbEntity
  8
DEFAULT
100
AcDbLine
 10
9.776816
 20
15.705285
 30
0.0
 11
9.436991
 21
15.93381
 31
0.0
  0
LINE
  5
169
330
1F
100
AcDbEntity
  8
DEFAULT
100
AcDbLine
 10
9.848606
 20
15.656352
 30
0.0
 11
9.776815
 21
15.705284
 31
0.0
  0
LINE
  5
16A
330
1F
100
AcDbEntity
  8
DEFAULT
100
AcDbLine
 10
9.848607
 20
15.658067
 30
0.0
 11
9.784948
 21
15.702399
 31
0.0
  0
LINE
  5
16B
330
1F
100
AcDbEntity
  8
DEFAULT
100
AcDbLine
 10
9.778114
 20
15.707165
 30
0.0
 11
9.446841
 21
15.933825
 31
0.0
  0
SPLINE
  5
16C
330
1F
100
AcDbEntity
  8
DEFAULT
100
AcDbSpline
210
0.0
220
0.0
230
1.0
 70
     8
 71
     3
 72
    12
 73
     8
 74
     0
 42
0.0000000001
 43
0.0000000001
 40
0.0
 40
0.0
 40
0.0
 40
0.0
 40
0.1840635851457
 40
0.4195278296395
 40
0.6365271123991
 40
0.8210471680773
 40
1.0
 40
1.0
 40
1.0
 40
1.0
 10
17.13955344884076
 20
14.97826523695026
 30
0.0
 10
17.24487024230675
 20
15.05092214548125
 30
0.0
 10
17.47698179721576
 20
15.22770880483125
 30
0.0
 10
17.84514440607676
 20
15.47389611193726
 30
0.0
 10
18.23125497763276
 20
15.69165600886825
 30
0.0
 10
18.60060428463575
 20
15.85632278926026
 30
0.0
 10
18.84293210225076
 20
15.92972395094925
 30
0.0
 10
18.96310296281377
 20
15.96193986676625
 30
0.0
  0
ARC
  5
16D
330
1F
100
AcDbEntity
  8
DEFAULT
100
AcDbCircle
 10
16.901749
 20
15.415715
 30
0.0
 40
0.498818
100
AcDbArc
 50
265.2904359999999
 51
297.442352
  0
LINE
  5
16E
330
1F
100
AcDbEntity
  8
DEFAULT
100
AcDbLine
 10
16.869218
 20
15.705284
 30
0.0
 11
16.797426
 21
15.656352
 31
0.0
  0
LINE
  5
16F
330
1F
100
AcDbEntity
  8
DEFAULT
100
AcDbLine
 10
16.649806
 20
15.56484
 30
0.0
 11
16.630109
 21
15.560013
 31
0.0
  0
LINE
  5
170
330
1F
100
AcDbEntity
  8
DEFAULT
100
AcDbLine
 10
16.858959
 20
15.700918
 30
0.0
 11
16.797426
 21
15.658067
 31
0.0
  0
ARC
  5
171
330
1F
100
AcDbEntity
  8
DEFAULT
100
AcDbCircle
 10
25.76723
 20
14.133332
 30
0.0
 40
13.627709
100
AcDbArc
 50
181.078035
 51
189.598185
  0
ARC
  5
172
330
1F
100
AcDbEntity
  8
DEFAULT
100
AcDbCircle
 10
13.92259
 20
12.010316
 30
0.0
 40
0.420521
100
AcDbArc
 50
280.331139
 51
339.2140819999999
  0
ARC
  5
173
330
1F
100
AcDbEntity
  8
DEFAULT
100
AcDbCircle
 10
13.323016
 20
13.657527
 30
0.0
 40
2.168636
100
AcDbArc
 50
251.8654
 51
269.999997
  0
ARC
  5
174
330
1F
100
AcDbEntity
  8
DEFAULT
100
AcDbCircle
 10
12.723443
 20
12.010316
 30
0.0
 40
0.420522
100
AcDbArc
 50
200.785939
 51
259.6688400000001
  0
ARC
  5
175
330
1F
100
AcDbEntity
  8
DEFAULT
100
AcDbCircle
 10
0.878802
 20
14.133332
 30
0.0
 40
13.627709
100
AcDbArc
 50
350.401815
 51
358.921965
  0
ARC
  5
176
330
1F
100
AcDbEntity
  8
DEFAULT
100
AcDbCircle
 10
13.323016
 20
13.657527
 30
0.0
 40
2.168636
100
AcDbArc
 50
270.0000039999999
 51
288.1345989999999
  0
SPLINE
  5
177
330
1F
100
AcDbEntity
  8
DEFAULT
100
AcDbSpline
210
0.0
220
0.0
230
1.0
 70
     8
 71
     3
 72
    19
 73
    15
 74
     0
 42
0.0000000001
 43
0.0000000001
 40
0.0
 40
0.0
 40
0.0
 40
0.0
 40
0.1235919666214
 40
0.2451043183287
 40
0.3625079393068
 40
0.4738760400769
 40
0.5774394841606
 40
0.6716499905291
 40
0.7552606378014
 40
0.8274447239784
 40
0.8880009336909
 40
0.937747797675
 40
0.9792454826625
 40
1.0
 40
1.0
 40
1.0
 40
1.0
 10
13.32301608628119
 20
14.24404590164625
 30
0.0
 10
13.26939519476244
 20
14.24404590164625
 30
0.0
 10
13.16304164238956
 20
14.24181684302125
 30
0.0
 10
13.00603652381565
 20
14.23182209700325
 30
0.0
 10
12.85490086048876
 20
14.21537766363325
 30
0.0
 10
12.71243002746226
 20
14.19279993568725
 30
0.0
 10
12.58124158592996
 20
14.16452324149625
 30
0.0
 10
12.46372146778245
 20
14.13109122357025
 30
0.0
 10
12.36195938119445
 20
14.09313344996825
 30
0.0
 10
12.27766977502175
 20
14.05133558665025
 30
0.0
 10
12.21212031270976
 20
14.00627507210925
 30
0.0
 10
12.16614064939675
 20
13.95821586703526
 30
0.0
 10
12.14450399817575
 20
13.91333631200725
 30
0.0
 10
12.14186294011376
 20
13.88602384764125
 30
0.0
 10
12.14202560671876
 20
13.87694028174725
 30
0.0
  0
SPLINE
  5
178
330
1F
100
AcDbEntity
  8
DEFAULT
100
AcDbSpline
210
0.0
220
0.0
230
1.0
 70
     8
 71
     3
 72
    19
 73
    15
 74
     0
 42
0.0000000001
 43
0.0000000001
 40
0.0
 40
0.0
 40
0.0
 40
0.0
 40
0.1235919666214
 40
0.2451043183287
 40
0.3625079393068
 40
0.4738760400769
 40
0.5774394841606
 40
0.6716499905291
 40
0.7552606378014
 40
0.8274447239784
 40
0.8880009336909
 40
0.937747797675
 40
0.9792454826625
 40
1.0
 40
1.0
 40
1.0
 40
1.0
 10
13.32301608628119
 20
14.24404590164625
 30
0.0
 10
13.37663697779993
 20
14.24404590164625
 30
0.0
 10
13.48299053017276
 20
14.24181684302125
 30
0.0
 10
13.63999564874666
 20
14.23182209700325
 30
0.0
 10
13.79113131207366
 20
14.21537766363325
 30
0.0
 10
13.93360214510006
 20
14.19279993568725
 30
0.0
 10
14.06479058663236
 20
14.16452324149625
 30
0.0
 10
14.18231070477995
 20
14.13109122357025
 30
0.0
 10
14.28407279136796
 20
14.09313344996825
 30
0.0
 10
14.36836239754075
 20
14.05133558665025
 30
0.0
 10
14.43391185985276
 20
14.00627507210925
 30
0.0
 10
14.47989152316576
 20
13.95821586703526
 30
0.0
 10
14.50152817438675
 20
13.91333631200725
 30
0.0
 10
14.50416923244876
 20
13.88602384764125
 30
0.0
 10
14.50400656584375
 20
13.87694028174725
 30
0.0
  0
ARC
  5
179
330
1F
100
AcDbEntity
  8
DEFAULT
100
AcDbCircle
 10
10.374197
 20
15.036681
 30
0.0
 40
0.11811
100
AcDbArc
 50
270.0
 51
314.7845830000002
  0
ARC
  5
17A
330
1F
100
AcDbEntity
  8
DEFAULT
100
AcDbCircle
 10
16.271835
 20
15.036681
 30
0.0
 40
0.11811
100
AcDbArc
 50
225.2154170000004
 51
270.0000000000017
  0
LINE
  5
17B
330
1F
100
AcDbEntity
  8
DEFAULT
100
AcDbLine
 10
16.393882
 20
15.338707
 30
0.0
 11
16.433056
 21
15.570178
 31
0.0
  0
LINE
  5
17C
330
1F
100
AcDbEntity
  8
DEFAULT
100
AcDbLine
 10
15.28194
 20
13.292415
 30
0.0
 11
14.425378
 21
12.435852
 31
0.0
  0
LINE
  5
17D
330
1F
100
AcDbEntity
  8
DEFAULT
100
AcDbLine
 10
15.360117
 20
13.395235
 30
0.0
 11
16.393882
 21
15.338707
 31
0.0
  0
LINE
  5
17E
330
1F
100
AcDbEntity
  8
DEFAULT
100
AcDbLine
 10
16.548922
 20
15.814051
 30
0.0
 11
15.360099
 21
14.636002
 31
0.0
  0
LINE
  5
17F
330
1F
100
AcDbEntity
  8
DEFAULT
100
AcDbLine
 10
15.360099
 20
14.4752
 30
0.0
 11
14.540782
 21
13.192748
 31
0.0
  0
LINE
  5
180
330
1F
100
AcDbEntity
  8
DEFAULT
100
AcDbLine
 10
14.484199
 20
13.355437
 30
0.0
 11
15.16849
 21
14.426536
 31
0.0
  0
LINE
  5
181
330
1F
100
AcDbEntity
  8
DEFAULT
100
AcDbLine
 10
14.953199
 20
14.426536
 30
0.0
 11
14.500099
 21
13.717313
 31
0.0
  0
LINE
  5
182
330
1F
100
AcDbEntity
  8
DEFAULT
100
AcDbLine
 10
14.471784
 20
13.112312
 30
0.0
 11
14.51191
 21
13.187748
 31
0.0
  0
LINE
  5
183
330
1F
100
AcDbEntity
  8
DEFAULT
100
AcDbLine
 10
15.360099
 20
14.4752
 30
0.0
 11
15.360099
 21
14.711735
 31
0.0
  0
LINE
  5
184
330
1F
100
AcDbEntity
  8
DEFAULT
100
AcDbLine
 10
7.46278
 20
15.933421
 30
0.0
 11
10.015929
 21
15.933421
 31
0.0
  0
LINE
  5
185
330
1F
100
AcDbEntity
  8
DEFAULT
100
AcDbLine
 10
9.996244
 20
15.526373
 30
0.0
 11
9.848607
 21
15.526373
 31
0.0
  0
LINE
  5
186
330
1F
100
AcDbEntity
  8
DEFAULT
100
AcDbLine
 10
16.797425
 20
15.526373
 30
0.0
 11
16.649788
 21
15.526373
 31
0.0
  0
LINE
  5
187
330
1F
100
AcDbEntity
  8
DEFAULT
100
AcDbLine
 10
16.393882
 20
15.338707
 30
0.0
 11
16.630103
 21
15.338707
 31
0.0
  0
LINE
  5
188
330
1F
100
AcDbEntity
  8
DEFAULT
100
AcDbLine
 10
10.015929
 20
15.338707
 30
0.0
 11
10.25215
 21
15.338707
 31
0.0
  0
LINE
  5
189
330
1F
100
AcDbEntity
  8
DEFAULT
100
AcDbLine
 10
16.271835
 20
14.918571
 30
0.0
 11
16.860794
 21
14.918571
 31
0.0
  0
LINE
  5
18A
330
1F
100
AcDbEntity
  8
DEFAULT
100
AcDbLine
 10
9.785238
 20
14.918571
 30
0.0
 11
10.374197
 21
14.918571
 31
0.0
  0
LINE
  5
18B
330
1F
100
AcDbEntity
  8
DEFAULT
100
AcDbLine
 10
11.423091
 20
14.711735
 30
0.0
 11
15.360099
 21
14.711735
 31
0.0
  0
LINE
  5
18C
330
1F
100
AcDbEntity
  8
DEFAULT
100
AcDbLine
 10
11.423091
 20
14.4752
 30
0.0
 11
15.360099
 21
14.4752
 31
0.0
  0
LINE
  5
18D
330
1F
100
AcDbEntity
  8
DEFAULT
100
AcDbLine
 10
15.16849
 20
14.426536
 30
0.0
 11
11.60857
 21
14.426536
 31
0.0
  0
LINE
  5
18E
330
1F
100
AcDbEntity
  8
DEFAULT
100
AcDbLine
 10
11.78782
 20
14.426536
 30
0.0
 11
12.144987
 21
13.755064
 31
0.0
  0
LINE
  5
18F
330
1F
100
AcDbEntity
  8
DEFAULT
100
AcDbLine
 10
11.60857
 20
14.426536
 30
0.0
 11
12.159928
 21
13.389987
 31
0.0
  0
LINE
  5
190
330
1F
100
AcDbEntity
  8
DEFAULT
100
AcDbLine
 10
12.134122
 20
13.187748
 30
0.0
 11
12.174248
 21
13.112312
 31
0.0
  0
LINE
  5
191
330
1F
100
AcDbEntity
  8
DEFAULT
100
AcDbLine
 10
12.10525
 20
13.192748
 30
0.0
 11
11.423091
 21
14.4752
 31
0.0
  0
LINE
  5
192
330
1F
100
AcDbEntity
  8
DEFAULT
100
AcDbLine
 10
10.09711
 20
15.814051
 30
0.0
 11
11.423091
 21
14.500087
 31
0.0
  0
LINE
  5
193
330
1F
100
AcDbEntity
  8
DEFAULT
100
AcDbLine
 10
10.25215
 20
15.338707
 30
0.0
 11
11.285915
 21
13.395234
 31
0.0
  0
LINE
  5
194
330
1F
100
AcDbEntity
  8
DEFAULT
100
AcDbLine
 10
11.364091
 20
13.292415
 30
0.0
 11
12.220654
 21
12.435852
 31
0.0
  0
LINE
  5
195
330
1F
100
AcDbEntity
  8
DEFAULT
100
AcDbLine
 10
14.425378
 20
12.435852
 30
0.0
 11
14.400126
 21
12.435852
 31
0.0
  0
LINE
  5
196
330
1F
100
AcDbEntity
  8
DEFAULT
100
AcDbLine
 10
12.220654
 20
12.435852
 30
0.0
 11
12.245906
 21
12.435852
 31
0.0
  0
LINE
  5
197
330
1F
100
AcDbEntity
  8
DEFAULT
100
AcDbLine
 10
11.423091
 20
14.4752
 30
0.0
 11
11.423091
 21
14.711735
 31
0.0
  0
LINE
  5
198
330
1F
100
AcDbEntity
  8
DEFAULT
100
AcDbLine
 10
10.25215
 20
15.338707
 30
0.0
 11
10.212976
 21
15.570178
 31
0.0
  0
LINE
  5
199
330
1F
100
AcDbEntity
  8
DEFAULT
100
AcDbLine
 10
6.857087
 20
15.643687
 30
0.0
 11
7.46278
 21
15.839671
 31
0.0
  0
LINE
  5
19A
330
1F
100
AcDbEntity
  8
DEFAULT
100
AcDbLine
 10
9.996244
 20
15.526374
 30
0.0
 11
9.996244
 21
15.933421
 31
0.0
  0
LINE
  5
19B
330
1F
100
AcDbEntity
  8
DEFAULT
100
AcDbLine
 10
9.848607
 20
15.526374
 30
0.0
 11
9.848607
 21
15.933421
 31
0.0
  0
SPLINE
  5
19C
330
1F
100
AcDbEntity
  8
DEFAULT
100
AcDbSpline
210
0.0
220
0.0
230
1.0
 70
    12
 71
     2
 72
     6
 73
     3
 74
     0
 42
0.0000000001
 43
0.0000000001
 40
0.0
 40
0.0
 40
0.0
 40
1.570796326794897
 40
1.570796326794897
 40
1.570796326794897
 10
14.19905024890932
 20
11.9017548715859
 30
0.0
 41
1.0
 10
14.19905024890948
 20
12.210714430322
 30
0.0
 41
0.7071067811865475
 10
13.32301634442328
 20
12.21071443032244
 30
0.0
 41
1.0
  0
SPLINE
  5
19D
330
1F
100
AcDbEntity
  8
DEFAULT
100
AcDbSpline
210
0.0
220
0.0
230
1.0
 70
    12
 71
     2
 72
     6
 73
     3
 74
     0
 42
0.0000000001
 43
0.0000000001
 40
1.570796326794897
 40
1.570796326794897
 40
1.570796326794897
 40
3.141592653589793
 40
3.141592653589793
 40
3.141592653589793
 10
13.32301634442328
 20
12.21071443032244
 30
0.0
 41
1.0
 10
12.4469824399371
 20
12.21071443032288
 30
0.0
 41
0.7071067811865475
 10
12.44698243993693
 20
11.90175487158678
 30
0.0
 41
1.0
  0
LINE
  5
19E
330
1F
100
AcDbEntity
  8
DEFAULT
100
AcDbLine
 10
3.51886
 20
20.965848
 30
0.0
 11
23.127172
 21
20.965848
 31
0.0
  0
LINE
  5
19F
330
1F
100
AcDbEntity
  8
DEFAULT
100
AcDbLine
 10
24.823016
 20
18.7177
 30
0.0
 11
24.823016
 21
18.213995
 31
0.0
  0
LINE
  5
1A0
330
1F
100
AcDbEntity
  8
DEFAULT
100
AcDbLine
 10
13.323016
 20
28.181544
 30
0.0
 11
13.323016
 21
20.965848
 31
0.0
  0
SPLINE
  5
1A1
330
1F
100
AcDbEntity
  8
DEFAULT
100
AcDbSpline
210
0.0
220
0.0
230
1.0
 70
     8
 71
     3
 72
     8
 73
     4
 74
     0
 42
0.0000000001
 43
0.0000000001
 40
0.0
 40
0.0
 40
0.0
 40
0.0
 40
1.0
 40
1.0
 40
1.0
 40
1.0
 10
13.32301608628119
 20
28.18154412324711
 30
0.0
 10
8.42742602841964
 20
28.18154412324711
 30
0.0
 10
4.46201858384857
 20
27.71227839882174
 30
0.0
 10
3.320929191837338
 20
27.71227839882173
 30
0.0
  0
SPLINE
  5
1A2
330
1F
100
AcDbEntity
  8
DEFAULT
100
AcDbSpline
210
0.0
220
0.0
230
1.0
 70
     8
 71
     3
 72
     8
 73
     4
 74
     0
 42
0.0000000001
 43
0.0000000001
 40
-1.0
 40
-1.0
 40
-1.0
 40
-1.0
 40
0.0
 40
0.0
 40
0.0
 40
0.0
 10
23.32510298072505
 20
27.71227839882173
 30
0.0
 10
22.18401358871382
 20
27.71227839882174
 30
0.0
 10
18.21860614414275
 20
28.18154412324711
 30
0.0
 10
13.32301608628119
 20
28.18154412324711
 30
0.0
  0
LINE
  5
1A3
330
1F
100
AcDbEntity
  8
DEFAULT
100
AcDbLine
 10
2.535177
 20
20.965848
 30
0.0
 11
13.323016
 21
20.965848
 31
0.0
  0
ARC
  5
1A4
330
1F
100
AcDbEntity
  8
DEFAULT
100
AcDbCircle
 10
2.535177
 20
20.465848
 30
0.0
 40
0.5
100
AcDbArc
 50
90.0
 51
160.452459
  0
SPLINE
  5
1A5
330
1F
100
AcDbEntity
  8
DEFAULT
100
AcDbSpline
210
0.0
220
0.0
230
1.0
 70
     8
 71
     3
 72
     8
 73
     4
 74
     0
 42
0.0000000001
 43
0.0000000001
 40
34.91960321177777
 40
34.91960321177777
 40
34.91960321177777
 40
34.91960321177777
 40
35.63124878338482
 40
35.63124878338482
 40
35.63124878338482
 40
35.63124878338482
 10
2.063995126503913
 20
16.29855347540246
 30
0.0
 10
1.739553893089921
 20
17.21233697470537
 30
0.0
 10
1.73955390136762
 20
19.71935886260831
 30
0.0
 10
2.06399515133676
 20
20.63314236707977
 30
0.0
  0
ARC
  5
1A6
330
1F
100
AcDbEntity
  8
DEFAULT
100
AcDbCircle
 10
2.535177
 20
16.465848
 30
0.0
 40
0.5
100
AcDbArc
 50
199.54754
 51
270.0
  0
LINE
  5
1A7
330
1F
100
AcDbEntity
  8
DEFAULT
100
AcDbLine
 10
24.110855
 20
15.965848
 30
0.0
 11
2.535177
 21
15.965848
 31
0.0
  0
ARC
  5
1A8
330
1F
100
AcDbEntity
  8
DEFAULT
100
AcDbCircle
 10
24.110855
 20
16.465848
 30
0.0
 40
0.5
100
AcDbArc
 50
270.0
 51
340.45246
  0
SPLINE
  5
1A9
330
1F
100
AcDbEntity
  8
DEFAULT
100
AcDbSpline
210
0.0
220
0.0
230
1.0
 70
     8
 71
     3
 72
     8
 73
     4
 74
     0
 42
0.0000000001
 43
0.0000000001
 40
11.40265252699528
 40
11.40265252699528
 40
11.40265252699528
 40
11.40265252699528
 40
12.11429809860233
 40
12.11429809860233
 40
12.11429809860233
 40
12.11429809860233
 10
24.58203702122563
 20
20.63314236707977
 30
0.0
 10
24.90647827119487
 20
19.71935886260834
 30
0.0
 10
24.90647827947226
 20
17.21233697470543
 30
0.0
 10
24.58203704605847
 20
16.29855347540246
 30
0.0
  0
ARC
  5
1AA
330
1F
100
AcDbEntity
  8
DEFAULT
100
AcDbCircle
 10
24.110855
 20
20.465848
 30
0.0
 40
0.5
100
AcDbArc
 50
19.54754100000008
 51
90.0
  0
LINE
  5
1AB
330
1F
100
AcDbEntity
  8
DEFAULT
100
AcDbLine
 10
13.323016
 20
20.965848
 30
0.0
 11
24.110855
 21
20.965848
 31
0.0
  0
LINE
  5
1AC
330
1F
100
AcDbEntity
  8
DEFAULT
100
AcDbLine
 10
1.377104
 20
28.825744
 30
0.0
 11
3.052752
 21
28.825744
 31
0.0
  0
LINE
  5
1AD
330
1F
100
AcDbEntity
  8
DEFAULT
100
AcDbLine
 10
1.377104
 20
25.914886
 30
0.0
 11
3.052752
 21
25.914886
 31
0.0
  0
ARC
  5
1AE
330
1F
100
AcDbEntity
  8
DEFAULT
100
AcDbCircle
 10
-39.802704
 20
19.989183
 30
0.0
 40
43.175733
100
AcDbArc
 50
1.296180000000002
 51
7.888523
  0
SPLINE
  5
1AF
330
1F
100
AcDbEntity
  8
DEFAULT
100
AcDbSpline
210
0.0
220
0.0
230
1.0
 70
     8
 71
     3
 72
     8
 73
     4
 74
     0
 42
0.0000000001
 43
0.0000000001
 40
0.0850166568489339
 40
0.0850166568489339
 40
0.0850166568489339
 40
0.0850166568489339
 40
0.8435182794586855
 40
0.8435182794586855
 40
0.8435182794586855
 40
0.8435182794586855
 10
1.828142151778979
 20
25.91488552040525
 30
0.0
 10
1.982465106790359
 20
24.91482580337043
 30
0.0
 10
2.01083625213481
 20
22.73459393406799
 30
0.0
 10
2.002637908605168
 20
20.42693585142064
 30
0.0
  0
SPLINE
  5
1B0
330
1F
100
AcDbEntity
  8
DEFAULT
100
AcDbSpline
210
0.0
220
0.0
230
1.0
 70
     8
 71
     3
 72
     9
 73
     5
 74
     0
 42
0.0000000001
 43
0.0000000001
 40
0.0
 40
0.0
 40
0.0
 40
0.0
 40
1.0
 40
2.0
 40
2.0
 40
2.0
 40
2.0
 10
1.37710448447235
 20
28.82574432309778
 30
0.0
 10
1.096248247607045
 20
28.82574432309778
 30
0.0
 10
1.010756019627772
 20
27.37031492175151
 30
0.0
 10
1.096248247607045
 20
25.91488552040524
 30
0.0
 10
1.377104484472357
 20
25.91488552040524
 30
0.0
  0
ARC
  5
1B1
330
1F
100
AcDbEntity
  8
DEFAULT
100
AcDbCircle
 10
3.088521
 20
27.82419
 30
0.0
 40
1.002193
100
AcDbArc
 50
76.26044700000001
 51
92.04536900000002
  0
ARC
  5
1B2
330
1F
100
AcDbEntity
  8
DEFAULT
100
AcDbCircle
 10
23.557511
 20
27.82419
 30
0.0
 40
1.002193
100
AcDbArc
 50
87.95463099999994
 51
103.739553
  0
SPLINE
  5
1B3
330
1F
100
AcDbEntity
  8
DEFAULT
100
AcDbSpline
210
0.0
220
0.0
230
1.0
 70
     8
 71
     3
 72
     9
 73
     5
 74
     0
 42
0.0000000001
 43
0.0000000001
 40
0.0
 40
0.0
 40
0.0
 40
0.0
 40
1.0
 40
2.0
 40
2.0
 40
2.0
 40
2.0
 10
25.26892768809004
 20
28.82574432309778
 30
0.0
 10
25.54978392495535
 20
28.82574432309778
 30
0.0
 10
25.63527615293462
 20
27.37031492175151
 30
0.0
 10
25.54978392495535
 20
25.91488552040524
 30
0.0
 10
25.26892768809003
 20
25.91488552040524
 30
0.0
  0
SPLINE
  5
1B4
330
1F
100
AcDbEntity
  8
DEFAULT
100
AcDbSpline
210
0.0
220
0.0
230
1.0
 70
     8
 71
     3
 72
     8
 73
     4
 74
     0
 42
0.0000000001
 43
0.0000000001
 40
0.0850166568489339
 40
0.0850166568489339
 40
0.0850166568489339
 40
0.0850166568489339
 40
0.8435182794586855
 40
0.8435182794586855
 40
0.8435182794586855
 40
0.8435182794586855
 10
24.81789002078341
 20
25.91488552040525
 30
0.0
 10
24.66356706577203
 20
24.91482580337043
 30
0.0
 10
24.63519592042758
 20
22.73459393406799
 30
0.0
 10
24.64339426395722
 20
20.42693585142064
 30
0.0
  0
ARC
  5
1B5
330
1F
100
AcDbEntity
  8
DEFAULT
100
AcDbCircle
 10
66.448736
 20
19.989183
 30
0.0
 40
43.175733
100
AcDbArc
 50
172.111477
 51
178.70382
  0
LINE
  5
1B6
330
1F
100
AcDbEntity
  8
DEFAULT
100
AcDbLine
 10
25.268928
 20
25.914886
 30
0.0
 11
23.59328
 21
25.914886
 31
0.0
  0
LINE
  5
1B7
330
1F
100
AcDbEntity
  8
DEFAULT
100
AcDbLine
 10
25.268928
 20
28.825744
 30
0.0
 11
23.59328
 21
28.825744
 31
0.0
  0
ARC
  5
1B8
330
1F
100
AcDbEntity
  8
DEFAULT
100
AcDbCircle
 10
37.089876
 20
23.231329
 30
0.0
 40
13.902063
100
AcDbArc
 50
168.591928
 51
172.986675
  0
ARC
  5
1B9
330
1F
100
AcDbEntity
  8
DEFAULT
100
AcDbCircle
 10
-10.443844
 20
23.231329
 30
0.0
 40
13.902063
100
AcDbArc
 50
7.013324999999998
 51
11.40807200000001
  0
SPLINE
  5
1BA
330
1F
100
AcDbEntity
  8
DEFAULT
100
AcDbSpline
210
0.0
220
0.0
230
1.0
 70
     8
 71
     3
 72
     8
 73
     4
 74
     0
 42
0.0000000001
 43
0.0000000001
 40
2.016310272851632
 40
2.016310272851632
 40
2.016310272851632
 40
2.016310272851632
 40
2.295111565237342
 40
2.295111565237342
 40
2.295111565237342
 40
2.295111565237342
 10
3.080107927949486
 20
25.92873141697934
 30
0.0
 10
3.163025715038694
 20
25.97069956084268
 30
0.0
 10
3.245943502127895
 20
26.01266770470602
 30
0.0
 10
3.325880359547847
 20
26.28118650343227
 30
0.0
  0
ARC
  5
1BB
330
1F
100
AcDbEntity
  8
DEFAULT
100
AcDbCircle
 10
3.034949
 20
26.017954
 30
0.0
 40
0.1
100
AcDbArc
 50
249.5829499999995
 51
296.845871
  0
SPLINE
  5
1BC
330
1F
100
AcDbEntity
  8
DEFAULT
100
AcDbSpline
210
0.0
220
0.0
230
1.0
 70
     8
 71
     3
 72
     9
 73
     5
 74
     0
 42
0.0000000001
 43
0.0000000001
 40
0.0
 40
0.0
 40
0.0
 40
0.0
 40
1.0
 40
1.933820915470664
 40
1.933820915470664
 40
1.933820915470664
 40
1.933820915470664
 10
3.052752152866164
 20
28.82574432309778
 30
0.0
 10
2.77189591600086
 20
28.82574432309778
 30
0.0
 10
2.689232586712608
 20
27.4184744144406
 30
0.0
 10
2.766425332544447
 20
26.0112045057835
 30
0.0
 10
3.000063634290827
 20
25.92423605107339
 30
0.0
  0
SPLINE
  5
1BD
330
1F
100
AcDbEntity
  8
DEFAULT
100
AcDbSpline
210
0.0
220
0.0
230
1.0
 70
     8
 71
     3
 72
     8
 73
     4
 74
     0
 42
0.0000000001
 43
0.0000000001
 40
2.016310272851632
 40
2.016310272851632
 40
2.016310272851632
 40
2.016310272851632
 40
2.295111565237342
 40
2.295111565237342
 40
2.295111565237342
 40
2.295111565237342
 10
23.5659242446129
 20
25.92873141697934
 30
0.0
 10
23.4830064575237
 20
25.97069956084268
 30
0.0
 10
23.4000886704345
 20
26.01266770470602
 30
0.0
 10
23.32015181301454
 20
26.28118650343227
 30
0.0
  0
ARC
  5
1BE
330
1F
100
AcDbEntity
  8
DEFAULT
100
AcDbCircle
 10
23.611083
 20
26.017954
 30
0.0
 40
0.1
100
AcDbArc
 50
243.1541289999996
 51
290.4170499999991
  0
SPLINE
  5
1BF
330
1F
100
AcDbEntity
  8
DEFAULT
100
AcDbSpline
210
0.0
220
0.0
230
1.0
 70
     8
 71
     3
 72
     9
 73
     5
 74
     0
 42
0.0000000001
 43
0.0000000001
 40
0.0
 40
0.0
 40
0.0
 40
0.0
 40
1.0
 40
1.933820915470664
 40
1.933820915470664
 40
1.933820915470664
 40
1.933820915470664
 10
23.59328001969623
 20
28.82574432309778
 30
0.0
 10
23.87413625656153
 20
28.82574432309778
 30
0.0
 10
23.95679958584978
 20
27.4184744144406
 30
0.0
 10
23.87960684001794
 20
26.0112045057835
 30
0.0
 10
23.64596853827156
 20
25.92423605107339
 30
0.0
  0
LINE
  5
1C0
330
1F
100
AcDbEntity
  8
DEFAULT
100
AcDbLine
 10
13.721296
 20
0.002626
 30
0.0
 11
13.984441
 21
0.002626
 31
0.0
  0
LINE
  5
1C1
330
1F
100
AcDbEntity
  8
DEFAULT
100
AcDbLine
 10
12.536938
 20
2.502628
 30
0.0
 11
14.109094
 21
2.502628
 31
0.0
  0
LINE
  5
1C2
330
1F
100
AcDbEntity
  8
DEFAULT
100
AcDbLine
 10
12.924736
 20
0.00264
 30
0.0
 11
12.924736
 21
0.816657
 31
0.0
  0
LINE
  5
1C3
330
1F
100
AcDbEntity
  8
DEFAULT
100
AcDbLine
 10
13.721296
 20
0.00264
 30
0.0
 11
13.721296
 21
0.816624
 31
0.0
  0
LINE
  5
1C4
330
1F
100
AcDbEntity
  8
DEFAULT
100
AcDbLine
 10
12.367731
 20
2.069575
 30
0.0
 11
12.367731
 21
0.205195
 31
0.0
  0
LINE
  5
1C5
330
1F
100
AcDbEntity
  8
DEFAULT
100
AcDbLine
 10
14.278302
 20
0.205195
 30
0.0
 11
14.278302
 21
2.069575
 31
0.0
  0
SPLINE
  5
1C6
330
1F
100
AcDbEntity
  8
DEFAULT
100
AcDbSpline
210
0.0
220
0.0
230
1.0
 70
     8
 71
     5
 72
    12
 73
     6
 74
     0
 42
0.0000000001
 43
0.0000000001
 40
0.0
 40
0.0
 40
0.0
 40
0.0
 40
0.0
 40
0.0
 40
1.0
 40
1.0
 40
1.0
 40
1.0
 40
1.0
 40
1.0
 10
12.3677305729133
 20
0.2051950003381028
 30
0.0
 10
12.3677305729133
 20
0.1338121534607579
 30
0.0
 10
12.3677305729133
 20
0.0624293065834129
 30
0.0
 10
12.5188250020159
 20
0.0026264961175412
 30
0.0
 10
12.59020784889324
 20
0.0026264961175412
 30
0.0
 10
12.66159069577058
 20
0.0026264961175412
 30
0.0
  0
SPLINE
  5
1C7
330
1F
100
AcDbEntity
  8
DEFAULT
100
AcDbSpline
210
0.0
220
0.0
230
1.0
 70
     8
 71
     5
 72
    12
 73
     6
 74
     0
 42
0.0000000001
 43
0.0000000001
 40
0.0
 40
0.0
 40
0.0
 40
0.0
 40
0.0
 40
0.0
 40
1.0
 40
1.0
 40
1.0
 40
1.0
 40
1.0
 40
1.0
 10
13.9844414776301
 20
0.0026264961175412
 30
0.0
 10
14.05582432436939
 20
0.0026264961175412
 30
0.0
 10
14.12720717110868
 20
0.0026264961175412
 30
0.0
 10
14.27830159964899
 20
0.0624293068595618
 30
0.0
 10
14.27830159964899
 20
0.1338121535988554
 30
0.0
 10
14.27830159964899
 20
0.205195000338149
 30
0.0
  0
ARC
  5
1C8
330
1F
100
AcDbEntity
  8
DEFAULT
100
AcDbCircle
 10
12.559053
 20
2.070319
 30
0.0
 40
0.191324
100
AcDbArc
 50
92.83830999999975
 51
180.2227079999998
  0
ARC
  5
1C9
330
1F
100
AcDbEntity
  8
DEFAULT
100
AcDbCircle
 10
14.086979
 20
2.070319
 30
0.0
 40
0.191324
100
AcDbArc
 50
359.7772919999999
 51
87.16168999999972
  0
SPLINE
  5
1CA
330
1F
100
AcDbEntity
  8
DEFAULT
100
AcDbSpline
210
0.0
220
0.0
230
1.0
 70
     8
 71
     3
 72
     9
 73
     5
 74
     0
 42
0.0000000001
 43
0.0000000001
 40
-2.0
 40
-2.0
 40
-2.0
 40
-2.0
 40
-1.0
 40
0.0
 40
0.0
 40
0.0
 40
0.0
 10
12.53694480439706
 20
2.502627948839118
 30
0.0
 10
12.54914714204586
 20
1.746543702044052
 30
0.0
 10
12.73565821047675
 20
0.9237007530842247
 30
0.0
 10
12.97702547550497
 20
0.6927737629385915
 30
0.0
 10
13.32301318440051
 20
0.6927737629385915
 30
0.0
  0
SPLINE
  5
1CB
330
1F
100
AcDbEntity
  8
DEFAULT
100
AcDbSpline
210
0.0
220
0.0
230
1.0
 70
     8
 71
     3
 72
     9
 73
     5
 74
     0
 42
0.0000000001
 43
0.0000000001
 40
0.0
 40
0.0
 40
0.0
 40
0.0
 40
1.0
 40
2.0
 40
2.0
 40
2.0
 40
2.0
 10
13.32301318440051
 20
0.6927737629385915
 30
0.0
 10
13.66900089329605
 20
0.6927737629385915
 30
0.0
 10
13.91036815832425
 20
0.9237007530842247
 30
0.0
 10
14.09687922675514
 20
1.746543702044052
 30
0.0
 10
14.10908156440395
 20
2.502627948839118
 30
0.0
  0
LINE
  5
1CC
330
1F
100
AcDbEntity
  8
DEFAULT
100
AcDbLine
 10
12.661591
 20
0.002626
 30
0.0
 11
12.924736
 21
0.002626
 31
0.0
  0
LINE
  5
1CD
330
1F
100
AcDbEntity
  8
DEFAULT
100
AcDbLine
 10
0.297856
 20
0.002626
 30
0.0
 11
0.561002
 21
0.002626
 31
0.0
  0
LINE
  5
1CE
330
1F
100
AcDbEntity
  8
DEFAULT
100
AcDbLine
 10
1.357561
 20
0.002626
 30
0.0
 11
1.620707
 21
0.002626
 31
0.0
  0
LINE
  5
1CF
330
1F
100
AcDbEntity
  8
DEFAULT
100
AcDbLine
 10
0.173203
 20
2.502628
 30
0.0
 11
1.74536
 21
2.502628
 31
0.0
  0
LINE
  5
1D0
330
1F
100
AcDbEntity
  8
DEFAULT
100
AcDbLine
 10
0.561002
 20
0.00264
 30
0.0
 11
0.561002
 21
0.816657
 31
0.0
  0
LINE
  5
1D1
330
1F
100
AcDbEntity
  8
DEFAULT
100
AcDbLine
 10
1.357561
 20
0.00264
 30
0.0
 11
1.357561
 21
0.816624
 31
0.0
  0
LINE
  5
1D2
330
1F
100
AcDbEntity
  8
DEFAULT
100
AcDbLine
 10
0.003996
 20
2.069575
 30
0.0
 11
0.003996
 21
0.205195
 31
0.0
  0
LINE
  5
1D3
330
1F
100
AcDbEntity
  8
DEFAULT
100
AcDbLine
 10
1.914567
 20
0.205195
 30
0.0
 11
1.914567
 21
2.069575
 31
0.0
  0
SPLINE
  5
1D4
330
1F
100
AcDbEntity
  8
DEFAULT
100
AcDbSpline
210
0.0
220
0.0
230
1.0
 70
     8
 71
     5
 72
    12
 73
     6
 74
     0
 42
0.0000000001
 43
0.0000000001
 40
0.0
 40
0.0
 40
0.0
 40
0.0
 40
0.0
 40
0.0
 40
1.0
 40
1.0
 40
1.0
 40
1.0
 40
1.0
 40
1.0
 10
0.0039958610763071
 20
0.2051950003381028
 30
0.0
 10
0.0039958610763071
 20
0.1338121534607579
 30
0.0
 10
0.0039958610763071
 20
0.0624293065834129
 30
0.0
 10
0.1550902901789064
 20
0.0026264961175377
 30
0.0
 10
0.2264731370562407
 20
0.0026264961175377
 30
0.0
 10
0.2978559839335821
 20
0.0026264961175377
 30
0.0
  0
SPLINE
  5
1D5
330
1F
100
AcDbEntity
  8
DEFAULT
100
AcDbSpline
210
0.0
220
0.0
230
1.0
 70
     8
 71
     5
 72
    12
 73
     6
 74
     0
 42
0.0000000001
 43
0.0000000001
 40
0.0
 40
0.0
 40
0.0
 40
0.0
 40
0.0
 40
0.0
 40
1.0
 40
1.0
 40
1.0
 40
1.0
 40
1.0
 40
1.0
 10
1.620706765793104
 20
0.0026264961175377
 30
0.0
 10
1.692089612532394
 20
0.0026264961175377
 30
0.0
 10
1.763472459271684
 20
0.0026264961175377
 30
0.0
 10
1.914566887811995
 20
0.0624293068595618
 30
0.0
 10
1.914566887811995
 20
0.1338121535988554
 30
0.0
 10
1.914566887811995
 20
0.205195000338149
 30
0.0
  0
ARC
  5
1D6
330
1F
100
AcDbEntity
  8
DEFAULT
100
AcDbCircle
 10
0.195319
 20
2.070319
 30
0.0
 40
0.191324
100
AcDbArc
 50
92.83831
 51
180.2227080000001
  0
ARC
  5
1D7
330
1F
100
AcDbEntity
  8
DEFAULT
100
AcDbCircle
 10
1.723244
 20
2.070319
 30
0.0
 40
0.191324
100
AcDbArc
 50
359.7772919999999
 51
87.16168999999998
  0
SPLINE
  5
1D8
330
1F
100
AcDbEntity
  8
DEFAULT
100
AcDbSpline
210
0.0
220
0.0
230
1.0
 70
     8
 71
     3
 72
     9
 73
     5
 74
     0
 42
0.0000000001
 43
0.0000000001
 40
-2.0
 40
-2.0
 40
-2.0
 40
-2.0
 40
-1.0
 40
0.0
 40
0.0
 40
0.0
 40
0.0
 10
0.1732100925600639
 20
2.502627948839118
 30
0.0
 10
0.1854124302088584
 20
1.746543702044049
 30
0.0
 10
0.3719234986397543
 20
0.9237007530842247
 30
0.0
 10
0.613290763667971
 20
0.6927737629385915
 30
0.0
 10
0.9592784725635133
 20
0.6927737629385915
 30
0.0
  0
SPLINE
  5
1D9
330
1F
100
AcDbEntity
  8
DEFAULT
100
AcDbSpline
210
0.0
220
0.0
230
1.0
 70
     8
 71
     3
 72
     9
 73
     5
 74
     0
 42
0.0000000001
 43
0.0000000001
 40
0.0
 40
0.0
 40
0.0
 40
0.0
 40
1.0
 40
2.0
 40
2.0
 40
2.0
 40
2.0
 10
0.9592784725635133
 20
0.6927737629385915
 30
0.0
 10
1.305266181459048
 20
0.6927737629385915
 30
0.0
 10
1.546633446487251
 20
0.9237007530842247
 30
0.0
 10
1.733144514918147
 20
1.746543702044049
 30
0.0
 10
1.745346852566956
 20
2.502627948839118
 30
0.0
  0
SPLINE
  5
1DA
330
1F
100
AcDbEntity
  8
DEFAULT
100
AcDbSpline
210
0.0
220
0.0
230
1.0
 70
     8
 71
     3
 72
     9
 73
     5
 74
     0
 42
0.0000000001
 43
0.0000000001
 40
0.0
 40
0.0
 40
0.0
 40
0.0
 40
1.0
 40
2.0
 40
2.0
 40
2.0
 40
2.0
 10
5.681804904598353
 20
0.6927737629385915
 30
0.0
 10
6.027792613493888
 20
0.6927737629385915
 30
0.0
 10
6.269159878522091
 20
0.9237007530842247
 30
0.0
 10
6.455670946952987
 20
1.746543702044049
 30
0.0
 10
6.467873284601795
 20
2.502627948839118
 30
0.0
  0
SPLINE
  5
1DB
330
1F
100
AcDbEntity
  8
DEFAULT
100
AcDbSpline
210
0.0
220
0.0
230
1.0
 70
     8
 71
     3
 72
     9
 73
     5
 74
     0
 42
0.0000000001
 43
0.0000000001
 40
-2.0
 40
-2.0
 40
-2.0
 40
-2.0
 40
-1.0
 40
0.0
 40
0.0
 40
0.0
 40
0.0
 10
4.895736524594904
 20
2.502627948839118
 30
0.0
 10
4.907938862243698
 20
1.746543702044049
 30
0.0
 10
5.094449930674594
 20
0.9237007530842247
 30
0.0
 10
5.335817195702811
 20
0.6927737629385915
 30
0.0
 10
5.681804904598353
 20
0.6927737629385915
 30
0.0
  0
ARC
  5
1DC
330
1F
100
AcDbEntity
  8
DEFAULT
100
AcDbCircle
 10
6.44577
 20
2.070319
 30
0.0
 40
0.191324
100
AcDbArc
 50
359.7772919999999
 51
87.16168999999998
  0
ARC
  5
1DD
330
1F
100
AcDbEntity
  8
DEFAULT
100
AcDbCircle
 10
4.917845
 20
2.070319
 30
0.0
 40
0.191324
100
AcDbArc
 50
92.83831000000002
 51
180.2227080000001
  0
SPLINE
  5
1DE
330
1F
100
AcDbEntity
  8
DEFAULT
100
AcDbSpline
210
0.0
220
0.0
230
1.0
 70
     8
 71
     5
 72
    12
 73
     6
 74
     0
 42
0.0000000001
 43
0.0000000001
 40
0.0
 40
0.0
 40
0.0
 40
0.0
 40
0.0
 40
0.0
 40
1.0
 40
1.0
 40
1.0
 40
1.0
 40
1.0
 40
1.0
 10
6.343233197827944
 20
0.0026264961175377
 30
0.0
 10
6.414616044567234
 20
0.0026264961175377
 30
0.0
 10
6.485998891306524
 20
0.0026264961175377
 30
0.0
 10
6.637093319846835
 20
0.0624293068595618
 30
0.0
 10
6.637093319846835
 20
0.1338121535988554
 30
0.0
 10
6.637093319846835
 20
0.205195000338149
 30
0.0
  0
SPLINE
  5
1DF
330
1F
100
AcDbEntity
  8
DEFAULT
100
AcDbSpline
210
0.0
220
0.0
230
1.0
 70
     8
 71
     5
 72
    12
 73
     6
 74
     0
 42
0.0000000001
 43
0.0000000001
 40
0.0
 40
0.0
 40
0.0
 40
0.0
 40
0.0
 40
0.0
 40
1.0
 40
1.0
 40
1.0
 40
1.0
 40
1.0
 40
1.0
 10
4.726522293111147
 20
0.2051950003381028
 30
0.0
 10
4.726522293111147
 20
0.1338121534607579
 30
0.0
 10
4.726522293111147
 20
0.0624293065834129
 30
0.0
 10
4.877616722213746
 20
0.0026264961175377
 30
0.0
 10
4.948999569091081
 20
0.0026264961175377
 30
0.0
 10
5.020382415968422
 20
0.0026264961175377
 30
0.0
  0
LINE
  5
1E0
330
1F
100
AcDbEntity
  8
DEFAULT
100
AcDbLine
 10
6.637093
 20
0.205195
 30
0.0
 11
6.637093
 21
2.069575
 31
0.0
  0
LINE
  5
1E1
330
1F
100
AcDbEntity
  8
DEFAULT
100
AcDbLine
 10
4.726522
 20
2.069575
 30
0.0
 11
4.726522
 21
0.205195
 31
0.0
  0
LINE
  5
1E2
330
1F
100
AcDbEntity
  8
DEFAULT
100
AcDbLine
 10
6.080087
 20
0.00264
 30
0.0
 11
6.080087
 21
0.816624
 31
0.0
  0
LINE
  5
1E3
330
1F
100
AcDbEntity
  8
DEFAULT
100
AcDbLine
 10
5.283528
 20
0.00264
 30
0.0
 11
5.283528
 21
0.816657
 31
0.0
  0
LINE
  5
1E4
330
1F
100
AcDbEntity
  8
DEFAULT
100
AcDbLine
 10
4.895729
 20
2.502628
 30
0.0
 11
6.467886
 21
2.502628
 31
0.0
  0
LINE
  5
1E5
330
1F
100
AcDbEntity
  8
DEFAULT
100
AcDbLine
 10
6.080087
 20
0.002626
 30
0.0
 11
6.343233
 21
0.002626
 31
0.0
  0
LINE
  5
1E6
330
1F
100
AcDbEntity
  8
DEFAULT
100
AcDbLine
 10
5.020382
 20
0.002626
 30
0.0
 11
5.283528
 21
0.002626
 31
0.0
  0
LINE
  5
1E7
330
1F
100
AcDbEntity
  8
DEFAULT
100
AcDbLine
 10
21.62565
 20
0.002626
 30
0.0
 11
21.362504
 21
0.002626
 31
0.0
  0
LINE
  5
1E8
330
1F
100
AcDbEntity
  8
DEFAULT
100
AcDbLine
 10
20.565945
 20
0.002626
 30
0.0
 11
20.302799
 21
0.002626
 31
0.0
  0
LINE
  5
1E9
330
1F
100
AcDbEntity
  8
DEFAULT
100
AcDbLine
 10
21.750303
 20
2.502628
 30
0.0
 11
20.178146
 21
2.502628
 31
0.0
  0
LINE
  5
1EA
330
1F
100
AcDbEntity
  8
DEFAULT
100
AcDbLine
 10
21.362504
 20
0.00264
 30
0.0
 11
21.362504
 21
0.816657
 31
0.0
  0
LINE
  5
1EB
330
1F
100
AcDbEntity
  8
DEFAULT
100
AcDbLine
 10
20.565945
 20
0.00264
 30
0.0
 11
20.565945
 21
0.816624
 31
0.0
  0
LINE
  5
1EC
330
1F
100
AcDbEntity
  8
DEFAULT
100
AcDbLine
 10
21.91951
 20
2.069575
 30
0.0
 11
21.91951
 21
0.205195
 31
0.0
  0
LINE
  5
1ED
330
1F
100
AcDbEntity
  8
DEFAULT
100
AcDbLine
 10
20.008939
 20
0.205195
 30
0.0
 11
20.008939
 21
2.069575
 31
0.0
  0
SPLINE
  5
1EE
330
1F
100
AcDbEntity
  8
DEFAULT
100
AcDbSpline
210
0.0
220
0.0
230
1.0
 70
     8
 71
     5
 72
    12
 73
     6
 74
     0
 42
0.0000000001
 43
0.0000000001
 40
0.0
 40
0.0
 40
0.0
 40
0.0
 40
0.0
 40
0.0
 40
1.0
 40
1.0
 40
1.0
 40
1.0
 40
1.0
 40
1.0
 10
21.91950987945127
 20
0.2051950003381384
 30
0.0
 10
21.91950987945127
 20
0.1338121534607934
 30
0.0
 10
21.91950987945127
 20
0.0624293065834484
 30
0.0
 10
21.76841545034867
 20
0.0026264961175732
 30
0.0
 10
21.69703260347134
 20
0.0026264961175732
 30
0.0
 10
21.625649756594
 20
0.0026264961175732
 30
0.0
  0
SPLINE
  5
1EF
330
1F
100
AcDbEntity
  8
DEFAULT
100
AcDbSpline
210
0.0
220
0.0
230
1.0
 70
     8
 71
     5
 72
    12
 73
     6
 74
     0
 42
0.0000000001
 43
0.0000000001
 40
0.0
 40
0.0
 40
0.0
 40
0.0
 40
0.0
 40
0.0
 40
1.0
 40
1.0
 40
1.0
 40
1.0
 40
1.0
 40
1.0
 10
20.30279897473448
 20
0.0026264961175661
 30
0.0
 10
20.23141612799519
 20
0.0026264961175661
 30
0.0
 10
20.1600332812559
 20
0.0026264961175661
 30
0.0
 10
20.00893885271558
 20
0.0624293068595902
 30
0.0
 10
20.00893885271558
 20
0.1338121535988838
 30
0.0
 10
20.00893885271558
 20
0.2051950003381775
 30
0.0
  0
ARC
  5
1F0
330
1F
100
AcDbEntity
  8
DEFAULT
100
AcDbCircle
 10
21.728187
 20
2.070319
 30
0.0
 40
0.191324
100
AcDbArc
 50
359.7772919999999
 51
87.16168999999972
  0
ARC
  5
1F1
330
1F
100
AcDbEntity
  8
DEFAULT
100
AcDbCircle
 10
20.200262
 20
2.070319
 30
0.0
 40
0.191324
100
AcDbArc
 50
92.83831000000029
 51
180.2227080000003
  0
SPLINE
  5
1F2
330
1F
100
AcDbEntity
  8
DEFAULT
100
AcDbSpline
210
0.0
220
0.0
230
1.0
 70
     8
 71
     3
 72
     9
 73
     5
 74
     0
 42
0.0000000001
 43
0.0000000001
 40
-2.0
 40
-2.0
 40
-2.0
 40
-2.0
 40
-1.0
 40
0.0
 40
0.0
 40
0.0
 40
0.0
 10
21.75029564796751
 20
2.502627948839154
 30
0.0
 10
21.73809331031871
 20
1.746543702044084
 30
0.0
 10
21.55158224188782
 20
0.9237007530842567
 30
0.0
 10
21.31021497685961
 20
0.6927737629386235
 30
0.0
 10
20.96422726796407
 20
0.6927737629386235
 30
0.0
  0
SPLINE
  5
1F3
330
1F
100
AcDbEntity
  8
DEFAULT
100
AcDbSpline
210
0.0
220
0.0
230
1.0
 70
     8
 71
     3
 72
     9
 73
     5
 74
     0
 42
0.0000000001
 43
0.0000000001
 40
0.0
 40
0.0
 40
0.0
 40
0.0
 40
1.0
 40
2.0
 40
2.0
 40
2.0
 40
2.0
 10
20.96422726796407
 20
0.6927737629386235
 30
0.0
 10
20.61823955906853
 20
0.6927737629386199
 30
0.0
 10
20.37687229404032
 20
0.9237007530842531
 30
0.0
 10
20.19036122560943
 20
1.746543702044077
 30
0.0
 10
20.17815888796062
 20
2.502627948839147
 30
0.0
  0
SPLINE
  5
1F4
330
1F
100
AcDbEntity
  8
DEFAULT
100
AcDbSpline
210
0.0
220
0.0
230
1.0
 70
     8
 71
     3
 72
     9
 73
     5
 74
     0
 42
0.0000000001
 43
0.0000000001
 40
0.0
 40
0.0
 40
0.0
 40
0.0
 40
1.0
 40
2.0
 40
2.0
 40
2.0
 40
2.0
 10
25.68675369999891
 20
0.6927737629386412
 30
0.0
 10
25.34076599110337
 20
0.6927737629386412
 30
0.0
 10
25.09939872607516
 20
0.9237007530842745
 30
0.0
 10
24.91288765764427
 20
1.746543702044099
 30
0.0
 10
24.90068531999546
 20
2.502627948839168
 30
0.0
  0
SPLINE
  5
1F5
330
1F
100
AcDbEntity
  8
DEFAULT
100
AcDbSpline
210
0.0
220
0.0
230
1.0
 70
     8
 71
     3
 72
     9
 73
     5
 74
     0
 42
0.0000000001
 43
0.0000000001
 40
-2.0
 40
-2.0
 40
-2.0
 40
-2.0
 40
-1.0
 40
0.0
 40
0.0
 40
0.0
 40
0.0
 10
26.47282208000235
 20
2.502627948839175
 30
0.0
 10
26.46061974235355
 20
1.746543702044106
 30
0.0
 10
26.27410867392266
 20
0.923700753084278
 30
0.0
 10
26.03274140889445
 20
0.6927737629386448
 30
0.0
 10
25.68675369999891
 20
0.6927737629386412
 30
0.0
  0
ARC
  5
1F6
330
1F
100
AcDbEntity
  8
DEFAULT
100
AcDbCircle
 10
24.922788
 20
2.070319
 30
0.0
 40
0.191324
100
AcDbArc
 50
92.83831000000029
 51
180.2227080000003
  0
ARC
  5
1F7
330
1F
100
AcDbEntity
  8
DEFAULT
100
AcDbCircle
 10
26.450713
 20
2.070319
 30
0.0
 40
0.191324
100
AcDbArc
 50
359.7772919999999
 51
87.16168999999972
  0
SPLINE
  5
1F8
330
1F
100
AcDbEntity
  8
DEFAULT
100
AcDbSpline
210
0.0
220
0.0
230
1.0
 70
     8
 71
     5
 72
    12
 73
     6
 74
     0
 42
0.0000000001
 43
0.0000000001
 40
0.0
 40
0.0
 40
0.0
 40
0.0
 40
0.0
 40
0.0
 40
1.0
 40
1.0
 40
1.0
 40
1.0
 40
1.0
 40
1.0
 10
25.02532540676932
 20
0.0026264961175874
 30
0.0
 10
24.95394256003003
 20
0.0026264961175874
 30
0.0
 10
24.88255971329074
 20
0.0026264961175874
 30
0.0
 10
24.73146528475042
 20
0.062429306859608
 30
0.0
 10
24.73146528475042
 20
0.1338121535989016
 30
0.0
 10
24.73146528475042
 20
0.2051950003381952
 30
0.0
  0
SPLINE
  5
1F9
330
1F
100
AcDbEntity
  8
DEFAULT
100
AcDbSpline
210
0.0
220
0.0
230
1.0
 70
     8
 71
     5
 72
    12
 73
     6
 74
     0
 42
0.0000000001
 43
0.0000000001
 40
0.0
 40
0.0
 40
0.0
 40
0.0
 40
0.0
 40
0.0
 40
1.0
 40
1.0
 40
1.0
 40
1.0
 40
1.0
 40
1.0
 10
26.64203631148611
 20
0.2051950003381561
 30
0.0
 10
26.64203631148611
 20
0.1338121534608112
 30
0.0
 10
26.64203631148611
 20
0.0624293065834697
 30
0.0
 10
26.49094188238351
 20
0.0026264961175945
 30
0.0
 10
26.41955903550618
 20
0.0026264961175945
 30
0.0
 10
26.34817618862884
 20
0.0026264961175945
 30
0.0
  0
LINE
  5
1FA
330
1F
100
AcDbEntity
  8
DEFAULT
100
AcDbLine
 10
24.731465
 20
0.205195
 30
0.0
 11
24.731465
 21
2.069575
 31
0.0
  0
LINE
  5
1FB
330
1F
100
AcDbEntity
  8
DEFAULT
100
AcDbLine
 10
26.642036
 20
2.069575
 30
0.0
 11
26.642036
 21
0.205195
 31
0.0
  0
LINE
  5
1FC
330
1F
100
AcDbEntity
  8
DEFAULT
100
AcDbLine
 10
25.288471
 20
0.00264
 30
0.0
 11
25.288471
 21
0.816624
 31
0.0
  0
LINE
  5
1FD
330
1F
100
AcDbEntity
  8
DEFAULT
100
AcDbLine
 10
26.08503
 20
0.00264
 30
0.0
 11
26.08503
 21
0.816657
 31
0.0
  0
LINE
  5
1FE
330
1F
100
AcDbEntity
  8
DEFAULT
100
AcDbLine
 10
26.472829
 20
2.502628
 30
0.0
 11
24.900672
 21
2.502628
 31
0.0
  0
LINE
  5
1FF
330
1F
100
AcDbEntity
  8
DEFAULT
100
AcDbLine
 10
25.288471
 20
0.002626
 30
0.0
 11
25.025325
 21
0.002626
 31
0.0
  0
LINE
  5
200
330
1F
100
AcDbEntity
  8
DEFAULT
100
AcDbLine
 10
26.348176
 20
0.002626
 30
0.0
 11
26.08503
 21
0.002626
 31
0.0
  0
LINE
  5
201
330
1F
100
AcDbEntity
  8
DEFAULT
100
AcDbLine
 10
12.123016
 20
10.500677
 30
0.0
 11
13.323016
 21
10.500677
 31
0.0
  0
LINE
  5
202
330
1F
100
AcDbEntity
  8
DEFAULT
100
AcDbLine
 10
12.123016
 20
6.500677
 30
0.0
 11
12.123016
 21
10.500677
 31
0.0
  0
LINE
  5
203
330
1F
100
AcDbEntity
  8
DEFAULT
100
AcDbLine
 10
13.323016
 20
6.500677
 30
0.0
 11
12.123016
 21
6.500677
 31
0.0
  0
LINE
  5
204
330
1F
100
AcDbEntity
  8
DEFAULT
100
AcDbLine
 10
12.342782
 20
10.500677
 30
0.0
 11
12.342782
 21
11.595804
 31
0.0
  0
LINE
  5
205
330
1F
100
AcDbEntity
  8
DEFAULT
100
AcDbLine
 10
14.303251
 20
10.500677
 30
0.0
 11
14.303251
 21
11.595804
 31
0.0
  0
LINE
  5
206
330
1F
100
AcDbEntity
  8
DEFAULT
100
AcDbLine
 10
14.523016
 20
10.500677
 30
0.0
 11
13.323016
 21
10.500677
 31
0.0
  0
LINE
  5
207
330
1F
100
AcDbEntity
  8
DEFAULT
100
AcDbLine
 10
14.523016
 20
6.500677
 30
0.0
 11
14.523016
 21
10.500677
 31
0.0
  0
LINE
  5
208
330
1F
100
AcDbEntity
  8
DEFAULT
100
AcDbLine
 10
13.323016
 20
6.500677
 30
0.0
 11
14.523016
 21
6.500677
 31
0.0
  0
LINE
  5
209
330
1F
100
AcDbEntity
  8
DEFAULT
100
AcDbLine
 10
14.303251
 20
11.595804
 30
0.0
 11
14.192754
 21
11.688059
 31
0.0
  0
LINE
  5
20A
330
1F
100
AcDbEntity
  8
DEFAULT
100
AcDbLine
 10
12.342782
 20
11.595804
 30
0.0
 11
12.453278
 21
11.688059
 31
0.0
  0
LINE
  5
20B
330
1F
100
AcDbEntity
  8
DEFAULT
100
AcDbLine
 10
12.536945
 20
2.647986
 30
0.0
 11
12.536945
 21
2.502628
 31
0.0
  0
LINE
  5
20C
330
1F
100
AcDbEntity
  8
DEFAULT
100
AcDbLine
 10
14.109082
 20
2.647986
 30
0.0
 11
14.109082
 21
2.502628
 31
0.0
  0
LINE
  5
20D
330
1F
100
AcDbEntity
  8
DEFAULT
100
AcDbLine
 10
0.17321
 20
2.715827
 30
0.0
 11
0.17321
 21
2.502628
 31
0.0
  0
ARC
  5
20E
330
1F
100
AcDbEntity
  8
DEFAULT
100
AcDbCircle
 10
1.67321
 20
2.715827
 30
0.0
 40
1.5
100
AcDbArc
 50
123.174016
 51
180.0
  0
ARC
  5
20F
330
1F
100
AcDbEntity
  8
DEFAULT
100
AcDbCircle
 10
9.338384
 20
-8.992809
 30
0.0
 40
15.494537
100
AcDbArc
 50
89.33288
 51
123.207563
  0
LINE
  5
210
330
1F
100
AcDbEntity
  8
DEFAULT
100
AcDbLine
 10
10.971875
 20
6.500677
 30
0.0
 11
9.51879
 21
6.500677
 31
0.0
  0
LINE
  5
211
330
1F
100
AcDbEntity
  8
DEFAULT
100
AcDbLine
 10
4.895737
 20
2.956447
 30
0.0
 11
4.895737
 21
2.502628
 31
0.0
  0
ARC
  5
212
330
1F
100
AcDbEntity
  8
DEFAULT
100
AcDbCircle
 10
6.395737
 20
2.956447
 30
0.0
 40
1.5
100
AcDbArc
 50
138.104179
 51
180.0
  0
ARC
  5
213
330
1F
100
AcDbEntity
  8
DEFAULT
100
AcDbCircle
 10
10.83206
 20
-0.830386
 30
0.0
 40
7.332396
100
AcDbArc
 50
88.907412
 51
139.227229
  0
LINE
  5
214
330
1F
100
AcDbEntity
  8
DEFAULT
100
AcDbLine
 10
12.123016
 20
6.500677
 30
0.0
 11
10.971875
 21
6.500677
 31
0.0
  0
LINE
  5
215
330
1F
100
AcDbEntity
  8
DEFAULT
100
AcDbLine
 10
1.630728
 20
2.927104
 30
0.0
 11
1.630728
 21
3.569368
 31
0.0
  0
LINE
  5
216
330
1F
100
AcDbEntity
  8
DEFAULT
100
AcDbLine
 10
1.745347
 20
2.502628
 30
0.0
 11
1.745347
 21
2.999955
 31
0.0
  0
ARC
  5
217
330
1F
100
AcDbEntity
  8
DEFAULT
100
AcDbCircle
 10
8.744605
 20
-9.749395
 30
0.0
 40
14.536192
100
AcDbArc
 50
101.721761
 51
119.300541
  0
ARC
  5
218
330
1F
100
AcDbEntity
  8
DEFAULT
100
AcDbCircle
 10
9.279852
 20
-8.866553
 30
0.0
 40
14.607461
100
AcDbArc
 50
107.859283
 51
124.194708
  0
ARC
  5
219
330
1F
100
AcDbEntity
  8
DEFAULT
100
AcDbCircle
 10
9.255227
 20
-8.850811
 30
0.0
 40
14.584938
100
AcDbArc
 50
97.621555
 51
107.78617
  0
LINE
  5
21A
330
1F
100
AcDbEntity
  8
DEFAULT
100
AcDbLine
 10
12.001555
 20
4.500677
 30
0.0
 11
13.323016
 21
4.500677
 31
0.0
  0
ARC
  5
21B
330
1F
100
AcDbEntity
  8
DEFAULT
100
AcDbCircle
 10
10.910131
 20
-2.177904
 30
0.0
 40
6.767175
100
AcDbArc
 50
80.718688
 51
131.02894
  0
ARC
  5
21C
330
1F
100
AcDbEntity
  8
DEFAULT
100
AcDbCircle
 10
-11.589249
 20
0.896518
 30
0.0
 40
24.189685
100
AcDbArc
 50
4.152168
 51
8.568731999999999
  0
LINE
  5
21D
330
1F
100
AcDbEntity
  8
DEFAULT
100
AcDbLine
 10
12.573016
 20
2.500677
 30
0.0
 11
12.573016
 21
4.500677
 31
0.0
  0
LINE
  5
21E
330
1F
100
AcDbEntity
  8
DEFAULT
100
AcDbLine
 10
13.323016
 20
2.500677
 30
0.0
 11
12.573016
 21
2.500677
 31
0.0
  0
SPLINE
  5
21F
330
1F
100
AcDbEntity
  8
DEFAULT
100
AcDbSpline
210
0.0
220
0.0
230
1.0
 70
     8
 71
     3
 72
    10
 73
     6
 74
     0
 42
0.0000000001
 43
0.0000000001
 40
1.841431110057292
 40
1.841431110057292
 40
1.841431110057292
 40
1.841431110057292
 40
2.232866066252535
 40
3.232866066252535
 40
4.232866066252535
 40
4.232866066252535
 40
4.232866066252535
 40
4.232866066252535
 10
7.082098709712776
 20
4.17553509218922
 30
0.0
 10
7.273587637727426
 20
4.359549188606406
 30
0.0
 10
8.04532277430481
 20
4.971467562367986
 30
0.0
 10
9.518790021100594
 20
5.613487652599572
 30
0.0
 10
11.53278958488335
 20
5.722977729692278
 30
0.0
 10
13.31409380648852
 20
5.722977729692278
 30
0.0
  0
ARC
  5
220
330
1F
100
AcDbEntity
  8
DEFAULT
100
AcDbCircle
 10
8.467886
 20
2.733456
 30
0.0
 40
2.0
100
AcDbArc
 50
133.85961
 51
180.0
  0
LINE
  5
221
330
1F
100
AcDbEntity
  8
DEFAULT
100
AcDbLine
 10
6.467886
 20
2.502628
 30
0.0
 11
6.467886
 21
2.733456
 31
0.0
  0
SPLINE
  5
222
330
1F
100
AcDbEntity
  8
DEFAULT
100
AcDbSpline
210
0.0
220
0.0
230
1.0
 70
     8
 71
     3
 72
    10
 73
     6
 74
     0
 42
0.0000000001
 43
0.0000000001
 40
1.841431110057292
 40
1.841431110057292
 40
1.841431110057292
 40
1.841431110057292
 40
2.232866066252535
 40
3.232866066252535
 40
4.232866066252535
 40
4.232866066252535
 40
4.232866066252535
 40
4.232866066252535
 10
19.56393346284963
 20
4.17553509218922
 30
0.0
 10
19.37244453483498
 20
4.359549188606406
 30
0.0
 10
18.6007093982576
 20
4.971467562367986
 30
0.0
 10
17.12724215146181
 20
5.613487652599572
 30
0.0
 10
15.11324258767906
 20
5.722977729692278
 30
0.0
 10
13.33193836607388
 20
5.722977729692278
 30
0.0
  0
ARC
  5
223
330
1F
100
AcDbEntity
  8
DEFAULT
100
AcDbCircle
 10
18.178146
 20
2.733456
 30
0.0
 40
2.0
100
AcDbArc
 50
0.0
 51
46.14039
  0
LINE
  5
224
330
1F
100
AcDbEntity
  8
DEFAULT
100
AcDbLine
 10
20.178146
 20
2.502628
 30
0.0
 11
20.178146
 21
2.733456
 31
0.0
  0
LINE
  5
225
330
1F
100
AcDbEntity
  8
DEFAULT
100
AcDbLine
 10
14.073016
 20
2.500677
 30
0.0
 11
14.073016
 21
4.500677
 31
0.0
  0
LINE
  5
226
330
1F
100
AcDbEntity
  8
DEFAULT
100
AcDbLine
 10
13.323016
 20
2.500677
 30
0.0
 11
14.073016
 21
2.500677
 31
0.0
  0
ARC
  5
227
330
1F
100
AcDbEntity
  8
DEFAULT
100
AcDbCircle
 10
38.235281
 20
0.896518
 30
0.0
 40
24.189685
100
AcDbArc
 50
171.431268
 51
175.847832
  0
LINE
  5
228
330
1F
100
AcDbEntity
  8
DEFAULT
100
AcDbLine
 10
14.644478
 20
4.500677
 30
0.0
 11
13.323016
 21
4.500677
 31
0.0
  0
ARC
  5
229
330
1F
100
AcDbEntity
  8
DEFAULT
100
AcDbCircle
 10
15.735901
 20
-2.177904
 30
0.0
 40
6.767175
100
AcDbArc
 50
48.97106000000002
 51
99.28131200000001
  0
ARC
  5
22A
330
1F
100
AcDbEntity
  8
DEFAULT
100
AcDbCircle
 10
17.36618
 20
-8.866553
 30
0.0
 40
14.607461
100
AcDbArc
 50
55.805292
 51
72.140717
  0
ARC
  5
22B
330
1F
100
AcDbEntity
  8
DEFAULT
100
AcDbCircle
 10
17.390806
 20
-8.850811
 30
0.0
 40
14.584938
100
AcDbArc
 50
72.21383000000002
 51
82.37844500000001
  0
ARC
  5
22C
330
1F
100
AcDbEntity
  8
DEFAULT
100
AcDbCircle
 10
17.901427
 20
-9.749395
 30
0.0
 40
14.536192
100
AcDbArc
 50
60.69945899999999
 51
78.278239
  0
LINE
  5
22D
330
1F
100
AcDbEntity
  8
DEFAULT
100
AcDbLine
 10
24.900685
 20
2.502628
 30
0.0
 11
24.900685
 21
2.999955
 31
0.0
  0
LINE
  5
22E
330
1F
100
AcDbEntity
  8
DEFAULT
100
AcDbLine
 10
25.015304
 20
2.927104
 30
0.0
 11
25.015304
 21
3.569368
 31
0.0
  0
LINE
  5
22F
330
1F
100
AcDbEntity
  8
DEFAULT
100
AcDbLine
 10
21.750296
 20
2.956447
 30
0.0
 11
21.750296
 21
2.502628
 31
0.0
  0
ARC
  5
230
330
1F
100
AcDbEntity
  8
DEFAULT
100
AcDbCircle
 10
20.250296
 20
2.956447
 30
0.0
 40
1.5
100
AcDbArc
 50
0.0
 51
41.89582099999996
  0
ARC
  5
231
330
1F
100
AcDbEntity
  8
DEFAULT
100
AcDbCircle
 10
15.813972
 20
-0.830386
 30
0.0
 40
7.332396
100
AcDbArc
 50
40.772771
 51
91.092588
  0
LINE
  5
232
330
1F
100
AcDbEntity
  8
DEFAULT
100
AcDbLine
 10
14.523016
 20
6.500677
 30
0.0
 11
15.674157
 21
6.500677
 31
0.0
  0
LINE
  5
233
330
1F
100
AcDbEntity
  8
DEFAULT
100
AcDbLine
 10
26.472822
 20
2.715827
 30
0.0
 11
26.472822
 21
2.502628
 31
0.0
  0
ARC
  5
234
330
1F
100
AcDbEntity
  8
DEFAULT
100
AcDbCircle
 10
24.972822
 20
2.715827
 30
0.0
 40
1.5
100
AcDbArc
 50
0.0
 51
56.825984
  0
ARC
  5
235
330
1F
100
AcDbEntity
  8
DEFAULT
100
AcDbCircle
 10
17.307648
 20
-8.992809
 30
0.0
 40
15.494537
100
AcDbArc
 50
56.792437
 51
90.66712
  0
LINE
  5
236
330
1F
100
AcDbEntity
  8
DEFAULT
100
AcDbLine
 10
15.674157
 20
6.500677
 30
0.0
 11
17.127242
 21
6.500677
 31
0.0
  0
LINE
  5
237
330
1F
100
AcDbEntity
  8
DEFAULT
100
AcDbLine
 10
12.285996
 20
5.683273
 30
0.0
 11
12.444315
 21
4.754468
 31
0.0
  0
LINE
  5
238
330
1F
100
AcDbEntity
  8
DEFAULT
100
AcDbLine
 10
14.360036
 20
5.683273
 30
0.0
 11
14.201717
 21
4.754468
 31
0.0
  0
LINE
  5
239
330
1F
100
AcDbEntity
  8
DEFAULT
100
AcDbLine
 10
25.811699
 20
27.807771
 30
0.0
 11
25.585598
 21
27.807771
 31
0.0
  0
ARC
  5
23A
330
1F
100
AcDbEntity
  8
DEFAULT
100
AcDbCircle
 10
25.811699
 20
27.557771
 30
0.0
 40
0.25
100
AcDbArc
 50
4.301925000000212
 51
90.00000000000081
  0
LINE
  5
23B
330
1F
100
AcDbEntity
  8
DEFAULT
100
AcDbLine
 10
26.069556
 20
27.462714
 30
0.0
 11
26.060995
 21
27.576524
 31
0.0
  0
ARC
  5
23C
330
1F
100
AcDbEntity
  8
DEFAULT
100
AcDbCircle
 10
25.321669
 20
27.406455
 30
0.0
 40
0.75
100
AcDbArc
 50
313.3316629999999
 51
4.301924999999962
  0
ARC
  5
23D
330
1F
100
AcDbEntity
  8
DEFAULT
100
AcDbCircle
 10
25.062524
 20
27.632634
 30
0.0
 40
1.092859
100
AcDbArc
 50
297.5894329999999
 51
315.077349
  0
LINE
  5
23E
330
1F
100
AcDbEntity
  8
DEFAULT
100
AcDbLine
 10
0.834333
 20
27.807771
 30
0.0
 11
1.060434
 21
27.807771
 31
0.0
  0
ARC
  5
23F
330
1F
100
AcDbEntity
  8
DEFAULT
100
AcDbCircle
 10
0.834333
 20
27.557771
 30
0.0
 40
0.25
100
AcDbArc
 50
90.0
 51
175.6980749999998
  0
LINE
  5
240
330
1F
100
AcDbEntity
  8
DEFAULT
100
AcDbLine
 10
0.576476
 20
27.462714
 30
0.0
 11
0.585037
 21
27.576524
 31
0.0
  0
ARC
  5
241
330
1F
100
AcDbEntity
  8
DEFAULT
100
AcDbCircle
 10
1.324363
 20
27.406455
 30
0.0
 40
0.75
100
AcDbArc
 50
175.698075
 51
226.6683370000001
  0
ARC
  5
242
330
1F
100
AcDbEntity
  8
DEFAULT
100
AcDbCircle
 10
1.583508
 20
27.632634
 30
0.0
 40
1.092859
100
AcDbArc
 50
224.922651
 51
242.410567
  0
ARC
  5
243
330
1F
100
AcDbEntity
  8
DEFAULT
100
AcDbCircle
 10
-92.044721
 20
27.726604
 30
0.0
 40
115.370156
100
AcDbArc
 50
356.64051
 51
359.992885
  0
ARC
  5
244
330
1F
100
AcDbEntity
  8
DEFAULT
100
AcDbCircle
 10
118.690753
 20
27.726604
 30
0.0
 40
115.370156
100
AcDbArc
 50
180.007115
 51
183.35949
  0
SPLINE
  5
245
330
1F
100
AcDbEntity
  8
DEFAULT
100
AcDbSpline
210
0.0
220
0.0
230
1.0
 70
     8
 71
     3
 72
     9
 73
     5
 74
     0
 42
0.0000000001
 43
0.0000000001
 40
9.683795790911057
 40
9.683795790911057
 40
9.683795790911057
 40
9.683795790911057
 40
15.39295351633981
 40
22.13976143149836
 40
22.13976143149836
 40
22.13976143149836
 40
22.13976143149836
 10
23.29963738577692
 20
33.42338932937263
 30
0.0
 10
23.27834286547047
 20
31.52037629975467
 30
0.0
 10
23.38139983608912
 20
27.36632093640612
 30
0.0
 10
23.25892045487594
 20
23.21179843918723
 30
0.0
 10
23.12717192228125
 20
20.96584791787088
 30
0.0
  0
LINE
  5
246
330
1F
100
AcDbEntity
  8
DEFAULT
100
AcDbLine
 10
23.299637
 20
40.510101
 30
0.0
 11
23.299637
 21
33.423389
 31
0.0
  0
ARC
  5
247
330
1F
100
AcDbEntity
  8
DEFAULT
100
AcDbCircle
 10
22.792617
 20
40.500538
 30
0.0
 40
0.50711
100
AcDbArc
 50
1.080539000000029
 51
80.8970149999998
  0
SPLINE
  5
248
330
1F
100
AcDbEntity
  8
DEFAULT
100
AcDbSpline
210
0.0
220
0.0
230
1.0
 70
     8
 71
     3
 72
     8
 73
     4
 74
     0
 42
0.0000000001
 43
0.0000000001
 40
1.866466581403286
 40
1.866466581403286
 40
1.866466581403286
 40
1.866466581403286
 40
2.760671437038784
 40
2.760671437038784
 40
2.760671437038784
 40
2.760671437038784
 10
3.773081055420976
 20
41.00105709595577
 30
0.0
 10
6.797602714963077
 20
41.54947305135391
 30
0.0
 10
19.85324829915948
 20
41.54922349339166
 30
0.0
 10
22.87284705073195
 20
41.001261235502
 30
0.0
  0
ARC
  5
249
330
1F
100
AcDbEntity
  8
DEFAULT
100
AcDbCircle
 10
3.853239
 20
40.500317
 30
0.0
 40
0.507115
100
AcDbArc
 50
99.09474399999998
 51
178.9191930000005
  0
LINE
  5
24A
330
1F
100
AcDbEntity
  8
DEFAULT
100
AcDbLine
 10
3.346215
 20
33.423389
 30
0.0
 11
3.346215
 21
40.509883
 31
0.0
  0
SPLINE
  5
24B
330
1F
100
AcDbEntity
  8
DEFAULT
100
AcDbSpline
210
0.0
220
0.0
230
1.0
 70
     8
 71
     3
 72
     9
 73
     5
 74
     0
 42
0.0000000001
 43
0.0000000001
 40
-17.51246727575713
 40
-17.51246727575713
 40
-17.51246727575713
 40
-17.51246727575713
 40
-10.76565936059858
 40
-5.056513795134416
 40
-5.056513795134416
 40
-5.056513795134416
 40
-5.056513795134416
 10
3.518860250281145
 20
20.96584791787087
 30
0.0
 10
3.387111717686446
 20
23.21179843918721
 30
0.0
 10
3.264632456042085
 20
27.36631688061087
 30
0.0
 10
3.346214734695161
 20
31.52036818907618
 30
0.0
 10
3.346214734695637
 20
33.42338932937264
 30
0.0
  0
ARC
  5
24C
330
1F
100
AcDbEntity
  8
DEFAULT
100
AcDbCircle
 10
3.842509
 20
69.046588
 30
0.0
 40
0.375
100
AcDbArc
 50
183.4497620000004
 51
264.4146740000004
  0
ARC
  5
24D
330
1F
100
AcDbEntity
  8
DEFAULT
100
AcDbCircle
 10
5.676191
 20
87.797369
 30
0.0
 40
19.215228
100
AcDbArc
 50
264.414674
 51
276.538801
  0
ARC
  5
24E
330
1F
100
AcDbEntity
  8
DEFAULT
100
AcDbCircle
 10
13.323016
 20
21.083762
 30
0.0
 40
47.935195
100
AcDbArc
 50
83.461199
 51
96.538801
  0
ARC
  5
24F
330
1F
100
AcDbEntity
  8
DEFAULT
100
AcDbCircle
 10
20.969841
 20
87.524663
 30
0.0
 40
18.944321
100
AcDbArc
 50
263.367276
 51
275.666983
  0
ARC
  5
250
330
1F
100
AcDbEntity
  8
DEFAULT
100
AcDbCircle
 10
22.803493
 20
69.046097
 30
0.0
 40
0.375
100
AcDbArc
 50
275.6669829999997
 51
356.5498189999994
  0
ARC
  5
251
330
1F
100
AcDbEntity
  8
DEFAULT
100
AcDbCircle
 10
-44.436547
 20
73.099992
 30
0.0
 40
67.737134
100
AcDbArc
 50
356.549819
 51
3.419470999999979
  0
ARC
  5
252
330
1F
100
AcDbEntity
  8
DEFAULT
100
AcDbCircle
 10
22.805656
 20
77.117847
 30
0.0
 40
0.375
100
AcDbArc
 50
3.4194710000006
 51
90.00000000000054
  0
LINE
  5
253
330
1F
100
AcDbEntity
  8
DEFAULT
100
AcDbLine
 10
3.840376
 20
77.492847
 30
0.0
 11
22.805656
 21
77.492847
 31
0.0
  0
ARC
  5
254
330
1F
100
AcDbEntity
  8
DEFAULT
100
AcDbCircle
 10
3.840376
 20
77.117847
 30
0.0
 40
0.375
100
AcDbArc
 50
90.0
 51
176.5805289999994
  0
ARC
  5
255
330
1F
100
AcDbEntity
  8
DEFAULT
100
AcDbCircle
 10
71.08258
 20
73.099992
 30
0.0
 40
67.737134
100
AcDbArc
 50
176.580529
 51
183.449762
  0
LINE
  5
256
330
1F
100
AcDbEntity
  8
DEFAULT
100
AcDbLine
 10
12.661591
 20
80.023006
 30
0.0
 11
12.924736
 21
80.023006
 31
0.0
  0
LINE
  5
257
330
1F
100
AcDbEntity
  8
DEFAULT
100
AcDbLine
 10
13.984441
 20
80.023006
 30
0.0
 11
13.721296
 21
80.023006
 31
0.0
  0
SPLINE
  5
258
330
1F
100
AcDbEntity
  8
DEFAULT
100
AcDbSpline
210
0.0
220
0.0
230
1.0
 70
     8
 71
     5
 72
    12
 73
     6
 74
     0
 42
0.0000000001
 43
0.0000000001
 40
0.0
 40
0.0
 40
0.0
 40
0.0
 40
0.0
 40
0.0
 40
1.0
 40
1.0
 40
1.0
 40
1.0
 40
1.0
 40
1.0
 10
12.3677305729133
 20
79.82043706291499
 30
0.0
 10
12.3677305729133
 20
79.89181990979233
 30
0.0
 10
12.3677305729133
 20
79.96320275666967
 30
0.0
 10
12.5188250020159
 20
80.02300556713554
 30
0.0
 10
12.59020784889324
 20
80.02300556713554
 30
0.0
 10
12.66159069577058
 20
80.02300556713554
 30
0.0
  0
SPLINE
  5
259
330
1F
100
AcDbEntity
  8
DEFAULT
100
AcDbSpline
210
0.0
220
0.0
230
1.0
 70
     8
 71
     5
 72
    12
 73
     6
 74
     0
 42
0.0000000001
 43
0.0000000001
 40
0.0
 40
0.0
 40
0.0
 40
0.0
 40
0.0
 40
0.0
 40
1.0
 40
1.0
 40
1.0
 40
1.0
 40
1.0
 40
1.0
 10
13.9844414776301
 20
80.02300556713554
 30
0.0
 10
14.05582432436939
 20
80.02300556713554
 30
0.0
 10
14.12720717110868
 20
80.02300556713554
 30
0.0
 10
14.27830159964899
 20
79.96320275639353
 30
0.0
 10
14.27830159964899
 20
79.89181990965425
 30
0.0
 10
14.27830159964899
 20
79.82043706291493
 30
0.0
  0
LINE
  5
25A
330
1F
100
AcDbEntity
  8
DEFAULT
100
AcDbLine
 10
14.278302
 20
77.956057
 30
0.0
 11
14.278302
 21
79.820437
 31
0.0
  0
LINE
  5
25B
330
1F
100
AcDbEntity
  8
DEFAULT
100
AcDbLine
 10
12.367731
 20
79.820437
 30
0.0
 11
12.367731
 21
77.956057
 31
0.0
  0
LINE
  5
25C
330
1F
100
AcDbEntity
  8
DEFAULT
100
AcDbLine
 10
12.959736
 20
80.023006
 30
0.0
 11
12.959736
 21
78.826798
 31
0.0
  0
LINE
  5
25D
330
1F
100
AcDbEntity
  8
DEFAULT
100
AcDbLine
 10
13.686296
 20
80.023006
 30
0.0
 11
12.959736
 21
80.023006
 31
0.0
  0
LINE
  5
25E
330
1F
100
AcDbEntity
  8
DEFAULT
100
AcDbLine
 10
13.686296
 20
78.826798
 30
0.0
 11
13.686296
 21
80.023006
 31
0.0
  0
LINE
  5
25F
330
1F
100
AcDbEntity
  8
DEFAULT
100
AcDbLine
 10
3.346215
 20
68.707137
 30
0.0
 11
3.102545
 21
65.914725
 31
0.0
  0
LINE
  5
260
330
1F
100
AcDbEntity
  8
DEFAULT
100
AcDbLine
 10
24.707606
 20
52.574153
 30
0.0
 11
24.404698
 21
56.045414
 31
0.0
  0
ARC
  5
261
330
1F
100
AcDbEntity
  8
DEFAULT
100
AcDbCircle
 10
24.334025
 20
52.541554
 30
0.0
 40
0.375
100
AcDbArc
 50
275.4931289999997
 51
4.987082999999839
  0
ARC
  5
262
330
1F
100
AcDbEntity
  8
DEFAULT
100
AcDbCircle
 10
13.323016
 20
167.039177
 30
0.0
 40
115.400859
100
AcDbArc
 50
264.506871
 51
275.493129
  0
ARC
  5
263
330
1F
100
AcDbEntity
  8
DEFAULT
100
AcDbCircle
 10
2.312007
 20
52.541554
 30
0.0
 40
0.375
100
AcDbArc
 50
175.0129170000002
 51
264.5068710000002
  0
LINE
  5
264
330
1F
100
AcDbEntity
  8
DEFAULT
100
AcDbLine
 10
2.241334
 20
56.045414
 30
0.0
 11
1.938427
 21
52.574153
 31
0.0
  0
LINE
  5
265
330
1F
100
AcDbEntity
  8
DEFAULT
100
AcDbLine
 10
23.543487
 20
65.914725
 30
0.0
 11
23.299817
 21
68.707137
 31
0.0
  0
ARC
  5
266
330
1F
100
AcDbEntity
  8
DEFAULT
100
AcDbCircle
 10
2.55165
 20
71.084733
 30
0.0
 40
0.35
100
AcDbArc
 50
5.761181000000934
 51
100.0384930000009
  0
SPLINE
  5
267
330
1F
100
AcDbEntity
  8
DEFAULT
100
AcDbSpline
210
0.0
220
0.0
230
1.0
 70
     8
 71
     5
 72
    12
 73
     6
 74
     0
 42
0.0000000001
 43
0.0000000001
 40
11.65789518347801
 40
11.65789518347801
 40
11.65789518347801
 40
11.65789518347801
 40
11.65789518347801
 40
11.65789518347801
 40
12.63344463544381
 40
12.63344463544381
 40
12.63344463544381
 40
12.63344463544381
 40
12.63344463544381
 40
12.63344463544381
 10
2.72914980201123
 20
56.19266214012148
 30
0.0
 10
2.72914980201123
 20
57.86939577547791
 30
0.0
 10
2.779506522423047
 20
60.75693298064219
 30
0.0
 10
3.190975788395924
 20
63.50186162100776
 30
0.0
 10
3.263068087441364
 20
67.52011300714231
 30
0.0
 10
2.899882345545478
 20
71.11986659108251
 30
0.0
  0
ARC
  5
268
330
1F
100
AcDbEntity
  8
DEFAULT
100
AcDbCircle
 10
1.891326
 20
58.086611
 30
0.0
 40
2.070988
100
AcDbArc
 50
246.1368949999999
 51
293.8631049999999
  0
SPLINE
  5
269
330
1F
100
AcDbEntity
  8
DEFAULT
100
AcDbSpline
210
0.0
220
0.0
230
1.0
 70
     8
 71
     5
 72
    13
 73
     7
 74
     0
 42
0.0000000001
 43
0.0000000001
 40
8.108726748602447
 40
8.108726748602447
 40
8.108726748602447
 40
8.108726748602447
 40
8.108726748602447
 40
8.108726748602447
 40
8.932804867228398
 40
9.932804867228398
 40
9.932804867228398
 40
9.932804867228398
 40
9.932804867228398
 40
9.932804867228398
 40
9.932804867228398
 10
0.9711365280312327
 20
70.40285744089182
 30
0.0
 10
0.7833728916941445
 20
69.28535166530328
 30
0.0
 10
0.6610738965030125
 20
66.55290753952025
 30
0.0
 10
0.6133236460079614
 20
62.01625971121256
 30
0.0
 10
0.8117441353411261
 20
60.51410753181127
 30
0.0
 10
1.053502133617411
 20
57.82248453324569
 30
0.0
 10
1.053502133617411
 20
56.1926621401215
 30
0.0
  0
ARC
  5
26A
330
1F
100
AcDbEntity
  8
DEFAULT
100
AcDbCircle
 10
1.957313
 20
70.23716
 30
0.0
 40
1.0
100
AcDbArc
 50
112.553978
 51
170.4622340000005
  0
ARC
  5
26B
330
1F
100
AcDbEntity
  8
DEFAULT
100
AcDbCircle
 10
3.264782
 20
67.089042
 30
0.0
 40
4.40883
100
AcDbArc
 50
100.112915
 51
112.553978
  0
ARC
  5
26C
330
1F
100
AcDbEntity
  8
DEFAULT
100
AcDbCircle
 10
24.688719
 20
70.23716
 30
0.0
 40
1.0
100
AcDbArc
 50
9.537766000000333
 51
67.44602200000067
  0
ARC
  5
26D
330
1F
100
AcDbEntity
  8
DEFAULT
100
AcDbCircle
 10
23.38125
 20
67.089042
 30
0.0
 40
4.40883
100
AcDbArc
 50
67.44602200000006
 51
79.88708500000001
  0
ARC
  5
26E
330
1F
100
AcDbEntity
  8
DEFAULT
100
AcDbCircle
 10
24.094551
 20
71.084509
 30
0.0
 40
0.350191
100
AcDbArc
 50
79.99513199999983
 51
174.2051940000001
  0
SPLINE
  5
26F
330
1F
100
AcDbEntity
  8
DEFAULT
100
AcDbSpline
210
0.0
220
0.0
230
1.0
 70
     8
 71
     5
 72
    12
 73
     6
 74
     0
 42
0.0000000001
 43
0.0000000001
 40
5.356492395908362
 40
5.356492395908362
 40
5.356492395908362
 40
5.356492395908362
 40
5.356492395908362
 40
5.356492395908362
 40
6.332041847874166
 40
6.332041847874166
 40
6.332041847874166
 40
6.332041847874166
 40
6.332041847874166
 40
6.332041847874166
 10
23.91688237055116
 20
56.19266214012148
 30
0.0
 10
23.91688237055116
 20
57.86939577547791
 30
0.0
 10
23.86652565013934
 20
60.75693298064219
 30
0.0
 10
23.45505638416646
 20
63.50186162100779
 30
0.0
 10
23.38296408512123
 20
67.52011300714233
 30
0.0
 10
23.74614982701691
 20
71.11986659108253
 30
0.0
  0
ARC
  5
270
330
1F
100
AcDbEntity
  8
DEFAULT
100
AcDbCircle
 10
24.754706
 20
58.086611
 30
0.0
 40
2.070988
100
AcDbArc
 50
246.1368949999999
 51
293.8631049999999
  0
SPLINE
  5
271
330
1F
100
AcDbEntity
  8
DEFAULT
100
AcDbSpline
210
0.0
220
0.0
230
1.0
 70
     8
 71
     5
 72
    13
 73
     7
 74
     0
 42
0.0000000001
 43
0.0000000001
 40
1.807323961032802
 40
1.807323961032802
 40
1.807323961032802
 40
1.807323961032802
 40
1.807323961032802
 40
1.807323961032802
 40
2.631402079658754
 40
3.631402079658754
 40
3.631402079658754
 40
3.631402079658754
 40
3.631402079658754
 40
3.631402079658754
 40
3.631402079658754
 10
25.67489564453116
 20
70.40285744089182
 30
0.0
 10
25.86265928086825
 20
69.28535166530328
 30
0.0
 10
25.98495827605938
 20
66.55290753952025
 30
0.0
 10
26.03270852655443
 20
62.01625971121256
 30
0.0
 10
25.83428803722126
 20
60.51410753181127
 30
0.0
 10
25.59253003894498
 20
57.82248453324569
 30
0.0
 10
25.59253003894498
 20
56.1926621401215
 30
0.0
  0
LINE
  5
272
330
1F
100
AcDbEntity
  8
DEFAULT
100
AcDbLine
 10
23.299817
 20
68.707137
 30
0.0
 11
23.073738
 21
68.78611
 31
0.0
  0
LINE
  5
273
330
1F
100
AcDbEntity
  8
DEFAULT
100
AcDbLine
 10
3.346215
 20
68.707137
 30
0.0
 11
3.572449
 21
68.78641
 31
0.0
  0
LINE
  5
274
330
1F
100
AcDbEntity
  8
DEFAULT
100
AcDbLine
 10
23.402985
 20
67.524851
 30
0.0
 11
23.546856
 21
67.574635
 31
0.0
  0
ARC
  5
275
330
1F
100
AcDbEntity
  8
DEFAULT
100
AcDbCircle
 10
25.686751
 20
69.14692
 30
0.0
 40
0.786078
100
AcDbArc
 50
289.0873470000001
 51
85.81008800000001
  0
LINE
  5
276
330
1F
100
AcDbEntity
  8
DEFAULT
100
AcDbLine
 10
25.875143
 20
68.380301
 30
0.0
 11
25.943806
 21
68.40406
 31
0.0
  0
LINE
  5
277
330
1F
100
AcDbEntity
  8
DEFAULT
100
AcDbLine
 10
23.609179
 20
69.336818
 30
0.0
 11
23.188739
 21
69.208977
 31
0.0
  0
LINE
  5
278
330
1F
100
AcDbEntity
  8
DEFAULT
100
AcDbLine
 10
12.53708
 20
78.144617
 30
0.0
 11
12.524709
 21
77.492847
 31
0.0
  0
ARC
  5
279
330
1F
100
AcDbEntity
  8
DEFAULT
100
AcDbCircle
 10
13.323016
 20
78.129699
 30
0.0
 40
0.786078
100
AcDbArc
 50
1.087347000000324
 51
178.9126529999997
  0
LINE
  5
27A
330
1F
100
AcDbEntity
  8
DEFAULT
100
AcDbLine
 10
14.121323
 20
77.492847
 30
0.0
 11
14.108952
 21
78.144617
 31
0.0
  0
LINE
  5
27B
330
1F
100
AcDbEntity
  8
DEFAULT
100
AcDbLine
 10
3.457293
 20
69.208977
 30
0.0
 11
3.036853
 21
69.336818
 31
0.0
  0
LINE
  5
27C
330
1F
100
AcDbEntity
  8
DEFAULT
100
AcDbLine
 10
0.702227
 20
68.40406
 30
0.0
 11
0.770889
 21
68.380301
 31
0.0
  0
ARC
  5
27D
330
1F
100
AcDbEntity
  8
DEFAULT
100
AcDbCircle
 10
0.959281
 20
69.14692
 30
0.0
 40
0.786078
100
AcDbArc
 50
94.18991199999994
 51
250.9126529999998
  0
LINE
  5
27E
330
1F
100
AcDbEntity
  8
DEFAULT
100
AcDbLine
 10
3.099176
 20
67.574635
 30
0.0
 11
3.243047
 21
67.524851
 31
0.0
  0
LINE
  5
27F
330
1F
100
AcDbEntity
  8
DEFAULT
100
AcDbLine
 10
0.561002
 20
71.040226
 30
0.0
 11
0.561002
 21
69.824631
 31
0.0
  0
LINE
  5
280
330
1F
100
AcDbEntity
  8
DEFAULT
100
AcDbLine
 10
0.297856
 20
71.040226
 30
0.0
 11
0.561002
 21
71.040226
 31
0.0
  0
SPLINE
  5
281
330
1F
100
AcDbEntity
  8
DEFAULT
100
AcDbSpline
210
0.0
220
0.0
230
1.0
 70
     8
 71
     5
 72
    12
 73
     6
 74
     0
 42
0.0000000001
 43
0.0000000001
 40
2.864380497911617
 40
2.864380497911617
 40
2.864380497911617
 40
2.864380497911617
 40
2.864380497911617
 40
2.864380497911617
 40
3.864380497911617
 40
3.864380497911617
 40
3.864380497911617
 40
3.864380497911617
 40
3.864380497911617
 40
3.864380497911617
 10
0.0039958610763781
 20
70.83765798978926
 30
0.0
 10
0.0039958610763781
 20
70.90904083652855
 30
0.0
 10
0.003995861076371
 20
70.98042368326783
 30
0.0
 10
0.1550902896166823
 20
71.04022649400984
 30
0.0
 10
0.2264731363559724
 20
71.04022649400986
 30
0.0
 10
0.2978559830952642
 20
71.04022649400986
 30
0.0
  0
LINE
  5
282
330
1F
100
AcDbEntity
  8
DEFAULT
100
AcDbLine
 10
0.003996
 20
68.973277
 30
0.0
 11
0.003996
 21
70.837658
 31
0.0
  0
ARC
  5
283
330
1F
100
AcDbEntity
  8
DEFAULT
100
AcDbCircle
 10
0.231713
 20
68.996889
 30
0.0
 40
0.228938
100
AcDbArc
 50
185.9196729999993
 51
279.3533009999995
  0
LINE
  5
284
330
1F
100
AcDbEntity
  8
DEFAULT
100
AcDbLine
 10
1.322561
 20
71.040226
 30
0.0
 11
1.322561
 21
71.009876
 31
0.0
  0
LINE
  5
285
330
1F
100
AcDbEntity
  8
DEFAULT
100
AcDbLine
 10
0.596002
 20
71.040226
 30
0.0
 11
1.322561
 21
71.040226
 31
0.0
  0
LINE
  5
286
330
1F
100
AcDbEntity
  8
DEFAULT
100
AcDbLine
 10
0.596002
 20
69.844019
 30
0.0
 11
0.596002
 21
71.040226
 31
0.0
  0
LINE
  5
287
330
1F
100
AcDbEntity
  8
DEFAULT
100
AcDbLine
 10
25.323471
 20
71.040226
 30
0.0
 11
25.323471
 21
71.009876
 31
0.0
  0
LINE
  5
288
330
1F
100
AcDbEntity
  8
DEFAULT
100
AcDbLine
 10
26.05003
 20
71.040226
 30
0.0
 11
25.323471
 21
71.040226
 31
0.0
  0
LINE
  5
289
330
1F
100
AcDbEntity
  8
DEFAULT
100
AcDbLine
 10
26.05003
 20
69.844019
 30
0.0
 11
26.05003
 21
71.040226
 31
0.0
  0
LINE
  5
28A
330
1F
100
AcDbEntity
  8
DEFAULT
100
AcDbLine
 10
26.08503
 20
71.040226
 30
0.0
 11
26.08503
 21
69.824631
 31
0.0
  0
LINE
  5
28B
330
1F
100
AcDbEntity
  8
DEFAULT
100
AcDbLine
 10
26.348176
 20
71.040226
 30
0.0
 11
26.08503
 21
71.040226
 31
0.0
  0
SPLINE
  5
28C
330
1F
100
AcDbEntity
  8
DEFAULT
100
AcDbSpline
210
0.0
220
0.0
230
1.0
 70
     8
 71
     5
 72
    12
 73
     6
 74
     0
 42
0.0000000001
 43
0.0000000001
 40
2.864380497911617
 40
2.864380497911617
 40
2.864380497911617
 40
2.864380497911617
 40
2.864380497911617
 40
2.864380497911617
 40
3.864380497911617
 40
3.864380497911617
 40
3.864380497911617
 40
3.864380497911617
 40
3.864380497911617
 40
3.864380497911617
 10
26.64203631148601
 20
70.83765798978926
 30
0.0
 10
26.64203631148601
 20
70.90904083652855
 30
0.0
 10
26.64203631148602
 20
70.98042368326783
 30
0.0
 10
26.49094188294571
 20
71.04022649400984
 30
0.0
 10
26.41955903620642
 20
71.04022649400986
 30
0.0
 10
26.34817618946713
 20
71.04022649400986
 30
0.0
  0
LINE
  5
28D
330
1F
100
AcDbEntity
  8
DEFAULT
100
AcDbLine
 10
26.642036
 20
68.973277
 30
0.0
 11
26.642036
 21
70.837658
 31
0.0
  0
ARC
  5
28E
330
1F
100
AcDbEntity
  8
DEFAULT
100
AcDbCircle
 10
26.414319
 20
68.996889
 30
0.0
 40
0.228938
100
AcDbArc
 50
260.6466989999998
 51
354.0803270000008
  0
ARC
  5
28F
330
1F
100
AcDbEntity
  8
DEFAULT
100
AcDbCircle
 10
12.550484
 20
77.95107
 30
0.0
 40
0.182822
100
AcDbArc
 50
178.4371600000013
 51
263.553623000002
  0
ARC
  5
290
330
1F
100
AcDbEntity
  8
DEFAULT
100
AcDbCircle
 10
14.095548
 20
77.95107
 30
0.0
 40
0.182822
100
AcDbArc
 50
276.4463770000002
 51
1.56283999999874
  0
LINE
  5
291
330
1F
100
AcDbEntity
  8
DEFAULT
100
AcDbLine
 10
13.721296
 20
80.023006
 30
0.0
 11
13.721296
 21
78.80741
 31
0.0
  0
LINE
  5
292
330
1F
100
AcDbEntity
  8
DEFAULT
100
AcDbLine
 10
12.924736
 20
80.023006
 30
0.0
 11
12.924736
 21
78.80741
 31
0.0
  0
LINE
  5
293
330
1F
100
AcDbEntity
  8
DEFAULT
100
AcDbLine
 10
13.323016
 20
63.860393
 30
0.0
 11
13.323016
 21
69.023446
 31
0.0
  0
LINE
  5
294
330
1F
100
AcDbEntity
  8
DEFAULT
100
AcDbLine
 10
3.046661
 20
63.860393
 30
0.0
 11
23.599371
 21
63.860393
 31
0.0
  0
ENDSEC
  0
SECTION
  2
OBJECTS
  0
DICTIONARY
  5
C
330
0
100
AcDbDictionary
281
     1
  3
ACAD_GROUP
350
D
  3
ACAD_LAYOUT
350
1A
  3
ACAD_MLEADERSTYLE
350
296
  3
ACAD_MLINESTYLE
350
17
  3
ACAD_PLOTSETTINGS
350
19
  3
ACAD_PLOTSTYLENAME
350
E
  3
ACAD_SCALELIST
350
3B
  3
ACAD_TABLESTYLE
350
295
  3
ACAD_VISUALSTYLE
350
2A
  0
DICTIONARY
  5
D
102
{ACAD_REACTORS
330
C
102
}
330
C
100
AcDbDictionary
281
     1
  0
DICTIONARY
  5
1A
102
{ACAD_REACTORS
330
C
102
}
330
C
100
AcDbDictionary
281
     1
  3
Layout1
350
1E
  3
Layout2
350
26
  3
Model
350
22
  0
DICTIONARY
  5
296
102
{ACAD_REACTORS
330
C
102
}
330
C
100
AcDbDictionary
281
     1
  0
DICTIONARY
  5
17
102
{ACAD_REACTORS
330
C
102
}
330
C
100
AcDbDictionary
281
     1
  3
Standard
350
18
  0
DICTIONARY
  5
19
102
{ACAD_REACTORS
330
C
102
}
330
C
100
AcDbDictionary
281
     1
  0
ACDBDICTIONARYWDFLT
  5
E
102
{ACAD_REACTORS
330
C
102
}
330
C
100
AcDbDictionary
281
     1
  3
Normal
350
F
100
AcDbDictionaryWithDefault
340
F
  0
DICTIONARY
  5
3B
102
{ACAD_REACTORS
330
C
102
}
330
C
100
AcDbDictionary
281
     1
  3
A0
350
3C
  3
A1
350
3D
  3
A2
350
3E
  3
A3
350
3F
  3
A4
350
40
  3
A5
350
41
  3
A6
350
42
  3
A7
350
43
  3
A8
350
44
  3
A9
350
45
  3
B0
350
46
  3
B1
350
47
  3
B2
350
48
  3
B3
350
49
  3
B4
350
4A
  3
B5
350
4B
  3
B6
350
4C
  3
B7
350
4D
  3
B8
350
4E
  3
B9
350
4F
  3
C0
350
50
  3
C1
350
51
  3
C2
350
52
  3
C3
350
53
  3
C4
350
54
  3
C5
350
55
  3
C6
350
56
  3
C7
350
57
  3
C8
350
58
  3
C9
350
59
  3
D0
350
5A
  3
D1
350
5B
  3
D2
350
5C
  0
DICTIONARY
  5
295
102
{ACAD_REACTORS
330
C
102
}
330
C
100
AcDbDictionary
281
     1
  0
DICTIONARY
  5
2A
102
{ACAD_REACTORS
330
C
102
}
330
C
100
AcDbDictionary
281
     1
  3
2dWireframe
350
2F
  3
3D Hidden
350
31
  3
3dWireframe
350
30
  3
Basic
350
32
  3
Brighten
350
36
  3
ColorChange
350
3A
  3
Conceptual
350
34
  3
Dim
350
35
  3
Facepattern
350
39
  3
Flat
350
2B
  3
FlatWithEdges
350
2C
  3
Gouraud
350
2D
  3
GouraudWithEdges
350
2E
  3
Linepattern
350
38
  3
Realistic
350
33
  3
Thicken
350
37
  0
LAYOUT
  5
1E
102
{ACAD_REACTORS
330
1A
102
}
330
1A
100
AcDbPlotSettings
  1

  2
none_device
  4

  6

 40
0.0
 41
0.0
 42
0.0
 43
0.0
 44
0.0
 45
0.0
 46
0.0
 47
0.0
 48
0.0
 49
0.0
140
0.0
141
0.0
142
1.0
143
1.0
 70
   688
 72
     0
 73
     0
 74
     5
  7

 75
    16
 76
     0
 77
     2
 78
   300
147
1.0
148
0.0
149
0.0
100
AcDbLayout
  1
Layout1
 70
     1
 71
     1
 10
0.0
 20
0.0
 11
12.0
 21
9.0
 12
0.0
 22
0.0
 32
0.0
 14
1.000000000000000E+20
 24
1.000000000000000E+20
 34
1.000000000000000E+20
 15
-1.000000000000000E+20
 25
-1.000000000000000E+20
 35
-1.000000000000000E+20
146
0.0
 13
0.0
 23
0.0
 33
0.0
 16
1.0
 26
0.0
 36
0.0
 17
0.0
 27
1.0
 37
0.0
 76
     0
330
1B
  0
LAYOUT
  5
26
102
{ACAD_REACTORS
330
1A
102
}
330
1A
100
AcDbPlotSettings
  1

  2
none_device
  4

  6

 40
0.0
 41
0.0
 42
0.0
 43
0.0
 44
0.0
 45
0.0
 46
0.0
 47
0.0
 48
0.0
 49
0.0
140
0.0
141
0.0
142
1.0
143
1.0
 70
   688
 72
     0
 73
     0
 74
     5
  7

 75
    16
 76
     0
 77
     2
 78
   300
147
1.0
148
0.0
149
0.0
100
AcDbLayout
  1
Layout2
 70
     1
 71
     2
 10
0.0
 20
0.0
 11
0.0
 21
0.0
 12
0.0
 22
0.0
 32
0.0
 14
0.0
 24
0.0
 34
0.0
 15
0.0
 25
0.0
 35
0.0
146
0.0
 13
0.0
 23
0.0
 33
0.0
 16
1.0
 26
0.0
 36
0.0
 17
0.0
 27
1.0
 37
0.0
 76
     0
330
23
  0
LAYOUT
  5
22
102
{ACAD_REACTORS
330
1A
102
}
330
1A
100
AcDbPlotSettings
  1

  2
none_device
  4

  6

 40
0.0
 41
0.0
 42
0.0
 43
0.0
 44
0.0
 45
0.0
 46
0.0
 47
0.0
 48
0.0
 49
0.0
140
0.0
141
0.0
142
1.0
143
1.0
 70
  1712
 72
     0
 73
     0
 74
     0
  7

 75
     0
 76
     0
 77
     2
 78
   300
147
1.0
148
0.0
149
0.0
100
AcDbLayout
  1
Model
 70
     1
 71
     0
 10
0.0
 20
0.0
 11
12.0
 21
9.0
 12
0.0
 22
0.0
 32
0.0
 14
0.003995
 24
0.002626
 34
0.0
 15
63.479351
 25
80.023006
 35
0.0
146
0.0
 13
0.0
 23
0.0
 33
0.0
 16
1.0
 26
0.0
 36
0.0
 17
0.0
 27
1.0
 37
0.0
 76
     0
330
1F
331
29
  0
MLINESTYLE
  5
18
102
{ACAD_REACTORS
330
17
102
}
330
17
100
AcDbMlineStyle
  2
Standard
 70
     0
  3

 62
   256
 51
90.0
 52
90.0
 71
     2
 49
0.5
 62
   256
  6
BYLAYER
 49
-0.5
 62
   256
  6
BYLAYER
  0
ACDBPLACEHOLDER
  5
F
102
{ACAD_REACTORS
330
E
102
}
330
E
  0
SCALE
  5
3C
102
{ACAD_REACTORS
330
3B
102
}
330
3B
100
AcDbScale
 70
     0
300
1:1
140
1.0
141
1.0
290
     1
  0
SCALE
  5
3D
102
{ACAD_REACTORS
330
3B
102
}
330
3B
100
AcDbScale
 70
     0
300
1:2
140
1.0
141
2.0
290
     0
  0
SCALE
  5
3E
102
{ACAD_REACTORS
330
3B
102
}
330
3B
100
AcDbScale
 70
     0
300
1:4
140
1.0
141
4.0
290
     0
  0
SCALE
  5
3F
102
{ACAD_REACTORS
330
3B
102
}
330
3B
100
AcDbScale
 70
     0
300
1:5
140
1.0
141
5.0
290
     0
  0
SCALE
  5
40
102
{ACAD_REACTORS
330
3B
102
}
330
3B
100
AcDbScale
 70
     0
300
1:8
140
1.0
141
8.0
290
     0
  0
SCALE
  5
41
102
{ACAD_REACTORS
330
3B
102
}
330
3B
100
AcDbScale
 70
     0
300
1:10
140
1.0
141
10.0
290
     0
  0
SCALE
  5
42
102
{ACAD_REACTORS
330
3B
102
}
330
3B
100
AcDbScale
 70
     0
300
1:16
140
1.0
141
16.0
290
     0
  0
SCALE
  5
43
102
{ACAD_REACTORS
330
3B
102
}
330
3B
100
AcDbScale
 70
     0
300
1:20
140
1.0
141
20.0
290
     0
  0
SCALE
  5
44
102
{ACAD_REACTORS
330
3B
102
}
330
3B
100
AcDbScale
 70
     0
300
1:30
140
1.0
141
30.0
290
     0
  0
SCALE
  5
45
102
{ACAD_REACTORS
330
3B
102
}
330
3B
100
AcDbScale
 70
     0
300
1:40
140
1.0
141
40.0
290
     0
  0
SCALE
  5
46
102
{ACAD_REACTORS
330
3B
102
}
330
3B
100
AcDbScale
 70
     0
300
1:50
140
1.0
141
50.0
290
     0
  0
SCALE
  5
47
102
{ACAD_REACTORS
330
3B
102
}
330
3B
100
AcDbScale
 70
     0
300
1:100
140
1.0
141
100.0
290
     0
  0
SCALE
  5
48
102
{ACAD_REACTORS
330
3B
102
}
330
3B
100
AcDbScale
 70
     0
300
2:1
140
2.0
141
1.0
290
     0
  0
SCALE
  5
49
102
{ACAD_REACTORS
330
3B
102
}
330
3B
100
AcDbScale
 70
     0
300
4:1
140
4.0
141
1.0
290
     0
  0
SCALE
  5
4A
102
{ACAD_REACTORS
330
3B
102
}
330
3B
100
AcDbScale
 70
     0
300
8:1
140
8.0
141
1.0
290
     0
  0
SCALE
  5
4B
102
{ACAD_REACTORS
330
3B
102
}
330
3B
100
AcDbScale
 70
     0
300
10:1
140
10.0
141
1.0
290
     0
  0
SCALE
  5
4C
102
{ACAD_REACTORS
330
3B
102
}
330
3B
100
AcDbScale
 70
     0
300
100:1
140
100.0
141
1.0
290
     0
  0
SCALE
  5
4D
102
{ACAD_REACTORS
330
3B
102
}
330
3B
100
AcDbScale
 70
     0
300
1/128" = 1'-0"
140
0.0078125
141
12.0
290
     0
  0
SCALE
  5
4E
102
{ACAD_REACTORS
330
3B
102
}
330
3B
100
AcDbScale
 70
     0
300
1/64" = 1'-0"
140
0.015625
141
12.0
290
     0
  0
SCALE
  5
4F
102
{ACAD_REACTORS
330
3B
102
}
330
3B
100
AcDbScale
 70
     0
300
1/32" = 1'-0"
140
0.03125
141
12.0
290
     0
  0
SCALE
  5
50
102
{ACAD_REACTORS
330
3B
102
}
330
3B
100
AcDbScale
 70
     0
300
1/16" = 1'-0"
140
0.0625
141
12.0
290
     0
  0
SCALE
  5
51
102
{ACAD_REACTORS
330
3B
102
}
330
3B
100
AcDbScale
 70
     0
300
3/32" = 1'-0"
140
0.09375
141
12.0
290
     0
  0
SCALE
  5
52
102
{ACAD_REACTORS
330
3B
102
}
330
3B
100
AcDbScale
 70
     0
300
1/8" = 1'-0"
140
0.125
141
12.0
290
     0
  0
SCALE
  5
53
102
{ACAD_REACTORS
330
3B
102
}
330
3B
100
AcDbScale
 70
     0
300
3/16" = 1'-0"
140
0.1875
141
12.0
290
     0
  0
SCALE
  5
54
102
{ACAD_REACTORS
330
3B
102
}
330
3B
100
AcDbScale
 70
     0
300
1/4" = 1'-0"
140
0.25
141
12.0
290
     0
  0
SCALE
  5
55
102
{ACAD_REACTORS
330
3B
102
}
330
3B
100
AcDbScale
 70
     0
300
3/8" = 1'-0"
140
0.375
141
12.0
290
     0
  0
SCALE
  5
56
102
{ACAD_REACTORS
330
3B
102
}
330
3B
100
AcDbScale
 70
     0
300
1/2" = 1'-0"
140
0.5
141
12.0
290
     0
  0
SCALE
  5
57
102
{ACAD_REACTORS
330
3B
102
}
330
3B
100
AcDbScale
 70
     0
300
3/4" = 1'-0"
140
0.75
141
12.0
290
     0
  0
SCALE
  5
58
102
{ACAD_REACTORS
330
3B
102
}
330
3B
100
AcDbScale
 70
     0
300
1" = 1'-0"
140
1.0
141
12.0
290
     0
  0
SCALE
  5
59
102
{ACAD_REACTORS
330
3B
102
}
330
3B
100
AcDbScale
 70
     0
300
1-1/2" = 1'-0"
140
1.5
141
12.0
290
     0
  0
SCALE
  5
5A
102
{ACAD_REACTORS
330
3B
102
}
330
3B
100
AcDbScale
 70
     0
300
3" = 1'-0"
140
3.0
141
12.0
290
     0
  0
SCALE
  5
5B
102
{ACAD_REACTORS
330
3B
102
}
330
3B
100
AcDbScale
 70
     0
300
6" = 1'-0"
140
6.0
141
12.0
290
     0
  0
SCALE
  5
5C
102
{ACAD_REACTORS
330
3B
102
}
330
3B
100
AcDbScale
 70
     0
300
1'-0" = 1'-0"
140
12.0
141
12.0
290
     0
  0
VISUALSTYLE
  5
2F
102
{ACAD_REACTORS
330
2A
102
}
330
2A
100
AcDbVisualStyle
  2
2dWireframe
 70
     4
 71
     0
 72
     2
 73
     0
 90
        0
 40
-0.6
 41
-30.0
 62
     5
 63
     7
421
 16777215
 74
     1
 91
        4
 64
     7
 65
   257
 75
     1
175
     1
 42
1.0
 92
        0
 66
   257
 43
1.0
 76
     1
 77
     6
 78
     2
 67
     7
 79
     5
170
     0
171
     0
290
     0
174
     0
 93
        1
 44
0.0
173
     0
291
     0
 45
0.0
1001
ACAD
1000
AcDbSavedByObjectVersion
1070
     0
  0
VISUALSTYLE
  5
31
102
{ACAD_REACTORS
330
2A
102
}
330
2A
100
AcDbVisualStyle
  2
3D Hidden
 70
     6
 71
     1
 72
     2
 73
     2
 90
        0
 40
-0.6
 41
-30.0
 62
     5
 63
     7
421
 16777215
 74
     2
 91
        2
 64
     7
 65
   257
 75
     2
175
     1
 42
40.0
 92
        0
 66
   257
 43
1.0
 76
     1
 77
     6
 78
     2
 67
     7
 79
     3
170
     0
171
     0
290
     0
174
     0
 93
        1
 44
0.0
173
     0
291
     0
 45
0.0
1001
ACAD
1000
AcDbSavedByObjectVersion
1070
     0
  0
VISUALSTYLE
  5
30
102
{ACAD_REACTORS
330
2A
102
}
330
2A
100
AcDbVisualStyle
  2
3dWireframe
 70
     5
 71
     0
 72
     2
 73
     0
 90
        0
 40
-0.6
 41
-30.0
 62
     5
 63
     7
421
 16777215
 74
     1
 91
        4
 64
     7
 65
   257
 75
     1
175
     1
 42
1.0
 92
        0
 66
   257
 43
1.0
 76
     1
 77
     6
 78
     2
 67
     7
 79
     5
170
     0
171
     0
290
     0
174
     0
 93
        1
 44
0.0
173
     0
291
     0
 45
0.0
1001
ACAD
1000
AcDbSavedByObjectVersion
1070
     0
  0
VISUALSTYLE
  5
32
102
{ACAD_REACTORS
330
2A
102
}
330
2A
100
AcDbVisualStyle
  2
Basic
 70
     7
 71
     1
 72
     0
 73
     1
 90
        0
 40
-0.6
 41
-30.0
 62
     5
 63
     7
421
 16777215
 74
     0
 91
        4
 64
     7
 65
   257
 75
     1
175
     1
 42
1.0
 92
        8
 66
     7
 43
1.0
 76
     1
 77
     6
 78
     2
 67
     7
 79
     5
170
     0
171
     0
290
     0
174
     0
 93
        1
 44
0.0
173
     0
291
     1
 45
0.0
1001
ACAD
1000
AcDbSavedByObjectVersion
1070
     0
  0
VISUALSTYLE
  5
36
102
{ACAD_REACTORS
330
2A
102
}
330
2A
100
AcDbVisualStyle
  2
Brighten
 70
    12
 71
     2
 72
     2
 73
     0
 90
        0
 40
-0.6
 41
-30.0
 62
     5
 63
     7
421
 16777215
 74
     1
 91
        4
 64
     7
 65
   257
 75
     1
175
     1
 42
1.0
 92
        8
 66
     7
 43
1.0
 76
     1
 77
     6
 78
     2
 67
     7
 79
     5
170
     0
171
     0
290
     0
174
     0
 93
        1
 44
50.0
173
     0
291
     1
 45
0.0
1001
ACAD
1000
AcDbSavedByObjectVersion
1070
     0
  0
VISUALSTYLE
  5
3A
102
{ACAD_REACTORS
330
2A
102
}
330
2A
100
AcDbVisualStyle
  2
ColorChange
 70
    16
 71
     2
 72
     2
 73
     3
 90
        0
 40
-0.6
 41
-30.0
 62
     5
 63
     8
421
  8421504
 74
     1
 91
        4
 64
     7
 65
   257
 75
     1
175
     1
 42
1.0
 92
        8
 66
     8
424
  8421504
 43
1.0
 76
     1
 77
     6
 78
     2
 67
     7
 79
     5
170
     0
171
     0
290
     0
174
     0
 93
        1
 44
0.0
173
     0
291
     1
 45
0.0
1001
ACAD
1000
AcDbSavedByObjectVersion
1070
     0
  0
VISUALSTYLE
  5
34
102
{ACAD_REACTORS
330
2A
102
}
330
2A
100
AcDbVisualStyle
  2
Conceptual
 70
     9
 71
     3
 72
     2
 73
     0
 90
        0
 40
-0.6
 41
-30.0
 62
     5
 63
     7
421
 16777215
 74
     2
 91
        2
 64
     7
 65
   257
 75
     1
175
     1
 42
40.0
 92
        8
 66
     7
 43
1.0
 76
     1
 77
     6
 78
     2
 67
     7
 79
     3
170
     0
171
     0
290
     0
174
     0
 93
        1
 44
0.0
173
     0
291
     0
 45
0.0
1001
ACAD
1000
AcDbSavedByObjectVersion
1070
     0
  0
VISUALSTYLE
  5
35
102
{ACAD_REACTORS
330
2A
102
}
330
2A
100
AcDbVisualStyle
  2
Dim
 70
    11
 71
     2
 72
     2
 73
     0
 90
        0
 40
-0.6
 41
-30.0
 62
     5
 63
     7
421
 16777215
 74
     1
 91
        4
 64
     7
 65
   257
 75
     1
175
     1
 42
1.0
 92
        8
 66
     7
 43
1.0
 76
     1
 77
     6
 78
     2
 67
     7
 79
     5
170
     0
171
     0
290
     0
174
     0
 93
        1
 44
-50.0
173
     0
291
     1
 45
0.0
1001
ACAD
1000
AcDbSavedByObjectVersion
1070
     0
  0
VISUALSTYLE
  5
39
102
{ACAD_REACTORS
330
2A
102
}
330
2A
100
AcDbVisualStyle
  2
Facepattern
 70
    15
 71
     2
 72
     2
 73
     0
 90
        0
 40
-0.6
 41
-30.0
 62
     5
 63
     7
421
 16777215
 74
     1
 91
        4
 64
     7
 65
   257
 75
     1
175
     1
 42
1.0
 92
        8
 66
     7
 43
1.0
 76
     1
 77
     6
 78
     2
 67
     7
 79
     5
170
     0
171
     0
290
     0
174
     0
 93
        1
 44
0.0
173
     0
291
     1
 45
0.0
1001
ACAD
1000
AcDbSavedByObjectVersion
1070
     0
  0
VISUALSTYLE
  5
2B
102
{ACAD_REACTORS
330
2A
102
}
330
2A
100
AcDbVisualStyle
  2
Flat
 70
     0
 71
     2
 72
     1
 73
     1
 90
        2
 40
-0.6
 41
30.0
 62
     5
 63
     7
421
 16777215
 74
     0
 91
        4
 64
     7
 65
   257
 75
     1
175
     1
 42
1.0
 92
        8
 66
     7
 43
1.0
 76
     1
 77
     6
 78
     2
 67
     7
 79
     5
170
     0
171
     0
290
     0
174
     0
 93
       13
 44
0.0
173
     0
291
     1
 45
0.0
1001
ACAD
1000
AcDbSavedByObjectVersion
1070
     0
  0
VISUALSTYLE
  5
2C
102
{ACAD_REACTORS
330
2A
102
}
330
2A
100
AcDbVisualStyle
  2
FlatWithEdges
 70
     1
 71
     2
 72
     1
 73
     1
 90
        2
 40
-0.6
 41
30.0
 62
     5
 63
     7
421
 16777215
 74
     1
 91
        4
 64
     7
 65
   257
 75
     1
175
     1
 42
1.0
 92
        0
 66
   257
 43
1.0
 76
     1
 77
     6
 78
     2
 67
     7
 79
     5
170
     0
171
     0
290
     0
174
     0
 93
       13
 44
0.0
173
     0
291
     1
 45
0.0
1001
ACAD
1000
AcDbSavedByObjectVersion
1070
     0
  0
VISUALSTYLE
  5
2D
102
{ACAD_REACTORS
330
2A
102
}
330
2A
100
AcDbVisualStyle
  2
Gouraud
 70
     2
 71
     2
 72
     2
 73
     1
 90
        2
 40
-0.6
 41
30.0
 62
     5
 63
     7
421
 16777215
 74
     0
 91
        4
 64
     7
 65
   257
 75
     1
175
     1
 42
1.0
 92
        0
 66
     7
 43
1.0
 76
     1
 77
     6
 78
     2
 67
     7
 79
     5
170
     0
171
     0
290
     0
174
     0
 93
       13
 44
0.0
173
     0
291
     1
 45
0.0
1001
ACAD
1000
AcDbSavedByObjectVersion
1070
     0
  0
VISUALSTYLE
  5
2E
102
{ACAD_REACTORS
330
2A
102
}
330
2A
100
AcDbVisualStyle
  2
GouraudWithEdges
 70
     3
 71
     2
 72
     2
 73
     1
 90
        2
 40
-0.6
 41
30.0
 62
     5
 63
     7
421
 16777215
 74
     1
 91
        4
 64
     7
 65
   257
 75
     1
175
     1
 42
1.0
 92
        0
 66
   257
 43
1.0
 76
     1
 77
     6
 78
     2
 67
     7
 79
     5
170
     0
171
     0
290
     0
174
     0
 93
       13
 44
0.0
173
     0
291
     1
 45
0.0
1001
ACAD
1000
AcDbSavedByObjectVersion
1070
     0
  0
VISUALSTYLE
  5
38
102
{ACAD_REACTORS
330
2A
102
}
330
2A
100
AcDbVisualStyle
  2
Linepattern
 70
    14
 71
     2
 72
     2
 73
     0
 90
        0
 40
-0.6
 41
-30.0
 62
     5
 63
     7
421
 16777215
 74
     1
 91
        4
 64
     7
 65
   257
 75
     7
175
     7
 42
1.0
 92
        8
 66
     7
 43
1.0
 76
     1
 77
     6
 78
     2
 67
     7
 79
     5
170
     0
171
     0
290
     0
174
     0
 93
        1
 44
0.0
173
     0
291
     1
 45
0.0
1001
ACAD
1000
AcDbSavedByObjectVersion
1070
     0
  0
VISUALSTYLE
  5
33
102
{ACAD_REACTORS
330
2A
102
}
330
2A
100
AcDbVisualStyle
  2
Realistic
 70
     8
 71
     2
 72
     2
 73
     0
 90
        0
 40
-0.6
 41
-30.0
 62
     5
 63
     7
421
 16777215
 74
     1
 91
        0
 64
     7
 65
   257
 75
     1
175
     1
 42
1.0
 92
        8
 66
     8
424
  7895160
 43
1.0
 76
     1
 77
     6
 78
     2
 67
     7
 79
     5
170
     0
171
     0
290
     0
174
     0
 93
       13
 44
0.0
173
     0
291
     0
 45
0.0
1001
ACAD
1000
AcDbSavedByObjectVersion
1070
     0
  0
VISUALSTYLE
  5
37
102
{ACAD_REACTORS
330
2A
102
}
330
2A
100
AcDbVisualStyle
  2
Thicken
 70
    13
 71
     2
 72
     2
 73
     0
 90
        0
 40
-0.6
 41
-30.0
 62
     5
 63
     7
421
 16777215
 74
     1
 91
        4
 64
     7
 65
   257
 75
     1
175
     1
 42
1.0
 92
       12
 66
     7
 43
1.0
 76
     1
 77
     6
 78
     2
 67
     7
 79
     5
170
     0
171
     0
290
     0
174
     0
 93
        1
 44
0.0
173
     0
291
     1
 45
0.0
1001
ACAD
1000
AcDbSavedByObjectVersion
1070
     0
  0
ENDSEC
  0
EOF
