  0
SECTION
  2
HEADER
  9
$ACADVER
  1
AC1014
  9
$ACADMAINTVER
 70
     9
  9
$DWGCODEPAGE
  3
ANSI_1252
  9
$INSBASE
 10
0.0
 20
0.0
 30
0.0
  9
$EXTMIN
 10
1.000000000000000E+20
 20
1.000000000000000E+20
 30
1.000000000000000E+20
  9
$EXTMAX
 10
-1.000000000000000E+20
 20
-1.000000000000000E+20
 30
-1.000000000000000E+20
  9
$LIMMIN
 10
0.0
 20
0.0
  9
$LIMMAX
 10
12.0
 20
9.0
  9
$ORTHOMODE
 70
     0
  9
$REGENMODE
 70
     1
  9
$FILLMODE
 70
     1
  9
$QTEXTMODE
 70
     0
  9
$MIRRTEXT
 70
     1
  9
$DRAGMODE
 70
     2
  9
$LTSCALE
 40
1.0
  9
$OSMODE
 70
    37
  9
$ATTMODE
 70
     1
  9
$TEXTSIZE
 40
0.2
  9
$TRACEWID
 40
0.05
  9
$TEXTSTYLE
  7
STANDARD
  9
$CLAYER
  8
DEFAULT
  9
$CELTYPE
  6
BYLAYER
  9
$CECOLOR
 62
   256
  9
$CELTSCALE
 40
1.0
  9
$DELOBJ
 70
     1
  9
$DISPSILH
 70
     0
  9
$DIMSCALE
 40
1.0
  9
$DIMASZ
 40
0.18
  9
$DIMEXO
 40
0.0625
  9
$DIMDLI
 40
0.38
  9
$DIMRND
 40
0.0
  9
$DIMDLE
 40
0.0
  9
$DIMEXE
 40
0.18
  9
$DIMTP
 40
0.0
  9
$DIMTM
 40
0.0
  9
$DIMTXT
 40
0.18
  9
$DIMCEN
 40
0.09
  9
$DIMTSZ
 40
0.0
  9
$DIMTOL
 70
     0
  9
$DIMLIM
 70
     0
  9
$DIMTIH
 70
     1
  9
$DIMTOH
 70
     1
  9
$DIMSE1
 70
     0
  9
$DIMSE2
 70
     0
  9
$DIMTAD
 70
     0
  9
$DIMZIN
 70
     0
  9
$DIMBLK
  1

  9
$DIMASO
 70
     1
  9
$DIMSHO
 70
     1
  9
$DIMPOST
  1

  9
$DIMAPOST
  1

  9
$DIMALT
 70
     0
  9
$DIMALTD
 70
     2
  9
$DIMALTF
 40
25.4
  9
$DIMLFAC
 40
1.0
  9
$DIMTOFL
 70
     0
  9
$DIMTVP
 40
0.0
  9
$DIMTIX
 70
     0
  9
$DIMSOXD
 70
     0
  9
$DIMSAH
 70
     0
  9
$DIMBLK1
  1

  9
$DIMBLK2
  1

  9
$DIMSTYLE
  2
STANDARD
  9
$DIMCLRD
 70
     0
  9
$DIMCLRE
 70
     0
  9
$DIMCLRT
 70
     0
  9
$DIMTFAC
 40
1.0
  9
$DIMGAP
 40
0.09
  9
$DIMJUST
 70
     0
  9
$DIMSD1
 70
     0
  9
$DIMSD2
 70
     0
  9
$DIMTOLJ
 70
     1
  9
$DIMTZIN
 70
     0
  9
$DIMALTZ
 70
     0
  9
$DIMALTTZ
 70
     0
  9
$DIMFIT
 70
     3
  9
$DIMUPT
 70
     0
  9
$DIMUNIT
 70
     2
  9
$DIMDEC
 70
     4
  9
$DIMTDEC
 70
     4
  9
$DIMALTU
 70
     2
  9
$DIMALTTD
 70
     2
  9
$DIMTXSTY
  7
STANDARD
  9
$DIMAUNIT
 70
     0
  9
$LUNITS
 70
     2
  9
$LUPREC
 70
     3
  9
$SKETCHINC
 40
0.1
  9
$FILLETRAD
 40
0.5
  9
$AUNITS
 70
     0
  9
$AUPREC
 70
     0
  9
$MENU
  1
.
  9
$ELEVATION
 40
0.0
  9
$PELEVATION
 40
0.0
  9
$THICKNESS
 40
0.0
  9
$LIMCHECK
 70
     0
  9
$CHAMFERA
 40
0.5
  9
$CHAMFERB
 40
0.5
  9
$CHAMFERC
 40
1.0
  9
$CHAMFERD
 40
0.0
  9
$SKPOLY
 70
     0
  9
$TDCREATE
 40
2453717.491449607
  9
$TDUPDATE
 40
2453717.491449618
  9
$TDINDWG
 40
0.0000000116
  9
$TDUSRTIMER
 40
0.0000000116
  9
$USRTIMER
 70
     1
  9
$ANGBASE
 50
0.0
  9
$ANGDIR
 70
     0
  9
$PDMODE
 70
     0
  9
$PDSIZE
 40
0.0
  9
$PLINEWID
 40
0.0
  9
$COORDS
 70
     1
  9
$SPLFRAME
 70
     0
  9
$SPLINETYPE
 70
     6
  9
$SPLINESEGS
 70
     8
  9
$ATTDIA
 70
     0
  9
$ATTREQ
 70
     1
  9
$HANDLING
 70
     1
  9
$HANDSEED
  5
226
  9
$SURFTAB1
 70
     6
  9
$SURFTAB2
 70
     6
  9
$SURFTYPE
 70
     6
  9
$SURFU
 70
     6
  9
$SURFV
 70
     6
  9
$UCSNAME
  2

  9
$UCSORG
 10
0.0
 20
0.0
 30
0.0
  9
$UCSXDIR
 10
1.0
 20
0.0
 30
0.0
  9
$UCSYDIR
 10
0.0
 20
1.0
 30
0.0
  9
$PUCSNAME
  2

  9
$PUCSORG
 10
0.0
 20
0.0
 30
0.0
  9
$PUCSXDIR
 10
1.0
 20
0.0
 30
0.0
  9
$PUCSYDIR
 10
0.0
 20
1.0
 30
0.0
  9
$USERI1
 70
     0
  9
$USERI2
 70
     0
  9
$USERI3
 70
     0
  9
$USERI4
 70
     0
  9
$USERI5
 70
     0
  9
$USERR1
 40
0.0
  9
$USERR2
 40
0.0
  9
$USERR3
 40
0.0
  9
$USERR4
 40
0.0
  9
$USERR5
 40
0.0
  9
$WORLDVIEW
 70
     1
  9
$SHADEDGE
 70
     3
  9
$SHADEDIF
 70
    70
  9
$TILEMODE
 70
     1
  9
$MAXACTVP
 70
    64
  9
$PINSBASE
 10
0.0
 20
0.0
 30
0.0
  9
$PLIMCHECK
 70
     0
  9
$PEXTMIN
 10
1.000000000000000E+20
 20
1.000000000000000E+20
 30
1.000000000000000E+20
  9
$PEXTMAX
 10
-1.000000000000000E+20
 20
-1.000000000000000E+20
 30
-1.000000000000000E+20
  9
$PLIMMIN
 10
0.0
 20
0.0
  9
$PLIMMAX
 10
12.0
 20
9.0
  9
$UNITMODE
 70
     0
  9
$VISRETAIN
 70
     1
  9
$PLINEGEN
 70
     0
  9
$PSLTSCALE
 70
     1
  9
$TREEDEPTH
 70
  3020
  9
$PICKSTYLE
 70
     1
  9
$CMLSTYLE
  2
STANDARD
  9
$CMLJUST
 70
     0
  9
$CMLSCALE
 40
1.0
  9
$PROXYGRAPHICS
 70
     1
  9
$MEASUREMENT
 70
     0
  0
ENDSEC
  0
SECTION
  2
CLASSES
  0
CLASS
  1
ACDBDICTIONARYWDFLT
  2
AcDbDictionaryWithDefault
  3
ObjectDBX Classes
 90
        0
280
     0
281
     0
  0
CLASS
  1
XRECORD
  2
AcDbXrecord
  3
AutoCAD 2000
 90
        0
280
     0
281
     0
  0
CLASS
  1
LWPOLYLINE
  2
AcDbPolyline
  3
AutoCAD 2000
 90
        0
280
     0
281
     1
  0
CLASS
  1
HATCH
  2
AcDbHatch
  3
AutoCAD 2000
 90
        0
280
     0
281
     1
  0
CLASS
  1
ACDBPLACEHOLDER
  2
AcDbPlaceHolder
  3
ObjectDBX Classes
 90
        0
280
     0
281
     0
  0
CLASS
  1
LAYOUT
  2
AcDbLayout
  3
ObjectDBX Classes
 90
        0
280
     0
281
     0
  0
ENDSEC
  0
SECTION
  2
TABLES
  0
TABLE
  2
VPORT
  5
8
330
0
100
AcDbSymbolTable
 70
     2
  0
VPORT
  5
29
102
{ACAD_XDICTIONARY
360
224
102
}
330
8
100
AcDbSymbolTableRecord
100
AcDbViewportTableRecord
  2
*ACTIVE
 70
     0
 10
0.0
 20
0.0
 11
1.0
 21
1.0
 12
31.73754727587656
 22
22.98355999543664
 13
0.0
 23
0.0
 14
0.5
 24
0.5
 15
0.5
 25
0.5
 16
0.0
 26
0.0
 36
100.0
 17
0.0
 27
0.0
 37
0.0
 40
45.96368105396756
 41
1.972972972850329
 42
50.0
 43
0.0
 44
0.0
 50
0.0
 51
0.0
 71
     0
 72
   100
 73
     1
 74
     3
 75
     0
 76
     0
 77
     0
 78
     0
  0
ENDTAB
  0
TABLE
  2
LTYPE
  5
5
330
0
100
AcDbSymbolTable
 70
     1
  0
LTYPE
  5
14
330
5
100
AcDbSymbolTableRecord
100
AcDbLinetypeTableRecord
  2
BYBLOCK
 70
     0
  3

 72
    65
 73
     0
 40
0.0
  0
LTYPE
  5
15
330
5
100
AcDbSymbolTableRecord
100
AcDbLinetypeTableRecord
  2
BYLAYER
 70
     0
  3

 72
    65
 73
     0
 40
0.0
  0
LTYPE
  5
16
330
5
100
AcDbSymbolTableRecord
100
AcDbLinetypeTableRecord
  2
CONTINUOUS
 70
     0
  3
Solid line
 72
    65
 73
     0
 40
0.0
  0
ENDTAB
  0
TABLE
  2
LAYER
  5
2
330
0
100
AcDbSymbolTable
 70
     2
  0
LAYER
  5
10
330
2
100
AcDbSymbolTableRecord
100
AcDbLayerTableRecord
  2
0
 70
     0
 62
     7
  6
CONTINUOUS
  0
LAYER
  5
2A
330
2
100
AcDbSymbolTableRecord
100
AcDbLayerTableRecord
  2
DEFAULT
 70
     0
 62
     7
  6
CONTINUOUS
  0
ENDTAB
  0
TABLE
  2
STYLE
  5
3
330
0
100
AcDbSymbolTable
 70
     1
  0
STYLE
  5
11
330
3
100
AcDbSymbolTableRecord
100
AcDbTextStyleTableRecord
  2
STANDARD
 70
     0
 40
0.0
 41
1.0
 50
0.0
 71
     0
 42
0.2
  3
txt
  4

  0
ENDTAB
  0
TABLE
  2
VIEW
  5
6
330
0
100
AcDbSymbolTable
 70
     0
  0
ENDTAB
  0
TABLE
  2
UCS
  5
7
330
0
100
AcDbSymbolTable
 70
     0
  0
ENDTAB
  0
TABLE
  2
APPID
  5
9
330
0
100
AcDbSymbolTable
 70
     1
  0
APPID
  5
12
330
9
100
AcDbSymbolTableRecord
100
AcDbRegAppTableRecord
  2
ACAD
 70
     0
  0
ENDTAB
  0
TABLE
  2
DIMSTYLE
  5
A
330
0
100
AcDbSymbolTable
 70
     1
  0
DIMSTYLE
105
27
330
A
100
AcDbSymbolTableRecord
100
AcDbDimStyleTableRecord
  2
STANDARD
 70
     0
  3

  4

  5

  6

  7

 40
1.0
 41
0.18
 42
0.0625
 43
0.38
 44
0.18
 45
0.0
 46
0.0
 47
0.0
 48
0.0
140
0.18
141
0.09
142
0.0
143
25.4
144
1.0
145
0.0
146
1.0
147
0.09
 71
     0
 72
     0
 73
     1
 74
     1
 75
     0
 76
     0
 77
     0
 78
     0
170
     0
171
     2
172
     0
173
     0
174
     0
175
     0
176
     0
177
     0
178
     0
270
     2
271
     4
272
     4
273
     2
274
     2
340
11
275
     0
280
     0
281
     0
282
     0
283
     1
284
     0
285
     0
286
     0
287
     3
288
     0
  0
ENDTAB
  0
TABLE
  2
BLOCK_RECORD
  5
1
330
0
100
AcDbSymbolTable
 70
     1
  0
BLOCK_RECORD
  5
1F
330
1
100
AcDbSymbolTableRecord
100
AcDbBlockTableRecord
  2
*MODEL_SPACE
  0
BLOCK_RECORD
  5
1B
330
1
100
AcDbSymbolTableRecord
100
AcDbBlockTableRecord
  2
*PAPER_SPACE
  0
ENDTAB
  0
ENDSEC
  0
SECTION
  2
BLOCKS
  0
BLOCK
  5
20
330
1F
100
AcDbEntity
  8
0
100
AcDbBlockBegin
  2
*MODEL_SPACE
 70
     0
 71
     0
 10
0.0
 20
0.0
 30
0.0
  3
*MODEL_SPACE
  1

  0
ENDBLK
  5
21
330
1F
100
AcDbEntity
  8
0
100
AcDbBlockEnd
  0
BLOCK
  5
1C
330
1B
100
AcDbEntity
 67
     1
  8
0
100
AcDbBlockBegin
  2
*PAPER_SPACE
 70
     0
 71
     0
 10
0.0
 20
0.0
 30
0.0
  3
*PAPER_SPACE
  1

  0
ENDBLK
  5
1D
330
1B
100
AcDbEntity
 67
     1
  8
0
100
AcDbBlockEnd
  0
ENDSEC
  0
SECTION
  2
ENTITIES
  0
ARC
  5
2B
330
1F
100
AcDbEntity
  8
DEFAULT
 62
     7
100
AcDbCircle
 10
20.57463544201853
 20
10.83919678843333
 30
0.0
 40
6.120528109315264
100
AcDbArc
 50
123.1223983998809
 51
127.3220530052163
  0
ARC
  5
2C
330
1F
100
AcDbEntity
  8
DEFAULT
 62
     7
100
AcDbCircle
 10
20.7542149856547
 20
10.49146473401931
 30
0.0
 40
6.504009222807822
100
AcDbArc
 50
122.6916488513658
 51
126.7237815855456
  0
ARC
  5
2D
330
1F
100
AcDbEntity
  8
DEFAULT
 62
     7
100
AcDbCircle
 10
6.708654528207656
 20
16.08899405116469
 30
0.0
 40
0.4687496544052054
100
AcDbArc
 50
195.3168476521934
 51
287.9300199327037
  0
LINE
  5
2E
330
1F
100
AcDbEntity
  8
DEFAULT
 62
     7
100
AcDbLine
 10
7.458654528207656
 20
15.83899405116469
 30
0.0
 11
7.458654528207656
 21
15.96517070631332
 31
0.0
  0
LINE
  5
2F
330
1F
100
AcDbEntity
  8
DEFAULT
 62
     7
100
AcDbLine
 10
10.01180352820766
 20
15.33803005116469
 30
0.0
 11
10.01180352820766
 21
15.96517070631332
 31
0.0
  0
LINE
  5
30
330
1F
100
AcDbEntity
  8
DEFAULT
 62
     7
100
AcDbLine
 10
16.79329952820767
 20
15.52569705116469
 30
0.0
 11
16.79329952820767
 21
15.96517070631332
 31
0.0
  0
LINE
  5
31
330
1F
100
AcDbEntity
  8
DEFAULT
 62
     7
100
AcDbLine
 10
16.64566252820766
 20
15.52569705116469
 30
0.0
 11
16.64566252820766
 21
15.96517070631332
 31
0.0
  0
LINE
  5
32
330
1F
100
AcDbEntity
  8
DEFAULT
 62
     7
100
AcDbLine
 10
16.62597752820765
 20
15.33803005116469
 30
0.0
 11
16.62597752820765
 21
15.96517070631332
 31
0.0
  0
ARC
  5
33
330
1F
100
AcDbEntity
  8
DEFAULT
 62
     7
100
AcDbCircle
 10
13.31889050180537
 20
-5.402543461118878
 30
0.0
 40
21.45976727026806
100
AcDbArc
 50
95.30884088654916
 51
98.64567069912127
  0
ARC
  5
34
330
1F
100
AcDbEntity
  8
DEFAULT
 62
     7
100
AcDbCircle
 10
13.31889050180537
 20
-5.402543461118878
 30
0.0
 40
21.45976727026806
100
AcDbArc
 50
81.35432930039899
 51
84.69115911345081
  0
ARC
  5
35
330
1F
100
AcDbEntity
  8
DEFAULT
 62
     7
100
AcDbCircle
 10
16.62046114229012
 20
15.7015387373786
 30
0.0
 40
0.1350266765905784
100
AcDbArc
 50
87.65875908052078
 51
124.0812643385191
  0
ARC
  5
36
330
1F
100
AcDbEntity
  8
DEFAULT
 62
     7
100
AcDbCircle
 10
9.600634284160105
 20
15.05267518075621
 30
0.0
 40
0.7981454463846973
100
AcDbArc
 50
40.35586374343377
 51
58.99210145010844
  0
SPLINE
  5
37
330
1F
100
AcDbEntity
  8
DEFAULT
 62
     7
100
AcDbSpline
210
0.0
220
0.0
230
1.0
 70
     8
 71
     3
 72
    16
 73
    12
 74
     0
 42
0.0000000001
 43
0.0000000001
 40
0.0
 40
0.0
 40
0.0
 40
0.0
 40
0.159911413108
 40
0.3829279516347
 40
0.5633434502925
 40
0.7024102460688
 40
0.8045578086353
 40
0.8752284969232
 40
0.9196804783738
 40
0.950922273791
 40
1.0
 40
1.0
 40
1.0
 40
1.0
 10
12.08346121704765
 20
13.15905659344569
 30
0.0
 10
12.03928204352266
 20
13.18289832414769
 30
0.0
 10
11.93296235870265
 20
13.23901392548269
 30
0.0
 10
11.77449174697666
 20
13.31746154444469
 30
0.0
 10
11.61878429090966
 20
13.38696771580769
 30
0.0
 10
11.49549876649365
 20
13.43421529513069
 30
0.0
 10
11.40079511889466
 20
13.46301092880369
 30
0.0
 10
11.33501735997166
 20
13.47308781963969
 30
0.0
 10
11.28484698831465
 20
13.47241148529969
 30
0.0
 10
11.26050239642366
 20
13.43435623029669
 30
0.0
 10
11.27422043233366
 20
13.40892544155269
 30
0.0
 10
11.28139883067366
 20
13.39529398378569
 30
0.0
  0
LINE
  5
38
330
1F
100
AcDbEntity
  8
DEFAULT
 62
     7
100
AcDbLine
 10
12.17012214587166
 20
13.11163544375969
 30
0.0
 11
12.08346121704765
 21
13.15905659344569
 31
0.0
  0
LINE
  5
39
330
1F
100
AcDbEntity
  8
DEFAULT
 62
     7
100
AcDbLine
 10
14.55431976814965
 20
13.15905659096469
 30
0.0
 11
14.46765885723366
 21
13.11163544400269
 31
0.0
  0
SPLINE
  5
3A
330
1F
100
AcDbEntity
  8
DEFAULT
 62
     7
100
AcDbSpline
210
0.0
220
0.0
230
1.0
 70
     8
 71
     3
 72
    16
 73
    12
 74
     0
 42
0.0000000001
 43
0.0000000001
 40
0.0
 40
0.0
 40
0.0
 40
0.0
 40
0.04908139450617
 40
0.08034089603321
 40
0.124826527752
 40
0.1955205185391
 40
0.2976803761667
 40
0.4367466031031
 40
0.6171147575657
 40
0.8400812200043
 40
1.0
 40
1.0
 40
1.0
 40
1.0
 10
15.35638229415966
 20
13.39529421303469
 30
0.0
 10
15.36356119321865
 20
13.40892666483269
 30
0.0
 10
15.37728548063965
 20
13.43436740102969
 30
0.0
 10
15.35290683645065
 20
13.47242914589569
 30
0.0
 10
15.30271282954065
 20
13.47308117152169
 30
0.0
 10
15.23691526007165
 20
13.46299476648769
 30
0.0
 10
15.14220408019466
 20
13.43418716676669
 30
0.0
 10
15.01893091349666
 20
13.38693967412769
 30
0.0
 10
14.86325317881765
 20
13.31744367307869
 30
0.0
 10
14.70480844586866
 20
13.23900853027069
 30
0.0
 10
14.59850086473766
 20
13.18289936432569
 30
0.0
 10
14.55431976814965
 20
13.15905659096469
 30
0.0
  0
ARC
  5
3B
330
1F
100
AcDbEntity
  8
DEFAULT
 62
     7
100
AcDbCircle
 10
17.03714671933964
 20
15.05267518088358
 30
0.0
 40
0.7981454461333728
100
AcDbArc
 50
121.0078985511392
 51
139.6441362532341
  0
ARC
  5
3C
330
1F
100
AcDbEntity
  8
DEFAULT
 62
     7
100
AcDbCircle
 10
10.01731986135694
 20
15.70153873721338
 30
0.0
 40
0.135026676828936
100
AcDbArc
 50
55.91873565754023
 51
92.34124092924667
  0
LINE
  5
3D
330
1F
100
AcDbEntity
  8
DEFAULT
 62
     7
100
AcDbLine
 10
14.66851890744665
 20
13.98633111991769
 30
0.0
 11
14.49117035652666
 21
13.92239942034869
 31
0.0
  0
LINE
  5
3E
330
1F
100
AcDbEntity
  8
DEFAULT
 62
     7
100
AcDbLine
 10
12.14661069169265
 20
13.92239940090969
 30
0.0
 11
12.02987106742166
 21
13.96259276439669
 31
0.0
  0
LINE
  5
3F
330
1F
100
AcDbEntity
  8
DEFAULT
 62
     7
100
AcDbLine
 10
12.16876027208366
 20
13.17995825212469
 30
0.0
 11
12.10112426277565
 21
13.19207079143269
 31
0.0
  0
LINE
  5
40
330
1F
100
AcDbEntity
  8
DEFAULT
 62
     7
100
AcDbLine
 10
14.53665674083866
 20
13.19207079143269
 30
0.0
 11
14.46901909287766
 21
13.17995796969269
 31
0.0
  0
LINE
  5
41
330
1F
100
AcDbEntity
  8
DEFAULT
 62
     7
100
AcDbLine
 10
15.27753172745666
 20
13.29145095404169
 30
0.0
 11
15.35599286988765
 21
13.39456209846269
 31
0.0
  0
LINE
  5
42
330
1F
100
AcDbEntity
  8
DEFAULT
 62
     7
100
AcDbLine
 10
11.28178885093265
 20
13.39456074873069
 30
0.0
 11
11.36024823225266
 21
13.29145203995269
 31
0.0
  0
SPLINE
  5
43
330
1F
100
AcDbEntity
  8
DEFAULT
 62
     7
100
AcDbSpline
210
0.0
220
0.0
230
1.0
 70
     8
 71
     3
 72
    11
 73
     7
 74
     0
 42
0.0000000001
 43
0.0000000001
 40
0.0
 40
0.0
 40
0.0
 40
0.0
 40
0.1655284487019
 40
0.4133547098342
 40
0.7148220717768
 40
1.0
 40
1.0
 40
1.0
 40
1.0
 10
7.779327630348657
 20
15.93321143416769
 30
0.0
 10
7.884364046274651
 20
15.90268250610969
 30
0.0
 10
8.144042793950657
 20
15.81702886252769
 30
0.0
 10
8.56973942307766
 20
15.60999791998869
 30
0.0
 10
9.038974031701653
 20
15.31939783815269
 30
0.0
 10
9.347240208337649
 20
15.08434100687569
 30
0.0
 10
9.502348712100652
 20
14.97758145531769
 30
0.0
  0
ARC
  5
44
330
1F
100
AcDbEntity
  8
DEFAULT
 62
     7
100
AcDbCircle
 10
9.74182735372052
 20
15.43157319138396
 30
0.0
 40
0.5151686926318904
100
AcDbArc
 50
244.2708867979254
 51
274.3734534942093
  0
LINE
  5
45
330
1F
100
AcDbEntity
  8
DEFAULT
 62
     7
100
AcDbLine
 10
9.772689947033651
 20
15.70460759343969
 30
0.0
 11
9.432864984504658
 21
15.93313247832469
 31
0.0
  0
LINE
  5
46
330
1F
100
AcDbEntity
  8
DEFAULT
 62
     7
100
AcDbLine
 10
9.844480434680659
 20
15.65567444324969
 30
0.0
 11
9.772689081908663
 21
15.70460633813369
 31
0.0
  0
LINE
  5
47
330
1F
100
AcDbEntity
  8
DEFAULT
 62
     7
100
AcDbLine
 10
9.844480945595659
 20
15.65738976494069
 30
0.0
 11
9.78082283887866
 21
15.70172130280969
 31
0.0
  0
LINE
  5
48
330
1F
100
AcDbEntity
  8
DEFAULT
 62
     7
100
AcDbLine
 10
9.773988725792659
 20
15.70648729600069
 30
0.0
 11
9.442715440357656
 21
15.93314729406369
 31
0.0
  0
SPLINE
  5
49
330
1F
100
AcDbEntity
  8
DEFAULT
 62
     7
100
AcDbSpline
210
0.0
220
0.0
230
1.0
 70
     8
 71
     3
 72
    12
 73
     8
 74
     0
 42
0.0000000001
 43
0.0000000001
 40
0.0
 40
0.0
 40
0.0
 40
0.0
 40
0.1840635851457
 40
0.4195278296395
 40
0.6365271123991
 40
0.8210471680773001
 40
1.0
 40
1.0
 40
1.0
 40
1.0
 10
17.13542786436666
 20
14.97758802539269
 30
0.0
 10
17.24074465783265
 20
15.05024493392369
 30
0.0
 10
17.47285621274166
 20
15.22703159327369
 30
0.0
 10
17.84101882160266
 20
15.47321890037969
 30
0.0
 10
18.22712939315866
 20
15.69097879731069
 30
0.0
 10
18.59647870016165
 20
15.85564557770269
 30
0.0
 10
18.83880651777666
 20
15.92904673939169
 30
0.0
 10
18.95897737833966
 20
15.96126265520869
 30
0.0
  0
ARC
  5
4A
330
1F
100
AcDbEntity
  8
DEFAULT
 62
     7
100
AcDbCircle
 10
16.89762375565688
 20
15.41503773878769
 30
0.0
 40
0.4988175671943114
100
AcDbArc
 50
265.290435782527
 51
297.4423517610164
  0
LINE
  5
4B
330
1F
100
AcDbEntity
  8
DEFAULT
 62
     7
100
AcDbLine
 10
16.86509191857565
 20
15.70460634132769
 30
0.0
 11
16.79330046163566
 21
15.65567435694269
 31
0.0
  0
LINE
  5
4C
330
1F
100
AcDbEntity
  8
DEFAULT
 62
     7
100
AcDbLine
 10
16.64568010339165
 20
15.56416272696269
 30
0.0
 11
16.62598339613866
 21
15.55933575225169
 31
0.0
  0
LINE
  5
4D
330
1F
100
AcDbEntity
  8
DEFAULT
 62
     7
100
AcDbLine
 10
16.85483386015465
 20
15.70024079506269
 30
0.0
 11
16.79330003010567
 21
15.65738972965169
 31
0.0
  0
ARC
  5
4E
330
1F
100
AcDbEntity
  8
DEFAULT
 62
     7
100
AcDbCircle
 10
25.76310467505206
 20
14.13265522815675
 30
0.0
 40
13.62770861680956
100
AcDbArc
 50
181.0780345568058
 51
189.5981850345004
  0
ARC
  5
4F
330
1F
100
AcDbEntity
  8
DEFAULT
 62
     7
100
AcDbCircle
 10
13.91846413788286
 20
12.00963843008757
 30
0.0
 40
0.420521372962182
100
AcDbArc
 50
280.331138807535
 51
339.2140817385223
  0
ARC
  5
50
330
1F
100
AcDbEntity
  8
DEFAULT
 62
     7
100
AcDbCircle
 10
13.31889060102855
 20
13.65684985435664
 30
0.0
 40
2.168635792325953
100
AcDbArc
 50
251.8653997391743
 51
269.9999973785492
  0
ARC
  5
51
330
1F
100
AcDbEntity
  8
DEFAULT
 62
     7
100
AcDbCircle
 10
12.71931706718635
 20
12.0096386720002
 30
0.0
 40
0.4205216471543634
100
AcDbArc
 50
200.7859393359005
 51
259.6688401733284
  0
ARC
  5
52
330
1F
100
AcDbEntity
  8
DEFAULT
 62
     7
100
AcDbCircle
 10
0.8746763287066094
 20
14.13265522814391
 30
0.0
 40
13.62770861666498
100
AcDbArc
 50
350.4018149654515
 51
358.9219654432366
  0
ARC
  5
53
330
1F
100
AcDbEntity
  8
DEFAULT
 62
     7
100
AcDbCircle
 10
13.31889034288653
 20
13.65685022844397
 30
0.0
 40
2.168636166413279
100
AcDbArc
 50
270.0000041987116
 51
288.134598683537
  0
SPLINE
  5
54
330
1F
100
AcDbEntity
  8
DEFAULT
 62
     7
100
AcDbSpline
210
0.0
220
0.0
230
1.0
 70
     8
 71
     3
 72
    19
 73
    15
 74
     0
 42
0.0000000001
 43
0.0000000001
 40
0.0
 40
0.0
 40
0.0
 40
0.0
 40
0.1235919666214
 40
0.2451043183287
 40
0.3625079393068
 40
0.4738760400769
 40
0.5774394841606
 40
0.6716499905291
 40
0.7552606378014
 40
0.8274447239784
 40
0.8880009336909001
 40
0.9377477976750001
 40
0.9792454826625
 40
1.0
 40
1.0
 40
1.0
 40
1.0
 10
13.31889050180709
 20
14.24336869008869
 30
0.0
 10
13.26526961028834
 20
14.24336869008869
 30
0.0
 10
13.15891605791546
 20
14.24113963146369
 30
0.0
 10
13.00191093934155
 20
14.23114488544569
 30
0.0
 10
12.85077527601466
 20
14.21470045207569
 30
0.0
 10
12.70830444298816
 20
14.19212272412969
 30
0.0
 10
12.57711600145586
 20
14.16384602993869
 30
0.0
 10
12.45959588330835
 20
14.13041401201269
 30
0.0
 10
12.35783379672035
 20
14.09245623841069
 30
0.0
 10
12.27354419054765
 20
14.05065837509269
 30
0.0
 10
12.20799472823566
 20
14.00559786055169
 30
0.0
 10
12.16201506492265
 20
13.95753865547769
 30
0.0
 10
12.14037841370165
 20
13.91265910044969
 30
0.0
 10
12.13773735563965
 20
13.88534663608369
 30
0.0
 10
12.13790002224466
 20
13.87626307018969
 30
0.0
  0
SPLINE
  5
55
330
1F
100
AcDbEntity
  8
DEFAULT
 62
     7
100
AcDbSpline
210
0.0
220
0.0
230
1.0
 70
     8
 71
     3
 72
    19
 73
    15
 74
     0
 42
0.0000000001
 43
0.0000000001
 40
0.0
 40
0.0
 40
0.0
 40
0.0
 40
0.1235919666214
 40
0.2451043183287
 40
0.3625079393068
 40
0.4738760400769
 40
0.5774394841606
 40
0.6716499905291
 40
0.7552606378014
 40
0.8274447239784
 40
0.8880009336909001
 40
0.9377477976750001
 40
0.9792454826625
 40
1.0
 40
1.0
 40
1.0
 40
1.0
 10
13.31889050180709
 20
14.24336869008869
 30
0.0
 10
13.37251139332583
 20
14.24336869008869
 30
0.0
 10
13.47886494569866
 20
14.24113963146369
 30
0.0
 10
13.63587006427256
 20
14.23114488544569
 30
0.0
 10
13.78700572759956
 20
14.21470045207569
 30
0.0
 10
13.92947656062595
 20
14.19212272412969
 30
0.0
 10
14.06066500215826
 20
14.16384602993869
 30
0.0
 10
14.17818512030585
 20
14.13041401201269
 30
0.0
 10
14.27994720689386
 20
14.09245623841069
 30
0.0
 10
14.36423681306665
 20
14.05065837509269
 30
0.0
 10
14.42978627537866
 20
14.00559786055169
 30
0.0
 10
14.47576593869166
 20
13.95753865547769
 30
0.0
 10
14.49740258991265
 20
13.91265910044969
 30
0.0
 10
14.50004364797466
 20
13.88534663608369
 30
0.0
 10
14.49988098136965
 20
13.87626307018969
 30
0.0
  0
ARC
  5
56
330
1F
100
AcDbEntity
  8
DEFAULT
 62
     7
100
AcDbCircle
 10
10.37007152820766
 20
15.03600405116469
 30
0.0
 40
0.1181101473285774
100
AcDbArc
 50
270.0
 51
314.7845827147363
  0
ARC
  5
57
330
1F
100
AcDbEntity
  8
DEFAULT
 62
     7
100
AcDbCircle
 10
16.26770952820766
 20
15.03600405116469
 30
0.0
 40
0.1181101473285774
100
AcDbArc
 50
225.2154172852637
 51
270.0
  0
LINE
  5
58
330
1F
100
AcDbEntity
  8
DEFAULT
 62
     7
100
AcDbLine
 10
16.38975652820765
 20
15.33803005116469
 30
0.0
 11
16.42893052820766
 21
15.56950105116469
 31
0.0
  0
LINE
  5
59
330
1F
100
AcDbEntity
  8
DEFAULT
 62
     7
100
AcDbLine
 10
15.27781452820765
 20
13.29173805116469
 30
0.0
 11
14.42125252820766
 21
12.43517505116469
 31
0.0
  0
LINE
  5
5A
330
1F
100
AcDbEntity
  8
DEFAULT
 62
     7
100
AcDbLine
 10
15.35599152820766
 20
13.39455805116469
 30
0.0
 11
16.38975652820765
 21
15.33803005116469
 31
0.0
  0
LINE
  5
5B
330
1F
100
AcDbEntity
  8
DEFAULT
 62
     7
100
AcDbLine
 10
16.54479652820767
 20
15.81337405116469
 30
0.0
 11
15.35597352820765
 21
14.63532505116469
 31
0.0
  0
LINE
  5
5C
330
1F
100
AcDbEntity
  8
DEFAULT
 62
     7
100
AcDbLine
 10
15.35597352820765
 20
14.47452305116469
 30
0.0
 11
14.53665652820765
 21
13.19207105116469
 31
0.0
  0
LINE
  5
5D
330
1F
100
AcDbEntity
  8
DEFAULT
 62
     7
100
AcDbLine
 10
14.48007352820765
 20
13.35476005116469
 30
0.0
 11
15.16436452820765
 21
14.42585905116469
 31
0.0
  0
LINE
  5
5E
330
1F
100
AcDbEntity
  8
DEFAULT
 62
     7
100
AcDbLine
 10
14.94907352820766
 20
14.42585905116469
 30
0.0
 11
14.49597352820765
 21
13.71663605116469
 31
0.0
  0
LINE
  5
5F
330
1F
100
AcDbEntity
  8
DEFAULT
 62
     7
100
AcDbLine
 10
14.46765852820766
 20
13.11163505116469
 30
0.0
 11
14.50778452820766
 21
13.18707105116469
 31
0.0
  0
LINE
  5
60
330
1F
100
AcDbEntity
  8
DEFAULT
 62
     7
100
AcDbLine
 10
15.35597352820765
 20
14.47452305116469
 30
0.0
 11
15.35597352820765
 21
14.71105805116469
 31
0.0
  0
LINE
  5
61
330
1F
100
AcDbEntity
  8
DEFAULT
 62
     7
100
AcDbLine
 10
7.458654528207656
 20
15.93274405116469
 30
0.0
 11
10.01180352820766
 21
15.93274405116469
 31
0.0
  0
LINE
  5
62
330
1F
100
AcDbEntity
  8
DEFAULT
 62
     7
100
AcDbLine
 10
9.992118528207652
 20
15.52569605116469
 30
0.0
 11
9.844481528207663
 21
15.52569605116469
 31
0.0
  0
LINE
  5
63
330
1F
100
AcDbEntity
  8
DEFAULT
 62
     7
100
AcDbLine
 10
16.79329952820767
 20
15.52569605116469
 30
0.0
 11
16.64566252820766
 21
15.52569605116469
 31
0.0
  0
LINE
  5
64
330
1F
100
AcDbEntity
  8
DEFAULT
 62
     7
100
AcDbLine
 10
16.38975652820765
 20
15.33803005116469
 30
0.0
 11
16.62597752820765
 21
15.33803005116469
 31
0.0
  0
LINE
  5
65
330
1F
100
AcDbEntity
  8
DEFAULT
 62
     7
100
AcDbLine
 10
10.01180352820766
 20
15.33803005116469
 30
0.0
 11
10.24802452820766
 21
15.33803005116469
 31
0.0
  0
LINE
  5
66
330
1F
100
AcDbEntity
  8
DEFAULT
 62
     7
100
AcDbLine
 10
16.26770952820766
 20
14.91789405116469
 30
0.0
 11
16.85666852820766
 21
14.91789405116469
 31
0.0
  0
LINE
  5
67
330
1F
100
AcDbEntity
  8
DEFAULT
 62
     7
100
AcDbLine
 10
9.781112528207654
 20
14.91789405116469
 30
0.0
 11
10.37007152820766
 21
14.91789405116469
 31
0.0
  0
LINE
  5
68
330
1F
100
AcDbEntity
  8
DEFAULT
 62
     7
100
AcDbLine
 10
11.41896552820766
 20
14.71105805116469
 30
0.0
 11
15.35597352820765
 21
14.71105805116469
 31
0.0
  0
LINE
  5
69
330
1F
100
AcDbEntity
  8
DEFAULT
 62
     7
100
AcDbLine
 10
11.41896552820766
 20
14.47452305116469
 30
0.0
 11
15.35597352820765
 21
14.47452305116469
 31
0.0
  0
LINE
  5
6A
330
1F
100
AcDbEntity
  8
DEFAULT
 62
     7
100
AcDbLine
 10
15.16436452820765
 20
14.42585905116469
 30
0.0
 11
11.60444452820766
 21
14.42585905116469
 31
0.0
  0
LINE
  5
6B
330
1F
100
AcDbEntity
  8
DEFAULT
 62
     7
100
AcDbLine
 10
11.78369452820766
 20
14.42585905116469
 30
0.0
 11
12.14086152820766
 21
13.75438705116469
 31
0.0
  0
LINE
  5
6C
330
1F
100
AcDbEntity
  8
DEFAULT
 62
     7
100
AcDbLine
 10
11.60444452820766
 20
14.42585905116469
 30
0.0
 11
12.15580252820766
 21
13.38931005116469
 31
0.0
  0
LINE
  5
6D
330
1F
100
AcDbEntity
  8
DEFAULT
 62
     7
100
AcDbLine
 10
12.12999652820765
 20
13.18707105116469
 30
0.0
 11
12.17012252820765
 21
13.11163505116469
 31
0.0
  0
LINE
  5
6E
330
1F
100
AcDbEntity
  8
DEFAULT
 62
     7
100
AcDbLine
 10
12.10112452820766
 20
13.19207105116469
 30
0.0
 11
11.41896552820766
 21
14.47452305116469
 31
0.0
  0
LINE
  5
6F
330
1F
100
AcDbEntity
  8
DEFAULT
 62
     7
100
AcDbLine
 10
10.09298452820766
 20
15.81337405116469
 30
0.0
 11
11.41896552820766
 21
14.49941005116469
 31
0.0
  0
LINE
  5
70
330
1F
100
AcDbEntity
  8
DEFAULT
 62
     7
100
AcDbLine
 10
10.24802452820766
 20
15.33803005116469
 30
0.0
 11
11.28178952820765
 21
13.39455705116469
 31
0.0
  0
LINE
  5
71
330
1F
100
AcDbEntity
  8
DEFAULT
 62
     7
100
AcDbLine
 10
11.35996552820766
 20
13.29173805116469
 30
0.0
 11
12.21652852820766
 21
12.43517505116469
 31
0.0
  0
LINE
  5
72
330
1F
100
AcDbEntity
  8
DEFAULT
 62
     7
100
AcDbLine
 10
14.42125252820766
 20
12.43517505116469
 30
0.0
 11
14.39600052820766
 21
12.43517505116469
 31
0.0
  0
LINE
  5
73
330
1F
100
AcDbEntity
  8
DEFAULT
 62
     7
100
AcDbLine
 10
12.21652852820766
 20
12.43517505116469
 30
0.0
 11
12.24178052820765
 21
12.43517505116469
 31
0.0
  0
LINE
  5
74
330
1F
100
AcDbEntity
  8
DEFAULT
 62
     7
100
AcDbLine
 10
11.41896552820766
 20
14.47452305116469
 30
0.0
 11
11.41896552820766
 21
14.71105805116469
 31
0.0
  0
LINE
  5
75
330
1F
100
AcDbEntity
  8
DEFAULT
 62
     7
100
AcDbLine
 10
10.24802452820766
 20
15.33803005116469
 30
0.0
 11
10.20885052820766
 21
15.56950105116469
 31
0.0
  0
LINE
  5
76
330
1F
100
AcDbEntity
  8
DEFAULT
 62
     7
100
AcDbLine
 10
6.852961528207654
 20
15.64301005116469
 30
0.0
 11
7.458654528207656
 21
15.83899405116469
 31
0.0
  0
LINE
  5
77
330
1F
100
AcDbEntity
  8
DEFAULT
 62
     7
100
AcDbLine
 10
9.992118528207652
 20
15.52569705116469
 30
0.0
 11
9.992118528207652
 21
15.93274405116469
 31
0.0
  0
LINE
  5
78
330
1F
100
AcDbEntity
  8
DEFAULT
 62
     7
100
AcDbLine
 10
9.844481528207663
 20
15.52569705116469
 30
0.0
 11
9.844481528207663
 21
15.93274405116469
 31
0.0
  0
SPLINE
  5
79
330
1F
100
AcDbEntity
  8
DEFAULT
 62
     7
100
AcDbSpline
210
0.0
220
0.0
230
1.0
 70
    12
 71
     2
 72
     6
 73
     3
 74
     0
 42
0.0000000001
 43
0.0000000001
 40
0.0
 40
0.0
 40
0.0
 40
1.570796326794897
 40
1.570796326794897
 40
1.570796326794897
 10
14.19492466443522
 20
11.90107766002833
 30
0.0
 41
1.0
 10
14.19492466443538
 20
12.21003721876444
 30
0.0
 41
0.7071067811865475
 10
13.31889075994918
 20
12.21003721876488
 30
0.0
 41
1.0
  0
SPLINE
  5
7A
330
1F
100
AcDbEntity
  8
DEFAULT
 62
     7
100
AcDbSpline
210
0.0
220
0.0
230
1.0
 70
    12
 71
     2
 72
     6
 73
     3
 74
     0
 42
0.0000000001
 43
0.0000000001
 40
1.570796326794897
 40
1.570796326794897
 40
1.570796326794897
 40
3.141592653589793
 40
3.141592653589793
 40
3.141592653589793
 10
13.31889075994918
 20
12.21003721876488
 30
0.0
 41
1.0
 10
12.442856855463
 20
12.21003721876532
 30
0.0
 41
0.7071067811865475
 10
12.44285685546283
 20
11.90107766002921
 30
0.0
 41
1.0
  0
LINE
  5
7B
330
1F
100
AcDbEntity
  8
DEFAULT
 62
     7
100
AcDbLine
 10
3.514734665807044
 20
20.96517070631332
 30
0.0
 11
23.12304633780715
 21
20.96517070631332
 31
0.0
  0
LINE
  5
7C
330
1F
100
AcDbEntity
  8
DEFAULT
 62
     7
100
AcDbLine
 10
24.81889050180709
 20
18.71702313762152
 30
0.0
 11
24.81889050180709
 21
18.21331814758168
 31
0.0
  0
LINE
  5
7D
330
1F
100
AcDbEntity
  8
DEFAULT
 62
     7
100
AcDbLine
 10
13.31889050180709
 20
28.18086691168955
 30
0.0
 11
13.31889050180709
 21
20.96517070631332
 31
0.0
  0
SPLINE
  5
7E
330
1F
100
AcDbEntity
  8
DEFAULT
 62
     7
100
AcDbSpline
210
0.0
220
0.0
230
1.0
 70
     8
 71
     3
 72
     8
 73
     4
 74
     0
 42
0.0000000001
 43
0.0000000001
 40
0.0
 40
0.0
 40
0.0
 40
0.0
 40
1.0
 40
1.0
 40
1.0
 40
1.0
 10
13.31889050180709
 20
28.18086691168955
 30
0.0
 10
8.423300443945539
 20
28.18086691168955
 30
0.0
 10
4.457892999374469
 20
27.71160118726418
 30
0.0
 10
3.316803607363237
 20
27.71160118726417
 30
0.0
  0
SPLINE
  5
7F
330
1F
100
AcDbEntity
  8
DEFAULT
 62
     7
100
AcDbSpline
210
0.0
220
0.0
230
1.0
 70
     8
 71
     3
 72
     8
 73
     4
 74
     0
 42
0.0000000001
 43
0.0000000001
 40
-1.0
 40
-1.0
 40
-1.0
 40
-1.0
 40
0.0
 40
0.0
 40
0.0
 40
0.0
 10
23.32097739625095
 20
27.71160118726417
 30
0.0
 10
22.17988800423972
 20
27.71160118726418
 30
0.0
 10
18.21448055966865
 20
28.18086691168955
 30
0.0
 10
13.31889050180709
 20
28.18086691168955
 30
0.0
  0
LINE
  5
80
330
1F
100
AcDbEntity
  8
DEFAULT
 62
     7
100
AcDbLine
 10
3.816197657175973
 20
37.53173498306138
 30
0.0
 11
22.82158334643822
 21
37.53173498306138
 31
0.0
  0
SPLINE
  5
81
330
1F
100
AcDbEntity
  8
DEFAULT
 62
     7
100
AcDbSpline
210
0.0
220
0.0
230
1.0
 70
     8
 71
     3
 72
     9
 73
     5
 74
     0
 42
0.0000000001
 43
0.0000000001
 40
8.297304475691655
 40
8.297304475691655
 40
8.297304475691655
 40
8.297304475691655
 40
18.19502191386309
 40
25.69499699236982
 40
25.69499699236982
 40
25.69499699236982
 40
25.69499699236982
 10
22.82951945085781
 20
37.41745289166649
 30
0.0
 10
23.13343017336276
 20
35.0656448951912
 30
0.0
 10
23.42174535391218
 20
29.2658682717525
 30
0.0
 10
23.26950236909121
 20
23.46184367362662
 30
0.0
 10
23.12304633780714
 20
20.96517070631332
 30
0.0
  0
ARC
  5
82
330
1F
100
AcDbEntity
  8
DEFAULT
 62
     7
100
AcDbCircle
 10
24.21858810325334
 20
37.5969543043631
 30
0.0
 40
1.400618605555427
100
AcDbArc
 50
177.922063509753
 51
187.363201623751
  0
LINE
  5
83
330
1F
100
AcDbEntity
  8
DEFAULT
 62
     7
100
AcDbLine
 10
22.81889050180855
 20
45.00942362948516
 30
0.0
 11
22.81889050180709
 21
37.64773917153502
 31
0.0
  0
ARC
  5
84
330
1F
100
AcDbEntity
  8
DEFAULT
 62
     7
100
AcDbCircle
 10
22.31889050180887
 20
45.00942362948526
 30
0.0
 40
0.4999999999996767
100
AcDbArc
 50
359.9999999999886
 51
79.21025649692277
  0
SPLINE
  5
85
330
1F
100
AcDbEntity
  8
DEFAULT
 62
     7
100
AcDbSpline
210
0.0
220
0.0
230
1.0
 70
     8
 71
     3
 72
     8
 73
     4
 74
     0
 42
0.0000000001
 43
0.0000000001
 40
0.0528258433901178
 40
0.0528258433901178
 40
0.0528258433901178
 40
0.0528258433901178
 40
0.9470306990256152
 40
0.9470306990256152
 40
0.9470306990256152
 40
0.9470306990256152
 10
4.22536012035857
 20
45.50037987896469
 30
0.0
 10
7.105362841505052
 20
46.04879583436284
 30
0.0
 10
19.53717819656551
 20
46.04854627640066
 30
0.0
 10
22.41249323815694
 20
45.50058401851092
 30
0.0
  0
ARC
  5
86
330
1F
100
AcDbEntity
  8
DEFAULT
 62
     7
100
AcDbCircle
 10
4.318890501808873
 20
45.00920570644963
 30
0.0
 40
0.5000000000000926
100
AcDbArc
 50
100.7813031398275
 51
180.000000000013
  0
LINE
  5
87
330
1F
100
AcDbEntity
  8
DEFAULT
 62
     7
100
AcDbLine
 10
3.818890501807093
 20
37.64773917153502
 30
0.0
 11
3.818890501808777
 21
45.00920570644951
 31
0.0
  0
ARC
  5
88
330
1F
100
AcDbEntity
  8
DEFAULT
 62
     7
100
AcDbCircle
 10
1.318890501791017
 20
37.64773917153559
 30
0.0
 40
2.500000000016078
100
AcDbArc
 50
354.7147348665079
 51
359.999999999987
  0
SPLINE
  5
89
330
1F
100
AcDbEntity
  8
DEFAULT
 62
     7
100
AcDbSpline
210
0.0
220
0.0
230
1.0
 70
     8
 71
     3
 72
     9
 73
     5
 74
     0
 42
0.0000000001
 43
0.0000000001
 40
-24.69499647261952
 40
-24.69499647261952
 40
-24.69499647261952
 40
-24.69499647261952
 40
-17.19502139411279
 40
-7.29730395594135
 40
-7.29730395594135
 40
-7.29730395594135
 40
-7.29730395594135
 10
3.514734665807044
 20
20.96517070631331
 30
0.0
 10
3.368278634522977
 20
23.46184367362662
 30
0.0
 10
3.216035649702004
 20
29.2658682717525
 30
0.0
 10
3.589968242864054
 20
35.05772461531367
 30
0.0
 10
3.808261552756388
 20
37.41745289166649
 30
0.0
  0
LINE
  5
8A
330
1F
100
AcDbEntity
  8
DEFAULT
 62
     7
100
AcDbLine
 10
2.531051662515598
 20
20.96517070631332
 30
0.0
 11
13.31889050180709
 21
20.96517070631332
 31
0.0
  0
ARC
  5
8B
330
1F
100
AcDbEntity
  8
DEFAULT
 62
     7
100
AcDbCircle
 10
2.531051662515598
 20
20.46517070631332
 30
0.0
 40
0.5
100
AcDbArc
 50
90.0
 51
160.4524589846018
  0
SPLINE
  5
8C
330
1F
100
AcDbEntity
  8
DEFAULT
 62
     7
100
AcDbSpline
210
0.0
220
0.0
230
1.0
 70
     8
 71
     3
 72
     8
 73
     4
 74
     0
 42
0.0000000001
 43
0.0000000001
 40
34.91960321177777
 40
34.91960321177777
 40
34.91960321177777
 40
34.91960321177777
 40
35.63124878338482
 40
35.63124878338482
 40
35.63124878338482
 40
35.63124878338482
 10
2.059869542029812
 20
16.2978762638449
 30
0.0
 10
1.73542830861582
 20
17.21165976314781
 30
0.0
 10
1.735428316893518
 20
19.71868165105074
 30
0.0
 10
2.059869566862658
 20
20.63246515552221
 30
0.0
  0
ARC
  5
8D
330
1F
100
AcDbEntity
  8
DEFAULT
 62
     7
100
AcDbCircle
 10
2.531051640076139
 20
16.46517070631334
 30
0.0
 40
0.5000000000001637
100
AcDbArc
 50
199.5475401957531
 51
269.9999999999683
  0
LINE
  5
8E
330
1F
100
AcDbEntity
  8
DEFAULT
 62
     7
100
AcDbLine
 10
24.10672936353832
 20
15.96517070631318
 30
0.0
 11
2.531051640075862
 21
15.96517070631318
 31
0.0
  0
ARC
  5
8F
330
1F
100
AcDbEntity
  8
DEFAULT
 62
     7
100
AcDbCircle
 10
24.10672936353832
 20
16.46517070631295
 30
0.0
 40
0.4999999999997655
100
AcDbArc
 50
270.0
 51
340.4524598042787
  0
SPLINE
  5
90
330
1F
100
AcDbEntity
  8
DEFAULT
 62
     7
100
AcDbSpline
210
0.0
220
0.0
230
1.0
 70
     8
 71
     3
 72
     8
 73
     4
 74
     0
 42
0.0000000001
 43
0.0000000001
 40
11.40265252699529
 40
11.40265252699529
 40
11.40265252699529
 40
11.40265252699529
 40
12.11429809860233
 40
12.11429809860233
 40
12.11429809860233
 40
12.11429809860233
 10
24.57791143675153
 20
20.63246515552221
 30
0.0
 10
24.90235268672077
 20
19.71868165105078
 30
0.0
 10
24.90235269499816
 20
17.21165976314787
 30
0.0
 10
24.57791146158437
 20
16.2978762638449
 30
0.0
  0
ARC
  5
91
330
1F
100
AcDbEntity
  8
DEFAULT
 62
     7
100
AcDbCircle
 10
24.10672934109854
 20
20.46517070631325
 30
0.0
 40
0.5000000000000791
100
AcDbArc
 50
19.54754101540447
 51
89.99999999999349
  0
LINE
  5
92
330
1F
100
AcDbEntity
  8
DEFAULT
 62
     7
100
AcDbLine
 10
13.31889050180709
 20
20.96517070631332
 30
0.0
 11
24.10672934109859
 21
20.96517070631333
 31
0.0
  0
LINE
  5
93
330
1F
100
AcDbEntity
  8
DEFAULT
 62
     7
100
AcDbLine
 10
1.372978899998248
 20
28.82506711154021
 30
0.0
 11
3.048626568392063
 21
28.82506711154021
 31
0.0
  0
LINE
  5
94
330
1F
100
AcDbEntity
  8
DEFAULT
 62
     7
100
AcDbLine
 10
1.372978899998255
 20
25.91420830884768
 30
0.0
 11
3.04862656839207
 21
25.91420830884768
 31
0.0
  0
SPLINE
  5
95
330
1F
100
AcDbEntity
  8
DEFAULT
 62
     7
100
AcDbSpline
210
0.0
220
0.0
230
1.0
 70
     8
 71
     3
 72
     8
 73
     4
 74
     0
 42
0.0000000001
 43
0.0000000001
 40
0.0515254300017919
 40
0.0515254300017919
 40
0.0515254300017919
 40
0.0515254300017919
 40
0.7906552532814644
 40
0.7906552532814644
 40
0.7906552532814644
 40
0.7906552532814644
 10
2.960330206438368
 20
25.91420830884768
 30
0.0
 10
3.197432075347212
 20
24.47532668878884
 30
0.0
 10
3.316739602211751
 20
22.34273133035519
 30
0.0
 10
3.357855388038477
 20
20.96517070631332
 30
0.0
  0
SPLINE
  5
96
330
1F
100
AcDbEntity
  8
DEFAULT
 62
     7
100
AcDbSpline
210
0.0
220
0.0
230
1.0
 70
     8
 71
     3
 72
     8
 73
     4
 74
     0
 42
0.0000000001
 43
0.0000000001
 40
0.0850166568489339
 40
0.0850166568489339
 40
0.0850166568489339
 40
0.0850166568489339
 40
0.8435182794586855
 40
0.8435182794586855
 40
0.8435182794586855
 40
0.8435182794586855
 10
1.824016567304877
 20
25.91420830884769
 30
0.0
 10
1.978339522316258
 20
24.91414859181287
 30
0.0
 10
2.006710667660709
 20
22.73391672251043
 30
0.0
 10
1.998512324131067
 20
20.42625863986308
 30
0.0
  0
SPLINE
  5
97
330
1F
100
AcDbEntity
  8
DEFAULT
 62
     7
100
AcDbSpline
210
0.0
220
0.0
230
1.0
 70
     8
 71
     3
 72
     9
 73
     5
 74
     0
 42
0.0000000001
 43
0.0000000001
 40
0.0
 40
0.0
 40
0.0
 40
0.0
 40
1.0
 40
2.0
 40
2.0
 40
2.0
 40
2.0
 10
1.372978899998248
 20
28.82506711154021
 30
0.0
 10
1.092122663132944
 20
28.82506711154021
 30
0.0
 10
1.006630435153671
 20
27.36963771019395
 30
0.0
 10
1.092122663132944
 20
25.91420830884768
 30
0.0
 10
1.372978899998255
 20
25.91420830884768
 30
0.0
  0
SPLINE
  5
98
330
1F
100
AcDbEntity
  8
DEFAULT
 62
     7
100
AcDbSpline
210
0.0
220
0.0
230
1.0
 70
     8
 71
     2
 72
     6
 73
     3
 74
     0
 42
0.0000000001
 43
0.0000000001
 40
0.0
 40
0.0
 40
0.0
 40
1.0
 40
1.0
 40
1.0
 10
3.048626568392063
 20
28.82506711154021
 30
0.0
 10
3.230421276969512
 20
28.82506711154021
 30
0.0
 10
3.32242527910682
 20
28.79702827518484
 30
0.0
  0
SPLINE
  5
99
330
1F
100
AcDbEntity
  8
DEFAULT
 62
     7
100
AcDbSpline
210
0.0
220
0.0
230
1.0
 70
     8
 71
     2
 72
     6
 73
     3
 74
     0
 42
0.0000000001
 43
0.0000000001
 40
0.0
 40
0.0
 40
0.0
 40
1.0
 40
1.0
 40
1.0
 10
23.58915443522212
 20
28.82506711154021
 30
0.0
 10
23.40735972664468
 20
28.82506711154021
 30
0.0
 10
23.31535572450737
 20
28.79702827518484
 30
0.0
  0
SPLINE
  5
9A
330
1F
100
AcDbEntity
  8
DEFAULT
 62
     7
100
AcDbSpline
210
0.0
220
0.0
230
1.0
 70
     8
 71
     3
 72
     9
 73
     5
 74
     0
 42
0.0000000001
 43
0.0000000001
 40
0.0
 40
0.0
 40
0.0
 40
0.0
 40
1.0
 40
2.0
 40
2.0
 40
2.0
 40
2.0
 10
25.26480210361594
 20
28.82506711154021
 30
0.0
 10
25.54565834048124
 20
28.82506711154021
 30
0.0
 10
25.63115056846052
 20
27.36963771019395
 30
0.0
 10
25.54565834048124
 20
25.91420830884768
 30
0.0
 10
25.26480210361593
 20
25.91420830884768
 30
0.0
  0
SPLINE
  5
9B
330
1F
100
AcDbEntity
  8
DEFAULT
 62
     7
100
AcDbSpline
210
0.0
220
0.0
230
1.0
 70
     8
 71
     3
 72
     8
 73
     4
 74
     0
 42
0.0000000001
 43
0.0000000001
 40
0.0850166568489339
 40
0.0850166568489339
 40
0.0850166568489339
 40
0.0850166568489339
 40
0.8435182794586855
 40
0.8435182794586855
 40
0.8435182794586855
 40
0.8435182794586855
 10
24.81376443630931
 20
25.91420830884769
 30
0.0
 10
24.65944148129793
 20
24.91414859181287
 30
0.0
 10
24.63107033595348
 20
22.73391672251043
 30
0.0
 10
24.63926867948312
 20
20.42625863986308
 30
0.0
  0
SPLINE
  5
9C
330
1F
100
AcDbEntity
  8
DEFAULT
 62
     7
100
AcDbSpline
210
0.0
220
0.0
230
1.0
 70
     8
 71
     3
 72
     8
 73
     4
 74
     0
 42
0.0000000001
 43
0.0000000001
 40
0.0515254300017919
 40
0.0515254300017919
 40
0.0515254300017919
 40
0.0515254300017919
 40
0.7906552532814644
 40
0.7906552532814644
 40
0.7906552532814644
 40
0.7906552532814644
 10
23.67745079717582
 20
25.91420830884768
 30
0.0
 10
23.44034892826698
 20
24.47532668878884
 30
0.0
 10
23.32104140140244
 20
22.34273133035519
 30
0.0
 10
23.27992561557571
 20
20.96517070631332
 30
0.0
  0
LINE
  5
9D
330
1F
100
AcDbEntity
  8
DEFAULT
 62
     7
100
AcDbLine
 10
25.26480210361593
 20
25.91420830884768
 30
0.0
 11
23.58915443522212
 21
25.91420830884768
 31
0.0
  0
LINE
  5
9E
330
1F
100
AcDbEntity
  8
DEFAULT
 62
     7
100
AcDbLine
 10
25.26480210361594
 20
28.82506711154021
 30
0.0
 11
23.58915443522212
 21
28.82506711154021
 31
0.0
  0
ARC
  5
9F
330
1F
100
AcDbEntity
  8
DEFAULT
 62
     7
100
AcDbCircle
 10
37.08575019237012
 20
23.23065131768817
 30
0.0
 40
13.90206267861959
100
AcDbArc
 50
168.5919284455723
 51
172.9866748984513
  0
ARC
  5
A0
330
1F
100
AcDbEntity
  8
DEFAULT
 62
     7
100
AcDbCircle
 10
-10.44796918875591
 20
23.23065131768817
 30
0.0
 40
13.90206267861956
100
AcDbArc
 50
7.013325101548665
 51
11.40807155442775
  0
SPLINE
  5
A1
330
1F
100
AcDbEntity
  8
DEFAULT
 62
     7
100
AcDbSpline
210
0.0
220
0.0
230
1.0
 70
     8
 71
     3
 72
     8
 73
     4
 74
     0
 42
0.0000000001
 43
0.0000000001
 40
2.016310272851632
 40
2.016310272851632
 40
2.016310272851632
 40
2.016310272851632
 40
2.295111565237342
 40
2.295111565237342
 40
2.295111565237342
 40
2.295111565237342
 10
3.075982343475385
 20
25.92805420542177
 30
0.0
 10
3.158900130564593
 20
25.97002234928512
 30
0.0
 10
3.241817917653794
 20
26.01199049314846
 30
0.0
 10
3.321754775073746
 20
26.28050929187471
 30
0.0
  0
ARC
  5
A2
330
1F
100
AcDbEntity
  8
DEFAULT
 62
     7
100
AcDbCircle
 10
3.030823144063999
 20
26.01727666172351
 30
0.0
 40
0.0999999999999668
100
AcDbArc
 50
249.5829502756428
 51
296.8458706024188
  0
SPLINE
  5
A3
330
1F
100
AcDbEntity
  8
DEFAULT
 62
     7
100
AcDbSpline
210
0.0
220
0.0
230
1.0
 70
     8
 71
     3
 72
     9
 73
     5
 74
     0
 42
0.0000000001
 43
0.0000000001
 40
0.0
 40
0.0
 40
0.0
 40
0.0
 40
1.0
 40
1.933820915470664
 40
1.933820915470664
 40
1.933820915470664
 40
1.933820915470664
 10
3.048626568392063
 20
28.82506711154021
 30
0.0
 10
2.767770331526759
 20
28.82506711154021
 30
0.0
 10
2.685107002238507
 20
27.41779720288303
 30
0.0
 10
2.762299748070346
 20
26.01052729422594
 30
0.0
 10
2.995938049816726
 20
25.92355883951582
 30
0.0
  0
SPLINE
  5
A4
330
1F
100
AcDbEntity
  8
DEFAULT
 62
     7
100
AcDbSpline
210
0.0
220
0.0
230
1.0
 70
     8
 71
     3
 72
     8
 73
     4
 74
     0
 42
0.0000000001
 43
0.0000000001
 40
2.016310272851632
 40
2.016310272851632
 40
2.016310272851632
 40
2.016310272851632
 40
2.295111565237342
 40
2.295111565237342
 40
2.295111565237342
 40
2.295111565237342
 10
23.5617986601388
 20
25.92805420542177
 30
0.0
 10
23.47888087304959
 20
25.97002234928512
 30
0.0
 10
23.39596308596039
 20
26.01199049314846
 30
0.0
 10
23.31602622854044
 20
26.28050929187471
 30
0.0
  0
ARC
  5
A5
330
1F
100
AcDbEntity
  8
DEFAULT
 62
     7
100
AcDbCircle
 10
23.60695785955019
 20
26.01727666172352
 30
0.0
 40
0.0999999999999704
100
AcDbArc
 50
243.1541293975818
 51
290.417049724356
  0
SPLINE
  5
A6
330
1F
100
AcDbEntity
  8
DEFAULT
 62
     7
100
AcDbSpline
210
0.0
220
0.0
230
1.0
 70
     8
 71
     3
 72
     9
 73
     5
 74
     0
 42
0.0000000001
 43
0.0000000001
 40
0.0
 40
0.0
 40
0.0
 40
0.0
 40
1.0
 40
1.933820915470664
 40
1.933820915470664
 40
1.933820915470664
 40
1.933820915470664
 10
23.58915443522212
 20
28.82506711154021
 30
0.0
 10
23.87001067208743
 20
28.82506711154021
 30
0.0
 10
23.95267400137568
 20
27.41779720288303
 30
0.0
 10
23.87548125554384
 20
26.01052729422594
 30
0.0
 10
23.64184295379746
 20
25.92355883951582
 30
0.0
  0
LINE
  5
A7
330
1F
100
AcDbEntity
  8
DEFAULT
 62
     7
100
AcDbLine
 10
13.71717019239857
 20
0.0019492845599757
 30
0.0
 11
13.980315893156
 21
0.0019492845599757
 31
0.0
  0
LINE
  5
A8
330
1F
100
AcDbEntity
  8
DEFAULT
 62
     7
100
AcDbLine
 10
12.53281216511334
 20
2.501950737221571
 30
0.0
 11
14.10496883850084
 21
2.501950737221571
 31
0.0
  0
LINE
  5
A9
330
1F
100
AcDbEntity
  8
DEFAULT
 62
     7
100
AcDbLine
 10
12.92061081121553
 20
0.0019625803937734
 30
0.0
 11
12.92061081121553
 21
0.815979743515717
 31
0.0
  0
LINE
  5
AA
330
1F
100
AcDbEntity
  8
DEFAULT
 62
     7
100
AcDbLine
 10
13.71717019239857
 20
0.0019625803937734
 30
0.0
 11
13.71717019239857
 21
0.8159467584109804
 31
0.0
  0
LINE
  5
AB
330
1F
100
AcDbEntity
  8
DEFAULT
 62
     7
100
AcDbLine
 10
12.3636049884392
 20
2.068898286692203
 30
0.0
 11
12.3636049884392
 21
0.2045177887805378
 31
0.0
  0
LINE
  5
AC
330
1F
100
AcDbEntity
  8
DEFAULT
 62
     7
100
AcDbLine
 10
14.27417601517489
 20
0.2045177887805858
 30
0.0
 11
14.27417601517489
 21
2.068898286692203
 31
0.0
  0
SPLINE
  5
AD
330
1F
100
AcDbEntity
  8
DEFAULT
 62
     7
100
AcDbSpline
210
0.0
220
0.0
230
1.0
 70
     8
 71
     5
 72
    12
 73
     6
 74
     0
 42
0.0000000001
 43
0.0000000001
 40
0.0
 40
0.0
 40
0.0
 40
0.0
 40
0.0
 40
0.0
 40
1.0
 40
1.0
 40
1.0
 40
1.0
 40
1.0
 40
1.0
 10
12.3636049884392
 20
0.2045177887805379
 30
0.0
 10
12.3636049884392
 20
0.1331349419031939
 30
0.0
 10
12.3636049884392
 20
0.0617520950258499
 30
0.0
 10
12.5146994175418
 20
0.0019492845599757
 30
0.0
 10
12.58608226441914
 20
0.0019492845599757
 30
0.0
 10
12.65746511129648
 20
0.0019492845599757
 30
0.0
  0
SPLINE
  5
AE
330
1F
100
AcDbEntity
  8
DEFAULT
 62
     7
100
AcDbSpline
210
0.0
220
0.0
230
1.0
 70
     8
 71
     5
 72
    12
 73
     6
 74
     0
 42
0.0000000001
 43
0.0000000001
 40
0.0
 40
0.0
 40
0.0
 40
0.0
 40
0.0
 40
0.0
 40
1.0
 40
1.0
 40
1.0
 40
1.0
 40
1.0
 40
1.0
 10
13.980315893156
 20
0.0019492845599757
 30
0.0
 10
14.05169873989529
 20
0.0019492845599757
 30
0.0
 10
14.12308158663458
 20
0.0019492845599757
 30
0.0
 10
14.27417601517489
 20
0.061752095301998
 30
0.0
 10
14.27417601517489
 20
0.1331349420412919
 30
0.0
 10
14.27417601517489
 20
0.2045177887805858
 30
0.0
  0
ARC
  5
AF
330
1F
100
AcDbEntity
  8
DEFAULT
 62
     7
100
AcDbCircle
 10
12.55492784718951
 20
2.069641961037873
 30
0.0
 40
0.1913243040806007
100
AcDbArc
 50
92.83831027210891
 51
180.2227082901817
  0
ARC
  5
B0
330
1F
100
AcDbEntity
  8
DEFAULT
 62
     7
100
AcDbCircle
 10
14.08285315642824
 20
2.069641961071558
 30
0.0
 40
0.191324304077056
100
AcDbArc
 50
359.7772916997119
 51
87.16168961540176
  0
SPLINE
  5
B1
330
1F
100
AcDbEntity
  8
DEFAULT
 62
     7
100
AcDbSpline
210
0.0
220
0.0
230
1.0
 70
     8
 71
     3
 72
     9
 73
     5
 74
     0
 42
0.0000000001
 43
0.0000000001
 40
-2.0
 40
-2.0
 40
-2.0
 40
-2.0
 40
-1.0
 40
0.0
 40
0.0
 40
0.0
 40
0.0
 10
12.53281921992296
 20
2.501950737281556
 30
0.0
 10
12.54502155757175
 20
1.745866490486487
 30
0.0
 10
12.73153262600265
 20
0.9230235415266603
 30
0.0
 10
12.97289989103087
 20
0.692096551381027
 30
0.0
 10
13.31888759992641
 20
0.692096551381027
 30
0.0
  0
SPLINE
  5
B2
330
1F
100
AcDbEntity
  8
DEFAULT
 62
     7
100
AcDbSpline
210
0.0
220
0.0
230
1.0
 70
     8
 71
     3
 72
     9
 73
     5
 74
     0
 42
0.0000000001
 43
0.0000000001
 40
0.0
 40
0.0
 40
0.0
 40
0.0
 40
1.0
 40
2.0
 40
2.0
 40
2.0
 40
2.0
 10
13.31888759992641
 20
0.692096551381027
 30
0.0
 10
13.66487530882194
 20
0.692096551381027
 30
0.0
 10
13.90624257385015
 20
0.9230235415266603
 30
0.0
 10
14.09275364228104
 20
1.745866490486487
 30
0.0
 10
14.10495597992985
 20
2.501950737281556
 30
0.0
  0
LINE
  5
B3
330
1F
100
AcDbEntity
  8
DEFAULT
 62
     7
100
AcDbLine
 10
12.65746511129648
 20
0.0019492845599757
 30
0.0
 11
12.92061081121553
 21
0.0019492845599757
 31
0.0
  0
LINE
  5
B4
330
1F
100
AcDbEntity
  8
DEFAULT
 62
     7
100
AcDbLine
 10
0.2937303994594805
 20
0.0019492845599752
 30
0.0
 11
0.556876099378531
 21
0.0019492845599752
 31
0.0
  0
LINE
  5
B5
330
1F
100
AcDbEntity
  8
DEFAULT
 62
     7
100
AcDbLine
 10
1.353435480561569
 20
0.0019492845599752
 30
0.0
 11
1.616581181319003
 21
0.0019492845599752
 31
0.0
  0
LINE
  5
B6
330
1F
100
AcDbEntity
  8
DEFAULT
 62
     7
100
AcDbLine
 10
0.1690774532763405
 20
2.501950737221571
 30
0.0
 11
1.741234126663844
 21
2.501950737221571
 31
0.0
  0
LINE
  5
B7
330
1F
100
AcDbEntity
  8
DEFAULT
 62
     7
100
AcDbLine
 10
0.556876099378531
 20
0.001962580393773
 30
0.0
 11
0.556876099378531
 21
0.8159797435157166
 31
0.0
  0
LINE
  5
B8
330
1F
100
AcDbEntity
  8
DEFAULT
 62
     7
100
AcDbLine
 10
1.353435480561569
 20
0.001962580393773
 30
0.0
 11
1.353435480561569
 21
0.81594675841098
 31
0.0
  0
LINE
  5
B9
330
1F
100
AcDbEntity
  8
DEFAULT
 62
     7
100
AcDbLine
 10
-0.0001297233977945
 20
2.068898286692203
 30
0.0
 11
-0.0001297233977945
 21
0.2045177887805374
 31
0.0
  0
LINE
  5
BA
330
1F
100
AcDbEntity
  8
DEFAULT
 62
     7
100
AcDbLine
 10
1.910441303337894
 20
0.2045177887805853
 30
0.0
 11
1.910441303337894
 21
2.068898286692203
 31
0.0
  0
SPLINE
  5
BB
330
1F
100
AcDbEntity
  8
DEFAULT
 62
     7
100
AcDbSpline
210
0.0
220
0.0
230
1.0
 70
     8
 71
     5
 72
    12
 73
     6
 74
     0
 42
0.0000000001
 43
0.0000000001
 40
0.0
 40
0.0
 40
0.0
 40
0.0
 40
0.0
 40
0.0
 40
1.0
 40
1.0
 40
1.0
 40
1.0
 40
1.0
 40
1.0
 10
-0.0001297233977945
 20
0.2045177887805375
 30
0.0
 10
-0.0001297233977945
 20
0.1331349419031934
 30
0.0
 10
-0.0001297233977945
 20
0.0617520950258494
 30
0.0
 10
0.1509647057048048
 20
0.0019492845599752
 30
0.0
 10
0.2223475525821392
 20
0.0019492845599752
 30
0.0
 10
0.2937303994594805
 20
0.0019492845599752
 30
0.0
  0
SPLINE
  5
BC
330
1F
100
AcDbEntity
  8
DEFAULT
 62
     7
100
AcDbSpline
210
0.0
220
0.0
230
1.0
 70
     8
 71
     5
 72
    12
 73
     6
 74
     0
 42
0.0000000001
 43
0.0000000001
 40
0.0
 40
0.0
 40
0.0
 40
0.0
 40
0.0
 40
0.0
 40
1.0
 40
1.0
 40
1.0
 40
1.0
 40
1.0
 40
1.0
 10
1.616581181319003
 20
0.0019492845599752
 30
0.0
 10
1.687964028058293
 20
0.0019492845599752
 30
0.0
 10
1.759346874797583
 20
0.0019492845599752
 30
0.0
 10
1.910441303337894
 20
0.0617520953019975
 30
0.0
 10
1.910441303337894
 20
0.1331349420412914
 30
0.0
 10
1.910441303337894
 20
0.2045177887805853
 30
0.0
  0
ARC
  5
BD
330
1F
100
AcDbEntity
  8
DEFAULT
 62
     7
100
AcDbCircle
 10
0.1911931353525193
 20
2.069641961037869
 30
0.0
 40
0.1913243040806049
100
AcDbArc
 50
92.8383102721096
 51
180.2227082901804
  0
ARC
  5
BE
330
1F
100
AcDbEntity
  8
DEFAULT
 62
     7
100
AcDbCircle
 10
1.719118444591242
 20
2.069641961071552
 30
0.0
 40
0.19132430407706
100
AcDbArc
 50
359.7772916997135
 51
87.16168961540062
  0
SPLINE
  5
BF
330
1F
100
AcDbEntity
  8
DEFAULT
 62
     7
100
AcDbSpline
210
0.0
220
0.0
230
1.0
 70
     8
 71
     3
 72
     9
 73
     5
 74
     0
 42
0.0000000001
 43
0.0000000001
 40
-2.0
 40
-2.0
 40
-2.0
 40
-2.0
 40
-1.0
 40
0.0
 40
0.0
 40
0.0
 40
0.0
 10
0.1690845080859623
 20
2.501950737281555
 30
0.0
 10
0.1812868457347569
 20
1.745866490486486
 30
0.0
 10
0.3677979141656528
 20
0.9230235415266599
 30
0.0
 10
0.6091651791938694
 20
0.6920965513810266
 30
0.0
 10
0.9551528880894117
 20
0.6920965513810266
 30
0.0
  0
SPLINE
  5
C0
330
1F
100
AcDbEntity
  8
DEFAULT
 62
     7
100
AcDbSpline
210
0.0
220
0.0
230
1.0
 70
     8
 71
     3
 72
     9
 73
     5
 74
     0
 42
0.0000000001
 43
0.0000000001
 40
0.0
 40
0.0
 40
0.0
 40
0.0
 40
1.0
 40
2.0
 40
2.0
 40
2.0
 40
2.0
 10
0.9551528880894117
 20
0.6920965513810266
 30
0.0
 10
1.301140596984947
 20
0.6920965513810266
 30
0.0
 10
1.542507862013149
 20
0.9230235415266599
 30
0.0
 10
1.729018930444045
 20
1.745866490486486
 30
0.0
 10
1.741221268092854
 20
2.501950737281555
 30
0.0
  0
SPLINE
  5
C1
330
1F
100
AcDbEntity
  8
DEFAULT
 62
     7
100
AcDbSpline
210
0.0
220
0.0
230
1.0
 70
     8
 71
     3
 72
     9
 73
     5
 74
     0
 42
0.0000000001
 43
0.0000000001
 40
0.0
 40
0.0
 40
0.0
 40
0.0
 40
1.0
 40
2.0
 40
2.0
 40
2.0
 40
2.0
 10
5.677679320124252
 20
0.6920965513810261
 30
0.0
 10
6.023667029019787
 20
0.6920965513810261
 30
0.0
 10
6.26503429404799
 20
0.9230235415266594
 30
0.0
 10
6.451545362478885
 20
1.745866490486486
 30
0.0
 10
6.463747700127694
 20
2.501950737281555
 30
0.0
  0
SPLINE
  5
C2
330
1F
100
AcDbEntity
  8
DEFAULT
 62
     7
100
AcDbSpline
210
0.0
220
0.0
230
1.0
 70
     8
 71
     3
 72
     9
 73
     5
 74
     0
 42
0.0000000001
 43
0.0000000001
 40
-2.0
 40
-2.0
 40
-2.0
 40
-2.0
 40
-1.0
 40
0.0
 40
0.0
 40
0.0
 40
0.0
 10
4.891610940120803
 20
2.501950737281555
 30
0.0
 10
4.903813277769597
 20
1.745866490486486
 30
0.0
 10
5.090324346200493
 20
0.9230235415266594
 30
0.0
 10
5.33169161122871
 20
0.6920965513810261
 30
0.0
 10
5.677679320124252
 20
0.6920965513810261
 30
0.0
  0
ARC
  5
C3
330
1F
100
AcDbEntity
  8
DEFAULT
 62
     7
100
AcDbCircle
 10
6.441644876626084
 20
2.069641961071554
 30
0.0
 40
0.1913243040770578
100
AcDbArc
 50
359.7772916997129
 51
87.16168961540126
  0
ARC
  5
C4
330
1F
100
AcDbEntity
  8
DEFAULT
 62
     7
100
AcDbCircle
 10
4.913719567387361
 20
2.069641961037868
 30
0.0
 40
0.1913243040806049
100
AcDbArc
 50
92.83831027210991
 51
180.2227082901805
  0
SPLINE
  5
C5
330
1F
100
AcDbEntity
  8
DEFAULT
 62
     7
100
AcDbSpline
210
0.0
220
0.0
230
1.0
 70
     8
 71
     5
 72
    12
 73
     6
 74
     0
 42
0.0000000001
 43
0.0000000001
 40
0.0
 40
0.0
 40
0.0
 40
0.0
 40
0.0
 40
0.0
 40
1.0
 40
1.0
 40
1.0
 40
1.0
 40
1.0
 40
1.0
 10
6.339107613353843
 20
0.0019492845599748
 30
0.0
 10
6.410490460093133
 20
0.0019492845599748
 30
0.0
 10
6.481873306832423
 20
0.0019492845599748
 30
0.0
 10
6.632967735372734
 20
0.0617520953019971
 30
0.0
 10
6.632967735372734
 20
0.133134942041291
 30
0.0
 10
6.632967735372734
 20
0.2045177887805849
 30
0.0
  0
SPLINE
  5
C6
330
1F
100
AcDbEntity
  8
DEFAULT
 62
     7
100
AcDbSpline
210
0.0
220
0.0
230
1.0
 70
     8
 71
     5
 72
    12
 73
     6
 74
     0
 42
0.0000000001
 43
0.0000000001
 40
0.0
 40
0.0
 40
0.0
 40
0.0
 40
0.0
 40
0.0
 40
1.0
 40
1.0
 40
1.0
 40
1.0
 40
1.0
 40
1.0
 10
4.722396708637046
 20
0.204517788780537
 30
0.0
 10
4.722396708637046
 20
0.133134941903193
 30
0.0
 10
4.722396708637046
 20
0.061752095025849
 30
0.0
 10
4.873491137739645
 20
0.0019492845599748
 30
0.0
 10
4.944873984616979
 20
0.0019492845599748
 30
0.0
 10
5.016256831494321
 20
0.0019492845599748
 30
0.0
  0
LINE
  5
C7
330
1F
100
AcDbEntity
  8
DEFAULT
 62
     7
100
AcDbLine
 10
6.632967735372734
 20
0.2045177887805849
 30
0.0
 11
6.632967735372734
 21
2.068898286692202
 31
0.0
  0
LINE
  5
C8
330
1F
100
AcDbEntity
  8
DEFAULT
 62
     7
100
AcDbLine
 10
4.722396708637046
 20
2.068898286692202
 30
0.0
 11
4.722396708637046
 21
0.204517788780537
 31
0.0
  0
LINE
  5
C9
330
1F
100
AcDbEntity
  8
DEFAULT
 62
     7
100
AcDbLine
 10
6.075961912596409
 20
0.0019625803937725
 30
0.0
 11
6.075961912596409
 21
0.8159467584109795
 31
0.0
  0
LINE
  5
CA
330
1F
100
AcDbEntity
  8
DEFAULT
 62
     7
100
AcDbLine
 10
5.279402531413371
 20
0.0019625803937725
 30
0.0
 11
5.279402531413371
 21
0.8159797435157161
 31
0.0
  0
LINE
  5
CB
330
1F
100
AcDbEntity
  8
DEFAULT
 62
     7
100
AcDbLine
 10
4.891603885311181
 20
2.50195073722157
 30
0.0
 11
6.463760558698684
 21
2.50195073722157
 31
0.0
  0
LINE
  5
CC
330
1F
100
AcDbEntity
  8
DEFAULT
 62
     7
100
AcDbLine
 10
6.075961912596409
 20
0.0019492845599748
 30
0.0
 11
6.339107613353843
 21
0.0019492845599748
 31
0.0
  0
LINE
  5
CD
330
1F
100
AcDbEntity
  8
DEFAULT
 62
     7
100
AcDbLine
 10
5.016256831494321
 20
0.0019492845599748
 30
0.0
 11
5.279402531413371
 21
0.0019492845599748
 31
0.0
  0
LINE
  5
CE
330
1F
100
AcDbEntity
  8
DEFAULT
 62
     7
100
AcDbLine
 10
21.62152417211989
 20
0.0019492845600091
 30
0.0
 11
21.35837847220084
 21
0.001949284560008
 31
0.0
  0
LINE
  5
CF
330
1F
100
AcDbEntity
  8
DEFAULT
 62
     7
100
AcDbLine
 10
20.56181909101781
 20
0.0019492845600047
 30
0.0
 11
20.29867339026037
 21
0.0019492845600036
 31
0.0
  0
LINE
  5
D0
330
1F
100
AcDbEntity
  8
DEFAULT
 62
     7
100
AcDbLine
 10
21.74617711830302
 20
2.501950737221605
 30
0.0
 11
20.17402044491552
 21
2.501950737221599
 31
0.0
  0
LINE
  5
D1
330
1F
100
AcDbEntity
  8
DEFAULT
 62
     7
100
AcDbLine
 10
21.35837847220084
 20
0.0019625803938057
 30
0.0
 11
21.35837847220084
 21
0.8159797435157493
 31
0.0
  0
LINE
  5
D2
330
1F
100
AcDbEntity
  8
DEFAULT
 62
     7
100
AcDbLine
 10
20.56181909101781
 20
0.0019625803938024
 30
0.0
 11
20.56181909101781
 21
0.8159467584110094
 31
0.0
  0
LINE
  5
D3
330
1F
100
AcDbEntity
  8
DEFAULT
 62
     7
100
AcDbLine
 10
21.91538429497716
 20
2.068898286692238
 30
0.0
 11
21.91538429497717
 21
0.2045177887805725
 31
0.0
  0
LINE
  5
D4
330
1F
100
AcDbEntity
  8
DEFAULT
 62
     7
100
AcDbLine
 10
20.00481326824148
 20
0.2045177887806125
 30
0.0
 11
20.00481326824147
 21
2.06889828669223
 31
0.0
  0
SPLINE
  5
D5
330
1F
100
AcDbEntity
  8
DEFAULT
 62
     7
100
AcDbSpline
210
0.0
220
0.0
230
1.0
 70
     8
 71
     5
 72
    12
 73
     6
 74
     0
 42
0.0000000001
 43
0.0000000001
 40
0.0
 40
0.0
 40
0.0
 40
0.0
 40
0.0
 40
0.0
 40
1.0
 40
1.0
 40
1.0
 40
1.0
 40
1.0
 40
1.0
 10
21.91538429497717
 20
0.2045177887805725
 30
0.0
 10
21.91538429497717
 20
0.1331349419032285
 30
0.0
 10
21.91538429497717
 20
0.0617520950258845
 30
0.0
 10
21.76428986587457
 20
0.0019492845600096
 30
0.0
 10
21.69290701899724
 20
0.0019492845600094
 30
0.0
 10
21.62152417211989
 20
0.0019492845600091
 30
0.0
  0
SPLINE
  5
D6
330
1F
100
AcDbEntity
  8
DEFAULT
 62
     7
100
AcDbSpline
210
0.0
220
0.0
230
1.0
 70
     8
 71
     5
 72
    12
 73
     6
 74
     0
 42
0.0000000001
 43
0.0000000001
 40
0.0
 40
0.0
 40
0.0
 40
0.0
 40
0.0
 40
0.0
 40
1.0
 40
1.0
 40
1.0
 40
1.0
 40
1.0
 40
1.0
 10
20.29867339026037
 20
0.0019492845600036
 30
0.0
 10
20.22729054352108
 20
0.0019492845600033
 30
0.0
 10
20.15590769678179
 20
0.001949284560003
 30
0.0
 10
20.00481326824148
 20
0.0617520953020247
 30
0.0
 10
20.00481326824148
 20
0.1331349420413186
 30
0.0
 10
20.00481326824148
 20
0.2045177887806125
 30
0.0
  0
ARC
  5
D7
330
1F
100
AcDbEntity
  8
DEFAULT
 62
     7
100
AcDbCircle
 10
21.72406143622684
 20
2.069641961037898
 30
0.0
 40
0.19132430408061
100
AcDbArc
 50
359.7772917098212
 51
87.16168972788911
  0
ARC
  5
D8
330
1F
100
AcDbEntity
  8
DEFAULT
 62
     7
100
AcDbCircle
 10
20.19613612698814
 20
2.069641961071568
 30
0.0
 40
0.1913243040770737
100
AcDbArc
 50
92.8383103846033
 51
180.222708300283
  0
SPLINE
  5
D9
330
1F
100
AcDbEntity
  8
DEFAULT
 62
     7
100
AcDbSpline
210
0.0
220
0.0
230
1.0
 70
     8
 71
     3
 72
     9
 73
     5
 74
     0
 42
0.0000000001
 43
0.0000000001
 40
-2.0
 40
-2.0
 40
-2.0
 40
-2.0
 40
-1.0
 40
0.0
 40
0.0
 40
0.0
 40
0.0
 10
21.74617006349341
 20
2.50195073728159
 30
0.0
 10
21.73396772584461
 20
1.74586649048652
 30
0.0
 10
21.54745665741372
 20
0.9230235415266934
 30
0.0
 10
21.30608939238551
 20
0.6920965513810591
 30
0.0
 10
20.96010168348996
 20
0.6920965513810576
 30
0.0
  0
SPLINE
  5
DA
330
1F
100
AcDbEntity
  8
DEFAULT
 62
     7
100
AcDbSpline
210
0.0
220
0.0
230
1.0
 70
     8
 71
     3
 72
     9
 73
     5
 74
     0
 42
0.0000000001
 43
0.0000000001
 40
0.0
 40
0.0
 40
0.0
 40
0.0
 40
1.0
 40
2.0
 40
2.0
 40
2.0
 40
2.0
 10
20.96010168348996
 20
0.6920965513810576
 30
0.0
 10
20.61411397459443
 20
0.6920965513810562
 30
0.0
 10
20.37274670956622
 20
0.9230235415266885
 30
0.0
 10
20.18623564113532
 20
1.745866490486514
 30
0.0
 10
20.17403330348651
 20
2.501950737281583
 30
0.0
  0
SPLINE
  5
DB
330
1F
100
AcDbEntity
  8
DEFAULT
 62
     7
100
AcDbSpline
210
0.0
220
0.0
230
1.0
 70
     8
 71
     3
 72
     9
 73
     5
 74
     0
 42
0.0000000001
 43
0.0000000001
 40
0.0
 40
0.0
 40
0.0
 40
0.0
 40
1.0
 40
2.0
 40
2.0
 40
2.0
 40
2.0
 10
25.6826281155248
 20
0.6920965513810776
 30
0.0
 10
25.33664040662927
 20
0.6920965513810762
 30
0.0
 10
25.09527314160106
 20
0.9230235415267085
 30
0.0
 10
24.90876207317016
 20
1.745866490486534
 30
0.0
 10
24.89655973552135
 20
2.501950737281603
 30
0.0
  0
SPLINE
  5
DC
330
1F
100
AcDbEntity
  8
DEFAULT
 62
     7
100
AcDbSpline
210
0.0
220
0.0
230
1.0
 70
     8
 71
     3
 72
     9
 73
     5
 74
     0
 42
0.0000000001
 43
0.0000000001
 40
-2.0
 40
-2.0
 40
-2.0
 40
-2.0
 40
-1.0
 40
0.0
 40
0.0
 40
0.0
 40
0.0
 10
26.46869649552825
 20
2.501950737281609
 30
0.0
 10
26.45649415787945
 20
1.74586649048654
 30
0.0
 10
26.26998308944856
 20
0.9230235415267133
 30
0.0
 10
26.02861582442035
 20
0.692096551381079
 30
0.0
 10
25.6826281155248
 20
0.6920965513810776
 30
0.0
  0
ARC
  5
DD
330
1F
100
AcDbEntity
  8
DEFAULT
 62
     7
100
AcDbCircle
 10
24.91866255902297
 20
2.0696419610716
 30
0.0
 40
0.1913243040770595
100
AcDbArc
 50
92.83831038459925
 51
180.2227083002865
  0
ARC
  5
DE
330
1F
100
AcDbEntity
  8
DEFAULT
 62
     7
100
AcDbCircle
 10
26.44658786826169
 20
2.069641961037926
 30
0.0
 40
0.1913243040806022
100
AcDbArc
 50
359.7772917098189
 51
87.16168972789006
  0
SPLINE
  5
DF
330
1F
100
AcDbEntity
  8
DEFAULT
 62
     7
100
AcDbSpline
210
0.0
220
0.0
230
1.0
 70
     8
 71
     5
 72
    12
 73
     6
 74
     0
 42
0.0000000001
 43
0.0000000001
 40
0.0
 40
0.0
 40
0.0
 40
0.0
 40
0.0
 40
0.0
 40
1.0
 40
1.0
 40
1.0
 40
1.0
 40
1.0
 40
1.0
 10
25.02119982229521
 20
0.0019492845600235
 30
0.0
 10
24.94981697555592
 20
0.0019492845600232
 30
0.0
 10
24.87843412881663
 20
0.0019492845600229
 30
0.0
 10
24.72733970027632
 20
0.0617520953020446
 30
0.0
 10
24.72733970027632
 20
0.1331349420413385
 30
0.0
 10
24.72733970027632
 20
0.2045177887806324
 30
0.0
  0
SPLINE
  5
E0
330
1F
100
AcDbEntity
  8
DEFAULT
 62
     7
100
AcDbSpline
210
0.0
220
0.0
230
1.0
 70
     8
 71
     5
 72
    12
 73
     6
 74
     0
 42
0.0000000001
 43
0.0000000001
 40
0.0
 40
0.0
 40
0.0
 40
0.0
 40
0.0
 40
0.0
 40
1.0
 40
1.0
 40
1.0
 40
1.0
 40
1.0
 40
1.0
 10
26.63791072701201
 20
0.2045177887805925
 30
0.0
 10
26.63791072701201
 20
0.1331349419032484
 30
0.0
 10
26.63791072701201
 20
0.0617520950259044
 30
0.0
 10
26.48681629790941
 20
0.0019492845600296
 30
0.0
 10
26.41543345103208
 20
0.0019492845600293
 30
0.0
 10
26.34405060415473
 20
0.001949284560029
 30
0.0
  0
LINE
  5
E1
330
1F
100
AcDbEntity
  8
DEFAULT
 62
     7
100
AcDbLine
 10
24.72733970027632
 20
0.2045177887806324
 30
0.0
 11
24.72733970027631
 21
2.06889828669225
 31
0.0
  0
LINE
  5
E2
330
1F
100
AcDbEntity
  8
DEFAULT
 62
     7
100
AcDbLine
 10
26.637910727012
 20
2.068898286692258
 30
0.0
 11
26.63791072701201
 21
0.2045177887805925
 31
0.0
  0
LINE
  5
E3
330
1F
100
AcDbEntity
  8
DEFAULT
 62
     7
100
AcDbLine
 10
25.28434552305265
 20
0.0019625803938224
 30
0.0
 11
25.28434552305265
 21
0.8159467584110294
 31
0.0
  0
LINE
  5
E4
330
1F
100
AcDbEntity
  8
DEFAULT
 62
     7
100
AcDbLine
 10
26.08090490423568
 20
0.0019625803938256
 30
0.0
 11
26.08090490423568
 21
0.8159797435157692
 31
0.0
  0
LINE
  5
E5
330
1F
100
AcDbEntity
  8
DEFAULT
 62
     7
100
AcDbLine
 10
26.46870355033786
 20
2.501950737221625
 30
0.0
 11
24.89654687695036
 21
2.501950737221619
 31
0.0
  0
LINE
  5
E6
330
1F
100
AcDbEntity
  8
DEFAULT
 62
     7
100
AcDbLine
 10
25.28434552305265
 20
0.0019492845600246
 30
0.0
 11
25.02119982229521
 21
0.0019492845600235
 31
0.0
  0
LINE
  5
E7
330
1F
100
AcDbEntity
  8
DEFAULT
 62
     7
100
AcDbLine
 10
26.34405060415473
 20
0.001949284560029
 30
0.0
 11
26.08090490423568
 21
0.0019492845600279
 31
0.0
  0
LINE
  5
E8
330
1F
100
AcDbEntity
  8
DEFAULT
 62
     7
100
AcDbLine
 10
12.1188905018071
 20
10.5
 30
0.0
 11
13.31889050180709
 21
10.5
 31
0.0
  0
LINE
  5
E9
330
1F
100
AcDbEntity
  8
DEFAULT
 62
     7
100
AcDbLine
 10
12.1188905018071
 20
6.5
 30
0.0
 11
12.1188905018071
 21
10.5
 31
0.0
  0
LINE
  5
EA
330
1F
100
AcDbEntity
  8
DEFAULT
 62
     7
100
AcDbLine
 10
13.31889050180709
 20
6.5
 30
0.0
 11
12.1188905018071
 21
6.5
 31
0.0
  0
LINE
  5
EB
330
1F
100
AcDbEntity
  8
DEFAULT
 62
     7
100
AcDbLine
 10
12.33865593537022
 20
10.5
 30
0.0
 11
12.33865593537022
 21
11.59512678066785
 31
0.0
  0
LINE
  5
EC
330
1F
100
AcDbEntity
  8
DEFAULT
 62
     7
100
AcDbLine
 10
14.29912506824398
 20
10.5
 30
0.0
 11
14.29912506824398
 21
11.59512678066785
 31
0.0
  0
LINE
  5
ED
330
1F
100
AcDbEntity
  8
DEFAULT
 62
     7
100
AcDbLine
 10
14.5188905018071
 20
10.5
 30
0.0
 11
13.31889050180709
 21
10.5
 31
0.0
  0
LINE
  5
EE
330
1F
100
AcDbEntity
  8
DEFAULT
 62
     7
100
AcDbLine
 10
14.5188905018071
 20
6.5
 30
0.0
 11
14.5188905018071
 21
10.5
 31
0.0
  0
LINE
  5
EF
330
1F
100
AcDbEntity
  8
DEFAULT
 62
     7
100
AcDbLine
 10
13.3188905018071
 20
6.5
 30
0.0
 11
14.5188905018071
 21
6.5
 31
0.0
  0
LINE
  5
F0
330
1F
100
AcDbEntity
  8
DEFAULT
 62
     7
100
AcDbLine
 10
14.29912506824398
 20
11.59512678066785
 30
0.0
 11
14.18862889008378
 21
11.68738196112811
 31
0.0
  0
LINE
  5
F1
330
1F
100
AcDbEntity
  8
DEFAULT
 62
     7
100
AcDbLine
 10
12.33865593537022
 20
11.59512678066785
 30
0.0
 11
12.44915214520618
 21
11.68738198757476
 31
0.0
  0
LINE
  5
F2
330
1F
100
AcDbEntity
  8
DEFAULT
 62
     7
100
AcDbLine
 10
12.53281921992392
 20
2.647308665772305
 30
0.0
 11
12.53281921992296
 21
2.501950737281556
 31
0.0
  0
LINE
  5
F3
330
1F
100
AcDbEntity
  8
DEFAULT
 62
     7
100
AcDbLine
 10
14.10495597992984
 20
2.647308665772304
 30
0.0
 11
14.10495597992985
 21
2.501950737281556
 31
0.0
  0
LINE
  5
F4
330
1F
100
AcDbEntity
  8
DEFAULT
 62
     7
100
AcDbLine
 10
0.1690845080869287
 20
2.715150096498611
 30
0.0
 11
0.1690845080869429
 21
2.50195073722157
 31
0.0
  0
ARC
  5
F5
330
1F
100
AcDbEntity
  8
DEFAULT
 62
     7
100
AcDbCircle
 10
1.669084508086661
 20
2.715150096498711
 30
0.0
 40
1.499999999999733
100
AcDbArc
 50
123.1740163145034
 51
180.0000000000038
  0
SPLINE
  5
F6
330
1F
100
AcDbEntity
  8
DEFAULT
 62
     7
100
AcDbSpline
210
0.0
220
0.0
230
1.0
 70
     8
 71
     2
 72
     6
 73
     3
 74
     0
 42
0.0000000001
 43
0.0000000001
 40
2.604226065180605
 40
2.604226065180605
 40
2.604226065180605
 40
12.19883414454914
 40
12.19883414454914
 40
12.19883414454914
 10
9.514664436626493
 20
6.5
 30
0.0
 10
4.717360396942246
 20
6.499999999999988
 30
0.0
 10
0.8483089672969293
 20
3.970668918197741
 30
0.0
  0
LINE
  5
F7
330
1F
100
AcDbEntity
  8
DEFAULT
 62
     7
100
AcDbLine
 10
10.9677494926372
 20
6.5
 30
0.0
 11
9.514664436626493
 21
6.500000000000001
 31
0.0
  0
LINE
  5
F8
330
1F
100
AcDbEntity
  8
DEFAULT
 62
     7
100
AcDbLine
 10
4.891610940121741
 20
2.955769841542271
 30
0.0
 11
4.891610940121762
 21
2.50195073722157
 31
0.0
  0
ARC
  5
F9
330
1F
100
AcDbEntity
  8
DEFAULT
 62
     7
100
AcDbCircle
 10
6.391610940121645
 20
2.955769841542341
 30
0.0
 40
1.499999999999904
100
AcDbArc
 50
138.1041788178298
 51
180.0000000000026
  0
SPLINE
  5
FA
330
1F
100
AcDbEntity
  8
DEFAULT
 62
     7
100
AcDbSpline
210
0.0
220
0.0
230
1.0
 70
     8
 71
     2
 72
     6
 73
     3
 74
     0
 42
0.0000000001
 43
0.0000000001
 40
1.15114100916989
 40
1.15114100916989
 40
1.15114100916989
 40
7.974546108572594
 40
7.974546108572594
 40
7.974546108572594
 10
10.96774949263719
 20
6.499999999999999
 30
0.0
 10
7.556046942935788
 20
6.500000000000027
 30
0.0
 10
5.275070562064911
 20
3.957437243511996
 30
0.0
  0
LINE
  5
FB
330
1F
100
AcDbEntity
  8
DEFAULT
 62
     7
100
AcDbLine
 10
12.1188905018071
 20
6.5
 30
0.0
 11
10.9677494926372
 21
6.5
 31
0.0
  0
LINE
  5
FC
330
1F
100
AcDbEntity
  8
DEFAULT
 62
     7
100
AcDbLine
 10
1.626602360455618
 20
2.926426995534332
 30
0.0
 11
1.626602360455618
 21
3.568690670184049
 31
0.0
  0
LINE
  5
FD
330
1F
100
AcDbEntity
  8
DEFAULT
 62
     7
100
AcDbLine
 10
1.741221268092854
 20
2.501950737281555
 30
0.0
 11
1.741221268092854
 21
2.999277537663656
 31
0.0
  0
SPLINE
  5
FE
330
1F
100
AcDbEntity
  8
DEFAULT
 62
     7
100
AcDbSpline
210
0.0
220
0.0
230
1.0
 70
     8
 71
     3
 72
     9
 73
     5
 74
     0
 42
0.0000000001
 43
0.0000000001
 40
-0.0206690460375186
 40
-0.0206690460375186
 40
-0.0206690460375186
 40
-0.0206690460375186
 40
0.0
 40
0.7544209151320629
 40
0.7544209151320629
 40
0.7544209151320629
 40
0.7544209151320629
 10
1.626602360455618
 20
2.926426995534332
 30
0.0
 10
1.659826701881745
 20
2.955257789467484
 30
0.0
 10
3.145824796641033
 20
3.762923621234023
 30
0.0
 10
4.502313841229732
 20
4.208173697002624
 30
0.0
 10
5.787318270339245
 20
4.482977952709192
 30
0.0
  0
SPLINE
  5
FF
330
1F
100
AcDbEntity
  8
DEFAULT
 62
     7
100
AcDbSpline
210
0.0
220
0.0
230
1.0
 70
     8
 71
     3
 72
     8
 73
     4
 74
     0
 42
0.0000000001
 43
0.0000000001
 40
7.827151018345647
 40
7.827151018345647
 40
7.827151018345647
 40
7.827151018345647
 40
12.44968901267999
 40
12.44968901267999
 40
12.44968901267999
 40
12.44968901267999
 10
4.795906080322315
 20
5.036335318718431
 30
0.0
 10
3.485854721200507
 20
4.616072633957382
 30
0.0
 10
2.244726284467848
 20
4.010783181644759
 30
0.0
 10
1.066231391590737
 20
3.215075627136711
 30
0.0
  0
ARC
  5
100
330
1F
100
AcDbEntity
  8
DEFAULT
 62
     7
100
AcDbCircle
 10
9.25110100396892
 20
-8.851488598349812
 30
0.0
 40
14.58493794841717
100
AcDbArc
 50
97.62155520396581
 51
107.7861698735786
  0
LINE
  5
101
330
1F
100
AcDbEntity
  8
DEFAULT
 62
     7
100
AcDbLine
 10
11.99742894420354
 20
4.500000000000036
 30
0.0
 11
13.3188905018071
 21
4.500000000000028
 31
0.0
  0
SPLINE
  5
102
330
1F
100
AcDbEntity
  8
DEFAULT
 62
     7
100
AcDbSpline
210
0.0
220
0.0
230
1.0
 70
     8
 71
     3
 72
     9
 73
     5
 74
     0
 42
0.0000000001
 43
0.0000000001
 40
-0.0206690460375186
 40
-0.0206690460375186
 40
-0.0206690460375186
 40
-0.0206690460375186
 40
0.0
 40
0.7530485311532295
 40
0.7530485311532295
 40
0.7530485311532295
 40
0.7530485311532295
 10
6.463760558698684
 20
2.926426995534333
 30
0.0
 10
6.496984900124811
 20
2.955257789467485
 30
0.0
 10
7.980351868073033
 20
4.276947967105945
 30
0.0
 10
10.18564087667533
 20
4.821913243653762
 30
0.0
 10
11.99742894420354
 20
4.500000000000036
 30
0.0
  0
ARC
  5
103
330
1F
100
AcDbEntity
  8
DEFAULT
 62
     7
100
AcDbCircle
 10
-11.59337433119632
 20
0.8958403447326468
 30
0.0
 40
24.18968492034821
100
AcDbArc
 50
4.152167920842241
 51
8.568731878974155
  0
LINE
  5
104
330
1F
100
AcDbEntity
  8
DEFAULT
 62
     7
100
AcDbLine
 10
12.5688905018071
 20
2.499999999999999
 30
0.0
 11
12.5688905018071
 21
4.500000000000032
 31
0.0
  0
LINE
  5
105
330
1F
100
AcDbEntity
  8
DEFAULT
 62
     7
100
AcDbLine
 10
13.3188905018071
 20
2.499999999999999
 30
0.0
 11
12.5688905018071
 21
2.499999999999999
 31
0.0
  0
SPLINE
  5
106
330
1F
100
AcDbEntity
  8
DEFAULT
 62
     7
100
AcDbSpline
210
0.0
220
0.0
230
1.0
 70
     8
 71
     3
 72
    10
 73
     6
 74
     0
 42
0.0000000001
 43
0.0000000001
 40
1.841431110057292
 40
1.841431110057292
 40
1.841431110057292
 40
1.841431110057292
 40
2.232866066252536
 40
3.232866066252536
 40
4.232866066252536
 40
4.232866066252536
 40
4.232866066252536
 40
4.232866066252536
 10
7.077973125238675
 20
4.174857880631654
 30
0.0
 10
7.269462053253324
 20
4.358871977048842
 30
0.0
 10
8.041197189830708
 20
4.970790350810422
 30
0.0
 10
9.514664436626493
 20
5.612810441042009
 30
0.0
 10
11.52866400040925
 20
5.722300518134714
 30
0.0
 10
13.30996822201442
 20
5.722300518134714
 30
0.0
  0
ARC
  5
107
330
1F
100
AcDbEntity
  8
DEFAULT
 62
     7
100
AcDbCircle
 10
8.463760558699518
 20
2.732778413589247
 30
0.0
 40
2.000000000000826
100
AcDbArc
 50
133.8596103901734
 51
179.9999999999909
  0
LINE
  5
108
330
1F
100
AcDbEntity
  8
DEFAULT
 62
     7
100
AcDbLine
 10
6.463760558698684
 20
2.50195073722157
 30
0.0
 11
6.463760558698692
 21
2.732778413589563
 31
0.0
  0
SPLINE
  5
109
330
1F
100
AcDbEntity
  8
DEFAULT
 62
     7
100
AcDbSpline
210
0.0
220
0.0
230
1.0
 70
     8
 71
     3
 72
    10
 73
     6
 74
     0
 42
0.0000000001
 43
0.0000000001
 40
1.841431110057292
 40
1.841431110057292
 40
1.841431110057292
 40
1.841431110057292
 40
2.232866066252536
 40
3.232866066252536
 40
4.232866066252536
 40
4.232866066252536
 40
4.232866066252536
 40
4.232866066252536
 10
19.55980787837553
 20
4.174857880631654
 30
0.0
 10
19.36831895036088
 20
4.358871977048842
 30
0.0
 10
18.59658381378349
 20
4.970790350810422
 30
0.0
 10
17.12311656698771
 20
5.612810441042009
 30
0.0
 10
15.10911700320495
 20
5.722300518134714
 30
0.0
 10
13.32781278159978
 20
5.722300518134714
 30
0.0
  0
ARC
  5
10A
330
1F
100
AcDbEntity
  8
DEFAULT
 62
     7
100
AcDbCircle
 10
18.1740204449147
 20
2.732778413589251
 30
0.0
 40
2.000000000000814
100
AcDbArc
 50
0.000000000008931
 51
46.14038960982675
  0
LINE
  5
10B
330
1F
100
AcDbEntity
  8
DEFAULT
 62
     7
100
AcDbLine
 10
20.17402044491552
 20
2.50195073722157
 30
0.0
 11
20.17402044491551
 21
2.732778413589563
 31
0.0
  0
LINE
  5
10C
330
1F
100
AcDbEntity
  8
DEFAULT
 62
     7
100
AcDbLine
 10
14.0688905018071
 20
2.499999999999999
 30
0.0
 11
14.0688905018071
 21
4.500000000000032
 31
0.0
  0
LINE
  5
10D
330
1F
100
AcDbEntity
  8
DEFAULT
 62
     7
100
AcDbLine
 10
13.3188905018071
 20
2.499999999999999
 30
0.0
 11
14.0688905018071
 21
2.499999999999999
 31
0.0
  0
ARC
  5
10E
330
1F
100
AcDbEntity
  8
DEFAULT
 62
     7
100
AcDbCircle
 10
38.23115533481051
 20
0.8958403447326488
 30
0.0
 40
24.1896849203482
100
AcDbArc
 50
171.4312681210259
 51
175.8478320791578
  0
LINE
  5
10F
330
1F
100
AcDbEntity
  8
DEFAULT
 62
     7
100
AcDbLine
 10
14.64035205941066
 20
4.500000000000036
 30
0.0
 11
13.3188905018071
 21
4.500000000000028
 31
0.0
  0
SPLINE
  5
110
330
1F
100
AcDbEntity
  8
DEFAULT
 62
     7
100
AcDbSpline
210
0.0
220
0.0
230
1.0
 70
     8
 71
     3
 72
     9
 73
     5
 74
     0
 42
0.0000000001
 43
0.0000000001
 40
-0.0206690460375186
 40
-0.0206690460375186
 40
-0.0206690460375186
 40
-0.0206690460375186
 40
0.0
 40
0.7530485311532295
 40
0.7530485311532295
 40
0.7530485311532295
 40
0.7530485311532295
 10
20.17402044491552
 20
2.926426995534333
 30
0.0
 10
20.14079610348939
 20
2.955257789467485
 30
0.0
 10
18.65742913554117
 20
4.276947967105945
 30
0.0
 10
16.45214012693888
 20
4.821913243653762
 30
0.0
 10
14.64035205941066
 20
4.500000000000036
 30
0.0
  0
SPLINE
  5
111
330
1F
100
AcDbEntity
  8
DEFAULT
 62
     7
100
AcDbSpline
210
0.0
220
0.0
230
1.0
 70
     8
 71
     3
 72
     8
 73
     4
 74
     0
 42
0.0000000001
 43
0.0000000001
 40
7.827151018345647
 40
7.827151018345647
 40
7.827151018345647
 40
7.827151018345647
 40
12.44968901267999
 40
12.44968901267999
 40
12.44968901267999
 40
12.44968901267999
 10
21.84187492329189
 20
5.036335318718431
 30
0.0
 10
23.15192628241369
 20
4.616072633957382
 30
0.0
 10
24.39305471914635
 20
4.010783181644759
 30
0.0
 10
25.57154961202346
 20
3.215075627136711
 30
0.0
  0
ARC
  5
112
330
1F
100
AcDbEntity
  8
DEFAULT
 62
     7
100
AcDbCircle
 10
17.38667999964528
 20
-8.851488598349812
 30
0.0
 40
14.58493794841717
100
AcDbArc
 50
72.2138301264214
 51
82.37844479603419
  0
SPLINE
  5
113
330
1F
100
AcDbEntity
  8
DEFAULT
 62
     7
100
AcDbSpline
210
0.0
220
0.0
230
1.0
 70
     8
 71
     3
 72
     9
 73
     5
 74
     0
 42
0.0000000001
 43
0.0000000001
 40
-0.0206690460375186
 40
-0.0206690460375186
 40
-0.0206690460375186
 40
-0.0206690460375186
 40
0.0
 40
0.7544209151320629
 40
0.7544209151320629
 40
0.7544209151320629
 40
0.7544209151320629
 10
25.01117864315858
 20
2.926426995534332
 30
0.0
 10
24.97795430173246
 20
2.955257789467484
 30
0.0
 10
23.49195620697317
 20
3.762923621234023
 30
0.0
 10
22.13546716238447
 20
4.208173697002624
 30
0.0
 10
20.85046273327496
 20
4.482977952709192
 30
0.0
  0
LINE
  5
114
330
1F
100
AcDbEntity
  8
DEFAULT
 62
     7
100
AcDbLine
 10
24.89655973552135
 20
2.501950737281555
 30
0.0
 11
24.89655973552135
 21
2.999277537663656
 31
0.0
  0
LINE
  5
115
330
1F
100
AcDbEntity
  8
DEFAULT
 62
     7
100
AcDbLine
 10
25.01117864315858
 20
2.926426995534332
 30
0.0
 11
25.01117864315858
 21
3.568690670184049
 31
0.0
  0
LINE
  5
116
330
1F
100
AcDbEntity
  8
DEFAULT
 62
     7
100
AcDbLine
 10
21.74617006349246
 20
2.955769841542271
 30
0.0
 11
21.74617006349244
 21
2.50195073722157
 31
0.0
  0
ARC
  5
117
330
1F
100
AcDbEntity
  8
DEFAULT
 62
     7
100
AcDbCircle
 10
20.24617006349256
 20
2.95576984154234
 30
0.0
 40
1.499999999999904
100
AcDbArc
 50
359.9999999999973
 51
41.8958211821702
  0
SPLINE
  5
118
330
1F
100
AcDbEntity
  8
DEFAULT
 62
     7
100
AcDbSpline
210
0.0
220
0.0
230
1.0
 70
     8
 71
     2
 72
     6
 73
     3
 74
     0
 42
0.0000000001
 43
0.0000000001
 40
1.15114100916989
 40
1.15114100916989
 40
1.15114100916989
 40
7.974546108572594
 40
7.974546108572594
 40
7.974546108572594
 10
15.67003151097701
 20
6.499999999999999
 30
0.0
 10
19.08173406067841
 20
6.500000000000027
 30
0.0
 10
21.36271044154929
 20
3.957437243511996
 30
0.0
  0
LINE
  5
119
330
1F
100
AcDbEntity
  8
DEFAULT
 62
     7
100
AcDbLine
 10
14.5188905018071
 20
6.5
 30
0.0
 11
15.670031510977
 21
6.5
 31
0.0
  0
LINE
  5
11A
330
1F
100
AcDbEntity
  8
DEFAULT
 62
     7
100
AcDbLine
 10
26.46869649552727
 20
2.715150096498611
 30
0.0
 11
26.46869649552726
 21
2.50195073722157
 31
0.0
  0
ARC
  5
11B
330
1F
100
AcDbEntity
  8
DEFAULT
 62
     7
100
AcDbCircle
 10
24.96869649552754
 20
2.715150096498711
 30
0.0
 40
1.49999999999973
100
AcDbArc
 50
359.9999999999962
 51
56.82598368549672
  0
SPLINE
  5
11C
330
1F
100
AcDbEntity
  8
DEFAULT
 62
     7
100
AcDbSpline
210
0.0
220
0.0
230
1.0
 70
     8
 71
     2
 72
     6
 73
     3
 74
     0
 42
0.0000000001
 43
0.0000000001
 40
2.604226065180605
 40
2.604226065180605
 40
2.604226065180605
 40
12.19883414454914
 40
12.19883414454914
 40
12.19883414454914
 10
17.12311656698771
 20
6.5
 30
0.0
 10
21.92042060667195
 20
6.499999999999986
 30
0.0
 10
25.78947203631727
 20
3.970668918197741
 30
0.0
  0
LINE
  5
11D
330
1F
100
AcDbEntity
  8
DEFAULT
 62
     7
100
AcDbLine
 10
15.670031510977
 20
6.5
 30
0.0
 11
17.12311656698771
 21
6.500000000000001
 31
0.0
  0
LINE
  5
11E
330
1F
100
AcDbEntity
  8
DEFAULT
 62
     7
100
AcDbLine
 10
12.28187077455566
 20
5.68259572039238
 30
0.0
 11
12.44018971525803
 21
4.753791268271815
 31
0.0
  0
LINE
  5
11F
330
1F
100
AcDbEntity
  8
DEFAULT
 62
     7
100
AcDbLine
 10
14.35591022905854
 20
5.68259572039238
 30
0.0
 11
14.19759128835617
 21
4.753791268271815
 31
0.0
  0
LINE
  5
120
330
1F
100
AcDbEntity
  8
DEFAULT
 62
     7
100
AcDbLine
 10
51.18384510595346
 20
5.75
 30
0.0
 11
49.98384510595346
 21
5.75
 31
0.0
  0
SPLINE
  5
121
330
1F
100
AcDbEntity
  8
DEFAULT
 62
     7
100
AcDbSpline
210
0.0
220
0.0
230
1.0
 70
     8
 71
     3
 72
     9
 73
     5
 74
     0
 42
0.0000000001
 43
0.0000000001
 40
0.0126139849350941
 40
0.0126139849350941
 40
0.0126139849350941
 40
0.0126139849350941
 40
1.0
 40
2.0
 40
2.0
 40
2.0
 40
2.0
 10
59.68234094412641
 20
3.036749001485099
 30
0.0
 10
58.2694152914532
 20
4.038362504782551
 30
0.0
 10
55.36057455218834
 20
4.682650698743944
 30
0.0
 10
52.5311567695889
 20
4.84250481075521
 30
0.0
 10
51.21991308345325
 20
4.5
 30
0.0
  0
SPLINE
  5
122
330
1F
100
AcDbEntity
  8
DEFAULT
 62
     7
100
AcDbSpline
210
0.0
220
0.0
230
1.0
 70
     8
 71
     3
 72
    10
 73
     6
 74
     0
 42
0.0000000001
 43
0.0000000001
 40
1.193563551153333
 40
1.193563551153333
 40
1.193563551153333
 40
1.193563551153333
 40
2.052268928739707
 40
3.052268928739707
 40
4.052268928739707
 40
4.052268928739707
 40
4.052268928739707
 40
4.052268928739707
 10
59.32699640927451
 20
3.574166797936854
 30
0.0
 10
58.12785360613506
 20
4.50213546648557
 30
0.0
 10
56.68736143840097
 20
5.189475706881839
 30
0.0
 10
54.97049012129551
 20
5.634022744346645
 30
0.0
 10
53.21991308345325
 20
5.75
 30
0.0
 10
51.18384510595346
 20
5.75
 30
0.0
  0
ARC
  5
123
330
1F
100
AcDbEntity
  8
DEFAULT
 62
     7
100
AcDbCircle
 10
58.71498815315977
 20
2.783315424765308
 30
0.0
 40
0.9999999999999641
100
AcDbArc
 50
359.9999999999983
 51
52.26514496146167
  0
LINE
  5
124
330
1F
100
AcDbEntity
  8
DEFAULT
 62
     7
100
AcDbLine
 10
59.71498815315974
 20
2.501950737221571
 30
0.0
 11
59.71498815315974
 21
2.78331542476528
 31
0.0
  0
LINE
  5
125
330
1F
100
AcDbEntity
  8
DEFAULT
 62
     7
100
AcDbLine
 10
50.04246227365869
 20
5.584789539436767
 30
0.0
 11
49.91088973479857
 21
4.70533099021392
 31
0.0
  0
LINE
  5
126
330
1F
100
AcDbEntity
  8
DEFAULT
 62
     7
100
AcDbLine
 10
49.23384510595346
 20
2.499999999999972
 30
0.0
 11
49.23384510595346
 21
4.500000000000004
 31
0.0
  0
LINE
  5
127
330
1F
100
AcDbEntity
  8
DEFAULT
 62
     7
100
AcDbLine
 10
49.98384510595346
 20
2.499999999999972
 30
0.0
 11
49.23384510595346
 21
2.499999999999972
 31
0.0
  0
LINE
  5
128
330
1F
100
AcDbEntity
  8
DEFAULT
 62
     7
100
AcDbLine
 10
50.73384510595346
 20
2.499999999999972
 30
0.0
 11
50.73384510595346
 21
4.500000000000004
 31
0.0
  0
LINE
  5
129
330
1F
100
AcDbEntity
  8
DEFAULT
 62
     7
100
AcDbLine
 10
49.98384510595346
 20
2.499999999999972
 30
0.0
 11
50.73384510595346
 21
2.499999999999972
 31
0.0
  0
SPLINE
  5
12A
330
1F
100
AcDbEntity
  8
DEFAULT
 62
     7
100
AcDbSpline
210
0.0
220
0.0
230
1.0
 70
     8
 71
     3
 72
     8
 73
     4
 74
     0
 42
0.0000000001
 43
0.0000000001
 40
0.0
 40
0.0
 40
0.0
 40
0.0
 40
1.0
 40
1.0
 40
1.0
 40
1.0
 10
46.74403866248116
 20
3.103151723048079
 30
0.0
 10
47.09234033202637
 20
3.894746426559925
 30
0.0
 10
47.86282584344458
 20
4.45414001704163
 30
0.0
 10
48.74777712845368
 20
4.5
 30
0.0
  0
LINE
  5
12B
330
1F
100
AcDbEntity
  8
DEFAULT
 62
     7
100
AcDbLine
 10
46.7527020587472
 20
3.302993883121173
 30
0.0
 11
46.75270205874719
 21
2.501950737221576
 31
0.0
  0
ARC
  5
12C
330
1F
100
AcDbEntity
  8
DEFAULT
 62
     7
100
AcDbCircle
 10
48.7527020587475
 20
3.302993883121156
 30
0.0
 40
2.000000000000306
100
AcDbArc
 50
156.4584725249561
 51
179.9999999999995
  0
SPLINE
  5
12D
330
1F
100
AcDbEntity
  8
DEFAULT
 62
     7
100
AcDbSpline
210
0.0
220
0.0
230
1.0
 70
     8
 71
     3
 72
     9
 73
     5
 74
     0
 42
0.0000000001
 43
0.0000000001
 40
0.0
 40
0.0
 40
0.0
 40
0.0
 40
1.0
 40
1.707103615139772
 40
1.707103615139772
 40
1.707103615139772
 40
1.707103615139772
 10
49.98384510595346
 20
5.75
 30
0.0
 10
48.74777712845368
 20
5.750000000000001
 30
0.0
 10
47.73678970860595
 20
5.37385799009206
 30
0.0
 10
47.10429026093981
 20
4.526748176638217
 30
0.0
 10
46.91916041128645
 20
4.101821165471366
 30
0.0
  0
LINE
  5
12E
330
1F
100
AcDbEntity
  8
DEFAULT
 62
     7
100
AcDbLine
 10
51.21991308345325
 20
4.5
 30
0.0
 11
48.74777712845368
 21
4.5
 31
0.0
  0
LINE
  5
12F
330
1F
100
AcDbEntity
  8
DEFAULT
 62
     7
100
AcDbLine
 10
45.98384510595346
 20
5.75
 30
0.0
 11
46.55022486782759
 21
5.75
 31
0.0
  0
SPLINE
  5
130
330
1F
100
AcDbEntity
  8
DEFAULT
 62
     7
100
AcDbSpline
210
0.0
220
0.0
230
1.0
 70
     8
 71
     3
 72
     9
 73
     5
 74
     0
 42
0.0000000001
 43
0.0000000001
 40
0.0
 40
0.0
 40
0.0
 40
0.0
 40
1.0
 40
1.526815031193071
 40
1.526815031193071
 40
1.526815031193071
 40
1.526815031193071
 10
37.7699229856215
 20
2.998075542278392
 30
0.0
 10
39.68266163227468
 20
4.02763528469078
 30
0.0
 10
42.27391849350744
 20
4.67851970955019
 30
0.0
 10
44.83704950218987
 20
4.926266914521613
 30
0.0
 10
45.81513427512917
 20
4.898164342782231
 30
0.0
  0
LINE
  5
131
330
1F
100
AcDbEntity
  8
DEFAULT
 62
     7
100
AcDbLine
 10
37.76992298562151
 20
3.608418468391112
 30
0.0
 11
37.55330872615696
 21
3.483605558014719
 31
0.0
  0
ARC
  5
132
330
1F
100
AcDbEntity
  8
DEFAULT
 62
     7
100
AcDbCircle
 10
45.74487829086311
 20
-10.23220933604263
 30
0.0
 40
15.97381889660283
100
AcDbArc
 50
107.1252334667651
 51
119.9505013388923
  0
SPLINE
  5
133
330
1F
100
AcDbEntity
  8
DEFAULT
 62
     7
100
AcDbSpline
210
0.0
220
0.0
230
1.0
 70
     8
 71
     3
 72
     8
 73
     4
 74
     0
 42
0.0000000001
 43
0.0000000001
 40
4.0
 40
4.0
 40
4.0
 40
4.0
 40
9.431616647797313
 40
9.431616647797313
 40
9.431616647797313
 40
9.431616647797313
 10
45.98384510595346
 20
5.75
 30
0.0
 10
44.24230154871467
 20
5.75
 30
0.0
 10
42.59713326148628
 20
5.512800486728583
 30
0.0
 10
41.04120785552719
 20
5.033385135749564
 30
0.0
  0
LINE
  5
134
330
1F
100
AcDbEntity
  8
DEFAULT
 62
     7
100
AcDbLine
 10
37.7699229856215
 20
2.501950737221585
 30
0.0
 11
37.7699229856215
 21
3.608418468391113
 31
0.0
  0
LINE
  5
135
330
1F
100
AcDbEntity
  8
DEFAULT
 62
     7
100
AcDbLine
 10
61.28714391249581
 20
2.794211370308269
 30
0.0
 11
61.28714391249582
 21
2.501950737221571
 31
0.0
  0
ARC
  5
136
330
1F
100
AcDbEntity
  8
DEFAULT
 62
     7
100
AcDbCircle
 10
59.78714391249572
 20
2.794211370308233
 30
0.0
 40
1.5000000000001
100
AcDbArc
 50
0.000000000001391
 51
52.19265799429888
  0
SPLINE
  5
137
330
1F
100
AcDbEntity
  8
DEFAULT
 62
     7
100
AcDbSpline
210
0.0
220
0.0
230
1.0
 70
     8
 71
     2
 72
     6
 73
     3
 74
     0
 42
0.0000000001
 43
0.0000000001
 40
2.036067977499789
 40
2.036067977499789
 40
2.036067977499789
 40
10.51200744323992
 40
10.51200744323992
 40
10.51200744323992
 10
53.21991308345325
 20
6.500000000000001
 30
0.0
 10
57.45788281632333
 20
6.500000000000011
 30
0.0
 10
60.70665636369734
 20
3.979326070278443
 30
0.0
  0
LINE
  5
138
330
1F
100
AcDbEntity
  8
DEFAULT
 62
     7
100
AcDbLine
 10
51.18384510595346
 20
6.5
 30
0.0
 11
53.21991308345325
 21
6.5
 31
0.0
  0
LINE
  5
139
330
1F
100
AcDbEntity
  8
DEFAULT
 62
     7
100
AcDbLine
 10
45.1805462994111
 20
3.166089382711887
 30
0.0
 11
45.18054629941111
 21
2.501950737221576
 31
0.0
  0
ARC
  5
13A
330
1F
100
AcDbEntity
  8
DEFAULT
 62
     7
100
AcDbCircle
 10
47.18054629941111
 20
3.166089382711908
 30
0.0
 40
2.000000000000007
100
AcDbArc
 50
159.2455096924804
 51
180.0000000000006
  0
SPLINE
  5
13B
330
1F
100
AcDbEntity
  8
DEFAULT
 62
     7
100
AcDbSpline
210
0.0
220
0.0
230
1.0
 70
     8
 71
     2
 72
     6
 73
     3
 74
     0
 42
0.0000000001
 43
0.0000000001
 40
1.236067977499785
 40
1.236067977499785
 40
1.236067977499785
 40
6.121303892963089
 40
6.121303892963089
 40
6.121303892963089
 10
48.74777712845368
 20
6.500000000000002
 30
0.0
 10
46.305159170722
 20
6.500000000000004
 30
0.0
 10
45.31033141782091
 20
3.874818030840798
 30
0.0
  0
LINE
  5
13C
330
1F
100
AcDbEntity
  8
DEFAULT
 62
     7
100
AcDbLine
 10
49.98384510595346
 20
6.5
 30
0.0
 11
48.74777712845368
 21
6.5
 31
0.0
  0
LINE
  5
13D
330
1F
100
AcDbEntity
  8
DEFAULT
 62
     7
100
AcDbLine
 10
36.19776722628541
 20
2.966695020451533
 30
0.0
 11
36.19776722628542
 21
2.501950737221585
 31
0.0
  0
ARC
  5
13E
330
1F
100
AcDbEntity
  8
DEFAULT
 62
     7
100
AcDbCircle
 10
37.19776722628517
 20
2.966695020451563
 30
0.0
 40
0.9999999999997513
100
AcDbArc
 50
122.7877612006951
 51
180.0000000000019
  0
SPLINE
  5
13F
330
1F
100
AcDbEntity
  8
DEFAULT
 62
     7
100
AcDbSpline
210
0.0
220
0.0
230
1.0
 70
     8
 71
     2
 72
     6
 73
     3
 74
     0
 42
0.0000000001
 43
0.0000000001
 40
4.0
 40
4.0
 40
4.0
 40
14.29502662231397
 40
14.29502662231397
 40
14.29502662231397
 10
45.98384510595346
 20
6.5
 30
0.0
 10
40.83633179479646
 20
6.500000000000016
 30
0.0
 10
36.65623857955969
 20
3.807377317621649
 30
0.0
  0
LINE
  5
140
330
1F
100
AcDbEntity
  8
DEFAULT
 62
     7
100
AcDbLine
 10
48.78384510595346
 20
10.5
 30
0.0
 11
49.98384510595346
 21
10.5
 31
0.0
  0
LINE
  5
141
330
1F
100
AcDbEntity
  8
DEFAULT
 62
     7
100
AcDbLine
 10
48.78384510595346
 20
6.5
 30
0.0
 11
48.78384510595346
 21
10.5
 31
0.0
  0
LINE
  5
142
330
1F
100
AcDbEntity
  8
DEFAULT
 62
     7
100
AcDbLine
 10
48.74777712845368
 20
6.5
 30
0.0
 11
45.98384510595346
 21
6.5
 31
0.0
  0
LINE
  5
143
330
1F
100
AcDbEntity
  8
DEFAULT
 62
     7
100
AcDbLine
 10
49.37492191774486
 20
11.90514110673564
 30
0.0
 11
49.98384510595346
 21
11.90514110673564
 31
0.0
  0
LINE
  5
144
330
1F
100
AcDbEntity
  8
DEFAULT
 62
     7
100
AcDbLine
 10
49.00361053951658
 20
11.59512678066785
 30
0.0
 11
49.37492191774486
 21
11.90514110673564
 31
0.0
  0
LINE
  5
145
330
1F
100
AcDbEntity
  8
DEFAULT
 62
     7
100
AcDbLine
 10
49.00361053951658
 20
10.5
 30
0.0
 11
49.00361053951658
 21
11.59512678066785
 31
0.0
  0
LINE
  5
146
330
1F
100
AcDbEntity
  8
DEFAULT
 62
     7
100
AcDbLine
 10
49.48384510595346
 20
12.03113714336216
 30
0.0
 11
49.48384510595346
 21
11.90514110673564
 31
0.0
  0
LINE
  5
147
330
1F
100
AcDbEntity
  8
DEFAULT
 62
     7
100
AcDbLine
 10
50.48384510595346
 20
12.03113714336216
 30
0.0
 11
50.48384510595346
 21
11.90514110673564
 31
0.0
  0
LINE
  5
148
330
1F
100
AcDbEntity
  8
DEFAULT
 62
     7
100
AcDbLine
 10
50.96407967239034
 20
10.5
 30
0.0
 11
50.96407967239034
 21
11.59512678066785
 31
0.0
  0
LINE
  5
149
330
1F
100
AcDbEntity
  8
DEFAULT
 62
     7
100
AcDbLine
 10
51.18384510595346
 20
10.5
 30
0.0
 11
49.98384510595346
 21
10.5
 31
0.0
  0
LINE
  5
14A
330
1F
100
AcDbEntity
  8
DEFAULT
 62
     7
100
AcDbLine
 10
51.18384510595346
 20
6.5
 30
0.0
 11
51.18384510595346
 21
10.5
 31
0.0
  0
LINE
  5
14B
330
1F
100
AcDbEntity
  8
DEFAULT
 62
     7
100
AcDbLine
 10
49.98384510595346
 20
6.5
 30
0.0
 11
51.18384510595346
 21
6.5
 31
0.0
  0
LINE
  5
14C
330
1F
100
AcDbEntity
  8
DEFAULT
 62
     7
100
AcDbLine
 10
50.59276829416206
 20
11.90514110673564
 30
0.0
 11
49.98384510595346
 21
11.90514110673564
 31
0.0
  0
LINE
  5
14D
330
1F
100
AcDbEntity
  8
DEFAULT
 62
     7
100
AcDbLine
 10
50.96407967239034
 20
11.59512678066785
 30
0.0
 11
50.59276829416206
 21
11.90514110673564
 31
0.0
  0
ARC
  5
14E
330
1F
100
AcDbEntity
  8
DEFAULT
 62
     7
100
AcDbCircle
 10
59.71498815315974
 20
1.136708831488143
 30
0.0
 40
0.9321897068526902
100
AcDbArc
 50
269.9999999999996
 51
0.000000000000273
  0
ARC
  5
14F
330
1F
100
AcDbEntity
  8
DEFAULT
 62
     7
100
AcDbCircle
 10
59.71498815315974
 20
1.136708831488154
 30
0.0
 40
0.9321897068527035
100
AcDbArc
 50
180.0000000000004
 51
270.0
  0
ARC
  5
150
330
1F
100
AcDbEntity
  8
DEFAULT
 62
     7
100
AcDbCircle
 10
59.71498815315975
 20
1.136708831488146
 30
0.0
 40
0.9321897068527036
100
AcDbArc
 50
90.00000000000088
 51
179.9999999999999
  0
ARC
  5
151
330
1F
100
AcDbEntity
  8
DEFAULT
 62
     7
100
AcDbCircle
 10
59.71498815315973
 20
1.136708831488142
 30
0.0
 40
0.9321897068527045
100
AcDbArc
 50
0.0000000000003412
 51
89.99999999999957
  0
ARC
  5
152
330
1F
100
AcDbEntity
  8
DEFAULT
 62
     7
100
AcDbCircle
 10
59.71498815315966
 20
1.136708831488022
 30
0.0
 40
1.134758094266452
100
AcDbArc
 50
270.0000000000007
 51
359.9999999999991
  0
ARC
  5
153
330
1F
100
AcDbEntity
  8
DEFAULT
 62
     7
100
AcDbCircle
 10
59.71498815315965
 20
1.136708831488006
 30
0.0
 40
1.134758094266425
100
AcDbArc
 50
180.0000000000001
 51
270.0000000000011
  0
ARC
  5
154
330
1F
100
AcDbEntity
  8
DEFAULT
 62
     7
100
AcDbCircle
 10
59.71498815315967
 20
1.136708831487997
 30
0.0
 40
1.134758094266438
100
AcDbArc
 50
89.99999999999965
 51
179.9999999999996
  0
ARC
  5
155
330
1F
100
AcDbEntity
  8
DEFAULT
 62
     7
100
AcDbCircle
 10
59.71498815315966
 20
1.13670883148797
 30
0.0
 40
1.134758094266458
100
AcDbArc
 50
0.0000000000017041
 51
89.99999999999929
  0
ARC
  5
156
330
1F
100
AcDbEntity
  8
DEFAULT
 62
     7
100
AcDbCircle
 10
59.71498815315963
 20
1.136708831487976
 30
0.0
 40
1.19764432464004
100
AcDbArc
 50
32.53104313005066
 51
86.3925838178952
  0
ARC
  5
157
330
1F
100
AcDbEntity
  8
DEFAULT
 62
     7
100
AcDbCircle
 10
59.71498815315969
 20
1.13670883148801
 30
0.0
 40
1.197644324639973
100
AcDbArc
 50
338.6695024422032
 51
32.53104313005072
  0
LINE
  5
158
330
1F
100
AcDbEntity
  8
DEFAULT
 62
     7
100
AcDbLine
 10
59.71498815315974
 20
2.501950737221571
 30
0.0
 11
61.28714391249582
 21
2.501950737221571
 31
0.0
  0
ARC
  5
159
330
1F
100
AcDbEntity
  8
DEFAULT
 62
     7
100
AcDbCircle
 10
60.6945149675806
 20
1.207145942915311
 30
0.0
 40
0.5240519205255425
100
AcDbArc
 50
285.0499848856896
 51
357.0000000017636
  0
LINE
  5
15A
330
1F
100
AcDbEntity
  8
DEFAULT
 62
     7
100
AcDbLine
 10
61.21784869316311
 20
1.179719184549764
 30
0.0
 11
61.28714391249582
 21
2.501950737221571
 31
0.0
  0
LINE
  5
15B
330
1F
100
AcDbEntity
  8
DEFAULT
 62
     7
100
AcDbLine
 10
59.71498815315974
 20
2.501950737221571
 30
0.0
 11
59.79034357523338
 21
2.331980134877538
 31
0.0
  0
ARC
  5
15C
330
1F
100
AcDbEntity
  8
DEFAULT
 62
     7
100
AcDbCircle
 10
45.18054629941111
 20
1.136708831488156
 30
0.0
 40
0.9321897068526984
100
AcDbArc
 50
270.0
 51
359.9999999999997
  0
ARC
  5
15D
330
1F
100
AcDbEntity
  8
DEFAULT
 62
     7
100
AcDbCircle
 10
45.18054629941111
 20
1.13670883148816
 30
0.0
 40
0.9321897068526961
100
AcDbArc
 50
180.0000000000004
 51
270.0
  0
ARC
  5
15E
330
1F
100
AcDbEntity
  8
DEFAULT
 62
     7
100
AcDbCircle
 10
45.18054629941112
 20
1.136708831488132
 30
0.0
 40
0.9321897068527107
100
AcDbArc
 50
90.00000000000088
 51
179.9999999999987
  0
ARC
  5
15F
330
1F
100
AcDbEntity
  8
DEFAULT
 62
     7
100
AcDbCircle
 10
45.18054629941111
 20
1.136708831488152
 30
0.0
 40
0.9321897068526956
100
AcDbArc
 50
0.0000000000000273
 51
90.0
  0
ARC
  5
160
330
1F
100
AcDbEntity
  8
DEFAULT
 62
     7
100
AcDbCircle
 10
45.18054629941103
 20
1.136708831488011
 30
0.0
 40
1.134758094266436
100
AcDbArc
 50
270.0000000000003
 51
359.9999999999999
  0
ARC
  5
161
330
1F
100
AcDbEntity
  8
DEFAULT
 62
     7
100
AcDbCircle
 10
45.18054629941103
 20
1.136708831488013
 30
0.0
 40
1.134758094266433
100
AcDbArc
 50
180.0000000000001
 51
270.0
  0
ARC
  5
162
330
1F
100
AcDbEntity
  8
DEFAULT
 62
     7
100
AcDbCircle
 10
45.18054629941103
 20
1.136708831488011
 30
0.0
 40
1.134758094266431
100
AcDbArc
 50
89.99999999999929
 51
180.0000000000001
  0
ARC
  5
163
330
1F
100
AcDbEntity
  8
DEFAULT
 62
     7
100
AcDbCircle
 10
45.18054629941102
 20
1.136708831487999
 30
0.0
 40
1.134758094266446
100
AcDbArc
 50
0.0000000000004933
 51
89.99999999999893
  0
ARC
  5
164
330
1F
100
AcDbEntity
  8
DEFAULT
 62
     7
100
AcDbCircle
 10
45.18054629941103
 20
1.136708831488036
 30
0.0
 40
1.19764432463998
100
AcDbArc
 50
32.53104313004933
 51
86.39258381789638
  0
ARC
  5
165
330
1F
100
AcDbEntity
  8
DEFAULT
 62
     7
100
AcDbCircle
 10
45.18054629941096
 20
1.136708831488
 30
0.0
 40
1.197644324640053
100
AcDbArc
 50
338.6695024422055
 51
32.53104313004915
  0
LINE
  5
166
330
1F
100
AcDbEntity
  8
DEFAULT
 62
     7
100
AcDbLine
 10
45.18054629941111
 20
2.501950737221576
 30
0.0
 11
46.75270205874719
 21
2.501950737221576
 31
0.0
  0
ARC
  5
167
330
1F
100
AcDbEntity
  8
DEFAULT
 62
     7
100
AcDbCircle
 10
46.16007311383195
 20
1.207145942915332
 30
0.0
 40
0.5240519205255618
100
AcDbArc
 50
285.0499848856906
 51
357.000000001762
  0
LINE
  5
168
330
1F
100
AcDbEntity
  8
DEFAULT
 62
     7
100
AcDbLine
 10
46.68340683941447
 20
1.179719184549769
 30
0.0
 11
46.75270205874719
 21
2.501950737221576
 31
0.0
  0
LINE
  5
169
330
1F
100
AcDbEntity
  8
DEFAULT
 62
     7
100
AcDbLine
 10
45.18054629941111
 20
2.501950737221576
 30
0.0
 11
45.25590172148475
 21
2.331980134877543
 31
0.0
  0
LINE
  5
16A
330
1F
100
AcDbEntity
  8
DEFAULT
 62
     7
100
AcDbLine
 10
36.19776722628542
 20
2.501950737221585
 30
0.0
 11
36.27312264835906
 21
2.331980134877552
 31
0.0
  0
LINE
  5
16B
330
1F
100
AcDbEntity
  8
DEFAULT
 62
     7
100
AcDbLine
 10
37.70062776628879
 20
1.179719184549778
 30
0.0
 11
37.7699229856215
 21
2.501950737221585
 31
0.0
  0
ARC
  5
16C
330
1F
100
AcDbEntity
  8
DEFAULT
 62
     7
100
AcDbCircle
 10
37.17729404070625
 20
1.207145942915352
 30
0.0
 40
0.5240519205255738
100
AcDbArc
 50
285.0499848856911
 51
357.0000000017609
  0
LINE
  5
16D
330
1F
100
AcDbEntity
  8
DEFAULT
 62
     7
100
AcDbLine
 10
36.19776722628542
 20
2.501950737221585
 30
0.0
 11
37.7699229856215
 21
2.501950737221585
 31
0.0
  0
ARC
  5
16E
330
1F
100
AcDbEntity
  8
DEFAULT
 62
     7
100
AcDbCircle
 10
36.19776722628532
 20
1.136708831488013
 30
0.0
 40
1.197644324640015
100
AcDbArc
 50
32.5310431300501
 51
86.39258381789547
  0
ARC
  5
16F
330
1F
100
AcDbEntity
  8
DEFAULT
 62
     7
100
AcDbCircle
 10
36.19776722628533
 20
1.136708831488021
 30
0.0
 40
1.197644324640004
100
AcDbArc
 50
338.669502442204
 51
32.53104313004992
  0
ARC
  5
170
330
1F
100
AcDbEntity
  8
DEFAULT
 62
     7
100
AcDbCircle
 10
36.19776722628536
 20
1.136708831488008
 30
0.0
 40
1.134758094266423
100
AcDbArc
 50
269.9999999999997
 51
0.0000000000005157
  0
ARC
  5
171
330
1F
100
AcDbEntity
  8
DEFAULT
 62
     7
100
AcDbCircle
 10
36.19776722628536
 20
1.136708831488043
 30
0.0
 40
1.134758094266451
100
AcDbArc
 50
180.0000000000012
 51
269.9999999999997
  0
ARC
  5
172
330
1F
100
AcDbEntity
  8
DEFAULT
 62
     7
100
AcDbCircle
 10
36.19776722628534
 20
1.136708831488023
 30
0.0
 40
1.134758094266424
100
AcDbArc
 50
89.99999999999893
 51
180.0000000000002
  0
ARC
  5
173
330
1F
100
AcDbEntity
  8
DEFAULT
 62
     7
100
AcDbCircle
 10
36.19776722628536
 20
1.136708831488019
 30
0.0
 40
1.134758094266432
100
AcDbArc
 50
359.9999999999999
 51
90.0
  0
ARC
  5
174
330
1F
100
AcDbEntity
  8
DEFAULT
 62
     7
100
AcDbCircle
 10
36.19776722628542
 20
1.136708831488155
 30
0.0
 40
0.9321897068526882
100
AcDbArc
 50
270.0
 51
0.0000000000003821
  0
ARC
  5
175
330
1F
100
AcDbEntity
  8
DEFAULT
 62
     7
100
AcDbCircle
 10
36.19776722628542
 20
1.136708831488162
 30
0.0
 40
0.9321897068526961
100
AcDbArc
 50
180.0
 51
270.0
  0
ARC
  5
176
330
1F
100
AcDbEntity
  8
DEFAULT
 62
     7
100
AcDbCircle
 10
36.19776722628542
 20
1.136708831488162
 30
0.0
 40
0.9321897068526965
100
AcDbArc
 50
90.0
 51
180.0
  0
ARC
  5
177
330
1F
100
AcDbEntity
  8
DEFAULT
 62
     7
100
AcDbCircle
 10
36.19776722628541
 20
1.13670883148816
 30
0.0
 40
0.9321897068527003
100
AcDbArc
 50
0.0000000000000819
 51
89.99999999999913
  0
LINE
  5
178
330
1F
100
AcDbEntity
  8
DEFAULT
 62
     7
100
AcDbLine
 10
60.9752257204812
 20
20.96517070631332
 30
0.0
 11
54.69960703801807
 21
20.96517070631332
 31
0.0
  0
ARC
  5
179
330
1F
100
AcDbEntity
  8
DEFAULT
 62
     7
100
AcDbCircle
 10
60.9752257204812
 20
18.46517070631327
 30
0.0
 40
2.50000000000005
100
AcDbArc
 50
31.71747441146214
 51
89.99999999999983
  0
ARC
  5
17A
330
1F
100
AcDbEntity
  8
DEFAULT
 62
     7
100
AcDbCircle
 10
60.97522572048115
 20
18.46517070631332
 30
0.0
 40
2.500000000000062
100
AcDbArc
 50
333.4349488229231
 51
31.71747441146051
  0
ARC
  5
17B
330
1F
100
AcDbEntity
  8
DEFAULT
 62
     7
100
AcDbCircle
 10
60.97522572048125
 20
18.46517070631327
 30
0.0
 40
2.499999999999944
100
AcDbArc
 50
275.1524232343826
 51
333.4349488229231
  0
ARC
  5
17C
330
1F
100
AcDbEntity
  8
DEFAULT
 62
     7
100
AcDbCircle
 10
60.97522572048121
 20
18.46517070631332
 30
0.0
 40
2.500000000000002
100
AcDbArc
 50
216.8698976458444
 51
275.1524232343835
  0
LINE
  5
17D
330
1F
100
AcDbEntity
  8
DEFAULT
 62
     7
100
AcDbLine
 10
53.52880484884069
 20
16.96517070631332
 30
0.0
 11
58.97522572048122
 21
16.96517070631332
 31
0.0
  0
LINE
  5
17E
330
1F
100
AcDbEntity
  8
DEFAULT
 62
     7
100
AcDbLine
 10
43.94539417953848
 20
16.96517070631332
 30
0.0
 11
51.49822363317295
 21
16.96517070631332
 31
0.0
  0
ARC
  5
17F
330
1F
100
AcDbEntity
  8
DEFAULT
 62
     7
100
AcDbCircle
 10
43.94539417953847
 20
17.21517070631332
 30
0.0
 40
0.2499999999999965
100
AcDbArc
 50
164.3135230130749
 51
270.0000000000017
  0
LINE
  5
180
330
1F
100
AcDbEntity
  8
DEFAULT
 62
     7
100
AcDbLine
 10
44.68761963072868
 20
20.78276401203159
 30
0.0
 11
43.70470528278153
 21
17.2827640120316
 31
0.0
  0
ARC
  5
181
330
1F
100
AcDbEntity
  8
DEFAULT
 62
     7
100
AcDbCircle
 10
44.92830852748563
 20
20.71517070631332
 30
0.0
 40
0.2500000000000042
100
AcDbArc
 50
90.0
 51
164.3135230130782
  0
LINE
  5
182
330
1F
100
AcDbEntity
  8
DEFAULT
 62
     7
100
AcDbLine
 10
52.28918185040305
 20
20.96517070631332
 30
0.0
 11
44.92830852748563
 21
20.96517070631332
 31
0.0
  0
SPLINE
  5
183
330
1F
100
AcDbEntity
  8
DEFAULT
 62
     7
100
AcDbSpline
210
0.0
220
0.0
230
1.0
 70
     8
 71
     3
 72
     8
 73
     4
 74
     0
 42
0.0000000001
 43
0.0000000001
 40
4.054189517210808
 40
4.054189517210808
 40
4.054189517210808
 40
4.054189517210808
 40
4.628588285719637
 40
4.628588285719637
 40
4.628588285719637
 40
4.628588285719637
 10
44.73884538986328
 20
20.96517070631332
 30
0.0
 10
45.57077517056611
 20
23.61430869931131
 30
0.0
 10
45.98284757470315
 20
25.14779954621143
 30
0.0
 10
46.18846456675518
 20
26.1831481735456
 30
0.0
  0
LINE
  5
184
330
1F
100
AcDbEntity
  8
DEFAULT
 62
     7
100
AcDbLine
 10
43.68125755409121
 20
17.19927041913863
 30
0.0
 11
44.73884538986328
 21
20.96517070631332
 31
0.0
  0
ARC
  5
185
330
1F
100
AcDbEntity
  8
DEFAULT
 62
     7
100
AcDbCircle
 10
43.44056865733428
 20
17.2668637248569
 30
0.0
 40
0.2499999999999759
100
AcDbArc
 50
255.9037388984596
 51
344.3135230130772
  0
LINE
  5
186
330
1F
100
AcDbEntity
  8
DEFAULT
 62
     7
100
AcDbLine
 10
40.92737819980523
 20
17.64019744488485
 30
0.0
 11
43.37968072703097
 21
17.0243917472113
 31
0.0
  0
ARC
  5
187
330
1F
100
AcDbEntity
  8
DEFAULT
 62
     7
100
AcDbCircle
 10
40.98826613010854
 20
17.88266942253048
 30
0.0
 40
0.2500000000000126
100
AcDbArc
 50
171.1079531521658
 51
255.9037388984633
  0
SPLINE
  5
188
330
1F
100
AcDbEntity
  8
DEFAULT
 62
     7
100
AcDbSpline
210
0.0
220
0.0
230
1.0
 70
     8
 71
     3
 72
     9
 73
     5
 74
     0
 42
0.0000000001
 43
0.0000000001
 40
-5.115122241877596
 40
-5.115122241877596
 40
-5.115122241877596
 40
-5.115122241877596
 40
-4.13008264899465
 40
-3.141586437150192
 40
-3.141586437150192
 40
-3.141586437150192
 40
-3.141586437150192
 10
39.03340010503625
 20
41.17102494469121
 30
0.0
 10
39.73522037647391
 20
35.35951741618521
 30
0.0
 10
41.7324529312486
 20
28.7152891341366
 30
0.0
 10
41.74402738053031
 20
24.33060283414263
 30
0.0
 10
40.74127079725912
 20
17.92131273437886
 30
0.0
  0
ARC
  5
189
330
1F
100
AcDbEntity
  8
DEFAULT
 62
     7
100
AcDbCircle
 10
40.02682610853693
 20
43.46517070631332
 30
0.0
 40
2.500000000000001
100
AcDbArc
 50
3.952594588775249
 51
246.5861078371131
  0
SPLINE
  5
18A
330
1F
100
AcDbEntity
  8
DEFAULT
 62
     7
100
AcDbSpline
210
0.0
220
0.0
230
1.0
 70
     8
 71
     3
 72
    11
 73
     7
 74
     0
 42
0.0000000001
 43
0.0000000001
 40
-18.76426623961392
 40
-18.76426623961392
 40
-18.76426623961392
 40
-18.76426623961392
 40
-18.70200644653955
 40
-17.70200644653956
 40
-16.70200644653956
 40
-15.70200644653956
 40
-15.70200644653956
 40
-15.70200644653956
 40
-15.70200644653956
 10
46.38484509386878
 20
27.706234746225
 30
0.0
 10
46.38807679703923
 20
27.77692996185379
 30
0.0
 10
46.42888971693883
 20
28.96155728926481
 30
0.0
 10
46.18719421356039
 20
30.99179951764372
 30
0.0
 10
44.42920399193466
 20
34.22650152543505
 30
0.0
 10
42.95249220576908
 20
37.39088392436136
 30
0.0
 10
42.52087966842328
 20
43.63749841858908
 30
0.0
  0
SPLINE
  5
18B
330
1F
100
AcDbEntity
  8
DEFAULT
 62
     7
100
AcDbSpline
210
0.0
220
0.0
230
1.0
 70
     8
 71
     3
 72
    10
 73
     6
 74
     0
 42
0.0000000001
 43
0.0000000001
 40
5.883940492309246
 40
5.883940492309246
 40
5.883940492309246
 40
5.883940492309246
 40
6.799683390693923
 40
7.799683390693923
 40
8.799683390693923
 40
8.799683390693923
 40
8.799683390693923
 40
8.799683390693923
 10
53.56156395034749
 20
17.06607147314743
 30
0.0
 10
53.81927297143666
 20
18.28928776282979
 30
0.0
 10
54.82731540363871
 20
21.5123127429724
 30
0.0
 10
55.69592984443777
 20
23.40396196960149
 30
0.0
 10
56.71472131346402
 20
25.03561953004661
 30
0.0
 10
57.75692192535512
 20
26.20452131839026
 30
0.0
  0
ARC
  5
18C
330
1F
100
AcDbEntity
  8
DEFAULT
 62
     7
100
AcDbCircle
 10
53.0723043674177
 20
17.16914940731072
 30
0.0
 40
0.5000000000000097
100
AcDbArc
 50
276.285575081786
 51
348.10282915112
  0
ARC
  5
18D
330
1F
100
AcDbEntity
  8
DEFAULT
 62
     7
100
AcDbCircle
 10
52.80775515766799
 20
19.57094992465633
 30
0.0
 40
2.916326138893683
100
AcDbArc
 50
242.3149353834414
 51
276.2855750817865
  0
ARC
  5
18E
330
1F
100
AcDbEntity
  8
DEFAULT
 62
     7
100
AcDbCircle
 10
51.68510289107478
 20
17.43125744726318
 30
0.0
 40
0.5000000000002403
100
AcDbArc
 50
169.5488333160589
 51
242.3149353834288
  0
SPLINE
  5
18F
330
1F
100
AcDbEntity
  8
DEFAULT
 62
     7
100
AcDbSpline
210
0.0
220
0.0
230
1.0
 70
     8
 71
     3
 72
    10
 73
     6
 74
     0
 42
0.0000000001
 43
0.0000000001
 40
0.0
 40
0.0
 40
0.0
 40
0.0
 40
1.0
 40
2.0
 40
2.893124344385568
 40
2.893124344385568
 40
2.893124344385568
 40
2.893124344385568
 10
56.45019654110622
 20
27.00987945283003
 30
0.0
 10
55.03264034966221
 20
25.65069409066603
 30
0.0
 10
53.22141954656522
 20
22.91431733778569
 30
0.0
 10
52.05276705049744
 20
20.60214465739352
 30
0.0
 10
51.36978050777696
 20
18.47817887770836
 30
0.0
 10
51.19339795600062
 20
17.52195616182939
 30
0.0
  0
ARC
  5
190
330
1F
100
AcDbEntity
  8
DEFAULT
 62
     7
100
AcDbCircle
 10
58.31269458686486
 20
26.41420830884768
 30
0.0
 40
0.5
100
AcDbArc
 50
232.9619402780307
 51
312.9412066259746
  0
SPLINE
  5
191
330
1F
100
AcDbEntity
  8
DEFAULT
 62
     7
100
AcDbSpline
210
0.0
220
0.0
230
1.0
 70
     8
 71
     3
 72
    15
 73
    11
 74
     0
 42
0.0000000001
 43
0.0000000001
 40
15.0576188621947
 40
15.0576188621947
 40
15.0576188621947
 40
15.0576188621947
 40
15.26135735237836
 40
16.26135735237835
 40
17.26135735237835
 40
18.26135735237835
 40
19.26135735237835
 40
20.26135735237835
 40
21.26135735237835
 40
21.93330959840184
 40
21.93330959840184
 40
21.93330959840184
 40
21.93330959840184
 10
43.65858591343443
 20
27.52161665023833
 30
0.0
 10
43.61793165077777
 20
26.98970160699211
 30
0.0
 10
46.17264386068733
 20
26.04702569213638
 30
0.0
 10
48.44070885691107
 20
25.84690231011662
 30
0.0
 10
50.74125058047901
 20
26.05879431097156
 30
0.0
 10
52.6482785881735
 20
26.78528117104565
 30
0.0
 10
54.49476602419514
 20
27.23933545859196
 30
0.0
 10
55.82665860099765
 20
27.23933545859196
 30
0.0
 10
56.68938668876719
 20
26.96973293116397
 30
0.0
 10
57.62411709489262
 20
26.30742464742695
 30
0.0
 10
58.01152188790508
 20
26.01509052497771
 30
0.0
  0
LINE
  5
192
330
1F
100
AcDbEntity
  8
DEFAULT
 62
     7
100
AcDbLine
 10
43.66689257174523
 20
27.63029987866435
 30
0.0
 11
43.65858591343443
 21
27.52161665023833
 31
0.0
  0
ARC
  5
193
330
1F
100
AcDbEntity
  8
DEFAULT
 62
     7
100
AcDbCircle
 10
43.91616556237613
 20
27.61124794591199
 30
0.0
 40
0.249999999999339
100
AcDbArc
 50
84.86909354092414
 51
175.6293811838553
  0
SPLINE
  5
194
330
1F
100
AcDbEntity
  8
DEFAULT
 62
     7
100
AcDbSpline
210
0.0
220
0.0
230
1.0
 70
     8
 71
     3
 72
    12
 73
     8
 74
     0
 42
0.0000000001
 43
0.0000000001
 40
10.4954844510601
 40
10.4954844510601
 40
10.4954844510601
 40
10.4954844510601
 40
11.4954844510601
 40
12.4954844510601
 40
13.4954844510601
 40
14.4954844510601
 40
14.64772615077241
 40
14.64772615077241
 40
14.64772615077241
 40
14.64772615077241
 10
58.57924251782795
 20
28.16927738105379
 30
0.0
 10
57.81339241105668
 20
28.78814384024459
 30
0.0
 10
56.88167301301166
 20
28.91073849788209
 30
0.0
 10
53.69421191443661
 20
28.54295452496958
 30
0.0
 10
49.52599355476152
 20
27.75834871608956
 30
0.0
 10
46.6499922105712
 20
27.62642204892488
 30
0.0
 10
44.24762270465765
 20
27.83249174472098
 30
0.0
 10
43.93852345433908
 20
27.86024618820827
 30
0.0
  0
ARC
  5
195
330
1F
100
AcDbEntity
  8
DEFAULT
 62
     7
100
AcDbCircle
 10
57.69627405677582
 20
27.07659982496741
 30
0.0
 40
1.404840754245
100
AcDbArc
 50
312.9412066259759
 51
51.05909245213962
  0
SPLINE
  5
196
330
1F
100
AcDbEntity
  8
DEFAULT
 62
     7
100
AcDbSpline
210
0.0
220
0.0
230
1.0
 70
     8
 71
     3
 72
    16
 73
    12
 74
     0
 42
0.0000000001
 43
0.0000000001
 40
0.0
 40
0.0
 40
0.0
 40
0.0
 40
0.1046095727844
 40
0.203493889368
 40
0.3020105053538
 40
0.4024152042336
 40
0.5060597585786
 40
0.6149519922982
 40
0.7316177235484001
 40
0.8590036138881
 40
1.0
 40
1.0
 40
1.0
 40
1.0
 10
51.34198364508346
 20
12.70759753595716
 30
0.0
 10
51.33312264636345
 20
12.74868184582416
 30
0.0
 10
51.30349162947346
 20
12.82667650672216
 30
0.0
 10
51.22560822413345
 20
12.92204801750716
 30
0.0
 10
51.12623527405346
 20
12.99095827926416
 30
0.0
 10
51.01272267384346
 20
13.03659632216416
 30
0.0
 10
50.88914746628345
 20
13.06242089649416
 30
0.0
 10
50.75677992768345
 20
13.07081055905016
 30
0.0
 10
50.61491019335345
 20
13.06262410508716
 30
0.0
 10
50.46206142224345
 20
13.03711215578616
 30
0.0
 10
50.35782954850345
 20
13.00869080766316
 30
0.0
 10
50.30393109765345
 20
12.99125607598316
 30
0.0
  0
LINE
  5
197
330
1F
100
AcDbEntity
  8
DEFAULT
 62
     7
100
AcDbLine
 10
51.80974242655346
 20
12.85958157714216
 30
0.0
 11
51.76805503158346
 21
12.71298507605116
 31
0.0
  0
LINE
  5
198
330
1F
100
AcDbEntity
  8
DEFAULT
 62
     7
100
AcDbLine
 10
56.44266389764346
 20
15.84706111095816
 30
0.0
 11
56.49008959545346
 21
15.93149082777116
 31
0.0
  0
LINE
  5
199
330
1F
100
AcDbEntity
  8
DEFAULT
 62
     7
100
AcDbLine
 10
53.56172997282346
 20
16.22813309696616
 30
0.0
 11
53.58281243809346
 21
15.85621673353516
 31
0.0
  0
LINE
  5
19A
330
1F
100
AcDbEntity
  8
DEFAULT
 62
     7
100
AcDbLine
 10
53.58279376205346
 20
15.85618838712016
 30
0.0
 11
53.58551120945344
 21
15.80425121242216
 31
0.0
  0
ARC
  5
19B
330
1F
100
AcDbEntity
  8
DEFAULT
 62
     7
100
AcDbCircle
 10
54.26645759094832
 20
10.65481086712157
 30
0.0
 40
5.809745021571525
100
AcDbArc
 50
73.05553479709914
 51
96.33010820377827
  0
ARC
  5
19C
330
1F
100
AcDbEntity
  8
DEFAULT
 62
     7
100
AcDbCircle
 10
54.58224868981257
 20
10.60432502640731
 30
0.0
 40
5.77469935036358
100
AcDbArc
 50
76.20031330820903
 51
97.66749527772541
  0
ARC
  5
19D
330
1F
100
AcDbEntity
  8
DEFAULT
 62
     7
100
AcDbCircle
 10
54.73456928879449
 20
15.38255361648194
 30
0.0
 40
1.145106238511702
100
AcDbArc
 50
202.0031151127579
 51
225.226573125226
  0
LINE
  5
19E
330
1F
100
AcDbEntity
  8
DEFAULT
 62
     7
100
AcDbLine
 10
53.64498143958346
 20
15.03443547206816
 30
0.0
 11
53.67286859660345
 21
14.95353154516216
 31
0.0
  0
ARC
  5
19F
330
1F
100
AcDbEntity
  8
DEFAULT
 62
     7
100
AcDbCircle
 10
53.36927872558452
 20
15.3572059687258
 30
0.0
 40
1.100359924837948
100
AcDbArc
 50
314.9156648519411
 51
344.5347524279137
  0
LINE
  5
1A0
330
1F
100
AcDbEntity
  8
DEFAULT
 62
     7
100
AcDbLine
 10
54.09363610731344
 20
15.70269020460216
 30
0.0
 11
54.11594784208344
 21
15.69825854209116
 31
0.0
  0
SPLINE
  5
1A1
330
1F
100
AcDbEntity
  8
DEFAULT
 62
     7
100
AcDbSpline
210
0.0
220
0.0
230
1.0
 70
     8
 71
     3
 72
     9
 73
     5
 74
     0
 42
0.0000000001
 43
0.0000000001
 40
0.0
 40
0.0
 40
0.0
 40
0.0
 40
0.5152894318114
 40
1.0
 40
1.0
 40
1.0
 40
1.0
 10
54.09275157659346
 20
15.70384992127616
 30
0.0
 10
54.09111216573345
 20
15.70370147755616
 30
0.0
 10
54.08918163563345
 20
15.70341824846216
 30
0.0
 10
54.09189091410346
 20
15.70294728005016
 30
0.0
 10
54.09363610731344
 20
15.70269020460216
 30
0.0
  0
SPLINE
  5
1A2
330
1F
100
AcDbEntity
  8
DEFAULT
 62
     7
100
AcDbSpline
210
0.0
220
0.0
230
1.0
 70
     8
 71
     3
 72
    26
 73
    22
 74
     0
 42
0.0000000001
 43
0.0000000001
 40
0.0
 40
0.0
 40
0.0
 40
0.0
 40
0.02178645695432
 40
0.05543916163839
 40
0.09014996324618
 40
0.1262452193504
 40
0.1642612412347
 40
0.2046009615285
 40
0.2475027514138
 40
0.2931787155352
 40
0.3418748605504
 40
0.3938364745579
 40
0.4491505813239
 40
0.5077316012309
 40
0.5695959348718001
 40
0.6347879611201001
 40
0.7033191873242
 40
0.7751632767017
 40
0.8502529837437
 40
0.9283948040111
 40
1.0
 40
1.0
 40
1.0
 40
1.0
 10
54.18458647959346
 20
15.69839299804216
 30
0.0
 10
54.19814622342346
 20
15.70217023470416
 30
0.0
 10
54.23235646431346
 20
15.71288769624916
 30
0.0
 10
54.28707354659346
 20
15.73282473548416
 30
0.0
 10
54.35001169403346
 20
15.75716483627216
 30
0.0
 10
54.41563343829346
 20
15.78237299008316
 30
0.0
 10
54.48504973543345
 20
15.80783378306416
 30
0.0
 10
54.55923599493346
 20
15.83300474096716
 30
0.0
 10
54.63891840484345
 20
15.85727058588416
 30
0.0
 10
54.72468463367346
 20
15.87988964637316
 30
0.0
 10
54.81699177373346
 20
15.90038207490116
 30
0.0
 10
54.91621336099345
 20
15.91807570880916
 30
0.0
 10
55.02247449058345
 20
15.93208118261016
 30
0.0
 10
55.13568559710345
 20
15.94133534362416
 30
0.0
 10
55.25562133792346
 20
15.94460011673816
 30
0.0
 10
55.38198291191345
 20
15.94090811917216
 30
0.0
 10
55.51434179930345
 20
15.92925484339116
 30
0.0
 10
55.65209439805346
 20
15.90874386679516
 30
0.0
 10
55.79441886940344
 20
15.87857225134016
 30
0.0
 10
55.93449901745345
 20
15.83991244466916
 30
0.0
 10
56.02628450079345
 20
15.80918382049016
 30
0.0
 10
56.06972673745347
 20
15.79329169372816
 30
0.0
  0
LINE
  5
1A3
330
1F
100
AcDbEntity
  8
DEFAULT
 62
     7
100
AcDbLine
 10
56.22459811973346
 20
15.75611648250516
 30
0.0
 11
56.26622623043346
 21
15.76205746582716
 31
0.0
  0
LINE
  5
1A4
330
1F
100
AcDbEntity
  8
DEFAULT
 62
     7
100
AcDbLine
 10
56.19592361346346
 20
15.75850908758416
 30
0.0
 11
56.22459811973346
 21
15.75611648250516
 31
0.0
  0
LINE
  5
1A5
330
1F
100
AcDbEntity
  8
DEFAULT
 62
     7
100
AcDbLine
 10
56.07658115267346
 20
15.79078920611016
 30
0.0
 11
56.19592361346346
 21
15.75850908758416
 31
0.0
  0
LINE
  5
1A6
330
1F
100
AcDbEntity
  8
DEFAULT
 62
     7
100
AcDbLine
 10
56.42812478626345
 20
15.82876038737316
 30
0.0
 11
56.44132679896345
 21
15.84490072003816
 31
0.0
  0
LINE
  5
1A7
330
1F
100
AcDbEntity
  8
DEFAULT
 62
     7
100
AcDbLine
 10
56.40195680219345
 20
15.81174730868816
 30
0.0
 11
56.42812478626345
 21
15.82876038737316
 31
0.0
  0
LINE
  5
1A8
330
1F
100
AcDbEntity
  8
DEFAULT
 62
     7
100
AcDbLine
 10
56.26623768850345
 20
15.76206152285516
 30
0.0
 11
56.39185662219344
 21
15.80738917621816
 31
0.0
  0
LINE
  5
1A9
330
1F
100
AcDbEntity
  8
DEFAULT
 62
     7
100
AcDbLine
 10
56.23361595509346
 20
15.85405545045916
 30
0.0
 11
56.38267530479345
 21
15.80894567192016
 31
0.0
  0
LINE
  5
1AA
330
1F
100
AcDbEntity
  8
DEFAULT
 62
     7
100
AcDbLine
 10
56.38267544364345
 20
15.80894497429016
 30
0.0
 11
56.33244007110346
 21
15.81578060133416
 31
0.0
  0
ARC
  5
1AB
330
1F
100
AcDbEntity
  8
DEFAULT
 62
     7
100
AcDbCircle
 10
55.03484667682005
 20
12.95272702206089
 30
0.0
 40
3.13922807126533
100
AcDbArc
 50
67.55057613714205
 51
109.4847213587459
  0
ARC
  5
1AC
330
1F
100
AcDbEntity
  8
DEFAULT
 62
     7
100
AcDbCircle
 10
53.85566677738311
 20
16.17374561021271
 30
0.0
 40
0.2930248997752512
100
AcDbArc
 50
260.5763307775558
 51
296.790338044417
  0
ARC
  5
1AD
330
1F
100
AcDbEntity
  8
DEFAULT
 62
     7
100
AcDbCircle
 10
54.24659512230144
 20
16.35928174517786
 30
0.0
 40
0.6645504455762405
100
AcDbArc
 50
226.2918316685571
 51
252.0955914267395
  0
ARC
  5
1AE
330
1F
100
AcDbEntity
  8
DEFAULT
 62
     7
100
AcDbCircle
 10
53.87664573534022
 20
16.00409065373258
 30
0.0
 40
0.1380490062357339
100
AcDbArc
 50
234.0611546427217
 51
235.5134248220838
  0
LINE
  5
1AF
330
1F
100
AcDbEntity
  8
DEFAULT
 62
     7
100
AcDbLine
 10
54.12189556663346
 20
15.69649677038216
 30
0.0
 11
54.15229065811346
 21
15.69303454605016
 31
0.0
  0
LINE
  5
1B0
330
1F
100
AcDbEntity
  8
DEFAULT
 62
     7
100
AcDbLine
 10
56.43480092254345
 20
15.84548995042816
 30
0.0
 11
56.38308953925346
 21
15.80902729071016
 31
0.0
  0
LINE
  5
1B1
330
1F
100
AcDbEntity
  8
DEFAULT
 62
     7
100
AcDbLine
 10
56.49744057349346
 20
15.95181509191016
 30
0.0
 11
56.48739422464345
 21
16.01686702578316
 31
0.0
  0
LINE
  5
1B2
330
1F
100
AcDbEntity
  8
DEFAULT
 62
     7
100
AcDbLine
 10
56.48996678195346
 20
15.93131759323916
 30
0.0
 11
56.49744057349346
 21
15.95181509191016
 31
0.0
  0
LINE
  5
1B3
330
1F
100
AcDbEntity
  8
DEFAULT
 62
     7
100
AcDbLine
 10
56.47754015179345
 20
16.03116296788116
 30
0.0
 11
56.34108818190344
 21
16.09625535815616
 31
0.0
  0
LINE
  5
1B4
330
1F
100
AcDbEntity
  8
DEFAULT
 62
     7
100
AcDbLine
 10
56.34109158115345
 20
16.09625170970216
 30
0.0
 11
56.04166837996345
 21
16.19040165331316
 31
0.0
  0
LINE
  5
1B5
330
1F
100
AcDbEntity
  8
DEFAULT
 62
     7
100
AcDbLine
 10
53.57143501220347
 20
16.28689849336616
 30
0.0
 11
53.58774452311346
 21
16.23913290288516
 31
0.0
  0
LINE
  5
1B6
330
1F
100
AcDbEntity
  8
DEFAULT
 62
     7
100
AcDbLine
 10
53.56196450185345
 20
16.32808487882416
 30
0.0
 11
53.57143501220347
 21
16.28689849336616
 31
0.0
  0
LINE
  5
1B7
330
1F
100
AcDbEntity
  8
DEFAULT
 62
     7
100
AcDbLine
 10
53.55863919328345
 20
16.30923833675616
 30
0.0
 11
53.55956000187345
 21
16.26926168047416
 31
0.0
  0
ARC
  5
1B8
330
1F
100
AcDbEntity
  8
DEFAULT
 62
     7
100
AcDbCircle
 10
53.64262969159957
 20
16.34293369863803
 30
0.0
 40
0.0877849320355607
100
AcDbArc
 50
100.9873823870641
 51
196.1937578419694
  0
LINE
  5
1B9
330
1F
100
AcDbEntity
  8
DEFAULT
 62
     7
100
AcDbLine
 10
53.58555986582346
 20
15.80441679358216
 30
0.0
 11
53.62785136123345
 21
15.11335003139616
 31
0.0
  0
LINE
  5
1BA
330
1F
100
AcDbEntity
  8
DEFAULT
 62
     7
100
AcDbLine
 10
53.58551120945344
 20
15.80425121242216
 30
0.0
 11
53.62777270099346
 21
15.12221596148216
 31
0.0
  0
LINE
  5
1BB
330
1F
100
AcDbEntity
  8
DEFAULT
 62
     7
100
AcDbLine
 10
56.34050780919345
 20
16.09642421217716
 30
0.0
 11
56.04143829314344
 21
16.19046148341116
 31
0.0
  0
LINE
  5
1BC
330
1F
100
AcDbEntity
  8
DEFAULT
 62
     7
100
AcDbLine
 10
54.42969269964345
 20
15.06343067270716
 30
0.0
 11
54.43455392686346
 21
15.08387937005016
 31
0.0
  0
LINE
  5
1BD
330
1F
100
AcDbEntity
  8
DEFAULT
 62
     7
100
AcDbLine
 10
54.43829607711345
 20
15.11376580479616
 30
0.0
 11
54.47521791517346
 21
15.80399778170316
 31
0.0
  0
ARC
  5
1BE
330
1F
100
AcDbEntity
  8
DEFAULT
 62
     7
100
AcDbCircle
 10
56.22295567649111
 20
16.11475398639468
 30
0.0
 40
0.3554942085844686
100
AcDbArc
 50
245.6854392540915
 51
276.8736881406741
  0
LINE
  5
1BF
330
1F
100
AcDbEntity
  8
DEFAULT
 62
     7
100
AcDbLine
 10
56.42637997054345
 20
15.82716524770816
 30
0.0
 11
56.44132657806345
 21
15.84490206246416
 31
0.0
  0
LINE
  5
1C0
330
1F
100
AcDbEntity
  8
DEFAULT
 62
     7
100
AcDbLine
 10
56.40195680233344
 20
15.81174730838816
 30
0.0
 11
56.42637997054345
 21
15.82716524770816
 31
0.0
  0
LINE
  5
1C1
330
1F
100
AcDbEntity
  8
DEFAULT
 62
     7
100
AcDbLine
 10
56.31873914227344
 20
15.78022898231816
 30
0.0
 11
56.39274196826347
 21
15.80775473469116
 31
0.0
  0
LINE
  5
1C2
330
1F
100
AcDbEntity
  8
DEFAULT
 62
     7
100
AcDbLine
 10
56.28911085338345
 20
15.76990110507516
 30
0.0
 11
56.31873914227344
 21
15.78022898231816
 31
0.0
  0
LINE
  5
1C3
330
1F
100
AcDbEntity
  8
DEFAULT
 62
     7
100
AcDbLine
 10
56.26623768844345
 20
15.76206152305316
 30
0.0
 11
56.28911085338345
 21
15.76990110507516
 31
0.0
  0
ARC
  5
1C4
330
1F
100
AcDbEntity
  8
DEFAULT
 62
     7
100
AcDbCircle
 10
56.40996695769941
 20
15.97171977397714
 30
0.0
 40
0.0896297111369504
100
AcDbArc
 50
333.2202335137673
 51
30.24612339277704
  0
LINE
  5
1C5
330
1F
100
AcDbEntity
  8
DEFAULT
 62
     7
100
AcDbLine
 10
53.59256951129345
 20
15.66856108537516
 30
0.0
 11
53.61576214942346
 21
15.28602878435816
 31
0.0
  0
LINE
  5
1C6
330
1F
100
AcDbEntity
  8
DEFAULT
 62
     7
100
AcDbLine
 10
54.46447361399345
 20
15.60113533593116
 30
0.0
 11
54.47521810381346
 21
15.80399790268016
 31
0.0
  0
ARC
  5
1C7
330
1F
100
AcDbEntity
  8
DEFAULT
 62
     7
100
AcDbCircle
 10
55.44833210595346
 20
15.54750414336216
 30
0.0
 40
0.3937004428996763
100
AcDbArc
 50
184.9999668273269
 51
256.0209722047194
  0
ARC
  5
1C8
330
1F
100
AcDbEntity
  8
DEFAULT
 62
     7
100
AcDbCircle
 10
57.11778310595346
 20
15.54750414336216
 30
0.0
 40
0.3937005117896591
100
AcDbArc
 50
283.9790277952808
 51
319.2447530454638
  0
ARC
  5
1C9
330
1F
100
AcDbEntity
  8
DEFAULT
 62
     7
100
AcDbCircle
 10
51.23683610595346
 20
16.65248514336216
 30
0.0
 40
0.4921258407589897
100
AcDbArc
 50
186.429560859357
 51
343.5704666158825
  0
ARC
  5
1CA
330
1F
100
AcDbEntity
  8
DEFAULT
 62
     7
100
AcDbCircle
 10
56.27601510595346
 20
16.69646114336216
 30
0.0
 40
1.574803599408169
100
AcDbArc
 50
219.7897606840555
 51
308.4861420795911
  0
ARC
  5
1CB
330
1F
100
AcDbEntity
  8
DEFAULT
 62
     7
100
AcDbCircle
 10
56.28305810595344
 20
15.88940514336216
 30
0.0
 40
0.4724411526608132
100
AcDbArc
 50
182.0361670875957
 51
136.1236355817286
  0
CIRCLE
  5
1CC
330
1F
100
AcDbEntity
  8
DEFAULT
 62
     7
100
AcDbCircle
 10
51.23683610595346
 20
16.65248514336216
 30
0.0
 40
0.1968499999999995
  0
ARC
  5
1CD
330
1F
100
AcDbEntity
  8
DEFAULT
 62
     7
100
AcDbCircle
 10
56.28305810595344
 20
15.88940514336216
 30
0.0
 40
0.3297244760387017
100
AcDbArc
 50
190.2199230700379
 51
121.5390163193231
  0
ARC
  5
1CE
330
1F
100
AcDbEntity
  8
DEFAULT
 62
     7
100
AcDbCircle
 10
51.79778710595346
 20
16.18791814336216
 30
0.0
 40
0.0393695457275486
100
AcDbArc
 50
90.0
 51
140.3694009213388
  0
ARC
  5
1CF
330
1F
100
AcDbEntity
  8
DEFAULT
 62
     7
100
AcDbCircle
 10
50.67588510595346
 20
16.18791814336216
 30
0.0
 40
0.0393699308164893
100
AcDbArc
 50
39.62967082352454
 51
90.0
  0
ARC
  5
1D0
330
1F
100
AcDbEntity
  8
DEFAULT
 62
     7
100
AcDbCircle
 10
51.23683610595346
 20
16.65248514336216
 30
0.0
 40
0.6889769533201775
100
AcDbArc
 50
219.6308537354263
 51
320.3691993076432
  0
ARC
  5
1D1
330
1F
100
AcDbEntity
  8
DEFAULT
 62
     7
100
AcDbCircle
 10
45.23289910595346
 20
16.58789114336216
 30
0.0
 40
0.1968500241554462
100
AcDbArc
 50
94.26860377754299
 51
180.0
  0
ARC
  5
1D2
330
1F
100
AcDbEntity
  8
DEFAULT
 62
     7
100
AcDbCircle
 10
53.29726010595346
 20
15.39913914336216
 30
0.0
 40
1.181102438224334
100
AcDbArc
 50
313.8041092386235
 51
316.5728776654644
  0
ARC
  5
1D3
330
1F
100
AcDbEntity
  8
DEFAULT
 62
     7
100
AcDbCircle
 10
54.03305810595344
 20
14.63196614336216
 30
0.0
 40
0.1181100751899692
100
AcDbArc
 50
226.1955113738654
 51
313.8041385219715
  0
ARC
  5
1D4
330
1F
100
AcDbEntity
  8
DEFAULT
 62
     7
100
AcDbCircle
 10
54.76885510595346
 20
15.39913914336216
 30
0.0
 40
1.181102222144637
100
AcDbArc
 50
223.3086286638406
 51
226.1958907613751
  0
ARC
  5
1D5
330
1F
100
AcDbEntity
  8
DEFAULT
 62
     7
100
AcDbCircle
 10
54.28340510595345
 20
13.25281114336216
 30
0.0
 40
2.168635128522747
100
AcDbArc
 50
262.6642214883358
 51
313.3357497982433
  0
ARC
  5
1D6
330
1F
100
AcDbEntity
  8
DEFAULT
 62
     7
100
AcDbCircle
 10
41.02571710595345
 20
9.472071143362161
 30
0.0
 40
14.96062961087549
100
AcDbArc
 50
8.872692352635241
 51
16.97275036036165
  0
ARC
  5
1D7
330
1F
100
AcDbEntity
  8
DEFAULT
 62
     7
100
AcDbCircle
 10
67.23136210595345
 20
17.98680214336216
 30
0.0
 40
14.96063000619491
100
AcDbArc
 50
199.0272548912464
 51
207.1273137063322
  0
ARC
  5
1D8
330
1F
100
AcDbEntity
  8
DEFAULT
 62
     7
100
AcDbCircle
 10
55.69062410595345
 20
11.76137314336216
 30
0.0
 40
0.1181096473916334
100
AcDbArc
 50
313.3354242050539
 51
8.873110303455979
  0
ARC
  5
1D9
330
1F
100
AcDbEntity
  8
DEFAULT
 62
     7
100
AcDbCircle
 10
54.02158610595345
 20
11.21907014336216
 30
0.0
 40
0.1181107705630595
100
AcDbArc
 50
207.1273796626508
 51
262.6641492174499
  0
CIRCLE
  5
1DA
330
1F
100
AcDbEntity
  8
DEFAULT
 62
     7
100
AcDbCircle
 10
57.66888410595345
 20
15.68495614336216
 30
0.0
 40
0.46875
  0
LINE
  5
1DB
330
1F
100
AcDbEntity
  8
DEFAULT
 62
     7
100
AcDbLine
 10
58.44841210595345
 20
15.64819414336216
 30
0.0
 11
58.44841210595345
 21
16.63743614336216
 31
0.0
  0
LINE
  5
1DC
330
1F
100
AcDbEntity
  8
DEFAULT
 62
     7
100
AcDbLine
 10
56.04613810595345
 20
14.07048514336216
 30
0.0
 11
55.96928310595345
 21
14.30702014336216
 31
0.0
  0
LINE
  5
1DD
330
1F
100
AcDbEntity
  8
DEFAULT
 62
     7
100
AcDbLine
 10
55.06593910595345
 20
15.68863014336216
 30
0.0
 11
54.97725110595346
 21
15.92583614336216
 31
0.0
  0
LINE
  5
1DE
330
1F
100
AcDbEntity
  8
DEFAULT
 62
     7
100
AcDbLine
 10
55.05613010595346
 20
15.51319114336216
 30
0.0
 11
55.03309510595346
 21
15.77647514336216
 31
0.0
  0
LINE
  5
1DF
330
1F
100
AcDbEntity
  8
DEFAULT
 62
     7
100
AcDbLine
 10
56.04143810595346
 20
16.19045914336216
 30
0.0
 11
55.95967710595346
 21
16.21234114336216
 31
0.0
  0
LINE
  5
1E0
330
1F
100
AcDbEntity
  8
DEFAULT
 62
     7
100
AcDbLine
 10
50.74780610595346
 20
16.59737614336216
 30
0.0
 11
48.99179710595345
 21
16.75100714336216
 31
0.0
  0
LINE
  5
1E1
330
1F
100
AcDbEntity
  8
DEFAULT
 62
     7
100
AcDbLine
 10
53.55790610595346
 20
16.35152414336216
 30
0.0
 11
51.70886810595346
 21
16.51329414336216
 31
0.0
  0
LINE
  5
1E2
330
1F
100
AcDbEntity
  8
DEFAULT
 62
     7
100
AcDbLine
 10
57.83195210595346
 20
16.63743614336216
 30
0.0
 11
58.44841210595345
 21
16.63743614336216
 31
0.0
  0
LINE
  5
1E3
330
1F
100
AcDbEntity
  8
DEFAULT
 62
     7
100
AcDbLine
 10
53.95130210595346
 20
14.54672514336216
 30
0.0
 11
53.92806410595345
 21
14.56963714336216
 31
0.0
  0
LINE
  5
1E4
330
1F
100
AcDbEntity
  8
DEFAULT
 62
     7
100
AcDbLine
 10
56.28305810595344
 20
14.93399214336216
 30
0.0
 11
55.35322710595347
 21
15.16546314336216
 31
0.0
  0
LINE
  5
1E5
330
1F
100
AcDbEntity
  8
DEFAULT
 62
     7
100
AcDbLine
 10
51.79778710595346
 20
16.22728814336216
 30
0.0
 11
53.56173510595346
 21
16.22728814336216
 31
0.0
  0
LINE
  5
1E6
330
1F
100
AcDbEntity
  8
DEFAULT
 62
     7
100
AcDbLine
 10
45.03604910595345
 20
16.22728814336216
 30
0.0
 11
50.67588510595346
 21
16.22728814336216
 31
0.0
  0
LINE
  5
1E7
330
1F
100
AcDbEntity
  8
DEFAULT
 62
     7
100
AcDbLine
 10
51.77761610595346
 20
12.68355814336216
 30
0.0
 11
56.04613810595345
 21
14.07048514336216
 31
0.0
  0
LINE
  5
1E8
330
1F
100
AcDbEntity
  8
DEFAULT
 62
     7
100
AcDbLine
 10
57.64509610595346
 20
15.21698514336216
 30
0.0
 11
55.52943410595346
 21
14.06818214336216
 31
0.0
  0
LINE
  5
1E9
330
1F
100
AcDbEntity
  8
DEFAULT
 62
     7
100
AcDbLine
 10
58.44840710595346
 20
15.65318214336216
 30
0.0
 11
58.07460010595347
 21
15.45020514336216
 31
0.0
  0
LINE
  5
1EA
330
1F
100
AcDbEntity
  8
DEFAULT
 62
     7
100
AcDbLine
 10
55.52943410595346
 20
14.06818214336216
 30
0.0
 11
51.34198410595346
 21
12.70759714336216
 31
0.0
  0
LINE
  5
1EB
330
1F
100
AcDbEntity
  8
DEFAULT
 62
     7
100
AcDbLine
 10
54.14620510595346
 20
14.57798414336216
 30
0.0
 11
54.11481310595346
 21
14.54672514336216
 31
0.0
  0
LINE
  5
1EC
330
1F
100
AcDbEntity
  8
DEFAULT
 62
     7
100
AcDbLine
 10
51.76805510595345
 20
12.71298514336216
 30
0.0
 11
51.08620710595346
 21
12.03113714336216
 31
0.0
  0
LINE
  5
1ED
330
1F
100
AcDbEntity
  8
DEFAULT
 62
     7
100
AcDbLine
 10
56.28305810595344
 20
14.93399214336216
 30
0.0
 11
48.50566010595345
 21
12.40696114336216
 31
0.0
  0
LINE
  5
1EE
330
1F
100
AcDbEntity
  8
DEFAULT
 62
     7
100
AcDbLine
 10
52.09915510595346
 20
12.78803314336216
 30
0.0
 11
52.05049110595346
 21
12.93780514336216
 31
0.0
  0
LINE
  5
1EF
330
1F
100
AcDbEntity
  8
DEFAULT
 62
     7
100
AcDbLine
 10
54.46448010595346
 20
15.60113514336216
 30
0.0
 11
55.02140310595345
 21
15.80774614336216
 31
0.0
  0
LINE
  5
1F0
330
1F
100
AcDbEntity
  8
DEFAULT
 62
     7
100
AcDbLine
 10
48.22802810595346
 20
13.28749214336216
 30
0.0
 11
53.61504310595345
 21
15.28600514336216
 31
0.0
  0
LINE
  5
1F1
330
1F
100
AcDbEntity
  8
DEFAULT
 62
     7
100
AcDbLine
 10
51.77761610595346
 20
12.68355814336216
 30
0.0
 11
51.76805510595345
 21
12.71298514336216
 31
0.0
  0
LINE
  5
1F2
330
1F
100
AcDbEntity
  8
DEFAULT
 62
     7
100
AcDbLine
 10
57.21288810595345
 20
15.16546314336216
 30
0.0
 11
56.28305810595344
 21
14.93399214336216
 31
0.0
  0
LINE
  5
1F3
330
1F
100
AcDbEntity
  8
DEFAULT
 62
     7
100
AcDbLine
 10
48.88148310595346
 20
12.03113714336216
 30
0.0
 11
51.08620710595346
 21
12.03113714336216
 31
0.0
  0
LINE
  5
1F4
330
1F
100
AcDbEntity
  8
DEFAULT
 62
     7
100
AcDbLine
 10
48.50565810595346
 20
12.40696214336216
 30
0.0
 11
48.22802810595346
 21
13.28749214336216
 31
0.0
  0
LINE
  5
1F5
330
1F
100
AcDbEntity
  8
DEFAULT
 62
     7
100
AcDbLine
 10
48.50566010595345
 20
12.40696114336216
 30
0.0
 11
48.88148310595346
 21
12.03113714336216
 31
0.0
  0
LINE
  5
1F6
330
1F
100
AcDbEntity
  8
DEFAULT
 62
     7
100
AcDbLine
 10
45.03604910595345
 20
16.22728814336216
 30
0.0
 11
45.03604910595345
 21
16.58789114336216
 31
0.0
  0
LINE
  5
1F7
330
1F
100
AcDbEntity
  8
DEFAULT
 62
     7
100
AcDbLine
 10
48.99179710595345
 20
16.75100714336216
 30
0.0
 11
48.99106589248343
 21
16.83479417374417
 31
0.0
  0
LINE
  5
1F8
330
1F
100
AcDbEntity
  8
DEFAULT
 62
     7
100
AcDbLine
 10
45.21824710595345
 20
16.78419514336216
 30
0.0
 11
45.58045929981127
 21
16.81123202450702
 31
0.0
  0
LINE
  5
1F9
330
1F
100
AcDbEntity
  8
DEFAULT
 62
     7
100
AcDbLine
 10
57.91954005309439
 20
16.88477924651183
 30
0.0
 11
57.66055710595344
 21
16.15343414336216
 31
0.0
  0
LINE
  5
1FA
330
1F
100
AcDbEntity
  8
DEFAULT
 62
     7
100
AcDbLine
 10
25.80757350377083
 20
27.80709416041557
 30
0.0
 11
25.58147224817144
 21
27.80709416041555
 31
0.0
  0
ARC
  5
1FB
330
1F
100
AcDbEntity
  8
DEFAULT
 62
     7
100
AcDbCircle
 10
25.80757350377084
 20
27.55709416041557
 30
0.0
 40
0.2499999999999965
100
AcDbArc
 50
4.301925397827175
 51
90.00000000000325
  0
LINE
  5
1FC
330
1F
100
AcDbEntity
  8
DEFAULT
 62
     7
100
AcDbLine
 10
26.06543044528184
 20
27.46203688556895
 30
0.0
 11
26.05686915710511
 21
27.57584721959637
 31
0.0
  0
ARC
  5
1FD
330
1F
100
AcDbEntity
  8
DEFAULT
 62
     7
100
AcDbCircle
 10
25.31754348527899
 20
27.40577770802656
 30
0.0
 40
0.7500000000000464
100
AcDbArc
 50
313.331662551709
 51
4.301925397825766
  0
SPLINE
  5
1FE
330
1F
100
AcDbEntity
  8
DEFAULT
 62
     7
100
AcDbSpline
210
0.0
220
0.0
230
1.0
 70
     8
 71
     2
 72
     6
 73
     3
 74
     0
 42
0.0000000001
 43
0.0000000001
 40
-1.472563269139118
 40
-1.472563269139118
 40
-1.472563269139118
 40
-1.061017722540972
 40
-1.061017722540972
 40
-1.061017722540972
 10
25.56453695202391
 20
26.66336767316602
 30
0.0
 10
25.68253099629381
 20
26.71902698830764
 30
0.0
 10
25.83220880545083
 20
26.86023246864445
 30
0.0
  0
LINE
  5
1FF
330
1F
100
AcDbEntity
  8
DEFAULT
 62
     7
100
AcDbLine
 10
0.8302074998433611
 20
27.80709416041557
 30
0.0
 11
1.056308755442743
 21
27.80709416041555
 31
0.0
  0
ARC
  5
200
330
1F
100
AcDbEntity
  8
DEFAULT
 62
     7
100
AcDbCircle
 10
0.8302074998433453
 20
27.55709416041557
 30
0.0
 40
0.2499999999999929
100
AcDbArc
 50
89.99999999999639
 51
175.6980746021744
  0
LINE
  5
201
330
1F
100
AcDbEntity
  8
DEFAULT
 62
     7
100
AcDbLine
 10
0.5723505583323423
 20
27.46203688556895
 30
0.0
 11
0.5809118465090783
 21
27.57584721959637
 31
0.0
  0
ARC
  5
202
330
1F
100
AcDbEntity
  8
DEFAULT
 62
     7
100
AcDbCircle
 10
1.32023751833521
 20
27.40577770802656
 30
0.0
 40
0.750000000000053
100
AcDbArc
 50
175.6980746021743
 51
226.6683374482902
  0
SPLINE
  5
203
330
1F
100
AcDbEntity
  8
DEFAULT
 62
     7
100
AcDbSpline
210
0.0
220
0.0
230
1.0
 70
     8
 71
     2
 72
     6
 73
     3
 74
     0
 42
0.0000000001
 43
0.0000000001
 40
-1.472563269139118
 40
-1.472563269139118
 40
-1.472563269139118
 40
-1.061017722540972
 40
-1.061017722540972
 40
-1.061017722540972
 10
1.07324405159028
 20
26.66336767316602
 30
0.0
 10
0.9552500073203705
 20
26.71902698830764
 30
0.0
 10
0.8055721981633575
 20
26.86023246864445
 30
0.0
  0
ENDSEC
  0
SECTION
  2
OBJECTS
  0
DICTIONARY
  5
C
330
0
100
AcDbDictionary
  3
ACAD_GROUP
350
D
  3
ACAD_LAYOUT
350
1A
  3
ACAD_MLINESTYLE
350
17
  3
ACAD_PLOTSETTINGS
350
19
  3
ACDBHEADERROUNDTRIPXREC
350
204
  0
DICTIONARY
  5
224
330
29
100
AcDbDictionary
280
     1
  3
ACAD_XREC_ROUNDTRIP
360
225
  0
DICTIONARY
  5
D
102
{ACAD_REACTORS
330
C
102
}
330
C
100
AcDbDictionary
  0
DICTIONARY
  5
1A
102
{ACAD_REACTORS
330
C
102
}
330
C
100
AcDbDictionary
  0
DICTIONARY
  5
17
102
{ACAD_REACTORS
330
C
102
}
330
C
100
AcDbDictionary
  3
STANDARD
350
18
  0
DICTIONARY
  5
19
102
{ACAD_REACTORS
330
C
102
}
330
C
100
AcDbDictionary
  0
DICTIONARY
  5
204
102
{ACAD_REACTORS
330
C
102
}
330
C
100
AcDbDictionary
  3
CEPSNTYPE
350
20D
  3
DIMSTYLEDATA
350
223
  3
FINGERPRINTGUID
350
20E
  3
HYPERLINKBASE
350
207
  3
INSUNITS
350
20C
  3
LAYOUTDICT
350
209
  3
LWETCUNION
350
20B
  3
PLOTSETDICT
350
20A
  3
PSVPSCALE
350
210
  3
PUCSBASE
350
213
  3
PUCSORGBACK
350
219
  3
PUCSORGBOTTOM
350
215
  3
PUCSORGFRONT
350
218
  3
PUCSORGLEFT
350
216
  3
PUCSORGRIGHT
350
217
  3
PUCSORGTOP
350
214
  3
PUCSORTHOREF
350
211
  3
PUCSORTHOVIEW
350
212
  3
STYLESHEET
350
208
  3
TSTACKALIGN
350
205
  3
TSTACKSIZE
350
206
  3
UCSBASE
350
21C
  3
UCSORGBACK
350
222
  3
UCSORGBOTTOM
350
21E
  3
UCSORGFRONT
350
221
  3
UCSORGLEFT
350
21F
  3
UCSORGRIGHT
350
220
  3
UCSORGTOP
350
21D
  3
UCSORTHOREF
350
21A
  3
UCSORTHOVIEW
350
21B
  3
VERSIONGUID
350
20F
  0
XRECORD
  5
225
102
{ACAD_REACTORS
330
224
102
}
330
224
100
AcDbXrecord
102
UCS
 74
     0
 71
     1
 10
0.0
 20
0.0
 30
0.0
 10
1.0
 20
0.0
 30
0.0
 10
0.0
 20
1.0
 30
0.0
146
0.0
 79
     0
102
VIEW
281
     0
  0
MLINESTYLE
  5
18
102
{ACAD_REACTORS
330
17
102
}
330
17
100
AcDbMlineStyle
  2
Standard
 70
     0
  3

 62
   256
 51
90.0
 52
90.0
 71
     2
 49
0.5
 62
   256
  6
BYLAYER
 49
-0.5
 62
   256
  6
BYLAYER
  0
XRECORD
  5
20D
102
{ACAD_REACTORS
330
204
102
}
330
204
100
AcDbXrecord
 90
        0
  0
XRECORD
  5
223
102
{ACAD_REACTORS
330
204
102
}
330
204
100
AcDbXrecord
1000
DSTYLE
1002
{
1070
   340
340
11
1002
}
  0
XRECORD
  5
20E
102
{ACAD_REACTORS
330
204
102
}
330
204
100
AcDbXrecord
  1
{FAEB1C30-E019-11D5-929B-00C0DF256EC4}
  0
XRECORD
  5
207
102
{ACAD_REACTORS
330
204
102
}
330
204
100
AcDbXrecord
  1

  0
XRECORD
  5
20C
102
{ACAD_REACTORS
330
204
102
}
330
204
100
AcDbXrecord
 90
        1
  0
XRECORD
  5
209
102
{ACAD_REACTORS
330
204
102
}
330
204
100
AcDbXrecord
340
1A
  0
XRECORD
  5
20B
102
{ACAD_REACTORS
330
204
102
}
330
204
100
AcDbXrecord
 90
     2560
  0
XRECORD
  5
20A
102
{ACAD_REACTORS
330
204
102
}
330
204
100
AcDbXrecord
340
19
  0
XRECORD
  5
210
102
{ACAD_REACTORS
330
204
102
}
330
204
100
AcDbXrecord
 40
0.0
  0
XRECORD
  5
213
102
{ACAD_REACTORS
330
204
102
}
330
204
100
AcDbXrecord
340
0
  0
XRECORD
  5
219
102
{ACAD_REACTORS
330
204
102
}
330
204
100
AcDbXrecord
 10
0.0
 20
0.0
 30
0.0
  0
XRECORD
  5
215
102
{ACAD_REACTORS
330
204
102
}
330
204
100
AcDbXrecord
 10
0.0
 20
0.0
 30
0.0
  0
XRECORD
  5
218
102
{ACAD_REACTORS
330
204
102
}
330
204
100
AcDbXrecord
 10
0.0
 20
0.0
 30
0.0
  0
XRECORD
  5
216
102
{ACAD_REACTORS
330
204
102
}
330
204
100
AcDbXrecord
 10
0.0
 20
0.0
 30
0.0
  0
XRECORD
  5
217
102
{ACAD_REACTORS
330
204
102
}
330
204
100
AcDbXrecord
 10
0.0
 20
0.0
 30
0.0
  0
XRECORD
  5
214
102
{ACAD_REACTORS
330
204
102
}
330
204
100
AcDbXrecord
 10
0.0
 20
0.0
 30
0.0
  0
XRECORD
  5
211
102
{ACAD_REACTORS
330
204
102
}
330
204
100
AcDbXrecord
340
0
  0
XRECORD
  5
212
102
{ACAD_REACTORS
330
204
102
}
330
204
100
AcDbXrecord
 70
     0
  0
XRECORD
  5
208
102
{ACAD_REACTORS
330
204
102
}
330
204
100
AcDbXrecord
  1

  0
XRECORD
  5
205
102
{ACAD_REACTORS
330
204
102
}
330
204
100
AcDbXrecord
 90
        1
  0
XRECORD
  5
206
102
{ACAD_REACTORS
330
204
102
}
330
204
100
AcDbXrecord
 90
       70
  0
XRECORD
  5
21C
102
{ACAD_REACTORS
330
204
102
}
330
204
100
AcDbXrecord
340
0
  0
XRECORD
  5
222
102
{ACAD_REACTORS
330
204
102
}
330
204
100
AcDbXrecord
 10
0.0
 20
0.0
 30
0.0
  0
XRECORD
  5
21E
102
{ACAD_REACTORS
330
204
102
}
330
204
100
AcDbXrecord
 10
0.0
 20
0.0
 30
0.0
  0
XRECORD
  5
221
102
{ACAD_REACTORS
330
204
102
}
330
204
100
AcDbXrecord
 10
0.0
 20
0.0
 30
0.0
  0
XRECORD
  5
21F
102
{ACAD_REACTORS
330
204
102
}
330
204
100
AcDbXrecord
 10
0.0
 20
0.0
 30
0.0
  0
XRECORD
  5
220
102
{ACAD_REACTORS
330
204
102
}
330
204
100
AcDbXrecord
 10
0.0
 20
0.0
 30
0.0
  0
XRECORD
  5
21D
102
{ACAD_REACTORS
330
204
102
}
330
204
100
AcDbXrecord
 10
0.0
 20
0.0
 30
0.0
  0
XRECORD
  5
21A
102
{ACAD_REACTORS
330
204
102
}
330
204
100
AcDbXrecord
340
0
  0
XRECORD
  5
21B
102
{ACAD_REACTORS
330
204
102
}
330
204
100
AcDbXrecord
 70
     0
  0
XRECORD
  5
20F
102
{ACAD_REACTORS
330
204
102
}
330
204
100
AcDbXrecord
  1
{FAEB1C32-E019-11D5-929B-00C0DF256EC4}
  0
ENDSEC
  0
EOF
