  0
SECTION
  2
HEADER
  9
$ACADVER
  1
AC1014
  9
$ACADMAINTVER
 70
     9
  9
$DWGCODEPAGE
  3
ANSI_1252
  9
$INSBASE
 10
0.0
 20
0.0
 30
0.0
  9
$EXTMIN
 10
1.000000000000000E+20
 20
1.000000000000000E+20
 30
1.000000000000000E+20
  9
$EXTMAX
 10
-1.000000000000000E+20
 20
-1.000000000000000E+20
 30
-1.000000000000000E+20
  9
$LIMMIN
 10
0.0
 20
0.0
  9
$LIMMAX
 10
12.0
 20
9.0
  9
$ORTHOMODE
 70
     0
  9
$REGENMODE
 70
     1
  9
$FILLMODE
 70
     1
  9
$QTEXTMODE
 70
     0
  9
$MIRRTEXT
 70
     1
  9
$DRAGMODE
 70
     2
  9
$LTSCALE
 40
1.0
  9
$OSMODE
 70
    37
  9
$ATTMODE
 70
     1
  9
$TEXTSIZE
 40
0.2
  9
$TRACEWID
 40
0.05
  9
$TEXTSTYLE
  7
STANDARD
  9
$CLAYER
  8
0
  9
$CELTYPE
  6
BYLAYER
  9
$CECOLOR
 62
   256
  9
$CELTSCALE
 40
1.0
  9
$DELOBJ
 70
     1
  9
$DISPSILH
 70
     0
  9
$DIMSCALE
 40
1.0
  9
$DIMASZ
 40
0.18
  9
$DIMEXO
 40
0.0625
  9
$DIMDLI
 40
0.38
  9
$DIMRND
 40
0.0
  9
$DIMDLE
 40
0.0
  9
$DIMEXE
 40
0.18
  9
$DIMTP
 40
0.0
  9
$DIMTM
 40
0.0
  9
$DIMTXT
 40
0.18
  9
$DIMCEN
 40
0.09
  9
$DIMTSZ
 40
0.0
  9
$DIMTOL
 70
     0
  9
$DIMLIM
 70
     0
  9
$DIMTIH
 70
     1
  9
$DIMTOH
 70
     1
  9
$DIMSE1
 70
     0
  9
$DIMSE2
 70
     0
  9
$DIMTAD
 70
     0
  9
$DIMZIN
 70
     0
  9
$DIMBLK
  1

  9
$DIMASO
 70
     1
  9
$DIMSHO
 70
     1
  9
$DIMPOST
  1

  9
$DIMAPOST
  1

  9
$DIMALT
 70
     0
  9
$DIMALTD
 70
     2
  9
$DIMALTF
 40
25.4
  9
$DIMLFAC
 40
1.0
  9
$DIMTOFL
 70
     0
  9
$DIMTVP
 40
0.0
  9
$DIMTIX
 70
     0
  9
$DIMSOXD
 70
     0
  9
$DIMSAH
 70
     0
  9
$DIMBLK1
  1

  9
$DIMBLK2
  1

  9
$DIMSTYLE
  2
STANDARD
  9
$DIMCLRD
 70
     0
  9
$DIMCLRE
 70
     0
  9
$DIMCLRT
 70
     0
  9
$DIMTFAC
 40
1.0
  9
$DIMGAP
 40
0.09
  9
$DIMJUST
 70
     0
  9
$DIMSD1
 70
     0
  9
$DIMSD2
 70
     0
  9
$DIMTOLJ
 70
     1
  9
$DIMTZIN
 70
     0
  9
$DIMALTZ
 70
     0
  9
$DIMALTTZ
 70
     0
  9
$DIMFIT
 70
     3
  9
$DIMUPT
 70
     0
  9
$DIMUNIT
 70
     2
  9
$DIMDEC
 70
     4
  9
$DIMTDEC
 70
     4
  9
$DIMALTU
 70
     2
  9
$DIMALTTD
 70
     2
  9
$DIMTXSTY
  7
STANDARD
  9
$DIMAUNIT
 70
     0
  9
$LUNITS
 70
     2
  9
$LUPREC
 70
     0
  9
$SKETCHINC
 40
0.1
  9
$FILLETRAD
 40
0.5
  9
$AUNITS
 70
     0
  9
$AUPREC
 70
     0
  9
$MENU
  1
.
  9
$ELEVATION
 40
0.0
  9
$PELEVATION
 40
0.0
  9
$THICKNESS
 40
0.0
  9
$LIMCHECK
 70
     0
  9
$CHAMFERA
 40
0.5
  9
$CHAMFERB
 40
0.5
  9
$CHAMFERC
 40
1.0
  9
$CHAMFERD
 40
0.0
  9
$SKPOLY
 70
     0
  9
$TDCREATE
 40
2453769.419956123
  9
$TDUPDATE
 40
2453769.419956134
  9
$TDINDWG
 40
0.0000000116
  9
$TDUSRTIMER
 40
0.0000000116
  9
$USRTIMER
 70
     1
  9
$ANGBASE
 50
0.0
  9
$ANGDIR
 70
     0
  9
$PDMODE
 70
     0
  9
$PDSIZE
 40
0.0
  9
$PLINEWID
 40
0.0
  9
$COORDS
 70
     1
  9
$SPLFRAME
 70
     0
  9
$SPLINETYPE
 70
     6
  9
$SPLINESEGS
 70
     8
  9
$ATTDIA
 70
     0
  9
$ATTREQ
 70
     1
  9
$HANDLING
 70
     1
  9
$HANDSEED
  5
9A
  9
$SURFTAB1
 70
     6
  9
$SURFTAB2
 70
     6
  9
$SURFTYPE
 70
     6
  9
$SURFU
 70
     6
  9
$SURFV
 70
     6
  9
$UCSNAME
  2

  9
$UCSORG
 10
0.0
 20
0.0
 30
0.0
  9
$UCSXDIR
 10
1.0
 20
0.0
 30
0.0
  9
$UCSYDIR
 10
0.0
 20
1.0
 30
0.0
  9
$PUCSNAME
  2

  9
$PUCSORG
 10
0.0
 20
0.0
 30
0.0
  9
$PUCSXDIR
 10
1.0
 20
0.0
 30
0.0
  9
$PUCSYDIR
 10
0.0
 20
1.0
 30
0.0
  9
$USERI1
 70
     0
  9
$USERI2
 70
     0
  9
$USERI3
 70
     0
  9
$USERI4
 70
     0
  9
$USERI5
 70
     0
  9
$USERR1
 40
0.0
  9
$USERR2
 40
0.0
  9
$USERR3
 40
0.0
  9
$USERR4
 40
0.0
  9
$USERR5
 40
0.0
  9
$WORLDVIEW
 70
     1
  9
$SHADEDGE
 70
     3
  9
$SHADEDIF
 70
    70
  9
$TILEMODE
 70
     1
  9
$MAXACTVP
 70
    64
  9
$PINSBASE
 10
0.0
 20
0.0
 30
0.0
  9
$PLIMCHECK
 70
     0
  9
$PEXTMIN
 10
1.000000000000000E+20
 20
1.000000000000000E+20
 30
1.000000000000000E+20
  9
$PEXTMAX
 10
-1.000000000000000E+20
 20
-1.000000000000000E+20
 30
-1.000000000000000E+20
  9
$PLIMMIN
 10
0.0
 20
0.0
  9
$PLIMMAX
 10
12.0
 20
9.0
  9
$UNITMODE
 70
     0
  9
$VISRETAIN
 70
     1
  9
$PLINEGEN
 70
     0
  9
$PSLTSCALE
 70
     1
  9
$TREEDEPTH
 70
  3020
  9
$PICKSTYLE
 70
     1
  9
$CMLSTYLE
  2
STANDARD
  9
$CMLJUST
 70
     0
  9
$CMLSCALE
 40
1.0
  9
$PROXYGRAPHICS
 70
     1
  9
$MEASUREMENT
 70
     0
  0
ENDSEC
  0
SECTION
  2
CLASSES
  0
CLASS
  1
ACDBDICTIONARYWDFLT
  2
AcDbDictionaryWithDefault
  3
ObjectDBX Classes
 90
        0
280
     0
281
     0
  0
CLASS
  1
XRECORD
  2
AcDbXrecord
  3
AutoCAD 2000
 90
        0
280
     0
281
     0
  0
CLASS
  1
LWPOLYLINE
  2
AcDbPolyline
  3
AutoCAD 2000
 90
        0
280
     0
281
     1
  0
CLASS
  1
HATCH
  2
AcDbHatch
  3
AutoCAD 2000
 90
        0
280
     0
281
     1
  0
CLASS
  1
ACDBPLACEHOLDER
  2
AcDbPlaceHolder
  3
ObjectDBX Classes
 90
        0
280
     0
281
     0
  0
CLASS
  1
LAYOUT
  2
AcDbLayout
  3
ObjectDBX Classes
 90
        0
280
     0
281
     0
  0
ENDSEC
  0
SECTION
  2
TABLES
  0
TABLE
  2
VPORT
  5
8
330
0
100
AcDbSymbolTable
 70
     2
  0
VPORT
  5
29
102
{ACAD_XDICTIONARY
360
98
102
}
330
8
100
AcDbSymbolTableRecord
100
AcDbViewportTableRecord
  2
*ACTIVE
 70
     0
 10
0.0
 20
0.0
 11
1.0
 21
1.0
 12
38.59271548670854
 22
35.92818589103365
 13
0.0
 23
0.0
 14
0.5
 24
0.5
 15
0.5
 25
0.5
 16
0.0
 26
0.0
 36
80.21230066091221
 17
0.0
 27
0.0
 37
0.0
 40
71.84800701176432
 41
1.972972972850329
 42
50.0
 43
0.0
 44
0.0
 50
0.0
 51
0.0
 71
     0
 72
   100
 73
     1
 74
     3
 75
     0
 76
     0
 77
     0
 78
     0
  0
ENDTAB
  0
TABLE
  2
LTYPE
  5
5
330
0
100
AcDbSymbolTable
 70
     1
  0
LTYPE
  5
14
330
5
100
AcDbSymbolTableRecord
100
AcDbLinetypeTableRecord
  2
BYBLOCK
 70
     0
  3

 72
    65
 73
     0
 40
0.0
  0
LTYPE
  5
15
330
5
100
AcDbSymbolTableRecord
100
AcDbLinetypeTableRecord
  2
BYLAYER
 70
     0
  3

 72
    65
 73
     0
 40
0.0
  0
LTYPE
  5
16
330
5
100
AcDbSymbolTableRecord
100
AcDbLinetypeTableRecord
  2
CONTINUOUS
 70
     0
  3
Solid line
 72
    65
 73
     0
 40
0.0
  0
ENDTAB
  0
TABLE
  2
LAYER
  5
2
330
0
100
AcDbSymbolTable
 70
     1
  0
LAYER
  5
10
330
2
100
AcDbSymbolTableRecord
100
AcDbLayerTableRecord
  2
0
 70
     0
 62
     7
  6
CONTINUOUS
  0
ENDTAB
  0
TABLE
  2
STYLE
  5
3
330
0
100
AcDbSymbolTable
 70
     1
  0
STYLE
  5
11
330
3
100
AcDbSymbolTableRecord
100
AcDbTextStyleTableRecord
  2
STANDARD
 70
     0
 40
0.0
 41
1.0
 50
0.0
 71
     0
 42
0.2
  3
txt
  4

  0
ENDTAB
  0
TABLE
  2
VIEW
  5
6
330
0
100
AcDbSymbolTable
 70
     0
  0
ENDTAB
  0
TABLE
  2
UCS
  5
7
330
0
100
AcDbSymbolTable
 70
     0
  0
ENDTAB
  0
TABLE
  2
APPID
  5
9
330
0
100
AcDbSymbolTable
 70
     1
  0
APPID
  5
12
330
9
100
AcDbSymbolTableRecord
100
AcDbRegAppTableRecord
  2
ACAD
 70
     0
  0
ENDTAB
  0
TABLE
  2
DIMSTYLE
  5
A
330
0
100
AcDbSymbolTable
 70
     1
  0
DIMSTYLE
105
27
330
A
100
AcDbSymbolTableRecord
100
AcDbDimStyleTableRecord
  2
STANDARD
 70
     0
  3

  4

  5

  6

  7

 40
1.0
 41
0.18
 42
0.0625
 43
0.38
 44
0.18
 45
0.0
 46
0.0
 47
0.0
 48
0.0
140
0.18
141
0.09
142
0.0
143
25.4
144
1.0
145
0.0
146
1.0
147
0.09
 71
     0
 72
     0
 73
     1
 74
     1
 75
     0
 76
     0
 77
     0
 78
     0
170
     0
171
     2
172
     0
173
     0
174
     0
175
     0
176
     0
177
     0
178
     0
270
     2
271
     4
272
     4
273
     2
274
     2
340
11
275
     0
280
     0
281
     0
282
     0
283
     1
284
     0
285
     0
286
     0
287
     3
288
     0
  0
ENDTAB
  0
TABLE
  2
BLOCK_RECORD
  5
1
330
0
100
AcDbSymbolTable
 70
     1
  0
BLOCK_RECORD
  5
1F
330
1
100
AcDbSymbolTableRecord
100
AcDbBlockTableRecord
  2
*MODEL_SPACE
  0
BLOCK_RECORD
  5
1B
330
1
100
AcDbSymbolTableRecord
100
AcDbBlockTableRecord
  2
*PAPER_SPACE
  0
ENDTAB
  0
ENDSEC
  0
SECTION
  2
BLOCKS
  0
BLOCK
  5
20
330
1F
100
AcDbEntity
  8
0
100
AcDbBlockBegin
  2
*MODEL_SPACE
 70
     0
 71
     0
 10
0.0
 20
0.0
 30
0.0
  3
*MODEL_SPACE
  1

  0
ENDBLK
  5
21
330
1F
100
AcDbEntity
  8
0
100
AcDbBlockEnd
  0
BLOCK
  5
1C
330
1B
100
AcDbEntity
 67
     1
  8
0
100
AcDbBlockBegin
  2
*PAPER_SPACE
 70
     0
 71
     0
 10
0.0
 20
0.0
 30
0.0
  3
*PAPER_SPACE
  1

  0
ENDBLK
  5
1D
330
1B
100
AcDbEntity
 67
     1
  8
0
100
AcDbBlockEnd
  0
ENDSEC
  0
SECTION
  2
ENTITIES
  0
ARC
  5
2A
330
1F
100
AcDbEntity
  8
0
 62
     7
100
AcDbCircle
 10
5.963631613339958
 20
59.05181158139413
 30
0.0
 40
0.9846168137752938
100
AcDbArc
 50
89.99999999999835
 51
180.0000000000008
  0
ARC
  5
2B
330
1F
100
AcDbEntity
  8
0
 62
     7
100
AcDbCircle
 10
5.963631613339958
 20
41.32870893343856
 30
0.0
 40
0.9846168137753033
100
AcDbArc
 50
180.0000000000008
 51
270.0000000000007
  0
ARC
  5
2C
330
1F
100
AcDbEntity
  8
0
 62
     7
100
AcDbCircle
 10
5.963631613339958
 20
61.02104520894472
 30
0.0
 40
0.9846168137753015
100
AcDbArc
 50
180.0000000000008
 51
270.0000000000007
  0
LINE
  5
2D
330
1F
100
AcDbEntity
  8
0
 62
     7
100
AcDbLine
 10
27.132888784434
 20
59.05181158139411
 30
0.0
 11
27.132888784434
 21
41.32870893343856
 31
0.0
  0
ARC
  5
2E
330
1F
100
AcDbEntity
  8
0
 62
     7
100
AcDbCircle
 10
26.14827197065854
 20
61.02104520894474
 30
0.0
 40
0.9846168137753217
100
AcDbArc
 50
270.0
 51
359.9999999999996
  0
ARC
  5
2F
330
1F
100
AcDbEntity
  8
0
 62
     7
100
AcDbCircle
 10
26.14827197065854
 20
59.05181158139411
 30
0.0
 40
0.9846168137753147
100
AcDbArc
 50
0.0
 51
90.0
  0
ARC
  5
30
330
1F
100
AcDbEntity
  8
0
 62
     7
100
AcDbCircle
 10
26.14827197065854
 20
41.3287089334386
 30
0.0
 40
0.9846168137753357
100
AcDbArc
 50
270.0000000000017
 51
359.9999999999996
  0
LINE
  5
31
330
1F
100
AcDbEntity
  8
0
 62
     7
100
AcDbLine
 10
26.14827197065854
 20
40.34409211966327
 30
0.0
 11
5.963631613339956
 21
40.34409211966327
 31
0.0
  0
LINE
  5
32
330
1F
100
AcDbEntity
  8
0
 62
     7
100
AcDbLine
 10
26.14827197065854
 20
60.03642839516942
 30
0.0
 11
5.963631613339956
 21
60.03642839516942
 31
0.0
  0
LINE
  5
33
330
1F
100
AcDbEntity
  8
0
 62
     7
100
AcDbLine
 10
4.979014799564498
 20
40.34409211966327
 30
0.0
 11
4.979014799564498
 21
71.8518301604731
 31
0.0
  0
LINE
  5
34
330
1F
100
AcDbEntity
  8
0
 62
     7
100
AcDbLine
 10
0.0559317365194416
 20
40.34409211966327
 30
0.0
 11
0.0559317365194416
 21
71.8518301604731
 31
0.0
  0
LINE
  5
35
330
1F
100
AcDbEntity
  8
0
 62
     7
100
AcDbLine
 10
4.979014799564498
 20
40.34409211966327
 30
0.0
 11
0.0559317365194421
 21
40.34409211966327
 31
0.0
  0
LINE
  5
36
330
1F
100
AcDbEntity
  8
0
 62
     7
100
AcDbLine
 10
4.979014799564498
 20
63.97489565027065
 30
0.0
 11
0.0559317365194421
 21
63.97489565027065
 31
0.0
  0
LINE
  5
37
330
1F
100
AcDbEntity
  8
0
 62
     7
100
AcDbLine
 10
4.979014799564498
 20
71.8518301604731
 30
0.0
 11
0.0559317365194421
 21
71.85183016047311
 31
0.0
  0
LINE
  5
38
330
1F
100
AcDbEntity
  8
0
 62
     7
100
AcDbLine
 10
27.132888784434
 20
71.8518301604731
 30
0.0
 11
32.05597184747906
 21
71.85183016047311
 31
0.0
  0
LINE
  5
39
330
1F
100
AcDbEntity
  8
0
 62
     7
100
AcDbLine
 10
27.132888784434
 20
63.97489565027065
 30
0.0
 11
32.05597184747906
 21
63.97489565027065
 31
0.0
  0
LINE
  5
3A
330
1F
100
AcDbEntity
  8
0
 62
     7
100
AcDbLine
 10
27.132888784434
 20
40.34409211966327
 30
0.0
 11
32.05597184747906
 21
40.34409211966327
 31
0.0
  0
LINE
  5
3B
330
1F
100
AcDbEntity
  8
0
 62
     7
100
AcDbLine
 10
32.05597184747906
 20
40.34409211966327
 30
0.0
 11
32.05597184747906
 21
71.8518301604731
 31
0.0
  0
LINE
  5
3C
330
1F
100
AcDbEntity
  8
0
 62
     7
100
AcDbLine
 10
27.132888784434
 20
40.34409211966327
 30
0.0
 11
27.132888784434
 21
71.8518301604731
 31
0.0
  0
LINE
  5
3D
330
1F
100
AcDbEntity
  8
0
 62
     7
100
AcDbLine
 10
27.132888784434
 20
41.32870893343855
 30
0.0
 11
27.132888784434
 21
70.56447113250177
 31
0.0
  0
LINE
  5
3E
330
1F
100
AcDbEntity
  8
0
 62
     7
100
AcDbLine
 10
27.13288878443462
 20
66.11168096553364
 30
0.0
 11
27.13288878443557
 21
70.54908794627885
 31
0.0
  0
ARC
  5
3F
330
1F
100
AcDbEntity
  8
0
 62
     7
100
AcDbCircle
 10
26.13288878443557
 20
70.54908794627706
 30
0.0
 40
1.0
100
AcDbArc
 50
0.000000000102592
 51
90.0
  0
LINE
  5
40
330
1F
100
AcDbEntity
  8
0
 62
     7
100
AcDbLine
 10
26.13288878443557
 20
71.54908794627706
 30
0.0
 11
5.979014799563867
 21
71.54908794627706
 31
0.0
  0
ARC
  5
41
330
1F
100
AcDbEntity
  8
0
 62
     7
100
AcDbCircle
 10
5.97901479956307
 20
70.54908794627785
 30
0.0
 40
0.9999999999992042
100
AcDbArc
 50
89.9999999999544
 51
180.0
  0
LINE
  5
42
330
1F
100
AcDbEntity
  8
0
 62
     7
100
AcDbLine
 10
4.979014799563866
 20
70.54908794627785
 30
0.0
 11
4.979014799563865
 21
66.11168096553004
 31
0.0
  0
ARC
  5
43
330
1F
100
AcDbEntity
  8
0
 62
     7
100
AcDbCircle
 10
5.979014799563866
 20
66.11168096553215
 30
0.0
 40
1.0
100
AcDbArc
 50
180.0000000001205
 51
270.0
  0
LINE
  5
44
330
1F
100
AcDbEntity
  8
0
 62
     7
100
AcDbLine
 10
5.979014799563866
 20
65.11168096553215
 30
0.0
 11
26.13288878443464
 21
65.11168096553215
 31
0.0
  0
ARC
  5
45
330
1F
100
AcDbEntity
  8
0
 62
     7
100
AcDbCircle
 10
26.13288878443462
 20
66.11168096553215
 30
0.0
 40
1.0
100
AcDbArc
 50
270.000000000001
 51
0.0000000000854933
  0
LINE
  5
46
330
1F
100
AcDbEntity
  8
0
 62
     7
100
AcDbLine
 10
77.12949923689821
 20
3.943008876695413
 30
0.0
 11
53.57500131314097
 21
3.943008921841539
 31
0.0
  0
ARC
  5
47
330
1F
100
AcDbEntity
  8
0
 62
     7
100
AcDbCircle
 10
53.57500131218218
 20
3.443008921844559
 30
0.0
 40
0.4999999999969763
100
AcDbArc
 50
89.99999989013132
 51
107.3540246362596
  0
LINE
  5
48
330
1F
100
AcDbEntity
  8
0
 62
     7
100
AcDbLine
 10
53.42586381561512
 20
3.920248910859194
 30
0.0
 11
50.08291436505813
 21
2.875577207560175
 31
0.0
  0
ARC
  5
49
330
1F
100
AcDbEntity
  8
0
 62
     7
100
AcDbCircle
 10
49.9337768684907
 20
3.352817196578405
 30
0.0
 40
0.5000000000005261
100
AcDbArc
 50
192.1495009331822
 51
287.3540246361777
  0
LINE
  5
4A
330
1F
100
AcDbEntity
  8
0
 62
     7
100
AcDbLine
 10
49.44497598298403
 20
3.247585574294919
 30
0.0
 11
45.62176119608826
 21
21.0064182594215
 31
0.0
  0
ARC
  5
4B
330
1F
100
AcDbEntity
  8
0
 62
     7
100
AcDbCircle
 10
4.979014799564573
 20
12.88661170187854
 30
0.0
 40
8.943603523509641
100
AcDbArc
 50
238.4099277688867
 51
270.0000000000007
  0
ARC
  5
4C
330
1F
100
AcDbEntity
  8
0
 62
     7
100
AcDbCircle
 10
0.5559317365178675
 20
5.694200654139387
 30
0.0
 40
0.4999999999984353
100
AcDbArc
 50
180.0000000000019
 51
238.4099277689869
  0
LINE
  5
4D
330
1F
100
AcDbEntity
  8
0
 62
     7
100
AcDbLine
 10
0.055931736519432
 20
5.69420065413937
 30
0.0
 11
0.055931736518859
 21
23.13534830748286
 31
0.0
  0
ARC
  5
4E
330
1F
100
AcDbEntity
  8
0
 62
     7
100
AcDbCircle
 10
0.555931736518859
 20
23.13534830748229
 30
0.0
 40
0.5
100
AcDbArc
 50
89.99999999999999
 51
179.9999999999349
  0
LINE
  5
4F
330
1F
100
AcDbEntity
  8
0
 62
     7
100
AcDbLine
 10
0.5559317365188591
 20
23.63534830748229
 30
0.0
 11
4.979014799564498
 21
23.63534830748229
 31
0.0
  0
ARC
  5
50
330
1F
100
AcDbEntity
  8
0
 62
     7
100
AcDbCircle
 10
26.14827197065864
 20
12.88661170187824
 30
0.0
 40
8.943603523509335
100
AcDbArc
 50
270.000000000001
 51
301.5900722311141
  0
ARC
  5
51
330
1F
100
AcDbEntity
  8
0
 62
     7
100
AcDbCircle
 10
30.57135503370532
 20
5.694200654139377
 30
0.0
 40
0.4999999999983977
100
AcDbArc
 50
301.5900722310115
 51
0.0
  0
LINE
  5
52
330
1F
100
AcDbEntity
  8
0
 62
     7
100
AcDbLine
 10
31.07135503370371
 20
5.694200654139377
 30
0.0
 11
31.07135503370371
 21
23.13534830748286
 31
0.0
  0
ARC
  5
53
330
1F
100
AcDbEntity
  8
0
 62
     7
100
AcDbCircle
 10
30.57135503370435
 20
23.1353483074835
 30
0.0
 40
0.4999999999993605
100
AcDbArc
 50
359.9999999999267
 51
90.00000000000733
  0
LINE
  5
54
330
1F
100
AcDbEntity
  8
0
 62
     7
100
AcDbLine
 10
30.57135503370429
 20
23.63534830748286
 30
0.0
 11
26.14827197065854
 21
23.63534830748229
 31
0.0
  0
LINE
  5
55
330
1F
100
AcDbEntity
  8
0
 62
     7
100
AcDbLine
 10
6.293477977397588
 20
0.0045417279328026
 30
0.0
 11
7.27809459000669
 21
0.0045417279328026
 31
0.0
  0
LINE
  5
56
330
1F
100
AcDbEntity
  8
0
 62
     7
100
AcDbLine
 10
23.84919218021658
 20
0.0045417279328026
 30
0.0
 11
24.83380879282557
 21
0.0045417279328026
 31
0.0
  0
LINE
  5
57
330
1F
100
AcDbEntity
  8
0
 62
     7
100
AcDbLine
 10
26.14827197065854
 20
3.943008178368899
 30
0.0
 11
4.979014799564496
 21
3.943008178368899
 31
0.0
  0
LINE
  5
58
330
1F
100
AcDbEntity
  8
0
 62
     7
100
AcDbLine
 10
5.9636314121736
 20
3.943008178368899
 30
0.0
 11
6.293477977397588
 21
0.0045417279328026
 31
0.0
  0
LINE
  5
59
330
1F
100
AcDbEntity
  8
0
 62
     7
100
AcDbLine
 10
4.979014799564498
 20
3.943008178368899
 30
0.0
 11
4.979014799564498
 21
29.01988573065919
 31
0.0
  0
LINE
  5
5A
330
1F
100
AcDbEntity
  8
0
 62
     7
100
AcDbLine
 10
7.607941155230678
 20
3.943008178368899
 30
0.0
 11
7.27809459000669
 21
0.0045417279328026
 31
0.0
  0
LINE
  5
5B
330
1F
100
AcDbEntity
  8
0
 62
     7
100
AcDbLine
 10
25.16365535804955
 20
16.74302414228621
 30
0.0
 11
5.963631412173598
 21
16.74302414228621
 31
0.0
  0
LINE
  5
5C
330
1F
100
AcDbEntity
  8
0
 62
     7
100
AcDbLine
 10
25.16365535804955
 20
16.74302414228621
 30
0.0
 11
21.98458037778785
 21
17.19681424670545
 31
0.0
  0
LINE
  5
5D
330
1F
100
AcDbEntity
  8
0
 62
     7
100
AcDbLine
 10
21.98458037778785
 20
17.19681424670545
 30
0.0
 11
18.78040161237102
 21
17.47008867983542
 31
0.0
  0
LINE
  5
5E
330
1F
100
AcDbEntity
  8
0
 62
     7
100
AcDbLine
 10
18.78040161237102
 20
17.47008867983542
 30
0.0
 11
15.56364338511158
 21
17.56140596295523
 31
0.0
  0
LINE
  5
5F
330
1F
100
AcDbEntity
  8
0
 62
     7
100
AcDbLine
 10
15.56364338511158
 20
17.56140596295523
 30
0.0
 11
12.34688515785202
 21
17.47008867983542
 31
0.0
  0
LINE
  5
60
330
1F
100
AcDbEntity
  8
0
 62
     7
100
AcDbLine
 10
12.34688515785202
 20
17.47008867983542
 30
0.0
 11
9.142706392435303
 21
17.19681424670545
 31
0.0
  0
LINE
  5
61
330
1F
100
AcDbEntity
  8
0
 62
     7
100
AcDbLine
 10
9.142706392435303
 20
17.19681424670545
 30
0.0
 11
5.9636314121736
 21
16.74302414228621
 31
0.0
  0
LINE
  5
62
330
1F
100
AcDbEntity
  8
0
 62
     7
100
AcDbLine
 10
23.51934561499247
 20
3.943008178368899
 30
0.0
 11
23.84919218021658
 21
0.0045417279328026
 31
0.0
  0
LINE
  5
63
330
1F
100
AcDbEntity
  8
0
 62
     7
100
AcDbLine
 10
26.14827197065854
 20
3.943008178368899
 30
0.0
 11
26.14827197065854
 21
29.01988573065919
 31
0.0
  0
LINE
  5
64
330
1F
100
AcDbEntity
  8
0
 62
     7
100
AcDbLine
 10
25.16365535804955
 20
3.943008178368899
 30
0.0
 11
24.83380879282557
 21
0.0045417279328026
 31
0.0
  0
LINE
  5
65
330
1F
100
AcDbEntity
  8
0
 62
     7
100
AcDbLine
 10
5.9636314121736
 20
30.00454172793272
 30
0.0
 11
25.16365535804955
 21
30.00454172793272
 31
0.0
  0
ARC
  5
66
330
1F
100
AcDbEntity
  8
0
 62
     7
100
AcDbCircle
 10
5.9636314121736
 20
15.75840752967718
 30
0.0
 40
0.9846166126090274
100
AcDbArc
 50
90.0
 51
179.9999999999996
  0
ARC
  5
67
330
1F
100
AcDbEntity
  8
0
 62
     7
100
AcDbCircle
 10
25.16365535804967
 20
15.7584075296772
 30
0.0
 40
0.9846166126090099
100
AcDbArc
 50
359.9999999999994
 51
90.0000000000244
  0
ARC
  5
68
330
1F
100
AcDbEntity
  8
0
 62
     7
100
AcDbCircle
 10
25.16365535804955
 20
29.0199251153237
 30
0.0
 40
0.9846166126090252
100
AcDbArc
 50
0.0000139999996998
 51
90.0
  0
ARC
  5
69
330
1F
100
AcDbEntity
  8
0
 62
     7
100
AcDbCircle
 10
5.9636314121736
 20
29.01992511532369
 30
0.0
 40
0.9846166126090274
100
AcDbArc
 50
90.0
 51
179.9999860000001
  0
LINE
  5
6A
330
1F
100
AcDbEntity
  8
0
 62
     7
100
AcDbLine
 10
77.12949923689821
 20
3.943008876695413
 30
0.0
 11
77.12949923689821
 21
23.63534515220157
 31
0.0
  0
LINE
  5
6B
330
1F
100
AcDbEntity
  8
0
 62
     7
100
AcDbLine
 10
48.31064472087935
 20
0.0045417279328026
 30
0.0
 11
49.29526153465459
 21
0.0045417161173999
 31
0.0
  0
LINE
  5
6C
330
1F
100
AcDbEntity
  8
0
 62
     7
100
AcDbLine
 10
74.1707257115033
 20
0.0045416215941867
 30
0.0
 11
73.18610889772806
 21
0.0045416215941867
 31
0.0
  0
LINE
  5
6D
330
1F
100
AcDbEntity
  8
0
 62
     7
100
AcDbLine
 10
74.500572344118
 20
3.943008876695413
 30
0.0
 11
74.1707257115033
 21
0.0045416215941865
 31
0.0
  0
LINE
  5
6E
330
1F
100
AcDbEntity
  8
0
 62
     7
100
AcDbLine
 10
72.85626226511324
 20
3.943008876695413
 30
0.0
 11
73.18610889772806
 21
0.0045416215941865
 31
0.0
  0
LINE
  5
6F
330
1F
100
AcDbEntity
  8
0
 62
     7
100
AcDbLine
 10
49.29526153465459
 20
0.0045417161173999
 30
0.0
 11
51.16452707125661
 21
3.213581178185692
 31
0.0
  0
LINE
  5
70
330
1F
100
AcDbEntity
  8
0
 62
     7
100
AcDbLine
 10
77.12949923689821
 20
23.63534515220157
 30
0.0
 11
53.4986957062908
 21
23.63534515220157
 31
0.0
  0
LINE
  5
71
330
1F
100
AcDbEntity
  8
0
 62
     7
100
AcDbLine
 10
49.29526158093161
 20
3.943008971218627
 30
0.0
 11
48.31064472087935
 21
0.0045417279328026
 31
0.0
  0
LINE
  5
72
330
1F
100
AcDbEntity
  8
0
 62
     7
100
AcDbLine
 10
53.4986957062908
 20
23.63534515220157
 30
0.0
 11
45.62176119608826
 21
21.0064182594215
 31
0.0
  0
LINE
  5
73
330
1F
100
AcDbEntity
  8
0
 62
     7
100
AcDbLine
 10
46.61911761432425
 20
28.783948513586
 30
0.0
 11
50.29602893137992
 21
29.91719130653635
 31
0.0
  0
LINE
  5
74
330
1F
100
AcDbEntity
  8
0
 62
     7
100
AcDbLine
 10
46.42587946774547
 20
21.27542619678188
 30
0.0
 11
45.9258799606168
 21
27.79096150595414
 31
0.0
  0
ARC
  5
75
330
1F
100
AcDbEntity
  8
0
 62
     7
100
AcDbCircle
 10
50.87603415085091
 20
28.03531059150045
 30
0.0
 40
1.969233627550712
100
AcDbArc
 50
41.01433346320107
 51
107.1295644995986
  0
ARC
  5
76
330
1F
100
AcDbEntity
  8
0
 62
     7
100
AcDbCircle
 10
36.76020987211014
 20
15.75841064199895
 30
0.0
 40
20.67695308928194
100
AcDbArc
 50
22.39528271609934
 51
41.0143334631989
  0
ARC
  5
77
330
1F
100
AcDbEntity
  8
0
 62
     7
100
AcDbCircle
 10
46.90912022405969
 20
27.84300815656042
 30
0.0
 40
0.9846168137752758
100
AcDbArc
 50
107.1295644995745
 51
183.0300558081015
  0
ENDSEC
  0
SECTION
  2
OBJECTS
  0
DICTIONARY
  5
C
330
0
100
AcDbDictionary
  3
ACAD_GROUP
350
D
  3
ACAD_LAYOUT
350
1A
  3
ACAD_MLINESTYLE
350
17
  3
ACAD_PLOTSETTINGS
350
19
  3
ACDBHEADERROUNDTRIPXREC
350
78
  0
DICTIONARY
  5
98
330
29
100
AcDbDictionary
280
     1
  3
ACAD_XREC_ROUNDTRIP
360
99
  0
DICTIONARY
  5
D
102
{ACAD_REACTORS
330
C
102
}
330
C
100
AcDbDictionary
  0
DICTIONARY
  5
1A
102
{ACAD_REACTORS
330
C
102
}
330
C
100
AcDbDictionary
  0
DICTIONARY
  5
17
102
{ACAD_REACTORS
330
C
102
}
330
C
100
AcDbDictionary
  3
STANDARD
350
18
  0
DICTIONARY
  5
19
102
{ACAD_REACTORS
330
C
102
}
330
C
100
AcDbDictionary
  0
DICTIONARY
  5
78
102
{ACAD_REACTORS
330
C
102
}
330
C
100
AcDbDictionary
  3
CEPSNTYPE
350
81
  3
DIMSTYLEDATA
350
97
  3
FINGERPRINTGUID
350
82
  3
HYPERLINKBASE
350
7B
  3
INSUNITS
350
80
  3
LAYOUTDICT
350
7D
  3
LWETCUNION
350
7F
  3
PLOTSETDICT
350
7E
  3
PSVPSCALE
350
84
  3
PUCSBASE
350
87
  3
PUCSORGBACK
350
8D
  3
PUCSORGBOTTOM
350
89
  3
PUCSORGFRONT
350
8C
  3
PUCSORGLEFT
350
8A
  3
PUCSORGRIGHT
350
8B
  3
PUCSORGTOP
350
88
  3
PUCSORTHOREF
350
85
  3
PUCSORTHOVIEW
350
86
  3
STYLESHEET
350
7C
  3
TSTACKALIGN
350
79
  3
TSTACKSIZE
350
7A
  3
UCSBASE
350
90
  3
UCSORGBACK
350
96
  3
UCSORGBOTTOM
350
92
  3
UCSORGFRONT
350
95
  3
UCSORGLEFT
350
93
  3
UCSORGRIGHT
350
94
  3
UCSORGTOP
350
91
  3
UCSORTHOREF
350
8E
  3
UCSORTHOVIEW
350
8F
  3
VERSIONGUID
350
83
  0
XRECORD
  5
99
102
{ACAD_REACTORS
330
98
102
}
330
98
100
AcDbXrecord
102
UCS
 74
     0
 71
     1
 10
0.0
 20
0.0
 30
0.0
 10
1.0
 20
0.0
 30
0.0
 10
0.0
 20
1.0
 30
0.0
146
0.0
 79
     0
102
VIEW
281
     0
  0
MLINESTYLE
  5
18
102
{ACAD_REACTORS
330
17
102
}
330
17
100
AcDbMlineStyle
  2
Standard
 70
     0
  3

 62
   256
 51
90.0
 52
90.0
 71
     2
 49
0.5
 62
   256
  6
BYLAYER
 49
-0.5
 62
   256
  6
BYLAYER
  0
XRECORD
  5
81
102
{ACAD_REACTORS
330
78
102
}
330
78
100
AcDbXrecord
 90
        0
  0
XRECORD
  5
97
102
{ACAD_REACTORS
330
78
102
}
330
78
100
AcDbXrecord
1000
DSTYLE
1002
{
1070
   340
340
11
1002
}
  0
XRECORD
  5
82
102
{ACAD_REACTORS
330
78
102
}
330
78
100
AcDbXrecord
  1
{FAEB1C30-E019-11D5-929B-00C0DF256EC4}
  0
XRECORD
  5
7B
102
{ACAD_REACTORS
330
78
102
}
330
78
100
AcDbXrecord
  1

  0
XRECORD
  5
80
102
{ACAD_REACTORS
330
78
102
}
330
78
100
AcDbXrecord
 90
        4
  0
XRECORD
  5
7D
102
{ACAD_REACTORS
330
78
102
}
330
78
100
AcDbXrecord
340
1A
  0
XRECORD
  5
7F
102
{ACAD_REACTORS
330
78
102
}
330
78
100
AcDbXrecord
 90
     2560
  0
XRECORD
  5
7E
102
{ACAD_REACTORS
330
78
102
}
330
78
100
AcDbXrecord
340
19
  0
XRECORD
  5
84
102
{ACAD_REACTORS
330
78
102
}
330
78
100
AcDbXrecord
 40
0.0
  0
XRECORD
  5
87
102
{ACAD_REACTORS
330
78
102
}
330
78
100
AcDbXrecord
340
0
  0
XRECORD
  5
8D
102
{ACAD_REACTORS
330
78
102
}
330
78
100
AcDbXrecord
 10
0.0
 20
0.0
 30
0.0
  0
XRECORD
  5
89
102
{ACAD_REACTORS
330
78
102
}
330
78
100
AcDbXrecord
 10
0.0
 20
0.0
 30
0.0
  0
XRECORD
  5
8C
102
{ACAD_REACTORS
330
78
102
}
330
78
100
AcDbXrecord
 10
0.0
 20
0.0
 30
0.0
  0
XRECORD
  5
8A
102
{ACAD_REACTORS
330
78
102
}
330
78
100
AcDbXrecord
 10
0.0
 20
0.0
 30
0.0
  0
XRECORD
  5
8B
102
{ACAD_REACTORS
330
78
102
}
330
78
100
AcDbXrecord
 10
0.0
 20
0.0
 30
0.0
  0
XRECORD
  5
88
102
{ACAD_REACTORS
330
78
102
}
330
78
100
AcDbXrecord
 10
0.0
 20
0.0
 30
0.0
  0
XRECORD
  5
85
102
{ACAD_REACTORS
330
78
102
}
330
78
100
AcDbXrecord
340
0
  0
XRECORD
  5
86
102
{ACAD_REACTORS
330
78
102
}
330
78
100
AcDbXrecord
 70
     0
  0
XRECORD
  5
7C
102
{ACAD_REACTORS
330
78
102
}
330
78
100
AcDbXrecord
  1

  0
XRECORD
  5
79
102
{ACAD_REACTORS
330
78
102
}
330
78
100
AcDbXrecord
 90
        1
  0
XRECORD
  5
7A
102
{ACAD_REACTORS
330
78
102
}
330
78
100
AcDbXrecord
 90
       70
  0
XRECORD
  5
90
102
{ACAD_REACTORS
330
78
102
}
330
78
100
AcDbXrecord
340
0
  0
XRECORD
  5
96
102
{ACAD_REACTORS
330
78
102
}
330
78
100
AcDbXrecord
 10
0.0
 20
0.0
 30
0.0
  0
XRECORD
  5
92
102
{ACAD_REACTORS
330
78
102
}
330
78
100
AcDbXrecord
 10
0.0
 20
0.0
 30
0.0
  0
XRECORD
  5
95
102
{ACAD_REACTORS
330
78
102
}
330
78
100
AcDbXrecord
 10
0.0
 20
0.0
 30
0.0
  0
XRECORD
  5
93
102
{ACAD_REACTORS
330
78
102
}
330
78
100
AcDbXrecord
 10
0.0
 20
0.0
 30
0.0
  0
XRECORD
  5
94
102
{ACAD_REACTORS
330
78
102
}
330
78
100
AcDbXrecord
 10
0.0
 20
0.0
 30
0.0
  0
XRECORD
  5
91
102
{ACAD_REACTORS
330
78
102
}
330
78
100
AcDbXrecord
 10
0.0
 20
0.0
 30
0.0
  0
XRECORD
  5
8E
102
{ACAD_REACTORS
330
78
102
}
330
78
100
AcDbXrecord
340
0
  0
XRECORD
  5
8F
102
{ACAD_REACTORS
330
78
102
}
330
78
100
AcDbXrecord
 70
     0
  0
XRECORD
  5
83
102
{ACAD_REACTORS
330
78
102
}
330
78
100
AcDbXrecord
  1
{FAEB1C32-E019-11D5-929B-00C0DF256EC4}
  0
ENDSEC
  0
EOF
