  0
SECTION
  2
HEADER
  9
$ACADVER
  1
AC1014
  9
$ACADMAINTVER
 70
     9
  9
$DWGCODEPAGE
  3
ANSI_1252
  9
$INSBASE
 10
0.0
 20
0.0
 30
0.0
  9
$EXTMIN
 10
1.000000000000000E+20
 20
1.000000000000000E+20
 30
1.000000000000000E+20
  9
$EXTMAX
 10
-1.000000000000000E+20
 20
-1.000000000000000E+20
 30
-1.000000000000000E+20
  9
$LIMMIN
 10
0.0
 20
0.0
  9
$LIMMAX
 10
12.0
 20
9.0
  9
$ORTHOMODE
 70
     0
  9
$REGENMODE
 70
     1
  9
$FILLMODE
 70
     1
  9
$QTEXTMODE
 70
     0
  9
$MIRRTEXT
 70
     1
  9
$DRAGMODE
 70
     2
  9
$LTSCALE
 40
1.0
  9
$OSMODE
 70
    37
  9
$ATTMODE
 70
     1
  9
$TEXTSIZE
 40
0.2
  9
$TRACEWID
 40
0.05
  9
$TEXTSTYLE
  7
STANDARD
  9
$CLAYER
  8
DEFAULT
  9
$CELTYPE
  6
BYLAYER
  9
$CECOLOR
 62
   256
  9
$CELTSCALE
 40
1.0
  9
$DELOBJ
 70
     1
  9
$DISPSILH
 70
     0
  9
$DIMSCALE
 40
1.0
  9
$DIMASZ
 40
0.18
  9
$DIMEXO
 40
0.0625
  9
$DIMDLI
 40
0.38
  9
$DIMRND
 40
0.0
  9
$DIMDLE
 40
0.0
  9
$DIMEXE
 40
0.18
  9
$DIMTP
 40
0.0
  9
$DIMTM
 40
0.0
  9
$DIMTXT
 40
0.18
  9
$DIMCEN
 40
0.09
  9
$DIMTSZ
 40
0.0
  9
$DIMTOL
 70
     0
  9
$DIMLIM
 70
     0
  9
$DIMTIH
 70
     1
  9
$DIMTOH
 70
     1
  9
$DIMSE1
 70
     0
  9
$DIMSE2
 70
     0
  9
$DIMTAD
 70
     0
  9
$DIMZIN
 70
     0
  9
$DIMBLK
  1

  9
$DIMASO
 70
     1
  9
$DIMSHO
 70
     1
  9
$DIMPOST
  1

  9
$DIMAPOST
  1

  9
$DIMALT
 70
     0
  9
$DIMALTD
 70
     2
  9
$DIMALTF
 40
25.4
  9
$DIMLFAC
 40
1.0
  9
$DIMTOFL
 70
     0
  9
$DIMTVP
 40
0.0
  9
$DIMTIX
 70
     0
  9
$DIMSOXD
 70
     0
  9
$DIMSAH
 70
     0
  9
$DIMBLK1
  1

  9
$DIMBLK2
  1

  9
$DIMSTYLE
  2
STANDARD
  9
$DIMCLRD
 70
     0
  9
$DIMCLRE
 70
     0
  9
$DIMCLRT
 70
     0
  9
$DIMTFAC
 40
1.0
  9
$DIMGAP
 40
0.09
  9
$DIMJUST
 70
     0
  9
$DIMSD1
 70
     0
  9
$DIMSD2
 70
     0
  9
$DIMTOLJ
 70
     1
  9
$DIMTZIN
 70
     0
  9
$DIMALTZ
 70
     0
  9
$DIMALTTZ
 70
     0
  9
$DIMFIT
 70
     3
  9
$DIMUPT
 70
     0
  9
$DIMUNIT
 70
     2
  9
$DIMDEC
 70
     4
  9
$DIMTDEC
 70
     4
  9
$DIMALTU
 70
     2
  9
$DIMALTTD
 70
     2
  9
$DIMTXSTY
  7
STANDARD
  9
$DIMAUNIT
 70
     0
  9
$LUNITS
 70
     2
  9
$LUPREC
 70
     0
  9
$SKETCHINC
 40
0.1
  9
$FILLETRAD
 40
0.5
  9
$AUNITS
 70
     0
  9
$AUPREC
 70
     0
  9
$MENU
  1
.
  9
$ELEVATION
 40
0.0
  9
$PELEVATION
 40
0.0
  9
$THICKNESS
 40
0.0
  9
$LIMCHECK
 70
     0
  9
$CHAMFERA
 40
0.5
  9
$CHAMFERB
 40
0.5
  9
$CHAMFERC
 40
1.0
  9
$CHAMFERD
 40
0.0
  9
$SKPOLY
 70
     0
  9
$TDCREATE
 40
2453769.437695209
  9
$TDUPDATE
 40
2453769.43769522
  9
$TDINDWG
 40
0.0000000116
  9
$TDUSRTIMER
 40
0.0000000116
  9
$USRTIMER
 70
     1
  9
$ANGBASE
 50
0.0
  9
$ANGDIR
 70
     0
  9
$PDMODE
 70
     0
  9
$PDSIZE
 40
0.0
  9
$PLINEWID
 40
0.0
  9
$COORDS
 70
     1
  9
$SPLFRAME
 70
     0
  9
$SPLINETYPE
 70
     6
  9
$SPLINESEGS
 70
     8
  9
$ATTDIA
 70
     0
  9
$ATTREQ
 70
     1
  9
$HANDLING
 70
     1
  9
$HANDSEED
  5
C2
  9
$SURFTAB1
 70
     6
  9
$SURFTAB2
 70
     6
  9
$SURFTYPE
 70
     6
  9
$SURFU
 70
     6
  9
$SURFV
 70
     6
  9
$UCSNAME
  2

  9
$UCSORG
 10
0.0
 20
0.0
 30
0.0
  9
$UCSXDIR
 10
1.0
 20
0.0
 30
0.0
  9
$UCSYDIR
 10
0.0
 20
1.0
 30
0.0
  9
$PUCSNAME
  2

  9
$PUCSORG
 10
0.0
 20
0.0
 30
0.0
  9
$PUCSXDIR
 10
1.0
 20
0.0
 30
0.0
  9
$PUCSYDIR
 10
0.0
 20
1.0
 30
0.0
  9
$USERI1
 70
     0
  9
$USERI2
 70
     0
  9
$USERI3
 70
     0
  9
$USERI4
 70
     0
  9
$USERI5
 70
     0
  9
$USERR1
 40
0.0
  9
$USERR2
 40
0.0
  9
$USERR3
 40
0.0
  9
$USERR4
 40
0.0
  9
$USERR5
 40
0.0
  9
$WORLDVIEW
 70
     1
  9
$SHADEDGE
 70
     3
  9
$SHADEDIF
 70
    70
  9
$TILEMODE
 70
     1
  9
$MAXACTVP
 70
    64
  9
$PINSBASE
 10
0.0
 20
0.0
 30
0.0
  9
$PLIMCHECK
 70
     0
  9
$PEXTMIN
 10
1.000000000000000E+20
 20
1.000000000000000E+20
 30
1.000000000000000E+20
  9
$PEXTMAX
 10
-1.000000000000000E+20
 20
-1.000000000000000E+20
 30
-1.000000000000000E+20
  9
$PLIMMIN
 10
0.0
 20
0.0
  9
$PLIMMAX
 10
12.0
 20
9.0
  9
$UNITMODE
 70
     0
  9
$VISRETAIN
 70
     1
  9
$PLINEGEN
 70
     0
  9
$PSLTSCALE
 70
     1
  9
$TREEDEPTH
 70
  3020
  9
$PICKSTYLE
 70
     1
  9
$CMLSTYLE
  2
STANDARD
  9
$CMLJUST
 70
     0
  9
$CMLSCALE
 40
1.0
  9
$PROXYGRAPHICS
 70
     1
  9
$MEASUREMENT
 70
     0
  0
ENDSEC
  0
SECTION
  2
CLASSES
  0
CLASS
  1
ACDBDICTIONARYWDFLT
  2
AcDbDictionaryWithDefault
  3
ObjectDBX Classes
 90
        0
280
     0
281
     0
  0
CLASS
  1
XRECORD
  2
AcDbXrecord
  3
AutoCAD 2000
 90
        0
280
     0
281
     0
  0
CLASS
  1
LWPOLYLINE
  2
AcDbPolyline
  3
AutoCAD 2000
 90
        0
280
     0
281
     1
  0
CLASS
  1
HATCH
  2
AcDbHatch
  3
AutoCAD 2000
 90
        0
280
     0
281
     1
  0
CLASS
  1
ACDBPLACEHOLDER
  2
AcDbPlaceHolder
  3
ObjectDBX Classes
 90
        0
280
     0
281
     0
  0
CLASS
  1
LAYOUT
  2
AcDbLayout
  3
ObjectDBX Classes
 90
        0
280
     0
281
     0
  0
ENDSEC
  0
SECTION
  2
TABLES
  0
TABLE
  2
VPORT
  5
8
330
0
100
AcDbSymbolTable
 70
     2
  0
VPORT
  5
29
102
{ACAD_XDICTIONARY
360
C0
102
}
330
8
100
AcDbSymbolTableRecord
100
AcDbViewportTableRecord
  2
*ACTIVE
 70
     0
 10
0.0
 20
0.0
 11
1.0
 21
1.0
 12
61.81534508210147
 22
34.32499088488351
 13
0.0
 23
0.0
 14
0.5
 24
0.5
 15
0.5
 25
0.5
 16
0.0
 26
0.0
 36
80.21230066091221
 17
0.0
 27
0.0
 37
0.0
 40
68.61663208498707
 41
1.972972972850329
 42
50.0
 43
0.0
 44
0.0
 50
0.0
 51
0.0
 71
     0
 72
   100
 73
     1
 74
     3
 75
     0
 76
     0
 77
     0
 78
     0
  0
ENDTAB
  0
TABLE
  2
LTYPE
  5
5
330
0
100
AcDbSymbolTable
 70
     1
  0
LTYPE
  5
14
330
5
100
AcDbSymbolTableRecord
100
AcDbLinetypeTableRecord
  2
BYBLOCK
 70
     0
  3

 72
    65
 73
     0
 40
0.0
  0
LTYPE
  5
15
330
5
100
AcDbSymbolTableRecord
100
AcDbLinetypeTableRecord
  2
BYLAYER
 70
     0
  3

 72
    65
 73
     0
 40
0.0
  0
LTYPE
  5
16
330
5
100
AcDbSymbolTableRecord
100
AcDbLinetypeTableRecord
  2
CONTINUOUS
 70
     0
  3
Solid line
 72
    65
 73
     0
 40
0.0
  0
ENDTAB
  0
TABLE
  2
LAYER
  5
2
330
0
100
AcDbSymbolTable
 70
     2
  0
LAYER
  5
10
330
2
100
AcDbSymbolTableRecord
100
AcDbLayerTableRecord
  2
0
 70
     0
 62
     7
  6
CONTINUOUS
  0
LAYER
  5
5C
330
2
100
AcDbSymbolTableRecord
100
AcDbLayerTableRecord
  2
DEFAULT
 70
     0
 62
     7
  6
CONTINUOUS
  0
ENDTAB
  0
TABLE
  2
STYLE
  5
3
330
0
100
AcDbSymbolTable
 70
     1
  0
STYLE
  5
11
330
3
100
AcDbSymbolTableRecord
100
AcDbTextStyleTableRecord
  2
STANDARD
 70
     0
 40
0.0
 41
1.0
 50
0.0
 71
     0
 42
0.2
  3
txt
  4

  0
ENDTAB
  0
TABLE
  2
VIEW
  5
6
330
0
100
AcDbSymbolTable
 70
     0
  0
ENDTAB
  0
TABLE
  2
UCS
  5
7
330
0
100
AcDbSymbolTable
 70
     0
  0
ENDTAB
  0
TABLE
  2
APPID
  5
9
330
0
100
AcDbSymbolTable
 70
     1
  0
APPID
  5
12
330
9
100
AcDbSymbolTableRecord
100
AcDbRegAppTableRecord
  2
ACAD
 70
     0
  0
ENDTAB
  0
TABLE
  2
DIMSTYLE
  5
A
330
0
100
AcDbSymbolTable
 70
     1
  0
DIMSTYLE
105
27
330
A
100
AcDbSymbolTableRecord
100
AcDbDimStyleTableRecord
  2
STANDARD
 70
     0
  3

  4

  5

  6

  7

 40
1.0
 41
0.18
 42
0.0625
 43
0.38
 44
0.18
 45
0.0
 46
0.0
 47
0.0
 48
0.0
140
0.18
141
0.09
142
0.0
143
25.4
144
1.0
145
0.0
146
1.0
147
0.09
 71
     0
 72
     0
 73
     1
 74
     1
 75
     0
 76
     0
 77
     0
 78
     0
170
     0
171
     2
172
     0
173
     0
174
     0
175
     0
176
     0
177
     0
178
     0
270
     2
271
     4
272
     4
273
     2
274
     2
340
11
275
     0
280
     0
281
     0
282
     0
283
     1
284
     0
285
     0
286
     0
287
     3
288
     0
  0
ENDTAB
  0
TABLE
  2
BLOCK_RECORD
  5
1
330
0
100
AcDbSymbolTable
 70
     1
  0
BLOCK_RECORD
  5
1F
330
1
100
AcDbSymbolTableRecord
100
AcDbBlockTableRecord
  2
*MODEL_SPACE
  0
BLOCK_RECORD
  5
1B
330
1
100
AcDbSymbolTableRecord
100
AcDbBlockTableRecord
  2
*PAPER_SPACE
  0
ENDTAB
  0
ENDSEC
  0
SECTION
  2
BLOCKS
  0
BLOCK
  5
20
330
1F
100
AcDbEntity
  8
0
100
AcDbBlockBegin
  2
*MODEL_SPACE
 70
     0
 71
     0
 10
0.0
 20
0.0
 30
0.0
  3
*MODEL_SPACE
  1

  0
ENDBLK
  5
21
330
1F
100
AcDbEntity
  8
0
100
AcDbBlockEnd
  0
BLOCK
  5
1C
330
1B
100
AcDbEntity
 67
     1
  8
0
100
AcDbBlockBegin
  2
*PAPER_SPACE
 70
     0
 71
     0
 10
0.0
 20
0.0
 30
0.0
  3
*PAPER_SPACE
  1

  0
ENDBLK
  5
1D
330
1B
100
AcDbEntity
 67
     1
  8
0
100
AcDbBlockEnd
  0
ENDSEC
  0
SECTION
  2
ENTITIES
  0
LINE
  5
2A
330
1F
100
AcDbEntity
  8
0
 62
     7
100
AcDbLine
 10
0.0219235862492191
 20
38.59943455199098
 30
0.0
 11
0.0219235862492191
 21
68.63295479066395
 31
0.0
  0
LINE
  5
2B
330
1F
100
AcDbEntity
  8
0
 62
     7
100
AcDbLine
 10
4.714660164772374
 20
38.59943455199098
 30
0.0
 11
0.0219235862492191
 21
38.59943455199098
 31
0.0
  0
LINE
  5
2C
330
1F
100
AcDbEntity
  8
0
 62
     7
100
AcDbLine
 10
4.714660164772374
 20
61.12457473099572
 30
0.0
 11
0.0219235862492191
 21
61.12457473099572
 31
0.0
  0
LINE
  5
2D
330
1F
100
AcDbEntity
  8
0
 62
     7
100
AcDbLine
 10
4.714660164772374
 20
68.63295479066395
 30
0.0
 11
0.0219235862492191
 21
68.63295479066396
 31
0.0
  0
LINE
  5
2E
330
1F
100
AcDbEntity
  8
0
 62
     7
100
AcDbLine
 10
4.722381572406281
 20
67.49385271654089
 30
0.0
 11
4.762882970524104
 21
67.71094886231104
 31
0.0
  0
LINE
  5
2F
330
1F
100
AcDbEntity
  8
0
 62
     7
100
AcDbLine
 10
4.762882970524104
 20
67.71094886231104
 30
0.0
 11
5.338519331366114
 21
68.29297735968544
 31
0.0
  0
LINE
  5
30
330
1F
100
AcDbEntity
  8
0
 62
     7
100
AcDbLine
 10
5.338519331366114
 20
68.29297735968544
 30
0.0
 11
5.562234063792481
 21
68.33612864758273
 31
0.0
  0
ARC
  5
31
330
1F
100
AcDbEntity
  8
0
 62
     7
100
AcDbCircle
 10
5.653207672230888
 20
56.43183719370309
 30
0.0
 40
0.9385475074585108
100
AcDbArc
 50
89.99999999999859
 51
180.0000000000022
  0
ARC
  5
32
330
1F
100
AcDbEntity
  8
0
 62
     7
100
AcDbCircle
 10
5.6532076722309
 20
39.5379820594495
 30
0.0
 40
0.9385475074585258
100
AcDbArc
 50
180.0000000000009
 51
270.0000000000007
  0
ARC
  5
33
330
1F
100
AcDbEntity
  8
0
 62
     7
100
AcDbCircle
 10
28.6476216049649
 20
39.53798205944953
 30
0.0
 40
0.9385475074585508
100
AcDbArc
 50
270.0000000000007
 51
359.9999999999996
  0
ARC
  5
34
330
1F
100
AcDbEntity
  8
0
 62
     7
100
AcDbCircle
 10
28.64762160496492
 20
56.43183719370308
 30
0.0
 40
0.9385475074585274
100
AcDbArc
 50
359.9999999999992
 51
90.00000000000087
  0
ARC
  5
35
330
1F
100
AcDbEntity
  8
0
 62
     7
100
AcDbCircle
 10
28.64762160496492
 20
58.30893220862012
 30
0.0
 40
0.9385475074585241
100
AcDbArc
 50
269.9999999999996
 51
0.0000000000013013
  0
ARC
  5
36
330
1F
100
AcDbEntity
  8
0
 62
     7
100
AcDbCircle
 10
5.653207672230905
 20
58.30893220862014
 30
0.0
 40
0.9385475074585308
100
AcDbArc
 50
180.0000000000017
 51
270.0000000000004
  0
LINE
  5
37
330
1F
100
AcDbEntity
  8
0
 62
     7
100
AcDbLine
 10
28.64762160496491
 20
57.3703847011616
 30
0.0
 11
5.653207672230913
 21
57.3703847011616
 31
0.0
  0
LINE
  5
38
330
1F
100
AcDbEntity
  8
0
 62
     7
100
AcDbLine
 10
28.64762160496491
 20
38.59943455199098
 30
0.0
 11
5.653207672230913
 21
38.59943455199098
 31
0.0
  0
LINE
  5
39
330
1F
100
AcDbEntity
  8
0
 62
     7
100
AcDbLine
 10
78.39063950026703
 20
38.59944360897443
 30
0.0
 11
55.39622556753304
 21
38.59944360897443
 31
0.0
  0
LINE
  5
3A
330
1F
100
AcDbEntity
  8
0
 62
     7
100
AcDbLine
 10
78.39063950026703
 20
57.37039375814506
 30
0.0
 11
55.39622556753304
 21
57.37039375814506
 31
0.0
  0
ARC
  5
3B
330
1F
100
AcDbEntity
  8
0
 62
     7
100
AcDbCircle
 10
55.39622556753308
 20
58.30894126560361
 30
0.0
 40
0.9385475074585574
100
AcDbArc
 50
180.0000000000026
 51
269.9999999999996
  0
ARC
  5
3C
330
1F
100
AcDbEntity
  8
0
 62
     7
100
AcDbCircle
 10
78.39063950026709
 20
58.30894126560359
 30
0.0
 40
0.9385475074585374
100
AcDbArc
 50
270.0
 51
0.0000000000004338
  0
ARC
  5
3D
330
1F
100
AcDbEntity
  8
0
 62
     7
100
AcDbCircle
 10
78.39063950026704
 20
56.43184625068651
 30
0.0
 40
0.9385475074585508
100
AcDbArc
 50
0.0
 51
90.00000000000087
  0
ARC
  5
3E
330
1F
100
AcDbEntity
  8
0
 62
     7
100
AcDbCircle
 10
78.39063950026707
 20
39.53799111643295
 30
0.0
 40
0.9385475074585308
100
AcDbArc
 50
270.0000000000009
 51
0.0000000000008675
  0
ARC
  5
3F
330
1F
100
AcDbEntity
  8
0
 62
     7
100
AcDbCircle
 10
55.39622556753308
 20
39.53799111643298
 30
0.0
 40
0.9385475074585574
100
AcDbArc
 50
180.0000000000026
 51
269.9999999999996
  0
ARC
  5
40
330
1F
100
AcDbEntity
  8
0
 62
     7
100
AcDbCircle
 10
55.39622556753304
 20
56.43184625068653
 30
0.0
 40
0.9385475074585175
100
AcDbArc
 50
90.0
 51
180.0000000000017
  0
LINE
  5
41
330
1F
100
AcDbEntity
  8
0
 62
     7
100
AcDbLine
 10
84.02192358624875
 20
38.59944360897443
 30
0.0
 11
84.02192358624875
 21
68.6329638476474
 31
0.0
  0
LINE
  5
42
330
1F
100
AcDbEntity
  8
0
 62
     7
100
AcDbLine
 10
79.32918700772559
 20
38.59944360897443
 30
0.0
 11
84.02192358624875
 21
38.59944360897443
 31
0.0
  0
LINE
  5
43
330
1F
100
AcDbEntity
  8
0
 62
     7
100
AcDbLine
 10
79.32918700772559
 20
61.12458378797916
 30
0.0
 11
84.02192358624875
 21
61.12458378797916
 31
0.0
  0
LINE
  5
44
330
1F
100
AcDbEntity
  8
0
 62
     7
100
AcDbLine
 10
79.32918700772559
 20
68.6329638476474
 30
0.0
 11
84.02192358624875
 21
68.63296384764742
 31
0.0
  0
ARC
  5
45
330
1F
100
AcDbEntity
  8
0
 62
     7
100
AcDbCircle
 10
30.52471661988196
 20
56.4318371937031
 30
0.0
 40
0.9385475074585108
100
AcDbArc
 50
90.00000000000043
 51
180.0000000000022
  0
ARC
  5
46
330
1F
100
AcDbEntity
  8
0
 62
     7
100
AcDbCircle
 10
30.52471661988197
 20
39.5379820594495
 30
0.0
 40
0.9385475074585241
100
AcDbArc
 50
180.0
 51
270.0000000000013
  0
ARC
  5
47
330
1F
100
AcDbEntity
  8
0
 62
     7
100
AcDbCircle
 10
53.51913055261598
 20
39.53798205944955
 30
0.0
 40
0.9385475074585574
100
AcDbArc
 50
270.0000000000022
 51
359.9999999999992
  0
ARC
  5
48
330
1F
100
AcDbEntity
  8
0
 62
     7
100
AcDbCircle
 10
53.51913055261596
 20
56.43183719370306
 30
0.0
 40
0.9385475074585574
100
AcDbArc
 50
0.0000000000008675
 51
90.00000000000087
  0
ARC
  5
49
330
1F
100
AcDbEntity
  8
0
 62
     7
100
AcDbCircle
 10
53.51913055261598
 20
58.30893220862016
 30
0.0
 40
0.9385475074585441
100
AcDbArc
 50
270.0000000000022
 51
0.0
  0
ARC
  5
4A
330
1F
100
AcDbEntity
  8
0
 62
     7
100
AcDbCircle
 10
30.524716619882
 20
58.30893220862016
 30
0.0
 40
0.9385475074585508
100
AcDbArc
 50
180.0000000000026
 51
270.0000000000004
  0
LINE
  5
4B
330
1F
100
AcDbEntity
  8
0
 62
     7
100
AcDbLine
 10
53.51913055261596
 20
57.37038470116161
 30
0.0
 11
30.52471661988196
 21
57.37038470116161
 31
0.0
  0
LINE
  5
4C
330
1F
100
AcDbEntity
  8
0
 62
     7
100
AcDbLine
 10
53.51913055261596
 20
38.599434551991
 30
0.0
 11
30.52471661988196
 21
38.599434551991
 31
0.0
  0
LINE
  5
4D
330
1F
100
AcDbEntity
  8
0
 62
     7
100
AcDbLine
 10
5.653207672230911
 20
68.3443776035177
 30
0.0
 11
28.58616911242408
 21
68.3443776035177
 31
0.0
  0
ARC
  5
4E
330
1F
100
AcDbEntity
  8
0
 62
     7
100
AcDbCircle
 10
28.58616911242408
 20
67.3443776035177
 30
0.0
 40
1.0
100
AcDbArc
 50
0.0000000000920071
 51
90.0
  0
ARC
  5
4F
330
1F
100
AcDbEntity
  8
0
 62
     7
100
AcDbCircle
 10
30.5861691124228
 20
67.34437760351771
 30
0.0
 40
1.0
100
AcDbArc
 50
90.0
 51
179.9999999999088
  0
LINE
  5
50
330
1F
100
AcDbEntity
  8
0
 62
     7
100
AcDbLine
 10
30.5861691124228
 20
68.34437760351771
 30
0.0
 11
53.45767806007513
 21
68.34437760351771
 31
0.0
  0
ARC
  5
51
330
1F
100
AcDbEntity
  8
0
 62
     7
100
AcDbCircle
 10
53.45767806007512
 20
67.34437760351771
 30
0.0
 40
1.0
100
AcDbArc
 50
359.9999999999633
 51
89.99999999999959
  0
ARC
  5
52
330
1F
100
AcDbEntity
  8
0
 62
     7
100
AcDbCircle
 10
55.45767806007729
 20
67.34438666050114
 30
0.0
 40
1.0
100
AcDbArc
 50
89.99999999999959
 51
180.0005189269615
  0
LINE
  5
53
330
1F
100
AcDbEntity
  8
0
 62
     7
100
AcDbLine
 10
55.45767806007729
 20
68.34438666050114
 30
0.0
 11
78.32918700772621
 21
68.34438666050114
 31
0.0
  0
ARC
  5
54
330
1F
100
AcDbEntity
  8
0
 62
     7
100
AcDbCircle
 10
78.32918700772619
 20
67.34438666050114
 30
0.0
 40
1.0
100
AcDbArc
 50
359.9999999999593
 51
89.99999999999919
  0
ARC
  5
55
330
1F
100
AcDbEntity
  8
0
 62
     7
100
AcDbCircle
 10
78.32918700772611
 20
63.20817997405728
 30
0.0
 40
1.0
100
AcDbArc
 50
270.0000000000057
 51
359.999999999989
  0
ARC
  5
56
330
1F
100
AcDbEntity
  8
0
 62
     7
100
AcDbCircle
 10
53.45767806009826
 20
63.20817091707296
 30
0.0
 40
1.0
100
AcDbArc
 50
270.0000000000435
 51
359.9999999997228
  0
LINE
  5
57
330
1F
100
AcDbEntity
  8
0
 62
     7
100
AcDbLine
 10
53.45767806009902
 20
62.20817091707296
 30
0.0
 11
30.5861691124228
 21
62.20817091707266
 31
0.0
  0
ARC
  5
58
330
1F
100
AcDbEntity
  8
0
 62
     7
100
AcDbCircle
 10
30.58616911242278
 20
63.20817091707266
 30
0.0
 40
1.0
100
AcDbArc
 50
179.9999999999381
 51
270.0000000000008
  0
ARC
  5
59
330
1F
100
AcDbEntity
  8
0
 62
     7
100
AcDbCircle
 10
28.58616911242278
 20
63.20817091707374
 30
0.0
 40
1.0
100
AcDbArc
 50
270.0000000000741
 51
0.0
  0
LINE
  5
5A
330
1F
100
AcDbEntity
  8
0
 62
     7
100
AcDbLine
 10
28.58616911242408
 20
62.20817091707374
 30
0.0
 11
5.714660164771736
 21
62.20817091707265
 31
0.0
  0
ARC
  5
5B
330
1F
100
AcDbEntity
  8
0
 62
     7
100
AcDbCircle
 10
5.714660164771699
 20
63.20817091707265
 30
0.0
 40
1.0
100
AcDbArc
 50
180.0000000000969
 51
270.0000000000021
  0
LINE
  5
5D
330
1F
100
AcDbEntity
  8
DEFAULT
 62
     7
100
AcDbLine
 10
4.714660164772374
 20
68.63295479066395
 30
0.0
 11
4.714660164772374
 21
38.59943455199098
 31
0.0
  0
LINE
  5
5E
330
1F
100
AcDbEntity
  8
DEFAULT
 62
     7
100
AcDbLine
 10
79.32918700772559
 20
68.6329638476474
 30
0.0
 11
79.32918700772559
 21
38.59944360897443
 31
0.0
  0
ARC
  5
5F
330
1F
100
AcDbEntity
  8
0
 62
     7
100
AcDbCircle
 10
55.45767806009826
 20
63.20817997405579
 30
0.0
 40
1.0
100
AcDbArc
 50
179.9999999997224
 51
269.9999999999719
  0
LINE
  5
60
330
1F
100
AcDbEntity
  8
0
 62
     7
100
AcDbLine
 10
55.45767806009777
 20
62.20817997405579
 30
0.0
 11
78.32918700772621
 21
62.20817997405728
 31
0.0
  0
LINE
  5
61
330
1F
100
AcDbEntity
  8
DEFAULT
 62
     7
100
AcDbLine
 10
29.5861691124228
 20
67.34437760351931
 30
0.0
 11
29.58616911242345
 21
39.5379820594495
 31
0.0
  0
LINE
  5
62
330
1F
100
AcDbEntity
  8
DEFAULT
 62
     7
100
AcDbLine
 10
54.4576780601183
 20
67.34437760351709
 30
0.0
 11
54.45767806007454
 21
39.53798205944953
 31
0.0
  0
ARC
  5
63
330
1F
100
AcDbEntity
  8
0
 62
     7
100
AcDbCircle
 10
94.80237103388548
 20
26.5529484611066
 30
0.0
 40
0.9385475074585318
100
AcDbArc
 50
107.1295644995741
 51
183.0300558080988
  0
ARC
  5
64
330
1F
100
AcDbEntity
  8
0
 62
     7
100
AcDbCircle
 10
85.12831877215353
 20
15.03377804145606
 30
0.0
 40
19.7094976566295
100
AcDbArc
 50
22.39528271609944
 51
41.01433346319905
  0
ARC
  5
65
330
1F
100
AcDbEntity
  8
0
 62
     7
100
AcDbCircle
 10
98.58367674205925
 20
26.73625324370443
 30
0.0
 40
1.877095014917105
100
AcDbArc
 50
41.01433346319983
 51
107.1295644995991
  0
LINE
  5
66
330
1F
100
AcDbEntity
  8
0
 62
     7
100
AcDbLine
 10
94.34174066378039
 20
20.29265756200524
 30
0.0
 11
93.86513566924775
 21
26.50333702494723
 31
0.0
  0
LINE
  5
67
330
1F
100
AcDbEntity
  8
0
 62
     7
100
AcDbLine
 10
94.52593737693822
 20
27.44986309266504
 30
0.0
 11
98.03080942816474
 21
28.53008250775986
 31
0.0
  0
LINE
  5
68
330
1F
100
AcDbEntity
  8
0
 62
     7
100
AcDbLine
 10
101.083626398949
 20
22.54215810112435
 30
0.0
 11
93.57524633928068
 21
20.03623625621006
 31
0.0
  0
LINE
  5
69
330
1F
100
AcDbEntity
  8
0
 62
     7
100
AcDbLine
 10
97.07686705264527
 20
3.771208042054284
 30
0.0
 11
96.13831950107503
 21
0.017018023482736
 31
0.0
  0
LINE
  5
6A
330
1F
100
AcDbEntity
  8
0
 62
     7
100
AcDbLine
 10
123.6087665779537
 20
22.54215810112435
 30
0.0
 11
101.083626398949
 21
22.54215810112435
 31
0.0
  0
LINE
  5
6B
330
1F
100
AcDbEntity
  8
0
 62
     7
100
AcDbLine
 10
97.07686700853358
 20
0.0170180122201646
 30
0.0
 11
98.85867134663846
 21
3.075909498048041
 31
0.0
  0
LINE
  5
6C
330
1F
100
AcDbEntity
  8
0
 62
     7
100
AcDbLine
 10
119.5354703955837
 20
3.771207951953725
 30
0.0
 11
119.8498838105823
 21
0.0170179221196047
 31
0.0
  0
LINE
  5
6D
330
1F
100
AcDbEntity
  8
0
 62
     7
100
AcDbLine
 10
121.1028447330394
 20
3.771207951953725
 30
0.0
 11
120.7884313180408
 21
0.0170179221196047
 31
0.0
  0
LINE
  5
6E
330
1F
100
AcDbEntity
  8
0
 62
     7
100
AcDbLine
 10
120.7884313180408
 20
0.0170179221196047
 30
0.0
 11
119.8498838105823
 21
0.0170179221196047
 31
0.0
  0
LINE
  5
6F
330
1F
100
AcDbEntity
  8
0
 62
     7
100
AcDbLine
 10
96.13831950107503
 20
0.017018023482736
 30
0.0
 11
97.07686700853358
 21
0.0170180122201646
 31
0.0
  0
LINE
  5
70
330
1F
100
AcDbEntity
  8
0
 62
     7
100
AcDbLine
 10
123.6087665779537
 20
3.771207951953725
 30
0.0
 11
123.6087665779537
 21
22.54215810112435
 31
0.0
  0
LINE
  5
71
330
1F
100
AcDbEntity
  8
0
 62
     7
100
AcDbLine
 10
123.6087665779537
 20
3.771207951953725
 30
0.0
 11
101.1599319990189
 21
3.771207994980661
 31
0.0
  0
ARC
  5
72
330
1F
100
AcDbEntity
  8
0
 62
     7
100
AcDbCircle
 10
101.1599319980623
 20
3.271207994968867
 30
0.0
 40
0.5000000000117908
100
AcDbArc
 50
89.99999989038943
 51
107.3540246362537
  0
LINE
  5
73
330
1F
100
AcDbEntity
  8
0
 62
     7
100
AcDbLine
 10
101.0107945014909
 20
3.748447983997658
 30
0.0
 11
97.85212228298325
 21
2.761362915714372
 31
0.0
  0
ARC
  5
74
330
1F
100
AcDbEntity
  8
0
 62
     7
100
AcDbCircle
 10
97.70298478641587
 20
3.238602904732579
 30
0.0
 40
0.5000000000004679
100
AcDbArc
 50
192.1495009331822
 51
287.3540246361729
  0
LINE
  5
75
330
1F
100
AcDbEntity
  8
0
 62
     7
100
AcDbLine
 10
97.21418390090925
 20
3.133371282449106
 30
0.0
 11
93.57524633928068
 21
20.03623625621006
 31
0.0
  0
LINE
  5
76
330
1F
100
AcDbEntity
  8
0
 62
     7
100
AcDbLine
 10
4.714660164772374
 20
22.54216110877242
 30
0.0
 11
0.5219235862487306
 21
22.54216110877291
 31
0.0
  0
ARC
  5
77
330
1F
100
AcDbEntity
  8
0
 62
     7
100
AcDbCircle
 10
0.5219235862492215
 20
22.04216110877291
 30
0.0
 40
0.4999999999999989
100
AcDbArc
 50
90.00000000005629
 51
180.0
  0
LINE
  5
78
330
1F
100
AcDbEntity
  8
0
 62
     7
100
AcDbLine
 10
0.0219235862492191
 20
22.04216110877291
 30
0.0
 11
0.0219235862492191
 21
5.453553012770048
 31
0.0
  0
ARC
  5
79
330
1F
100
AcDbEntity
  8
0
 62
     7
100
AcDbCircle
 10
0.5219235862491336
 20
5.453553012769999
 30
0.0
 40
0.499999999999914
100
AcDbArc
 50
179.9999999999945
 51
238.5032478130198
  0
ARC
  5
7A
330
1F
100
AcDbEntity
  8
0
 62
     7
100
AcDbCircle
 10
4.714660164772417
 20
12.29634790674503
 30
0.0
 40
8.525140620443766
100
AcDbArc
 50
238.5032478130198
 51
270.0000000000002
  0
LINE
  5
7B
330
1F
100
AcDbEntity
  8
0
 62
     7
100
AcDbLine
 10
79.32918700772559
 20
22.54217016575585
 30
0.0
 11
83.52192358624924
 21
22.54217016575585
 31
0.0
  0
ARC
  5
7C
330
1F
100
AcDbEntity
  8
0
 62
     7
100
AcDbCircle
 10
83.52192358624976
 20
22.04217016575636
 30
0.0
 40
0.4999999999994884
100
AcDbArc
 50
359.9999999999984
 51
90.00000000005862
  0
LINE
  5
7D
330
1F
100
AcDbEntity
  8
0
 62
     7
100
AcDbLine
 10
84.02192358624923
 20
22.04217016575635
 30
0.0
 11
84.02192358624875
 21
5.453562069753502
 31
0.0
  0
ARC
  5
7E
330
1F
100
AcDbEntity
  8
0
 62
     7
100
AcDbCircle
 10
83.52192358624883
 20
5.453562069753449
 30
0.0
 40
0.499999999999915
100
AcDbArc
 50
301.4967521869808
 51
0.0000000000059031
  0
ARC
  5
7F
330
1F
100
AcDbEntity
  8
0
 62
     7
100
AcDbCircle
 10
79.32918700772557
 20
12.29635696372831
 30
0.0
 40
8.525140620443603
100
AcDbArc
 50
270.0000000000009
 51
301.4967521869808
  0
ARC
  5
80
330
1F
100
AcDbEntity
  8
DEFAULT
 62
     7
100
AcDbCircle
 10
66.89343253390004
 20
-61.60894770362511
 30
0.0
 40
78.42857344627284
100
AcDbArc
 50
81.57036894432024
 51
98.42963105568059
  0
ARC
  5
81
330
1F
100
AcDbEntity
  8
DEFAULT
 62
     7
100
AcDbCircle
 10
42.02192358624896
 20
-61.60895676060854
 30
0.0
 40
78.42857344627284
100
AcDbArc
 50
81.57036894431944
 51
98.42963105567978
  0
ARC
  5
82
330
1F
100
AcDbEntity
  8
DEFAULT
 62
     7
100
AcDbCircle
 10
17.15041463859791
 20
-61.60895676060854
 30
0.0
 40
78.42857344627284
100
AcDbArc
 50
81.57036894431984
 51
98.42963105568016
  0
LINE
  5
83
330
1F
100
AcDbEntity
  8
0
 62
     7
100
AcDbLine
 10
79.32918700772559
 20
3.771207951953725
 30
0.0
 11
4.714660164772369
 21
3.771207951953725
 31
0.0
  0
LINE
  5
84
330
1F
100
AcDbEntity
  8
0
 62
     7
100
AcDbLine
 10
30.52471661988196
 20
15.97232554891464
 30
0.0
 11
53.51913055261596
 21
15.97232554891464
 31
0.0
  0
LINE
  5
85
330
1F
100
AcDbEntity
  8
0
 62
     7
100
AcDbLine
 10
29.58616911242345
 20
27.67476484796667
 30
0.0
 11
29.58616911242345
 21
3.771207951953738
 31
0.0
  0
LINE
  5
86
330
1F
100
AcDbEntity
  8
0
 62
     7
100
AcDbLine
 10
30.52471661988196
 20
28.61334825862155
 30
0.0
 11
53.51913055261596
 21
28.61334825862155
 31
0.0
  0
ARC
  5
87
330
1F
100
AcDbEntity
  8
0
 62
     7
100
AcDbCircle
 10
53.51913055261598
 20
15.0337780414561
 30
0.0
 40
0.9385475074585441
100
AcDbArc
 50
0.0000000000006507
 51
90.00000000000087
  0
ARC
  5
88
330
1F
100
AcDbEntity
  8
0
 62
     7
100
AcDbCircle
 10
30.52471661988196
 20
15.03377804145612
 30
0.0
 40
0.9385475074585175
100
AcDbArc
 50
90.00000000000043
 51
180.0000000000011
  0
ARC
  5
89
330
1F
100
AcDbEntity
  8
0
 62
     7
100
AcDbCircle
 10
30.52471661988196
 20
27.67480075116304
 30
0.0
 40
0.9385475074585075
100
AcDbArc
 50
90.0
 51
179.9999857037018
  0
ARC
  5
8A
330
1F
100
AcDbEntity
  8
0
 62
     7
100
AcDbCircle
 10
53.51913055261595
 20
27.67480075116299
 30
0.0
 40
0.9385475074585539
100
AcDbArc
 50
0.0000144447009773
 51
89.99999999999913
  0
ARC
  5
8B
330
1F
100
AcDbEntity
  8
0
 62
     7
100
AcDbCircle
 10
78.39063950026701
 20
27.67480980814642
 30
0.0
 40
0.9385475074585539
100
AcDbArc
 50
0.0000144447011942
 51
89.99999999999913
  0
ARC
  5
8C
330
1F
100
AcDbEntity
  8
0
 62
     7
100
AcDbCircle
 10
55.39622556753302
 20
27.67480980814648
 30
0.0
 40
0.9385475074584975
100
AcDbArc
 50
89.99999999999913
 51
179.9999857037022
  0
ARC
  5
8D
330
1F
100
AcDbEntity
  8
0
 62
     7
100
AcDbCircle
 10
55.39622556753304
 20
15.03378709843956
 30
0.0
 40
0.9385475074585141
100
AcDbArc
 50
90.00000000000043
 51
180.0000000000012
  0
ARC
  5
8E
330
1F
100
AcDbEntity
  8
0
 62
     7
100
AcDbCircle
 10
78.39063950026703
 20
15.03378709843953
 30
0.0
 40
0.9385475074585641
100
AcDbArc
 50
0.0000000000008675
 51
90.0
  0
LINE
  5
8F
330
1F
100
AcDbEntity
  8
0
 62
     7
100
AcDbLine
 10
78.39063950026703
 20
3.771217008937171
 30
0.0
 11
78.07622608526847
 21
0.0170269791030506
 31
0.0
  0
LINE
  5
90
330
1F
100
AcDbEntity
  8
0
 62
     7
100
AcDbLine
 10
76.82326516281133
 20
3.771217008937171
 30
0.0
 11
77.13767857780994
 21
0.0170269791030506
 31
0.0
  0
LINE
  5
91
330
1F
100
AcDbEntity
  8
0
 62
     7
100
AcDbLine
 10
55.39622556753304
 20
28.61335731560498
 30
0.0
 11
78.39063950026703
 21
28.61335731560498
 31
0.0
  0
LINE
  5
92
330
1F
100
AcDbEntity
  8
0
 62
     7
100
AcDbLine
 10
54.45767806007452
 20
27.6747739049501
 30
0.0
 11
54.45767806007452
 21
3.771217008937171
 31
0.0
  0
LINE
  5
93
330
1F
100
AcDbEntity
  8
0
 62
     7
100
AcDbLine
 10
77.13767857780994
 20
0.0170269791030515
 30
0.0
 11
78.07622608526847
 21
0.0170269791030515
 31
0.0
  0
LINE
  5
94
330
1F
100
AcDbEntity
  8
0
 62
     7
100
AcDbLine
 10
55.39622556753304
 20
15.97233460589807
 30
0.0
 11
78.39063950026703
 21
15.97233460589807
 31
0.0
  0
LINE
  5
95
330
1F
100
AcDbEntity
  8
0
 62
     7
100
AcDbLine
 10
79.32918700772559
 20
3.771217008937171
 30
0.0
 11
79.32918700772559
 21
27.67478296193354
 31
0.0
  0
LINE
  5
96
330
1F
100
AcDbEntity
  8
0
 62
     7
100
AcDbLine
 10
4.714660164772374
 20
3.771207951953725
 30
0.0
 11
4.714660164772374
 21
27.67476454106162
 31
0.0
  0
LINE
  5
97
330
1F
100
AcDbEntity
  8
0
 62
     7
100
AcDbLine
 10
5.653207672230911
 20
15.97232554891463
 30
0.0
 11
28.64762160496491
 21
15.97232554891463
 31
0.0
  0
LINE
  5
98
330
1F
100
AcDbEntity
  8
0
 62
     7
100
AcDbLine
 10
5.653207672230911
 20
3.771207951953725
 30
0.0
 11
5.967621087229498
 21
0.0170179221196047
 31
0.0
  0
LINE
  5
99
330
1F
100
AcDbEntity
  8
0
 62
     7
100
AcDbLine
 10
7.220582009686649
 20
3.771207951953725
 30
0.0
 11
6.906168594688036
 21
0.0170179221196047
 31
0.0
  0
LINE
  5
9A
330
1F
100
AcDbEntity
  8
0
 62
     7
100
AcDbLine
 10
5.967621087229498
 20
0.0170179221196047
 30
0.0
 11
6.906168594688036
 21
0.0170179221196047
 31
0.0
  0
LINE
  5
9B
330
1F
100
AcDbEntity
  8
0
 62
     7
100
AcDbLine
 10
5.653207672230911
 20
28.61334825862153
 30
0.0
 11
28.64762160496491
 21
28.61334825862153
 31
0.0
  0
ARC
  5
9C
330
1F
100
AcDbEntity
  8
0
 62
     7
100
AcDbCircle
 10
28.64762160496494
 20
15.03377804145612
 30
0.0
 40
0.9385475074585108
100
AcDbArc
 50
359.9999999999992
 51
90.00000000000152
  0
ARC
  5
9D
330
1F
100
AcDbEntity
  8
0
 62
     7
100
AcDbCircle
 10
5.653207672230892
 20
15.03377804145611
 30
0.0
 40
0.9385475074585175
100
AcDbArc
 50
89.99999999999875
 51
180.0000000000011
  0
ARC
  5
9E
330
1F
100
AcDbEntity
  8
0
 62
     7
100
AcDbCircle
 10
5.653207672230905
 20
27.674800751163
 30
0.0
 40
0.9385475074585341
100
AcDbArc
 50
89.99999999999957
 51
179.9999857037001
  0
ARC
  5
9F
330
1F
100
AcDbEntity
  8
0
 62
     7
100
AcDbCircle
 10
28.64762160496488
 20
27.67480075116296
 30
0.0
 40
0.9385475074585673
100
AcDbArc
 50
0.0000144447024955
 51
89.99999999999871
  0
ENDSEC
  0
SECTION
  2
OBJECTS
  0
DICTIONARY
  5
C
330
0
100
AcDbDictionary
  3
ACAD_GROUP
350
D
  3
ACAD_LAYOUT
350
1A
  3
ACAD_MLINESTYLE
350
17
  3
ACAD_PLOTSETTINGS
350
19
  3
ACDBHEADERROUNDTRIPXREC
350
A0
  0
DICTIONARY
  5
C0
330
29
100
AcDbDictionary
280
     1
  3
ACAD_XREC_ROUNDTRIP
360
C1
  0
DICTIONARY
  5
D
102
{ACAD_REACTORS
330
C
102
}
330
C
100
AcDbDictionary
  0
DICTIONARY
  5
1A
102
{ACAD_REACTORS
330
C
102
}
330
C
100
AcDbDictionary
  0
DICTIONARY
  5
17
102
{ACAD_REACTORS
330
C
102
}
330
C
100
AcDbDictionary
  3
STANDARD
350
18
  0
DICTIONARY
  5
19
102
{ACAD_REACTORS
330
C
102
}
330
C
100
AcDbDictionary
  0
DICTIONARY
  5
A0
102
{ACAD_REACTORS
330
C
102
}
330
C
100
AcDbDictionary
  3
CEPSNTYPE
350
A9
  3
DIMSTYLEDATA
350
BF
  3
FINGERPRINTGUID
350
AA
  3
HYPERLINKBASE
350
A3
  3
INSUNITS
350
A8
  3
LAYOUTDICT
350
A5
  3
LWETCUNION
350
A7
  3
PLOTSETDICT
350
A6
  3
PSVPSCALE
350
AC
  3
PUCSBASE
350
AF
  3
PUCSORGBACK
350
B5
  3
PUCSORGBOTTOM
350
B1
  3
PUCSORGFRONT
350
B4
  3
PUCSORGLEFT
350
B2
  3
PUCSORGRIGHT
350
B3
  3
PUCSORGTOP
350
B0
  3
PUCSORTHOREF
350
AD
  3
PUCSORTHOVIEW
350
AE
  3
STYLESHEET
350
A4
  3
TSTACKALIGN
350
A1
  3
TSTACKSIZE
350
A2
  3
UCSBASE
350
B8
  3
UCSORGBACK
350
BE
  3
UCSORGBOTTOM
350
BA
  3
UCSORGFRONT
350
BD
  3
UCSORGLEFT
350
BB
  3
UCSORGRIGHT
350
BC
  3
UCSORGTOP
350
B9
  3
UCSORTHOREF
350
B6
  3
UCSORTHOVIEW
350
B7
  3
VERSIONGUID
350
AB
  0
XRECORD
  5
C1
102
{ACAD_REACTORS
330
C0
102
}
330
C0
100
AcDbXrecord
102
UCS
 74
     0
 71
     1
 10
0.0
 20
0.0
 30
0.0
 10
1.0
 20
0.0
 30
0.0
 10
0.0
 20
1.0
 30
0.0
146
0.0
 79
     0
102
VIEW
281
     0
  0
MLINESTYLE
  5
18
102
{ACAD_REACTORS
330
17
102
}
330
17
100
AcDbMlineStyle
  2
Standard
 70
     0
  3

 62
   256
 51
90.0
 52
90.0
 71
     2
 49
0.5
 62
   256
  6
BYLAYER
 49
-0.5
 62
   256
  6
BYLAYER
  0
XRECORD
  5
A9
102
{ACAD_REACTORS
330
A0
102
}
330
A0
100
AcDbXrecord
 90
        0
  0
XRECORD
  5
BF
102
{ACAD_REACTORS
330
A0
102
}
330
A0
100
AcDbXrecord
1000
DSTYLE
1002
{
1070
   340
340
11
1002
}
  0
XRECORD
  5
AA
102
{ACAD_REACTORS
330
A0
102
}
330
A0
100
AcDbXrecord
  1
{FAEB1C30-E019-11D5-929B-00C0DF256EC4}
  0
XRECORD
  5
A3
102
{ACAD_REACTORS
330
A0
102
}
330
A0
100
AcDbXrecord
  1

  0
XRECORD
  5
A8
102
{ACAD_REACTORS
330
A0
102
}
330
A0
100
AcDbXrecord
 90
        4
  0
XRECORD
  5
A5
102
{ACAD_REACTORS
330
A0
102
}
330
A0
100
AcDbXrecord
340
1A
  0
XRECORD
  5
A7
102
{ACAD_REACTORS
330
A0
102
}
330
A0
100
AcDbXrecord
 90
     2560
  0
XRECORD
  5
A6
102
{ACAD_REACTORS
330
A0
102
}
330
A0
100
AcDbXrecord
340
19
  0
XRECORD
  5
AC
102
{ACAD_REACTORS
330
A0
102
}
330
A0
100
AcDbXrecord
 40
0.0
  0
XRECORD
  5
AF
102
{ACAD_REACTORS
330
A0
102
}
330
A0
100
AcDbXrecord
340
0
  0
XRECORD
  5
B5
102
{ACAD_REACTORS
330
A0
102
}
330
A0
100
AcDbXrecord
 10
0.0
 20
0.0
 30
0.0
  0
XRECORD
  5
B1
102
{ACAD_REACTORS
330
A0
102
}
330
A0
100
AcDbXrecord
 10
0.0
 20
0.0
 30
0.0
  0
XRECORD
  5
B4
102
{ACAD_REACTORS
330
A0
102
}
330
A0
100
AcDbXrecord
 10
0.0
 20
0.0
 30
0.0
  0
XRECORD
  5
B2
102
{ACAD_REACTORS
330
A0
102
}
330
A0
100
AcDbXrecord
 10
0.0
 20
0.0
 30
0.0
  0
XRECORD
  5
B3
102
{ACAD_REACTORS
330
A0
102
}
330
A0
100
AcDbXrecord
 10
0.0
 20
0.0
 30
0.0
  0
XRECORD
  5
B0
102
{ACAD_REACTORS
330
A0
102
}
330
A0
100
AcDbXrecord
 10
0.0
 20
0.0
 30
0.0
  0
XRECORD
  5
AD
102
{ACAD_REACTORS
330
A0
102
}
330
A0
100
AcDbXrecord
340
0
  0
XRECORD
  5
AE
102
{ACAD_REACTORS
330
A0
102
}
330
A0
100
AcDbXrecord
 70
     0
  0
XRECORD
  5
A4
102
{ACAD_REACTORS
330
A0
102
}
330
A0
100
AcDbXrecord
  1

  0
XRECORD
  5
A1
102
{ACAD_REACTORS
330
A0
102
}
330
A0
100
AcDbXrecord
 90
        1
  0
XRECORD
  5
A2
102
{ACAD_REACTORS
330
A0
102
}
330
A0
100
AcDbXrecord
 90
       70
  0
XRECORD
  5
B8
102
{ACAD_REACTORS
330
A0
102
}
330
A0
100
AcDbXrecord
340
0
  0
XRECORD
  5
BE
102
{ACAD_REACTORS
330
A0
102
}
330
A0
100
AcDbXrecord
 10
0.0
 20
0.0
 30
0.0
  0
XRECORD
  5
BA
102
{ACAD_REACTORS
330
A0
102
}
330
A0
100
AcDbXrecord
 10
0.0
 20
0.0
 30
0.0
  0
XRECORD
  5
BD
102
{ACAD_REACTORS
330
A0
102
}
330
A0
100
AcDbXrecord
 10
0.0
 20
0.0
 30
0.0
  0
XRECORD
  5
BB
102
{ACAD_REACTORS
330
A0
102
}
330
A0
100
AcDbXrecord
 10
0.0
 20
0.0
 30
0.0
  0
XRECORD
  5
BC
102
{ACAD_REACTORS
330
A0
102
}
330
A0
100
AcDbXrecord
 10
0.0
 20
0.0
 30
0.0
  0
XRECORD
  5
B9
102
{ACAD_REACTORS
330
A0
102
}
330
A0
100
AcDbXrecord
 10
0.0
 20
0.0
 30
0.0
  0
XRECORD
  5
B6
102
{ACAD_REACTORS
330
A0
102
}
330
A0
100
AcDbXrecord
340
0
  0
XRECORD
  5
B7
102
{ACAD_REACTORS
330
A0
102
}
330
A0
100
AcDbXrecord
 70
     0
  0
XRECORD
  5
AB
102
{ACAD_REACTORS
330
A0
102
}
330
A0
100
AcDbXrecord
  1
{FAEB1C32-E019-11D5-929B-00C0DF256EC4}
  0
ENDSEC
  0
EOF
