  0
SECTION
  2
HEADER
  9
$ACADVER
  1
AC1009
  9
$DWGCODEPAGE
  3
ansi_1252
  9
$INSBASE
 10
0.0
 20
0.0
 30
0.0
  9
$EXTMIN
 10
0.2417813863606299
 20
0.00084596621828
 30
0.0
  9
$EXTMAX
 10
64.27952545593239
 20
80.9524817238792
 30
0.0
  9
$LIMMIN
 10
0.0
 20
0.0
  9
$LIMMAX
 10
12.0
 20
9.0
  9
$ORTHOMODE
 70
     0
  9
$REGENMODE
 70
     1
  9
$FILLMODE
 70
     1
  9
$QTEXTMODE
 70
     0
  9
$MIRRTEXT
 70
     1
  9
$DRAGMODE
 70
     2
  9
$LTSCALE
 40
1.0
  9
$OSMODE
 70
    37
  9
$ATTMODE
 70
     1
  9
$TEXTSIZE
 40
0.2
  9
$TRACEWID
 40
0.05
  9
$TEXTSTYLE
  7
STANDARD
  9
$CLAYER
  8
DEFAULT
  9
$CELTYPE
  6
BYLAYER
  9
$CECOLOR
 62
   256
  9
$DIMSCALE
 40
1.0
  9
$DIMASZ
 40
0.18
  9
$DIMEXO
 40
0.0625
  9
$DIMDLI
 40
0.38
  9
$DIMRND
 40
0.0
  9
$DIMDLE
 40
0.0
  9
$DIMEXE
 40
0.18
  9
$DIMTP
 40
0.0
  9
$DIMTM
 40
0.0
  9
$DIMTXT
 40
0.18
  9
$DIMCEN
 40
0.09
  9
$DIMTSZ
 40
0.0
  9
$DIMTOL
 70
     0
  9
$DIMLIM
 70
     0
  9
$DIMTIH
 70
     1
  9
$DIMTOH
 70
     1
  9
$DIMSE1
 70
     0
  9
$DIMSE2
 70
     0
  9
$DIMTAD
 70
     0
  9
$DIMZIN
 70
     0
  9
$DIMBLK
  1

  9
$DIMASO
 70
     1
  9
$DIMSHO
 70
     1
  9
$DIMPOST
  1

  9
$DIMAPOST
  1

  9
$DIMALT
 70
     0
  9
$DIMALTD
 70
     2
  9
$DIMALTF
 40
25.4
  9
$DIMLFAC
 40
1.0
  9
$DIMTOFL
 70
     0
  9
$DIMTVP
 40
0.0
  9
$DIMTIX
 70
     0
  9
$DIMSOXD
 70
     0
  9
$DIMSAH
 70
     0
  9
$DIMBLK1
  1

  9
$DIMBLK2
  1

  9
$DIMSTYLE
  2
STANDARD
  9
$DIMCLRD
 70
     0
  9
$DIMCLRE
 70
     0
  9
$DIMCLRT
 70
     0
  9
$DIMTFAC
 40
1.0
  9
$DIMGAP
 40
0.09
  9
$LUNITS
 70
     2
  9
$LUPREC
 70
     0
  9
$SKETCHINC
 40
0.1
  9
$FILLETRAD
 40
0.5
  9
$AUNITS
 70
     0
  9
$AUPREC
 70
     0
  9
$MENU
  1
.
  9
$ELEVATION
 40
0.0
  9
$PELEVATION
 40
0.0
  9
$THICKNESS
 40
0.0
  9
$LIMCHECK
 70
     0
  9
$CHAMFERA
 40
0.5
  9
$CHAMFERB
 40
0.5
  9
$SKPOLY
 70
     0
  9
$TDCREATE
 40
2453971.619329491
  9
$TDUPDATE
 40
2453971.660996169
  9
$TDINDWG
 40
0.0000000116
  9
$TDUSRTIMER
 40
0.0000000116
  9
$USRTIMER
 70
     1
  9
$ANGBASE
 50
0.0
  9
$ANGDIR
 70
     0
  9
$PDMODE
 70
     0
  9
$PDSIZE
 40
0.0
  9
$PLINEWID
 40
0.0
  9
$COORDS
 70
     1
  9
$SPLFRAME
 70
     0
  9
$SPLINETYPE
 70
     6
  9
$SPLINESEGS
 70
     8
  9
$ATTDIA
 70
     0
  9
$ATTREQ
 70
     1
  9
$HANDLING
 70
     1
  9
$HANDSEED
  5
42D
  9
$SURFTAB1
 70
     6
  9
$SURFTAB2
 70
     6
  9
$SURFTYPE
 70
     6
  9
$SURFU
 70
     6
  9
$SURFV
 70
     6
  9
$UCSNAME
  2

  9
$UCSORG
 10
0.0
 20
0.0
 30
0.0
  9
$UCSXDIR
 10
1.0
 20
0.0
 30
0.0
  9
$UCSYDIR
 10
0.0
 20
1.0
 30
0.0
  9
$PUCSNAME
  2

  9
$PUCSORG
 10
0.0
 20
0.0
 30
0.0
  9
$PUCSXDIR
 10
1.0
 20
0.0
 30
0.0
  9
$PUCSYDIR
 10
0.0
 20
1.0
 30
0.0
  9
$USERI1
 70
     0
  9
$USERI2
 70
     0
  9
$USERI3
 70
     0
  9
$USERI4
 70
     0
  9
$USERI5
 70
     0
  9
$USERR1
 40
0.0
  9
$USERR2
 40
0.0
  9
$USERR3
 40
0.0
  9
$USERR4
 40
0.0
  9
$USERR5
 40
0.0
  9
$WORLDVIEW
 70
     1
  9
$SHADEDGE
 70
     3
  9
$SHADEDIF
 70
    70
  9
$TILEMODE
 70
     1
  9
$MAXACTVP
 70
    64
  9
$PLIMCHECK
 70
     0
  9
$PEXTMIN
 10
1.000000000000000E+20
 20
1.000000000000000E+20
 30
1.000000000000000E+20
  9
$PEXTMAX
 10
-1.000000000000000E+20
 20
-1.000000000000000E+20
 30
-1.000000000000000E+20
  9
$PLIMMIN
 10
0.0
 20
0.0
  9
$PLIMMAX
 10
12.0
 20
9.0
  9
$UNITMODE
 70
     0
  9
$VISRETAIN
 70
     1
  9
$PLINEGEN
 70
     0
  9
$PSLTSCALE
 70
     1
  0
ENDSEC
  0
SECTION
  2
TABLES
  0
TABLE
  2
VPORT
 70
     2
  0
VPORT
  2
*ACTIVE
 70
     0
 10
0.0
 20
0.0
 11
1.0
 21
1.0
 12
32.26168773215649
 22
39.73354836735818
 13
0.0
 23
0.0
 14
0.5
 24
0.5
 15
0.5
 25
0.5
 16
0.0
 26
0.0
 36
80.21230066091221
 17
0.0
 27
0.0
 37
0.0
 40
79.46619945632781
 41
1.521167883211679
 42
50.0
 43
0.0
 44
0.0
 50
0.0
 51
0.0
 71
     0
 72
   100
 73
     1
 74
     3
 75
     0
 76
     0
 77
     0
 78
     0
  0
ENDTAB
  0
TABLE
  2
LTYPE
 70
     1
  0
LTYPE
  2
CONTINUOUS
 70
     0
  3
Solid line
 72
    65
 73
     0
 40
0.0
  0
ENDTAB
  0
TABLE
  2
LAYER
 70
     2
  0
LAYER
  2
0
 70
     0
 62
     7
  6
CONTINUOUS
  0
LAYER
  2
DEFAULT
 70
     0
 62
     7
  6
CONTINUOUS
  0
ENDTAB
  0
TABLE
  2
STYLE
 70
     1
  0
STYLE
  2
STANDARD
 70
     0
 40
0.0
 41
1.0
 50
0.0
 71
     0
 42
0.2
  3
txt
  4

  0
ENDTAB
  0
TABLE
  2
VIEW
 70
     0
  0
ENDTAB
  0
TABLE
  2
UCS
 70
     0
  0
ENDTAB
  0
TABLE
  2
APPID
 70
     1
  0
APPID
  2
ACAD
 70
     0
  0
ENDTAB
  0
TABLE
  2
DIMSTYLE
 70
     1
  0
DIMSTYLE
  2
STANDARD
 70
     0
  3

  4

  5

  6

  7

 40
1.0
 41
0.18
 42
0.0625
 43
0.38
 44
0.18
 45
0.0
 46
0.0
 47
0.0
 48
0.0
140
0.18
141
0.09
142
0.0
143
25.4
144
1.0
145
0.0
146
1.0
147
0.09
 71
     0
 72
     0
 73
     1
 74
     1
 75
     0
 76
     0
 77
     0
 78
     0
170
     0
171
     2
172
     0
173
     0
174
     0
175
     0
176
     0
177
     0
178
     0
  0
ENDTAB
  0
ENDSEC
  0
SECTION
  2
BLOCKS
  0
BLOCK
  8
0
  2
$MODEL_SPACE
 70
     0
 10
0.0
 20
0.0
 30
0.0
  3
$MODEL_SPACE
  1

  0
ENDBLK
  5
21
  8
0
  0
BLOCK
 67
     1
  8
0
  2
$PAPER_SPACE
 70
     0
 10
0.0
 20
0.0
 30
0.0
  3
$PAPER_SPACE
  1

  0
ENDBLK
  5
1D
 67
     1
  8
0
  0
BLOCK
  8
0
  2
$PAPER_SPACE0
 70
     0
 10
0.0
 20
0.0
 30
0.0
  3
$PAPER_SPACE0
  1

  0
ENDBLK
  5
25
  8
0
  0
ENDSEC
  0
SECTION
  2
ENTITIES
  0
LINE
  5
2B
  8
DEFAULT
 10
44.55544515191016
 20
19.87893687094189
 30
0.0
 11
42.87027271867993
 21
26.61088949652897
 31
0.0
  0
LINE
  5
2C
  8
DEFAULT
 10
44.16194209219271
 20
19.24410959083616
 30
0.0
 11
42.31785686040558
 21
26.61088949652897
 31
0.0
  0
LINE
  5
2D
  8
DEFAULT
 10
44.01700942112811
 20
19.2078293976262
 30
0.0
 11
42.16384236716651
 21
26.61088949652897
 31
0.0
  0
POLYLINE
  5
2E
  8
DEFAULT
 66
     1
 10
0.0
 20
0.0
 30
0.0
  0
VERTEX
  5
30
  8
DEFAULT
 10
59.570096490619
 20
25.42587136355168
 30
0.0
  0
VERTEX
  5
31
  8
DEFAULT
 10
60.86151851617002
 20
17.93624042670811
 30
0.0
  0
VERTEX
  5
32
  8
DEFAULT
 10
60.88940978103583
 20
17.70467775854783
 30
0.0
  0
VERTEX
  5
33
  8
DEFAULT
 10
60.89067080821562
 20
17.5000847305029
 30
0.0
  0
VERTEX
  5
34
  8
DEFAULT
 10
60.86834352332361
 20
17.32303005822699
 30
0.0
  0
VERTEX
  5
35
  8
DEFAULT
 10
60.82546985197394
 20
17.17408245737376
 30
0.0
  0
VERTEX
  5
36
  8
DEFAULT
 10
60.79727872313192
 20
17.11032653237242
 30
0.0
  0
VERTEX
  5
37
  8
DEFAULT
 10
60.76509171978078
 20
17.05381064359687
 30
0.0
  0
VERTEX
  5
38
  8
DEFAULT
 10
60.72928908262234
 20
17.00460588050383
 30
0.0
  0
VERTEX
  5
39
  8
DEFAULT
 10
60.69025105235833
 20
16.96278333254999
 30
0.0
  0
VERTEX
  5
3A
  8
DEFAULT
 10
60.64835786969054
 20
16.92841408919207
 30
0.0
  0
VERTEX
  5
3B
  8
DEFAULT
 10
60.60398977532075
 20
16.90156923988677
 30
0.0
  0
VERTEX
  5
3C
  8
DEFAULT
 10
60.5093498142822
 20
16.87073708126088
 30
0.0
  0
VERTEX
  5
3D
  8
DEFAULT
 10
60.40937309485688
 20
16.87085557232599
 30
0.0
  0
VERTEX
  5
3E
  8
DEFAULT
 10
60.35833405250362
 20
16.88269903513443
 30
0.0
  0
VERTEX
  5
3F
  8
DEFAULT
 10
60.30710154265896
 20
16.90249342873574
 30
0.0
  0
VERTEX
  5
40
  8
DEFAULT
 10
60.25605580602474
 20
16.93030984258664
 30
0.0
  0
VERTEX
  5
41
  8
DEFAULT
 10
60.20557708330265
 20
16.96621936614382
 30
0.0
  0
VERTEX
  5
42
  8
DEFAULT
 10
60.15604561519448
 20
17.01029308886399
 30
0.0
  0
VERTEX
  5
43
  8
DEFAULT
 10
60.10784164240207
 20
17.06260210020387
 30
0.0
  0
VERTEX
  5
44
  8
DEFAULT
 10
60.01693714557138
 20
17.19221034656955
 30
0.0
  0
VERTEX
  5
45
  8
DEFAULT
 10
59.93590551842483
 20
17.35561282089454
 30
0.0
  0
VERTEX
  5
46
  8
DEFAULT
 10
59.86778868657655
 20
17.5533782388325
 30
0.0
  0
VERTEX
  5
47
  8
DEFAULT
 10
59.81562857564072
 20
17.78607531603708
 30
0.0
  0
VERTEX
  5
48
  8
DEFAULT
 10
58.58024146549185
 20
24.95073050704708
 30
0.0
 42
0.3650419029024074
  0
VERTEX
  5
49
  8
DEFAULT
 10
56.60932591997244
 20
26.61088949652896
 30
0.0
  0
VERTEX
  5
4A
  8
DEFAULT
 10
41.07980205949372
 20
26.61088949652897
 30
0.0
  0
VERTEX
  5
4B
  8
DEFAULT
 10
40.822242552387
 20
26.62275107834779
 30
0.0
  0
VERTEX
  5
4C
  8
DEFAULT
 10
40.59904154618611
 20
26.65627294000966
 30
0.0
  0
VERTEX
  5
4D
  8
DEFAULT
 10
40.41021589954585
 20
26.70836075582272
 30
0.0
  0
VERTEX
  5
4E
  8
DEFAULT
 10
40.25578247112109
 20
26.77592020009511
 30
0.0
  0
VERTEX
  5
4F
  8
DEFAULT
 10
40.19146810706912
 20
26.81453480612485
 30
0.0
  0
VERTEX
  5
50
  8
DEFAULT
 10
40.13575811956657
 20
26.85585694713496
 30
0.0
  0
VERTEX
  5
51
  8
DEFAULT
 10
40.08865461594531
 20
26.89949983241398
 30
0.0
  0
VERTEX
  5
52
  8
DEFAULT
 10
40.0501597035372
 20
26.94507667125041
 30
0.0
  0
VERTEX
  5
53
  8
DEFAULT
 10
40.02027548967403
 20
26.99220067293277
 30
0.0
  0
VERTEX
  5
54
  8
DEFAULT
 10
39.99900408168771
 20
27.04048504674958
 30
0.0
  0
VERTEX
  5
55
  8
DEFAULT
 10
39.982308112673
 20
27.13898774794062
 30
0.0
  0
VERTEX
  5
56
  8
DEFAULT
 10
40.00008865514784
 20
27.23749044913166
 30
0.0
  0
VERTEX
  5
57
  8
DEFAULT
 10
40.02191288652349
 20
27.28577482294847
 30
0.0
  0
VERTEX
  5
58
  8
DEFAULT
 10
40.05236256776707
 20
27.33289882463084
 30
0.0
  0
VERTEX
  5
59
  8
DEFAULT
 10
40.09143980621048
 20
27.37847566346727
 30
0.0
  0
VERTEX
  5
5A
  8
DEFAULT
 10
40.13914670918553
 20
27.42211854874628
 30
0.0
  0
VERTEX
  5
5B
  8
DEFAULT
 10
40.19548538402407
 20
27.4634406897564
 30
0.0
  0
VERTEX
  5
5C
  8
DEFAULT
 10
40.260457938058
 20
27.50205529578613
 30
0.0
  0
VERTEX
  5
5D
  8
DEFAULT
 10
40.41631311303932
 20
27.56961474005852
 30
0.0
  0
VERTEX
  5
5E
  8
DEFAULT
 10
40.60672909278433
 20
27.62170255587158
 30
0.0
  0
VERTEX
  5
5F
  8
DEFAULT
 10
40.83172273594781
 20
27.65522441753345
 30
0.0
  0
VERTEX
  5
60
  8
DEFAULT
 10
41.09131090118459
 20
27.66708599935227
 30
0.0
  0
VERTEX
  5
61
  8
DEFAULT
 10
56.90936050416782
 20
27.66708599935224
 30
0.0
 42
-0.3650419029024064
  0
VERTEX
  5
62
  8
DEFAULT
 10
59.57009649061899
 20
25.42587136355168
 30
0.0
  0
SEQEND
  5
2F
  8
DEFAULT
  0
LINE
  5
63
  8
DEFAULT
 10
3.013267819428993
 20
75.88651540333297
 30
0.0
 11
3.033348089952391
 21
72.96163047603686
 31
0.0
  0
LINE
  5
64
  8
DEFAULT
 10
22.47528385267106
 20
75.88651540333299
 30
0.0
 11
22.45520358214766
 21
72.96163047603683
 31
0.0
  0
POLYLINE
  5
65
  8
DEFAULT
 66
     1
 10
0.0
 20
0.0
 30
0.0
  0
VERTEX
  5
67
  8
DEFAULT
 10
3.007934617488965
 20
75.8848910364411
 30
0.0
 42
-0.4608598234559761
  0
VERTEX
  5
68
  8
DEFAULT
 10
3.467046235236186
 20
76.82568391357597
 30
0.0
 42
-0.1272270493283939
  0
VERTEX
  5
69
  8
DEFAULT
 10
22.02150543917755
 20
76.82568391280471
 30
0.0
 42
-0.4608598244137883
  0
VERTEX
  5
6A
  8
DEFAULT
 10
22.4806170546111
 20
75.88489103644109
 30
0.0
  0
SEQEND
  5
66
  8
DEFAULT
  0
POLYLINE
  5
6B
  8
DEFAULT
 66
     1
 10
0.0
 20
0.0
 30
0.0
  0
VERTEX
  5
6D
  8
DEFAULT
 10
3.042456398306538
 20
75.75948345631971
 30
0.0
 42
0.4138237691646929
  0
VERTEX
  5
6E
  8
DEFAULT
 10
3.943688717202601
 20
75.25858475847824
 30
0.0
 42
-0.1396231598876294
  0
VERTEX
  5
6F
  8
DEFAULT
 10
21.54486295489747
 20
75.25858475847826
 30
0.0
 42
0.413823769164678
  0
VERTEX
  5
70
  8
DEFAULT
 10
22.44609527379356
 20
75.75948345631971
 30
0.0
  0
SEQEND
  5
6C
  8
DEFAULT
  0
ARC
  5
71
  8
DEFAULT
 10
12.74427583605002
 20
45.24598901063943
 30
0.0
 40
32.01872333009454
 50
72.36184584493894
 51
107.6381541550616
  0
ARC
  5
72
  8
DEFAULT
 10
12.74427583605007
 20
43.92761997228394
 30
0.0
 40
33.40753678726209
 50
73.05572628877241
 51
106.9442737112278
  0
POLYLINE
  5
73
  8
DEFAULT
 66
     1
 10
0.0
 20
0.0
 30
0.0
  0
VERTEX
  5
75
  8
DEFAULT
 10
23.10961240920988
 20
77.34751459877521
 30
0.0
  0
VERTEX
  5
76
  8
DEFAULT
 10
23.10961240920988
 20
52.08326069631559
 30
0.0
  0
VERTEX
  5
77
  8
DEFAULT
 10
23.10595650037325
 20
52.00675117054354
 30
0.0
  0
VERTEX
  5
78
  8
DEFAULT
 10
23.09498877386336
 20
51.93509602400948
 30
0.0
  0
VERTEX
  5
79
  8
DEFAULT
 10
23.07670922968021
 20
51.86829525671342
 30
0.0
  0
VERTEX
  5
7A
  8
DEFAULT
 10
23.05111786782381
 20
51.80634886865536
 30
0.0
  0
VERTEX
  5
7B
  8
DEFAULT
 10
23.01821468829414
 20
51.74925685983528
 30
0.0
  0
VERTEX
  5
7C
  8
DEFAULT
 10
22.97799969109121
 20
51.6970192302532
 30
0.0
  0
VERTEX
  5
7D
  8
DEFAULT
 10
22.93047287621502
 20
51.64963597990911
 30
0.0
  0
VERTEX
  5
7E
  8
DEFAULT
 10
22.87563424366557
 20
51.60710710880301
 30
0.0
  0
VERTEX
  5
7F
  8
DEFAULT
 10
22.81348379344287
 20
51.56943261693492
 30
0.0
  0
VERTEX
  5
80
  8
DEFAULT
 10
22.7440215255469
 20
51.53661250430481
 30
0.0
  0
VERTEX
  5
81
  8
DEFAULT
 10
22.58316153673519
 20
51.48553541675856
 30
0.0
  0
VERTEX
  5
82
  8
DEFAULT
 10
22.39305427723044
 20
51.45387584616429
 30
0.0
  0
VERTEX
  5
83
  8
DEFAULT
 10
22.17369974703265
 20
51.44163379252199
 30
0.0
  0
SEQEND
  5
74
  8
DEFAULT
  0
POLYLINE
  5
84
  8
DEFAULT
 66
     1
 10
0.0
 20
0.0
 30
0.0
  0
VERTEX
  5
86
  8
DEFAULT
 10
2.378940970411259
 20
77.34751459877521
 30
0.0
  0
VERTEX
  5
87
  8
DEFAULT
 10
2.378940970411259
 20
52.08326069631559
 30
0.0
  0
VERTEX
  5
88
  8
DEFAULT
 10
2.382596879247889
 20
52.00675117054354
 30
0.0
  0
VERTEX
  5
89
  8
DEFAULT
 10
2.393564605757778
 20
51.93509602400948
 30
0.0
  0
VERTEX
  5
8A
  8
DEFAULT
 10
2.411844149940928
 20
51.86829525671342
 30
0.0
  0
VERTEX
  5
8B
  8
DEFAULT
 10
2.437435511797336
 20
51.80634886865536
 30
0.0
  0
VERTEX
  5
8C
  8
DEFAULT
 10
2.470338691327005
 20
51.74925685983528
 30
0.0
  0
VERTEX
  5
8D
  8
DEFAULT
 10
2.510553688529932
 20
51.6970192302532
 30
0.0
  0
VERTEX
  5
8E
  8
DEFAULT
 10
2.55808050340612
 20
51.64963597990911
 30
0.0
  0
VERTEX
  5
8F
  8
DEFAULT
 10
2.612919135955568
 20
51.60710710880301
 30
0.0
  0
VERTEX
  5
90
  8
DEFAULT
 10
2.675069586178274
 20
51.56943261693492
 30
0.0
  0
VERTEX
  5
91
  8
DEFAULT
 10
2.744531854074241
 20
51.53661250430481
 30
0.0
  0
VERTEX
  5
92
  8
DEFAULT
 10
2.905391842885952
 20
51.48553541675856
 30
0.0
  0
VERTEX
  5
93
  8
DEFAULT
 10
3.095499102390703
 20
51.45387584616429
 30
0.0
  0
VERTEX
  5
94
  8
DEFAULT
 10
3.314853632588492
 20
51.44163379252199
 30
0.0
  0
SEQEND
  5
85
  8
DEFAULT
  0
POLYLINE
  5
95
  8
DEFAULT
 66
     1
 10
0.0
 20
0.0
 30
0.0
  0
VERTEX
  5
97
  8
DEFAULT
 10
2.378940970411271
 20
77.34751459877521
 30
0.0
 42
-0.4206589210012857
  0
VERTEX
  5
98
  8
DEFAULT
 10
2.922928516437647
 20
78.31527958655431
 30
0.0
 42
-0.1319212300736535
  0
VERTEX
  5
99
  8
DEFAULT
 10
22.56562945025189
 20
78.31531435782215
 30
0.0
 42
-0.4206207886932645
  0
VERTEX
  5
9A
  8
DEFAULT
 10
23.10972358137792
 20
77.34751459877518
 30
0.0
  0
SEQEND
  5
96
  8
DEFAULT
  0
ARC
  5
9B
  8
DEFAULT
 10
39.77799366216318
 20
36.10149106802408
 30
0.0
 40
0.8949598703467063
 50
103.5174901773308
 51
169.7722804825979
  0
LINE
  5
9C
  8
DEFAULT
 10
39.56880379126613
 20
36.97165930890917
 30
0.0
 11
39.71249886344127
 21
37.01288349060599
 31
0.0
  0
LINE
  5
9D
  8
DEFAULT
 10
41.74953341059891
 20
28.2659772549433
 30
0.0
 11
39.56880379126613
 21
36.97165930890917
 31
0.0
  0
ARC
  5
9E
  8
DEFAULT
 10
36.68433877997859
 20
36.28262675277411
 30
0.0
 40
0.8160257111214454
 50
92.47557442594163
 51
182.690425948881
  0
LINE
  5
9F
  8
DEFAULT
 10
36.64909178772603
 20
37.09789088834516
 30
0.0
 11
38.13201137557295
 21
37.16200318391102
 31
0.0
  0
ARC
  5
A0
  8
DEFAULT
 10
37.94881478838552
 20
36.39864224595858
 30
0.0
 40
0.6027629742234562
 50
145.3127768269316
 51
194.8340319110432
  0
LINE
  5
A1
  8
DEFAULT
 10
38.85575484533567
 20
36.4380801039218
 30
0.0
 11
41.04399376587841
 21
27.66510147100271
 31
0.0
  0
LINE
  5
A2
  8
DEFAULT
 10
39.71249886344127
 20
37.01288349060599
 30
0.0
 11
42.05346503688867
 21
27.66708599935226
 31
0.0
  0
POLYLINE
  5
A3
  8
DEFAULT
 66
     1
 10
0.0
 20
0.0
 30
0.0
  0
VERTEX
  5
A5
  8
DEFAULT
 10
41.89570368536119
 20
28.29731346079849
 30
0.0
  0
VERTEX
  5
A6
  8
DEFAULT
 10
42.01046443272753
 20
28.35608406264408
 30
0.0
  0
VERTEX
  5
A7
  8
DEFAULT
 10
42.10655460299557
 20
28.42047769271859
 30
0.0
  0
VERTEX
  5
A8
  8
DEFAULT
 10
42.18397419616532
 20
28.49049435102202
 30
0.0
  0
VERTEX
  5
A9
  8
DEFAULT
 10
42.21568252633833
 20
28.52761131575957
 30
0.0
  0
VERTEX
  5
AA
  8
DEFAULT
 10
42.24272321223675
 20
28.56613403755435
 30
0.0
  0
VERTEX
  5
AB
  8
DEFAULT
 10
42.26509625386061
 20
28.60606251640636
 30
0.0
  0
VERTEX
  5
AC
  8
DEFAULT
 10
42.28280165120989
 20
28.6473967523156
 30
0.0
  0
VERTEX
  5
AD
  8
DEFAULT
 10
42.29583940428459
 20
28.69013674528207
 30
0.0
  0
VERTEX
  5
AE
  8
DEFAULT
 10
42.30420951308471
 20
28.73428249530577
 30
0.0
  0
VERTEX
  5
AF
  8
DEFAULT
 10
42.30791197761027
 20
28.77983400238669
 30
0.0
  0
VERTEX
  5
B0
  8
DEFAULT
 10
42.30694679786124
 20
28.82679126652485
 30
0.0
  0
VERTEX
  5
B1
  8
DEFAULT
 10
42.30131397383765
 20
28.87515428772023
 30
0.0
  0
VERTEX
  5
B2
  8
DEFAULT
 10
42.29101350553948
 20
28.92492306597284
 30
0.0
  0
VERTEX
  5
B3
  8
DEFAULT
 10
40.35687180746358
 20
36.64553191652139
 30
0.0
  0
VERTEX
  5
B4
  8
DEFAULT
 10
40.34251007837278
 20
36.69428406181991
 30
0.0
  0
VERTEX
  5
B5
  8
DEFAULT
 10
40.32469347196057
 20
36.73959718419603
 30
0.0
  0
VERTEX
  5
B6
  8
DEFAULT
 10
40.30342198822695
 20
36.78147128364969
 30
0.0
  0
VERTEX
  5
B7
  8
DEFAULT
 10
40.27869562717192
 20
36.81990636018093
 30
0.0
  0
VERTEX
  5
B8
  8
DEFAULT
 10
40.25051438879547
 20
36.85490241378972
 30
0.0
  0
VERTEX
  5
B9
  8
DEFAULT
 10
40.21887827309761
 20
36.88645944447611
 30
0.0
  0
VERTEX
  5
BA
  8
DEFAULT
 10
40.18378728007834
 20
36.91457745224004
 30
0.0
  0
VERTEX
  5
BB
  8
DEFAULT
 10
40.14524140973765
 20
36.93925643708155
 30
0.0
  0
VERTEX
  5
BC
  8
DEFAULT
 10
40.10324066207555
 20
36.96049639900062
 30
0.0
  0
VERTEX
  5
BD
  8
DEFAULT
 10
40.05778503709203
 20
36.97829733799726
 30
0.0
  0
VERTEX
  5
BE
  8
DEFAULT
 10
39.95650915516077
 20
37.00358214722323
 30
0.0
  0
VERTEX
  5
BF
  8
DEFAULT
 10
39.84141376394385
 20
37.01511086475949
 30
0.0
  0
VERTEX
  5
C0
  8
DEFAULT
 10
39.71249886344127
 20
37.01288349060599
 30
0.0
  0
SEQEND
  5
A4
  8
DEFAULT
  0
POLYLINE
  5
C1
  8
DEFAULT
 66
     1
 10
0.0
 20
0.0
 30
0.0
  0
VERTEX
  5
C3
  8
DEFAULT
 10
38.13201137557295
 20
37.16200318391102
 30
0.0
  0
VERTEX
  5
C4
  8
DEFAULT
 10
38.1954103310705
 20
37.15993921508786
 30
0.0
  0
VERTEX
  5
C5
  8
DEFAULT
 10
38.25759695197424
 20
37.14870757435067
 30
0.0
  0
VERTEX
  5
C6
  8
DEFAULT
 10
38.31831202459322
 20
37.12903901357605
 30
0.0
  0
VERTEX
  5
C7
  8
DEFAULT
 10
38.37729633523647
 20
37.10166428464046
 30
0.0
  0
VERTEX
  5
C8
  8
DEFAULT
 10
38.43429067021302
 20
37.06731413942051
 30
0.0
  0
VERTEX
  5
C9
  8
DEFAULT
 10
38.48903581583189
 20
37.02671932979271
 30
0.0
  0
VERTEX
  5
CA
  8
DEFAULT
 10
38.59074168423275
 20
36.92971872481971
 30
0.0
  0
VERTEX
  5
CB
  8
DEFAULT
 10
38.68034023091131
 20
36.8165084847338
 30
0.0
  0
VERTEX
  5
CC
  8
DEFAULT
 10
38.75575774633983
 20
36.6929346245473
 30
0.0
  0
VERTEX
  5
CD
  8
DEFAULT
 10
38.81492052099052
 20
36.56484315927252
 30
0.0
  0
VERTEX
  5
CE
  8
DEFAULT
 10
38.85575484533567
 20
36.4380801039218
 30
0.0
  0
SEQEND
  5
C2
  8
DEFAULT
  0
POLYLINE
  5
CF
  8
DEFAULT
 66
     1
 10
0.0
 20
0.0
 30
0.0
  0
VERTEX
  5
D1
  8
DEFAULT
 10
60.12983247894913
 20
17.03452142550644
 30
0.0
  0
VERTEX
  5
D2
  8
DEFAULT
 10
44.61684701409488
 20
17.03452142550645
 30
0.0
  0
VERTEX
  5
D3
  8
DEFAULT
 10
44.13545836300391
 20
17.06669038344108
 30
0.0
  0
VERTEX
  5
D4
  8
DEFAULT
 10
43.64131405450662
 20
17.17687923747656
 30
0.0
  0
VERTEX
  5
D5
  8
DEFAULT
 10
43.15719489166349
 20
17.36927009153058
 30
0.0
  0
VERTEX
  5
D6
  8
DEFAULT
 10
42.7079039874526
 20
17.64042996909227
 30
0.0
  0
VERTEX
  5
D7
  8
DEFAULT
 10
42.31644144281714
 20
17.97893654465241
 30
0.0
  0
VERTEX
  5
D8
  8
DEFAULT
 10
42.14814290489897
 20
18.16802796490352
 30
0.0
  0
VERTEX
  5
D9
  8
DEFAULT
 10
42.00024464867438
 20
18.36688918076413
 30
0.0
  0
VERTEX
  5
DA
  8
DEFAULT
 10
41.87365019513548
 20
18.57276753797351
 30
0.0
  0
VERTEX
  5
DB
  8
DEFAULT
 10
41.76871477748291
 20
18.78291785680241
 30
0.0
  0
VERTEX
  5
DC
  8
DEFAULT
 10
41.62272332173814
 20
19.20568917299758
 30
0.0
  0
VERTEX
  5
DD
  8
DEFAULT
 10
37.36614000577315
 20
36.24432263416093
 30
0.0
  0
SEQEND
  5
D0
  8
DEFAULT
  0
POLYLINE
  5
DE
  8
DEFAULT
 66
     1
 10
0.0
 20
0.0
 30
0.0
  0
VERTEX
  5
E0
  8
DEFAULT
 10
51.7870122592337
 20
15.58225123412442
 30
0.0
  0
VERTEX
  5
E1
  8
DEFAULT
 10
44.61684701409488
 20
15.58225123412442
 30
0.0
  0
VERTEX
  5
E2
  8
DEFAULT
 10
43.91109538282403
 20
15.63605129279819
 30
0.0
  0
VERTEX
  5
E3
  8
DEFAULT
 10
43.18611838509225
 20
15.8062398852011
 30
0.0
  0
VERTEX
  5
E4
  8
DEFAULT
 10
42.47527559405117
 20
16.09876941179337
 30
0.0
  0
VERTEX
  5
E5
  8
DEFAULT
 10
41.8149422921486
 20
16.50822276028057
 30
0.0
  0
VERTEX
  5
E6
  8
DEFAULT
 10
41.23890554646447
 20
17.01730241314372
 30
0.0
  0
VERTEX
  5
E7
  8
DEFAULT
 10
40.77284364662292
 20
17.5991274538833
 30
0.0
  0
VERTEX
  5
E8
  8
DEFAULT
 10
40.43068042470372
 20
18.22174641188244
 30
0.0
  0
VERTEX
  5
E9
  8
DEFAULT
 10
40.21383819256812
 20
18.85336647644464
 30
0.0
  0
VERTEX
  5
EA
  8
DEFAULT
 10
35.86923616532162
 20
36.24432878403302
 30
0.0
  0
SEQEND
  5
DF
  8
DEFAULT
  0
POLYLINE
  5
EB
  8
DEFAULT
 66
     1
 10
0.0
 20
0.0
 30
0.0
  0
VERTEX
  5
ED
  8
DEFAULT
 10
2.348559953010668
 20
26.81312506452967
 30
0.0
  0
VERTEX
  5
EE
  8
DEFAULT
 10
2.348559953010708
 20
36.57548614439356
 30
0.0
 42
-0.4142135623729557
  0
VERTEX
  5
EF
  8
DEFAULT
 10
2.734165230915886
 20
36.96109142229856
 30
0.0
  0
VERTEX
  5
F0
  8
DEFAULT
 10
22.75356804731746
 20
36.96109142229854
 30
0.0
 42
-0.4142135623732384
  0
VERTEX
  5
F1
  8
DEFAULT
 10
23.13917332522264
 20
36.57548614439356
 30
0.0
  0
VERTEX
  5
F2
  8
DEFAULT
 10
23.13917332522279
 20
26.81312506452967
 30
0.0
  0
SEQEND
  5
EC
  8
DEFAULT
  0
POLYLINE
  5
F3
  8
DEFAULT
 66
     1
 10
0.0
 20
0.0
 30
0.0
  0
VERTEX
  5
F5
  8
DEFAULT
 10
2.984777912618126
 20
36.53705102469397
 30
0.0
 42
-0.414213562372945
  0
VERTEX
  5
F6
  8
DEFAULT
 10
3.177580551570818
 20
36.72985366364656
 30
0.0
  0
VERTEX
  5
F7
  8
DEFAULT
 10
22.3101527258917
 20
36.72985366364655
 30
0.0
 42
-0.4142135623728209
  0
VERTEX
  5
F8
  8
DEFAULT
 10
22.50295536484411
 20
36.53705102469397
 30
0.0
  0
VERTEX
  5
F9
  8
DEFAULT
 10
22.50295536484411
 20
28.38394114701294
 30
0.0
 42
-0.4142135623733537
  0
VERTEX
  5
FA
  8
DEFAULT
 10
22.3101527258917
 20
28.19113850806036
 30
0.0
  0
VERTEX
  5
FB
  8
DEFAULT
 10
3.177580551570818
 20
28.19113850806035
 30
0.0
 42
-0.4142135623732477
  0
VERTEX
  5
FC
  8
DEFAULT
 10
2.98477791261813
 20
28.38394114701294
 30
0.0
  0
VERTEX
  5
FD
  8
DEFAULT
 10
2.984777912618126
 20
36.53705102469397
 30
0.0
  0
SEQEND
  5
F4
  8
DEFAULT
  0
LINE
  5
FE
  8
DEFAULT
 10
24.93891880897211
 20
55.98998967595557
 30
0.0
 11
23.44119870782131
 21
55.98998967595557
 31
0.0
  0
ARC
  5
FF
  8
DEFAULT
 10
24.93891880897211
 20
56.28998967595557
 30
0.0
 40
0.3
 50
270.0
 51
337.4366490285381
  0
ARC
  5
100
  8
DEFAULT
 10
23.44119870782134
 20
56.28998967595557
 30
0.0
 40
0.3
 50
202.4197808207834
 51
269.9999999999959
  0
LINE
  5
101
  8
DEFAULT
 10
23.34883278658563
 20
54.43232588416095
 30
0.0
 11
25.03130711332886
 21
54.43244184674272
 31
0.0
  0
LINE
  5
102
  8
DEFAULT
 10
25.23839476894492
 20
54.58654902668131
 30
0.0
 11
25.24468674050441
 21
75.03863132408857
 31
0.0
  0
LINE
  5
103
  8
DEFAULT
 10
25.08815830889269
 20
75.23893339594862
 30
0.0
 11
23.34879778265361
 21
75.23893339594859
 31
0.0
  0
ARC
  5
104
  8
DEFAULT
 10
23.37371340628541
 20
54.66846207927652
 30
0.0
 40
0.237443357204005
 50
186.0187571944223
 51
263.9851918504114
  0
ARC
  5
105
  8
DEFAULT
 10
25.03846006505903
 20
54.63902451224046
 30
0.0
 40
0.2067064643464395
 50
268.0169184153521
 51
345.2936731351433
  0
LINE
  5
106
  8
DEFAULT
 10
23.18240995053573
 20
75.03863132408857
 30
0.0
 11
23.13757892659843
 21
54.64356518422378
 31
0.0
  0
ARC
  5
107
  8
DEFAULT
 10
25.04158996292344
 20
75.04123047287493
 30
0.0
 40
0.2031134083171132
 50
359.2667922731652
 51
76.74574758195881
  0
ARC
  5
108
  8
DEFAULT
 10
23.39025225554438
 20
75.03523887181731
 30
0.0
 40
0.2078699893773026
 50
101.5033366929634
 51
179.0648874936944
  0
ARC
  5
109
  8
DEFAULT
 10
2.098301124076774
 20
75.03523887181733
 30
0.0
 40
0.207869989377286
 50
0.935112506301724
 51
78.49666330703944
  0
ARC
  5
10A
  8
DEFAULT
 10
0.4469634166976935
 20
75.04123047287494
 30
0.0
 40
0.2031134083170986
 50
103.2542524180411
 51
180.7332077268389
  0
LINE
  5
10B
  8
DEFAULT
 10
2.30614342908541
 20
75.03863132408857
 30
0.0
 11
2.350974453022709
 21
54.64356518422378
 31
0.0
  0
ARC
  5
10C
  8
DEFAULT
 10
0.4500933145621033
 20
54.63902451224045
 30
0.0
 40
0.2067064643464325
 50
194.7063268648552
 51
271.9830815846493
  0
ARC
  5
10D
  8
DEFAULT
 10
2.11483997333573
 20
54.66846207927652
 30
0.0
 40
0.2374433572040019
 50
276.0148081495874
 51
353.9812428055776
  0
LINE
  5
10E
  8
DEFAULT
 10
0.4003950707284416
 20
75.23893339594862
 30
0.0
 11
2.139755596967531
 21
75.23893339594859
 31
0.0
  0
LINE
  5
10F
  8
DEFAULT
 10
0.250158610676217
 20
54.58654902668131
 30
0.0
 11
0.2438666391167246
 21
75.03863132408857
 31
0.0
  0
LINE
  5
110
  8
DEFAULT
 10
2.139720593035508
 20
54.43232588416095
 30
0.0
 11
0.4572462662922772
 21
54.43244184674272
 31
0.0
  0
ARC
  5
111
  8
DEFAULT
 10
2.047354671799801
 20
56.28998967595557
 30
0.0
 40
0.3
 50
270.0000000000043
 51
337.5802191792165
  0
ARC
  5
112
  8
DEFAULT
 10
0.5496345706490251
 20
56.28998967595557
 30
0.0
 40
0.3
 50
202.5633509714619
 51
269.9999999999999
  0
LINE
  5
113
  8
DEFAULT
 10
0.5496345706490249
 20
55.98998967595557
 30
0.0
 11
2.047354671799823
 21
55.98998967595557
 31
0.0
  0
POLYLINE
  5
114
  8
DEFAULT
 66
     1
 10
0.0
 20
0.0
 30
0.0
  0
VERTEX
  5
116
  8
DEFAULT
 10
2.139720593035508
 20
16.86985876603623
 30
0.0
  0
VERTEX
  5
117
  8
DEFAULT
 10
0.4572462662922773
 20
16.869974728618
 30
0.0
  0
VERTEX
  5
118
  8
DEFAULT
 10
0.3994505939156599
 20
16.88078792396416
 30
0.0
  0
VERTEX
  5
119
  8
DEFAULT
 10
0.3803477531666508
 20
16.88873363546867
 30
0.0
  0
VERTEX
  5
11A
  8
DEFAULT
 10
0.3435574251420035
 20
16.91009571500882
 30
0.0
  0
VERTEX
  5
11B
  8
DEFAULT
 10
0.3099562110913802
 20
16.93759498875431
 30
0.0
  0
VERTEX
  5
11C
  8
DEFAULT
 10
0.2811064822262154
 20
16.96984303930174
 30
0.0
  0
VERTEX
  5
11D
  8
DEFAULT
 10
0.2689516657417534
 20
16.98731397543763
 30
0.0
  0
VERTEX
  5
11E
  8
DEFAULT
 10
0.2585706097579442
 20
17.00545144924772
 30
0.0
  0
VERTEX
  5
11F
  8
DEFAULT
 10
0.250158610676217
 20
17.0240819085566
 30
0.0
  0
VERTEX
  5
120
  8
DEFAULT
 10
0.2438666391167246
 20
27.40888983388486
 30
0.0
  0
VERTEX
  5
121
  8
DEFAULT
 10
0.2631545336380551
 20
27.48411363876656
 30
0.0
  0
VERTEX
  5
122
  8
DEFAULT
 10
0.2850148902072131
 20
27.5197003743602
 30
0.0
  0
VERTEX
  5
123
  8
DEFAULT
 10
0.3130450363205112
 20
27.5520279453601
 30
0.0
  0
VERTEX
  5
124
  8
DEFAULT
 10
0.345764109481808
 20
27.57966456174458
 30
0.0
  0
VERTEX
  5
125
  8
DEFAULT
 10
0.3816912471949622
 20
27.60117843349194
 30
0.0
  0
VERTEX
  5
126
  8
DEFAULT
 10
0.4003950707284416
 20
27.60919190574493
 30
0.0
  0
VERTEX
  5
127
  8
DEFAULT
 10
2.139720593035508
 20
27.62022674557032
 30
0.0
  0
VERTEX
  5
128
  8
DEFAULT
 10
2.173342728889075
 20
27.61742196187354
 30
0.0
  0
VERTEX
  5
129
  8
DEFAULT
 10
2.208727869010695
 20
27.60929433985154
 30
0.0
  0
VERTEX
  5
12A
  8
DEFAULT
 10
2.243950980757115
 20
27.59628061025626
 30
0.0
  0
VERTEX
  5
12B
  8
DEFAULT
 10
2.277087031485086
 20
27.57881750383963
 30
0.0
  0
VERTEX
  5
12C
  8
DEFAULT
 10
2.306210988551355
 20
27.55734175135358
 30
0.0
  0
VERTEX
  5
12D
  8
DEFAULT
 10
2.350974453022709
 20
17.08109806609907
 30
0.0
  0
VERTEX
  5
12E
  8
DEFAULT
 10
2.331972727873095
 20
17.00607955399463
 30
0.0
  0
VERTEX
  5
12F
  8
DEFAULT
 10
2.310392549038519
 20
16.97049694003626
 30
0.0
  0
VERTEX
  5
130
  8
DEFAULT
 10
2.282693562723017
 20
16.9381323699689
 30
0.0
  0
VERTEX
  5
131
  8
DEFAULT
 10
2.250326321445775
 20
16.91043605566389
 30
0.0
  0
VERTEX
  5
132
  8
DEFAULT
 10
2.214741377725985
 20
16.88885820899255
 30
0.0
  0
VERTEX
  5
133
  8
DEFAULT
 10
2.19619556511238
 20
16.8808169022293
 30
0.0
  0
SEQEND
  5
115
  8
DEFAULT
  0
LINE
  5
134
  8
DEFAULT
 10
3.314853632588492
 20
51.44163379252199
 30
0.0
 11
22.17369974703265
 21
51.44163379252199
 31
0.0
  0
ARC
  5
135
  8
DEFAULT
 10
20.69914397602501
 20
68.72926792702377
 30
0.0
 40
1.974647178257917
 50
359.448703964893
 51
31.46669932526889
  0
LINE
  5
136
  8
DEFAULT
 10
22.67369974703448
 20
68.71026830136506
 30
0.0
 11
22.67369974703448
 21
51.94163379252204
 31
0.0
  0
ARC
  5
137
  8
DEFAULT
 10
22.17369974703448
 20
51.94163379252199
 30
0.0
 40
0.5
 50
269.9999999997899
 51
0.0000000000056996
  0
ARC
  5
138
  8
DEFAULT
 10
3.314853632586658
 20
51.94163379252199
 30
0.0
 40
0.5
 50
179.9999999999943
 51
270.0000000002102
  0
LINE
  5
139
  8
DEFAULT
 10
2.814853632586658
 20
68.71026830136506
 30
0.0
 11
2.814853632586658
 21
51.94163379252204
 31
0.0
  0
ARC
  5
13A
  8
DEFAULT
 10
4.789409403596124
 20
68.72926792702377
 30
0.0
 40
1.974647178257917
 50
148.5333006747306
 51
180.5512960351062
  0
POLYLINE
  5
13B
  8
DEFAULT
 66
     1
 10
0.0
 20
0.0
 30
0.0
  0
VERTEX
  5
13D
  8
DEFAULT
 10
3.033348089952407
 20
72.96163047603686
 30
0.0
 42
0.4988800234657326
  0
VERTEX
  5
13E
  8
DEFAULT
 10
3.931590852594244
 20
72.36733177598566
 30
0.0
 42
-0.1721712208911459
  0
VERTEX
  5
13F
  8
DEFAULT
 10
21.55696081950582
 20
72.36733177598568
 30
0.0
 42
0.4988800234657094
  0
VERTEX
  5
140
  8
DEFAULT
 10
22.45520358214766
 20
72.96163047603683
 30
0.0
  0
SEQEND
  5
13C
  8
DEFAULT
  0
POLYLINE
  5
141
  8
DEFAULT
 66
     1
 10
0.0
 20
0.0
 30
0.0
  0
VERTEX
  5
143
  8
DEFAULT
 10
3.024873357519088
 20
69.8845412741433
 30
0.0
 42
0.3566329485030194
  0
VERTEX
  5
144
  8
DEFAULT
 10
3.934414376719321
 20
69.50272538195831
 30
0.0
 42
-0.1448475036204167
  0
VERTEX
  5
145
  8
DEFAULT
 10
21.55413729615197
 20
69.50272538195829
 30
0.0
 42
0.3566329486736038
  0
VERTEX
  5
146
  8
DEFAULT
 10
22.46367831458094
 20
69.8845412741433
 30
0.0
  0
SEQEND
  5
142
  8
DEFAULT
  0
LINE
  5
147
  8
DEFAULT
 10
3.024873357519093
 20
69.88454127414329
 30
0.0
 11
3.042456398306527
 21
72.79968014586359
 31
0.0
  0
LINE
  5
148
  8
DEFAULT
 10
22.46367831458097
 20
69.88454127414329
 30
0.0
 11
22.44609527379354
 21
72.79968014586359
 31
0.0
  0
ARC
  5
149
  8
DEFAULT
 10
55.4020617392092
 20
14.47363606053263
 30
0.0
 40
0.1446019789840543
 50
100.4599091414738
 51
280.4599091414652
  0
LINE
  5
14A
  8
DEFAULT
 10
51.11167405189305
 20
4.5410468910481
 30
0.0
 11
53.40120538945506
 21
4.545204167102096
 31
0.0
  0
ARC
  5
14B
  8
DEFAULT
 10
54.14720892994731
 20
2.591797462826574
 30
0.0
 40
2.170753148376669
 50
130.4765837103808
 51
185.7006452214993
  0
POLYLINE
  5
14C
  8
DEFAULT
 66
     1
 10
0.0
 20
0.0
 30
0.0
  0
VERTEX
  5
14E
  8
DEFAULT
 10
53.14711209878134
 20
4.211084612842797
 30
0.0
  0
VERTEX
  5
14F
  8
DEFAULT
 10
55.68400221644284
 20
3.506058591916945
 30
0.0
  0
VERTEX
  5
150
  8
DEFAULT
 10
55.86407796150674
 20
3.44206430364347
 30
0.0
  0
VERTEX
  5
151
  8
DEFAULT
 10
56.02317520570967
 20
3.356001107606339
 30
0.0
  0
VERTEX
  5
152
  8
DEFAULT
 10
56.16129394905163
 20
3.247869003805552
 30
0.0
  0
VERTEX
  5
153
  8
DEFAULT
 10
56.27843419153263
 20
3.117667992241108
 30
0.0
  0
VERTEX
  5
154
  8
DEFAULT
 10
56.37459593315265
 20
2.965398072913008
 30
0.0
  0
VERTEX
  5
155
  8
DEFAULT
 10
56.44977917391171
 20
2.791059245821252
 30
0.0
  0
VERTEX
  5
156
  8
DEFAULT
 10
56.5039839138098
 20
2.594651510965841
 30
0.0
  0
VERTEX
  5
157
  8
DEFAULT
 10
56.53721015284691
 20
2.376174868346772
 30
0.0
  0
SEQEND
  5
14D
  8
DEFAULT
  0
POLYLINE
  5
158
  8
DEFAULT
 66
     1
 10
0.0
 20
0.0
 30
0.0
  0
VERTEX
  5
15A
  8
DEFAULT
 10
42.37310003144803
 20
2.376174139552797
 30
0.0
  0
VERTEX
  5
15B
  8
DEFAULT
 10
42.39760670168135
 20
2.613219338135442
 30
0.0
  0
VERTEX
  5
15C
  8
DEFAULT
 10
42.44405560278465
 20
2.821352647927034
 30
0.0
  0
VERTEX
  5
15D
  8
DEFAULT
 10
42.51244673475792
 20
3.000574068927572
 30
0.0
  0
VERTEX
  5
15E
  8
DEFAULT
 10
42.55487063732079
 20
3.079342821131196
 30
0.0
  0
VERTEX
  5
15F
  8
DEFAULT
 10
42.60278009760116
 20
3.150883601137057
 30
0.0
  0
VERTEX
  5
160
  8
DEFAULT
 10
42.65617511559901
 20
3.215196408945154
 30
0.0
  0
VERTEX
  5
161
  8
DEFAULT
 10
42.71505569131436
 20
3.272281244555487
 30
0.0
  0
VERTEX
  5
162
  8
DEFAULT
 10
42.7794218247472
 20
3.322138107968058
 30
0.0
  0
VERTEX
  5
163
  8
DEFAULT
 10
42.84927351589754
 20
3.364766999182864
 30
0.0
  0
VERTEX
  5
164
  8
DEFAULT
 10
42.92461076476538
 20
3.400167918199907
 30
0.0
  0
VERTEX
  5
165
  8
DEFAULT
 10
43.00543357135069
 20
3.428340865019187
 30
0.0
  0
VERTEX
  5
166
  8
DEFAULT
 10
43.09174193565351
 20
3.449285839640704
 30
0.0
  0
VERTEX
  5
167
  8
DEFAULT
 10
43.18353585767382
 20
3.463002842064456
 30
0.0
  0
VERTEX
  5
168
  8
DEFAULT
 10
50.58725371276803
 20
4.254228701008403
 30
0.0
  0
SEQEND
  5
159
  8
DEFAULT
  0
POLYLINE
  5
169
  8
DEFAULT
 66
     1
 10
0.0
 20
0.0
 30
0.0
  0
VERTEX
  5
16B
  8
DEFAULT
 10
54.2778885602667
 20
4.256000208673205
 30
0.0
  0
VERTEX
  5
16C
  8
DEFAULT
 10
63.47086045562121
 20
3.460689322993769
 30
0.0
  0
VERTEX
  5
16D
  8
DEFAULT
 10
63.56258644658217
 20
3.448790734281308
 30
0.0
  0
VERTEX
  5
16E
  8
DEFAULT
 10
63.6488211804176
 20
3.429441000362938
 30
0.0
  0
VERTEX
  5
16F
  8
DEFAULT
 10
63.72956465712749
 20
3.402640121238661
 30
0.0
  0
VERTEX
  5
170
  8
DEFAULT
 10
63.80481687671184
 20
3.368388096908475
 30
0.0
  0
VERTEX
  5
171
  8
DEFAULT
 10
63.87457783917066
 20
3.326684927372382
 30
0.0
  0
VERTEX
  5
172
  8
DEFAULT
 10
63.93884754450394
 20
3.277530612630381
 30
0.0
  0
VERTEX
  5
173
  8
DEFAULT
 10
63.9976259927117
 20
3.220925152682472
 30
0.0
  0
VERTEX
  5
174
  8
DEFAULT
 10
64.05091318379391
 20
3.156868547528656
 30
0.0
  0
VERTEX
  5
175
  8
DEFAULT
 10
64.09870911775059
 20
3.085360797168931
 30
0.0
  0
VERTEX
  5
176
  8
DEFAULT
 10
64.14101379458174
 20
3.006401901603299
 30
0.0
  0
VERTEX
  5
177
  8
DEFAULT
 10
64.20914937686743
 20
2.826130674854311
 30
0.0
  0
VERTEX
  5
178
  8
DEFAULT
 10
64.25531993065097
 20
2.616054867281692
 30
0.0
  0
VERTEX
  5
179
  8
DEFAULT
 10
64.27952545593239
 20
2.376174478885441
 30
0.0
  0
SEQEND
  5
16A
  8
DEFAULT
  0
LINE
  5
17A
  8
DEFAULT
 10
62.74785055954901
 20
2.300267928001326
 30
0.0
 11
62.81716012453124
 21
2.143934273646348
 31
0.0
  0
LINE
  5
17B
  8
DEFAULT
 10
54.99887641398417
 20
2.300267928001326
 30
0.0
 11
55.0681859789664
 21
2.143934273646356
 31
0.0
  0
LINE
  5
17C
  8
DEFAULT
 10
42.4619209079747
 20
2.300267928001326
 30
0.0
 11
42.53123047295693
 21
2.143934273646354
 31
0.0
  0
POLYLINE
  5
17D
  8
DEFAULT
 66
     1
 10
0.0
 20
0.0
 30
0.0
  0
VERTEX
  5
17F
  8
DEFAULT
 10
63.77394737495442
 20
0.6438732894123511
 30
0.0
  0
VERTEX
  5
180
  8
DEFAULT
 10
63.85381260777724
 20
0.6780552729294971
 30
0.0
  0
VERTEX
  5
181
  8
DEFAULT
 10
63.92358018111737
 20
0.7181940943802651
 30
0.0
  0
VERTEX
  5
182
  8
DEFAULT
 10
63.98325009497479
 20
0.7642897537646552
 30
0.0
  0
VERTEX
  5
183
  8
DEFAULT
 10
64.03282234934952
 20
0.8163422510826676
 30
0.0
  0
VERTEX
  5
184
  8
DEFAULT
 10
64.07229694424154
 20
0.874351586334302
 30
0.0
  0
VERTEX
  5
185
  8
DEFAULT
 10
64.10167387965086
 20
0.9383177595195585
 30
0.0
  0
VERTEX
  5
186
  8
DEFAULT
 10
64.12095315557747
 20
1.008240770638437
 30
0.0
  0
VERTEX
  5
187
  8
DEFAULT
 10
64.13013477202139
 20
1.084120619690938
 30
0.0
  0
VERTEX
  5
188
  8
DEFAULT
 10
64.19387035169343
 20
2.300267928001326
 30
0.0
  0
SEQEND
  5
17E
  8
DEFAULT
  0
POLYLINE
  5
189
  8
DEFAULT
 66
     1
 10
0.0
 20
0.0
 30
0.0
  0
VERTEX
  5
18B
  8
DEFAULT
 10
56.02497321626432
 20
0.6438732857189358
 30
0.0
  0
VERTEX
  5
18C
  8
DEFAULT
 10
56.1048384520884
 20
0.6780552686711301
 30
0.0
  0
VERTEX
  5
18D
  8
DEFAULT
 10
56.17460602804104
 20
0.718194089850269
 30
0.0
  0
VERTEX
  5
18E
  8
DEFAULT
 10
56.23427594412224
 20
0.7642897492563524
 30
0.0
  0
VERTEX
  5
18F
  8
DEFAULT
 10
56.28384820033199
 20
0.8163422468893804
 30
0.0
  0
VERTEX
  5
190
  8
DEFAULT
 10
56.32332279667029
 20
0.874351582749353
 30
0.0
  0
VERTEX
  5
191
  8
DEFAULT
 10
56.35269973313715
 20
0.9383177568362702
 30
0.0
  0
VERTEX
  5
192
  8
DEFAULT
 10
56.37197900973257
 20
1.008240769150132
 30
0.0
  0
VERTEX
  5
193
  8
DEFAULT
 10
56.38116062645654
 20
1.084120619690938
 30
0.0
  0
VERTEX
  5
194
  8
DEFAULT
 10
56.44489620612862
 20
2.300267928001326
 30
0.0
  0
SEQEND
  5
18A
  8
DEFAULT
  0
POLYLINE
  5
195
  8
DEFAULT
 66
     1
 10
0.0
 20
0.0
 30
0.0
  0
VERTEX
  5
197
  8
DEFAULT
 10
43.48801772338009
 20
0.6438732894123511
 30
0.0
  0
VERTEX
  5
198
  8
DEFAULT
 10
43.56788295620292
 20
0.6780552729294986
 30
0.0
  0
VERTEX
  5
199
  8
DEFAULT
 10
43.63765052954305
 20
0.7181940943802677
 30
0.0
  0
VERTEX
  5
19A
  8
DEFAULT
 10
43.69732044340047
 20
0.7642897537646586
 30
0.0
  0
VERTEX
  5
19B
  8
DEFAULT
 10
43.7468926977752
 20
0.8163422510826711
 30
0.0
  0
VERTEX
  5
19C
  8
DEFAULT
 10
43.78636729266722
 20
0.8743515863343053
 30
0.0
  0
VERTEX
  5
19D
  8
DEFAULT
 10
43.81574422807654
 20
0.9383177595195612
 30
0.0
  0
VERTEX
  5
19E
  8
DEFAULT
 10
43.83502350400315
 20
1.008240770638439
 30
0.0
  0
VERTEX
  5
19F
  8
DEFAULT
 10
43.84420512044707
 20
1.084120619690938
 30
0.0
  0
VERTEX
  5
1A0
  8
DEFAULT
 10
43.90794070011913
 20
2.300267928001326
 30
0.0
  0
SEQEND
  5
196
  8
DEFAULT
  0
POLYLINE
  5
1A1
  8
DEFAULT
 66
     1
 10
0.0
 20
0.0
 30
0.0
  0
VERTEX
  5
1A3
  8
DEFAULT
 10
22.50295536484411
 20
19.49194607821316
 30
0.0
  0
VERTEX
  5
1A4
  8
DEFAULT
 10
22.50295536484412
 20
27.99833586910777
 30
0.0
 42
0.4142135623733559
  0
VERTEX
  5
1A5
  8
DEFAULT
 10
22.3101527258917
 20
28.19113850806036
 30
0.0
  0
VERTEX
  5
1A6
  8
DEFAULT
 10
3.177580551570818
 20
28.19113850806037
 30
0.0
 42
0.4142135623732325
  0
VERTEX
  5
1A7
  8
DEFAULT
 10
2.98477791261813
 20
27.99833586910777
 30
0.0
  0
VERTEX
  5
1A8
  8
DEFAULT
 10
2.984777912618112
 20
19.4919460774111
 30
0.0
  0
SEQEND
  5
1A2
  8
DEFAULT
  0
POLYLINE
  5
1A9
  8
DEFAULT
 66
     1
 10
0.0
 20
0.0
 30
0.0
  0
VERTEX
  5
1AB
  8
DEFAULT
 10
23.34801268519794
 20
16.86985876603623
 30
0.0
  0
VERTEX
  5
1AC
  8
DEFAULT
 10
25.03048701194117
 20
16.869974728618
 30
0.0
  0
VERTEX
  5
1AD
  8
DEFAULT
 10
25.08828268431779
 20
16.88078792396416
 30
0.0
  0
VERTEX
  5
1AE
  8
DEFAULT
 10
25.1073855250668
 20
16.88873363546867
 30
0.0
  0
VERTEX
  5
1AF
  8
DEFAULT
 10
25.14417585309145
 20
16.91009571500882
 30
0.0
  0
VERTEX
  5
1B0
  8
DEFAULT
 10
25.17777706714207
 20
16.93759498875431
 30
0.0
  0
VERTEX
  5
1B1
  8
DEFAULT
 10
25.20662679600724
 20
16.96984303930174
 30
0.0
  0
VERTEX
  5
1B2
  8
DEFAULT
 10
25.2187816124917
 20
16.98731397543763
 30
0.0
  0
VERTEX
  5
1B3
  8
DEFAULT
 10
25.22916266847551
 20
17.00545144924772
 30
0.0
  0
VERTEX
  5
1B4
  8
DEFAULT
 10
25.23757466755723
 20
17.0240819085566
 30
0.0
  0
VERTEX
  5
1B5
  8
DEFAULT
 10
25.24386663911673
 20
27.40888983388486
 30
0.0
  0
VERTEX
  5
1B6
  8
DEFAULT
 10
25.22457874459539
 20
27.48411363876656
 30
0.0
  0
VERTEX
  5
1B7
  8
DEFAULT
 10
25.20271838802623
 20
27.5197003743602
 30
0.0
  0
VERTEX
  5
1B8
  8
DEFAULT
 10
25.17468824191294
 20
27.5520279453601
 30
0.0
  0
VERTEX
  5
1B9
  8
DEFAULT
 10
25.14196916875164
 20
27.57966456174458
 30
0.0
  0
VERTEX
  5
1BA
  8
DEFAULT
 10
25.10604203103848
 20
27.60117843349194
 30
0.0
  0
VERTEX
  5
1BB
  8
DEFAULT
 10
25.08733820750501
 20
27.60919190574493
 30
0.0
  0
VERTEX
  5
1BC
  8
DEFAULT
 10
23.34801268519794
 20
27.62022674557032
 30
0.0
  0
VERTEX
  5
1BD
  8
DEFAULT
 10
23.31439054934437
 20
27.61742196187354
 30
0.0
  0
VERTEX
  5
1BE
  8
DEFAULT
 10
23.27900540922276
 20
27.60929433985154
 30
0.0
  0
VERTEX
  5
1BF
  8
DEFAULT
 10
23.24378229747633
 20
27.59628061025626
 30
0.0
  0
VERTEX
  5
1C0
  8
DEFAULT
 10
23.21064624674836
 20
27.57881750383963
 30
0.0
  0
VERTEX
  5
1C1
  8
DEFAULT
 10
23.18152228968209
 20
27.55734175135358
 30
0.0
  0
VERTEX
  5
1C2
  8
DEFAULT
 10
23.13675882521074
 20
17.08109806609907
 30
0.0
  0
VERTEX
  5
1C3
  8
DEFAULT
 10
23.15576055036036
 20
17.00607955399463
 30
0.0
  0
VERTEX
  5
1C4
  8
DEFAULT
 10
23.17734072919493
 20
16.97049694003626
 30
0.0
  0
VERTEX
  5
1C5
  8
DEFAULT
 10
23.20503971551043
 20
16.9381323699689
 30
0.0
  0
VERTEX
  5
1C6
  8
DEFAULT
 10
23.23740695678767
 20
16.91043605566389
 30
0.0
  0
VERTEX
  5
1C7
  8
DEFAULT
 10
23.27299190050746
 20
16.88885820899255
 30
0.0
  0
VERTEX
  5
1C8
  8
DEFAULT
 10
23.29153771312107
 20
16.8808169022293
 30
0.0
  0
SEQEND
  5
1AA
  8
DEFAULT
  0
POLYLINE
  5
1C9
  8
DEFAULT
 66
     1
 10
0.0
 20
0.0
 30
0.0
  0
VERTEX
  5
1CB
  8
DEFAULT
 10
22.43315278183565
 20
18.51746966724245
 30
0.0
 42
0.222400390751623
  0
VERTEX
  5
1CC
  8
DEFAULT
 10
22.67293476144549
 20
19.09561220291454
 30
0.0
 42
0.4082190024488819
  0
VERTEX
  5
1CD
  8
DEFAULT
 10
22.04779738249956
 20
19.67930731186703
 30
0.0
 42
0.0375510525979402
  0
VERTEX
  5
1CE
  8
DEFAULT
 10
21.65369006401227
 20
19.64013035953683
 30
0.0
 42
-0.0872947900081146
  0
VERTEX
  5
1CF
  8
DEFAULT
 10
3.834045410419605
 20
19.64012997316015
 30
0.0
 42
0.0375508194587733
  0
VERTEX
  5
1D0
  8
DEFAULT
 10
3.439935895736265
 20
19.67930731186698
 30
0.0
 42
0.4082195203661563
  0
VERTEX
  5
1D1
  8
DEFAULT
 10
2.814798516787954
 20
19.09561220291455
 30
0.0
 42
0.2223999248564724
  0
VERTEX
  5
1D2
  8
DEFAULT
 10
3.054580496397791
 20
18.51746966724244
 30
0.0
  0
SEQEND
  5
1CA
  8
DEFAULT
  0
LINE
  5
1D3
  8
DEFAULT
 10
22.80105648099688
 20
0.000845966989516
 30
0.0
 11
23.04308954089591
 21
0.000845966989516
 31
0.0
  0
LINE
  5
1D4
  8
DEFAULT
 10
23.77573956891575
 20
0.000845966989516
 30
0.0
 11
24.01777262958596
 21
0.000845966989516
 31
0.0
  0
LINE
  5
1D5
  8
DEFAULT
 10
22.68640465883361
 20
2.300267928001326
 30
0.0
 11
24.13242445097804
 21
2.300267928001326
 31
0.0
  0
LINE
  5
1D6
  8
DEFAULT
 10
22.70876472740475
 20
1.873612404759249
 30
0.0
 11
22.68640465883361
 21
2.300267928001326
 31
0.0
  0
LINE
  5
1D7
  8
DEFAULT
 10
23.04308954089591
 20
0.0008581960753
 30
0.0
 11
23.04308954089591
 21
0.7495653376372955
 31
0.0
  0
LINE
  5
1D8
  8
DEFAULT
 10
23.77573956891575
 20
0.0008581960753
 30
0.0
 11
23.77573956891575
 21
0.7495349989852409
 31
0.0
  0
LINE
  5
1D9
  8
DEFAULT
 10
24.11006439705989
 20
1.8736126715981
 30
0.0
 11
24.13242445097804
 21
2.300267928001326
 31
0.0
  0
LINE
  5
1DA
  8
DEFAULT
 10
22.53077327006341
 20
1.901960033437049
 30
0.0
 11
22.53077327006341
 21
0.1871620456134497
 31
0.0
  0
LINE
  5
1DB
  8
DEFAULT
 10
24.28805583974824
 20
0.1871620456134951
 30
0.0
 11
24.28805583974824
 21
1.901960033437065
 31
0.0
  0
ARC
  5
1DC
  8
DEFAULT
 10
23.40944621930882
 20
1.281555627678484
 30
0.0
 40
0.6459341177828157
 50
235.4466443046792
 51
304.547264788091
  0
LINE
  5
1DD
  8
DEFAULT
 10
23.77573956891575
 20
0.63562151067178
 30
0.0
 11
23.04308954089591
 21
0.63562151067178
 31
0.0
  0
POLYLINE
  5
1DE
  8
DEFAULT
 66
     1
 10
0.0
 20
0.0
 30
0.0
  0
VERTEX
  5
1E0
  8
DEFAULT
 10
22.80105648099688
 20
0.000845966989516
 30
0.0
  0
VERTEX
  5
1E1
  8
DEFAULT
 10
22.75802548236959
 20
0.0043635550061037
 30
0.0
  0
VERTEX
  5
1E2
  8
DEFAULT
 10
22.71266058199588
 20
0.0145698051769589
 30
0.0
  0
VERTEX
  5
1E3
  8
DEFAULT
 10
22.66744953035762
 20
0.0309449466837198
 30
0.0
  0
VERTEX
  5
1E4
  8
DEFAULT
 10
22.62488007793668
 20
0.0529692087080247
 30
0.0
  0
VERTEX
  5
1E5
  8
DEFAULT
 10
22.58743997521493
 20
0.0801228204315119
 30
0.0
  0
VERTEX
  5
1E6
  8
DEFAULT
 10
22.57142085201682
 20
0.0954607040497108
 30
0.0
  0
VERTEX
  5
1E7
  8
DEFAULT
 10
22.55761697267421
 20
0.1118860110358197
 30
0.0
  0
VERTEX
  5
1E8
  8
DEFAULT
 10
22.54633930599734
 20
0.1293337700375432
 30
0.0
  0
VERTEX
  5
1E9
  8
DEFAULT
 10
22.53789882079642
 20
0.1477390097025862
 30
0.0
  0
VERTEX
  5
1EA
  8
DEFAULT
 10
22.5326064858817
 20
0.1670367586786535
 30
0.0
  0
SEQEND
  5
1DF
  8
DEFAULT
  0
POLYLINE
  5
1EB
  8
DEFAULT
 66
     1
 10
0.0
 20
0.0
 30
0.0
  0
VERTEX
  5
1ED
  8
DEFAULT
 10
24.01777262958596
 20
0.000845966989516
 30
0.0
  0
VERTEX
  5
1EE
  8
DEFAULT
 10
24.06080362811935
 20
0.0043635550147863
 30
0.0
  0
VERTEX
  5
1EF
  8
DEFAULT
 10
24.10616852837718
 20
0.0145698052067281
 30
0.0
  0
VERTEX
  5
1F0
  8
DEFAULT
 10
24.1513795798882
 20
0.0309449467395382
 30
0.0
  0
VERTEX
  5
1F1
  8
DEFAULT
 10
24.1939490321812
 20
0.0529692087874132
 30
0.0
  0
VERTEX
  5
1F2
  8
DEFAULT
 10
24.23138913478493
 20
0.0801228205245497
 30
0.0
  0
VERTEX
  5
1F3
  8
DEFAULT
 10
24.24740825793107
 20
0.0954607041435275
 30
0.0
  0
VERTEX
  5
1F4
  8
DEFAULT
 10
24.26121213722817
 20
0.1118860111251445
 30
0.0
  0
VERTEX
  5
1F5
  8
DEFAULT
 10
24.27248980386735
 20
0.1293337701161751
 30
0.0
  0
VERTEX
  5
1F6
  8
DEFAULT
 10
24.28093028903969
 20
0.147739009763394
 30
0.0
  0
VERTEX
  5
1F7
  8
DEFAULT
 10
24.28622262393628
 20
0.1670367587135758
 30
0.0
  0
SEQEND
  5
1EC
  8
DEFAULT
  0
LINE
  5
1F8
  8
DEFAULT
 10
22.69846743994334
 20
2.070096353627576
 30
0.0
 11
22.56106504160183
 21
1.981720319456361
 31
0.0
  0
LINE
  5
1F9
  8
DEFAULT
 10
24.12036167022984
 20
2.070096353643891
 30
0.0
 11
24.25776406827682
 21
1.981720319409491
 31
0.0
  0
POLYLINE
  5
1FA
  8
DEFAULT
 66
     1
 10
0.0
 20
0.0
 30
0.0
  0
VERTEX
  5
1FC
  8
DEFAULT
 10
22.70876472740475
 20
1.873612404759249
 30
0.0
  0
VERTEX
  5
1FD
  8
DEFAULT
 10
22.76286848760069
 20
1.248342120906069
 30
0.0
  0
VERTEX
  5
1FE
  8
DEFAULT
 10
22.8012202854009
 20
1.099723029928531
 30
0.0
  0
VERTEX
  5
1FF
  8
DEFAULT
 10
22.85790640173803
 20
0.96383623452974
 30
0.0
  0
VERTEX
  5
200
  8
DEFAULT
 10
22.89443795051988
 20
0.9021757138574449
 30
0.0
  0
VERTEX
  5
201
  8
DEFAULT
 10
22.93712882433029
 20
0.8455081865019203
 30
0.0
  0
VERTEX
  5
202
  8
DEFAULT
 10
22.98650427163403
 20
0.7944369589371944
 30
0.0
  0
VERTEX
  5
203
  8
DEFAULT
 10
23.04308954089589
 20
0.7495653376372946
 30
0.0
  0
SEQEND
  5
1FB
  8
DEFAULT
  0
POLYLINE
  5
204
  8
DEFAULT
 66
     1
 10
0.0
 20
0.0
 30
0.0
  0
VERTEX
  5
206
  8
DEFAULT
 10
23.77574634168684
 20
0.7495263945890711
 30
0.0
  0
VERTEX
  5
207
  8
DEFAULT
 10
23.83233702527924
 20
0.7943937962266312
 30
0.0
  0
VERTEX
  5
208
  8
DEFAULT
 10
23.88171631946704
 20
0.8454625498467601
 30
0.0
  0
VERTEX
  5
209
  8
DEFAULT
 10
23.92440964183318
 20
0.9021291654724932
 30
0.0
  0
VERTEX
  5
20A
  8
DEFAULT
 10
23.9609424099606
 20
0.9637901531268659
 30
0.0
  0
VERTEX
  5
20B
  8
DEFAULT
 10
24.01762795383105
 20
1.099681284613672
 30
0.0
  0
VERTEX
  5
20C
  8
DEFAULT
 10
24.05597629174192
 20
1.24830802449146
 30
0.0
  0
VERTEX
  5
20D
  8
DEFAULT
 10
24.11006439705989
 20
1.8736126715981
 30
0.0
  0
SEQEND
  5
205
  8
DEFAULT
  0
LINE
  5
20E
  8
DEFAULT
 10
18.72634558669051
 20
0.000845966989516
 30
0.0
 11
18.96837864658954
 21
0.000845966989516
 31
0.0
  0
LINE
  5
20F
  8
DEFAULT
 10
19.70102867460938
 20
0.000845966989516
 30
0.0
 11
19.94306173527959
 21
0.000845966989516
 31
0.0
  0
LINE
  5
210
  8
DEFAULT
 10
18.61169376452723
 20
2.300267928001326
 30
0.0
 11
20.05771355667167
 21
2.300267928001326
 31
0.0
  0
LINE
  5
211
  8
DEFAULT
 10
18.63405383309838
 20
1.873612404759249
 30
0.0
 11
18.61169376452723
 21
2.300267928001326
 31
0.0
  0
LINE
  5
212
  8
DEFAULT
 10
18.96837864658954
 20
0.0008581960753
 30
0.0
 11
18.96837864658954
 21
0.7495653376372955
 31
0.0
  0
LINE
  5
213
  8
DEFAULT
 10
19.70102867460938
 20
0.0008581960753
 30
0.0
 11
19.70102867460938
 21
0.7495349989852409
 31
0.0
  0
LINE
  5
214
  8
DEFAULT
 10
20.03535350275351
 20
1.8736126715981
 30
0.0
 11
20.05771355667167
 21
2.300267928001326
 31
0.0
  0
LINE
  5
215
  8
DEFAULT
 10
18.45606237575703
 20
1.901960033437049
 30
0.0
 11
18.45606237575703
 21
0.1871620456134497
 31
0.0
  0
LINE
  5
216
  8
DEFAULT
 10
20.21334494544187
 20
0.1871620456134951
 30
0.0
 11
20.21334494544187
 21
1.901960033437065
 31
0.0
  0
ARC
  5
217
  8
DEFAULT
 10
19.33473532500245
 20
1.281555627678484
 30
0.0
 40
0.6459341177828157
 50
235.4466443046792
 51
304.547264788091
  0
LINE
  5
218
  8
DEFAULT
 10
19.70102867460938
 20
0.63562151067178
 30
0.0
 11
18.96837864658954
 21
0.63562151067178
 31
0.0
  0
POLYLINE
  5
219
  8
DEFAULT
 66
     1
 10
0.0
 20
0.0
 30
0.0
  0
VERTEX
  5
21B
  8
DEFAULT
 10
18.72634558669051
 20
0.000845966989516
 30
0.0
  0
VERTEX
  5
21C
  8
DEFAULT
 10
18.68331458806322
 20
0.0043635550061037
 30
0.0
  0
VERTEX
  5
21D
  8
DEFAULT
 10
18.63794968768951
 20
0.0145698051769589
 30
0.0
  0
VERTEX
  5
21E
  8
DEFAULT
 10
18.59273863605125
 20
0.0309449466837198
 30
0.0
  0
VERTEX
  5
21F
  8
DEFAULT
 10
18.55016918363031
 20
0.0529692087080247
 30
0.0
  0
VERTEX
  5
220
  8
DEFAULT
 10
18.51272908090856
 20
0.0801228204315119
 30
0.0
  0
VERTEX
  5
221
  8
DEFAULT
 10
18.49670995771045
 20
0.0954607040497108
 30
0.0
  0
VERTEX
  5
222
  8
DEFAULT
 10
18.48290607836784
 20
0.1118860110358197
 30
0.0
  0
VERTEX
  5
223
  8
DEFAULT
 10
18.47162841169096
 20
0.1293337700375432
 30
0.0
  0
VERTEX
  5
224
  8
DEFAULT
 10
18.46318792649004
 20
0.1477390097025862
 30
0.0
  0
VERTEX
  5
225
  8
DEFAULT
 10
18.45789559157532
 20
0.1670367586786535
 30
0.0
  0
SEQEND
  5
21A
  8
DEFAULT
  0
POLYLINE
  5
226
  8
DEFAULT
 66
     1
 10
0.0
 20
0.0
 30
0.0
  0
VERTEX
  5
228
  8
DEFAULT
 10
19.94306173527959
 20
0.000845966989516
 30
0.0
  0
VERTEX
  5
229
  8
DEFAULT
 10
19.98609273381297
 20
0.0043635550147863
 30
0.0
  0
VERTEX
  5
22A
  8
DEFAULT
 10
20.0314576340708
 20
0.0145698052067281
 30
0.0
  0
VERTEX
  5
22B
  8
DEFAULT
 10
20.07666868558182
 20
0.0309449467395382
 30
0.0
  0
VERTEX
  5
22C
  8
DEFAULT
 10
20.11923813787482
 20
0.0529692087874132
 30
0.0
  0
VERTEX
  5
22D
  8
DEFAULT
 10
20.15667824047856
 20
0.0801228205245497
 30
0.0
  0
VERTEX
  5
22E
  8
DEFAULT
 10
20.17269736362469
 20
0.0954607041435275
 30
0.0
  0
VERTEX
  5
22F
  8
DEFAULT
 10
20.1865012429218
 20
0.1118860111251445
 30
0.0
  0
VERTEX
  5
230
  8
DEFAULT
 10
20.19777890956097
 20
0.1293337701161751
 30
0.0
  0
VERTEX
  5
231
  8
DEFAULT
 10
20.20621939473331
 20
0.147739009763394
 30
0.0
  0
VERTEX
  5
232
  8
DEFAULT
 10
20.21151172962991
 20
0.1670367587135758
 30
0.0
  0
SEQEND
  5
227
  8
DEFAULT
  0
LINE
  5
233
  8
DEFAULT
 10
18.62375654563696
 20
2.070096353627576
 30
0.0
 11
18.48635414729546
 21
1.981720319456361
 31
0.0
  0
LINE
  5
234
  8
DEFAULT
 10
20.04565077592347
 20
2.070096353643891
 30
0.0
 11
20.18305317397045
 21
1.981720319409491
 31
0.0
  0
POLYLINE
  5
235
  8
DEFAULT
 66
     1
 10
0.0
 20
0.0
 30
0.0
  0
VERTEX
  5
237
  8
DEFAULT
 10
18.63405383309838
 20
1.873612404759249
 30
0.0
  0
VERTEX
  5
238
  8
DEFAULT
 10
18.68815759329432
 20
1.248342120906069
 30
0.0
  0
VERTEX
  5
239
  8
DEFAULT
 10
18.72650939109453
 20
1.099723029928531
 30
0.0
  0
VERTEX
  5
23A
  8
DEFAULT
 10
18.78319550743166
 20
0.96383623452974
 30
0.0
  0
VERTEX
  5
23B
  8
DEFAULT
 10
18.8197270562135
 20
0.9021757138574449
 30
0.0
  0
VERTEX
  5
23C
  8
DEFAULT
 10
18.86241793002391
 20
0.8455081865019203
 30
0.0
  0
VERTEX
  5
23D
  8
DEFAULT
 10
18.91179337732766
 20
0.7944369589371944
 30
0.0
  0
VERTEX
  5
23E
  8
DEFAULT
 10
18.96837864658951
 20
0.7495653376372946
 30
0.0
  0
SEQEND
  5
236
  8
DEFAULT
  0
POLYLINE
  5
23F
  8
DEFAULT
 66
     1
 10
0.0
 20
0.0
 30
0.0
  0
VERTEX
  5
241
  8
DEFAULT
 10
19.70103544738047
 20
0.7495263945890711
 30
0.0
  0
VERTEX
  5
242
  8
DEFAULT
 10
19.75762613097286
 20
0.7943937962266312
 30
0.0
  0
VERTEX
  5
243
  8
DEFAULT
 10
19.80700542516066
 20
0.8454625498467601
 30
0.0
  0
VERTEX
  5
244
  8
DEFAULT
 10
19.8496987475268
 20
0.9021291654724932
 30
0.0
  0
VERTEX
  5
245
  8
DEFAULT
 10
19.88623151565422
 20
0.9637901531268659
 30
0.0
  0
VERTEX
  5
246
  8
DEFAULT
 10
19.94291705952468
 20
1.099681284613672
 30
0.0
  0
VERTEX
  5
247
  8
DEFAULT
 10
19.98126539743555
 20
1.24830802449146
 30
0.0
  0
VERTEX
  5
248
  8
DEFAULT
 10
20.03535350275351
 20
1.8736126715981
 30
0.0
  0
SEQEND
  5
240
  8
DEFAULT
  0
LINE
  5
249
  8
DEFAULT
 10
12.13550856520777
 20
0.000845966989516
 30
0.0
 11
12.3775416251068
 21
0.000845966989516
 31
0.0
  0
LINE
  5
24A
  8
DEFAULT
 10
13.11019165312664
 20
0.000845966989516
 30
0.0
 11
13.35222471379685
 21
0.000845966989516
 31
0.0
  0
LINE
  5
24B
  8
DEFAULT
 10
12.0208567430445
 20
2.300267928001326
 30
0.0
 11
13.46687653518893
 21
2.300267928001326
 31
0.0
  0
LINE
  5
24C
  8
DEFAULT
 10
12.04321681161564
 20
1.873612404759249
 30
0.0
 11
12.0208567430445
 21
2.300267928001326
 31
0.0
  0
LINE
  5
24D
  8
DEFAULT
 10
12.3775416251068
 20
0.0008581960753
 30
0.0
 11
12.3775416251068
 21
0.7495653376372955
 31
0.0
  0
LINE
  5
24E
  8
DEFAULT
 10
13.11019165312664
 20
0.0008581960753
 30
0.0
 11
13.11019165312664
 21
0.7495349989852409
 31
0.0
  0
LINE
  5
24F
  8
DEFAULT
 10
13.44451648127078
 20
1.8736126715981
 30
0.0
 11
13.46687653518893
 21
2.300267928001326
 31
0.0
  0
LINE
  5
250
  8
DEFAULT
 10
11.8652253542743
 20
1.901960033437049
 30
0.0
 11
11.8652253542743
 21
0.1871620456134497
 31
0.0
  0
LINE
  5
251
  8
DEFAULT
 10
13.62250792395913
 20
0.1871620456134951
 30
0.0
 11
13.62250792395913
 21
1.901960033437065
 31
0.0
  0
ARC
  5
252
  8
DEFAULT
 10
12.74389830351971
 20
1.281555627678484
 30
0.0
 40
0.6459341177828157
 50
235.4466443046792
 51
304.547264788091
  0
LINE
  5
253
  8
DEFAULT
 10
13.11019165312664
 20
0.63562151067178
 30
0.0
 11
12.3775416251068
 21
0.63562151067178
 31
0.0
  0
POLYLINE
  5
254
  8
DEFAULT
 66
     1
 10
0.0
 20
0.0
 30
0.0
  0
VERTEX
  5
256
  8
DEFAULT
 10
12.13550856520777
 20
0.000845966989516
 30
0.0
  0
VERTEX
  5
257
  8
DEFAULT
 10
12.09247756658048
 20
0.0043635550061037
 30
0.0
  0
VERTEX
  5
258
  8
DEFAULT
 10
12.04711266620678
 20
0.0145698051769589
 30
0.0
  0
VERTEX
  5
259
  8
DEFAULT
 10
12.00190161456852
 20
0.0309449466837198
 30
0.0
  0
VERTEX
  5
25A
  8
DEFAULT
 10
11.95933216214758
 20
0.0529692087080247
 30
0.0
  0
VERTEX
  5
25B
  8
DEFAULT
 10
11.92189205942582
 20
0.0801228204315119
 30
0.0
  0
VERTEX
  5
25C
  8
DEFAULT
 10
11.90587293622771
 20
0.0954607040497108
 30
0.0
  0
VERTEX
  5
25D
  8
DEFAULT
 10
11.8920690568851
 20
0.1118860110358197
 30
0.0
  0
VERTEX
  5
25E
  8
DEFAULT
 10
11.88079139020823
 20
0.1293337700375432
 30
0.0
  0
VERTEX
  5
25F
  8
DEFAULT
 10
11.87235090500731
 20
0.1477390097025862
 30
0.0
  0
VERTEX
  5
260
  8
DEFAULT
 10
11.86705857009259
 20
0.1670367586786535
 30
0.0
  0
SEQEND
  5
255
  8
DEFAULT
  0
POLYLINE
  5
261
  8
DEFAULT
 66
     1
 10
0.0
 20
0.0
 30
0.0
  0
VERTEX
  5
263
  8
DEFAULT
 10
13.35222471379685
 20
0.000845966989516
 30
0.0
  0
VERTEX
  5
264
  8
DEFAULT
 10
13.39525571233024
 20
0.0043635550147863
 30
0.0
  0
VERTEX
  5
265
  8
DEFAULT
 10
13.44062061258806
 20
0.0145698052067281
 30
0.0
  0
VERTEX
  5
266
  8
DEFAULT
 10
13.48583166409909
 20
0.0309449467395382
 30
0.0
  0
VERTEX
  5
267
  8
DEFAULT
 10
13.52840111639209
 20
0.0529692087874132
 30
0.0
  0
VERTEX
  5
268
  8
DEFAULT
 10
13.56584121899582
 20
0.0801228205245497
 30
0.0
  0
VERTEX
  5
269
  8
DEFAULT
 10
13.58186034214196
 20
0.0954607041435275
 30
0.0
  0
VERTEX
  5
26A
  8
DEFAULT
 10
13.59566422143906
 20
0.1118860111251445
 30
0.0
  0
VERTEX
  5
26B
  8
DEFAULT
 10
13.60694188807824
 20
0.1293337701161751
 30
0.0
  0
VERTEX
  5
26C
  8
DEFAULT
 10
13.61538237325058
 20
0.147739009763394
 30
0.0
  0
VERTEX
  5
26D
  8
DEFAULT
 10
13.62067470814718
 20
0.1670367587135758
 30
0.0
  0
SEQEND
  5
262
  8
DEFAULT
  0
LINE
  5
26E
  8
DEFAULT
 10
12.03291952415423
 20
2.070096353627576
 30
0.0
 11
11.89551712581272
 21
1.981720319456361
 31
0.0
  0
LINE
  5
26F
  8
DEFAULT
 10
13.45481375444073
 20
2.070096353643891
 30
0.0
 11
13.59221615248772
 21
1.981720319409491
 31
0.0
  0
POLYLINE
  5
270
  8
DEFAULT
 66
     1
 10
0.0
 20
0.0
 30
0.0
  0
VERTEX
  5
272
  8
DEFAULT
 10
12.04321681161564
 20
1.873612404759249
 30
0.0
  0
VERTEX
  5
273
  8
DEFAULT
 10
12.09732057181158
 20
1.248342120906069
 30
0.0
  0
VERTEX
  5
274
  8
DEFAULT
 10
12.13567236961179
 20
1.099723029928531
 30
0.0
  0
VERTEX
  5
275
  8
DEFAULT
 10
12.19235848594892
 20
0.96383623452974
 30
0.0
  0
VERTEX
  5
276
  8
DEFAULT
 10
12.22889003473077
 20
0.9021757138574449
 30
0.0
  0
VERTEX
  5
277
  8
DEFAULT
 10
12.27158090854118
 20
0.8455081865019203
 30
0.0
  0
VERTEX
  5
278
  8
DEFAULT
 10
12.32095635584492
 20
0.7944369589371944
 30
0.0
  0
VERTEX
  5
279
  8
DEFAULT
 10
12.37754162510678
 20
0.7495653376372946
 30
0.0
  0
SEQEND
  5
271
  8
DEFAULT
  0
POLYLINE
  5
27A
  8
DEFAULT
 66
     1
 10
0.0
 20
0.0
 30
0.0
  0
VERTEX
  5
27C
  8
DEFAULT
 10
13.11019842589774
 20
0.7495263945890711
 30
0.0
  0
VERTEX
  5
27D
  8
DEFAULT
 10
13.16678910949013
 20
0.7943937962266312
 30
0.0
  0
VERTEX
  5
27E
  8
DEFAULT
 10
13.21616840367793
 20
0.8454625498467601
 30
0.0
  0
VERTEX
  5
27F
  8
DEFAULT
 10
13.25886172604407
 20
0.9021291654724932
 30
0.0
  0
VERTEX
  5
280
  8
DEFAULT
 10
13.29539449417149
 20
0.9637901531268659
 30
0.0
  0
VERTEX
  5
281
  8
DEFAULT
 10
13.35208003804195
 20
1.099681284613672
 30
0.0
  0
VERTEX
  5
282
  8
DEFAULT
 10
13.39042837595281
 20
1.24830802449146
 30
0.0
  0
VERTEX
  5
283
  8
DEFAULT
 10
13.44451648127078
 20
1.8736126715981
 30
0.0
  0
SEQEND
  5
27B
  8
DEFAULT
  0
LINE
  5
284
  8
DEFAULT
 10
5.543837444033246
 20
0.000845966989516
 30
0.0
 11
5.785870503932271
 21
0.000845966989516
 31
0.0
  0
LINE
  5
285
  8
DEFAULT
 10
6.518520531952113
 20
0.000845966989516
 30
0.0
 11
6.760553592622324
 21
0.000845966989516
 31
0.0
  0
LINE
  5
286
  8
DEFAULT
 10
5.429185621869969
 20
2.300267928001326
 30
0.0
 11
6.875205414014406
 21
2.300267928001326
 31
0.0
  0
LINE
  5
287
  8
DEFAULT
 10
5.451545690441117
 20
1.873612404759249
 30
0.0
 11
5.429185621869969
 21
2.300267928001326
 31
0.0
  0
LINE
  5
288
  8
DEFAULT
 10
5.785870503932271
 20
0.0008581960753
 30
0.0
 11
5.785870503932271
 21
0.7495653376372955
 31
0.0
  0
LINE
  5
289
  8
DEFAULT
 10
6.518520531952113
 20
0.0008581960753
 30
0.0
 11
6.518520531952113
 21
0.7495349989852409
 31
0.0
  0
LINE
  5
28A
  8
DEFAULT
 10
6.852845360096248
 20
1.8736126715981
 30
0.0
 11
6.875205414014406
 21
2.300267928001326
 31
0.0
  0
LINE
  5
28B
  8
DEFAULT
 10
5.27355423309977
 20
1.901960033437049
 30
0.0
 11
5.27355423309977
 21
0.1871620456134497
 31
0.0
  0
LINE
  5
28C
  8
DEFAULT
 10
7.030836802784606
 20
0.1871620456134951
 30
0.0
 11
7.030836802784606
 21
1.901960033437065
 31
0.0
  0
ARC
  5
28D
  8
DEFAULT
 10
6.152227182345182
 20
1.281555627678484
 30
0.0
 40
0.6459341177828157
 50
235.4466443046792
 51
304.5472647880909
  0
LINE
  5
28E
  8
DEFAULT
 10
6.518520531952113
 20
0.63562151067178
 30
0.0
 11
5.785870503932271
 21
0.63562151067178
 31
0.0
  0
POLYLINE
  5
28F
  8
DEFAULT
 66
     1
 10
0.0
 20
0.0
 30
0.0
  0
VERTEX
  5
291
  8
DEFAULT
 10
5.543837444033246
 20
0.000845966989516
 30
0.0
  0
VERTEX
  5
292
  8
DEFAULT
 10
5.500806445405956
 20
0.0043635550061037
 30
0.0
  0
VERTEX
  5
293
  8
DEFAULT
 10
5.455441545032249
 20
0.0145698051769589
 30
0.0
  0
VERTEX
  5
294
  8
DEFAULT
 10
5.410230493393991
 20
0.0309449466837198
 30
0.0
  0
VERTEX
  5
295
  8
DEFAULT
 10
5.367661040973049
 20
0.0529692087080247
 30
0.0
  0
VERTEX
  5
296
  8
DEFAULT
 10
5.330220938251289
 20
0.0801228204315119
 30
0.0
  0
VERTEX
  5
297
  8
DEFAULT
 10
5.314201815053187
 20
0.0954607040497108
 30
0.0
  0
VERTEX
  5
298
  8
DEFAULT
 10
5.300397935710578
 20
0.1118860110358197
 30
0.0
  0
VERTEX
  5
299
  8
DEFAULT
 10
5.289120269033699
 20
0.1293337700375432
 30
0.0
  0
VERTEX
  5
29A
  8
DEFAULT
 10
5.280679783832783
 20
0.1477390097025862
 30
0.0
  0
VERTEX
  5
29B
  8
DEFAULT
 10
5.275387448918062
 20
0.1670367586786535
 30
0.0
  0
SEQEND
  5
290
  8
DEFAULT
  0
POLYLINE
  5
29C
  8
DEFAULT
 66
     1
 10
0.0
 20
0.0
 30
0.0
  0
VERTEX
  5
29E
  8
DEFAULT
 10
6.760553592622324
 20
0.000845966989516
 30
0.0
  0
VERTEX
  5
29F
  8
DEFAULT
 10
6.803584591155712
 20
0.0043635550147863
 30
0.0
  0
VERTEX
  5
2A0
  8
DEFAULT
 10
6.848949491413535
 20
0.0145698052067281
 30
0.0
  0
VERTEX
  5
2A1
  8
DEFAULT
 10
6.894160542924561
 20
0.0309449467395382
 30
0.0
  0
VERTEX
  5
2A2
  8
DEFAULT
 10
6.936729995217558
 20
0.0529692087874132
 30
0.0
  0
VERTEX
  5
2A3
  8
DEFAULT
 10
6.974170097821293
 20
0.0801228205245497
 30
0.0
  0
VERTEX
  5
2A4
  8
DEFAULT
 10
6.990189220967428
 20
0.0954607041435275
 30
0.0
  0
VERTEX
  5
2A5
  8
DEFAULT
 10
7.003993100264534
 20
0.1118860111251445
 30
0.0
  0
VERTEX
  5
2A6
  8
DEFAULT
 10
7.01527076690371
 20
0.1293337701161751
 30
0.0
  0
VERTEX
  5
2A7
  8
DEFAULT
 10
7.023711252076049
 20
0.147739009763394
 30
0.0
  0
VERTEX
  5
2A8
  8
DEFAULT
 10
7.02900358697265
 20
0.1670367587135758
 30
0.0
  0
SEQEND
  5
29D
  8
DEFAULT
  0
LINE
  5
2A9
  8
DEFAULT
 10
5.441248402979698
 20
2.070096353627576
 30
0.0
 11
5.303846004638197
 21
1.981720319456361
 31
0.0
  0
LINE
  5
2AA
  8
DEFAULT
 10
6.863142633266206
 20
2.070096353643891
 30
0.0
 11
7.000545031313186
 21
1.981720319409491
 31
0.0
  0
POLYLINE
  5
2AB
  8
DEFAULT
 66
     1
 10
0.0
 20
0.0
 30
0.0
  0
VERTEX
  5
2AD
  8
DEFAULT
 10
5.451545690441117
 20
1.873612404759249
 30
0.0
  0
VERTEX
  5
2AE
  8
DEFAULT
 10
5.505649450637055
 20
1.248342120906069
 30
0.0
  0
VERTEX
  5
2AF
  8
DEFAULT
 10
5.544001248437267
 20
1.099723029928531
 30
0.0
  0
VERTEX
  5
2B0
  8
DEFAULT
 10
5.600687364774396
 20
0.96383623452974
 30
0.0
  0
VERTEX
  5
2B1
  8
DEFAULT
 10
5.637218913556245
 20
0.9021757138574449
 30
0.0
  0
VERTEX
  5
2B2
  8
DEFAULT
 10
5.679909787366652
 20
0.8455081865019203
 30
0.0
  0
VERTEX
  5
2B3
  8
DEFAULT
 10
5.729285234670396
 20
0.7944369589371944
 30
0.0
  0
VERTEX
  5
2B4
  8
DEFAULT
 10
5.785870503932252
 20
0.7495653376372946
 30
0.0
  0
SEQEND
  5
2AC
  8
DEFAULT
  0
POLYLINE
  5
2B5
  8
DEFAULT
 66
     1
 10
0.0
 20
0.0
 30
0.0
  0
VERTEX
  5
2B7
  8
DEFAULT
 10
6.518527304723207
 20
0.7495263945890711
 30
0.0
  0
VERTEX
  5
2B8
  8
DEFAULT
 10
6.575117988315602
 20
0.7943937962266312
 30
0.0
  0
VERTEX
  5
2B9
  8
DEFAULT
 10
6.624497282503399
 20
0.8454625498467601
 30
0.0
  0
VERTEX
  5
2BA
  8
DEFAULT
 10
6.66719060486954
 20
0.9021291654724932
 30
0.0
  0
VERTEX
  5
2BB
  8
DEFAULT
 10
6.703723372996963
 20
0.9637901531268659
 30
0.0
  0
VERTEX
  5
2BC
  8
DEFAULT
 10
6.760408916867418
 20
1.099681284613672
 30
0.0
  0
VERTEX
  5
2BD
  8
DEFAULT
 10
6.798757254778283
 20
1.24830802449146
 30
0.0
  0
VERTEX
  5
2BE
  8
DEFAULT
 10
6.852845360096248
 20
1.8736126715981
 30
0.0
  0
SEQEND
  5
2B6
  8
DEFAULT
  0
POLYLINE
  5
2BF
  8
DEFAULT
 66
     1
 10
0.0
 20
0.0
 30
0.0
  0
VERTEX
  5
2C1
  8
DEFAULT
 10
2.445245096480538
 20
0.7495263945890711
 30
0.0
  0
VERTEX
  5
2C2
  8
DEFAULT
 10
2.501835780072932
 20
0.7943937962266312
 30
0.0
  0
VERTEX
  5
2C3
  8
DEFAULT
 10
2.55121507426073
 20
0.8454625498467601
 30
0.0
  0
VERTEX
  5
2C4
  8
DEFAULT
 10
2.593908396626871
 20
0.9021291654724932
 30
0.0
  0
VERTEX
  5
2C5
  8
DEFAULT
 10
2.630441164754294
 20
0.9637901531268659
 30
0.0
  0
VERTEX
  5
2C6
  8
DEFAULT
 10
2.687126708624748
 20
1.099681284613672
 30
0.0
  0
VERTEX
  5
2C7
  8
DEFAULT
 10
2.725475046535614
 20
1.24830802449146
 30
0.0
  0
VERTEX
  5
2C8
  8
DEFAULT
 10
2.77956315185358
 20
1.8736126715981
 30
0.0
  0
SEQEND
  5
2C0
  8
DEFAULT
  0
POLYLINE
  5
2C9
  8
DEFAULT
 66
     1
 10
0.0
 20
0.0
 30
0.0
  0
VERTEX
  5
2CB
  8
DEFAULT
 10
1.378263482198447
 20
1.873612404759249
 30
0.0
  0
VERTEX
  5
2CC
  8
DEFAULT
 10
1.432367242394386
 20
1.248342120906069
 30
0.0
  0
VERTEX
  5
2CD
  8
DEFAULT
 10
1.470719040194598
 20
1.099723029928531
 30
0.0
  0
VERTEX
  5
2CE
  8
DEFAULT
 10
1.527405156531726
 20
0.96383623452974
 30
0.0
  0
VERTEX
  5
2CF
  8
DEFAULT
 10
1.563936705313576
 20
0.9021757138574449
 30
0.0
  0
VERTEX
  5
2D0
  8
DEFAULT
 10
1.606627579123984
 20
0.8455081865019203
 30
0.0
  0
VERTEX
  5
2D1
  8
DEFAULT
 10
1.656003026427727
 20
0.7944369589371944
 30
0.0
  0
VERTEX
  5
2D2
  8
DEFAULT
 10
1.712588295689583
 20
0.7495653376372946
 30
0.0
  0
SEQEND
  5
2CA
  8
DEFAULT
  0
LINE
  5
2D3
  8
DEFAULT
 10
2.789860425023537
 20
2.070096353643891
 30
0.0
 11
2.927262823070517
 21
1.981720319409491
 31
0.0
  0
LINE
  5
2D4
  8
DEFAULT
 10
1.36796619473703
 20
2.070096353627576
 30
0.0
 11
1.230563796395529
 21
1.981720319456361
 31
0.0
  0
POLYLINE
  5
2D5
  8
DEFAULT
 66
     1
 10
0.0
 20
0.0
 30
0.0
  0
VERTEX
  5
2D7
  8
DEFAULT
 10
2.687271384379656
 20
0.000845966989516
 30
0.0
  0
VERTEX
  5
2D8
  8
DEFAULT
 10
2.730302382913044
 20
0.0043635550147863
 30
0.0
  0
VERTEX
  5
2D9
  8
DEFAULT
 10
2.775667283170867
 20
0.0145698052067281
 30
0.0
  0
VERTEX
  5
2DA
  8
DEFAULT
 10
2.820878334681892
 20
0.0309449467395382
 30
0.0
  0
VERTEX
  5
2DB
  8
DEFAULT
 10
2.863447786974889
 20
0.0529692087874132
 30
0.0
  0
VERTEX
  5
2DC
  8
DEFAULT
 10
2.900887889578624
 20
0.0801228205245497
 30
0.0
  0
VERTEX
  5
2DD
  8
DEFAULT
 10
2.916907012724758
 20
0.0954607041435275
 30
0.0
  0
VERTEX
  5
2DE
  8
DEFAULT
 10
2.930710892021865
 20
0.1118860111251445
 30
0.0
  0
VERTEX
  5
2DF
  8
DEFAULT
 10
2.941988558661041
 20
0.1293337701161751
 30
0.0
  0
VERTEX
  5
2E0
  8
DEFAULT
 10
2.950429043833381
 20
0.147739009763394
 30
0.0
  0
VERTEX
  5
2E1
  8
DEFAULT
 10
2.955721378729981
 20
0.1670367587135758
 30
0.0
  0
SEQEND
  5
2D6
  8
DEFAULT
  0
POLYLINE
  5
2E2
  8
DEFAULT
 66
     1
 10
0.0
 20
0.0
 30
0.0
  0
VERTEX
  5
2E4
  8
DEFAULT
 10
1.470555235790577
 20
0.000845966989516
 30
0.0
  0
VERTEX
  5
2E5
  8
DEFAULT
 10
1.427524237163287
 20
0.0043635550061037
 30
0.0
  0
VERTEX
  5
2E6
  8
DEFAULT
 10
1.38215933678958
 20
0.0145698051769589
 30
0.0
  0
VERTEX
  5
2E7
  8
DEFAULT
 10
1.336948285151322
 20
0.0309449466837198
 30
0.0
  0
VERTEX
  5
2E8
  8
DEFAULT
 10
1.29437883273038
 20
0.0529692087080247
 30
0.0
  0
VERTEX
  5
2E9
  8
DEFAULT
 10
1.25693873000862
 20
0.0801228204315119
 30
0.0
  0
VERTEX
  5
2EA
  8
DEFAULT
 10
1.240919606810517
 20
0.0954607040497108
 30
0.0
  0
VERTEX
  5
2EB
  8
DEFAULT
 10
1.227115727467909
 20
0.1118860110358197
 30
0.0
  0
VERTEX
  5
2EC
  8
DEFAULT
 10
1.21583806079103
 20
0.1293337700375432
 30
0.0
  0
VERTEX
  5
2ED
  8
DEFAULT
 10
1.207397575590114
 20
0.1477390097025862
 30
0.0
  0
VERTEX
  5
2EE
  8
DEFAULT
 10
1.202105240675392
 20
0.1670367586786535
 30
0.0
  0
SEQEND
  5
2E3
  8
DEFAULT
  0
LINE
  5
2EF
  8
DEFAULT
 10
53.30721410296567
 20
10.04007937725094
 30
0.0
 11
53.30721410296567
 21
12.45011236415834
 31
0.0
  0
LINE
  5
2F0
  8
DEFAULT
 10
51.20566533838245
 20
10.04007937725094
 30
0.0
 11
51.20566533838245
 21
12.45011236415834
 31
0.0
  0
LINE
  5
2F1
  8
DEFAULT
 10
53.38915522452053
 20
7.630046390343552
 30
0.0
 11
53.38915522452053
 21
10.04007937725094
 31
0.0
  0
LINE
  5
2F2
  8
DEFAULT
 10
51.12372421682758
 20
7.630046390343553
 30
0.0
 11
51.12372421682758
 21
10.04007937725094
 31
0.0
  0
LINE
  5
2F3
  8
DEFAULT
 10
11.5991009703357
 20
4.545204167102096
 30
0.0
 11
13.88863230789773
 21
4.545204167102091
 31
0.0
  0
LINE
  5
2F4
  8
DEFAULT
 10
11.69309225682509
 20
10.04007937725094
 30
0.0
 11
11.69309225682509
 21
12.45011236415834
 31
0.0
  0
LINE
  5
2F5
  8
DEFAULT
 10
13.79464102140834
 20
10.04007937725094
 30
0.0
 11
13.79464102140834
 21
12.45011236415834
 31
0.0
  0
LINE
  5
2F6
  8
DEFAULT
 10
13.8765821429632
 20
7.630046390343552
 30
0.0
 11
13.8765821429632
 21
10.04007937725094
 31
0.0
  0
LINE
  5
2F7
  8
DEFAULT
 10
11.61115113527025
 20
7.630046390343552
 30
0.0
 11
11.61115113527025
 21
10.04007937725094
 31
0.0
  0
POLYLINE
  5
2F8
  8
DEFAULT
 66
     1
 10
0.0
 20
0.0
 30
0.0
  0
VERTEX
  5
2FA
  8
DEFAULT
 10
11.2375960222996
 20
13.64747675223517
 30
0.0
  0
VERTEX
  5
2FB
  8
DEFAULT
 10
11.02820166422184
 20
13.64747675223516
 30
0.0
 42
-0.0424655170947053
  0
VERTEX
  5
2FC
  8
DEFAULT
 10
10.58210155498788
 20
13.68543294302773
 30
0.0
  0
VERTEX
  5
2FD
  8
DEFAULT
 10
5.875272626430656
 20
14.49222971836928
 30
0.0
  0
SEQEND
  5
2F9
  8
DEFAULT
  0
POLYLINE
  5
2FE
  8
DEFAULT
 66
     1
 10
0.0
 20
0.0
 30
0.0
  0
VERTEX
  5
300
  8
DEFAULT
 10
11.2375960222996
 20
13.93668071066405
 30
0.0
  0
VERTEX
  5
301
  8
DEFAULT
 10
11.05280843005435
 20
13.93668071066406
 30
0.0
 42
-0.0424655170596724
  0
VERTEX
  5
302
  8
DEFAULT
 10
10.60670832118349
 20
13.97463690139439
 30
0.0
  0
VERTEX
  5
303
  8
DEFAULT
 10
8.405807262683414
 20
14.35189299085634
 30
0.0
  0
SEQEND
  5
2FF
  8
DEFAULT
  0
LINE
  5
304
  8
DEFAULT
 10
4.429252834286219
 20
14.74009173340791
 30
0.0
 11
3.900872364763582
 21
14.83066134328701
 31
0.0
  0
POLYLINE
  5
305
  8
DEFAULT
 66
     1
 10
0.0
 20
0.0
 30
0.0
  0
VERTEX
  5
307
  8
DEFAULT
 10
4.160340600365999
 20
15.12836943027318
 30
0.0
  0
VERTEX
  5
308
  8
DEFAULT
 10
4.137485782443568
 20
15.15414885353481
 30
0.0
  0
VERTEX
  5
309
  8
DEFAULT
 10
4.107477766983848
 20
15.17944656252607
 30
0.0
  0
VERTEX
  5
30A
  8
DEFAULT
 10
4.070395677102365
 20
15.20383313032327
 30
0.0
  0
VERTEX
  5
30B
  8
DEFAULT
 10
3.976484839900902
 20
15.24818656941673
 30
0.0
  0
VERTEX
  5
30C
  8
DEFAULT
 10
3.860877706447953
 20
15.28421608138214
 30
0.0
  0
VERTEX
  5
30D
  8
DEFAULT
 10
3.731375757228321
 20
15.30995564270633
 30
0.0
  0
VERTEX
  5
30E
  8
DEFAULT
 10
3.46523963952326
 20
15.32943149135277
 30
0.0
  0
VERTEX
  5
30F
  8
DEFAULT
 10
3.199103521818199
 20
15.30995564270633
 30
0.0
  0
VERTEX
  5
310
  8
DEFAULT
 10
3.069601572598566
 20
15.28421608138215
 30
0.0
  0
VERTEX
  5
311
  8
DEFAULT
 10
2.953994439145616
 20
15.24818656941673
 30
0.0
  0
VERTEX
  5
312
  8
DEFAULT
 10
2.860083601944153
 20
15.20383313032327
 30
0.0
  0
VERTEX
  5
313
  8
DEFAULT
 10
2.823001512062671
 20
15.17944656252607
 30
0.0
  0
VERTEX
  5
314
  8
DEFAULT
 10
2.792993496602952
 20
15.15414885353481
 30
0.0
  0
VERTEX
  5
315
  8
DEFAULT
 10
2.77013867868052
 20
15.12836943027318
 30
0.0
  0
VERTEX
  5
316
  8
DEFAULT
 10
2.792993496602952
 20
14.94993910047479
 30
0.0
  0
VERTEX
  5
317
  8
DEFAULT
 10
2.823001512062671
 20
14.92464139148353
 30
0.0
  0
VERTEX
  5
318
  8
DEFAULT
 10
2.860083601944153
 20
14.90025482368633
 30
0.0
  0
VERTEX
  5
319
  8
DEFAULT
 10
2.953994439145616
 20
14.85590138459287
 30
0.0
  0
VERTEX
  5
31A
  8
DEFAULT
 10
3.069601572598566
 20
14.81987187262745
 30
0.0
  0
VERTEX
  5
31B
  8
DEFAULT
 10
3.199103521818199
 20
14.79413231130327
 30
0.0
  0
VERTEX
  5
31C
  8
DEFAULT
 10
3.46523963952326
 20
14.77465646265683
 30
0.0
  0
VERTEX
  5
31D
  8
DEFAULT
 10
3.731375757228321
 20
14.79413231130327
 30
0.0
  0
VERTEX
  5
31E
  8
DEFAULT
 10
3.860877706447953
 20
14.81987187262745
 30
0.0
  0
VERTEX
  5
31F
  8
DEFAULT
 10
3.976484839900902
 20
14.85590138459287
 30
0.0
  0
VERTEX
  5
320
  8
DEFAULT
 10
4.070395677102365
 20
14.90025482368633
 30
0.0
  0
VERTEX
  5
321
  8
DEFAULT
 10
4.107477766983848
 20
14.92464139148353
 30
0.0
  0
VERTEX
  5
322
  8
DEFAULT
 10
4.137485782443568
 20
14.94993910047479
 30
0.0
  0
VERTEX
  5
323
  8
DEFAULT
 10
4.160340600365999
 20
14.97571852373642
 30
0.0
  0
SEQEND
  5
306
  8
DEFAULT
  0
LINE
  5
324
  8
DEFAULT
 10
53.59479049709514
 20
4.25599588603804
 30
0.0
 11
53.38891396595114
 21
4.25370469428415
 31
0.0
  0
LINE
  5
325
  8
DEFAULT
 10
53.38891276826115
 20
4.253692238462464
 30
0.0
 11
53.15967868249948
 21
4.255996698893965
 31
0.0
  0
LINE
  5
326
  8
DEFAULT
 10
52.18034702732533
 20
4.256000209444416
 30
0.0
 11
51.47632132278875
 21
4.255997008149399
 31
0.0
  0
LINE
  5
327
  8
DEFAULT
 10
50.90141912011963
 20
4.262731595073485
 30
0.0
 11
51.11165710839712
 21
4.540937982235829
 31
0.0
  0
LINE
  5
328
  8
DEFAULT
 10
53.69040800322573
 20
4.256000208676332
 30
0.0
 11
53.40120538945506
 21
4.545204167102096
 31
0.0
  0
LINE
  5
329
  8
DEFAULT
 10
55.78214783908458
 20
13.09080249635002
 30
0.0
 11
55.40208666452692
 21
13.26854479069148
 31
0.0
  0
ARC
  5
32A
  8
DEFAULT
 10
58.53510462257441
 20
14.57003737962335
 30
0.0
 40
0.7230098960722136
 50
180.0000000000018
 51
359.999999999997
  0
ARC
  5
32B
  8
DEFAULT
 10
58.53510462257439
 20
15.05204397700478
 30
0.0
 40
0.7230098960721948
 50
0.0000000000014077
 51
179.9999999999986
  0
LINE
  5
32C
  8
DEFAULT
 10
53.02765027648441
 20
1.46036194386063
 30
0.0
 11
52.73844631805552
 21
1.171157985431745
 31
0.0
  0
LINE
  5
32D
  8
DEFAULT
 10
51.77443312329258
 20
1.171157985431745
 30
0.0
 11
51.48522916486368
 21
1.460361943860637
 31
0.0
  0
CIRCLE
  5
32E
  8
DEFAULT
 10
54.99887641398421
 20
1.044561039525307
 30
0.0
 40
0.8573989937940535
  0
CIRCLE
  5
32F
  8
DEFAULT
 10
54.99887641398419
 20
1.044561039525263
 30
0.0
 40
1.043715073306974
  0
ARC
  5
330
  8
DEFAULT
 10
54.99887641398409
 20
1.044561039525211
 30
0.0
 40
1.101555864992794
 50
338.6695024422032
 51
86.39258381789558
  0
CIRCLE
  5
331
  8
DEFAULT
 10
42.46192090797471
 20
1.044561039525292
 30
0.0
 40
0.8573989937940254
  0
CIRCLE
  5
332
  8
DEFAULT
 10
42.4619209079747
 20
1.044561039525254
 30
0.0
 40
1.043715073306974
  0
ARC
  5
333
  8
DEFAULT
 10
42.46192090797464
 20
1.044561039525227
 30
0.0
 40
1.101555864992774
 50
338.6695024422027
 51
86.39258381789738
  0
CIRCLE
  5
334
  8
DEFAULT
 10
62.74785055954901
 20
1.044561039525298
 30
0.0
 40
0.8573989937940347
  0
CIRCLE
  5
335
  8
DEFAULT
 10
62.74785055954897
 20
1.044561039525243
 30
0.0
 40
1.043715073306937
  0
ARC
  5
336
  8
DEFAULT
 10
62.74785055954902
 20
1.044561039525266
 30
0.0
 40
1.101555864992726
 50
338.6695024421996
 51
86.39258381790054
  0
LINE
  5
337
  8
DEFAULT
 10
55.40208666434876
 20
13.26854479088905
 30
0.0
 11
54.89956986182462
 21
14.7760952000039
 31
0.0
  0
LINE
  5
338
  8
DEFAULT
 10
51.00322256748218
 20
4.786207465792832
 30
0.0
 11
51.00322256748218
 21
7.630046390343552
 31
0.0
  0
LINE
  5
339
  8
DEFAULT
 10
51.05142322722035
 20
13.82383116669555
 30
0.0
 11
51.05142322722035
 21
12.49831302389648
 31
0.0
  0
LINE
  5
33A
  8
DEFAULT
 10
51.11167405189305
 20
4.5410468910481
 30
0.0
 11
51.11167405189305
 21
4.786207465792832
 31
0.0
  0
LINE
  5
33B
  8
DEFAULT
 10
51.11167405189305
 20
1.894167881503964
 30
0.0
 11
51.11167405189305
 21
2.376174478885441
 31
0.0
  0
LINE
  5
33C
  8
DEFAULT
 10
51.48522916486368
 20
1.460361943860632
 30
0.0
 11
51.48522916486368
 21
1.894167881503964
 31
0.0
  0
LINE
  5
33D
  8
DEFAULT
 10
51.7870122592337
 20
15.94375618216053
 30
0.0
 11
51.7870122592337
 21
15.22074628608831
 31
0.0
  0
LINE
  5
33E
  8
DEFAULT
 10
52.25643972067405
 20
13.82383116669555
 30
0.0
 11
52.25643972067405
 21
12.49831302389648
 31
0.0
  0
LINE
  5
33F
  8
DEFAULT
 10
53.02765027648443
 20
1.460361943860632
 30
0.0
 11
53.02765027648443
 21
1.894167881503964
 31
0.0
  0
LINE
  5
340
  8
DEFAULT
 10
53.40120538945506
 20
4.545204167102093
 30
0.0
 11
53.40120538945506
 21
4.786207465792832
 31
0.0
  0
LINE
  5
341
  8
DEFAULT
 10
53.40120538945506
 20
1.894167881503964
 30
0.0
 11
53.40120538945506
 21
2.376174478885441
 31
0.0
  0
LINE
  5
342
  8
DEFAULT
 10
53.5096568738659
 20
4.786207465792832
 30
0.0
 11
53.5096568738659
 21
7.630046390343552
 31
0.0
  0
LINE
  5
343
  8
DEFAULT
 10
53.60803318414094
 20
13.96511776880014
 30
0.0
 11
53.60803318414094
 21
14.46688796778368
 31
0.0
  0
LINE
  5
344
  8
DEFAULT
 10
55.90231056303156
 20
14.41894413349998
 30
0.0
 11
55.84980631317279
 21
14.70334215299002
 31
0.0
  0
LINE
  5
345
  8
DEFAULT
 10
54.33104308021316
 20
14.46688796778368
 30
0.0
 11
54.33104308021316
 21
14.85731331166268
 31
0.0
  0
LINE
  5
346
  8
DEFAULT
 10
54.81304967759465
 20
14.46688796778368
 30
0.0
 11
54.81304967759465
 21
14.78845522654281
 31
0.0
  0
LINE
  5
347
  8
DEFAULT
 10
51.7870122592337
 20
15.94375618216053
 30
0.0
 11
59.98112441471884
 21
15.94375618216053
 31
0.0
  0
LINE
  5
348
  8
DEFAULT
 10
56.555502440493
 20
14.53953340316144
 30
0.0
 11
57.84522031679575
 21
14.35528799237123
 31
0.0
  0
LINE
  5
349
  8
DEFAULT
 10
51.7870122592337
 20
15.22074628608831
 30
0.0
 11
55.65743897861995
 21
14.66782818375954
 31
0.0
  0
LINE
  5
34A
  8
DEFAULT
 10
57.8120947265022
 20
14.57003737962332
 30
0.0
 11
57.8120947265022
 21
15.0520439770048
 31
0.0
  0
LINE
  5
34B
  8
DEFAULT
 10
59.25811451864662
 20
15.0520439770048
 30
0.0
 11
59.25811451864662
 21
14.57003737962332
 31
0.0
  0
LINE
  5
34C
  8
DEFAULT
 10
55.00067358136658
 20
14.47278404060675
 30
0.0
 11
53.22045291543701
 21
13.82383116669555
 31
0.0
  0
LINE
  5
34D
  8
DEFAULT
 10
55.37580961427981
 20
14.61583506989204
 30
0.0
 11
57.80967263718067
 21
15.06516362820334
 31
0.0
  0
LINE
  5
34E
  8
DEFAULT
 10
55.42831386413858
 20
14.33143705117321
 30
0.0
 11
57.8120947265022
 21
14.77151967178675
 31
0.0
  0
LINE
  5
34F
  8
DEFAULT
 10
53.60803318414094
 20
14.46688796778368
 30
0.0
 11
54.98449935718791
 21
14.46688796778368
 31
0.0
  0
LINE
  5
350
  8
DEFAULT
 10
53.22045291543701
 20
13.82383116669555
 30
0.0
 11
51.05142699998241
 21
13.82383116669555
 31
0.0
  0
LINE
  5
351
  8
DEFAULT
 10
59.98112441471884
 20
14.8592413380522
 30
0.0
 11
59.98112441471884
 21
15.94375618216053
 31
0.0
  0
LINE
  5
352
  8
DEFAULT
 10
59.25759924279707
 20
14.55777251661094
 30
0.0
 11
59.98112441471884
 21
14.8592413380522
 31
0.0
  0
LINE
  5
353
  8
DEFAULT
 10
53.94346281150922
 20
12.49831302389648
 30
0.0
 11
55.51947736907842
 21
13.11712435637378
 31
0.0
  0
LINE
  5
354
  8
DEFAULT
 10
58.09342778326348
 20
13.99831075287054
 30
0.0
 11
55.7821478391316
 21
13.0908024966579
 31
0.0
  0
LINE
  5
355
  8
DEFAULT
 10
51.05142699998241
 20
12.49831302389648
 30
0.0
 11
53.94346281150922
 21
12.49831302389648
 31
0.0
  0
LINE
  5
356
  8
DEFAULT
 10
51.20566533838245
 20
12.45011236415834
 30
0.0
 11
53.30721410296567
 21
12.45011236415834
 31
0.0
  0
LINE
  5
357
  8
DEFAULT
 10
51.12372421682758
 20
10.04007937725094
 30
0.0
 11
53.38915522452053
 21
10.04007937725094
 31
0.0
  0
LINE
  5
358
  8
DEFAULT
 10
51.00322256748218
 20
7.630046390343552
 30
0.0
 11
53.5096568738659
 21
7.630046390343552
 31
0.0
  0
LINE
  5
359
  8
DEFAULT
 10
53.5096568738659
 20
4.786207465792832
 30
0.0
 11
51.00322256748218
 21
4.786207465792832
 31
0.0
  0
LINE
  5
35A
  8
DEFAULT
 10
53.59479049709514
 20
4.256000208673205
 30
0.0
 11
54.2778885602667
 21
4.256000208673205
 31
0.0
  0
LINE
  5
35B
  8
DEFAULT
 10
52.18034703118139
 20
4.256000208673205
 30
0.0
 11
53.15967905576538
 21
4.256000208673205
 31
0.0
  0
LINE
  5
35C
  8
DEFAULT
 10
50.62105325625422
 20
4.256000208673205
 30
0.0
 11
51.47632132278875
 21
4.256000208673205
 31
0.0
  0
LINE
  5
35D
  8
DEFAULT
 10
64.27952545593239
 20
2.376174478885441
 30
0.0
 11
42.37313587808585
 21
2.376174478885441
 31
0.0
  0
LINE
  5
35E
  8
DEFAULT
 10
62.74785055954901
 20
2.300267928001326
 30
0.0
 11
64.19387035169343
 21
2.300267928001326
 31
0.0
  0
LINE
  5
35F
  8
DEFAULT
 10
54.99887641398417
 20
2.300267928001326
 30
0.0
 11
56.44489620612862
 21
2.300267928001326
 31
0.0
  0
LINE
  5
360
  8
DEFAULT
 10
42.4619209079747
 20
2.300267928001326
 30
0.0
 11
43.90794070011913
 21
2.300267928001326
 31
0.0
  0
LINE
  5
361
  8
DEFAULT
 10
53.40119512541378
 20
1.894167881503964
 30
0.0
 11
51.11168431593432
 21
1.894167881503964
 31
0.0
  0
LINE
  5
362
  8
DEFAULT
 10
51.48522916486368
 20
1.460361943860632
 30
0.0
 11
53.02765027648443
 21
1.460361943860632
 31
0.0
  0
LINE
  5
363
  8
DEFAULT
 10
51.77443314411526
 20
1.171157985431745
 30
0.0
 11
52.73844629723287
 21
1.171157985431745
 31
0.0
  0
LINE
  5
364
  8
DEFAULT
 10
14.66637873049464
 20
4.256000208673205
 30
0.0
 11
23.21118760423357
 21
3.478721051888724
 31
0.0
  0
ARC
  5
365
  8
DEFAULT
 10
23.2368143209499
 20
2.4911491636301
 30
0.0
 40
0.9883790613371353
 50
353.3198580937321
 51
91.48322192680381
  0
LINE
  5
366
  8
DEFAULT
 10
10.8131574317182
 20
4.2556308373775
 30
0.0
 11
2.276502373326398
 21
3.47919706616988
 31
0.0
  0
ARC
  5
367
  8
DEFAULT
 10
2.250918957283549
 20
2.491149163630114
 30
0.0
 40
0.9883790613371227
 50
88.51677807319538
 51
186.6801419062686
  0
LINE
  5
368
  8
DEFAULT
 10
2.445238323709445
 20
0.63562151067178
 30
0.0
 11
1.712588295689602
 21
0.63562151067178
 31
0.0
  0
LINE
  5
369
  8
DEFAULT
 10
13.11019165312663
 20
0.63562151067178
 30
0.0
 11
12.3775416251068
 21
0.63562151067178
 31
0.0
  0
ARC
  5
36A
  8
DEFAULT
 10
12.7438677888266
 20
1.281653764116113
 30
0.0
 40
0.6460322534453578
 50
235.4536135511649
 51
304.5445581204792
  0
ARC
  5
36B
  8
DEFAULT
 10
2.078944974102514
 20
1.281555627678484
 30
0.0
 40
0.6459341177828157
 50
235.4466443046792
 51
304.547264788091
  0
ARC
  5
36C
  8
DEFAULT
 10
12.74386664934531
 20
69.80893195711384
 30
0.0
 40
51.42200746655378
 50
258.939612483913
 51
281.0603874949325
  0
ARC
  5
36D
  8
DEFAULT
 10
12.7438666493453
 20
69.80893195711462
 30
0.0
 40
51.57624957771663
 50
258.917305000604
 51
281.0826949771113
  0
POLYLINE
  5
36E
  8
DEFAULT
 66
     1
 10
0.0
 20
0.0
 30
0.0
  0
VERTEX
  5
370
  8
DEFAULT
 10
22.5317285458776
 20
16.87013821820865
 30
0.0
 42
0.3497052465929323
  0
VERTEX
  5
371
  8
DEFAULT
 10
23.09289737952489
 20
17.93737801661652
 30
0.0
 42
0.40773606644924
  0
VERTEX
  5
372
  8
DEFAULT
 10
22.09431902516583
 20
18.49946966413132
 30
0.0
  0
SEQEND
  5
36F
  8
DEFAULT
  0
POLYLINE
  5
373
  8
DEFAULT
 66
     1
 10
0.0
 20
0.0
 30
0.0
  0
VERTEX
  5
375
  8
DEFAULT
 10
3.393414252296418
 20
18.49946966413131
 30
0.0
 42
0.4077360664492371
  0
VERTEX
  5
376
  8
DEFAULT
 10
2.394835897937365
 20
17.93737801661652
 30
0.0
 42
0.3497052465929069
  0
VERTEX
  5
377
  8
DEFAULT
 10
2.95600473158467
 20
16.87013821820865
 30
0.0
  0
SEQEND
  5
374
  8
DEFAULT
  0
POLYLINE
  5
378
  8
DEFAULT
 66
     1
 10
0.0
 20
0.0
 30
0.0
  0
VERTEX
  5
37A
  8
DEFAULT
 10
14.48855251014497
 20
2.376174478885441
 30
0.0
  0
VERTEX
  5
37B
  8
DEFAULT
 10
14.47775393896839
 20
2.595355393633597
 30
0.0
 42
0.1340996072127764
  0
VERTEX
  5
37C
  8
DEFAULT
 10
14.21445382691624
 20
3.477078628174579
 30
0.0
  0
VERTEX
  5
37D
  8
DEFAULT
 10
13.73765159691772
 20
4.243027138380161
 30
0.0
  0
SEQEND
  5
379
  8
DEFAULT
  0
POLYLINE
  5
37E
  8
DEFAULT
 66
     1
 10
0.0
 20
0.0
 30
0.0
  0
VERTEX
  5
380
  8
DEFAULT
 10
10.99936505560737
 20
2.376174478885441
 30
0.0
  0
VERTEX
  5
381
  8
DEFAULT
 10
11.01016362678396
 20
2.595355393633598
 30
0.0
 42
-0.1340996072127735
  0
VERTEX
  5
382
  8
DEFAULT
 10
11.27346373883611
 20
3.477078628174577
 30
0.0
  0
VERTEX
  5
383
  8
DEFAULT
 10
11.75026596883463
 20
4.243027138380161
 30
0.0
  0
SEQEND
  5
37F
  8
DEFAULT
  0
ARC
  5
384
  8
DEFAULT
 10
12.74395878287618
 20
2.913349065010458
 30
0.0
 40
0.9126375793079925
 50
6.629653511218431
 51
173.3733367570928
  0
LINE
  5
385
  8
DEFAULT
 10
17.08192601555003
 20
14.25673309132536
 30
0.0
 11
17.20242766489538
 21
14.25673309132536
 31
0.0
  0
LINE
  5
386
  8
DEFAULT
 10
8.285305613338041
 20
14.25673309132536
 30
0.0
 11
8.405807262683414
 21
14.25673309132536
 31
0.0
  0
LINE
  5
387
  8
DEFAULT
 10
13.25873175888992
 20
4.25599588603804
 30
0.0
 11
13.56665733402528
 21
4.25370469428415
 31
0.0
  0
LINE
  5
388
  8
DEFAULT
 10
13.56665646101492
 20
4.253692238462464
 30
0.0
 11
13.85761179388584
 21
4.255996698893965
 31
0.0
  0
LINE
  5
389
  8
DEFAULT
 10
11.63368611362425
 20
4.255995952362149
 30
0.0
 11
12.22900151857231
 21
4.256000205588363
 31
0.0
  0
LINE
  5
38A
  8
DEFAULT
 10
11.80395377422283
 20
2.376174478885441
 30
0.0
 11
11.83723639686734
 21
3.018688087844327
 31
0.0
  0
LINE
  5
38B
  8
DEFAULT
 10
13.65049384048288
 20
3.018714238051854
 30
0.0
 11
13.68377950401062
 21
2.376174478885441
 31
0.0
  0
LINE
  5
38C
  8
DEFAULT
 10
18.79996246124951
 20
14.44945689944856
 30
0.0
 11
18.97893904944043
 21
14.44945689944856
 31
0.0
  0
LINE
  5
38D
  8
DEFAULT
 10
18.40744415834908
 20
14.32903408093258
 30
0.0
 11
18.98978433515698
 21
14.44938131001715
 31
0.0
  0
ARC
  5
38E
  8
DEFAULT
 10
12.74386663911671
 20
53.41976912857042
 30
0.0
 40
36.15049480361081
 50
255.0098187842006
 51
284.9901812158007
  0
ARC
  5
38F
  8
DEFAULT
 10
12.7438666391167
 20
53.41976912857023
 30
0.0
 40
37.8375178944458
 50
255.0081648374005
 51
284.9918351626008
  0
LINE
  5
390
  8
DEFAULT
 10
13.88863230789773
 20
4.545204167102091
 30
0.0
 11
14.1778356298564
 21
4.256000208673906
 31
0.0
  0
LINE
  5
391
  8
DEFAULT
 10
11.30989854954593
 20
4.256000208677293
 30
0.0
 11
11.5991009703357
 21
4.545204167102096
 31
0.0
  0
LINE
  5
392
  8
DEFAULT
 10
2.957554594541937
 20
0.1871620456134951
 30
0.0
 11
2.957554594541937
 21
1.901960033437065
 31
0.0
  0
LINE
  5
393
  8
DEFAULT
 10
1.2002720248571
 20
1.901960033437049
 30
0.0
 11
1.2002720248571
 21
0.1871620456134497
 31
0.0
  0
LINE
  5
394
  8
DEFAULT
 10
21.05848044394721
 20
15.77499636004981
 30
0.0
 11
21.05848044394721
 21
13.84708499734951
 31
0.0
  0
LINE
  5
395
  8
DEFAULT
 10
20.81747714525647
 20
15.77499636004981
 30
0.0
 11
20.81747714525647
 21
13.84708499734951
 31
0.0
  0
LINE
  5
396
  8
DEFAULT
 10
18.40744415834908
 20
15.65455222373164
 30
0.0
 11
18.40744415834908
 21
14.44953573027795
 31
0.0
  0
LINE
  5
397
  8
DEFAULT
 10
17.20242766489538
 20
14.25673309132536
 30
0.0
 11
17.20242766489538
 21
15.84680038851576
 31
0.0
  0
LINE
  5
398
  8
DEFAULT
 10
17.08192601555003
 20
14.25673309132536
 30
0.0
 11
17.08192601555003
 21
15.83248385323908
 31
0.0
  0
LINE
  5
399
  8
DEFAULT
 10
14.25013725593383
 20
15.61597405372845
 30
0.0
 11
14.25013725593383
 21
13.07079832671991
 31
0.0
  0
LINE
  5
39A
  8
DEFAULT
 10
14.12963560658846
 20
15.61071571959272
 30
0.0
 11
14.12963560658846
 21
14.28932023166338
 31
0.0
  0
LINE
  5
39B
  8
DEFAULT
 10
13.99708379230857
 20
4.786207465792832
 30
0.0
 11
13.99708379230857
 21
7.630046390343552
 31
0.0
  0
LINE
  5
39C
  8
DEFAULT
 10
13.94888313257041
 20
12.49831302389648
 30
0.0
 11
13.94888313257041
 21
13.0908024966579
 31
0.0
  0
LINE
  5
39D
  8
DEFAULT
 10
13.88863230789773
 20
4.545204167102093
 30
0.0
 11
13.88863230789773
 21
4.786207465792832
 31
0.0
  0
LINE
  5
39E
  8
DEFAULT
 10
13.88863230789773
 20
1.894167881503964
 30
0.0
 11
13.88863230789773
 21
2.376174478885441
 31
0.0
  0
LINE
  5
39F
  8
DEFAULT
 10
11.5991009703357
 20
4.545204167102093
 30
0.0
 11
11.5991009703357
 21
4.786207465792832
 31
0.0
  0
LINE
  5
3A0
  8
DEFAULT
 10
11.5991009703357
 20
1.894167881503964
 30
0.0
 11
11.5991009703357
 21
2.376174478885441
 31
0.0
  0
LINE
  5
3A1
  8
DEFAULT
 10
11.53885014566302
 20
12.49831302389648
 30
0.0
 11
11.53885014566302
 21
13.0908024966579
 31
0.0
  0
LINE
  5
3A2
  8
DEFAULT
 10
11.4906494859249
 20
4.786207465792832
 30
0.0
 11
11.4906494859249
 21
7.630046390343552
 31
0.0
  0
LINE
  5
3A3
  8
DEFAULT
 10
11.35809767164497
 20
15.6107157188215
 30
0.0
 11
11.35809767164497
 21
14.28932023166338
 31
0.0
  0
LINE
  5
3A4
  8
DEFAULT
 10
11.2375960222996
 20
13.07079832671991
 30
0.0
 11
11.2375960222996
 21
15.61597405372845
 31
0.0
  0
LINE
  5
3A5
  8
DEFAULT
 10
8.405807262683414
 20
14.25673309132536
 30
0.0
 11
8.405807262683414
 21
15.8324838547815
 31
0.0
  0
LINE
  5
3A6
  8
DEFAULT
 10
8.285305613338041
 20
14.25673309132536
 30
0.0
 11
8.285305613338041
 21
15.84680038697334
 31
0.0
  0
LINE
  5
3A7
  8
DEFAULT
 10
7.562295717265828
 20
14.44962937837574
 30
0.0
 11
7.562295717265828
 21
15.65455222373164
 31
0.0
  0
LINE
  5
3A8
  8
DEFAULT
 10
20.81747714525647
 20
15.77505387307701
 30
0.0
 11
21.05848044394721
 21
15.77505387307701
 31
0.0
  0
LINE
  5
3A9
  8
DEFAULT
 10
18.40744415834908
 20
15.65455222373164
 30
0.0
 11
20.81747714525647
 21
15.65455222373164
 31
0.0
  0
LINE
  5
3AA
  8
DEFAULT
 10
5.875272626430656
 20
15.65455222373164
 30
0.0
 11
4.429252834286219
 21
15.65455222373164
 31
0.0
  0
LINE
  5
3AB
  8
DEFAULT
 10
8.285305613338041
 20
15.65455222373164
 30
0.0
 11
7.562295717265828
 21
15.65455222373164
 31
0.0
  0
LINE
  5
3AC
  8
DEFAULT
 10
10.43025055091006
 20
15.65455222373164
 30
0.0
 11
8.405807262683414
 21
15.65455222373164
 31
0.0
  0
LINE
  5
3AD
  8
DEFAULT
 10
17.08192601555003
 20
15.65455222373164
 30
0.0
 11
15.05748271035675
 21
15.65455222373164
 31
0.0
  0
LINE
  5
3AE
  8
DEFAULT
 10
17.20242766489538
 20
15.53405057438627
 30
0.0
 11
18.40744415834908
 21
15.53405057438627
 31
0.0
  0
LINE
  5
3AF
  8
DEFAULT
 10
7.562295717265828
 20
15.53405057438627
 30
0.0
 11
5.875272626430656
 21
15.53405057438627
 31
0.0
  0
LINE
  5
3B0
  8
DEFAULT
 10
20.81747714525647
 20
15.0520439770048
 30
0.0
 11
21.05848044394721
 21
15.0520439770048
 31
0.0
  0
LINE
  5
3B1
  8
DEFAULT
 10
5.875272626430656
 20
14.44958365870036
 30
0.0
 11
5.875272626430656
 21
15.65450429608044
 31
0.0
  0
LINE
  5
3B2
  8
DEFAULT
 10
4.429252834286219
 20
14.44958365870036
 30
0.0
 11
4.429252834286219
 21
15.65450429608044
 31
0.0
  0
LINE
  5
3B3
  8
DEFAULT
 10
4.426167193860058
 20
15.03404244267912
 30
0.0
 11
4.184596202451914
 21
15.07545008703906
 31
0.0
  0
LINE
  5
3B4
  8
DEFAULT
 10
7.562295717265828
 20
14.49647916642407
 30
0.0
 11
7.13315923974292
 21
14.57003737962332
 31
0.0
  0
LINE
  5
3B5
  8
DEFAULT
 10
8.285305613338041
 20
14.37254815890475
 30
0.0
 11
7.836162358414251
 21
14.44953573027795
 31
0.0
  0
LINE
  5
3B6
  8
DEFAULT
 10
20.81747714525647
 20
14.57003737962332
 30
0.0
 11
21.05848044394721
 21
14.57003737962332
 31
0.0
  0
LINE
  5
3B7
  8
DEFAULT
 10
17.20242766489538
 20
14.57003737962332
 30
0.0
 11
18.40744415834908
 21
14.57003737962332
 31
0.0
  0
LINE
  5
3B8
  8
DEFAULT
 10
7.562295717265828
 20
14.57003737962332
 30
0.0
 11
5.875272626430656
 21
14.57003737962332
 31
0.0
  0
LINE
  5
3B9
  8
DEFAULT
 10
18.40744415834908
 20
14.44953573027795
 30
0.0
 11
20.81747714525647
 21
14.44953573027795
 31
0.0
  0
LINE
  5
3BA
  8
DEFAULT
 10
5.875272626430656
 20
14.44953573027795
 30
0.0
 11
4.429252834286219
 21
14.44953573027795
 31
0.0
  0
LINE
  5
3BB
  8
DEFAULT
 10
8.285305613338041
 20
14.44953573027795
 30
0.0
 11
7.562295717265828
 21
14.44953573027795
 31
0.0
  0
LINE
  5
3BC
  8
DEFAULT
 10
11.2375960222996
 20
14.44953573027795
 30
0.0
 11
8.405807262683414
 21
14.44953573027795
 31
0.0
  0
LINE
  5
3BD
  8
DEFAULT
 10
14.12963560658846
 20
14.44953573027795
 30
0.0
 11
11.35809767164497
 21
14.44953573027795
 31
0.0
  0
LINE
  5
3BE
  8
DEFAULT
 10
17.08192601555003
 20
14.44953573027795
 30
0.0
 11
14.25013725593383
 21
14.44953573027795
 31
0.0
  0
LINE
  5
3BF
  8
DEFAULT
 10
11.35809767164497
 20
14.40148548821782
 30
0.0
 11
14.12963560658846
 21
14.40148548821782
 31
0.0
  0
LINE
  5
3C0
  8
DEFAULT
 10
17.20242766489538
 20
14.32903408093258
 30
0.0
 11
18.40744415834908
 21
14.32903408093258
 31
0.0
  0
LINE
  5
3C1
  8
DEFAULT
 10
14.25013725593383
 20
14.32903408093258
 30
0.0
 11
17.08192601555003
 21
14.32903408093258
 31
0.0
  0
LINE
  5
3C2
  8
DEFAULT
 10
11.2375960222996
 20
14.28932023166338
 30
0.0
 11
14.25013725593383
 21
14.28932023166338
 31
0.0
  0
LINE
  5
3C3
  8
DEFAULT
 10
20.81747714525647
 20
13.8470274835511
 30
0.0
 11
21.05848044394721
 21
13.8470274835511
 31
0.0
  0
LINE
  5
3C4
  8
DEFAULT
 10
11.2375960222996
 20
13.0908024966579
 30
0.0
 11
14.25013725593383
 21
13.0908024966579
 31
0.0
  0
LINE
  5
3C5
  8
DEFAULT
 10
2.77956315185358
 20
1.8736126715981
 30
0.0
 11
2.801923205771737
 21
2.300267928001326
 31
0.0
  0
LINE
  5
3C6
  8
DEFAULT
 10
2.445238323709445
 20
0.0008581960753
 30
0.0
 11
2.445238323709445
 21
0.7495349989852409
 31
0.0
  0
LINE
  5
3C7
  8
DEFAULT
 10
13.94888313257041
 20
12.49831302389648
 30
0.0
 11
11.53885014566302
 21
12.49831302389648
 31
0.0
  0
LINE
  5
3C8
  8
DEFAULT
 10
13.79464102140834
 20
12.45011236415834
 30
0.0
 11
11.69309225682509
 21
12.45011236415834
 31
0.0
  0
LINE
  5
3C9
  8
DEFAULT
 10
1.712588295689602
 20
0.0008581960753
 30
0.0
 11
1.712588295689602
 21
0.7495653376372955
 31
0.0
  0
LINE
  5
3CA
  8
DEFAULT
 10
13.8765821429632
 20
10.04007937725094
 30
0.0
 11
11.61115113527025
 21
10.04007937725094
 31
0.0
  0
LINE
  5
3CB
  8
DEFAULT
 10
1.378263482198447
 20
1.873612404759249
 30
0.0
 11
1.3559034136273
 21
2.300267928001326
 31
0.0
  0
LINE
  5
3CC
  8
DEFAULT
 10
13.99708379230857
 20
7.630046390343552
 30
0.0
 11
11.4906494859249
 21
7.630046390343552
 31
0.0
  0
LINE
  5
3CD
  8
DEFAULT
 10
10.82135454773879
 20
4.256000208673205
 30
0.0
 11
11.63368611362425
 21
4.255995960074253
 31
0.0
  0
LINE
  5
3CE
  8
DEFAULT
 10
11.4906494859249
 20
4.786207465792832
 30
0.0
 11
13.99708379230857
 21
4.786207465792832
 31
0.0
  0
LINE
  5
3CF
  8
DEFAULT
 10
12.22900152319957
 20
4.256000208673205
 30
0.0
 11
13.25873175888992
 21
4.256000208673205
 31
0.0
  0
LINE
  5
3D0
  8
DEFAULT
 10
14.66637873049464
 20
4.256000208673205
 30
0.0
 11
13.85761151779247
 21
4.256000208673205
 31
0.0
  0
LINE
  5
3D1
  8
DEFAULT
 10
1.269249975010239
 20
2.376174478885441
 30
0.0
 11
24.21766493776918
 21
2.376174478885441
 31
0.0
  0
LINE
  5
3D2
  8
DEFAULT
 10
22.6864046588336
 20
2.300267928001326
 30
0.0
 11
24.13242445097805
 21
2.300267928001326
 31
0.0
  0
LINE
  5
3D3
  8
DEFAULT
 10
12.02085674304449
 20
2.300267928001326
 30
0.0
 11
13.46687653518894
 21
2.300267928001326
 31
0.0
  0
LINE
  5
3D4
  8
DEFAULT
 10
1.3559034136273
 20
2.300267928001326
 30
0.0
 11
2.801923205771737
 21
2.300267928001326
 31
0.0
  0
LINE
  5
3D5
  8
DEFAULT
 10
13.62533969766193
 20
1.894167881503964
 30
0.0
 11
13.88862204308523
 21
1.894167881503964
 31
0.0
  0
LINE
  5
3D6
  8
DEFAULT
 10
11.59911123437701
 20
1.894167881503964
 30
0.0
 11
11.86239357980033
 21
1.894167881503964
 31
0.0
  0
LINE
  5
3D7
  8
DEFAULT
 10
2.445238323709445
 20
0.000845966989516
 30
0.0
 11
2.687271384379656
 21
0.000845966989516
 31
0.0
  0
LINE
  5
3D8
  8
DEFAULT
 10
1.470555235790577
 20
0.000845966989516
 30
0.0
 11
1.712588295689602
 21
0.000845966989516
 31
0.0
  0
POLYLINE
  5
3D9
  8
DEFAULT
 66
     1
 10
0.0
 20
0.0
 30
0.0
  0
VERTEX
  5
3DB
  8
DEFAULT
 10
63.63855656358907
 20
17.26498341512096
 30
0.0
 42
-0.1829362155791008
  0
VERTEX
  5
3DC
  8
DEFAULT
 10
63.02973936859213
 20
17.03452142550644
 30
0.0
  0
VERTEX
  5
3DD
  8
DEFAULT
 10
60.7471702345842
 20
17.03452142550644
 30
0.0
  0
SEQEND
  5
3DA
  8
DEFAULT
  0
ARC
  5
3DE
  8
DEFAULT
 10
63.0808420171055
 20
16.40166244967294
 30
0.0
 40
0.8194112155485225
 50
269.999999999999
 51
359.9999999999988
  0
LINE
  5
3DF
  8
DEFAULT
 10
63.31515535728459
 20
19.67930731186698
 30
0.0
 11
60.55707883318382
 21
19.67930731186698
 31
0.0
  0
LINE
  5
3E0
  8
DEFAULT
 10
63.89250514858106
 20
19.09561220294569
 30
0.0
 11
60.65772420841069
 21
19.09561220294569
 31
0.0
  0
LINE
  5
3E1
  8
DEFAULT
 10
63.42882550784502
 20
18.54122267329301
 30
0.0
 11
60.75331648251251
 21
18.54122267329301
 31
0.0
  0
LINE
  5
3E2
  8
DEFAULT
 10
63.90025323265402
 20
16.40166244967293
 30
0.0
 11
63.90025323265402
 21
17.92865935017745
 31
0.0
  0
ARC
  5
3E3
  8
DEFAULT
 10
63.31815266938447
 20
19.10488775925383
 30
0.0
 40
0.5744273725233812
 50
281.108431740825
 51
90.29896575392566
  0
ARC
  5
3E4
  8
DEFAULT
 10
63.28233620500966
 20
17.94079808511108
 30
0.0
 40
0.6180362464602172
 50
358.874591889784
 51
76.28905075655156
  0
ARC
  5
3E5
  8
DEFAULT
 10
41.550398233251
 20
29.15215116228892
 30
0.0
 40
0.9184626522742679
 50
215.8204842302937
 51
282.680167791772
  0
LINE
  5
3E6
  8
DEFAULT
 10
41.89945054332711
 20
27.66708599935227
 30
0.0
 11
41.75200861280801
 21
28.2560892791148
 31
0.0
  0
POLYLINE
  5
3E7
  8
DEFAULT
 66
     1
 10
0.0
 20
0.0
 30
0.0
  0
VERTEX
  5
3E9
  8
DEFAULT
 10
42.60588089514467
 20
27.66708599935227
 30
0.0
  0
VERTEX
  5
3EA
  8
DEFAULT
 10
42.55441641311875
 20
27.87267709974475
 30
0.0
  0
VERTEX
  5
3EB
  8
DEFAULT
 10
42.5207656715677
 20
27.97262435762715
 30
0.0
  0
VERTEX
  5
3EC
  8
DEFAULT
 10
42.49872369192588
 20
28.01757644591649
 30
0.0
  0
VERTEX
  5
3ED
  8
DEFAULT
 10
42.47320397303988
 20
28.05918084043793
 30
0.0
  0
VERTEX
  5
3EE
  8
DEFAULT
 10
42.44420651490969
 20
28.09743754119145
 30
0.0
  0
VERTEX
  5
3EF
  8
DEFAULT
 10
42.41173131753531
 20
28.13234654817708
 30
0.0
  0
VERTEX
  5
3F0
  8
DEFAULT
 10
42.37577838091675
 20
28.16390786139479
 30
0.0
  0
VERTEX
  5
3F1
  8
DEFAULT
 10
42.336347705054
 20
28.19212148084461
 30
0.0
  0
VERTEX
  5
3F2
  8
DEFAULT
 10
42.29343928994705
 20
28.21698740652651
 30
0.0
  0
VERTEX
  5
3F3
  8
DEFAULT
 10
42.24705313559592
 20
28.23850563844051
 30
0.0
  0
VERTEX
  5
3F4
  8
DEFAULT
 10
42.1438476091611
 20
28.27149902096479
 30
0.0
  0
VERTEX
  5
3F5
  8
DEFAULT
 10
42.02673112574952
 20
28.29110162841745
 30
0.0
  0
VERTEX
  5
3F6
  8
DEFAULT
 10
41.89570368536119
 20
28.29731346079849
 30
0.0
  0
SEQEND
  5
3E8
  8
DEFAULT
  0
ARC
  5
3F7
  8
DEFAULT
 10
41.75626088895911
 20
27.53139331216867
 30
0.0
 40
0.7247084423134864
 50
90.33618881826781
 51
169.3680614322714
  0
ARC
  5
3F8
  8
DEFAULT
 10
43.87203893165826
 20
19.9115286310098
 30
0.0
 40
0.7276620215966785
 50
214.7836561410558
 51
293.4784169467087
  0
POLYLINE
  5
3F9
  8
DEFAULT
 66
     1
 10
0.0
 20
0.0
 30
0.0
  0
VERTEX
  5
3FB
  8
DEFAULT
 10
44.16194209219271
 20
19.24410959083616
 30
0.0
  0
VERTEX
  5
3FC
  8
DEFAULT
 10
44.26490640626972
 20
19.2813867264172
 30
0.0
  0
VERTEX
  5
3FD
  8
DEFAULT
 10
44.35876930048388
 20
19.33360272995572
 30
0.0
  0
VERTEX
  5
3FE
  8
DEFAULT
 10
44.399633531768
 20
19.36423172564652
 30
0.0
  0
VERTEX
  5
3FF
  8
DEFAULT
 10
44.43531593836703
 20
19.39702249028864
 30
0.0
  0
VERTEX
  5
400
  8
DEFAULT
 10
44.46524405259969
 20
19.4312359263719
 30
0.0
  0
VERTEX
  5
401
  8
DEFAULT
 10
44.48910652823107
 20
19.46611542001279
 30
0.0
 42
0.2375573364406044
  0
VERTEX
  5
402
  8
DEFAULT
 10
44.55544515191017
 20
19.87893687094189
 30
0.0
  0
SEQEND
  5
3FA
  8
DEFAULT
  0
LINE
  5
403
  8
DEFAULT
 10
63.0808420171055
 20
15.58225123412442
 30
0.0
 11
59.98112441471884
 21
15.58225123412442
 31
0.0
  0
POLYLINE
  5
404
  8
DEFAULT
 66
     1
 10
0.0
 20
0.0
 30
0.0
  0
VERTEX
  5
406
  8
DEFAULT
 10
59.48204762072419
 20
19.67930731186698
 30
0.0
  0
VERTEX
  5
407
  8
DEFAULT
 10
45.62693567236445
 20
19.67930731186698
 30
0.0
  0
VERTEX
  5
408
  8
DEFAULT
 10
45.13654210872698
 20
19.64282636755941
 30
0.0
  0
VERTEX
  5
409
  8
DEFAULT
 10
44.94152829079756
 20
19.59722518717493
 30
0.0
  0
VERTEX
  5
40A
  8
DEFAULT
 10
44.77996978212767
 20
19.53338353463666
 30
0.0
  0
VERTEX
  5
40B
  8
DEFAULT
 10
44.71173626876506
 20
19.49462253130986
 30
0.0
  0
VERTEX
  5
40C
  8
DEFAULT
 10
44.65186658271733
 20
19.45130140994461
 30
0.0
  0
VERTEX
  5
40D
  8
DEFAULT
 10
44.60036072398449
 20
19.40342017054091
 30
0.0
  0
VERTEX
  5
40E
  8
DEFAULT
 10
44.55721869256652
 20
19.35097881309876
 30
0.0
  0
VERTEX
  5
40F
  8
DEFAULT
 10
44.52244048846345
 20
19.29397733761816
 30
0.0
  0
VERTEX
  5
410
  8
DEFAULT
 10
44.49602611167526
 20
19.23241574409911
 30
0.0
  0
VERTEX
  5
411
  8
DEFAULT
 10
44.47797556220196
 20
19.16629403254163
 30
0.0
  0
VERTEX
  5
412
  8
DEFAULT
 10
44.46828884004354
 20
19.09561220294569
 30
0.0
  0
VERTEX
  5
413
  8
DEFAULT
 10
44.45979619487418
 20
18.82284051591834
 30
0.0
  0
VERTEX
  5
414
  8
DEFAULT
 10
44.47570095434669
 20
18.55302038998894
 30
0.0
  0
SEQEND
  5
405
  8
DEFAULT
  0
LINE
  5
415
  8
DEFAULT
 10
59.58594159989145
 20
19.09561220294569
 30
0.0
 11
44.46828884004354
 21
19.09561220294569
 31
0.0
  0
POLYLINE
  5
416
  8
DEFAULT
 66
     1
 10
0.0
 20
0.0
 30
0.0
  0
VERTEX
  5
418
  8
DEFAULT
 10
41.32855819631095
 20
26.61088949652897
 30
0.0
  0
VERTEX
  5
419
  8
DEFAULT
 10
43.31745703009715
 20
19.22594163369918
 30
0.0
  0
VERTEX
  5
41A
  8
DEFAULT
 10
43.33946073193537
 20
19.15793288061526
 30
0.0
  0
VERTEX
  5
41B
  8
DEFAULT
 10
43.36908074990488
 20
19.09023134492779
 30
0.0
  0
VERTEX
  5
41C
  8
DEFAULT
 10
43.406522242308
 20
19.02355608471268
 30
0.0
  0
VERTEX
  5
41D
  8
DEFAULT
 10
43.45184364574571
 20
18.95866492893133
 30
0.0
  0
VERTEX
  5
41E
  8
DEFAULT
 10
43.50494034072616
 20
18.89633144947383
 30
0.0
  0
VERTEX
  5
41F
  8
DEFAULT
 10
43.56553529506487
 20
18.83731862598266
 30
0.0
  0
VERTEX
  5
420
  8
DEFAULT
 10
43.70725375952613
 20
18.73208597877127
 30
0.0
  0
VERTEX
  5
421
  8
DEFAULT
 10
43.87153164010267
 20
18.64781721626138
 30
0.0
  0
VERTEX
  5
422
  8
DEFAULT
 10
44.05101036166145
 20
18.58760514614184
 30
0.0
  0
VERTEX
  5
423
  8
DEFAULT
 10
44.23749742804136
 20
18.55242693189794
 30
0.0
  0
VERTEX
  5
424
  8
DEFAULT
 10
44.42310315468532
 20
18.54122267329315
 30
0.0
  0
VERTEX
  5
425
  8
DEFAULT
 10
59.6815338734448
 20
18.54122267329302
 30
0.0
  0
SEQEND
  5
417
  8
DEFAULT
  0
LINE
  5
426
  8
DEFAULT
 10
60.7471702345842
 20
17.03452142550644
 30
0.0
 11
60.12983247894913
 21
17.03452142550644
 31
0.0
  0
ENDSEC
  0
EOF
