  0
SECTION
  2
HEADER
  9
$ACADVER
  1
AC1021
  9
$ACADMAINTVER
 70
    25
  9
$DWGCODEPAGE
  3
ANSI_1252
  9
$INSBASE
 10
0.0
 20
0.0
 30
0.0
  9
$EXTMIN
 10
1.000000000000000E+20
 20
1.000000000000000E+20
 30
1.000000000000000E+20
  9
$EXTMAX
 10
-1.000000000000000E+20
 20
-1.000000000000000E+20
 30
-1.000000000000000E+20
  9
$LIMMIN
 10
0.0
 20
0.0
  9
$LIMMAX
 10
12.0
 20
9.0
  9
$ORTHOMODE
 70
     0
  9
$REGENMODE
 70
     1
  9
$FILLMODE
 70
     1
  9
$QTEXTMODE
 70
     0
  9
$MIRRTEXT
 70
     1
  9
$LTSCALE
 40
1.0
  9
$ATTMODE
 70
     1
  9
$TEXTSIZE
 40
0.2
  9
$TRACEWID
 40
0.05
  9
$TEXTSTYLE
  7
Standard
  9
$CLAYER
  8
1
  9
$CELTYPE
  6
ByLayer
  9
$CECOLOR
 62
   256
  9
$CELTSCALE
 40
1.0
  9
$DISPSILH
 70
     0
  9
$DIMSCALE
 40
1.0
  9
$DIMASZ
 40
0.18
  9
$DIMEXO
 40
0.0625
  9
$DIMDLI
 40
0.38
  9
$DIMRND
 40
0.0
  9
$DIMDLE
 40
0.0
  9
$DIMEXE
 40
0.18
  9
$DIMTP
 40
0.0
  9
$DIMTM
 40
0.0
  9
$DIMTXT
 40
0.18
  9
$DIMCEN
 40
0.09
  9
$DIMTSZ
 40
0.0
  9
$DIMTOL
 70
     0
  9
$DIMLIM
 70
     0
  9
$DIMTIH
 70
     1
  9
$DIMTOH
 70
     1
  9
$DIMSE1
 70
     0
  9
$DIMSE2
 70
     0
  9
$DIMTAD
 70
     0
  9
$DIMZIN
 70
     0
  9
$DIMBLK
  1

  9
$DIMASO
 70
     1
  9
$DIMSHO
 70
     1
  9
$DIMPOST
  1

  9
$DIMAPOST
  1

  9
$DIMALT
 70
     0
  9
$DIMALTD
 70
     2
  9
$DIMALTF
 40
25.4
  9
$DIMLFAC
 40
1.0
  9
$DIMTOFL
 70
     0
  9
$DIMTVP
 40
0.0
  9
$DIMTIX
 70
     0
  9
$DIMSOXD
 70
     0
  9
$DIMSAH
 70
     0
  9
$DIMBLK1
  1

  9
$DIMBLK2
  1

  9
$DIMSTYLE
  2
STANDARD_ACAD
  9
$DIMCLRD
 70
     0
  9
$DIMCLRE
 70
     0
  9
$DIMCLRT
 70
     0
  9
$DIMTFAC
 40
1.0
  9
$DIMGAP
 40
0.09
  9
$DIMJUST
 70
     0
  9
$DIMSD1
 70
     0
  9
$DIMSD2
 70
     0
  9
$DIMTOLJ
 70
     1
  9
$DIMTZIN
 70
     0
  9
$DIMALTZ
 70
     0
  9
$DIMALTTZ
 70
     0
  9
$DIMUPT
 70
     0
  9
$DIMDEC
 70
     4
  9
$DIMTDEC
 70
     4
  9
$DIMALTU
 70
     2
  9
$DIMALTTD
 70
     2
  9
$DIMTXSTY
  7
Standard
  9
$DIMAUNIT
 70
     0
  9
$DIMADEC
 70
     0
  9
$DIMALTRND
 40
0.0
  9
$DIMAZIN
 70
     0
  9
$DIMDSEP
 70
    46
  9
$DIMATFIT
 70
     3
  9
$DIMFRAC
 70
     0
  9
$DIMLDRBLK
  1

  9
$DIMLUNIT
 70
     2
  9
$DIMLWD
 70
    -2
  9
$DIMLWE
 70
    -2
  9
$DIMTMOVE
 70
     2
  9
$DIMFXL
 40
1.0
  9
$DIMFXLON
 70
     0
  9
$DIMJOGANG
 40
0.7853981633974483
  9
$DIMTFILL
 70
     0
  9
$DIMTFILLCLR
 70
     0
  9
$DIMARCSYM
 70
     0
  9
$DIMLTYPE
  6

  9
$DIMLTEX1
  6

  9
$DIMLTEX2
  6

  9
$LUNITS
 70
     2
  9
$LUPREC
 70
     3
  9
$SKETCHINC
 40
0.1
  9
$FILLETRAD
 40
0.5
  9
$AUNITS
 70
     0
  9
$AUPREC
 70
     0
  9
$MENU
  1
.
  9
$ELEVATION
 40
0.0
  9
$PELEVATION
 40
0.0
  9
$THICKNESS
 40
0.0
  9
$LIMCHECK
 70
     0
  9
$CHAMFERA
 40
0.0
  9
$CHAMFERB
 40
0.0
  9
$CHAMFERC
 40
0.0
  9
$CHAMFERD
 40
0.0
  9
$SKPOLY
 70
     0
  9
$TDCREATE
 40
2458603.384694965
  9
$TDUCREATE
 40
2458603.551361632
  9
$TDUPDATE
 40
2458603.384797338
  9
$TDUUPDATE
 40
2458603.551464004
  9
$TDINDWG
 40
0.0000000116
  9
$TDUSRTIMER
 40
0.0000000116
  9
$USRTIMER
 70
     1
  9
$ANGBASE
 50
0.0
  9
$ANGDIR
 70
     0
  9
$PDMODE
 70
     0
  9
$PDSIZE
 40
0.0
  9
$PLINEWID
 40
0.0
  9
$SPLFRAME
 70
     0
  9
$SPLINETYPE
 70
     6
  9
$SPLINESEGS
 70
     8
  9
$HANDSEED
  5
E1
  9
$SURFTAB1
 70
     6
  9
$SURFTAB2
 70
     6
  9
$SURFTYPE
 70
     6
  9
$SURFU
 70
     6
  9
$SURFV
 70
     6
  9
$UCSBASE
  2

  9
$UCSNAME
  2

  9
$UCSORG
 10
0.0
 20
0.0
 30
0.0
  9
$UCSXDIR
 10
1.0
 20
0.0
 30
0.0
  9
$UCSYDIR
 10
0.0
 20
1.0
 30
0.0
  9
$UCSORTHOREF
  2

  9
$UCSORTHOVIEW
 70
     0
  9
$UCSORGTOP
 10
0.0
 20
0.0
 30
0.0
  9
$UCSORGBOTTOM
 10
0.0
 20
0.0
 30
0.0
  9
$UCSORGLEFT
 10
0.0
 20
0.0
 30
0.0
  9
$UCSORGRIGHT
 10
0.0
 20
0.0
 30
0.0
  9
$UCSORGFRONT
 10
0.0
 20
0.0
 30
0.0
  9
$UCSORGBACK
 10
0.0
 20
0.0
 30
0.0
  9
$PUCSBASE
  2

  9
$PUCSNAME
  2

  9
$PUCSORG
 10
0.0
 20
0.0
 30
0.0
  9
$PUCSXDIR
 10
1.0
 20
0.0
 30
0.0
  9
$PUCSYDIR
 10
0.0
 20
1.0
 30
0.0
  9
$PUCSORTHOREF
  2

  9
$PUCSORTHOVIEW
 70
     0
  9
$PUCSORGTOP
 10
0.0
 20
0.0
 30
0.0
  9
$PUCSORGBOTTOM
 10
0.0
 20
0.0
 30
0.0
  9
$PUCSORGLEFT
 10
0.0
 20
0.0
 30
0.0
  9
$PUCSORGRIGHT
 10
0.0
 20
0.0
 30
0.0
  9
$PUCSORGFRONT
 10
0.0
 20
0.0
 30
0.0
  9
$PUCSORGBACK
 10
0.0
 20
0.0
 30
0.0
  9
$USERI1
 70
     0
  9
$USERI2
 70
     0
  9
$USERI3
 70
     0
  9
$USERI4
 70
     0
  9
$USERI5
 70
     0
  9
$USERR1
 40
0.0
  9
$USERR2
 40
0.0
  9
$USERR3
 40
0.0
  9
$USERR4
 40
0.0
  9
$USERR5
 40
0.0
  9
$WORLDVIEW
 70
     1
  9
$SHADEDGE
 70
     3
  9
$SHADEDIF
 70
    70
  9
$TILEMODE
 70
     1
  9
$MAXACTVP
 70
    64
  9
$PINSBASE
 10
0.0
 20
0.0
 30
0.0
  9
$PLIMCHECK
 70
     0
  9
$PEXTMIN
 10
1.000000000000000E+20
 20
1.000000000000000E+20
 30
1.000000000000000E+20
  9
$PEXTMAX
 10
-1.000000000000000E+20
 20
-1.000000000000000E+20
 30
-1.000000000000000E+20
  9
$PLIMMIN
 10
0.0
 20
0.0
  9
$PLIMMAX
 10
12.0
 20
9.0
  9
$UNITMODE
 70
     0
  9
$VISRETAIN
 70
     1
  9
$PLINEGEN
 70
     0
  9
$PSLTSCALE
 70
     1
  9
$TREEDEPTH
 70
  3020
  9
$CMLSTYLE
  2
Standard
  9
$CMLJUST
 70
     0
  9
$CMLSCALE
 40
1.0
  9
$PROXYGRAPHICS
 70
     1
  9
$MEASUREMENT
 70
     0
  9
$CELWEIGHT
370
    -1
  9
$ENDCAPS
280
     0
  9
$JOINSTYLE
280
     0
  9
$LWDISPLAY
290
     0
  9
$INSUNITS
 70
     1
  9
$HYPERLINKBASE
  1

  9
$STYLESHEET
  1

  9
$XEDIT
290
     1
  9
$CEPSNTYPE
380
     0
  9
$PSTYLEMODE
290
     1
  9
$FINGERPRINTGUID
  2
{26d1c3d6-671f-4d9f-9813-267394878b93}
  9
$VERSIONGUID
  2
{FAEB1C32-E019-11D5-929B-00C0DF256EC4}
  9
$EXTNAMES
290
     1
  9
$PSVPSCALE
 40
0.0
  9
$OLESTARTUP
290
     0
  9
$SORTENTS
280
   127
  9
$INDEXCTL
280
     0
  9
$HIDETEXT
280
     1
  9
$XCLIPFRAME
290
     0
  9
$HALOGAP
280
     0
  9
$OBSCOLOR
 70
   257
  9
$OBSLTYPE
280
     0
  9
$INTERSECTIONDISPLAY
280
     0
  9
$INTERSECTIONCOLOR
 70
   257
  9
$DIMASSOC
280
     2
  9
$PROJECTNAME
  1

  9
$CAMERADISPLAY
290
     0
  9
$LENSLENGTH
 40
50.0
  9
$CAMERAHEIGHT
 40
0.0
  9
$STEPSPERSEC
 40
2.0
  9
$STEPSIZE
 40
6.0
  9
$3DDWFPREC
 40
2.0
  9
$PSOLWIDTH
 40
0.25
  9
$PSOLHEIGHT
 40
4.0
  9
$LOFTANG1
 40
1.570796326794897
  9
$LOFTANG2
 40
1.570796326794897
  9
$LOFTMAG1
 40
0.0
  9
$LOFTMAG2
 40
0.0
  9
$LOFTPARAM
 70
     7
  9
$LOFTNORMALS
280
     1
  9
$LATITUDE
 40
37.795
  9
$LONGITUDE
 40
-122.394
  9
$NORTHDIRECTION
 40
0.0
  9
$TIMEZONE
 70
 -8000
  9
$LIGHTGLYPHDISPLAY
280
     1
  9
$TILEMODELIGHTSYNCH
280
     1
  9
$CMATERIAL
347
44
  9
$SOLIDHIST
280
     0
  9
$SHOWHIST
280
     1
  9
$DWFFRAME
280
     2
  9
$DGNFRAME
280
     2
  9
$REALWORLDSCALE
290
     1
  9
$INTERFERECOLOR
 62
   256
  9
$CSHADOW
280
     0
  9
$SHADOWPLANELOCATION
 40
0.0
  0
ENDSEC
  0
SECTION
  2
CLASSES
  0
CLASS
  1
ACDBDICTIONARYWDFLT
  2
AcDbDictionaryWithDefault
  3
ObjectDBX Classes
 90
        0
 91
        3
280
     0
281
     0
  0
CLASS
  1
VISUALSTYLE
  2
AcDbVisualStyle
  3
ObjectDBX Classes
 90
     4095
 91
        3
280
     0
281
     0
  0
CLASS
  1
MATERIAL
  2
AcDbMaterial
  3
ObjectDBX Classes
 90
     1153
 91
        3
280
     0
281
     0
  0
CLASS
  1
SCALE
  2
AcDbScale
  3
ObjectDBX Classes
 90
     1153
 91
        3
280
     0
281
     0
  0
CLASS
  1
TABLESTYLE
  2
AcDbTableStyle
  3
ObjectDBX Classes
 90
     4095
 91
        3
280
     0
281
     0
  0
CLASS
  1
MLEADERSTYLE
  2
AcDbMLeaderStyle
  3
ACDB_MLEADERSTYLE_CLASS
 90
     4095
 91
        3
280
     0
281
     0
  0
CLASS
  1
SUN
  2
AcDbSun
  3
SCENEOE
 90
     1153
 91
        3
280
     0
281
     0
  0
CLASS
  1
DICTIONARYVAR
  2
AcDbDictionaryVar
  3
ObjectDBX Classes
 90
        0
 91
        3
280
     0
281
     0
  0
CLASS
  1
CELLSTYLEMAP
  2
AcDbCellStyleMap
  3
ObjectDBX Classes
 90
     1152
 91
        3
280
     0
281
     0
  0
ENDSEC
  0
SECTION
  2
TABLES
  0
TABLE
  2
VPORT
  5
8
330
0
100
AcDbSymbolTable
 70
     1
  0
VPORT
  5
29
330
8
100
AcDbSymbolTableRecord
100
AcDbViewportTableRecord
  2
*Active
 70
     0
 10
0.0
 20
0.0
 11
1.0
 21
1.0
 12
10.42990654205607
 22
4.5
 13
0.0
 23
0.0
 14
0.5
 24
0.5
 15
0.5
 25
0.5
 16
0.0
 26
0.0
 36
1.0
 17
0.0
 27
0.0
 37
0.0
 40
9.0
 41
1.972972972850329
 42
50.0
 43
0.0
 44
0.0
 50
0.0
 51
0.0
 71
     0
 72
   100
 73
     1
 74
     3
 75
     0
 76
     0
 77
     0
 78
     0
281
     0
 65
     1
110
0.0
120
0.0
130
0.0
111
1.0
121
0.0
131
0.0
112
0.0
122
1.0
132
0.0
 79
     0
146
0.0
348
2F
 60
     3
 61
     5
292
     1
282
     1
141
0.0
142
0.0
 63
   250
361
6D
  0
ENDTAB
  0
TABLE
  2
LTYPE
  5
5
330
0
100
AcDbSymbolTable
 70
     1
  0
LTYPE
  5
14
330
5
100
AcDbSymbolTableRecord
100
AcDbLinetypeTableRecord
  2
ByBlock
 70
     0
  3

 72
    65
 73
     0
 40
0.0
  0
LTYPE
  5
15
330
5
100
AcDbSymbolTableRecord
100
AcDbLinetypeTableRecord
  2
ByLayer
 70
     0
  3

 72
    65
 73
     0
 40
0.0
  0
LTYPE
  5
16
330
5
100
AcDbSymbolTableRecord
100
AcDbLinetypeTableRecord
  2
Continuous
 70
     0
  3
Solid line
 72
    65
 73
     0
 40
0.0
  0
ENDTAB
  0
TABLE
  2
LAYER
  5
2
330
0
100
AcDbSymbolTable
 70
     2
  0
LAYER
  5
10
330
2
100
AcDbSymbolTableRecord
100
AcDbLayerTableRecord
  2
0
 70
     0
 62
     7
  6
Continuous
370
    -3
390
F
347
46
  0
LAYER
  5
6E
330
2
100
AcDbSymbolTableRecord
100
AcDbLayerTableRecord
  2
1
 70
     0
 62
    18
420
        0
  6
Continuous
370
    -3
390
F
347
46
  0
ENDTAB
  0
TABLE
  2
STYLE
  5
3
330
0
100
AcDbSymbolTable
 70
     1
  0
STYLE
  5
11
330
3
100
AcDbSymbolTableRecord
100
AcDbTextStyleTableRecord
  2
Standard
 70
     0
 40
0.0
 41
1.0
 50
0.0
 71
     0
 42
0.2
  3
txt
  4

  0
ENDTAB
  0
TABLE
  2
VIEW
  5
6
330
0
100
AcDbSymbolTable
 70
     0
  0
ENDTAB
  0
TABLE
  2
UCS
  5
7
330
0
100
AcDbSymbolTable
 70
     0
  0
ENDTAB
  0
TABLE
  2
APPID
  5
9
330
0
100
AcDbSymbolTable
 70
     2
  0
APPID
  5
12
330
9
100
AcDbSymbolTableRecord
100
AcDbRegAppTableRecord
  2
ACAD
 70
     0
  0
APPID
  5
D9
330
9
100
AcDbSymbolTableRecord
100
AcDbRegAppTableRecord
  2
ACAD_MLEADERVER
 70
     0
  0
ENDTAB
  0
TABLE
  2
DIMSTYLE
  5
A
330
0
100
AcDbSymbolTable
 70
     1
100
AcDbDimStyleTable
  0
DIMSTYLE
105
27
330
A
100
AcDbSymbolTableRecord
100
AcDbDimStyleTableRecord
  2
STANDARD_ACAD
 70
     0
178
     0
340
11
  0
ENDTAB
  0
TABLE
  2
BLOCK_RECORD
  5
1
330
0
100
AcDbSymbolTable
 70
     1
  0
BLOCK_RECORD
  5
1F
330
1
100
AcDbSymbolTableRecord
100
AcDbBlockTableRecord
  2
*Model_Space
340
22
 70
     0
280
     1
281
     0
  0
BLOCK_RECORD
  5
1B
330
1
100
AcDbSymbolTableRecord
100
AcDbBlockTableRecord
  2
*Paper_Space
340
1E
 70
     0
280
     1
281
     0
  0
BLOCK_RECORD
  5
23
330
1
100
AcDbSymbolTableRecord
100
AcDbBlockTableRecord
  2
*Paper_Space0
340
26
 70
     0
280
     1
281
     0
  0
ENDTAB
  0
ENDSEC
  0
SECTION
  2
BLOCKS
  0
BLOCK
  5
20
330
1F
100
AcDbEntity
  8
0
100
AcDbBlockBegin
  2
*Model_Space
 70
     0
 10
0.0
 20
0.0
 30
0.0
  3
*Model_Space
  1

  0
ENDBLK
  5
21
330
1F
100
AcDbEntity
  8
0
100
AcDbBlockEnd
  0
BLOCK
  5
1C
330
1B
100
AcDbEntity
 67
     1
  8
0
100
AcDbBlockBegin
  2
*Paper_Space
 70
     0
 10
0.0
 20
0.0
 30
0.0
  3
*Paper_Space
  1

  0
ENDBLK
  5
1D
330
1B
100
AcDbEntity
 67
     1
  8
0
100
AcDbBlockEnd
  0
BLOCK
  5
24
330
23
100
AcDbEntity
  8
0
100
AcDbBlockBegin
  2
*Paper_Space0
 70
     0
 10
0.0
 20
0.0
 30
0.0
  3
*Paper_Space0
  1

  0
ENDBLK
  5
25
330
23
100
AcDbEntity
  8
0
100
AcDbBlockEnd
  0
ENDSEC
  0
SECTION
  2
ENTITIES
  0
POLYLINE
  5
6F
330
1F
100
AcDbEntity
  8
1
370
    -3
100
AcDb2dPolyline
 66
     1
 10
0.0
 20
0.0
 30
0.0
  0
VERTEX
  5
70
330
6F
100
AcDbEntity
  8
1
370
    -3
100
AcDbVertex
100
AcDb2dVertex
 10
35.05425459107754
 20
6.372111544731119
 30
0.0
  0
VERTEX
  5
71
330
6F
100
AcDbEntity
  8
1
370
    -3
100
AcDbVertex
100
AcDb2dVertex
 10
43.0015046951378
 20
6.890751970935089
 30
0.0
  0
VERTEX
  5
72
330
6F
100
AcDbEntity
  8
1
370
    -3
100
AcDbVertex
100
AcDb2dVertex
 10
54.79044060838194
 20
7.660102207367526
 30
0.0
  0
SEQEND
  5
73
330
6F
100
AcDbEntity
  8
1
370
    -3
  0
SPLINE
  5
74
330
1F
100
AcDbEntity
  8
1
370
    -3
100
AcDbSpline
210
0.0
220
0.0
230
1.0
 70
    12
 71
     2
 72
    16
 73
    13
 74
     0
 42
0.000000001
 43
0.0000000001
 40
53.43678695807769
 40
53.43678695807769
 40
53.43678695807769
 40
58.32090697531773
 40
58.32090697531773
 40
63.49339508455972
 40
63.49339508455972
 40
64.13556483763529
 40
64.13556483763529
 40
69.98827826582567
 40
69.98827826582567
 40
70.4658965148266
 40
70.4658965148266
 40
75.92508849397487
 40
75.92508849397487
 40
75.92508849397487
 10
54.24398396023904
 20
10.09869229264724
 30
0.0
 41
1.0
 10
52.36839494458327
 20
9.9762906727504
 30
0.0
 41
1.0
 10
50.4928059289275
 20
9.85388905285356
 30
0.0
 41
1.0
 10
48.41561107684078
 20
9.718330562899009
 30
0.0
 41
1.0
 10
46.33841622475405
 20
9.582772072944456
 30
0.0
 41
1.0
 10
46.21071757244014
 20
9.574438412546064
 30
0.0
 41
0.9195549367359682
 10
46.10212598515576
 20
9.667983205450868
 30
0.0
 41
0.9399712286980453
 10
43.18484045349794
 20
9.437746924839121
 30
0.0
 41
0.9399712286980453
 10
40.26755492184011
 20
9.207510644227373
 30
0.0
 41
0.9399712286980453
 10
40.22534996883333
 20
8.933299351626774
 30
0.0
 41
0.7874979192366249
 10
40.00980908082506
 20
8.919233075044735
 30
0.0
 41
1.032765987717265
 10
37.82906278832615
 20
8.776916780505434
 30
0.0
 41
1.032765987717265
 10
35.64831649582722
 20
8.634600485966134
 30
0.0
 41
1.032765987717265
  0
SPLINE
  5
75
330
1F
100
AcDbEntity
  8
1
370
    -3
100
AcDbSpline
210
0.0
220
0.0
230
1.0
 70
     8
 71
     2
 72
    10
 73
     7
 74
     0
 42
0.000000001
 43
0.0000000001
 40
0.0
 40
0.0
 40
0.0
 40
1.0
 40
2.0
 40
3.0
 40
4.0
 40
5.0
 40
5.0
 40
5.0
 10
59.42841457673127
 20
13.29076401347879
 30
0.0
 10
59.95191338871447
 20
13.66389660698017
 30
0.0
 10
60.29332285051185
 20
14.89463965027465
 30
0.0
 10
59.94909520878071
 20
16.11492036986933
 30
0.0
 10
59.03347363485609
 20
16.98177881843172
 30
0.0
 10
57.87477507116306
 20
17.44184741225855
 30
0.0
 10
57.26034354287612
 20
17.53218469015745
 30
0.0
  0
SPLINE
  5
76
330
1F
100
AcDbEntity
  8
1
370
    -3
100
AcDbSpline
210
0.0
220
0.0
230
1.0
 70
     8
 71
     5
 72
    86
 73
    80
 74
     0
 42
0.000000001
 43
0.0000000001
 40
76.0
 40
76.0
 40
76.0
 40
76.0
 40
76.0
 40
76.0
 40
76.68512833466825
 40
76.68512833466825
 40
76.68512833466825
 40
76.68512833466825
 40
76.68512833466825
 40
76.9585269576878
 40
76.9585269576878
 40
76.9585269576878
 40
76.9585269576878
 40
76.9585269576878
 40
77.61739925613615
 40
78.27627155458433
 40
78.60570770380842
 40
78.85278482442114
 40
78.85278482442114
 40
78.85278482442114
 40
78.85278482442114
 40
78.85278482442114
 40
78.9351438530325
 40
78.98685100407941
 40
78.98685100407941
 40
78.98685100407941
 40
78.98685100407941
 40
78.98685100407941
 40
79.25049051270945
 40
79.25049051270945
 40
79.25049051270945
 40
79.25049051270945
 40
79.77761379317911
 40
79.77761379317911
 40
79.77761379317911
 40
79.77761379317911
 40
79.77761379317911
 40
80.65237312712156
 40
80.65237312712156
 40
80.65237312712156
 40
80.65237312712156
 40
80.65237312712156
 40
81.20825547020175
 40
81.20825547020175
 40
81.20825547020175
 40
81.20825547020175
 40
81.20825547020175
 40
84.14269166167783
 40
84.14269166167783
 40
84.14269166167783
 40
84.14269166167783
 40
84.14269166167783
 40
84.24037427693372
 40
84.24037427693372
 40
84.24037427693372
 40
84.24037427693372
 40
84.24037427693372
 40
84.26563538197333
 40
84.26563538197333
 40
84.26563538197333
 40
84.26563538197333
 40
84.26563538197333
 40
84.33768548408217
 40
84.40942420308218
 40
84.45774242839391
 40
84.45774242839391
 40
84.45774242839391
 40
84.45774242839391
 40
84.45774242839391
 40
84.48116292208218
 40
84.51703228208218
 40
84.55290164108219
 40
84.59220391208218
 40
84.63150618308218
 40
84.67080845408218
 40
84.71011072508219
 40
84.78871526708218
 40
84.86731980808219
 40
84.90245963967783
 40
84.90245963967783
 40
84.90245963967783
 40
84.90245963967783
 40
84.90245963967783
 40
84.90245963967783
 10
35.87282841005368
 20
9.537544156795525
 30
0.0
 10
35.96250741925308
 20
9.434005778559243
 30
0.0
 10
36.05302015684219
 20
9.331171805760587
 30
0.0
 10
36.14439165476983
 20
9.229069743307551
 30
0.0
 10
36.23664694498483
 20
9.127727096108131
 30
0.0
 10
36.329811059436
 20
9.027171369070311
 30
0.0
 10
36.36426510319362
 20
8.989983751929213
 30
0.0
 10
36.41279970013841
 20
8.970362811712654
 30
0.0
 10
36.46872077831267
 20
8.963279652925184
 30
0.0
 10
36.52533426575872
 20
8.963705380071353
 30
0.0
 10
36.57594609051888
 20
8.966611097655708
 30
0.0
 10
36.71864645189938
 20
8.974803786841651
 30
0.0
 10
37.00402759219829
 20
8.991488908784168
 30
0.0
 10
37.36070506052764
 20
9.013094682309852
 30
0.0
 10
37.7708207958305
 20
9.038902223339939
 30
0.0
 10
38.18086869310073
 20
9.065731580891908
 30
0.0
 10
38.44826488025049
 20
9.083622217820288
 30
0.0
 10
38.57304420318928
 20
9.092053927684727
 30
0.0
 10
38.6265200507118
 20
9.095682451073692
 30
0.0
 10
38.64434533071021
 20
9.096891958699763
 30
0.0
 10
38.6733616054504
 20
9.09886352782256
 30
0.0
 10
38.70237758549687
 20
9.100839467698208
 30
0.0
 10
38.73139327352248
 20
9.102819734028602
 30
0.0
 10
38.76040867253962
 20
9.104804276923474
 30
0.0
 10
38.77159944661796
 20
9.10556961350508
 30
0.0
 10
38.7747399647392
 20
9.105783528251893
 30
0.0
 10
38.78038888065367
 20
9.106168509427636
 30
0.0
 10
38.78825647565684
 20
9.10670349629187
 30
0.0
 10
38.79805303104418
 20
9.107367428104132
 30
0.0
 10
38.83235366690589
 20
9.10968242023751
 30
0.0
 10
38.86153020221336
 20
9.111639582907896
 30
0.0
 10
38.89684955314472
 20
9.113986059039293
 30
0.0
 10
38.93814283881115
 20
9.116697175535855
 30
0.0
 10
38.98524117832379
 20
9.119748259301732
 30
0.0
 10
39.06997598906678
 20
9.125237476291923
 30
0.0
 10
39.16923031150467
 20
9.131487314848329
 30
0.0
 10
39.27988911983819
 20
9.13840737716042
 30
0.0
 10
39.39883738826803
 20
9.145907265417659
 30
0.0
 10
39.52296009099495
 20
9.153896581809517
 30
0.0
 10
39.5925445916164
 20
9.158375477122146
 30
0.0
 10
39.67666103273719
 20
9.163910697539544
 30
0.0
 10
39.76598087985843
 20
9.169888337241343
 30
0.0
 10
39.85117559848124
 20
9.17569449040717
 30
0.0
 10
39.92291665410671
 20
9.180715251216656
 30
0.0
 10
40.50803803999784
 20
9.226208044565002
 30
0.0
 10
41.09315942588896
 20
9.271700837913349
 30
0.0
 10
41.67828081178008
 20
9.317193631261697
 30
0.0
 10
42.26340219767121
 20
9.362686424610043
 30
0.0
 10
42.84852358356233
 20
9.40817921795839
 30
0.0
 10
42.86768317704545
 20
9.409660840913192
 30
0.0
 10
42.88683262038883
 20
9.411142067199561
 30
0.0
 10
42.90589650579688
 20
9.412617854587104
 30
0.0
 10
42.92479942547403
 20
9.414083160845413
 30
0.0
 10
42.94346597162468
 20
9.415532943744086
 30
0.0
 10
42.96343862084754
 20
9.417084619138766
 30
0.0
 10
42.98341142647147
 20
9.418634465700753
 30
0.0
 10
43.00338432700762
 20
9.42018329825002
 30
0.0
 10
43.02335726096713
 20
9.421731931606548
 30
0.0
 10
43.04333016686113
 20
9.423281180590312
 30
0.0
 10
43.29371405994377
 20
9.442702840811783
 30
0.0
 10
43.79308767132482
 20
9.481660246091195
 30
0.0
 10
44.45942855787872
 20
9.53423444199294
 30
0.0
 10
45.12641311957627
 20
9.587783098324506
 30
0.0
 10
45.79338077261934
 20
9.64229735250655
 30
0.0
 10
46.21110471999973
 20
9.676867905141224
 30
0.0
 10
46.37938217577168
 20
9.69086552891388
 30
0.0
 10
46.46094852191453
 20
9.697650365424392
 30
0.0
 10
46.66753187677332
 20
9.714876588732821
 30
0.0
 10
46.99949692618285
 20
9.742731715081653
 30
0.0
 10
47.46942262902324
 20
9.78256528929482
 30
0.0
 10
48.07611738529215
 20
9.834695094045545
 30
0.0
 10
48.74775985006239
 20
9.893659138991065
 30
0.0
 10
49.44322781000243
 20
9.956838037189966
 30
0.0
 10
50.29673606302911
 20
10.03781805589538
 30
0.0
 10
51.29205882977882
 20
10.13881965688097
 30
0.0
 10
52.25682223890983
 20
10.24563195973525
 30
0.0
 10
53.05407729703642
 20
10.34020232098
 30
0.0
 10
53.68653907844213
 20
10.41839506354592
 30
0.0
 10
54.05357710457409
 20
10.46531720641222
 30
0.0
 10
54.16638559762853
 20
10.4799000928331
 30
0.0
  0
SPLINE
  5
77
330
1F
100
AcDbEntity
  8
1
370
    -3
100
AcDbSpline
210
0.0
220
0.0
230
1.0
 70
     8
 71
     2
 72
    96
 73
    93
 74
     0
 42
0.000000001
 43
0.0000000001
 40
0.0
 40
0.0
 40
0.0
 40
1.0
 40
2.0
 40
3.0
 40
4.0
 40
5.0
 40
6.0
 40
7.0
 40
8.0
 40
9.0
 40
10.0
 40
11.0
 40
12.0
 40
13.0
 40
14.0
 40
15.0
 40
16.0
 40
16.0
 40
17.0
 40
17.0
 40
18.0
 40
18.0
 40
19.0
 40
19.0
 40
20.0
 40
21.0
 40
21.0
 40
22.0
 40
22.0
 40
23.0
 40
23.0
 40
24.0
 40
25.0
 40
26.0
 40
27.0
 40
27.0
 40
28.0
 40
29.0
 40
29.0
 40
30.0
 40
31.0
 40
31.0
 40
32.0
 40
33.0
 40
34.0
 40
35.0
 40
36.0
 40
37.0
 40
38.0
 40
38.0
 40
39.0
 40
39.0
 40
40.0
 40
40.0
 40
41.0
 40
42.0
 40
43.0
 40
44.0
 40
45.0
 40
45.0
 40
46.0
 40
46.0
 40
47.0
 40
47.0
 40
48.0
 40
49.0
 40
50.0
 40
51.0
 40
52.0
 40
53.0
 40
54.0
 40
55.0
 40
56.0
 40
57.0
 40
58.0
 40
59.0
 40
60.0
 40
61.0
 40
62.0
 40
63.0
 40
64.0
 40
65.0
 40
66.0
 40
67.0
 40
68.0
 40
69.0
 40
70.0
 40
71.0
 40
72.0
 40
73.0
 40
74.0
 40
75.0
 40
75.0
 40
75.0
 10
55.72800188395861
 20
10.69709404476952
 30
0.0
 10
55.90797332763244
 20
10.72420854488776
 30
0.0
 10
56.26756193864284
 20
10.7807398532812
 30
0.0
 10
56.62674778636754
 20
10.83977766321308
 30
0.0
 10
56.98548264419279
 20
10.90149787881687
 30
0.0
 10
57.34371665212422
 20
10.96606358650218
 30
0.0
 10
57.70134807145688
 20
11.03389379260806
 30
0.0
 10
58.05813736715473
 20
11.1060378045921
 30
0.0
 10
58.41365204124355
 20
11.18424936206631
 30
0.0
 10
58.76721142312885
 20
11.27092639539022
 30
0.0
 10
59.11765989478278
 20
11.36950653718168
 30
0.0
 10
59.46254900214519
 20
11.48650510320908
 30
0.0
 10
59.78441166812085
 20
11.66332390140305
 30
0.0
 10
60.0084931443779
 20
11.95791590950864
 30
0.0
 10
60.07114748161766
 20
12.32388760524075
 30
0.0
 10
59.96431748239439
 20
12.67786077509611
 30
0.0
 10
59.73525748873093
 20
12.96410374667803
 30
0.0
 10
59.60315667822416
 20
13.0853518276028
 30
0.0
 10
59.47105586771739
 20
13.20659990852756
 30
0.0
 10
59.37134353175976
 20
13.36037164648347
 30
0.0
 10
59.27163119580213
 20
13.51414338443938
 30
0.0
 10
59.160685587149
 20
13.65827025197086
 30
0.0
 10
59.04973997849589
 20
13.80239711950234
 30
0.0
 10
58.93902040888661
 20
13.96559953832779
 30
0.0
 10
58.5197405058228
 20
14.68018242134299
 30
0.0
 10
57.81954979386204
 20
16.18209003602949
 30
0.0
 10
57.50398638485202
 20
16.94762013313323
 30
0.0
 10
57.18842297584199
 20
17.71315023023697
 30
0.0
 10
56.86394097336401
 20
18.47509432635168
 30
0.0
 10
56.53945897088602
 20
19.23703842246638
 30
0.0
 10
56.22377287143394
 20
20.00175427983907
 30
0.0
 10
55.90808677198185
 20
20.76647013721175
 30
0.0
 10
55.07740924995607
 20
22.22211305365185
 30
0.0
 10
53.62229869829966
 20
23.0725132695724
 30
0.0
 10
51.97338376387681
 20
23.31110313575846
 30
0.0
 10
51.14882294450777
 20
23.37936814530451
 30
0.0
 10
50.32426212513874
 20
23.44763315485056
 30
0.0
 10
48.67450442077804
 20
23.59457580257467
 30
0.0
 10
47.85021068179927
 20
23.67295884211242
 30
0.0
 10
47.02591694282049
 20
23.75134188165016
 30
0.0
 10
45.37692634312563
 20
23.90463155222036
 30
0.0
 10
44.55232929781872
 20
23.97901698714934
 30
0.0
 10
43.7277322525118
 20
24.05340242207832
 30
0.0
 10
42.07807549781282
 20
24.2101116741169
 30
0.0
 10
40.43739696502633
 20
24.3872924710053
 30
0.0
 10
38.75866705410501
 20
24.58329707982209
 30
0.0
 10
37.51046551898553
 20
25.72596146961447
 30
0.0
 10
36.83450044733188
 20
27.25354374710743
 30
0.0
 10
36.63555350573042
 20
28.9042636314126
 30
0.0
 10
36.60541457411255
 20
29.7316002369727
 30
0.0
 10
36.57527564249468
 20
30.55893684253281
 30
0.0
 10
36.53148136246641
 20
31.38581492761925
 30
0.0
 10
36.48768708243814
 20
32.21269301270569
 30
0.0
 10
36.45005593748438
 20
33.04008944084691
 30
0.0
 10
36.41242479253062
 20
33.86748586898813
 30
0.0
 10
36.32964449836876
 20
35.51886752944546
 30
0.0
 10
36.05283997651592
 20
37.17588373687649
 30
0.0
 10
34.9221676315957
 20
38.46670260568745
 30
0.0
 10
33.22466755976971
 20
38.61761733219473
 30
0.0
 10
32.40047312324015
 20
38.58377734468024
 30
0.0
 10
31.57627868671057
 20
38.54993735716577
 30
0.0
 10
30.74798224173432
 20
38.52768623149995
 30
0.0
 10
29.91968579675806
 20
38.50543510583413
 30
0.0
 10
29.09226127338889
 20
38.47997543669818
 30
0.0
 10
28.49434783381032
 20
38.46157777272562
 30
0.0
 10
28.17341768315255
 20
37.36004595807751
 30
0.0
 10
28.12086214096725
 20
36.32883108535005
 30
0.0
 10
28.10651113699065
 20
35.28690777814683
 30
0.0
 10
28.1055041712286
 20
34.24658709717211
 30
0.0
 10
28.12355695162999
 20
33.20612088951421
 30
0.0
 10
28.15926356479804
 20
32.16616851870957
 30
0.0
 10
28.20981518118286
 20
31.12682689192951
 30
0.0
 10
28.27561638117457
 20
30.08833808786212
 30
0.0
 10
28.35802908060066
 20
29.05103145967538
 30
0.0
 10
28.45815780750581
 20
28.01528132771615
 30
0.0
 10
28.5772347609371
 20
26.98153566417809
 30
0.0
 10
28.7161521289627
 20
25.95026232358041
 30
0.0
 10
28.8777296937265
 20
24.92227640622713
 30
0.0
 10
29.06907752398035
 20
23.89937733788782
 30
0.0
 10
29.29673903361331
 20
22.88389920204992
 30
0.0
 10
29.56577870416732
 20
21.87859975853673
 30
0.0
 10
29.86924587976781
 20
20.88318723958104
 30
0.0
 10
30.20344927259463
 20
19.89768804253151
 30
0.0
 10
30.56448534758625
 20
18.92171776091767
 30
0.0
 10
30.94848359857453
 20
17.95456488710927
 30
0.0
 10
31.35390205532809
 20
16.99619243452929
 30
0.0
 10
31.78213491042914
 20
16.04778696039646
 30
0.0
 10
32.23412686668452
 20
15.11046824882943
 30
0.0
 10
32.71035398505809
 20
14.18521060006602
 30
0.0
 10
33.21396098357047
 20
13.27456636257064
 30
0.0
 10
33.74684744302266
 20
12.38062669113892
 30
0.0
 10
34.3213274694217
 20
11.51284158153942
 30
0.0
 10
34.63159408874046
 20
11.0950170444367
 30
0.0
  0
SPLINE
  5
78
330
1F
100
AcDbEntity
  8
1
370
    -3
100
AcDbSpline
210
0.0
220
0.0
230
1.0
 70
     8
 71
     3
 72
    40
 73
    36
 74
     0
 42
0.000000001
 43
0.0000000001
 40
0.0
 40
0.0
 40
0.0
 40
0.0
 40
0.9996182529712201
 40
0.9996182529712201
 40
1.999694602376976
 40
1.999694602376976
 40
2.999770951782732
 40
2.999770951782732
 40
3.999847301188488
 40
3.999847301188488
 40
4.999923650594244
 40
4.999923650594244
 40
6.0
 40
6.0
 40
6.0
 40
7.0
 40
7.0
 40
7.0
 40
7.951654960700836
 40
7.951654960700836
 40
7.951654960700836
 40
8.951654960700836
 40
8.951654960700836
 40
8.951654960700836
 40
9.951654960700836
 40
9.951654960700836
 40
10.95165496070084
 40
10.95165496070084
 40
11.95165496070084
 40
11.95165496070084
 40
12.95165496070084
 40
12.95165496070084
 40
13.95165496070084
 40
13.95165496070084
 40
14.95165496070084
 40
14.95165496070084
 40
14.95165496070084
 40
14.95165496070084
 10
6.615752364750685
 20
6.293931631552103
 30
0.0
 10
6.701292941914211
 20
5.961616495193151
 30
0.0
 10
6.787392424489163
 20
5.629446205300968
 30
0.0
 10
6.960748913520824
 20
4.965243160692563
 30
0.0
 10
7.047922174894116
 20
4.633190417488947
 30
0.0
 10
7.223219018296715
 20
3.969334647040462
 30
0.0
 10
7.311533783467681
 20
3.637583279955647
 30
0.0
 10
7.489496000748956
 20
2.974433582064878
 30
0.0
 10
7.580105571885281
 20
2.643304171665869
 30
0.0
 10
7.764581639149308
 20
1.981936227960603
 30
0.0
 10
7.858873112732891
 20
1.651832710667194
 30
0.0
 10
8.051562939803205
 20
0.9927865851988257
 30
0.0
 10
8.152350413645065
 20
0.6646237373707358
 30
0.0
 10
8.257580447793629
 20
0.3378211044487394
 30
0.0
 10
8.275714084311844
 20
0.2815052417147529
 30
0.0
 10
8.320357090862448
 20
0.2502167940116238
 30
0.0
 10
8.379915352048
 20
0.2502170910562356
 30
0.0
 10
8.697133672277667
 20
0.2502186731708053
 30
0.0
 10
9.014351992507335
 20
0.250220255285375
 30
0.0
 10
9.331570312737
 20
0.2502218373999447
 30
0.0
 10
9.426147005770932
 20
0.2502223090976824
 30
0.0
 10
9.469155779743708
 20
0.3006317821518977
 30
0.0
 10
9.45466050458893
 20
0.3941364949306418
 30
0.0
 10
9.393518610681056
 20
0.7885446843273773
 30
0.0
 10
9.325498857375218
 20
1.18175457727411
 30
0.0
 10
9.17570363196761
 20
1.965777770267569
 30
0.0
 10
9.097007944667961
 20
2.357015507374911
 30
0.0
 10
8.932020420876974
 20
3.137943262810818
 30
0.0
 10
8.846887240675697
 20
3.52782918264343
 30
0.0
 10
8.67134204366157
 20
4.306445106537969
 30
0.0
 10
8.58171845924275
 20
4.695325142987909
 30
0.0
 10
8.39876931858159
 20
5.472229364893131
 30
0.0
 10
8.306275835206742
 20
5.860438004770587
 30
0.0
 10
8.119251042368525
 20
6.636368342375185
 30
0.0
 10
8.025243894086492
 20
7.024213429205382
 30
0.0
 10
7.930741993941536
 20
7.41193843406348
 30
0.0
  0
SPLINE
  5
79
330
1F
100
AcDbEntity
  8
1
370
    -3
100
AcDbSpline
210
0.0
220
0.0
230
1.0
 70
     8
 71
     3
 72
    40
 73
    36
 74
     0
 42
0.000000001
 43
0.0000000001
 40
0.0
 40
0.0
 40
0.0
 40
0.0
 40
0.9996182529712201
 40
0.9996182529712201
 40
1.999694602376976
 40
1.999694602376976
 40
2.999770951782732
 40
2.999770951782732
 40
3.999847301188488
 40
3.999847301188488
 40
4.999923650594244
 40
4.999923650594244
 40
6.0
 40
6.0
 40
6.0
 40
7.0
 40
7.0
 40
7.0
 40
7.951654960700836
 40
7.951654960700836
 40
7.951654960700836
 40
8.951654960700836
 40
8.951654960700836
 40
8.951654960700836
 40
9.951654960700836
 40
9.951654960700836
 40
10.95165496070084
 40
10.95165496070084
 40
11.95165496070084
 40
11.95165496070084
 40
12.95165496070084
 40
12.95165496070084
 40
13.95165496070084
 40
13.95165496070084
 40
14.95165496070084
 40
14.95165496070084
 40
14.95165496070084
 40
14.95165496070084
 10
-6.615752364750685
 20
6.293931631552103
 30
0.0
 10
-6.701292941914211
 20
5.961616495193151
 30
0.0
 10
-6.787392424489163
 20
5.629446205300968
 30
0.0
 10
-6.960748913520824
 20
4.965243160692563
 30
0.0
 10
-7.047922174894116
 20
4.633190417488947
 30
0.0
 10
-7.223219018296715
 20
3.969334647040462
 30
0.0
 10
-7.311533783467681
 20
3.637583279955647
 30
0.0
 10
-7.489496000748956
 20
2.974433582064878
 30
0.0
 10
-7.580105571885281
 20
2.643304171665869
 30
0.0
 10
-7.764581639149308
 20
1.981936227960603
 30
0.0
 10
-7.858873112732891
 20
1.651832710667194
 30
0.0
 10
-8.051562939803205
 20
0.9927865851988257
 30
0.0
 10
-8.152350413645065
 20
0.6646237373707358
 30
0.0
 10
-8.257580447793629
 20
0.3378211044487394
 30
0.0
 10
-8.275714084311844
 20
0.2815052417147529
 30
0.0
 10
-8.320357090862448
 20
0.2502167940116238
 30
0.0
 10
-8.379915352048
 20
0.2502170910562356
 30
0.0
 10
-8.697133672277667
 20
0.2502186731708053
 30
0.0
 10
-9.014351992507335
 20
0.250220255285375
 30
0.0
 10
-9.331570312737
 20
0.2502218373999447
 30
0.0
 10
-9.426147005770932
 20
0.2502223090976824
 30
0.0
 10
-9.469155779743708
 20
0.3006317821518977
 30
0.0
 10
-9.45466050458893
 20
0.3941364949306418
 30
0.0
 10
-9.393518610681056
 20
0.7885446843273773
 30
0.0
 10
-9.325498857375218
 20
1.18175457727411
 30
0.0
 10
-9.17570363196761
 20
1.965777770267569
 30
0.0
 10
-9.097007944667961
 20
2.357015507374911
 30
0.0
 10
-8.932020420876974
 20
3.137943262810818
 30
0.0
 10
-8.846887240675697
 20
3.52782918264343
 30
0.0
 10
-8.67134204366157
 20
4.306445106537969
 30
0.0
 10
-8.58171845924275
 20
4.695325142987909
 30
0.0
 10
-8.39876931858159
 20
5.472229364893131
 30
0.0
 10
-8.306275835206742
 20
5.860438004770587
 30
0.0
 10
-8.119251042368525
 20
6.636368342375185
 30
0.0
 10
-8.025243894086492
 20
7.024213429205382
 30
0.0
 10
-7.930741993941536
 20
7.41193843406348
 30
0.0
  0
SPLINE
  5
7A
330
1F
100
AcDbEntity
  8
1
370
    -3
100
AcDbSpline
210
0.0
220
0.0
230
1.0
 70
    12
 71
     2
 72
   126
 73
   123
 74
     0
 42
0.000000001
 43
0.0000000001
 40
3.0
 40
3.0
 40
3.0
 40
4.0
 40
5.0
 40
6.0
 40
7.0
 40
8.0
 40
9.0
 40
10.0
 40
11.0
 40
12.0
 40
13.0
 40
14.0
 40
15.0
 40
16.0
 40
17.0
 40
18.0
 40
19.0
 40
20.0
 40
21.0
 40
22.0
 40
23.0
 40
23.0
 40
24.0
 40
24.0
 40
25.0
 40
25.0
 40
26.0
 40
26.0
 40
26.15256545338595
 40
26.15256545338595
 40
27.15256545338595
 40
28.15256545338595
 40
29.15256545338595
 40
30.15256545338595
 40
31.15256545338595
 40
31.15256545338595
 40
32.15256545338595
 40
33.15256545338595
 40
33.15256545338595
 40
34.15256545338595
 40
34.15256545338595
 40
35.15256545338595
 40
36.15256545338595
 40
37.15256545338595
 40
38.15256545338595
 40
39.15256545338595
 40
40.15256545338595
 40
40.15256545338595
 40
41.15256545338595
 40
42.15256545338595
 40
43.15256545338595
 40
44.15256545338595
 40
44.15256545338595
 40
45.15256545338595
 40
45.15256545338595
 40
46.15256545338595
 40
47.15256545338595
 40
48.15256545338595
 40
49.15256545338595
 40
49.15256545338595
 40
50.15256545338595
 40
50.15256545338595
 40
51.15256545338595
 40
51.15256545338595
 40
52.15256545338595
 40
53.15256545338595
 40
54.15256545338595
 40
55.15256545338595
 40
55.15256545338595
 40
56.15256545338595
 40
56.15256545338595
 40
57.15256545338595
 40
58.15256545338595
 40
59.15256545338595
 40
60.15256545338595
 40
60.15256545338595
 40
61.15256545338595
 40
62.15256545338595
 40
63.15256545338595
 40
64.15256545338595
 40
65.15256545338595
 40
66.15256545338595
 40
66.15256545338595
 40
67.15256545338595
 40
67.15256545338595
 40
68.15256545338595
 40
69.15256545338595
 40
69.15256545338595
 40
70.15256545338595
 40
71.15256545338595
 40
72.15256545338595
 40
73.15256545338595
 40
74.15256545338595
 40
74.15256545338595
 40
74.3051309067719
 40
74.3051309067719
 40
75.3051309067719
 40
75.3051309067719
 40
76.3051309067719
 40
76.3051309067719
 40
77.3051309067719
 40
77.3051309067719
 40
78.3051309067719
 40
79.3051309067719
 40
80.3051309067719
 40
81.3051309067719
 40
82.3051309067719
 40
83.3051309067719
 40
84.3051309067719
 40
85.3051309067719
 40
86.3051309067719
 40
87.3051309067719
 40
88.3051309067719
 40
89.3051309067719
 40
90.3051309067719
 40
91.3051309067719
 40
92.3051309067719
 40
93.3051309067719
 40
94.3051309067719
 40
95.3051309067719
 40
96.3051309067719
 40
97.3051309067719
 40
97.3051309067719
 40
97.3051309067719
 10
-10.68885436051848
 20
12.71229545168646
 30
0.0
 41
1.0
 10
-10.89068751186228
 20
12.94898800211094
 30
0.0
 41
1.0
 10
-11.28348501796713
 20
13.43143797595193
 30
0.0
 41
1.0
 10
-11.66246595117869
 20
13.92484177164674
 30
0.0
 41
1.0
 10
-12.02278985435526
 20
14.43204741202888
 30
0.0
 41
1.0
 10
-12.36426825867774
 20
14.95212894963721
 30
0.0
 41
1.0
 10
-12.68764084314486
 20
15.48364565868447
 30
0.0
 41
1.0
 10
-12.99368482447669
 20
16.02532037074958
 30
0.0
 41
1.0
 10
-13.28196747337405
 20
16.57665525864948
 30
0.0
 41
1.0
 10
-13.55211832562493
 20
17.13709280155971
 30
0.0
 41
1.0
 10
-13.80555093239887
 20
17.70527478542483
 30
0.0
 41
1.0
 10
-14.04357182776447
 20
18.2800728954847
 30
0.0
 41
1.0
 10
-14.269190577899
 20
18.85984322797572
 30
0.0
 41
1.0
 10
-14.48057805615998
 20
19.44498057676787
 30
0.0
 41
1.0
 10
-14.67186736543494
 20
20.03698761275578
 30
0.0
 41
1.0
 10
-14.84445430528822
 20
20.63476283541404
 30
0.0
 41
1.0
 10
-14.98767641395821
 20
21.240361862786
 30
0.0
 41
1.0
 10
-15.06485882901399
 20
21.85934315121013
 30
0.0
 41
1.0
 10
-14.98422118984442
 20
22.48171891209996
 30
0.0
 41
1.0
 10
-14.66155592554511
 20
23.02929935741808
 30
0.0
 41
1.0
 10
-14.1044719460645
 20
23.32514175486214
 30
0.0
 41
1.0
 10
-13.82155769218667
 20
23.45281188824468
 30
0.0
 41
1.0
 10
-13.53864343830885
 20
23.58048202162722
 30
0.0
 41
1.0
 10
-13.2589165535066
 20
23.71684497669903
 30
0.0
 41
1.0
 10
-12.97918966870435
 20
23.85320793177084
 30
0.0
 41
1.0
 10
-12.6944275427351
 20
23.97845849205908
 30
0.0
 41
1.0
 10
-12.40966541676585
 20
24.10370905234733
 30
0.0
 41
1.0
 10
-12.1308709709144
 20
24.24168836090671
 30
0.0
 41
1.0
 10
-12.06239621232755
 20
24.27557748597421
 30
0.0
 41
0.9976599831857967
 10
-11.98993842689858
 20
24.29980834836287
 30
0.0
 41
1.0
 10
-11.8813695134606
 20
24.84034942563535
 30
0.0
 41
1.0
 10
-11.86573960237251
 20
25.94259922805978
 30
0.0
 41
1.0
 10
-11.90303417790234
 20
27.04193453912134
 30
0.0
 41
1.0
 10
-11.97518628814805
 20
28.13987176640657
 30
0.0
 41
1.0
 10
-12.07532165675396
 20
29.23549906887126
 30
0.0
 41
1.0
 10
-12.12830830815404
 20
29.78302679794936
 30
0.0
 41
1.0
 10
-12.18129495955413
 20
30.33055452702747
 30
0.0
 41
1.0
 10
-12.2816275567796
 20
31.42614274152458
 30
0.0
 41
1.0
 10
-12.33102355633361
 20
31.97400791256338
 30
0.0
 41
1.0
 10
-12.38041955588762
 20
32.52187308360217
 30
0.0
 41
1.0
 10
-12.43476120644806
 20
33.06927558975701
 30
0.0
 41
1.0
 10
-12.48910285700849
 20
33.61667809591184
 30
0.0
 41
1.0
 10
-12.58749198908723
 20
34.71239413494693
 30
0.0
 41
1.0
 10
-12.67751661472053
 20
35.80920429288803
 30
0.0
 41
1.0
 10
-12.75289856575604
 20
36.9049501111852
 30
0.0
 41
1.0
 10
-12.53119302538071
 20
38.02462241956842
 30
0.0
 41
1.0
 10
-11.56772034038378
 20
38.62721062395702
 30
0.0
 41
1.0
 10
-11.00772792629953
 20
38.60235944674506
 30
0.0
 41
1.0
 10
-10.44773551221527
 20
38.57750826953308
 30
0.0
 41
1.0
 10
-9.351480321468024
 20
38.54980497286103
 30
0.0
 41
1.0
 10
-8.250978595607055
 20
38.52478987052257
 30
0.0
 41
1.0
 10
-7.151049988416246
 20
38.50702228537063
 30
0.0
 41
1.0
 10
-6.600959722627564
 20
38.50397244194772
 30
0.0
 41
1.0
 10
-6.050869456838881
 20
38.50092259852481
 30
0.0
 41
1.0
 10
-5.500806602903118
 20
38.4960970486578
 30
0.0
 41
1.0
 10
-4.950743748967357
 20
38.49127149879079
 30
0.0
 41
1.0
 10
-3.850594955863753
 20
38.48398969584228
 30
0.0
 41
1.0
 10
-2.750428729805143
 20
38.48030482156035
 30
0.0
 41
1.0
 10
-1.650256966627008
 20
38.47973775020619
 30
0.0
 41
1.0
 10
-1.100171379620509
 20
38.4803189652858
 30
0.0
 41
1.0
 10
-0.5500857926140104
 20
38.48090018036542
 30
0.0
 41
1.0
 10
0.0
 20
38.48105507841598
 30
0.0
 41
1.0
 10
0.5500857926140104
 20
38.48090018036542
 30
0.0
 41
1.0
 10
1.100171379620509
 20
38.4803189652858
 30
0.0
 41
1.0
 10
1.650256966627008
 20
38.47973775020619
 30
0.0
 41
1.0
 10
2.750428729805143
 20
38.48030482156035
 30
0.0
 41
1.0
 10
3.850594955863753
 20
38.48398969584228
 30
0.0
 41
1.0
 10
4.950743748967357
 20
38.49127149879079
 30
0.0
 41
1.0
 10
5.500806602903118
 20
38.4960970486578
 30
0.0
 41
1.0
 10
6.050869456838881
 20
38.50092259852481
 30
0.0
 41
1.0
 10
6.600959722627564
 20
38.50397244194772
 30
0.0
 41
1.0
 10
7.151049988416246
 20
38.50702228537063
 30
0.0
 41
1.0
 10
8.250978595607055
 20
38.52478987052257
 30
0.0
 41
1.0
 10
9.351480321468024
 20
38.54980497286103
 30
0.0
 41
1.0
 10
10.44773551221527
 20
38.57750826953308
 30
0.0
 41
1.0
 10
11.00772792629953
 20
38.60235944674506
 30
0.0
 41
1.0
 10
11.56772034038378
 20
38.62721062395702
 30
0.0
 41
1.0
 10
12.53119302538071
 20
38.02462241956842
 30
0.0
 41
1.0
 10
12.75289856575604
 20
36.9049501111852
 30
0.0
 41
1.0
 10
12.67751661472053
 20
35.80920429288803
 30
0.0
 41
1.0
 10
12.58749198908723
 20
34.71239413494693
 30
0.0
 41
1.0
 10
12.48910285700849
 20
33.61667809591184
 30
0.0
 41
1.0
 10
12.43476120644806
 20
33.06927558975701
 30
0.0
 41
1.0
 10
12.38041955588762
 20
32.52187308360217
 30
0.0
 41
1.0
 10
12.33102355633361
 20
31.97400791256338
 30
0.0
 41
1.0
 10
12.2816275567796
 20
31.42614274152458
 30
0.0
 41
1.0
 10
12.18129495955413
 20
30.33055452702747
 30
0.0
 41
1.0
 10
12.12830830815404
 20
29.78302679794936
 30
0.0
 41
1.0
 10
12.07532165675396
 20
29.23549906887126
 30
0.0
 41
1.0
 10
11.97518628814805
 20
28.13987176640657
 30
0.0
 41
1.0
 10
11.90303417790234
 20
27.04193453912134
 30
0.0
 41
1.0
 10
11.86573960237251
 20
25.94259922805978
 30
0.0
 41
1.0
 10
11.8813695134606
 20
24.84034942563535
 30
0.0
 41
1.0
 10
11.98993842689858
 20
24.29980834836287
 30
0.0
 41
1.0
 10
12.06239621232755
 20
24.27557748597421
 30
0.0
 41
0.9976599831857967
 10
12.1308709709144
 20
24.24168836090671
 30
0.0
 41
1.0
 10
12.40966541676585
 20
24.10370905234733
 30
0.0
 41
1.0
 10
12.6944275427351
 20
23.97845849205908
 30
0.0
 41
1.0
 10
12.97918966870435
 20
23.85320793177084
 30
0.0
 41
1.0
 10
13.2589165535066
 20
23.71684497669903
 30
0.0
 41
1.0
 10
13.53864343830885
 20
23.58048202162722
 30
0.0
 41
1.0
 10
13.82155769218667
 20
23.45281188824468
 30
0.0
 41
1.0
 10
14.1044719460645
 20
23.32514175486214
 30
0.0
 41
1.0
 10
14.66155592554511
 20
23.02929935741808
 30
0.0
 41
1.0
 10
14.98422118984442
 20
22.48171891209996
 30
0.0
 41
1.0
 10
15.06485882901399
 20
21.85934315121013
 30
0.0
 41
1.0
 10
14.98767641395821
 20
21.240361862786
 30
0.0
 41
1.0
 10
14.84445430528822
 20
20.63476283541404
 30
0.0
 41
1.0
 10
14.67186736543494
 20
20.03698761275578
 30
0.0
 41
1.0
 10
14.48057805615998
 20
19.44498057676787
 30
0.0
 41
1.0
 10
14.269190577899
 20
18.85984322797572
 30
0.0
 41
1.0
 10
14.04357182776447
 20
18.2800728954847
 30
0.0
 41
1.0
 10
13.80555093239887
 20
17.70527478542483
 30
0.0
 41
1.0
 10
13.55211832562493
 20
17.13709280155971
 30
0.0
 41
1.0
 10
13.28196747337405
 20
16.57665525864948
 30
0.0
 41
1.0
 10
12.99368482447669
 20
16.02532037074958
 30
0.0
 41
1.0
 10
12.68764084314486
 20
15.48364565868447
 30
0.0
 41
1.0
 10
12.36426825867774
 20
14.95212894963721
 30
0.0
 41
1.0
 10
12.02278985435526
 20
14.43204741202888
 30
0.0
 41
1.0
 10
11.66246595117869
 20
13.92484177164674
 30
0.0
 41
1.0
 10
11.28348501796713
 20
13.43143797595193
 30
0.0
 41
1.0
 10
10.89068751186228
 20
12.94898800211094
 30
0.0
 41
1.0
 10
10.68885436051848
 20
12.71229545168646
 30
0.0
 41
1.0
  0
SPLINE
  5
7B
330
1F
100
AcDbEntity
  8
1
370
    -3
100
AcDbSpline
210
0.0
220
0.0
230
1.0
 70
     8
 71
     2
 72
     7
 73
     4
 74
     0
 42
0.000000001
 43
0.0000000001
 40
98.3051309067719
 40
98.3051309067719
 40
98.3051309067719
 40
99.3051309067719
 40
100.3051309067719
 40
100.3051309067719
 40
100.3051309067719
 10
9.302952645317594
 20
11.18068822125427
 30
0.0
 10
8.955771846775411
 20
10.82095446406801
 30
0.0
 10
8.172109428106603
 20
10.19566057902114
 30
0.0
 10
7.707610693610423
 20
10.00214195960744
 30
0.0
  0
SPLINE
  5
7C
330
1F
100
AcDbEntity
  8
1
370
    -3
100
AcDbSpline
210
0.0
220
0.0
230
1.0
 70
     8
 71
     2
 72
     7
 73
     4
 74
     0
 42
0.000000001
 43
0.0000000001
 40
0.0
 40
0.0
 40
0.0
 40
1.0
 40
2.0
 40
2.0
 40
2.0
 10
-7.707610693610423
 20
10.00214195960744
 30
0.0
 10
-8.172109428106603
 20
10.19566057902114
 30
0.0
 10
-8.955771846775411
 20
10.82095446406801
 30
0.0
 10
-9.302952645317594
 20
11.18068822125427
 30
0.0
  0
SPLINE
  5
7D
330
1F
100
AcDbEntity
  8
1
370
    -3
100
AcDbSpline
210
0.0
220
0.0
230
1.0
 70
     8
 71
     2
 72
    54
 73
    51
 74
     0
 42
0.000000001
 43
0.0000000001
 40
0.0
 40
0.0
 40
0.0
 40
1.0
 40
2.0
 40
3.0
 40
4.0
 40
5.0
 40
6.0
 40
7.0
 40
8.0
 40
9.0
 40
10.0
 40
11.0
 40
12.0
 40
13.0
 40
14.0
 40
15.0
 40
16.0
 40
17.0
 40
18.0
 40
19.0
 40
20.0
 40
21.0
 40
22.0
 40
23.0
 40
24.0
 40
24.0
 40
25.0
 40
26.0
 40
27.0
 40
28.0
 40
29.0
 40
30.0
 40
31.0
 40
32.0
 40
33.0
 40
34.0
 40
35.0
 40
36.0
 40
37.0
 40
38.0
 40
39.0
 40
40.0
 40
41.0
 40
42.0
 40
43.0
 40
44.0
 40
45.0
 40
46.0
 40
47.0
 40
48.0
 40
48.0
 40
48.0
 10
-7.882954703269692
 20
17.41439647554633
 30
0.0
 10
-7.900250189277782
 20
17.75797396330636
 30
0.0
 10
-7.933585070092425
 20
18.44519211875085
 30
0.0
 10
-7.964431422663441
 20
19.13252682794305
 30
0.0
 10
-7.991471146752577
 20
19.82002311962846
 30
0.0
 10
-8.013527657046131
 20
20.50769852633519
 30
0.0
 10
-8.029605567944724
 20
21.19554036780044
 30
0.0
 10
-8.040117908297796
 20
21.88348885181982
 30
0.0
 10
-8.04545410518924
 20
22.57149714690631
 30
0.0
 10
-8.045976400812167
 20
23.25952193068559
 30
0.0
 10
-8.04275980966214
 20
23.94755744459972
 30
0.0
 10
-8.02572814153239
 20
24.63536598361031
 30
0.0
 10
-7.96662902765313
 20
25.32192949384014
 30
0.0
 10
-7.731272592558018
 20
25.9801895910284
 30
0.0
 10
-7.202060684690038
 20
26.43694738550026
 30
0.0
 10
-6.529707350387746
 20
26.61639052498361
 30
0.0
 10
-5.846269039788845
 20
26.69287656358243
 30
0.0
 10
-5.159472141286432
 20
26.73673464677099
 30
0.0
 10
-4.471926390351002
 20
26.76257360475277
 30
0.0
 10
-3.784033431874838
 20
26.77676706973837
 30
0.0
 10
-3.096078422056931
 20
26.78660169867177
 30
0.0
 10
-2.408076131377352
 20
26.79243661493728
 30
0.0
 10
-1.720061126472052
 20
26.79628888247123
 30
0.0
 10
-1.032038447231705
 20
26.7982738646767
 30
0.0
 10
-0.3440126455116035
 20
26.79861976659901
 30
0.0
 10
0.0
 20
26.79854496851298
 30
0.0
 10
0.3440126455116035
 20
26.79861976659901
 30
0.0
 10
1.032038447231705
 20
26.7982738646767
 30
0.0
 10
1.720061126472052
 20
26.79628888247123
 30
0.0
 10
2.408076131377352
 20
26.79243661493728
 30
0.0
 10
3.096078422056931
 20
26.78660169867177
 30
0.0
 10
3.784033431874838
 20
26.77676706973837
 30
0.0
 10
4.471926390351002
 20
26.76257360475277
 30
0.0
 10
5.159472141286432
 20
26.73673464677099
 30
0.0
 10
5.846269039788845
 20
26.69287656358243
 30
0.0
 10
6.529707350387746
 20
26.61639052498361
 30
0.0
 10
7.202060684690038
 20
26.43694738550026
 30
0.0
 10
7.731272592558018
 20
25.9801895910284
 30
0.0
 10
7.96662902765313
 20
25.32192949384014
 30
0.0
 10
8.02572814153239
 20
24.63536598361031
 30
0.0
 10
8.04275980966214
 20
23.94755744459972
 30
0.0
 10
8.045976400812167
 20
23.25952193068559
 30
0.0
 10
8.04545410518924
 20
22.57149714690631
 30
0.0
 10
8.040117908297796
 20
21.88348885181982
 30
0.0
 10
8.029605567944724
 20
21.19554036780044
 30
0.0
 10
8.013527657046131
 20
20.50769852633519
 30
0.0
 10
7.991471146752577
 20
19.82002311962846
 30
0.0
 10
7.964431422663441
 20
19.13252682794305
 30
0.0
 10
7.933585070092425
 20
18.44519211875085
 30
0.0
 10
7.900250189277782
 20
17.75797396330636
 30
0.0
 10
7.882954703269692
 20
17.41439647554633
 30
0.0
  0
SPLINE
  5
7E
330
1F
100
AcDbEntity
  8
1
370
    -3
100
AcDbSpline
210
0.0
220
0.0
230
1.0
 70
     8
 71
     2
 72
   104
 73
   101
 74
     0
 42
0.000000001
 43
0.0000000001
 40
1.615790967970851
 40
1.615790967970851
 40
1.615790967970851
 40
2.0
 40
3.0
 40
4.0
 40
5.0
 40
6.0
 40
7.0
 40
8.0
 40
9.0
 40
10.0
 40
10.0
 40
11.0
 40
11.0
 40
12.0
 40
13.0
 40
14.0
 40
15.0
 40
16.0
 40
17.0
 40
18.0
 40
19.0
 40
20.0
 40
20.0
 40
21.0
 40
22.0
 40
22.99818546672895
 40
22.99818546672895
 40
23.97683455182984
 40
24.97683458635169
 40
25.97683462087355
 40
26.9768346553954
 40
27.97683468991726
 40
28.97683472443912
 40
29.97683475896097
 40
30.97683479348283
 40
31.97683482800469
 40
32.97683486252654
 40
33.9768348970484
 40
34.97683493157026
 40
35.97683496609211
 40
36.97683500061397
 40
37.97683503513583
 40
38.97683506965768
 40
39.97683510417954
 40
40.9768351387014
 40
41.97683517322325
 40
42.97683520774511
 40
43.97683524226697
 40
44.97683527678882
 40
45.97683451804505
 40
45.97683451804505
 40
46.97683375930129
 40
47.97683379382314
 40
48.97683382834499
 40
49.97683386286685
 40
50.97683389738871
 40
51.97683393191056
 40
52.97683396643242
 40
53.97683400095428
 40
54.97683403547613
 40
55.97683406999799
 40
56.97683410451985
 40
57.97683413904171
 40
58.97683417356356
 40
59.97683420808541
 40
60.97683424260727
 40
61.97683427712913
 40
62.97683431165099
 40
63.97683434617284
 40
64.9768343806947
 40
65.97683441521656
 40
66.9768344497384
 40
67.97683448426027
 40
68.95548356936115
 40
68.95548356936115
 40
69.9536690360901
 40
70.9536690360901
 40
71.9536690360901
 40
71.9536690360901
 40
72.9536690360901
 40
73.9536690360901
 40
74.9536690360901
 40
75.9536690360901
 40
76.9536690360901
 40
77.9536690360901
 40
78.9536690360901
 40
79.9536690360901
 40
80.9536690360901
 40
80.9536690360901
 40
81.9536690360901
 40
81.9536690360901
 40
82.9536690360901
 40
83.9536690360901
 40
84.9536690360901
 40
85.9536690360901
 40
86.9536690360901
 40
87.9536690360901
 40
88.9536690360901
 40
89.9536690360901
 40
90.33787806811928
 40
90.33787806811928
 40
90.33787806811928
 10
-9.349314062776205
 20
51.3368695041359
 30
0.0
 10
-9.570557696248258
 20
51.41169496439126
 30
0.0
 10
-10.3607697028649
 20
51.70192879083974
 30
0.0
 10
-11.47509489288553
 20
52.19171181542025
 30
0.0
 10
-12.50318363004996
 20
52.84381269940394
 30
0.0
 10
-13.4630535177609
 20
53.59392983952661
 30
0.0
 10
-14.26845848631636
 20
54.50516596341271
 30
0.0
 10
-15.00512576299706
 20
55.4911915515813
 30
0.0
 10
-15.0630391547127
 20
56.73066961955418
 30
0.0
 10
-14.88066400776089
 20
57.93176677757236
 30
0.0
 10
-14.7680036476804
 20
58.52931825753139
 30
0.0
 10
-14.65534328759991
 20
59.12686973749041
 30
0.0
 10
-14.54441551488793
 20
59.72458788353428
 30
0.0
 10
-14.43348774217595
 20
60.32230602957817
 30
0.0
 10
-14.20506247549151
 20
61.51656249070152
 30
0.0
 10
-13.97605677221619
 20
62.71069497808128
 30
0.0
 10
-13.74476403190923
 20
63.90438978190276
 30
0.0
 10
-13.50961691064832
 20
65.09733151980316
 30
0.0
 10
-13.26937889830197
 20
66.28925913527178
 30
0.0
 10
-13.02379795087731
 20
67.48009709819561
 30
0.0
 10
-12.77229959804136
 20
68.6697031410581
 30
0.0
 10
-12.51769996957165
 20
69.85861976977039
 30
0.0
 10
-12.38224213385937
 20
70.45140398204379
 30
0.0
 10
-12.2467842981471
 20
71.04418819431719
 30
0.0
 10
-12.018771579825
 20
72.23782220706792
 30
0.0
 10
-11.86167392471079
 20
73.44439552532536
 30
0.0
 10
-11.87779277468308
 20
74.05206720428677
 30
0.0
 10
-12.22599540294628
 20
74.19930671238
 30
0.0
 10
-12.71847307327235
 20
74.78737018761005
 30
0.0
 10
-12.72226720174016
 20
75.56852698949949
 30
0.0
 10
-12.48246235414448
 20
76.28969337958664
 30
0.0
 10
-12.16026539413459
 20
76.97681464664268
 30
0.0
 10
-11.75252320413801
 20
77.61701931010067
 30
0.0
 10
-11.29670696605569
 20
78.22321793731173
 30
0.0
 10
-10.80234235565422
 20
78.79843456390446
 30
0.0
 10
-10.27217941268403
 20
79.34083033704013
 30
0.0
 10
-9.706990003969937
 20
79.846693193421
 30
0.0
 10
-9.10547617941026
 20
80.30896557392904
 30
0.0
 10
-8.465428618239192
 20
80.71634584353754
 30
0.0
 10
-7.792044775594277
 20
81.06577779320314
 30
0.0
 10
-7.093331964923646
 20
81.36108764035377
 30
0.0
 10
-6.3750836968657
 20
81.60484671317994
 30
0.0
 10
-5.6434053835391
 20
81.80432592824361
 30
0.0
 10
-4.903089594307764
 20
81.96858654031152
 30
0.0
 10
-4.156712045223609
 20
82.10250955421147
 30
0.0
 10
-3.405661612138751
 20
82.20700695295545
 30
0.0
 10
-2.651380836296088
 20
82.28473696640813
 30
0.0
 10
-1.894878768931979
 20
82.336395111997
 30
0.0
 10
-1.137218878394636
 20
82.36602544043991
 30
0.0
 10
-0.3791107164462389
 20
82.37898006797188
 30
0.0
 10
0.0
 20
82.37806680330016
 30
0.0
 10
0.3791107164462389
 20
82.37898006797188
 30
0.0
 10
1.137218878394636
 20
82.36602544043991
 30
0.0
 10
1.894878768931979
 20
82.336395111997
 30
0.0
 10
2.651380836296088
 20
82.28473696640813
 30
0.0
 10
3.405661612138751
 20
82.20700695295545
 30
0.0
 10
4.156712045223609
 20
82.10250955421147
 30
0.0
 10
4.903089594307764
 20
81.96858654031152
 30
0.0
 10
5.6434053835391
 20
81.80432592824361
 30
0.0
 10
6.3750836968657
 20
81.60484671317994
 30
0.0
 10
7.093331964923646
 20
81.36108764035377
 30
0.0
 10
7.792044775594277
 20
81.06577779320314
 30
0.0
 10
8.465428618239192
 20
80.71634584353754
 30
0.0
 10
9.10547617941026
 20
80.30896557392904
 30
0.0
 10
9.706990003969937
 20
79.846693193421
 30
0.0
 10
10.27217941268403
 20
79.34083033704013
 30
0.0
 10
10.80234235565422
 20
78.79843456390446
 30
0.0
 10
11.29670696605569
 20
78.22321793731173
 30
0.0
 10
11.75252320413801
 20
77.61701931010067
 30
0.0
 10
12.16026539413459
 20
76.97681464664268
 30
0.0
 10
12.48246235414448
 20
76.28969337958664
 30
0.0
 10
12.72226720174016
 20
75.56852698949949
 30
0.0
 10
12.71847307327235
 20
74.78737018761005
 30
0.0
 10
12.22599540294628
 20
74.19930671238
 30
0.0
 10
11.87779277468308
 20
74.05206720428677
 30
0.0
 10
11.86167392471079
 20
73.44439552532536
 30
0.0
 10
12.018771579825
 20
72.23782220706792
 30
0.0
 10
12.2467842981471
 20
71.04418819431719
 30
0.0
 10
12.38224213385937
 20
70.45140398204379
 30
0.0
 10
12.51769996957165
 20
69.85861976977039
 30
0.0
 10
12.77229959804136
 20
68.6697031410581
 30
0.0
 10
13.02379795087731
 20
67.48009709819561
 30
0.0
 10
13.26937889830197
 20
66.28925913527178
 30
0.0
 10
13.50961691064832
 20
65.09733151980316
 30
0.0
 10
13.74476403190923
 20
63.90438978190276
 30
0.0
 10
13.97605677221619
 20
62.71069497808128
 30
0.0
 10
14.20506247549151
 20
61.51656249070152
 30
0.0
 10
14.43348774217595
 20
60.32230602957817
 30
0.0
 10
14.54441551488793
 20
59.72458788353428
 30
0.0
 10
14.65534328759991
 20
59.12686973749041
 30
0.0
 10
14.7680036476804
 20
58.52931825753139
 30
0.0
 10
14.88066400776089
 20
57.93176677757236
 30
0.0
 10
15.0630391547127
 20
56.73066961955418
 30
0.0
 10
15.00512576299706
 20
55.4911915515813
 30
0.0
 10
14.26845848631636
 20
54.50516596341271
 30
0.0
 10
13.4630535177609
 20
53.59392983952661
 30
0.0
 10
12.50318363004996
 20
52.84381269940394
 30
0.0
 10
11.47509489288553
 20
52.19171181542025
 30
0.0
 10
10.3607697028649
 20
51.70192879083974
 30
0.0
 10
9.570557696248242
 20
51.41169496439126
 30
0.0
 10
9.349314062776173
 20
51.3368695041359
 30
0.0
  0
SPLINE
  5
7F
330
1F
100
AcDbEntity
  8
1
370
    -3
100
AcDbSpline
210
0.0
220
0.0
230
1.0
 70
     8
 71
     2
 72
    50
 73
    47
 74
     0
 42
0.000000001
 43
0.0000000001
 40
-18.0
 40
-18.0
 40
-18.0
 40
-16.99999995669899
 40
-15.99999991339797
 40
-14.99999987009696
 40
-13.99999982679595
 40
-12.99999978349494
 40
-12.99999978349494
 40
-11.99999974019392
 40
-11.99999974019392
 40
-10.99999969689291
 40
-9.9999996535919
 40
-8.999999610290887
 40
-7.999999566989874
 40
-7.999999566989874
 40
-6.999999523688862
 40
-6.999999523688862
 40
-5.999999480387849
 40
-4.999999437086837
 40
-3.999999393785824
 40
-2.999999350484811
 40
-1.999999307183799
 40
-0.9999992638827863
 40
0.0
 40
0.0
 40
0.9999992638827863
 40
1.999999307183799
 40
2.999999350484811
 40
3.999999393785824
 40
4.999999437086837
 40
5.999999480387849
 40
6.999999523688862
 40
6.999999523688862
 40
7.999999566989874
 40
7.999999566989874
 40
8.999999610290887
 40
9.9999996535919
 40
10.99999969689291
 40
11.99999974019392
 40
11.99999974019392
 40
12.99999978349494
 40
12.99999978349494
 40
13.99999982679595
 40
14.99999987009696
 40
15.99999991339797
 40
16.99999995669899
 40
18.0
 40
18.0
 40
18.0
 10
7.876421500541611
 20
74.99674722922832
 30
0.0
 10
8.002029919933257
 20
74.64846517869223
 30
0.0
 10
8.049641204582302
 20
73.91170059217572
 30
0.0
 10
8.045322303494888
 20
73.1764099950684
 30
0.0
 10
8.021179469577035
 20
72.44125141240613
 30
0.0
 10
7.970210211580421
 20
71.7073229340163
 30
0.0
 10
7.933204560860218
 20
71.34179892142453
 30
0.0
 10
7.896198910140015
 20
70.97627490883275
 30
0.0
 10
7.865866210913113
 20
70.60763651855845
 30
0.0
 10
7.835533511686211
 20
70.23899812828414
 30
0.0
 10
7.535739734915293
 20
69.55903771486724
 30
0.0
 10
6.978490367699972
 20
69.05582781855668
 30
0.0
 10
6.248491440626079
 20
68.90588027197303
 30
0.0
 10
5.881133149190259
 20
68.89212604322009
 30
0.0
 10
5.51377485775444
 20
68.87837181446716
 30
0.0
 10
5.146652150573308
 20
68.85626971824672
 30
0.0
 10
4.779529443392177
 20
68.83416762202627
 30
0.0
 10
4.044537147939523
 20
68.80692270507286
 30
0.0
 10
3.309359578454997
 20
68.7854588061469
 30
0.0
 10
2.574052487756592
 20
68.76903448263822
 30
0.0
 10
1.838664507000003
 20
68.7567820439747
 30
0.0
 10
1.103222290519835
 20
68.74841214814947
 30
0.0
 10
0.3677446631523719
 20
68.74414123815839
 30
0.0
 10
0.0
 20
68.74415052351412
 30
0.0
 10
-0.3677446631523719
 20
68.74414123815839
 30
0.0
 10
-1.103222290519835
 20
68.74841214814947
 30
0.0
 10
-1.838664507000003
 20
68.7567820439747
 30
0.0
 10
-2.574052487756592
 20
68.76903448263822
 30
0.0
 10
-3.309359578454997
 20
68.7854588061469
 30
0.0
 10
-4.044537147939523
 20
68.80692270507286
 30
0.0
 10
-4.779529443392177
 20
68.83416762202627
 30
0.0
 10
-5.146652150573308
 20
68.85626971824672
 30
0.0
 10
-5.51377485775444
 20
68.87837181446716
 30
0.0
 10
-5.881133149190259
 20
68.89212604322009
 30
0.0
 10
-6.248491440626079
 20
68.90588027197303
 30
0.0
 10
-6.978490367699972
 20
69.05582781855668
 30
0.0
 10
-7.535739734915293
 20
69.55903771486724
 30
0.0
 10
-7.835533511686211
 20
70.23899812828414
 30
0.0
 10
-7.865866210913113
 20
70.60763651855845
 30
0.0
 10
-7.896198910140015
 20
70.97627490883275
 30
0.0
 10
-7.933204560860218
 20
71.34179892142453
 30
0.0
 10
-7.970210211580421
 20
71.7073229340163
 30
0.0
 10
-8.021179469577035
 20
72.44125141240613
 30
0.0
 10
-8.045322303494888
 20
73.1764099950684
 30
0.0
 10
-8.049641204582302
 20
73.91170059217572
 30
0.0
 10
-8.002029919933257
 20
74.64846517869223
 30
0.0
 10
-7.876421500541611
 20
74.99674722922832
 30
0.0
  0
SPLINE
  5
80
330
1F
100
AcDbEntity
  8
1
370
    -3
100
AcDbSpline
210
0.0
220
0.0
230
1.0
 70
    24
 71
     2
 72
     6
 73
     3
 74
     0
 42
0.000000001
 43
0.0000000001
 40
-6.306200922053874
 40
-6.306200922053874
 40
-6.306200922053874
 40
0.0
 40
0.0
 40
0.0
 10
-5.457001636331311
 20
9.345538914077322
 30
0.0
 10
-7.483775544776655
 20
9.502835179471822
 30
0.0
 10
-9.510549453222
 20
9.660131444866321
 30
0.0
  0
SPLINE
  5
81
330
1F
100
AcDbEntity
  8
1
370
    -3
100
AcDbSpline
210
0.0
220
0.0
230
1.0
 70
    11
 71
     2
 72
    54
 73
    51
 74
     0
 42
0.000000001
 43
0.0000000001
 40
0.0
 40
0.0
 40
0.0
 40
1.0
 40
2.0
 40
3.0
 40
4.0
 40
5.0
 40
6.0
 40
7.0
 40
8.0
 40
9.0
 40
10.0
 40
11.0
 40
12.0
 40
13.0
 40
14.0
 40
15.0
 40
16.0
 40
17.0
 40
18.0
 40
19.0
 40
20.0
 40
21.0
 40
22.0
 40
23.0
 40
24.0
 40
24.0
 40
25.0
 40
26.0
 40
27.0
 40
28.0
 40
29.0
 40
30.0
 40
31.0
 40
32.0
 40
33.0
 40
34.0
 40
35.0
 40
36.0
 40
37.0
 40
38.0
 40
39.0
 40
40.0
 40
41.0
 40
42.0
 40
43.0
 40
44.0
 40
45.0
 40
46.0
 40
47.0
 40
48.0
 40
48.0
 40
48.0
 10
0.0
 20
13.10059993194123
 30
0.0
 10
-0.4703596651624841
 20
13.10077104109416
 30
0.0
 10
-1.410911101447811
 20
13.11806616095978
 30
0.0
 10
-2.351176306462336
 20
13.14659997553613
 30
0.0
 10
-3.291271758830147
 20
13.18015879974052
 30
0.0
 10
-4.231200375006876
 20
13.21802962981817
 30
0.0
 10
-5.170986664803661
 20
13.25953190562832
 30
0.0
 10
-6.110067384243061
 20
13.31518875462802
 30
0.0
 10
-7.044281491597165
 20
13.43654226676466
 30
0.0
 10
-7.947759185050165
 20
13.70391330912793
 30
0.0
 10
-8.813801541724844
 20
14.07560798619056
 30
0.0
 10
-9.596203863629611
 20
14.60352632058469
 30
0.0
 10
-10.2226339594022
 20
15.31847203557297
 30
0.0
 10
-10.43736087146933
 20
16.27810127363061
 30
0.0
 10
-9.848883819360635
 20
17.06698360223852
 30
0.0
 10
-8.928675686073165
 20
17.33694933718476
 30
0.0
 10
-7.990798494970254
 20
17.40607968020147
 30
0.0
 10
-7.052582611643628
 20
17.47501416311041
 30
0.0
 10
-6.113247474191429
 20
17.52591963976968
 30
0.0
 10
-5.173278037562229
 20
17.56314118429327
 30
0.0
 10
-4.232912272453884
 20
17.58828946061967
 30
0.0
 10
-3.292355221531052
 20
17.60451593210841
 30
0.0
 10
-2.351716425869271
 20
17.61474840681133
 30
0.0
 10
-1.411037228616193
 20
17.61998504265818
 30
0.0
 10
-0.4703463864783932
 20
17.6217027610693
 30
0.0
 10
0.0
 20
17.6215964669621
 30
0.0
 10
0.4703463864783932
 20
17.6217027610693
 30
0.0
 10
1.411037228616193
 20
17.61998504265818
 30
0.0
 10
2.351716425869271
 20
17.61474840681133
 30
0.0
 10
3.292355221531052
 20
17.60451593210841
 30
0.0
 10
4.232912272453884
 20
17.58828946061967
 30
0.0
 10
5.173278037562229
 20
17.56314118429327
 30
0.0
 10
6.113247474191429
 20
17.52591963976968
 30
0.0
 10
7.052582611643628
 20
17.47501416311041
 30
0.0
 10
7.990798494970254
 20
17.40607968020147
 30
0.0
 10
8.928675686073165
 20
17.33694933718476
 30
0.0
 10
9.848883819360635
 20
17.06698360223852
 30
0.0
 10
10.43736087146933
 20
16.27810127363061
 30
0.0
 10
10.2226339594022
 20
15.31847203557297
 30
0.0
 10
9.596203863629611
 20
14.60352632058469
 30
0.0
 10
8.813801541724844
 20
14.07560798619056
 30
0.0
 10
7.947759185050165
 20
13.70391330912793
 30
0.0
 10
7.044281491597165
 20
13.43654226676466
 30
0.0
 10
6.110067384243061
 20
13.31518875462802
 30
0.0
 10
5.170986664803661
 20
13.25953190562832
 30
0.0
 10
4.231200375006876
 20
13.21802962981817
 30
0.0
 10
3.291271758830147
 20
13.18015879974052
 30
0.0
 10
2.351176306462336
 20
13.14659997553613
 30
0.0
 10
1.410911101447811
 20
13.11806616095978
 30
0.0
 10
0.4703596651624841
 20
13.10077104109416
 30
0.0
 10
0.0
 20
13.10059993194123
 30
0.0
  0
SPLINE
  5
82
330
1F
100
AcDbEntity
  8
1
370
    -3
100
AcDbSpline
210
0.0
220
0.0
230
1.0
 70
     8
 71
     2
 72
    32
 73
    29
 74
     0
 42
0.000000001
 43
0.0000000001
 40
0.0
 40
0.0
 40
0.0
 40
1.0
 40
2.0
 40
3.0
 40
4.0
 40
5.0
 40
6.0
 40
7.0
 40
8.0
 40
9.0
 40
10.0
 40
11.0
 40
12.0
 40
13.0
 40
13.0
 40
14.0
 40
15.0
 40
16.0
 40
17.0
 40
18.0
 40
19.0
 40
20.0
 40
21.0
 40
22.0
 40
23.0
 40
24.0
 40
25.0
 40
26.0
 40
26.0
 40
26.0
 10
-14.71029238154
 20
20.26555201222351
 30
0.0
 10
-14.48167759858446
 20
19.5683378218307
 30
0.0
 10
-13.9417153054799
 20
18.20389757872508
 30
0.0
 10
-13.33385696521048
 20
16.86803431462684
 30
0.0
 10
-12.61559062477289
 20
15.58801724783888
 30
0.0
 10
-11.76585315793065
 20
14.38706004173005
 30
0.0
 10
-10.66408503029331
 20
13.41095410676781
 30
0.0
 10
-9.406052123559887
 20
12.64814044858714
 30
0.0
 10
-8.039398263329932
 20
12.1044607622936
 30
0.0
 10
-6.598109559831465
 20
11.81730513431191
 30
0.0
 10
-5.132114059551141
 20
11.73121440506362
 30
0.0
 10
-3.666729703229462
 20
11.66682021229589
 30
0.0
 10
-2.20029825826002
 20
11.62246992928029
 30
0.0
 10
-0.7335463700597645
 20
11.59259243144112
 30
0.0
 10
0.0
 20
11.59214008295904
 30
0.0
 10
0.7335463700597645
 20
11.59259243144112
 30
0.0
 10
2.20029825826002
 20
11.62246992928029
 30
0.0
 10
3.666729703229462
 20
11.66682021229589
 30
0.0
 10
5.132114059551141
 20
11.73121440506362
 30
0.0
 10
6.598109559831465
 20
11.81730513431191
 30
0.0
 10
8.039398263329932
 20
12.1044607622936
 30
0.0
 10
9.406052123559887
 20
12.64814044858714
 30
0.0
 10
10.66408503029331
 20
13.41095410676781
 30
0.0
 10
11.76585315793065
 20
14.38706004173005
 30
0.0
 10
12.61559062477289
 20
15.58801724783888
 30
0.0
 10
13.33385696521048
 20
16.86803431462684
 30
0.0
 10
13.9417153054799
 20
18.20389757872508
 30
0.0
 10
14.48167759858446
 20
19.5683378218307
 30
0.0
 10
14.71029238154
 20
20.26555201222351
 30
0.0
  0
SPLINE
  5
83
330
1F
100
AcDbEntity
  8
1
370
    -3
100
AcDbSpline
210
0.0
220
0.0
230
1.0
 70
    11
 71
     3
 72
    56
 73
    52
 74
     0
 42
0.000000001
 43
0.0000000001
 40
-14.87247204384196
 40
-14.87247204384196
 40
-14.87247204384196
 40
-14.87247204384196
 40
-13.87247204384196
 40
-13.87247204384196
 40
-12.87247204384196
 40
-12.87247204384196
 40
-11.87247204384196
 40
-11.87247204384196
 40
-10.87247204384196
 40
-10.87247204384196
 40
-9.872472043841956
 40
-9.872472043841956
 40
-8.872472043841956
 40
-8.872472043841956
 40
-8.872472043841956
 40
-7.872472043841956
 40
-7.872472043841956
 40
-7.872472043841956
 40
-7.000000000000001
 40
-7.000000000000001
 40
-7.000000000000001
 40
-6.000000000000001
 40
-6.000000000000001
 40
-6.000000000000001
 40
-5.0
 40
-5.0
 40
-4.0
 40
-4.0
 40
-3.0
 40
-3.0
 40
-2.0
 40
-2.0
 40
-0.9999999999999993
 40
-0.9999999999999993
 40
0.0000000000000009
 40
0.0000000000000009
 40
0.0000000000000009
 40
1.000000000000001
 40
1.000000000000001
 40
2.000000000000001
 40
2.000000000000001
 40
3.000000000000002
 40
3.000000000000002
 40
4.000000000000002
 40
4.000000000000002
 40
5.000000000000002
 40
5.000000000000002
 40
6.000000000000002
 40
6.000000000000002
 40
6.000000000000002
 40
7.000000000000002
 40
7.000000000000002
 40
7.000000000000002
 40
7.000000000000002
 10
-10.67125548699782
 20
12.80606786239675
 30
0.0
 10
-10.7658000042264
 20
12.13735862542365
 30
0.0
 10
-10.8579511560292
 20
11.45600082378993
 30
0.0
 10
-11.03746672878323
 20
10.06798809120123
 30
0.0
 10
-11.12611887075023
 20
9.375956353037523
 30
0.0
 10
-11.3012118658642
 20
7.9958421329714
 30
0.0
 10
-11.38737294035977
 20
7.30524719279136
 30
0.0
 10
-11.55692424322804
 20
5.92298165213733
 30
0.0
 10
-11.63897058698844
 20
5.23159132595375
 30
0.0
 10
-11.79760465916177
 20
3.848295561873458
 30
0.0
 10
-11.87055974720774
 20
3.155908166022304
 30
0.0
 10
-12.00374602721833
 20
1.76965434669798
 30
0.0
 10
-12.05171202133399
 20
1.075219761651099
 30
0.0
 10
-12.08105086956
 20
0.3794775012194975
 30
0.0
 10
-12.08462576297722
 20
0.2947023795876687
 30
0.0
 10
-12.04113682476688
 20
0.2499593334310744
 30
0.0
 10
-11.95613541447
 20
0.2499591533472376
 30
0.0
 10
-11.66531139985667
 20
0.2499585372079972
 30
0.0
 10
-11.37448738524333
 20
0.2499579210687569
 30
0.0
 10
-11.08366337063
 20
0.2499573049295165
 30
0.0
 10
-11.01845070590307
 20
0.249957166770081
 30
0.0
 10
-10.97534114528137
 20
0.2856972630801309
 30
0.0
 10
-10.96142782321
 20
0.3497211546487691
 30
0.0
 10
-10.87380813353081
 20
0.7529141147861118
 30
0.0
 10
-10.79227295532223
 20
1.157329338374395
 30
0.0
 10
-10.64137162184633
 20
1.968604312452841
 30
0.0
 10
-10.57039004504662
 20
2.375015130943769
 30
0.0
 10
-10.43736507132366
 20
3.189383430829034
 30
0.0
 10
-10.3731784930176
 20
3.59692979597328
 30
0.0
 10
-10.24945715351628
 20
4.412746956664996
 30
0.0
 10
-10.18865952885944
 20
4.820813276806471
 30
0.0
 10
-10.06919036973336
 20
5.637261396680653
 30
0.0
 10
-10.01013257087998
 20
6.045583197766169
 30
0.0
 10
-9.893370534592554
 20
6.862422282234047
 30
0.0
 10
-9.840232994978479
 20
7.28965822496001
 30
0.0
 10
-9.781946117990984
 20
7.698091326709419
 30
0.0
 10
-9.750097470105619
 20
7.9212640666923
 30
0.0
 10
-9.718631946169708
 20
8.147502871233606
 30
0.0
 10
-9.656467146196798
 20
8.606112609433067
 30
0.0
 10
-9.62546980776718
 20
8.83241834297919
 30
0.0
 10
-9.563645254021612
 20
9.279031538964231
 30
0.0
 10
-9.532144891588928
 20
9.502247986996416
 30
0.0
 10
-9.46796799560377
 20
9.948500583140108
 30
0.0
 10
-9.437109496385533
 20
10.17180476511058
 30
0.0
 10
-9.377852395497731
 20
10.61876889684877
 30
0.0
 10
-9.348131446450902
 20
10.84223629793785
 30
0.0
 10
-9.288504751151383
 20
11.28914177055598
 30
0.0
 10
-9.258810235528907
 20
11.51261078005593
 30
0.0
 10
-9.229234551933716
 20
11.73609606274677
 30
0.0
 10
-9.089950641439524
 20
12.78857905983094
 30
0.0
 10
-10.60170807618684
 20
13.29797365852476
 30
0.0
 10
-10.67125548699782
 20
12.80606786239675
 30
0.0
  0
SPLINE
  5
84
330
1F
100
AcDbEntity
  8
1
370
    -3
100
AcDbSpline
210
0.0
220
0.0
230
1.0
 70
     8
 71
     2
 72
    52
 73
    49
 74
     0
 42
0.000000001
 43
0.0000000001
 40
0.0
 40
0.0
 40
0.0
 40
1.0
 40
2.0
 40
3.0
 40
4.0
 40
5.0
 40
6.0
 40
7.0
 40
8.0
 40
9.0
 40
10.0
 40
11.0
 40
12.0
 40
13.0
 40
14.0
 40
15.0
 40
16.0
 40
17.0
 40
18.0
 40
19.0
 40
20.0
 40
21.0
 40
22.0
 40
23.0
 40
23.0
 40
24.0
 40
25.0
 40
26.0
 40
27.0
 40
28.0
 40
29.0
 40
30.0
 40
31.0
 40
32.0
 40
33.0
 40
34.0
 40
35.0
 40
36.0
 40
37.0
 40
38.0
 40
39.0
 40
40.0
 40
41.0
 40
42.0
 40
43.0
 40
44.0
 40
45.0
 40
46.0
 40
46.0
 40
46.0
 10
13.27579445696
 20
23.02871811639634
 30
0.0
 10
13.72459137655834
 20
22.83286118390506
 30
0.0
 10
13.76894339518138
 20
21.92329316756158
 30
0.0
 10
13.58204570211886
 20
21.08274998186611
 30
0.0
 10
13.28879264291692
 20
20.26696768804814
 30
0.0
 10
12.98638065315457
 20
19.45667866375008
 30
0.0
 10
12.65100051421714
 20
18.65898483440798
 30
0.0
 10
12.28590530649257
 20
17.87455760764688
 30
0.0
 10
11.890464034511
 20
17.10491415593743
 30
0.0
 10
11.45554055830921
 20
16.35665613629774
 30
0.0
 10
10.9562537344051
 20
15.64905486162691
 30
0.0
 10
10.37152174657787
 20
15.00962252986091
 30
0.0
 10
9.700208236200433
 20
14.46145319286998
 30
0.0
 10
8.957317374512861
 20
14.01512886512401
 30
0.0
 10
8.160117949626121
 20
13.67703799230297
 30
0.0
 10
7.336113297245864
 20
13.40918215950853
 30
0.0
 10
6.483217975702916
 20
13.2590835156713
 30
0.0
 10
5.620318609072712
 20
13.19147912472631
 30
0.0
 10
4.756081929045943
 20
13.15204715664172
 30
0.0
 10
3.891676843130814
 20
13.11619156028618
 30
0.0
 10
3.027107773458476
 20
13.08459849214792
 30
0.0
 10
2.162436878262807
 20
13.05592521394102
 30
0.0
 10
1.29762343362759
 20
13.03178951290401
 30
0.0
 10
0.4325830011723396
 20
13.0174282002584
 30
0.0
 10
0.0
 20
13.01735331992609
 30
0.0
 10
-0.4325830011723396
 20
13.0174282002584
 30
0.0
 10
-1.29762343362759
 20
13.03178951290401
 30
0.0
 10
-2.162436878262807
 20
13.05592521394102
 30
0.0
 10
-3.027107773458476
 20
13.08459849214792
 30
0.0
 10
-3.891676843130814
 20
13.11619156028618
 30
0.0
 10
-4.756081929045943
 20
13.15204715664172
 30
0.0
 10
-5.620318609072712
 20
13.19147912472631
 30
0.0
 10
-6.483217975702916
 20
13.2590835156713
 30
0.0
 10
-7.336113297245864
 20
13.40918215950853
 30
0.0
 10
-8.160117949626121
 20
13.67703799230297
 30
0.0
 10
-8.957317374512861
 20
14.01512886512401
 30
0.0
 10
-9.700208236200433
 20
14.46145319286998
 30
0.0
 10
-10.37152174657787
 20
15.00962252986091
 30
0.0
 10
-10.9562537344051
 20
15.64905486162691
 30
0.0
 10
-11.45554055830921
 20
16.35665613629774
 30
0.0
 10
-11.890464034511
 20
17.10491415593743
 30
0.0
 10
-12.28590530649257
 20
17.87455760764688
 30
0.0
 10
-12.65100051421714
 20
18.65898483440798
 30
0.0
 10
-12.98638065315457
 20
19.45667866375008
 30
0.0
 10
-13.28879264291692
 20
20.26696768804814
 30
0.0
 10
-13.58204570211886
 20
21.08274998186611
 30
0.0
 10
-13.76894339518138
 20
21.92329316756158
 30
0.0
 10
-13.72459137655834
 20
22.83286118390506
 30
0.0
 10
-13.27579445696
 20
23.02871811639634
 30
0.0
  0
SPLINE
  5
85
330
1F
100
AcDbEntity
  8
1
370
    -3
100
AcDbSpline
210
0.0
220
0.0
230
1.0
 70
     8
 71
     2
 72
    28
 73
    25
 74
     0
 42
0.000000001
 43
0.0000000001
 40
0.0
 40
0.0
 40
0.0
 40
1.0
 40
2.0
 40
3.0
 40
4.0
 40
5.0
 40
6.0
 40
7.0
 40
8.0
 40
9.0
 40
10.0
 40
11.0
 40
12.0
 40
13.0
 40
14.0
 40
15.0
 40
16.0
 40
17.0
 40
18.0
 40
19.0
 40
20.0
 40
21.0
 40
22.0
 40
23.0
 40
23.0
 40
23.0
 10
-11.13
 20
24.04334057781091
 30
0.0
 10
-10.8031478244939
 20
24.19908687911422
 30
0.0
 10
-10.59869908379506
 20
24.86539564375008
 30
0.0
 10
-10.56161410919681
 20
25.54070309779685
 30
0.0
 10
-10.55883259387
 20
26.21780325474317
 30
0.0
 10
-10.58936877151843
 20
26.89407024387946
 30
0.0
 10
-10.63749271191319
 20
27.56925181612007
 30
0.0
 10
-10.70006400995882
 20
28.24324582618702
 30
0.0
 10
-10.76654435228094
 20
28.91684459276836
 30
0.0
 10
-10.83600412196517
 20
29.59014542329749
 30
0.0
 10
-10.9057410450983
 20
30.26341615467035
 30
0.0
 10
-10.97520656849817
 20
30.93671545043072
 30
0.0
 10
-11.04495418132741
 20
31.60998537646653
 30
0.0
 10
-11.11523168195635
 20
32.28320018068881
 30
0.0
 10
-11.18573261992119
 20
32.95639167372682
 30
0.0
 10
-11.25607428165843
 20
33.62960039133309
 30
0.0
 10
-11.32596261492512
 20
34.30285332451449
 30
0.0
 10
-11.39442153485725
 20
34.97626986879855
 30
0.0
 10
-11.46231304024243
 20
35.64964642327844
 30
0.0
 10
-11.51958176443934
 20
36.32464909306579
 30
0.0
 10
-11.50091019027347
 20
37.00051369618959
 30
0.0
 10
-11.42968875005969
 20
37.68144763573117
 30
0.0
 10
-11.03411467036494
 20
38.2605218838002
 30
0.0
 10
-10.33460584407883
 20
38.33959896538828
 30
0.0
 10
-9.999999999999998
 20
38.32082006505171
 30
0.0
  0
SPLINE
  5
86
330
1F
100
AcDbEntity
  8
1
370
    -3
100
AcDbSpline
210
0.0
220
0.0
230
1.0
 70
     8
 71
     2
 72
    28
 73
    25
 74
     0
 42
0.000000001
 43
0.0000000001
 40
0.0
 40
0.0
 40
0.0
 40
1.0
 40
2.0
 40
3.0
 40
4.0
 40
5.0
 40
6.0
 40
7.0
 40
8.0
 40
9.0
 40
10.0
 40
11.0
 40
12.0
 40
13.0
 40
14.0
 40
15.0
 40
16.0
 40
17.0
 40
18.0
 40
19.0
 40
20.0
 40
21.0
 40
22.0
 40
23.0
 40
23.0
 40
23.0
 10
11.13
 20
24.04334057781091
 30
0.0
 10
10.8031478244939
 20
24.19908687911422
 30
0.0
 10
10.59869908379506
 20
24.86539564375008
 30
0.0
 10
10.56161410919681
 20
25.54070309779685
 30
0.0
 10
10.55883259387
 20
26.21780325474317
 30
0.0
 10
10.58936877151843
 20
26.89407024387946
 30
0.0
 10
10.63749271191319
 20
27.56925181612007
 30
0.0
 10
10.70006400995882
 20
28.24324582618702
 30
0.0
 10
10.76654435228094
 20
28.91684459276836
 30
0.0
 10
10.83600412196517
 20
29.59014542329749
 30
0.0
 10
10.9057410450983
 20
30.26341615467035
 30
0.0
 10
10.97520656849817
 20
30.93671545043072
 30
0.0
 10
11.04495418132741
 20
31.60998537646653
 30
0.0
 10
11.11523168195635
 20
32.28320018068881
 30
0.0
 10
11.18573261992119
 20
32.95639167372682
 30
0.0
 10
11.25607428165843
 20
33.62960039133309
 30
0.0
 10
11.32596261492512
 20
34.30285332451449
 30
0.0
 10
11.39442153485725
 20
34.97626986879855
 30
0.0
 10
11.46231304024243
 20
35.64964642327844
 30
0.0
 10
11.51958176443934
 20
36.32464909306579
 30
0.0
 10
11.50091019027347
 20
37.00051369618959
 30
0.0
 10
11.42968875005969
 20
37.68144763573117
 30
0.0
 10
11.03411467036494
 20
38.2605218838002
 30
0.0
 10
10.33460584407883
 20
38.33959896538828
 30
0.0
 10
9.999999999999998
 20
38.32082006505171
 30
0.0
  0
SPLINE
  5
87
330
1F
100
AcDbEntity
  8
1
370
    -3
100
AcDbSpline
210
0.0
220
0.0
230
1.0
 70
    11
 71
     3
 72
    56
 73
    52
 74
     0
 42
0.000000001
 43
0.0000000001
 40
-14.87247204384196
 40
-14.87247204384196
 40
-14.87247204384196
 40
-14.87247204384196
 40
-13.87247204384196
 40
-13.87247204384196
 40
-12.87247204384196
 40
-12.87247204384196
 40
-11.87247204384196
 40
-11.87247204384196
 40
-10.87247204384196
 40
-10.87247204384196
 40
-9.872472043841956
 40
-9.872472043841956
 40
-8.872472043841956
 40
-8.872472043841956
 40
-8.872472043841956
 40
-7.872472043841956
 40
-7.872472043841956
 40
-7.872472043841956
 40
-7.000000000000001
 40
-7.000000000000001
 40
-7.000000000000001
 40
-6.000000000000001
 40
-6.000000000000001
 40
-6.000000000000001
 40
-5.0
 40
-5.0
 40
-4.0
 40
-4.0
 40
-3.0
 40
-3.0
 40
-2.0
 40
-2.0
 40
-0.9999999999999993
 40
-0.9999999999999993
 40
0.0000000000000009
 40
0.0000000000000009
 40
0.0000000000000009
 40
1.000000000000001
 40
1.000000000000001
 40
2.000000000000001
 40
2.000000000000001
 40
3.000000000000002
 40
3.000000000000002
 40
4.000000000000002
 40
4.000000000000002
 40
5.000000000000002
 40
5.000000000000002
 40
6.000000000000002
 40
6.000000000000002
 40
6.000000000000002
 40
7.000000000000002
 40
7.000000000000002
 40
7.000000000000002
 40
7.000000000000002
 10
10.67125548699782
 20
12.80606786239675
 30
0.0
 10
10.7658000042264
 20
12.13735862542365
 30
0.0
 10
10.8579511560292
 20
11.45600082378993
 30
0.0
 10
11.03746672878323
 20
10.06798809120123
 30
0.0
 10
11.12611887075023
 20
9.375956353037523
 30
0.0
 10
11.3012118658642
 20
7.9958421329714
 30
0.0
 10
11.38737294035977
 20
7.30524719279136
 30
0.0
 10
11.55692424322804
 20
5.92298165213733
 30
0.0
 10
11.63897058698844
 20
5.23159132595375
 30
0.0
 10
11.79760465916177
 20
3.848295561873458
 30
0.0
 10
11.87055974720774
 20
3.155908166022304
 30
0.0
 10
12.00374602721833
 20
1.76965434669798
 30
0.0
 10
12.05171202133399
 20
1.075219761651099
 30
0.0
 10
12.08105086956
 20
0.3794775012194975
 30
0.0
 10
12.08462576297722
 20
0.2947023795876687
 30
0.0
 10
12.04113682476688
 20
0.2499593334310744
 30
0.0
 10
11.95613541447
 20
0.2499591533472376
 30
0.0
 10
11.66531139985667
 20
0.2499585372079972
 30
0.0
 10
11.37448738524333
 20
0.2499579210687569
 30
0.0
 10
11.08366337063
 20
0.2499573049295165
 30
0.0
 10
11.01845070590307
 20
0.249957166770081
 30
0.0
 10
10.97534114528137
 20
0.2856972630801309
 30
0.0
 10
10.96142782321
 20
0.3497211546487691
 30
0.0
 10
10.87380813353081
 20
0.7529141147861118
 30
0.0
 10
10.79227295532223
 20
1.157329338374395
 30
0.0
 10
10.64137162184633
 20
1.968604312452841
 30
0.0
 10
10.57039004504662
 20
2.375015130943769
 30
0.0
 10
10.43736507132366
 20
3.189383430829034
 30
0.0
 10
10.3731784930176
 20
3.59692979597328
 30
0.0
 10
10.24945715351628
 20
4.412746956664996
 30
0.0
 10
10.18865952885944
 20
4.820813276806471
 30
0.0
 10
10.06919036973336
 20
5.637261396680653
 30
0.0
 10
10.01013257087998
 20
6.045583197766169
 30
0.0
 10
9.893370534592554
 20
6.862422282234047
 30
0.0
 10
9.840232994978479
 20
7.28965822496001
 30
0.0
 10
9.781946117990984
 20
7.698091326709419
 30
0.0
 10
9.750097470105619
 20
7.9212640666923
 30
0.0
 10
9.718631946169708
 20
8.147502871233606
 30
0.0
 10
9.656467146196798
 20
8.606112609433067
 30
0.0
 10
9.62546980776718
 20
8.83241834297919
 30
0.0
 10
9.563645254021612
 20
9.279031538964231
 30
0.0
 10
9.532144891588928
 20
9.502247986996416
 30
0.0
 10
9.46796799560377
 20
9.948500583140108
 30
0.0
 10
9.437109496385533
 20
10.17180476511058
 30
0.0
 10
9.377852395497731
 20
10.61876889684877
 30
0.0
 10
9.348131446450902
 20
10.84223629793785
 30
0.0
 10
9.288504751151383
 20
11.28914177055598
 30
0.0
 10
9.258810235528907
 20
11.51261078005593
 30
0.0
 10
9.229234551933716
 20
11.73609606274677
 30
0.0
 10
9.089950641439524
 20
12.78857905983094
 30
0.0
 10
10.60170807618684
 20
13.29797365852476
 30
0.0
 10
10.67125548699782
 20
12.80606786239675
 30
0.0
  0
SPLINE
  5
88
330
1F
100
AcDbEntity
  8
1
370
    -3
100
AcDbSpline
210
0.0
220
0.0
230
1.0
 70
    24
 71
     2
 72
     6
 73
     3
 74
     0
 42
0.000000001
 43
0.0000000001
 40
-6.306200922053874
 40
-6.306200922053874
 40
-6.306200922053874
 40
0.0
 40
0.0
 40
0.0
 10
5.457001636331311
 20
9.345538914077322
 30
0.0
 10
7.483775544776655
 20
9.502835179471822
 30
0.0
 10
9.510549453222
 20
9.660131444866321
 30
0.0
  0
SPLINE
  5
89
330
1F
100
AcDbEntity
  8
1
100
AcDbSpline
210
0.0
220
0.0
230
1.0
 70
    11
 71
     3
 72
    56
 73
    52
 74
     0
 42
0.000000001
 43
0.0000000001
 40
0.0
 40
0.0
 40
0.0
 40
0.0
 40
1.0
 40
1.0
 40
2.0
 40
2.0
 40
3.0
 40
3.0
 40
4.0
 40
4.0
 40
5.0
 40
5.0
 40
6.0
 40
6.0
 40
6.0
 40
7.0
 40
7.0
 40
7.0
 40
7.974863420974847
 40
7.974863420974847
 40
7.974863420974847
 40
8.974863420974847
 40
8.974863420974847
 40
8.974863420974847
 40
9.974863420974847
 40
9.974863420974847
 40
10.97486342097485
 40
10.97486342097485
 40
11.97486342097485
 40
11.97486342097485
 40
12.97486342097485
 40
12.97486342097485
 40
13.97486342097485
 40
13.97486342097485
 40
14.97486342097485
 40
14.97486342097485
 40
14.97486342097485
 40
15.97486342097485
 40
15.97486342097485
 40
16.97486342097485
 40
16.97486342097485
 40
17.97486342097485
 40
17.97486342097485
 40
18.97486342097485
 40
18.97486342097485
 40
19.97486342097485
 40
19.97486342097485
 40
20.97486342097485
 40
20.97486342097485
 40
20.97486342097485
 40
21.97486342097485
 40
21.97486342097485
 40
21.97486342097485
 40
21.97486342097485
 10
35.2063083925263
 20
13.45858578369386
 30
0.0
 10
35.03045069804685
 20
12.73452857153268
 30
0.0
 10
34.85447603213365
 20
12.01049975493896
 30
0.0
 10
34.50229275743976
 20
10.56249891288644
 30
0.0
 10
34.32678760928118
 20
9.838356301703852
 30
0.0
 10
33.97695029134074
 20
8.389786699026041
 30
0.0
 10
33.80375202241681
 20
7.665088412448472
 30
0.0
 10
33.46079626466155
 20
6.214864868815998
 30
0.0
 10
33.29189391407051
 20
5.489160774362343
 30
0.0
 10
32.95924026946158
 20
4.036567940180189
 30
0.0
 10
32.79720515622677
 20
3.30926258390982
 30
0.0
 10
32.4817183478965
 20
1.852633993010502
 30
0.0
 10
32.34076110286649
 20
1.121079128366807
 30
0.0
 10
32.21659001697162
 20
0.3862836945290766
 30
0.0
 10
32.20131401561392
 20
0.2903906316541939
 30
0.0
 10
32.24534772958714
 20
0.2392888199128837
 30
0.0
 10
32.34234653873316
 20
0.2410487450153944
 30
0.0
 10
32.66724753861189
 20
0.2469436774434473
 30
0.0
 10
32.99214853849062
 20
0.2528386098715002
 30
0.0
 10
33.31704953836936
 20
0.2587335422995531
 30
0.0
 10
33.37342701313001
 20
0.2597564428271057
 30
0.0
 10
33.4157219459952
 20
0.2914199125653511
 30
0.0
 10
33.43344456304862
 20
0.345114700654392
 30
0.0
 10
33.54039459957928
 20
0.6735955343545187
 30
0.0
 10
33.64110706794029
 20
1.003969786535102
 30
0.0
 10
33.83005686832302
 20
1.66850512785718
 30
0.0
 10
33.92336845158514
 20
2.001084749252088
 30
0.0
 10
34.10766498425087
 20
2.666867893509648
 30
0.0
 10
34.19845910092459
 20
3.000130763182672
 30
0.0
 10
34.37733903495371
 20
3.667399097617208
 30
0.0
 10
34.46583048933673
 20
4.001283809532607
 30
0.0
 10
34.64091637283968
 20
4.669554322759669
 30
0.0
 10
34.72779785423309
 20
5.003861397603996
 30
0.0
 10
34.90023789630374
 20
5.672819183754242
 30
0.0
 10
34.98031680157345
 20
6.017409601771575
 30
0.0
 10
35.05425459107754
 20
6.372111544731119
 30
0.0
 10
35.13646990324644
 20
6.685397262976402
 30
0.0
 10
35.21742608286488
 20
6.99902576889833
 30
0.0
 10
35.37682017700083
 20
7.626968356095472
 30
0.0
 10
35.45956219002089
 20
7.940066994097511
 30
0.0
 10
35.63113614796513
 20
8.56451895890852
 30
0.0
 10
35.7125118936813
 20
8.877962723189993
 30
0.0
 10
35.86644091860174
 20
9.507285815504881
 30
0.0
 10
35.94385061240166
 20
9.82181574785803
 30
0.0
 10
36.0995603626809
 20
10.45061238495576
 30
0.0
 10
36.17705186388064
 20
10.76510400161758
 30
0.0
 10
36.33130811840037
 20
11.39427383116715
 30
0.0
 10
36.40827130104528
 20
11.7088982834531
 30
0.0
 10
36.48506953907523
 20
12.0235622732502
 30
0.0
 10
36.7378265470131
 20
13.05917885257698
 30
0.0
 10
35.45795246578299
 20
14.4946775320729
 30
0.0
 10
35.2063083925263
 20
13.45858578369386
 30
0.0
  0
SPLINE
  5
8A
330
1F
100
AcDbEntity
  8
1
370
    -3
100
AcDbSpline
210
0.0
220
0.0
230
1.0
 70
    12
 71
     3
 72
    50
 73
    46
 74
     0
 42
0.000000001
 43
0.0000000001
 40
3.007630596507951
 40
3.007630596507951
 40
3.007630596507951
 40
3.007630596507951
 40
3.141592653589793
 40
3.141592653589793
 40
3.141592653589793
 40
4.71238898038469
 40
4.71238898038469
 40
4.71238898038469
 40
6.283185307179586
 40
6.283185307179586
 40
6.283185307179586
 40
7.283185307179586
 40
7.283185307179586
 40
8.283185307179586
 40
8.283185307179586
 40
9.283185307179586
 40
9.283185307179586
 40
9.283185307179586
 40
10.28318530717959
 40
10.28318530717959
 40
10.28318530717959
 40
11.15064178620292
 40
11.15064178620292
 40
11.15064178620292
 40
12.15064178620292
 40
12.15064178620292
 40
12.15064178620292
 40
13.15064178620292
 40
13.15064178620292
 40
14.15064178620292
 40
14.15064178620292
 40
15.15064178620292
 40
15.15064178620292
 40
15.15064178620292
 40
16.15064178620293
 40
16.15064178620293
 40
17.15064178620293
 40
17.15064178620293
 40
18.15064178620293
 40
18.15064178620293
 40
19.15064178620293
 40
19.15064178620293
 40
20.15064178620293
 40
20.15064178620293
 40
21.15064178620293
 40
21.15064178620293
 40
21.15064178620293
 40
21.15064178620293
 10
53.83142162052012
 20
12.11464411428055
 30
0.0
 41
0.9543029627159996
 10
53.8245198323164
 20
12.13848689558545
 30
0.0
 41
0.9681151332940271
 10
53.8196735971644
 20
12.16252728500794
 30
0.0
 41
0.9833474790553606
 10
53.81680962988838
 20
12.18665382774915
 30
0.0
 41
1.0
 10
53.77577422728313
 20
12.53234297131703
 30
0.0
 41
0.8047378541243649
 10
54.07174701501507
 20
12.81536030229904
 30
0.0
 41
0.8047378541243649
 10
54.53135114812421
 20
12.86991810659256
 30
0.0
 41
1.0
 10
54.99095528123335
 20
12.92447591088607
 30
0.0
 41
0.8047378541243649
 10
55.34496089186708
 20
12.71861496666925
 30
0.0
 41
0.8047378541243649
 10
55.38599629447233
 20
12.37292582310137
 30
0.0
 41
1.0
 10
55.65848758969286
 20
11.04680487592779
 30
0.0
 41
1.0
 10
55.92705303472228
 20
9.719939511515777
 30
0.0
 41
1.0
 10
56.45633222439891
 20
7.064719948214907
 30
0.0
 41
1.0
 10
56.71550657349295
 20
5.735794187665657
 30
0.0
 41
1.0
 10
57.22292478019244
 20
3.075310708769521
 30
0.0
 41
1.0
 10
57.43092033674778
 20
1.738069992226469
 30
0.0
 41
1.0
 10
57.59320234650869
 20
0.3938302985884334
 30
0.0
 41
1.0
 10
57.60396487561444
 20
0.3046804362642303
 30
0.0
 41
1.0
 10
57.55717451983006
 20
0.2594865070610255
 30
0.0
 41
1.0
 10
57.46552289846699
 20
0.257829359631355
 30
0.0
 41
1.0
 10
57.17641799207328
 20
0.2526020712821667
 30
0.0
 41
1.0
 10
56.88731308567958
 20
0.2473747829329783
 30
0.0
 41
1.0
 10
56.59820817928588
 20
0.24214749458379
 30
0.0
 41
1.0
 10
56.53445784424054
 20
0.2409948286266597
 30
0.0
 41
1.0
 10
56.48832709520335
 20
0.2730969742837343
 30
0.0
 41
1.0
 10
56.47090735040558
 20
0.3337697947405864
 30
0.0
 41
1.0
 10
56.24107623654502
 20
1.134269576370416
 30
0.0
 41
1.0
 10
56.03207967786852
 20
1.940096529912785
 30
0.0
 41
1.0
 10
55.65575567088363
 20
3.562404780822604
 30
0.0
 41
1.0
 10
55.47158877174949
 20
4.374412044049454
 30
0.0
 41
1.0
 10
55.11124518219787
 20
6.00013284604704
 30
0.0
 41
1.0
 10
54.94425305933395
 20
6.8244094334868
 30
0.0
 41
1.0
 10
54.79044060838193
 20
7.660102207367525
 30
0.0
 41
1.0
 10
54.73807089695712
 20
7.912114344808843
 30
0.0
 41
1.0
 10
54.68562580915569
 20
8.164082556820395
 30
0.0
 41
1.0
 10
54.58058488079961
 20
8.667931129983964
 30
0.0
 41
1.0
 10
54.53053798756488
 20
8.920508565830863
 30
0.0
 41
1.0
 10
54.43539134298209
 20
9.426969736054891
 30
0.0
 41
1.0
 10
54.37561939462625
 20
9.676850466810643
 30
0.0
 41
1.0
 10
54.23167824578571
 20
10.16991221960963
 30
0.0
 41
1.0
 10
54.17143817682512
 20
10.41969723172612
 30
0.0
 41
1.0
 10
54.07441904982331
 20
10.9257755273931
 30
0.0
 41
1.0
 10
54.02405556480039
 20
11.17828825665437
 30
0.0
 41
1.0
 10
53.91962075171055
 20
11.68226087803247
 30
0.0
 41
1.0
 10
53.86794457558818
 20
11.93438729816772
 30
0.0
 41
1.0
 10
53.81680962988838
 20
12.18665382774915
 30
0.0
 41
1.0
  0
SPLINE
  5
8B
330
1F
100
AcDbEntity
  8
1
370
    -3
100
AcDbSpline
210
0.0
220
0.0
230
1.0
 70
    24
 71
     2
 72
     6
 73
     3
 74
     0
 42
0.000000001
 43
0.0000000001
 40
-5.150445141622263
 40
-5.150445141622263
 40
-5.150445141622263
 40
-2.628534627989366
 40
-2.628534627989366
 40
-2.628534627989366
 10
42.83727325201022
 20
9.407309276434102
 30
0.0
 10
42.91938897357401
 20
8.149030623684595
 30
0.0
 10
43.0015046951378
 20
6.890751970935089
 30
0.0
  0
SPLINE
  5
8C
330
1F
100
AcDbEntity
  8
1
370
    -3
100
AcDbSpline
210
0.0
220
0.0
230
1.0
 70
    11
 71
     2
 72
    56
 73
    53
 74
     0
 42
0.000000001
 43
0.0000000001
 40
0.0
 40
0.0
 40
0.0
 40
1.0
 40
2.0
 40
3.0
 40
4.0
 40
5.0
 40
6.0
 40
7.0
 40
8.0
 40
9.0
 40
10.0
 40
11.0
 40
12.0
 40
13.0
 40
14.0
 40
15.0
 40
16.0
 40
17.0
 40
18.0
 40
19.0
 40
20.0
 40
21.0
 40
22.0
 40
23.0
 40
24.0
 40
24.0
 40
25.0
 40
26.0
 40
27.0
 40
28.0
 40
29.0
 40
30.0
 40
31.0
 40
32.0
 40
33.0
 40
34.0
 40
35.0
 40
36.0
 40
37.0
 40
38.0
 40
39.0
 40
40.0
 40
41.0
 40
42.0
 40
43.0
 40
44.0
 40
45.0
 40
46.0
 40
47.0
 40
48.0
 40
48.0
 40
60.34337151829087
 40
60.34337151829087
 40
60.34337151829087
 10
-6.171685759145435
 20
26.65575962819389
 30
0.0
 10
-6.572156656057834
 20
26.71624469202334
 30
0.0
 10
-7.35784709406282
 20
26.95865396917265
 30
0.0
 10
-7.941269305623567
 20
27.54805372776678
 30
0.0
 10
-8.078204371664045
 20
28.36498864087791
 30
0.0
 10
-8.097252401307156
 20
29.17450802208718
 30
0.0
 10
-8.10195256083635
 20
29.98635048887704
 30
0.0
 10
-8.091970134089937
 20
30.79777929020543
 30
0.0
 10
-8.073201998840299
 20
31.60910040773599
 30
0.0
 10
-8.052751331931095
 20
32.42037001316904
 30
0.0
 10
-8.039801677001929
 20
33.23180326742877
 30
0.0
 10
-8.037138147689909
 20
34.04332727035126
 30
0.0
 10
-8.043351535301293
 20
34.85488757108524
 30
0.0
 10
-8.038546105314381
 20
35.66614076261413
 30
0.0
 10
-7.987481190347347
 20
36.47753728955787
 30
0.0
 10
-7.677377725982853
 20
37.25602910862306
 30
0.0
 10
-6.898338430387597
 20
37.5682897939045
 30
0.0
 10
-6.085826060465008
 20
37.600702516704
 30
0.0
 10
-5.27450859420399
 20
37.58736268573375
 30
0.0
 10
-4.46301291777583
 20
37.59264549485275
 30
0.0
 10
-3.651798000591306
 20
37.61626328645841
 30
0.0
 10
-2.840325341214475
 20
37.6265621862313
 30
0.0
 10
-2.028816996869839
 20
37.63206993775441
 30
0.0
 10
-1.217289579100393
 20
37.63317678655637
 30
0.0
 10
-0.4057633021151184
 20
37.63240818600414
 30
0.0
 10
0.0
 20
37.63228751339571
 30
0.0
 10
0.4057633021151184
 20
37.63240818600414
 30
0.0
 10
1.217289579100393
 20
37.63317678655637
 30
0.0
 10
2.028816996869839
 20
37.63206993775441
 30
0.0
 10
2.840325341214475
 20
37.6265621862313
 30
0.0
 10
3.651798000591306
 20
37.61626328645841
 30
0.0
 10
4.46301291777583
 20
37.59264549485275
 30
0.0
 10
5.27450859420399
 20
37.58736268573375
 30
0.0
 10
6.085826060465008
 20
37.600702516704
 30
0.0
 10
6.898338430387597
 20
37.5682897939045
 30
0.0
 10
7.677377725982853
 20
37.25602910862306
 30
0.0
 10
7.987481190347347
 20
36.47753728955787
 30
0.0
 10
8.038546105314381
 20
35.66614076261413
 30
0.0
 10
8.043351535301293
 20
34.85488757108524
 30
0.0
 10
8.037138147689909
 20
34.04332727035126
 30
0.0
 10
8.039801677001929
 20
33.23180326742877
 30
0.0
 10
8.052751331931095
 20
32.42037001316904
 30
0.0
 10
8.073201998840299
 20
31.60910040773599
 30
0.0
 10
8.091970134089937
 20
30.79777929020543
 30
0.0
 10
8.10195256083635
 20
29.98635048887704
 30
0.0
 10
8.097252401307156
 20
29.17450802208718
 30
0.0
 10
8.078204371664045
 20
28.36498864087791
 30
0.0
 10
7.941269305623567
 20
27.54805372776678
 30
0.0
 10
7.35784709406282
 20
26.95865396917265
 30
0.0
 10
6.572156656057834
 20
26.71624469202334
 30
0.0
 10
6.171685759145435
 20
26.65575962819389
 30
0.0
 10
0.0
 20
26.65575962819389
 30
0.0
 10
-6.171685759145435
 20
26.65575962819389
 30
0.0
  0
SPLINE
  5
8D
330
1F
100
AcDbEntity
  8
1
370
    -3
100
AcDbSpline
210
0.0
220
0.0
230
1.0
 70
    11
 71
     2
 72
    13
 73
    10
 74
     0
 42
0.000000001
 43
0.0000000001
 40
0.0
 40
0.0
 40
0.0
 40
1.0
 40
2.0
 40
3.0
 40
4.0
 40
5.0
 40
6.0
 40
6.0
 40
6.622320553630904
 40
6.622320553630904
 40
6.622320553630904
 10
-11.82843121933296
 20
0.2444091250209017
 30
0.0
 10
-11.79755175976669
 20
0.181890269279134
 30
0.0
 10
-11.70397860496124
 20
0.0796965019072969
 30
0.0
 10
-11.58655600671228
 20
0.0006080379944782
 30
0.0
 10
-11.44474931494825
 20
0.0031487839582769
 30
0.0
 10
-11.32858452412859
 20
0.0837292968857061
 30
0.0
 10
-11.23623239032921
 20
0.1870622659428353
 30
0.0
 10
-11.20613541447
 20
0.2499591449699032
 30
0.0
 10
-11.51728331690148
 20
0.2471841349954025
 30
0.0
 10
-11.82843121933296
 20
0.2444091250209017
 30
0.0
  0
SPLINE
  5
8E
330
1F
100
AcDbEntity
  8
1
370
    -3
100
AcDbSpline
210
0.0
220
0.0
230
1.0
 70
    11
 71
     2
 72
    13
 73
    10
 74
     0
 42
0.000000001
 43
0.0000000001
 40
0.0
 40
0.0
 40
0.0
 40
1.0
 40
2.0
 40
3.0
 40
4.0
 40
5.0
 40
6.0
 40
6.0
 40
6.622320553630904
 40
6.622320553630904
 40
6.622320553630904
 10
11.82843121933296
 20
0.2444091250209017
 30
0.0
 10
11.79755175976669
 20
0.181890269279134
 30
0.0
 10
11.70397860496124
 20
0.0796965019072969
 30
0.0
 10
11.58655600671228
 20
0.0006080379944782
 30
0.0
 10
11.44474931494825
 20
0.0031487839582769
 30
0.0
 10
11.32858452412859
 20
0.0837292968857061
 30
0.0
 10
11.23623239032921
 20
0.1870622659428353
 30
0.0
 10
11.20613541447
 20
0.2499591449699032
 30
0.0
 10
11.51728331690148
 20
0.2471841349954025
 30
0.0
 10
11.82843121933296
 20
0.2444091250209017
 30
0.0
  0
SPLINE
  5
8F
330
1F
100
AcDbEntity
  8
1
370
    -3
100
AcDbSpline
210
0.0
220
0.0
230
1.0
 70
    11
 71
     2
 72
    52
 73
    49
 74
     0
 42
0.000000001
 43
0.0000000001
 40
0.0
 40
0.0
 40
0.0
 40
0.9999993891327833
 40
1.999999440044074
 40
2.999999490955364
 40
3.999999541866655
 40
4.999999592777947
 40
5.999999643689237
 40
6.999999694600528
 40
7.999999745511818
 40
8.99999979642311
 40
9.9999998473344
 40
10.99999989824569
 40
11.99999994915698
 40
13.00000000006827
 40
14.00000005097956
 40
15.00000010189085
 40
16.00000015280214
 40
17.00000020371343
 40
18.00000025462472
 40
19.00000030553601
 40
20.0000003564473
 40
21.00000040735859
 40
22.00000045826988
 40
23.0
 40
23.0
 40
23.99999954173012
 40
24.99999959264141
 40
25.9999996435527
 40
26.99999969446399
 40
27.99999974537528
 40
28.99999979628657
 40
29.99999984719786
 40
30.99999989810915
 40
31.99999994902044
 40
32.99999999993173
 40
34.00000005084303
 40
35.00000010175431
 40
36.0000001526656
 40
37.00000020357689
 40
38.00000025448819
 40
39.00000030539947
 40
40.00000035631076
 40
41.00000040722205
 40
42.00000045813334
 40
43.00000050904464
 40
44.00000055995593
 40
45.00000061086722
 40
46.0
 40
46.0
 40
46.0
 10
0.0
 20
74.07008662531248
 30
0.0
 10
-0.430870348216803
 20
74.0700639844902
 30
0.0
 10
-1.29260762207273
 20
74.07252921680808
 30
0.0
 10
-2.15433430846924
 20
74.07743182679866
 30
0.0
 10
-3.01605280956024
 20
74.08373492755855
 30
0.0
 10
-3.877741370575245
 20
74.09312678183525
 30
0.0
 10
-4.739380218909894
 20
74.10741473501066
 30
0.0
 10
-5.600666352300049
 20
74.13496367065704
 30
0.0
 10
-6.46160039091013
 20
74.17605332465055
 30
0.0
 10
-7.310408172042776
 20
74.38054225120416
 30
0.0
 10
-7.949334932953354
 20
74.9933893678796
 30
0.0
 10
-8.1270084914732
 20
75.85312136605802
 30
0.0
 10
-8.058231318444497
 20
76.71411667822309
 30
0.0
 10
-8.062852822211626
 20
77.5737204795338
 30
0.0
 10
-7.915245486059387
 20
78.44074606696088
 30
0.0
 10
-7.21526056154352
 20
78.99274838206277
 30
0.0
 10
-6.421744781101046
 20
79.32734368991638
 30
0.0
 10
-5.580515409540862
 20
79.52340887819486
 30
0.0
 10
-4.728354533499353
 20
79.65086492289247
 30
0.0
 10
-3.871387638174915
 20
79.74270856447458
 30
0.0
 10
-3.013881371000558
 20
79.82804641139772
 30
0.0
 10
-2.1538338522851
 20
79.88357556047663
 30
0.0
 10
-1.292575104356829
 20
79.91366444532711
 30
0.0
 10
-0.4308737529200265
 20
79.92417237621163
 30
0.0
 10
0.0
 20
79.92391206207043
 30
0.0
 10
0.4308737529200265
 20
79.92417237621163
 30
0.0
 10
1.292575104356829
 20
79.91366444532711
 30
0.0
 10
2.1538338522851
 20
79.88357556047663
 30
0.0
 10
3.013881371000558
 20
79.82804641139772
 30
0.0
 10
3.871387638174915
 20
79.74270856447458
 30
0.0
 10
4.728354533499353
 20
79.65086492289247
 30
0.0
 10
5.580515409540862
 20
79.52340887819486
 30
0.0
 10
6.421744781101046
 20
79.32734368991638
 30
0.0
 10
7.21526056154352
 20
78.99274838206277
 30
0.0
 10
7.915245486059387
 20
78.44074606696088
 30
0.0
 10
8.062852822211626
 20
77.5737204795338
 30
0.0
 10
8.058231318444497
 20
76.71411667822309
 30
0.0
 10
8.1270084914732
 20
75.85312136605802
 30
0.0
 10
7.949334932953354
 20
74.9933893678796
 30
0.0
 10
7.310408172042776
 20
74.38054225120416
 30
0.0
 10
6.46160039091013
 20
74.17605332465055
 30
0.0
 10
5.600666352300049
 20
74.13496367065704
 30
0.0
 10
4.739380218909894
 20
74.10741473501066
 30
0.0
 10
3.877741370575245
 20
74.09312678183525
 30
0.0
 10
3.01605280956024
 20
74.08373492755855
 30
0.0
 10
2.15433430846924
 20
74.07743182679866
 30
0.0
 10
1.29260762207273
 20
74.07252921680808
 30
0.0
 10
0.430870348216803
 20
74.0700639844902
 30
0.0
 10
0.0
 20
74.07008662531248
 30
0.0
  0
SPLINE
  5
90
330
1F
100
AcDbEntity
  8
1
370
    -3
100
AcDbSpline
210
0.0
220
0.0
230
1.0
 70
     8
 71
     2
 72
    18
 73
    15
 74
     0
 42
0.000000001
 43
0.0000000001
 40
0.0
 40
0.0
 40
0.0
 40
1.0
 40
2.0
 40
3.0
 40
4.0
 40
5.0
 40
6.0
 40
7.0
 40
8.0
 40
9.0
 40
10.0
 40
11.0
 40
12.0
 40
13.0
 40
13.0
 40
13.0
 10
7.856442795840921
 20
78.38615516133262
 30
0.0
 10
7.355863808296196
 20
78.7514568724779
 30
0.0
 10
6.102596137356437
 20
78.74599654667257
 30
0.0
 10
4.886614210540421
 20
78.75470431623253
 30
0.0
 10
3.664256388375355
 20
78.76576660668854
 30
0.0
 10
2.442962424645507
 20
78.77249749036055
 30
0.0
 10
1.22146803770747
 20
78.776124332723
 30
0.0
 10
0.0000001950516934
 20
78.77728384154925
 30
0.0
 10
-1.221467878566973
 20
78.77612433310345
 30
0.0
 10
-2.442962284940692
 20
78.77249749097435
 30
0.0
 10
-3.664256371317267
 20
78.76576660688542
 30
0.0
 10
-4.886614214329225
 20
78.75470431617485
 30
0.0
 10
-6.102596133217412
 20
78.74599654681518
 30
0.0
 10
-7.355863812091082
 20
78.75145687196098
 30
0.0
 10
-7.856442795840921
 20
78.38615516133262
 30
0.0
  0
ARC
  5
91
330
1F
100
AcDbEntity
  8
1
100
AcDbCircle
 10
-11.16456989887399
 20
74.543190747199
 30
0.0
 40
0.8659614338872461
100
AcDbArc
 50
214.5512038325958
 51
306.8693689242215
  0
ARC
  5
92
330
1F
100
AcDbEntity
  8
1
100
AcDbCircle
 10
-11.16456989887399
 20
74.543190747199
 30
0.0
 40
0.8659614338872461
210
0.0
220
0.0
230
-1.0
100
AcDbArc
 50
214.5512038325958
 51
306.8693689242215
  0
SPLINE
  5
93
330
1F
100
AcDbEntity
  8
1
370
    -3
100
AcDbSpline
210
0.0
220
0.0
230
1.0
 70
     8
 71
     2
 72
    98
 73
    95
 74
     0
 42
0.000000001
 43
0.0000000001
 40
0.0
 40
0.0
 40
0.0
 40
1.0
 40
2.0
 40
3.0
 40
4.0
 40
5.0
 40
6.0
 40
7.0
 40
8.0
 40
9.0
 40
10.0
 40
11.0
 40
12.0
 40
13.0
 40
14.0
 40
15.0
 40
16.0
 40
17.0
 40
18.0
 40
18.0
 40
19.0
 40
20.0
 40
21.0
 40
22.0
 40
23.0
 40
24.0
 40
25.0
 40
26.0
 40
26.0
 40
27.00000003910496
 40
28.00000007820993
 40
29.00000011731489
 40
30.00000015641986
 40
31.00000019552483
 40
32.00000023462979
 40
33.00000027373476
 40
34.00000031283972
 40
35.00000035194468
 40
36.00000039104965
 40
37.00000043015461
 40
38.00000046925958
 40
39.00000050836454
 40
40.00000054746951
 40
41.00000058657447
 40
42.00000062567944
 40
43.0000006647844
 40
44.0
 40
44.0
 40
44.9999993352156
 40
45.99999937432056
 40
46.99999941342553
 40
47.99999945253049
 40
48.99999949163546
 40
49.99999953074042
 40
50.99999956984539
 40
51.99999960895035
 40
52.99999964805532
 40
53.99999968716028
 40
54.99999972626524
 40
55.99999976537021
 40
56.99999980447517
 40
57.99999984358014
 40
58.9999998826851
 40
59.99999992179007
 40
60.99999996089504
 40
62.0
 40
62.0
 40
63.0
 40
64.0
 40
65.0
 40
66.0
 40
67.0
 40
68.0
 40
69.0
 40
70.0
 40
70.0
 40
71.0
 40
72.0
 40
73.0
 40
74.0
 40
75.0
 40
76.0
 40
77.0
 40
78.0
 40
79.0
 40
80.0
 40
81.0
 40
82.0
 40
83.0
 40
84.0
 40
85.0
 40
86.0
 40
87.0
 40
88.0
 40
88.0
 40
88.0
 10
-13.4052884875355
 20
54.72519583272835
 30
0.0
 10
-13.78339228279041
 20
55.1517886262673
 30
0.0
 10
-13.74744619445784
 20
56.27012650112041
 30
0.0
 10
-13.55953422257388
 20
57.33357516933075
 30
0.0
 10
-13.35238172798393
 20
58.39937283098448
 30
0.0
 10
-13.15089823421359
 20
59.46521924564029
 30
0.0
 10
-12.94917152109737
 20
60.53119557730678
 30
0.0
 10
-12.74642522825588
 20
61.59694851596977
 30
0.0
 10
-12.54080746768395
 20
62.6621573320929
 30
0.0
 10
-12.33108796507413
 20
63.72656531289259
 30
0.0
 10
-12.11748886187474
 20
64.79020139008671
 30
0.0
 10
-11.90053822724758
 20
65.85315884201316
 30
0.0
 10
-11.68057565141173
 20
66.91549699410115
 30
0.0
 10
-11.45796082814693
 20
67.97728082857128
 30
0.0
 10
-11.23317440013232
 20
69.03861636952404
 30
0.0
 10
-11.0063938035206
 20
70.09947254026102
 30
0.0
 10
-10.79437099378765
 20
71.16377136980442
 30
0.0
 10
-10.62587397900513
 20
72.23419480459093
 30
0.0
 10
-10.51321516629703
 20
73.3217035552176
 30
0.0
 10
-10.64499943139113
 20
73.85041680549818
 30
0.0
 10
-10.66732642203733
 20
73.9092508633312
 30
0.0
 10
-10.752174878912
 20
74.00278821648037
 30
0.0
 10
-10.87227379793125
 20
74.0417384359674
 30
0.0
 10
-10.98706991764928
 20
74.08898490119064
 30
0.0
 10
-11.102246103161
 20
74.13613484507567
 30
0.0
 10
-11.21813623544995
 20
74.18139543984861
 30
0.0
 10
-11.33478909345589
 20
74.2245090282113
 30
0.0
 10
-11.44590249800871
 20
74.28295848882429
 30
0.0
 10
-11.4829994313851
 20
74.3345054343931
 30
0.0
 10
-11.52089863450125
 20
74.73401417201731
 30
0.0
 10
-11.22121197545896
 20
75.4980877160146
 30
0.0
 10
-10.87699754425967
 20
76.22709565276932
 30
0.0
 10
-10.45682098397335
 20
76.91804994882678
 30
0.0
 10
-9.983271192181782
 20
77.57336716135787
 30
0.0
 10
-9.440780400978966
 20
78.17275669218894
 30
0.0
 10
-8.840481525613264
 20
78.71426841168541
 30
0.0
 10
-8.19652537333529
 20
79.20281568174435
 30
0.0
 10
-7.507391894840092
 20
79.62603129883186
 30
0.0
 10
-6.770744428554403
 20
79.95994282658455
 30
0.0
 10
-5.998971393761162
 20
80.2010300989983
 30
0.0
 10
-5.217133500012103
 20
80.40443460052722
 30
0.0
 10
-4.425353299299455
 20
80.56553144147259
 30
0.0
 10
-3.627086895792328
 20
80.69008055926545
 30
0.0
 10
-2.824402821104901
 20
80.78182934592675
 30
0.0
 10
-2.018828697295041
 20
80.84302129228152
 30
0.0
 10
-1.211645415919967
 20
80.87625343659481
 30
0.0
 10
-0.4039086797130439
 20
80.88877967210853
 30
0.0
 10
0.0
 20
80.88863653142444
 30
0.0
 10
0.4039086797130439
 20
80.88877967210853
 30
0.0
 10
1.211645415919967
 20
80.87625343659481
 30
0.0
 10
2.018828697295041
 20
80.84302129228152
 30
0.0
 10
2.824402821104901
 20
80.78182934592675
 30
0.0
 10
3.627086895792328
 20
80.69008055926545
 30
0.0
 10
4.425353299299455
 20
80.56553144147259
 30
0.0
 10
5.217133500012103
 20
80.40443460052722
 30
0.0
 10
5.998971393761162
 20
80.2010300989983
 30
0.0
 10
6.770744428554403
 20
79.95994282658455
 30
0.0
 10
7.507391894840092
 20
79.62603129883186
 30
0.0
 10
8.19652537333529
 20
79.20281568174435
 30
0.0
 10
8.840481525613264
 20
78.71426841168541
 30
0.0
 10
9.440780400978966
 20
78.17275669218894
 30
0.0
 10
9.983271192181782
 20
77.57336716135787
 30
0.0
 10
10.45682098397335
 20
76.91804994882678
 30
0.0
 10
10.87699754425967
 20
76.22709565276932
 30
0.0
 10
11.22121197545896
 20
75.4980877160146
 30
0.0
 10
11.52089863450125
 20
74.73401417201731
 30
0.0
 10
11.4829994313851
 20
74.3345054343931
 30
0.0
 10
11.44590249800871
 20
74.28295848882429
 30
0.0
 10
11.33478909345589
 20
74.2245090282113
 30
0.0
 10
11.21813623544995
 20
74.18139543984861
 30
0.0
 10
11.102246103161
 20
74.13613484507567
 30
0.0
 10
10.98706991764928
 20
74.08898490119064
 30
0.0
 10
10.87227379793125
 20
74.0417384359674
 30
0.0
 10
10.752174878912
 20
74.00278821648037
 30
0.0
 10
10.66732642203733
 20
73.9092508633312
 30
0.0
 10
10.64499943139113
 20
73.85041680549818
 30
0.0
 10
10.51321516629703
 20
73.3217035552176
 30
0.0
 10
10.62587397900513
 20
72.23419480459093
 30
0.0
 10
10.79437099378765
 20
71.16377136980442
 30
0.0
 10
11.0063938035206
 20
70.09947254026102
 30
0.0
 10
11.23317440013232
 20
69.03861636952404
 30
0.0
 10
11.45796082814693
 20
67.97728082857128
 30
0.0
 10
11.68057565141173
 20
66.91549699410115
 30
0.0
 10
11.90053822724758
 20
65.85315884201316
 30
0.0
 10
12.11748886187474
 20
64.79020139008671
 30
0.0
 10
12.33108796507413
 20
63.72656531289259
 30
0.0
 10
12.54080746768395
 20
62.6621573320929
 30
0.0
 10
12.74642522825588
 20
61.59694851596977
 30
0.0
 10
12.94917152109737
 20
60.53119557730678
 30
0.0
 10
13.15089823421359
 20
59.46521924564029
 30
0.0
 10
13.35238172798393
 20
58.39937283098448
 30
0.0
 10
13.55953422257388
 20
57.33357516933075
 30
0.0
 10
13.74744619445784
 20
56.27012650112041
 30
0.0
 10
13.78339228279041
 20
55.1517886262673
 30
0.0
 10
13.4052884875355
 20
54.72519583272835
 30
0.0
  0
SPLINE
  5
94
330
1F
100
AcDbEntity
  8
1
370
    -3
100
AcDbSpline
210
0.0
220
0.0
230
1.0
 70
    11
 71
     2
 72
    44
 73
    41
 74
     0
 42
0.000000001
 43
0.0000000001
 40
-18.0
 40
-18.0
 40
-18.0
 40
-16.99999997950657
 40
-15.99999995901315
 40
-14.99999993851972
 40
-13.9999999180263
 40
-12.99999989753287
 40
-11.99999987703944
 40
-10.99999985654602
 40
-9.999999836052593
 40
-8.999999815559168
 40
-7.999999795065741
 40
-6.999999774572315
 40
-5.99999975407889
 40
-4.999999733585464
 40
-3.999999713092038
 40
-2.999999692598612
 40
-1.999999672105186
 40
-0.9999996516117604
 40
0.0
 40
0.0
 40
0.9999996516117604
 40
1.999999672105186
 40
2.999999692598612
 40
3.999999713092038
 40
4.999999733585464
 40
5.99999975407889
 40
6.999999774572315
 40
7.999999795065741
 40
8.999999815559168
 40
9.999999836052593
 40
10.99999985654602
 40
11.99999987703944
 40
12.99999989753287
 40
13.9999999180263
 40
14.99999993851972
 40
15.99999995901315
 40
16.99999997950657
 40
18.0
 40
18.0
 40
32.67188153262983
 40
32.67188153262983
 40
32.67188153262983
 10
7.335940766314914
 20
69.38275207246328
 30
0.0
 10
7.630747161511963
 20
68.67288738594544
 30
0.0
 10
8.078460076004713
 20
67.19748846702396
 30
0.0
 10
8.363812223598394
 20
65.68199735435063
 30
0.0
 10
8.63438843844989
 20
64.16472807982565
 30
0.0
 10
8.908863043176972
 20
62.64799658341875
 30
0.0
 10
9.203285637039746
 20
61.13503360194922
 30
0.0
 10
9.49590618246592
 20
59.62171483716542
 30
0.0
 10
9.773174050379124
 20
58.10556115452985
 30
0.0
 10
10.04323739968318
 20
56.58786473741596
 30
0.0
 10
10.275477863686
 20
55.06487108962342
 30
0.0
 10
10.42315295772911
 20
53.52451335089597
 30
0.0
 10
9.92924871720886
 20
51.53836093101484
 30
0.0
 10
8.423807026263459
 20
50.9818402079267
 30
0.0
 10
6.9112469463553
 20
50.72505301597904
 30
0.0
 10
5.383644239758406
 20
50.50974952374516
 30
0.0
 10
3.849868622600026
 20
50.35727931038229
 30
0.0
 10
2.311474577274638
 20
50.25922434963503
 30
0.0
 10
0.7707272214650218
 20
50.21234792126735
 30
0.0
 10
0.0
 20
50.2125020483628
 30
0.0
 10
-0.7707272214650218
 20
50.21234792126735
 30
0.0
 10
-2.311474577274638
 20
50.25922434963503
 30
0.0
 10
-3.849868622600026
 20
50.35727931038229
 30
0.0
 10
-5.383644239758406
 20
50.50974952374516
 30
0.0
 10
-6.9112469463553
 20
50.72505301597904
 30
0.0
 10
-8.423807026263459
 20
50.9818402079267
 30
0.0
 10
-9.92924871720886
 20
51.53836093101484
 30
0.0
 10
-10.42315295772911
 20
53.52451335089597
 30
0.0
 10
-10.275477863686
 20
55.06487108962342
 30
0.0
 10
-10.04323739968318
 20
56.58786473741596
 30
0.0
 10
-9.773174050379124
 20
58.10556115452985
 30
0.0
 10
-9.49590618246592
 20
59.62171483716542
 30
0.0
 10
-9.203285637039746
 20
61.13503360194922
 30
0.0
 10
-8.908863043176972
 20
62.64799658341875
 30
0.0
 10
-8.63438843844989
 20
64.16472807982565
 30
0.0
 10
-8.363812223598394
 20
65.68199735435063
 30
0.0
 10
-8.078460076004713
 20
67.19748846702396
 30
0.0
 10
-7.630747161511963
 20
68.67288738594544
 30
0.0
 10
-7.335940766314914
 20
69.38275207246328
 30
0.0
 10
0.0
 20
69.38275207246328
 30
0.0
 10
7.335940766314914
 20
69.38275207246328
 30
0.0
  0
SPLINE
  5
95
330
1F
100
AcDbEntity
  8
1
370
    -3
100
AcDbSpline
210
0.0
220
0.0
230
1.0
 70
    11
 71
     2
 72
    15
 73
    12
 74
     0
 42
0.000000001
 43
0.0000000001
 40
0.0
 40
0.0
 40
0.0
 40
1.0
 40
2.0
 40
3.0
 40
4.0
 40
5.0
 40
6.0
 40
7.0
 40
8.0
 40
8.0
 40
8.624999999999947
 40
8.624999999999947
 40
8.624999999999947
 10
56.71960475532028
 20
0.2443424587421495
 30
0.0
 10
56.74314064137421
 20
0.1974832167081407
 30
0.0
 10
56.80863326885194
 20
0.115499172316746
 30
0.0
 10
56.88962933077737
 20
0.0491840349327896
 30
0.0
 10
56.98312171212098
 20
-0.0005762853858886
 30
0.0
 10
57.09001172931971
 20
0.0013563858995007
 30
0.0
 10
57.1816441674853
 20
0.054463939968698
 30
0.0
 10
57.26018998907691
 20
0.1236637431584983
 30
0.0
 10
57.32267607967369
 20
0.2079617617214229
 30
0.0
 10
57.34450261774498
 20
0.2556411992458408
 30
0.0
 10
57.03205368653263
 20
0.2499918289939951
 30
0.0
 10
56.71960475532028
 20
0.2443424587421495
 30
0.0
  0
SPLINE
  5
96
330
1F
100
AcDbEntity
  8
1
370
    -3
100
AcDbSpline
210
0.0
220
0.0
230
1.0
 70
    11
 71
     2
 72
    15
 73
    12
 74
     0
 42
0.000000001
 43
0.0000000001
 40
0.0
 40
0.0
 40
0.0
 40
1.0
 40
2.0
 40
3.0
 40
4.0
 40
5.0
 40
6.0
 40
7.0
 40
8.0
 40
8.0
 40
8.624999999999947
 40
8.624999999999947
 40
8.624999999999947
 10
32.52127216382947
 20
0.2448854585620705
 30
0.0
 10
32.54480804988342
 20
0.198026216528058
 30
0.0
 10
32.61030067736107
 20
0.1160421721366784
 30
0.0
 10
32.69129673928681
 20
0.0497270347526278
 30
0.0
 10
32.78478912062891
 20
-0.0000332855656484
 30
0.0
 10
32.89167913782907
 20
0.001899385719352
 30
0.0
 10
32.98331157599446
 20
0.0550069397886315
 30
0.0
 10
33.06185739758609
 20
0.1242067429784236
 30
0.0
 10
33.12434348818289
 20
0.2085047615413457
 30
0.0
 10
33.14617002625418
 20
0.2561841990657618
 30
0.0
 10
32.83372109504182
 20
0.2505348288139161
 30
0.0
 10
32.52127216382947
 20
0.2448854585620705
 30
0.0
  0
SPLINE
  5
97
330
1F
100
AcDbEntity
  8
1
370
    -3
100
AcDbSpline
210
0.0
220
0.0
230
1.0
 70
    15
 71
     2
 72
    34
 73
    31
 74
     0
 42
0.000000001
 43
0.0000000001
 40
0.0
 40
0.0
 40
0.0
 40
0.4467191490196641
 40
0.4467191490196641
 40
5.708189523607665
 40
5.708189523607665
 40
6.154908672627329
 40
6.154908672627329
 40
12.75655474568465
 40
12.75655474568465
 40
15.32960684976282
 40
15.32960684976282
 40
17.85959807095403
 40
17.85959807095403
 40
18.91617927894558
 40
18.91617927894558
 40
19.8493152194114
 40
19.8493152194114
 40
26.486579001223
 40
26.486579001223
 40
33.12384278303459
 40
33.12384278303459
 40
34.05697872350041
 40
34.05697872350041
 40
35.11355993149196
 40
35.11355993149196
 40
37.64355115268317
 40
37.64355115268317
 40
40.21660325676135
 40
40.21660325676135
 40
46.81824932981867
 40
46.81824932981867
 40
46.81824932981867
 10
-2.864202985856332
 20
9.596781378547337
 30
0.0
 41
0.970853374236359
 10
-2.710798206626084
 20
9.615915016008053
 30
0.0
 41
0.887820311012804
 10
-2.630735187294
 20
9.815200622982255
 30
0.0
 41
1.0
 10
0.0
 20
9.815200622982255
 30
0.0
 41
1.0
 10
2.630735187294
 20
9.815200622982255
 30
0.0
 41
1.0
 10
2.710798206626084
 20
9.615915016008053
 30
0.0
 41
0.887820311012804
 10
2.864202985856332
 20
9.596781378547337
 30
0.0
 41
0.970853374236359
 10
6.155192347507818
 20
9.851382517537399
 30
0.0
 41
0.970853374236359
 10
9.446181709159303
 20
10.10598365652746
 30
0.0
 41
0.970853374236359
 10
9.620055604465746
 20
8.831261274553162
 30
0.0
 41
0.970853374236359
 10
9.793929499772188
 20
7.55653889257886
 30
0.0
 41
0.970853374236359
 10
8.532879665126075
 20
7.456702980377117
 30
0.0
 41
0.970853374236359
 10
7.271829830479961
 20
7.356867068175374
 30
0.0
 41
0.970853374236359
 10
7.410371997637561
 20
6.847066097021438
 30
0.0
 41
0.970853374236359
 10
7.548914164795163
 20
6.337265125867501
 30
0.0
 41
0.970853374236359
 10
7.083139529156679
 20
6.310068441453809
 30
0.0
 41
0.970853374236359
 10
6.617364893518195
 20
6.282871757040118
 30
0.0
 41
0.970853374236359
 10
3.308682446759097
 20
6.539655895656979
 30
0.0
 41
0.970853374236359
 10
0.0
 20
6.796440034273842
 30
0.0
 41
0.970853374236359
 10
-3.308682446759097
 20
6.539655895656979
 30
0.0
 41
0.970853374236359
 10
-6.617364893518195
 20
6.282871757040118
 30
0.0
 41
0.970853374236359
 10
-7.083139529156679
 20
6.310068441453809
 30
0.0
 41
0.970853374236359
 10
-7.548914164795163
 20
6.337265125867501
 30
0.0
 41
0.970853374236359
 10
-7.410371997637561
 20
6.847066097021438
 30
0.0
 41
0.970853374236359
 10
-7.271829830479961
 20
7.356867068175374
 30
0.0
 41
0.970853374236359
 10
-8.532879665126075
 20
7.456702980377117
 30
0.0
 41
0.970853374236359
 10
-9.793929499772188
 20
7.55653889257886
 30
0.0
 41
0.970853374236359
 10
-9.620055604465746
 20
8.831261274553162
 30
0.0
 41
0.970853374236359
 10
-9.446181709159303
 20
10.10598365652746
 30
0.0
 41
0.970853374236359
 10
-6.155192347507818
 20
9.851382517537399
 30
0.0
 41
0.970853374236359
 10
-2.864202985856332
 20
9.596781378547337
 30
0.0
 41
0.970853374236359
  0
SPLINE
  5
98
330
1F
100
AcDbEntity
  8
1
370
    -3
100
AcDbSpline
210
0.0
220
0.0
230
1.0
 70
    11
 71
     2
 72
    13
 73
    10
 74
     0
 42
0.000000001
 43
0.0000000001
 40
0.0
 40
0.0
 40
0.0
 40
1.0
 40
2.0
 40
3.0
 40
4.0
 40
5.0
 40
6.0
 40
6.0
 40
6.625
 40
6.625
 40
6.625
 10
8.582535833662
 20
0.2505021620255548
 30
0.0
 10
8.612864316519545
 20
0.1871298692645397
 30
0.0
 10
8.706103840625666
 20
0.0832203523003203
 30
0.0
 10
8.823592455516904
 20
0.0024580028882595
 30
0.0
 10
8.966479214878495
 20
0.0024580044568348
 30
0.0
 10
9.08396782627026
 20
0.0832203521084907
 30
0.0
 10
9.177207350959552
 20
0.1871298694074542
 30
0.0
 10
9.207535833662
 20
0.2505021620255548
 30
0.0
 10
8.895035833662
 20
0.2505021620255548
 30
0.0
 10
8.582535833662
 20
0.2505021620255548
 30
0.0
  0
POLYLINE
  5
99
330
1F
100
AcDbEntity
  8
1
370
    -3
100
AcDb2dPolyline
 66
     1
 10
0.0
 20
0.0
 30
0.0
  0
VERTEX
  5
9A
330
99
100
AcDbEntity
  8
1
370
    -3
100
AcDbVertex
100
AcDb2dVertex
 10
-7.271526364601692
 20
7.360777248259031
 30
0.0
  0
VERTEX
  5
9B
330
99
100
AcDbEntity
  8
1
370
    -3
100
AcDbVertex
100
AcDb2dVertex
 10
-0.8162059076557551
 20
6.859785107215826
 30
0.0
  0
VERTEX
  5
9C
330
99
100
AcDbEntity
  8
1
370
    -3
100
AcDbVertex
100
AcDb2dVertex
 10
-7.548914164795162
 20
6.3372651258675
 30
0.0
  0
SEQEND
  5
9D
330
99
100
AcDbEntity
  8
1
370
    -3
  0
SPLINE
  5
9E
330
1F
100
AcDbEntity
  8
1
370
    -3
100
AcDbSpline
210
0.0
220
0.0
230
1.0
 70
    11
 71
     3
 72
    31
 73
    27
 74
     0
 42
0.000000001
 43
0.0000000001
 40
-1.576823642771328
 40
-1.576823642771328
 40
-1.576823642771328
 40
-1.576823642771328
 40
-1.381837382926617
 40
-1.1521829939297
 40
-0.9225286049327833
 40
-0.8077014104343248
 40
-0.6928742159358663
 40
-0.6928742159358663
 40
-0.6928742159358663
 40
0.7761257840641338
 40
0.7761257840641338
 40
0.7761257840641338
 40
12.47876231590413
 40
12.47876231590413
 40
12.47876231590413
 40
13.94776231590413
 40
13.94776231590413
 40
13.94776231590413
 40
14.06258951040259
 40
14.17741670490105
 40
14.40707109389797
 40
14.63672548289489
 40
14.8317117427396
 40
14.8317117427396
 40
14.8317117427396
 40
25.74989957213835
 40
25.74989957213835
 40
25.74989957213835
 40
25.74989957213835
 10
-5.459093914699332
 20
9.344676895194727
 30
0.0
 10
-5.509154715576779
 20
9.344927793887894
 30
0.0
 10
-5.604183373682611
 20
9.322587977072146
 30
0.0
 10
-5.721830307734001
 20
9.241261909214272
 30
0.0
 10
-5.79956876238
 20
9.12834113894697
 30
0.0
 10
-5.840775275067001
 20
9.003799549218371
 30
0.0
 10
-5.85131826592
 20
8.92513021269743
 30
0.0
 10
-5.85131826592
 20
8.877202845026616
 30
0.0
 10
-5.85131826592
 20
8.38857558383003
 30
0.0
 10
-5.85131826592
 20
7.899948322633445
 30
0.0
 10
-5.85131826592
 20
7.411321061436858
 30
0.0
 10
-1.950439421973334
 20
7.411321061436858
 30
0.0
 10
1.950439421973333
 20
7.411321061436858
 30
0.0
 10
5.851318265919999
 20
7.411321061436858
 30
0.0
 10
5.85131826592
 20
7.899948322633445
 30
0.0
 10
5.85131826592
 20
8.38857558383003
 30
0.0
 10
5.85131826592
 20
8.877202845026616
 30
0.0
 10
5.85131826592
 20
8.92513021269743
 30
0.0
 10
5.840775275067001
 20
9.003799549218371
 30
0.0
 10
5.79956876238
 20
9.12834113894697
 30
0.0
 10
5.721830307734001
 20
9.241261909214272
 30
0.0
 10
5.604183373682611
 20
9.322587977072146
 30
0.0
 10
5.509154715576779
 20
9.344927793887894
 30
0.0
 10
5.459093914699375
 20
9.344676895194727
 30
0.0
 10
1.819697971566473
 20
9.344676895194727
 30
0.0
 10
-1.819697971566429
 20
9.344676895194727
 30
0.0
 10
-5.459093914699332
 20
9.344676895194727
 30
0.0
  0
POLYLINE
  5
9F
330
1F
100
AcDbEntity
  8
1
370
    -3
100
AcDb2dPolyline
 66
     1
 10
0.0
 20
0.0
 30
0.0
  0
VERTEX
  5
A0
330
9F
100
AcDbEntity
  8
1
370
    -3
100
AcDbVertex
100
AcDb2dVertex
 10
7.271526364601692
 20
7.360777248259031
 30
0.0
  0
VERTEX
  5
A1
330
9F
100
AcDbEntity
  8
1
370
    -3
100
AcDbVertex
100
AcDb2dVertex
 10
0.8162059076557551
 20
6.859785107215826
 30
0.0
  0
VERTEX
  5
A2
330
9F
100
AcDbEntity
  8
1
370
    -3
100
AcDbVertex
100
AcDb2dVertex
 10
7.548914164795162
 20
6.3372651258675
 30
0.0
  0
SEQEND
  5
A3
330
9F
100
AcDbEntity
  8
1
370
    -3
  0
ENDSEC
  0
SECTION
  2
OBJECTS
  0
DICTIONARY
  5
C
330
0
100
AcDbDictionary
281
     1
  3
ACAD_DETAILVIEWSTYLE
350
DF
  3
ACAD_GROUP
350
D
  3
ACAD_LAYOUT
350
1A
  3
ACAD_MATERIAL
350
43
  3
ACAD_MLEADERSTYLE
350
6B
  3
ACAD_MLINESTYLE
350
17
  3
ACAD_PLOTSETTINGS
350
19
  3
ACAD_PLOTSTYLENAME
350
E
  3
ACAD_SCALELIST
350
47
  3
ACAD_SECTIONVIEWSTYLE
350
E0
  3
ACAD_TABLESTYLE
350
69
  3
ACAD_VISUALSTYLE
350
2A
  3
ACDB_RECOMPOSE_DATA
350
DC
  3
AcDbVariableDictionary
350
A4
  0
SUN
  5
6D
330
29
100
AcDbSun
 90
        1
290
     0
 63
     7
421
 16777215
 40
1.0
291
     1
 91
  2455826
 92
 54000000
292
     0
 70
     2
 71
   256
280
     1
  0
DICTIONARY
  5
DF
102
{ACAD_REACTORS
330
C
102
}
330
C
100
AcDbDictionary
281
     1
  0
DICTIONARY
  5
D
102
{ACAD_REACTORS
330
C
102
}
330
C
100
AcDbDictionary
281
     1
  0
DICTIONARY
  5
1A
102
{ACAD_REACTORS
330
C
102
}
330
C
100
AcDbDictionary
281
     1
  3
Layout1
350
1E
  3
Layout2
350
26
  3
Model
350
22
  0
DICTIONARY
  5
43
102
{ACAD_REACTORS
330
C
102
}
330
C
100
AcDbDictionary
281
     1
  3
ByBlock
350
45
  3
ByLayer
350
44
  3
Global
350
46
  0
DICTIONARY
  5
6B
102
{ACAD_REACTORS
330
C
102
}
330
C
100
AcDbDictionary
281
     1
  3
Standard
350
6C
  0
DICTIONARY
  5
17
102
{ACAD_REACTORS
330
C
102
}
330
C
100
AcDbDictionary
281
     1
  3
Standard
350
18
  0
DICTIONARY
  5
19
102
{ACAD_REACTORS
330
C
102
}
330
C
100
AcDbDictionary
281
     1
  0
ACDBDICTIONARYWDFLT
  5
E
102
{ACAD_REACTORS
330
C
102
}
330
C
100
AcDbDictionary
281
     1
  3
Normal
350
F
100
AcDbDictionaryWithDefault
340
F
  0
DICTIONARY
  5
47
102
{ACAD_REACTORS
330
C
102
}
330
C
100
AcDbDictionary
281
     1
  3
A0
350
48
  3
A1
350
49
  3
A2
350
4A
  3
A3
350
4B
  3
A4
350
4C
  3
A5
350
4D
  3
A6
350
4E
  3
A7
350
4F
  3
A8
350
50
  3
A9
350
51
  3
B0
350
52
  3
B1
350
53
  3
B2
350
54
  3
B3
350
55
  3
B4
350
56
  3
B5
350
57
  3
B6
350
58
  3
B7
350
59
  3
B8
350
5A
  3
B9
350
5B
  3
C0
350
5C
  3
C1
350
5D
  3
C2
350
5E
  3
C3
350
5F
  3
C4
350
60
  3
C5
350
61
  3
C6
350
62
  3
C7
350
63
  3
C8
350
64
  3
C9
350
65
  3
D0
350
66
  3
D1
350
67
  3
D2
350
68
  0
DICTIONARY
  5
E0
102
{ACAD_REACTORS
330
C
102
}
330
C
100
AcDbDictionary
281
     1
  0
DICTIONARY
  5
69
102
{ACAD_REACTORS
330
C
102
}
330
C
100
AcDbDictionary
281
     1
  3
Standard
350
6A
  0
DICTIONARY
  5
2A
102
{ACAD_REACTORS
330
C
102
}
330
C
100
AcDbDictionary
281
     1
  3
2dWireframe
350
2F
  3
Basic
350
32
  3
Brighten
350
36
  3
ColorChange
350
3A
  3
Conceptual
350
34
  3
Dim
350
35
  3
EdgeColorOff
350
3D
  3
Facepattern
350
39
  3
Flat
350
2B
  3
FlatWithEdges
350
2C
  3
Gouraud
350
2D
  3
GouraudWithEdges
350
2E
  3
Hidden
350
31
  3
JitterOff
350
3B
  3
Linepattern
350
38
  3
OverhangOff
350
3C
  3
Realistic
350
33
  3
Shaded
350
42
  3
Shaded with edges
350
41
  3
Shades of Gray
350
3E
  3
Sketchy
350
3F
  3
Thicken
350
37
  3
Wireframe
350
30
  3
X-Ray
350
40
  0
XRECORD
  5
DC
102
{ACAD_REACTORS
330
C
102
}
330
C
100
AcDbXrecord
280
     1
 90
        1
330
6A
  0
DICTIONARY
  5
A4
102
{ACAD_REACTORS
330
C
102
}
330
C
100
AcDbDictionary
281
     1
  3
CANNOSCALE
350
A5
  3
CMLEADERSTYLE
350
DE
  3
CTABLESTYLE
350
DD
  3
XCLIPFRAME
350
A6
  0
LAYOUT
  5
1E
102
{ACAD_REACTORS
330
1A
102
}
330
1A
100
AcDbPlotSettings
  1

  2
none_device
  4

  6

 40
0.0
 41
0.0
 42
0.0
 43
0.0
 44
0.0
 45
0.0
 46
0.0
 47
0.0
 48
0.0
 49
0.0
140
0.0
141
0.0
142
1.0
143
1.0
 70
   688
 72
     0
 73
     0
 74
     5
  7

 75
    16
 76
     0
 77
     2
 78
   300
147
1.0
148
0.0
149
0.0
100
AcDbLayout
  1
Layout1
 70
     1
 71
     1
 10
0.0
 20
0.0
 11
12.0
 21
9.0
 12
0.0
 22
0.0
 32
0.0
 14
1.000000000000000E+20
 24
1.000000000000000E+20
 34
1.000000000000000E+20
 15
-1.000000000000000E+20
 25
-1.000000000000000E+20
 35
-1.000000000000000E+20
146
0.0
 13
0.0
 23
0.0
 33
0.0
 16
1.0
 26
0.0
 36
0.0
 17
0.0
 27
1.0
 37
0.0
 76
     0
330
1B
  0
LAYOUT
  5
26
102
{ACAD_REACTORS
330
1A
102
}
330
1A
100
AcDbPlotSettings
  1

  2
none_device
  4

  6

 40
0.0
 41
0.0
 42
0.0
 43
0.0
 44
0.0
 45
0.0
 46
0.0
 47
0.0
 48
0.0
 49
0.0
140
0.0
141
0.0
142
1.0
143
1.0
 70
   688
 72
     0
 73
     0
 74
     5
  7

 75
    16
 76
     0
 77
     2
 78
   300
147
1.0
148
0.0
149
0.0
100
AcDbLayout
  1
Layout2
 70
     1
 71
     2
 10
0.0
 20
0.0
 11
0.0
 21
0.0
 12
0.0
 22
0.0
 32
0.0
 14
0.0
 24
0.0
 34
0.0
 15
0.0
 25
0.0
 35
0.0
146
0.0
 13
0.0
 23
0.0
 33
0.0
 16
1.0
 26
0.0
 36
0.0
 17
0.0
 27
1.0
 37
0.0
 76
     0
330
23
  0
LAYOUT
  5
22
102
{ACAD_REACTORS
330
1A
102
}
330
1A
100
AcDbPlotSettings
  1

  2
none_device
  4
Letter_(8.50_x_11.00_Inches)
  6

 40
6.35
 41
6.35
 42
6.35000508
 43
6.35000508
 44
215.9
 45
279.4
 46
0.0
 47
0.0
 48
0.0
 49
0.0
140
0.0
141
0.0
142
1.0
143
1.0
 70
  1712
 72
     0
 73
     0
 74
     0
  7

 75
     0
 76
     0
 77
     2
 78
   300
147
1.0
148
0.0
149
0.0
100
AcDbLayout
  1
Model
 70
     1
 71
     0
 10
0.0
 20
0.0
 11
12.0
 21
9.0
 12
0.0
 22
0.0
 32
0.0
 14
1.000000000000000E+20
 24
1.000000000000000E+20
 34
1.000000000000000E+20
 15
-1.000000000000000E+20
 25
-1.000000000000000E+20
 35
-1.000000000000000E+20
146
0.0
 13
0.0
 23
0.0
 33
0.0
 16
1.0
 26
0.0
 36
0.0
 17
0.0
 27
1.0
 37
0.0
 76
     0
330
1F
331
29
  0
MATERIAL
  5
45
102
{ACAD_REACTORS
330
43
102
}
330
43
100
AcDbMaterial
  1
ByBlock
 72
     1
 94
      127
  0
MATERIAL
  5
44
102
{ACAD_REACTORS
330
43
102
}
330
43
100
AcDbMaterial
  1
ByLayer
 72
     1
 94
      127
  0
MATERIAL
  5
46
102
{ACAD_REACTORS
330
43
102
}
330
43
100
AcDbMaterial
  1
Global
 72
     1
 94
      127
  0
MLEADERSTYLE
  5
6C
102
{ACAD_REACTORS
330
6B
102
}
102
{ACAD_XDICTIONARY
360
DA
102
}
330
6B
100
AcDbMLeaderStyle
170
     2
171
     1
172
     0
 90
        2
 40
0.0
 41
0.0
173
     1
 91
-1056964608
340
14
 92
       -2
290
     1
 42
0.09
291
     1
 43
0.36
  3
Standard
341
0
 44
0.18
300

342
11
174
     1
178
     6
175
     1
176
     0
 93
-1056964608
 45
0.18
292
     0
297
     0
 46
0.18
343
0
 94
-1056964608
 47
1.0
 49
1.0
140
1.0
293
     1
141
0.0
294
     1
177
     0
142
1.0
295
     0
296
     0
143
0.125
1001
ACAD_MLEADERVER
1070
     2
  0
MLINESTYLE
  5
18
102
{ACAD_REACTORS
330
17
102
}
330
17
100
AcDbMlineStyle
  2
Standard
 70
     0
  3

 62
   256
 51
90.0
 52
90.0
 71
     2
 49
0.5
 62
   256
  6
BYLAYER
 49
-0.5
 62
   256
  6
BYLAYER
  0
ACDBPLACEHOLDER
  5
F
102
{ACAD_REACTORS
330
E
102
}
330
E
  0
SCALE
  5
48
102
{ACAD_REACTORS
330
47
102
}
330
47
100
AcDbScale
 70
     0
300
1:1
140
1.0
141
1.0
290
     1
  0
SCALE
  5
49
102
{ACAD_REACTORS
330
47
102
}
330
47
100
AcDbScale
 70
     0
300
1:2
140
1.0
141
2.0
290
     0
  0
SCALE
  5
4A
102
{ACAD_REACTORS
330
47
102
}
330
47
100
AcDbScale
 70
     0
300
1:4
140
1.0
141
4.0
290
     0
  0
SCALE
  5
4B
102
{ACAD_REACTORS
330
47
102
}
330
47
100
AcDbScale
 70
     0
300
1:5
140
1.0
141
5.0
290
     0
  0
SCALE
  5
4C
102
{ACAD_REACTORS
330
47
102
}
330
47
100
AcDbScale
 70
     0
300
1:8
140
1.0
141
8.0
290
     0
  0
SCALE
  5
4D
102
{ACAD_REACTORS
330
47
102
}
330
47
100
AcDbScale
 70
     0
300
1:10
140
1.0
141
10.0
290
     0
  0
SCALE
  5
4E
102
{ACAD_REACTORS
330
47
102
}
330
47
100
AcDbScale
 70
     0
300
1:16
140
1.0
141
16.0
290
     0
  0
SCALE
  5
4F
102
{ACAD_REACTORS
330
47
102
}
330
47
100
AcDbScale
 70
     0
300
1:20
140
1.0
141
20.0
290
     0
  0
SCALE
  5
50
102
{ACAD_REACTORS
330
47
102
}
330
47
100
AcDbScale
 70
     0
300
1:30
140
1.0
141
30.0
290
     0
  0
SCALE
  5
51
102
{ACAD_REACTORS
330
47
102
}
330
47
100
AcDbScale
 70
     0
300
1:40
140
1.0
141
40.0
290
     0
  0
SCALE
  5
52
102
{ACAD_REACTORS
330
47
102
}
330
47
100
AcDbScale
 70
     0
300
1:50
140
1.0
141
50.0
290
     0
  0
SCALE
  5
53
102
{ACAD_REACTORS
330
47
102
}
330
47
100
AcDbScale
 70
     0
300
1:100
140
1.0
141
100.0
290
     0
  0
SCALE
  5
54
102
{ACAD_REACTORS
330
47
102
}
330
47
100
AcDbScale
 70
     0
300
2:1
140
2.0
141
1.0
290
     0
  0
SCALE
  5
55
102
{ACAD_REACTORS
330
47
102
}
330
47
100
AcDbScale
 70
     0
300
4:1
140
4.0
141
1.0
290
     0
  0
SCALE
  5
56
102
{ACAD_REACTORS
330
47
102
}
330
47
100
AcDbScale
 70
     0
300
8:1
140
8.0
141
1.0
290
     0
  0
SCALE
  5
57
102
{ACAD_REACTORS
330
47
102
}
330
47
100
AcDbScale
 70
     0
300
10:1
140
10.0
141
1.0
290
     0
  0
SCALE
  5
58
102
{ACAD_REACTORS
330
47
102
}
330
47
100
AcDbScale
 70
     0
300
100:1
140
100.0
141
1.0
290
     0
  0
SCALE
  5
59
102
{ACAD_REACTORS
330
47
102
}
330
47
100
AcDbScale
 70
     0
300
1/128" = 1'-0"
140
0.0078125
141
12.0
290
     0
  0
SCALE
  5
5A
102
{ACAD_REACTORS
330
47
102
}
330
47
100
AcDbScale
 70
     0
300
1/64" = 1'-0"
140
0.015625
141
12.0
290
     0
  0
SCALE
  5
5B
102
{ACAD_REACTORS
330
47
102
}
330
47
100
AcDbScale
 70
     0
300
1/32" = 1'-0"
140
0.03125
141
12.0
290
     0
  0
SCALE
  5
5C
102
{ACAD_REACTORS
330
47
102
}
330
47
100
AcDbScale
 70
     0
300
1/16" = 1'-0"
140
0.0625
141
12.0
290
     0
  0
SCALE
  5
5D
102
{ACAD_REACTORS
330
47
102
}
330
47
100
AcDbScale
 70
     0
300
3/32" = 1'-0"
140
0.09375
141
12.0
290
     0
  0
SCALE
  5
5E
102
{ACAD_REACTORS
330
47
102
}
330
47
100
AcDbScale
 70
     0
300
1/8" = 1'-0"
140
0.125
141
12.0
290
     0
  0
SCALE
  5
5F
102
{ACAD_REACTORS
330
47
102
}
330
47
100
AcDbScale
 70
     0
300
3/16" = 1'-0"
140
0.1875
141
12.0
290
     0
  0
SCALE
  5
60
102
{ACAD_REACTORS
330
47
102
}
330
47
100
AcDbScale
 70
     0
300
1/4" = 1'-0"
140
0.25
141
12.0
290
     0
  0
SCALE
  5
61
102
{ACAD_REACTORS
330
47
102
}
330
47
100
AcDbScale
 70
     0
300
3/8" = 1'-0"
140
0.375
141
12.0
290
     0
  0
SCALE
  5
62
102
{ACAD_REACTORS
330
47
102
}
330
47
100
AcDbScale
 70
     0
300
1/2" = 1'-0"
140
0.5
141
12.0
290
     0
  0
SCALE
  5
63
102
{ACAD_REACTORS
330
47
102
}
330
47
100
AcDbScale
 70
     0
300
3/4" = 1'-0"
140
0.75
141
12.0
290
     0
  0
SCALE
  5
64
102
{ACAD_REACTORS
330
47
102
}
330
47
100
AcDbScale
 70
     0
300
1" = 1'-0"
140
1.0
141
12.0
290
     0
  0
SCALE
  5
65
102
{ACAD_REACTORS
330
47
102
}
330
47
100
AcDbScale
 70
     0
300
1-1/2" = 1'-0"
140
1.5
141
12.0
290
     0
  0
SCALE
  5
66
102
{ACAD_REACTORS
330
47
102
}
330
47
100
AcDbScale
 70
     0
300
3" = 1'-0"
140
3.0
141
12.0
290
     0
  0
SCALE
  5
67
102
{ACAD_REACTORS
330
47
102
}
330
47
100
AcDbScale
 70
     0
300
6" = 1'-0"
140
6.0
141
12.0
290
     0
  0
SCALE
  5
68
102
{ACAD_REACTORS
330
47
102
}
330
47
100
AcDbScale
 70
     0
300
1'-0" = 1'-0"
140
12.0
141
12.0
290
     0
  0
TABLESTYLE
  5
6A
102
{ACAD_REACTORS
330
69
102
}
102
{ACAD_XDICTIONARY
360
D7
102
}
330
69
100
AcDbTableStyle
  3
Standard
 70
     0
 71
     0
 40
0.06
 41
0.06
280
     0
281
     0
  7
Standard
140
0.18
170
     2
 62
     0
 63
   257
283
     0
 90
        4
 91
        0
  1

274
    -2
284
     1
 64
     0
275
    -2
285
     1
 65
     0
276
    -2
286
     1
 66
     0
277
    -2
287
     1
 67
     0
278
    -2
288
     1
 68
     0
279
    -2
289
     1
 69
     0
  7
Standard
140
0.25
170
     5
 62
     0
 63
   257
283
     0
 90
        4
 91
        0
  1

274
    -2
284
     1
 64
     0
275
    -2
285
     1
 65
     0
276
    -2
286
     1
 66
     0
277
    -2
287
     1
 67
     0
278
    -2
288
     1
 68
     0
279
    -2
289
     1
 69
     0
  7
Standard
140
0.18
170
     5
 62
     0
 63
   257
283
     0
 90
        4
 91
        0
  1

274
    -2
284
     1
 64
     0
275
    -2
285
     1
 65
     0
276
    -2
286
     1
 66
     0
277
    -2
287
     1
 67
     0
278
    -2
288
     1
 68
     0
279
    -2
289
     1
 69
     0
  0
VISUALSTYLE
  5
2F
102
{ACAD_REACTORS
330
2A
102
}
102
{ACAD_XDICTIONARY
360
AF
102
}
330
2A
100
AcDbVisualStyle
  2
2dWireframe
 70
     4
 71
     0
 72
     2
 73
     0
 90
        0
 40
0.6
 41
30.0
 62
     5
 63
     7
421
 16777215
 74
     1
 91
        4
 64
     7
 65
   257
 75
     1
175
     1
 42
1.0
 92
        0
 66
   257
 43
1.0
 76
     1
 77
     6
 78
     2
 67
     7
 79
     5
170
     0
171
     0
290
     0
174
     0
 93
        1
 44
0.0
173
     0
291
     0
 45
0.0
  0
VISUALSTYLE
  5
32
102
{ACAD_REACTORS
330
2A
102
}
102
{ACAD_XDICTIONARY
360
B5
102
}
330
2A
100
AcDbVisualStyle
  2
Basic
 70
     7
 71
     1
 72
     0
 73
     1
 90
        0
 40
0.6
 41
30.0
 62
     5
 63
     7
421
 16777215
 74
     0
 91
        4
 64
     7
 65
   257
 75
     1
175
     1
 42
1.0
 92
        8
 66
     7
 43
1.0
 76
     1
 77
     6
 78
     2
 67
     7
 79
     5
170
     0
171
     0
290
     0
174
     0
 93
        1
 44
0.0
173
     0
291
     1
 45
0.0
  0
VISUALSTYLE
  5
36
102
{ACAD_REACTORS
330
2A
102
}
102
{ACAD_XDICTIONARY
360
BD
102
}
330
2A
100
AcDbVisualStyle
  2
Brighten
 70
    12
 71
     2
 72
     2
 73
     0
 90
        0
 40
0.6
 41
30.0
 62
     5
 63
     7
421
 16777215
 74
     1
 91
        4
 64
     7
 65
   257
 75
     1
175
     1
 42
1.0
 92
        8
 66
     7
 43
1.0
 76
     1
 77
     6
 78
     2
 67
     7
 79
     5
170
     0
171
     0
290
     0
174
     0
 93
        1
 44
50.0
173
     0
291
     1
 45
0.0
  0
VISUALSTYLE
  5
3A
102
{ACAD_REACTORS
330
2A
102
}
102
{ACAD_XDICTIONARY
360
C5
102
}
330
2A
100
AcDbVisualStyle
  2
ColorChange
 70
    16
 71
     2
 72
     2
 73
     3
 90
        0
 40
0.6
 41
30.0
 62
     5
 63
     8
421
  8421504
 74
     1
 91
        4
 64
     7
 65
   257
 75
     1
175
     1
 42
1.0
 92
        8
 66
     8
424
  8421504
 43
1.0
 76
     1
 77
     6
 78
     2
 67
     7
 79
     5
170
     0
171
     0
290
     0
174
     0
 93
        1
 44
0.0
173
     0
291
     1
 45
0.0
  0
VISUALSTYLE
  5
34
102
{ACAD_REACTORS
330
2A
102
}
102
{ACAD_XDICTIONARY
360
B9
102
}
330
2A
100
AcDbVisualStyle
  2
Conceptual
 70
     9
 71
     3
 72
     2
 73
     0
 90
        0
 40
0.6
 41
30.0
 62
     5
 63
     7
421
 16777215
 74
     2
 91
        2
 64
     7
 65
   257
 75
     1
175
     1
 42
179.0
 92
        8
 66
     7
 43
1.0
 76
     1
 77
     6
 78
     2
 67
     7
 79
     3
170
     0
171
     0
290
     0
174
     0
 93
        1
 44
0.0
173
     0
291
     0
 45
0.0
  0
VISUALSTYLE
  5
35
102
{ACAD_REACTORS
330
2A
102
}
102
{ACAD_XDICTIONARY
360
BB
102
}
330
2A
100
AcDbVisualStyle
  2
Dim
 70
    11
 71
     2
 72
     2
 73
     0
 90
        0
 40
0.6
 41
30.0
 62
     5
 63
     7
421
 16777215
 74
     1
 91
        4
 64
     7
 65
   257
 75
     1
175
     1
 42
1.0
 92
        8
 66
     7
 43
1.0
 76
     1
 77
     6
 78
     2
 67
     7
 79
     5
170
     0
171
     0
290
     0
174
     0
 93
        1
 44
-50.0
173
     0
291
     1
 45
0.0
  0
VISUALSTYLE
  5
3D
102
{ACAD_REACTORS
330
2A
102
}
102
{ACAD_XDICTIONARY
360
CB
102
}
330
2A
100
AcDbVisualStyle
  2
EdgeColorOff
 70
    22
 71
     2
 72
     2
 73
     0
 90
        0
 40
0.6
 41
30.0
 62
     5
 63
     7
421
 16777215
 74
     1
 91
        4
 64
     7
 65
   257
 75
     1
175
     1
 42
1.0
 92
        8
 66
     7
 43
1.0
 76
     1
 77
     6
 78
     2
 67
     7
 79
     5
170
     0
171
     0
290
     0
174
     0
 93
        1
 44
0.0
173
     0
291
     1
 45
0.0
  0
VISUALSTYLE
  5
39
102
{ACAD_REACTORS
330
2A
102
}
102
{ACAD_XDICTIONARY
360
C3
102
}
330
2A
100
AcDbVisualStyle
  2
Facepattern
 70
    15
 71
     2
 72
     2
 73
     0
 90
        0
 40
0.6
 41
30.0
 62
     5
 63
     7
421
 16777215
 74
     1
 91
        4
 64
     7
 65
   257
 75
     1
175
     1
 42
1.0
 92
        8
 66
     7
 43
1.0
 76
     1
 77
     6
 78
     2
 67
     7
 79
     5
170
     0
171
     0
290
     0
174
     0
 93
        1
 44
0.0
173
     0
291
     1
 45
0.0
  0
VISUALSTYLE
  5
2B
102
{ACAD_REACTORS
330
2A
102
}
102
{ACAD_XDICTIONARY
360
A7
102
}
330
2A
100
AcDbVisualStyle
  2
Flat
 70
     0
 71
     2
 72
     1
 73
     1
 90
        2
 40
0.6
 41
30.0
 62
     5
 63
     7
421
 16777215
 74
     0
 91
        0
 64
     7
 65
   257
 75
     1
175
     1
 42
1.0
 92
        8
 66
     7
 43
1.0
 76
     1
 77
     6
 78
     2
 67
     7
 79
     5
170
     0
171
     0
290
     0
174
     0
 93
       13
 44
0.0
173
     0
291
     1
 45
0.0
  0
VISUALSTYLE
  5
2C
102
{ACAD_REACTORS
330
2A
102
}
102
{ACAD_XDICTIONARY
360
A9
102
}
330
2A
100
AcDbVisualStyle
  2
FlatWithEdges
 70
     1
 71
     2
 72
     1
 73
     1
 90
        2
 40
0.6
 41
30.0
 62
     5
 63
     7
421
 16777215
 74
     1
 91
        0
 64
     7
 65
   257
 75
     1
175
     1
 42
1.0
 92
        0
 66
   257
 43
1.0
 76
     1
 77
     6
 78
     2
 67
     7
 79
     5
170
     0
171
     0
290
     0
174
     0
 93
       13
 44
0.0
173
     0
291
     1
 45
0.0
  0
VISUALSTYLE
  5
2D
102
{ACAD_REACTORS
330
2A
102
}
102
{ACAD_XDICTIONARY
360
AB
102
}
330
2A
100
AcDbVisualStyle
  2
Gouraud
 70
     2
 71
     2
 72
     2
 73
     1
 90
        2
 40
0.6
 41
30.0
 62
     5
 63
     7
421
 16777215
 74
     0
 91
        0
 64
     7
 65
   257
 75
     1
175
     1
 42
1.0
 92
        0
 66
     7
 43
1.0
 76
     1
 77
     6
 78
     2
 67
     7
 79
     5
170
     0
171
     0
290
     0
174
     0
 93
       13
 44
0.0
173
     0
291
     1
 45
0.0
  0
VISUALSTYLE
  5
2E
102
{ACAD_REACTORS
330
2A
102
}
102
{ACAD_XDICTIONARY
360
AD
102
}
330
2A
100
AcDbVisualStyle
  2
GouraudWithEdges
 70
     3
 71
     2
 72
     2
 73
     1
 90
        2
 40
0.6
 41
30.0
 62
     5
 63
     7
421
 16777215
 74
     1
 91
        0
 64
     7
 65
   257
 75
     1
175
     1
 42
1.0
 92
        0
 66
   257
 43
1.0
 76
     1
 77
     6
 78
     2
 67
     7
 79
     5
170
     0
171
     0
290
     0
174
     0
 93
       13
 44
0.0
173
     0
291
     1
 45
0.0
  0
VISUALSTYLE
  5
31
102
{ACAD_REACTORS
330
2A
102
}
102
{ACAD_XDICTIONARY
360
B3
102
}
330
2A
100
AcDbVisualStyle
  2
Hidden
 70
     6
 71
     1
 72
     2
 73
     2
 90
        0
 40
0.6
 41
30.0
 62
     5
 63
     7
421
 16777215
 74
     2
 91
        2
 64
     7
 65
   257
 75
     2
175
     1
 42
40.0
 92
        0
 66
   257
 43
1.0
 76
     1
 77
     6
 78
     2
 67
     7
 79
     3
170
     0
171
     0
290
     0
174
     0
 93
        1
 44
0.0
173
     0
291
     0
 45
0.0
  0
VISUALSTYLE
  5
3B
102
{ACAD_REACTORS
330
2A
102
}
102
{ACAD_XDICTIONARY
360
C7
102
}
330
2A
100
AcDbVisualStyle
  2
JitterOff
 70
    20
 71
     2
 72
     2
 73
     0
 90
        0
 40
0.6
 41
30.0
 62
     5
 63
     7
421
 16777215
 74
     1
 91
        4
 64
     7
 65
   257
 75
     1
175
     1
 42
1.0
 92
       10
 66
     7
 43
1.0
 76
     1
 77
     6
 78
     2
 67
     7
 79
     5
170
     0
171
     0
290
     0
174
     0
 93
        1
 44
0.0
173
     0
291
     1
 45
0.0
  0
VISUALSTYLE
  5
38
102
{ACAD_REACTORS
330
2A
102
}
102
{ACAD_XDICTIONARY
360
C1
102
}
330
2A
100
AcDbVisualStyle
  2
Linepattern
 70
    14
 71
     2
 72
     2
 73
     0
 90
        0
 40
0.6
 41
30.0
 62
     5
 63
     7
421
 16777215
 74
     1
 91
        4
 64
     7
 65
   257
 75
     7
175
     7
 42
1.0
 92
        8
 66
     7
 43
1.0
 76
     1
 77
     6
 78
     2
 67
     7
 79
     5
170
     0
171
     0
290
     0
174
     0
 93
        1
 44
0.0
173
     0
291
     1
 45
0.0
  0
VISUALSTYLE
  5
3C
102
{ACAD_REACTORS
330
2A
102
}
102
{ACAD_XDICTIONARY
360
C9
102
}
330
2A
100
AcDbVisualStyle
  2
OverhangOff
 70
    21
 71
     2
 72
     2
 73
     0
 90
        0
 40
0.6
 41
30.0
 62
     5
 63
     7
421
 16777215
 74
     1
 91
        4
 64
     7
 65
   257
 75
     1
175
     1
 42
1.0
 92
        9
 66
     7
 43
1.0
 76
     1
 77
     6
 78
     2
 67
     7
 79
     5
170
     0
171
     0
290
     0
174
     0
 93
        1
 44
0.0
173
     0
291
     1
 45
0.0
  0
VISUALSTYLE
  5
33
102
{ACAD_REACTORS
330
2A
102
}
102
{ACAD_XDICTIONARY
360
B7
102
}
330
2A
100
AcDbVisualStyle
  2
Realistic
 70
     8
 71
     2
 72
     3
 73
     0
 90
        2
 40
0.6
 41
30.0
 62
     5
 63
     7
421
 16777215
 74
     0
 91
        0
 64
     7
 65
   257
 75
     1
175
     1
 42
1.0
 92
        8
 66
   257
 43
1.0
 76
     1
 77
     6
 78
     2
 67
     7
 79
     3
170
     0
171
     0
290
     0
174
     0
 93
       13
 44
0.0
173
     0
291
     0
 45
0.0
  0
VISUALSTYLE
  5
42
102
{ACAD_REACTORS
330
2A
102
}
102
{ACAD_XDICTIONARY
360
D5
102
}
330
2A
100
AcDbVisualStyle
  2
Shaded
 70
    27
 71
     2
 72
     2
 73
     1
 90
        2
 40
0.6
 41
30.0
 62
     5
 63
     7
421
 16777215
 74
     0
 91
        4
 64
     7
 65
   257
 75
     1
175
     1
 42
1.0
 92
        8
 66
   257
 43
1.0
 76
     1
 77
     6
 78
     2
 67
     8
425
  7895160
 79
     3
170
     0
171
     0
290
     0
174
     0
 93
        5
 44
0.0
173
     0
291
     0
 45
0.0
  0
VISUALSTYLE
  5
41
102
{ACAD_REACTORS
330
2A
102
}
102
{ACAD_XDICTIONARY
360
D3
102
}
330
2A
100
AcDbVisualStyle
  2
Shaded with edges
 70
    26
 71
     2
 72
     2
 73
     1
 90
        2
 40
0.6
 41
30.0
 62
     5
 63
     7
421
 16777215
 74
     1
 91
       10
 64
     7
 65
   257
 75
     2
175
     1
 42
1.0
 92
        8
 66
   257
 43
1.0
 76
     1
 77
     6
 78
     2
 67
     7
 79
     3
170
     0
171
     0
290
     0
174
     0
 93
        5
 44
0.0
173
     0
291
     0
 45
0.0
  0
VISUALSTYLE
  5
3E
102
{ACAD_REACTORS
330
2A
102
}
102
{ACAD_XDICTIONARY
360
CD
102
}
330
2A
100
AcDbVisualStyle
  2
Shades of Gray
 70
    23
 71
     2
 72
     2
 73
     3
 90
        0
 40
0.6
 41
30.0
 62
     5
 63
     7
421
 16777215
 74
     2
 91
        2
 64
     7
 65
     7
 75
     1
175
     1
 42
40.0
 92
        8
 66
     7
 43
1.0
 76
     1
 77
     6
 78
     2
 67
     7
 79
     3
170
     0
171
     0
290
     0
174
     0
 93
        1
 44
0.0
173
     0
291
     0
 45
0.0
  0
VISUALSTYLE
  5
3F
102
{ACAD_REACTORS
330
2A
102
}
102
{ACAD_XDICTIONARY
360
CF
102
}
330
2A
100
AcDbVisualStyle
  2
Sketchy
 70
    24
 71
     1
 72
     2
 73
     2
 90
        0
 40
0.6
 41
30.0
 62
     5
 63
     7
421
 16777215
 74
     2
 91
        2
 64
     7
 65
     7
 75
     1
175
     1
 42
40.0
 92
       11
 66
     7
 43
1.0
 76
     1
 77
     6
 78
     2
 67
     7
 79
     6
170
     0
171
     0
290
     0
174
     0
 93
        1
 44
0.0
173
     0
291
     0
 45
0.0
  0
VISUALSTYLE
  5
37
102
{ACAD_REACTORS
330
2A
102
}
102
{ACAD_XDICTIONARY
360
BF
102
}
330
2A
100
AcDbVisualStyle
  2
Thicken
 70
    13
 71
     2
 72
     2
 73
     0
 90
        0
 40
0.6
 41
30.0
 62
     5
 63
     7
421
 16777215
 74
     1
 91
        4
 64
     7
 65
   257
 75
     1
175
     1
 42
1.0
 92
       12
 66
     7
 43
1.0
 76
     1
 77
     6
 78
     2
 67
     7
 79
     5
170
     0
171
     0
290
     0
174
     0
 93
        1
 44
0.0
173
     0
291
     1
 45
0.0
  0
VISUALSTYLE
  5
30
102
{ACAD_REACTORS
330
2A
102
}
102
{ACAD_XDICTIONARY
360
B1
102
}
330
2A
100
AcDbVisualStyle
  2
Wireframe
 70
     5
 71
     0
 72
     2
 73
     0
 90
        0
 40
0.6
 41
30.0
 62
     5
 63
     7
421
 16777215
 74
     1
 91
        4
 64
     7
 65
   257
 75
     1
175
     1
 42
1.0
 92
        0
 66
   257
 43
1.0
 76
     1
 77
     6
 78
     2
 67
     7
 79
     3
170
     0
171
     0
290
     0
174
     0
 93
        1
 44
0.0
173
     0
291
     0
 45
0.0
  0
VISUALSTYLE
  5
40
102
{ACAD_REACTORS
330
2A
102
}
102
{ACAD_XDICTIONARY
360
D1
102
}
330
2A
100
AcDbVisualStyle
  2
X-Ray
 70
    25
 71
     2
 72
     2
 73
     1
 90
        1
 40
0.5
 41
30.0
 62
     5
 63
     7
421
 16777215
 74
     1
 91
        0
 64
     7
 65
   257
 75
     1
175
     1
 42
1.0
 92
        8
 66
     7
 43
1.0
 76
     1
 77
     6
 78
     2
 67
     7
 79
     3
170
     0
171
     0
290
     0
174
     0
 93
       13
 44
0.0
173
     0
291
     0
 45
0.0
  0
DICTIONARYVAR
  5
A5
102
{ACAD_REACTORS
330
A4
102
}
330
A4
100
DictionaryVariables
280
     0
  1
1:1
  0
DICTIONARYVAR
  5
DE
102
{ACAD_REACTORS
330
A4
102
}
330
A4
100
DictionaryVariables
280
     0
  1
Standard
  0
DICTIONARYVAR
  5
DD
102
{ACAD_REACTORS
330
A4
102
}
330
A4
100
DictionaryVariables
280
     0
  1
Standard
  0
DICTIONARYVAR
  5
A6
102
{ACAD_REACTORS
330
A4
102
}
330
A4
100
DictionaryVariables
280
     0
  1
2
  0
DICTIONARY
  5
DA
330
6C
100
AcDbDictionary
280
     1
281
     1
  3
ACAD_XREC_ROUNDTRIP
360
DB
  0
DICTIONARY
  5
D7
330
6A
100
AcDbDictionary
280
     1
281
     1
  3
ACAD_ROUNDTRIP_2008_TABLESTYLE_CELLSTYLEMAP
360
D8
  0
DICTIONARY
  5
AF
330
2F
100
AcDbDictionary
280
     1
281
     1
  3
ACAD_XREC_ROUNDTRIP
360
B0
  0
DICTIONARY
  5
B5
330
32
100
AcDbDictionary
280
     1
281
     1
  3
ACAD_XREC_ROUNDTRIP
360
B6
  0
DICTIONARY
  5
BD
330
36
100
AcDbDictionary
280
     1
281
     1
  3
ACAD_XREC_ROUNDTRIP
360
BE
  0
DICTIONARY
  5
C5
330
3A
100
AcDbDictionary
280
     1
281
     1
  3
ACAD_XREC_ROUNDTRIP
360
C6
  0
DICTIONARY
  5
B9
330
34
100
AcDbDictionary
280
     1
281
     1
  3
ACAD_XREC_ROUNDTRIP
360
BA
  0
DICTIONARY
  5
BB
330
35
100
AcDbDictionary
280
     1
281
     1
  3
ACAD_XREC_ROUNDTRIP
360
BC
  0
DICTIONARY
  5
CB
330
3D
100
AcDbDictionary
280
     1
281
     1
  3
ACAD_XREC_ROUNDTRIP
360
CC
  0
DICTIONARY
  5
C3
330
39
100
AcDbDictionary
280
     1
281
     1
  3
ACAD_XREC_ROUNDTRIP
360
C4
  0
DICTIONARY
  5
A7
330
2B
100
AcDbDictionary
280
     1
281
     1
  3
ACAD_XREC_ROUNDTRIP
360
A8
  0
DICTIONARY
  5
A9
330
2C
100
AcDbDictionary
280
     1
281
     1
  3
ACAD_XREC_ROUNDTRIP
360
AA
  0
DICTIONARY
  5
AB
330
2D
100
AcDbDictionary
280
     1
281
     1
  3
ACAD_XREC_ROUNDTRIP
360
AC
  0
DICTIONARY
  5
AD
330
2E
100
AcDbDictionary
280
     1
281
     1
  3
ACAD_XREC_ROUNDTRIP
360
AE
  0
DICTIONARY
  5
B3
330
31
100
AcDbDictionary
280
     1
281
     1
  3
ACAD_XREC_ROUNDTRIP
360
B4
  0
DICTIONARY
  5
C7
330
3B
100
AcDbDictionary
280
     1
281
     1
  3
ACAD_XREC_ROUNDTRIP
360
C8
  0
DICTIONARY
  5
C1
330
38
100
AcDbDictionary
280
     1
281
     1
  3
ACAD_XREC_ROUNDTRIP
360
C2
  0
DICTIONARY
  5
C9
330
3C
100
AcDbDictionary
280
     1
281
     1
  3
ACAD_XREC_ROUNDTRIP
360
CA
  0
DICTIONARY
  5
B7
330
33
100
AcDbDictionary
280
     1
281
     1
  3
ACAD_XREC_ROUNDTRIP
360
B8
  0
DICTIONARY
  5
D5
330
42
100
AcDbDictionary
280
     1
281
     1
  3
ACAD_XREC_ROUNDTRIP
360
D6
  0
DICTIONARY
  5
D3
330
41
100
AcDbDictionary
280
     1
281
     1
  3
ACAD_XREC_ROUNDTRIP
360
D4
  0
DICTIONARY
  5
CD
330
3E
100
AcDbDictionary
280
     1
281
     1
  3
ACAD_XREC_ROUNDTRIP
360
CE
  0
DICTIONARY
  5
CF
330
3F
100
AcDbDictionary
280
     1
281
     1
  3
ACAD_XREC_ROUNDTRIP
360
D0
  0
DICTIONARY
  5
BF
330
37
100
AcDbDictionary
280
     1
281
     1
  3
ACAD_XREC_ROUNDTRIP
360
C0
  0
DICTIONARY
  5
B1
330
30
100
AcDbDictionary
280
     1
281
     1
  3
ACAD_XREC_ROUNDTRIP
360
B2
  0
DICTIONARY
  5
D1
330
40
100
AcDbDictionary
280
     1
281
     1
  3
ACAD_XREC_ROUNDTRIP
360
D2
  0
XRECORD
  5
DB
102
{ACAD_REACTORS
330
DA
102
}
330
DA
100
AcDbXrecord
280
     1
102
ACAD_ROUNDTRIP_2010_MLEADER_STYLE
  0
CELLSTYLEMAP
  5
D8
102
{ACAD_REACTORS
330
D7
102
}
330
D7
100
AcDbCellStyleMap
 90
        3
300
CELLSTYLE
  1
TABLEFORMAT_BEGIN
 90
        5
170
     1
 91
        0
 92
    32768
 62
   257
 93
        1
300
CONTENTFORMAT
  1
CONTENTFORMAT_BEGIN
 90
        0
 91
        0
 92
        4
 93
        0
300

 40
0.0
140
1.0
 94
        5
 62
     0
340
11
144
0.25
309
CONTENTFORMAT_END
171
     1
301
MARGIN
  1
CELLMARGIN_BEGIN
 40
0.06
 40
0.06
 40
0.06
 40
0.06
 40
0.06
 40
0.06
309
CELLMARGIN_END
 94
        6
 95
        1
302
GRIDFORMAT
  1
GRIDFORMAT_BEGIN
 90
        0
 91
        1
 62
     0
 92
       -2
340
14
 93
        0
 40
0.045
309
GRIDFORMAT_END
 95
        2
302
GRIDFORMAT
  1
GRIDFORMAT_BEGIN
 90
        0
 91
        1
 62
     0
 92
       -2
340
14
 93
        0
 40
0.045
309
GRIDFORMAT_END
 95
        4
302
GRIDFORMAT
  1
GRIDFORMAT_BEGIN
 90
        0
 91
        1
 62
     0
 92
       -2
340
14
 93
        0
 40
0.045
309
GRIDFORMAT_END
 95
        8
302
GRIDFORMAT
  1
GRIDFORMAT_BEGIN
 90
        0
 91
        1
 62
     0
 92
       -2
340
14
 93
        0
 40
0.045
309
GRIDFORMAT_END
 95
       16
302
GRIDFORMAT
  1
GRIDFORMAT_BEGIN
 90
        0
 91
        1
 62
     0
 92
       -2
340
14
 93
        0
 40
0.045
309
GRIDFORMAT_END
 95
       32
302
GRIDFORMAT
  1
GRIDFORMAT_BEGIN
 90
        0
 91
        1
 62
     0
 92
       -2
340
14
 93
        0
 40
0.045
309
GRIDFORMAT_END
309
TABLEFORMAT_END
  1
CELLSTYLE_BEGIN
 90
        1
 91
        1
300
_TITLE
309
CELLSTYLE_END
300
CELLSTYLE
  1
TABLEFORMAT_BEGIN
 90
        5
170
     1
 91
        0
 92
        0
 62
   257
 93
        1
300
CONTENTFORMAT
  1
CONTENTFORMAT_BEGIN
 90
        0
 91
        0
 92
        4
 93
        0
300

 40
0.0
140
1.0
 94
        5
 62
     0
340
11
144
0.18
309
CONTENTFORMAT_END
171
     1
301
MARGIN
  1
CELLMARGIN_BEGIN
 40
0.06
 40
0.06
 40
0.06
 40
0.06
 40
0.06
 40
0.06
309
CELLMARGIN_END
 94
        6
 95
        1
302
GRIDFORMAT
  1
GRIDFORMAT_BEGIN
 90
        0
 91
        1
 62
     0
 92
       -2
340
14
 93
        0
 40
0.045
309
GRIDFORMAT_END
 95
        2
302
GRIDFORMAT
  1
GRIDFORMAT_BEGIN
 90
        0
 91
        1
 62
     0
 92
       -2
340
14
 93
        0
 40
0.045
309
GRIDFORMAT_END
 95
        4
302
GRIDFORMAT
  1
GRIDFORMAT_BEGIN
 90
        0
 91
        1
 62
     0
 92
       -2
340
14
 93
        0
 40
0.045
309
GRIDFORMAT_END
 95
        8
302
GRIDFORMAT
  1
GRIDFORMAT_BEGIN
 90
        0
 91
        1
 62
     0
 92
       -2
340
14
 93
        0
 40
0.045
309
GRIDFORMAT_END
 95
       16
302
GRIDFORMAT
  1
GRIDFORMAT_BEGIN
 90
        0
 91
        1
 62
     0
 92
       -2
340
14
 93
        0
 40
0.045
309
GRIDFORMAT_END
 95
       32
302
GRIDFORMAT
  1
GRIDFORMAT_BEGIN
 90
        0
 91
        1
 62
     0
 92
       -2
340
14
 93
        0
 40
0.045
309
GRIDFORMAT_END
309
TABLEFORMAT_END
  1
CELLSTYLE_BEGIN
 90
        2
 91
        1
300
_HEADER
309
CELLSTYLE_END
300
CELLSTYLE
  1
TABLEFORMAT_BEGIN
 90
        5
170
     1
 91
        0
 92
        0
 62
   257
 93
        1
300
CONTENTFORMAT
  1
CONTENTFORMAT_BEGIN
 90
        0
 91
        0
 92
        4
 93
        0
300

 40
0.0
140
1.0
 94
        2
 62
     0
340
11
144
0.18
309
CONTENTFORMAT_END
171
     1
301
MARGIN
  1
CELLMARGIN_BEGIN
 40
0.06
 40
0.06
 40
0.06
 40
0.06
 40
0.06
 40
0.06
309
CELLMARGIN_END
 94
        6
 95
        1
302
GRIDFORMAT
  1
GRIDFORMAT_BEGIN
 90
        0
 91
        1
 62
     0
 92
       -2
340
14
 93
        0
 40
0.045
309
GRIDFORMAT_END
 95
        2
302
GRIDFORMAT
  1
GRIDFORMAT_BEGIN
 90
        0
 91
        1
 62
     0
 92
       -2
340
14
 93
        0
 40
0.045
309
GRIDFORMAT_END
 95
        4
302
GRIDFORMAT
  1
GRIDFORMAT_BEGIN
 90
        0
 91
        1
 62
     0
 92
       -2
340
14
 93
        0
 40
0.045
309
GRIDFORMAT_END
 95
        8
302
GRIDFORMAT
  1
GRIDFORMAT_BEGIN
 90
        0
 91
        1
 62
     0
 92
       -2
340
14
 93
        0
 40
0.045
309
GRIDFORMAT_END
 95
       16
302
GRIDFORMAT
  1
GRIDFORMAT_BEGIN
 90
        0
 91
        1
 62
     0
 92
       -2
340
14
 93
        0
 40
0.045
309
GRIDFORMAT_END
 95
       32
302
GRIDFORMAT
  1
GRIDFORMAT_BEGIN
 90
        0
 91
        1
 62
     0
 92
       -2
340
14
 93
        0
 40
0.045
309
GRIDFORMAT_END
309
TABLEFORMAT_END
  1
CELLSTYLE_BEGIN
 90
        3
 91
        2
300
_DATA
309
CELLSTYLE_END
  0
XRECORD
  5
B0
102
{ACAD_REACTORS
330
AF
102
}
330
AF
100
AcDbXrecord
280
     1
102
RTVSPropertyOp0
 70
     1
102
RTVSPropertyOp1
 70
     1
102
RTVSPropertyOp2
 70
     1
102
RTVSPropertyOp3
 70
     1
102
RTVSPropertyOp4
 70
     1
102
RTVSPropertyOp5
 70
     1
102
RTVSPropertyOp6
 70
     1
102
RTVSPropertyOp7
 70
     1
102
RTVSPropertyOp8
 70
     1
102
RTVSPropertyOp9
 70
     1
102
RTVSPropertyOp10
 70
     1
102
RTVSPropertyOp11
 70
     1
102
RTVSPropertyOp12
 70
     1
102
RTVSPropertyOp13
 70
     1
102
RTVSPropertyOp14
 70
     1
102
RTVSPropertyOp15
 70
     1
102
RTVSPropertyOp16
 70
     1
102
RTVSPropertyOp17
 70
     1
102
RTVSPropertyOp18
 70
     1
102
RTVSPropertyOp19
 70
     1
102
RTVSPropertyOp20
 70
     1
102
RTVSPropertyOp21
 70
     1
102
RTVSPropertyOp22
 70
     1
102
RTVSPropertyOp23
 70
     1
102
RTVSPropertyOp24
 70
     1
102
RTVSPropertyOp25
 70
     1
102
RTVSPropertyOp26
 70
     1
102
RTVSPropertyOp27
 70
     1
102
RTVSPropertyOp28
 70
     1
102
RTVSPropertyOp29
 70
     1
102
RTVSPropertyOp30
 70
     1
102
RTVSPropertyOp31
 70
     1
102
RTVSPropertyOp32
 70
     1
102
RTVSPropertyOp33
 70
     1
102
RTVSPropertyOp34
 70
     1
102
RTVSPropertyOp35
 70
     1
102
RTVSPropertyOp36
 70
     1
102
RTVSPropertyOp37
 70
     1
102
RTVSPropertyOp38
 70
     1
102
RTVSPropertyOp39
 70
     1
102
RTVSPropertyOp40
 70
     1
102
RTVSPropertyOp41
 70
     1
102
RTVSPropertyOp42
 70
     1
102
RTVSPropertyOp43
 70
     1
102
RTVSPropertyOp44
 70
     1
102
RTVSPropertyOp45
 70
     1
102
RTVSPropertyOp46
 70
     1
102
RTVSPropertyOp47
 70
     1
102
RTVSPropertyOp48
 70
     1
102
RTVSPropertyOp49
 70
     1
102
RTVSPropertyOp50
 70
     1
102
RTVSPropertyOp51
 70
     0
102
RTVSPropertyOp52
 70
     0
102
RTVSPropertyOp53
 70
     1
102
RTVSPropertyOp54
 70
     1
102
RTVSPropertyOp55
 70
     1
102
RTVSPropertyOp56
 70
     1
102
RTVSPropertyOp57
 70
     1
102
RTVSPost2010Prop28
280
     1
102
RTVSPost2010PropOp28
 70
     1
102
RTVSPost2010Prop29
280
     1
102
RTVSPost2010PropOp29
 70
     1
102
RTVSPost2010Prop30
280
     0
102
RTVSPost2010PropOp30
 70
     1
102
RTVSPost2010Prop31
280
     0
102
RTVSPost2010PropOp31
 70
     1
102
RTVSPost2010Prop32
280
     0
102
RTVSPost2010PropOp32
 70
     1
102
RTVSPost2010Prop33
280
     0
102
RTVSPost2010PropOp33
 70
     1
102
RTVSPost2010Prop34
280
     0
102
RTVSPost2010PropOp34
 70
     1
102
RTVSPost2010Prop35
280
     0
102
RTVSPost2010PropOp35
 70
     1
102
RTVSPost2010Prop36
280
     0
102
RTVSPost2010PropOp36
 70
     1
102
RTVSPost2010Prop37
 90
       50
102
RTVSPost2010PropOp37
 70
     1
102
RTVSPost2010Prop38
140
0.0
102
RTVSPost2010PropOp38
 70
     1
102
RTVSPost2010Prop39
140
1.0
102
RTVSPost2010PropOp39
 70
     1
102
RTVSPost2010Prop40
 90
        0
102
RTVSPost2010PropOp40
 70
     1
102
RTVSPost2010Prop41ColorIndex
 90
       18
102
RTVSPost2010Prop41ColorRGB
 90
        0
102
RTVSPost2010PropOp41
 70
     1
102
RTVSPost2010Prop42
 90
       50
102
RTVSPost2010PropOp42
 70
     1
102
RTVSPost2010Prop43
 90
        3
102
RTVSPost2010PropOp43
 70
     1
102
RTVSPost2010Prop44ColorIndex
 90
        5
102
RTVSPost2010Prop44ColorRGB
 90
      255
102
RTVSPost2010PropOp44
 70
     1
102
RTVSPost2010Prop45
280
     0
102
RTVSPost2010PropOp45
 70
     1
102
RTVSPost2010Prop46
 90
       50
102
RTVSPost2010PropOp46
 70
     1
102
RTVSPost2010Prop47
 90
       50
102
RTVSPost2010PropOp47
 70
     1
102
RTVSPost2010Prop48
 90
       50
102
RTVSPost2010PropOp48
 70
     1
102
RTVSPost2010Prop49
280
     0
102
RTVSPost2010PropOp49
 70
     1
102
RTVSPost2010Prop50
 90
       50
102
RTVSPost2010PropOp50
 70
     1
102
RTVSPost2010Prop51ColorIndex
 90
      256
102
RTVSPost2010Prop51ColorRGB
 90
-16777216
102
RTVSPost2010PropOp51
 70
     0
102
RTVSPost2010Prop52
140
1.0
102
RTVSPost2010PropOp52
 70
     0
102
RTVSPost2010Prop53
 90
        2
102
RTVSPost2010PropOp53
 70
     1
102
RTVSPost2010Prop54
  1
strokes_ogs.tif
102
RTVSPost2010PropOp54
 70
     1
102
RTVSPost2010Prop55
280
     0
102
RTVSPost2010PropOp55
 70
     1
102
RTVSPost2010Prop56
140
1.0
102
RTVSPost2010PropOp56
 70
     1
102
RTVSPost2010Prop57
140
1.0
102
RTVSPost2010PropOp57
 70
     1
  0
XRECORD
  5
B6
102
{ACAD_REACTORS
330
B5
102
}
330
B5
100
AcDbXrecord
280
     1
102
RTVSPropertyOp0
 70
     1
102
RTVSPropertyOp1
 70
     1
102
RTVSPropertyOp2
 70
     1
102
RTVSPropertyOp3
 70
     1
102
RTVSPropertyOp4
 70
     1
102
RTVSPropertyOp5
 70
     1
102
RTVSPropertyOp6
 70
     1
102
RTVSPropertyOp7
 70
     1
102
RTVSPropertyOp8
 70
     1
102
RTVSPropertyOp9
 70
     1
102
RTVSPropertyOp10
 70
     1
102
RTVSPropertyOp11
 70
     1
102
RTVSPropertyOp12
 70
     1
102
RTVSPropertyOp13
 70
     1
102
RTVSPropertyOp14
 70
     1
102
RTVSPropertyOp15
 70
     1
102
RTVSPropertyOp16
 70
     1
102
RTVSPropertyOp17
 70
     1
102
RTVSPropertyOp18
 70
     1
102
RTVSPropertyOp19
 70
     1
102
RTVSPropertyOp20
 70
     1
102
RTVSPropertyOp21
 70
     1
102
RTVSPropertyOp22
 70
     1
102
RTVSPropertyOp23
 70
     1
102
RTVSPropertyOp24
 70
     1
102
RTVSPropertyOp25
 70
     1
102
RTVSPropertyOp26
 70
     1
102
RTVSPropertyOp27
 70
     1
102
RTVSPropertyOp28
 70
     1
102
RTVSPropertyOp29
 70
     1
102
RTVSPropertyOp30
 70
     1
102
RTVSPropertyOp31
 70
     1
102
RTVSPropertyOp32
 70
     1
102
RTVSPropertyOp33
 70
     1
102
RTVSPropertyOp34
 70
     1
102
RTVSPropertyOp35
 70
     1
102
RTVSPropertyOp36
 70
     1
102
RTVSPropertyOp37
 70
     1
102
RTVSPropertyOp38
 70
     1
102
RTVSPropertyOp39
 70
     1
102
RTVSPropertyOp40
 70
     1
102
RTVSPropertyOp41
 70
     1
102
RTVSPropertyOp42
 70
     1
102
RTVSPropertyOp43
 70
     1
102
RTVSPropertyOp44
 70
     1
102
RTVSPropertyOp45
 70
     1
102
RTVSPropertyOp46
 70
     1
102
RTVSPropertyOp47
 70
     1
102
RTVSPropertyOp48
 70
     1
102
RTVSPropertyOp49
 70
     1
102
RTVSPropertyOp50
 70
     1
102
RTVSPropertyOp51
 70
     0
102
RTVSPropertyOp52
 70
     0
102
RTVSPropertyOp53
 70
     1
102
RTVSPropertyOp54
 70
     1
102
RTVSPropertyOp55
 70
     1
102
RTVSPropertyOp56
 70
     1
102
RTVSPropertyOp57
 70
     1
102
RTVSPost2010Prop28
280
     0
102
RTVSPost2010PropOp28
 70
     1
102
RTVSPost2010Prop29
280
     1
102
RTVSPost2010PropOp29
 70
     1
102
RTVSPost2010Prop30
280
     1
102
RTVSPost2010PropOp30
 70
     1
102
RTVSPost2010Prop31
280
     0
102
RTVSPost2010PropOp31
 70
     1
102
RTVSPost2010Prop32
280
     0
102
RTVSPost2010PropOp32
 70
     1
102
RTVSPost2010Prop33
280
     0
102
RTVSPost2010PropOp33
 70
     1
102
RTVSPost2010Prop34
280
     0
102
RTVSPost2010PropOp34
 70
     1
102
RTVSPost2010Prop35
280
     0
102
RTVSPost2010PropOp35
 70
     1
102
RTVSPost2010Prop36
280
     0
102
RTVSPost2010PropOp36
 70
     1
102
RTVSPost2010Prop37
 90
       50
102
RTVSPost2010PropOp37
 70
     1
102
RTVSPost2010Prop38
140
0.0
102
RTVSPost2010PropOp38
 70
     1
102
RTVSPost2010Prop39
140
1.0
102
RTVSPost2010PropOp39
 70
     1
102
RTVSPost2010Prop40
 90
        0
102
RTVSPost2010PropOp40
 70
     1
102
RTVSPost2010Prop41ColorIndex
 90
       18
102
RTVSPost2010Prop41ColorRGB
 90
        0
102
RTVSPost2010PropOp41
 70
     1
102
RTVSPost2010Prop42
 90
       50
102
RTVSPost2010PropOp42
 70
     1
102
RTVSPost2010Prop43
 90
        3
102
RTVSPost2010PropOp43
 70
     1
102
RTVSPost2010Prop44ColorIndex
 90
        5
102
RTVSPost2010Prop44ColorRGB
 90
      255
102
RTVSPost2010PropOp44
 70
     1
102
RTVSPost2010Prop45
280
     0
102
RTVSPost2010PropOp45
 70
     1
102
RTVSPost2010Prop46
 90
       50
102
RTVSPost2010PropOp46
 70
     1
102
RTVSPost2010Prop47
 90
       50
102
RTVSPost2010PropOp47
 70
     1
102
RTVSPost2010Prop48
 90
       50
102
RTVSPost2010PropOp48
 70
     1
102
RTVSPost2010Prop49
280
     0
102
RTVSPost2010PropOp49
 70
     1
102
RTVSPost2010Prop50
 90
       50
102
RTVSPost2010PropOp50
 70
     1
102
RTVSPost2010Prop51ColorIndex
 90
      256
102
RTVSPost2010Prop51ColorRGB
 90
-16777216
102
RTVSPost2010PropOp51
 70
     0
102
RTVSPost2010Prop52
140
1.0
102
RTVSPost2010PropOp52
 70
     0
102
RTVSPost2010Prop53
 90
        2
102
RTVSPost2010PropOp53
 70
     1
102
RTVSPost2010Prop54
  1
strokes_ogs.tif
102
RTVSPost2010PropOp54
 70
     1
102
RTVSPost2010Prop55
280
     0
102
RTVSPost2010PropOp55
 70
     1
102
RTVSPost2010Prop56
140
1.0
102
RTVSPost2010PropOp56
 70
     1
102
RTVSPost2010Prop57
140
1.0
102
RTVSPost2010PropOp57
 70
     1
  0
XRECORD
  5
BE
102
{ACAD_REACTORS
330
BD
102
}
330
BD
100
AcDbXrecord
280
     1
102
RTVSPropertyOp0
 70
     1
102
RTVSPropertyOp1
 70
     1
102
RTVSPropertyOp2
 70
     1
102
RTVSPropertyOp3
 70
     1
102
RTVSPropertyOp4
 70
     1
102
RTVSPropertyOp5
 70
     1
102
RTVSPropertyOp6
 70
     1
102
RTVSPropertyOp7
 70
     1
102
RTVSPropertyOp8
 70
     1
102
RTVSPropertyOp9
 70
     1
102
RTVSPropertyOp10
 70
     1
102
RTVSPropertyOp11
 70
     1
102
RTVSPropertyOp12
 70
     1
102
RTVSPropertyOp13
 70
     1
102
RTVSPropertyOp14
 70
     1
102
RTVSPropertyOp15
 70
     1
102
RTVSPropertyOp16
 70
     1
102
RTVSPropertyOp17
 70
     1
102
RTVSPropertyOp18
 70
     1
102
RTVSPropertyOp19
 70
     1
102
RTVSPropertyOp20
 70
     1
102
RTVSPropertyOp21
 70
     1
102
RTVSPropertyOp22
 70
     1
102
RTVSPropertyOp23
 70
     1
102
RTVSPropertyOp24
 70
     1
102
RTVSPropertyOp25
 70
     1
102
RTVSPropertyOp26
 70
     1
102
RTVSPropertyOp27
 70
     1
102
RTVSPropertyOp28
 70
     1
102
RTVSPropertyOp29
 70
     1
102
RTVSPropertyOp30
 70
     1
102
RTVSPropertyOp31
 70
     1
102
RTVSPropertyOp32
 70
     1
102
RTVSPropertyOp33
 70
     1
102
RTVSPropertyOp34
 70
     1
102
RTVSPropertyOp35
 70
     1
102
RTVSPropertyOp36
 70
     1
102
RTVSPropertyOp37
 70
     1
102
RTVSPropertyOp38
 70
     1
102
RTVSPropertyOp39
 70
     1
102
RTVSPropertyOp40
 70
     1
102
RTVSPropertyOp41
 70
     1
102
RTVSPropertyOp42
 70
     1
102
RTVSPropertyOp43
 70
     1
102
RTVSPropertyOp44
 70
     1
102
RTVSPropertyOp45
 70
     1
102
RTVSPropertyOp46
 70
     1
102
RTVSPropertyOp47
 70
     1
102
RTVSPropertyOp48
 70
     1
102
RTVSPropertyOp49
 70
     1
102
RTVSPropertyOp50
 70
     1
102
RTVSPropertyOp51
 70
     0
102
RTVSPropertyOp52
 70
     0
102
RTVSPropertyOp53
 70
     1
102
RTVSPropertyOp54
 70
     1
102
RTVSPropertyOp55
 70
     1
102
RTVSPropertyOp56
 70
     1
102
RTVSPropertyOp57
 70
     1
102
RTVSPost2010Prop28
280
     0
102
RTVSPost2010PropOp28
 70
     1
102
RTVSPost2010Prop29
280
     1
102
RTVSPost2010PropOp29
 70
     1
102
RTVSPost2010Prop30
280
     1
102
RTVSPost2010PropOp30
 70
     1
102
RTVSPost2010Prop31
280
     0
102
RTVSPost2010PropOp31
 70
     1
102
RTVSPost2010Prop32
280
     0
102
RTVSPost2010PropOp32
 70
     1
102
RTVSPost2010Prop33
280
     0
102
RTVSPost2010PropOp33
 70
     1
102
RTVSPost2010Prop34
280
     0
102
RTVSPost2010PropOp34
 70
     1
102
RTVSPost2010Prop35
280
     0
102
RTVSPost2010PropOp35
 70
     1
102
RTVSPost2010Prop36
280
     0
102
RTVSPost2010PropOp36
 70
     1
102
RTVSPost2010Prop37
 90
       50
102
RTVSPost2010PropOp37
 70
     1
102
RTVSPost2010Prop38
140
0.0
102
RTVSPost2010PropOp38
 70
     1
102
RTVSPost2010Prop39
140
1.0
102
RTVSPost2010PropOp39
 70
     1
102
RTVSPost2010Prop40
 90
        0
102
RTVSPost2010PropOp40
 70
     1
102
RTVSPost2010Prop41ColorIndex
 90
       18
102
RTVSPost2010Prop41ColorRGB
 90
        0
102
RTVSPost2010PropOp41
 70
     1
102
RTVSPost2010Prop42
 90
       50
102
RTVSPost2010PropOp42
 70
     1
102
RTVSPost2010Prop43
 90
        3
102
RTVSPost2010PropOp43
 70
     1
102
RTVSPost2010Prop44ColorIndex
 90
        5
102
RTVSPost2010Prop44ColorRGB
 90
      255
102
RTVSPost2010PropOp44
 70
     1
102
RTVSPost2010Prop45
280
     0
102
RTVSPost2010PropOp45
 70
     1
102
RTVSPost2010Prop46
 90
       50
102
RTVSPost2010PropOp46
 70
     1
102
RTVSPost2010Prop47
 90
       50
102
RTVSPost2010PropOp47
 70
     1
102
RTVSPost2010Prop48
 90
       50
102
RTVSPost2010PropOp48
 70
     1
102
RTVSPost2010Prop49
280
     0
102
RTVSPost2010PropOp49
 70
     1
102
RTVSPost2010Prop50
 90
       50
102
RTVSPost2010PropOp50
 70
     1
102
RTVSPost2010Prop51ColorIndex
 90
      256
102
RTVSPost2010Prop51ColorRGB
 90
-16777216
102
RTVSPost2010PropOp51
 70
     0
102
RTVSPost2010Prop52
140
1.0
102
RTVSPost2010PropOp52
 70
     0
102
RTVSPost2010Prop53
 90
        2
102
RTVSPost2010PropOp53
 70
     1
102
RTVSPost2010Prop54
  1
strokes_ogs.tif
102
RTVSPost2010PropOp54
 70
     1
102
RTVSPost2010Prop55
280
     0
102
RTVSPost2010PropOp55
 70
     1
102
RTVSPost2010Prop56
140
1.0
102
RTVSPost2010PropOp56
 70
     1
102
RTVSPost2010Prop57
140
1.0
102
RTVSPost2010PropOp57
 70
     1
  0
XRECORD
  5
C6
102
{ACAD_REACTORS
330
C5
102
}
330
C5
100
AcDbXrecord
280
     1
102
RTVSPropertyOp0
 70
     1
102
RTVSPropertyOp1
 70
     1
102
RTVSPropertyOp2
 70
     1
102
RTVSPropertyOp3
 70
     1
102
RTVSPropertyOp4
 70
     1
102
RTVSPropertyOp5
 70
     1
102
RTVSPropertyOp6
 70
     1
102
RTVSPropertyOp7
 70
     1
102
RTVSPropertyOp8
 70
     1
102
RTVSPropertyOp9
 70
     1
102
RTVSPropertyOp10
 70
     1
102
RTVSPropertyOp11
 70
     1
102
RTVSPropertyOp12
 70
     1
102
RTVSPropertyOp13
 70
     1
102
RTVSPropertyOp14
 70
     1
102
RTVSPropertyOp15
 70
     1
102
RTVSPropertyOp16
 70
     1
102
RTVSPropertyOp17
 70
     1
102
RTVSPropertyOp18
 70
     1
102
RTVSPropertyOp19
 70
     1
102
RTVSPropertyOp20
 70
     1
102
RTVSPropertyOp21
 70
     1
102
RTVSPropertyOp22
 70
     1
102
RTVSPropertyOp23
 70
     1
102
RTVSPropertyOp24
 70
     1
102
RTVSPropertyOp25
 70
     1
102
RTVSPropertyOp26
 70
     1
102
RTVSPropertyOp27
 70
     1
102
RTVSPropertyOp28
 70
     1
102
RTVSPropertyOp29
 70
     1
102
RTVSPropertyOp30
 70
     1
102
RTVSPropertyOp31
 70
     1
102
RTVSPropertyOp32
 70
     1
102
RTVSPropertyOp33
 70
     1
102
RTVSPropertyOp34
 70
     1
102
RTVSPropertyOp35
 70
     1
102
RTVSPropertyOp36
 70
     1
102
RTVSPropertyOp37
 70
     1
102
RTVSPropertyOp38
 70
     1
102
RTVSPropertyOp39
 70
     1
102
RTVSPropertyOp40
 70
     1
102
RTVSPropertyOp41
 70
     1
102
RTVSPropertyOp42
 70
     1
102
RTVSPropertyOp43
 70
     1
102
RTVSPropertyOp44
 70
     1
102
RTVSPropertyOp45
 70
     1
102
RTVSPropertyOp46
 70
     1
102
RTVSPropertyOp47
 70
     1
102
RTVSPropertyOp48
 70
     1
102
RTVSPropertyOp49
 70
     1
102
RTVSPropertyOp50
 70
     1
102
RTVSPropertyOp51
 70
     0
102
RTVSPropertyOp52
 70
     0
102
RTVSPropertyOp53
 70
     1
102
RTVSPropertyOp54
 70
     1
102
RTVSPropertyOp55
 70
     1
102
RTVSPropertyOp56
 70
     1
102
RTVSPropertyOp57
 70
     1
102
RTVSPost2010Prop28
280
     0
102
RTVSPost2010PropOp28
 70
     1
102
RTVSPost2010Prop29
280
     1
102
RTVSPost2010PropOp29
 70
     1
102
RTVSPost2010Prop30
280
     1
102
RTVSPost2010PropOp30
 70
     1
102
RTVSPost2010Prop31
280
     0
102
RTVSPost2010PropOp31
 70
     1
102
RTVSPost2010Prop32
280
     0
102
RTVSPost2010PropOp32
 70
     1
102
RTVSPost2010Prop33
280
     0
102
RTVSPost2010PropOp33
 70
     1
102
RTVSPost2010Prop34
280
     0
102
RTVSPost2010PropOp34
 70
     1
102
RTVSPost2010Prop35
280
     0
102
RTVSPost2010PropOp35
 70
     1
102
RTVSPost2010Prop36
280
     0
102
RTVSPost2010PropOp36
 70
     1
102
RTVSPost2010Prop37
 90
       50
102
RTVSPost2010PropOp37
 70
     1
102
RTVSPost2010Prop38
140
0.0
102
RTVSPost2010PropOp38
 70
     1
102
RTVSPost2010Prop39
140
1.0
102
RTVSPost2010PropOp39
 70
     1
102
RTVSPost2010Prop40
 90
        0
102
RTVSPost2010PropOp40
 70
     1
102
RTVSPost2010Prop41ColorIndex
 90
       18
102
RTVSPost2010Prop41ColorRGB
 90
        0
102
RTVSPost2010PropOp41
 70
     1
102
RTVSPost2010Prop42
 90
       50
102
RTVSPost2010PropOp42
 70
     1
102
RTVSPost2010Prop43
 90
        3
102
RTVSPost2010PropOp43
 70
     1
102
RTVSPost2010Prop44ColorIndex
 90
        5
102
RTVSPost2010Prop44ColorRGB
 90
      255
102
RTVSPost2010PropOp44
 70
     1
102
RTVSPost2010Prop45
280
     0
102
RTVSPost2010PropOp45
 70
     1
102
RTVSPost2010Prop46
 90
       50
102
RTVSPost2010PropOp46
 70
     1
102
RTVSPost2010Prop47
 90
       50
102
RTVSPost2010PropOp47
 70
     1
102
RTVSPost2010Prop48
 90
       50
102
RTVSPost2010PropOp48
 70
     1
102
RTVSPost2010Prop49
280
     0
102
RTVSPost2010PropOp49
 70
     1
102
RTVSPost2010Prop50
 90
       50
102
RTVSPost2010PropOp50
 70
     1
102
RTVSPost2010Prop51ColorIndex
 90
      256
102
RTVSPost2010Prop51ColorRGB
 90
-16777216
102
RTVSPost2010PropOp51
 70
     0
102
RTVSPost2010Prop52
140
1.0
102
RTVSPost2010PropOp52
 70
     0
102
RTVSPost2010Prop53
 90
        2
102
RTVSPost2010PropOp53
 70
     1
102
RTVSPost2010Prop54
  1
strokes_ogs.tif
102
RTVSPost2010PropOp54
 70
     1
102
RTVSPost2010Prop55
280
     0
102
RTVSPost2010PropOp55
 70
     1
102
RTVSPost2010Prop56
140
1.0
102
RTVSPost2010PropOp56
 70
     1
102
RTVSPost2010Prop57
140
1.0
102
RTVSPost2010PropOp57
 70
     1
  0
XRECORD
  5
BA
102
{ACAD_REACTORS
330
B9
102
}
330
B9
100
AcDbXrecord
280
     1
102
RTVSPropertyOp0
 70
     1
102
RTVSPropertyOp1
 70
     1
102
RTVSPropertyOp2
 70
     1
102
RTVSPropertyOp3
 70
     1
102
RTVSPropertyOp4
 70
     1
102
RTVSPropertyOp5
 70
     1
102
RTVSPropertyOp6
 70
     1
102
RTVSPropertyOp7
 70
     1
102
RTVSPropertyOp8
 70
     1
102
RTVSPropertyOp9
 70
     1
102
RTVSPropertyOp10
 70
     1
102
RTVSPropertyOp11
 70
     1
102
RTVSPropertyOp12
 70
     1
102
RTVSPropertyOp13
 70
     1
102
RTVSPropertyOp14
 70
     1
102
RTVSPropertyOp15
 70
     1
102
RTVSPropertyOp16
 70
     1
102
RTVSPropertyOp17
 70
     1
102
RTVSPropertyOp18
 70
     1
102
RTVSPropertyOp19
 70
     1
102
RTVSPropertyOp20
 70
     1
102
RTVSPropertyOp21
 70
     1
102
RTVSPropertyOp22
 70
     1
102
RTVSPropertyOp23
 70
     1
102
RTVSPropertyOp24
 70
     1
102
RTVSPropertyOp25
 70
     1
102
RTVSPropertyOp26
 70
     1
102
RTVSPropertyOp27
 70
     1
102
RTVSPropertyOp28
 70
     1
102
RTVSPropertyOp29
 70
     1
102
RTVSPropertyOp30
 70
     1
102
RTVSPropertyOp31
 70
     1
102
RTVSPropertyOp32
 70
     1
102
RTVSPropertyOp33
 70
     1
102
RTVSPropertyOp34
 70
     1
102
RTVSPropertyOp35
 70
     1
102
RTVSPropertyOp36
 70
     1
102
RTVSPropertyOp37
 70
     1
102
RTVSPropertyOp38
 70
     1
102
RTVSPropertyOp39
 70
     1
102
RTVSPropertyOp40
 70
     1
102
RTVSPropertyOp41
 70
     1
102
RTVSPropertyOp42
 70
     1
102
RTVSPropertyOp43
 70
     1
102
RTVSPropertyOp44
 70
     1
102
RTVSPropertyOp45
 70
     1
102
RTVSPropertyOp46
 70
     1
102
RTVSPropertyOp47
 70
     1
102
RTVSPropertyOp48
 70
     1
102
RTVSPropertyOp49
 70
     1
102
RTVSPropertyOp50
 70
     1
102
RTVSPropertyOp51
 70
     0
102
RTVSPropertyOp52
 70
     0
102
RTVSPropertyOp53
 70
     1
102
RTVSPropertyOp54
 70
     1
102
RTVSPropertyOp55
 70
     1
102
RTVSPropertyOp56
 70
     1
102
RTVSPropertyOp57
 70
     1
102
RTVSPost2010Prop28
280
     0
102
RTVSPost2010PropOp28
 70
     1
102
RTVSPost2010Prop29
280
     1
102
RTVSPost2010PropOp29
 70
     1
102
RTVSPost2010Prop30
280
     1
102
RTVSPost2010PropOp30
 70
     1
102
RTVSPost2010Prop31
280
     0
102
RTVSPost2010PropOp31
 70
     1
102
RTVSPost2010Prop32
280
     0
102
RTVSPost2010PropOp32
 70
     1
102
RTVSPost2010Prop33
280
     0
102
RTVSPost2010PropOp33
 70
     1
102
RTVSPost2010Prop34
280
     0
102
RTVSPost2010PropOp34
 70
     1
102
RTVSPost2010Prop35
280
     0
102
RTVSPost2010PropOp35
 70
     1
102
RTVSPost2010Prop36
280
     0
102
RTVSPost2010PropOp36
 70
     1
102
RTVSPost2010Prop37
 90
       50
102
RTVSPost2010PropOp37
 70
     1
102
RTVSPost2010Prop38
140
0.0
102
RTVSPost2010PropOp38
 70
     1
102
RTVSPost2010Prop39
140
1.0
102
RTVSPost2010PropOp39
 70
     1
102
RTVSPost2010Prop40
 90
        0
102
RTVSPost2010PropOp40
 70
     1
102
RTVSPost2010Prop41ColorIndex
 90
       18
102
RTVSPost2010Prop41ColorRGB
 90
        0
102
RTVSPost2010PropOp41
 70
     1
102
RTVSPost2010Prop42
 90
       50
102
RTVSPost2010PropOp42
 70
     1
102
RTVSPost2010Prop43
 90
        3
102
RTVSPost2010PropOp43
 70
     1
102
RTVSPost2010Prop44ColorIndex
 90
        5
102
RTVSPost2010Prop44ColorRGB
 90
      255
102
RTVSPost2010PropOp44
 70
     1
102
RTVSPost2010Prop45
280
     0
102
RTVSPost2010PropOp45
 70
     1
102
RTVSPost2010Prop46
 90
       50
102
RTVSPost2010PropOp46
 70
     1
102
RTVSPost2010Prop47
 90
       50
102
RTVSPost2010PropOp47
 70
     1
102
RTVSPost2010Prop48
 90
       50
102
RTVSPost2010PropOp48
 70
     1
102
RTVSPost2010Prop49
280
     0
102
RTVSPost2010PropOp49
 70
     1
102
RTVSPost2010Prop50
 90
       50
102
RTVSPost2010PropOp50
 70
     1
102
RTVSPost2010Prop51ColorIndex
 90
      256
102
RTVSPost2010Prop51ColorRGB
 90
-16777216
102
RTVSPost2010PropOp51
 70
     0
102
RTVSPost2010Prop52
140
1.0
102
RTVSPost2010PropOp52
 70
     0
102
RTVSPost2010Prop53
 90
        2
102
RTVSPost2010PropOp53
 70
     1
102
RTVSPost2010Prop54
  1
strokes_ogs.tif
102
RTVSPost2010PropOp54
 70
     1
102
RTVSPost2010Prop55
280
     0
102
RTVSPost2010PropOp55
 70
     1
102
RTVSPost2010Prop56
140
1.0
102
RTVSPost2010PropOp56
 70
     1
102
RTVSPost2010Prop57
140
1.0
102
RTVSPost2010PropOp57
 70
     1
  0
XRECORD
  5
BC
102
{ACAD_REACTORS
330
BB
102
}
330
BB
100
AcDbXrecord
280
     1
102
RTVSPropertyOp0
 70
     1
102
RTVSPropertyOp1
 70
     1
102
RTVSPropertyOp2
 70
     1
102
RTVSPropertyOp3
 70
     1
102
RTVSPropertyOp4
 70
     1
102
RTVSPropertyOp5
 70
     1
102
RTVSPropertyOp6
 70
     1
102
RTVSPropertyOp7
 70
     1
102
RTVSPropertyOp8
 70
     1
102
RTVSPropertyOp9
 70
     1
102
RTVSPropertyOp10
 70
     1
102
RTVSPropertyOp11
 70
     1
102
RTVSPropertyOp12
 70
     1
102
RTVSPropertyOp13
 70
     1
102
RTVSPropertyOp14
 70
     1
102
RTVSPropertyOp15
 70
     1
102
RTVSPropertyOp16
 70
     1
102
RTVSPropertyOp17
 70
     1
102
RTVSPropertyOp18
 70
     1
102
RTVSPropertyOp19
 70
     1
102
RTVSPropertyOp20
 70
     1
102
RTVSPropertyOp21
 70
     1
102
RTVSPropertyOp22
 70
     1
102
RTVSPropertyOp23
 70
     1
102
RTVSPropertyOp24
 70
     1
102
RTVSPropertyOp25
 70
     1
102
RTVSPropertyOp26
 70
     1
102
RTVSPropertyOp27
 70
     1
102
RTVSPropertyOp28
 70
     1
102
RTVSPropertyOp29
 70
     1
102
RTVSPropertyOp30
 70
     1
102
RTVSPropertyOp31
 70
     1
102
RTVSPropertyOp32
 70
     1
102
RTVSPropertyOp33
 70
     1
102
RTVSPropertyOp34
 70
     1
102
RTVSPropertyOp35
 70
     1
102
RTVSPropertyOp36
 70
     1
102
RTVSPropertyOp37
 70
     1
102
RTVSPropertyOp38
 70
     1
102
RTVSPropertyOp39
 70
     1
102
RTVSPropertyOp40
 70
     1
102
RTVSPropertyOp41
 70
     1
102
RTVSPropertyOp42
 70
     1
102
RTVSPropertyOp43
 70
     1
102
RTVSPropertyOp44
 70
     1
102
RTVSPropertyOp45
 70
     1
102
RTVSPropertyOp46
 70
     1
102
RTVSPropertyOp47
 70
     1
102
RTVSPropertyOp48
 70
     1
102
RTVSPropertyOp49
 70
     1
102
RTVSPropertyOp50
 70
     1
102
RTVSPropertyOp51
 70
     0
102
RTVSPropertyOp52
 70
     0
102
RTVSPropertyOp53
 70
     1
102
RTVSPropertyOp54
 70
     1
102
RTVSPropertyOp55
 70
     1
102
RTVSPropertyOp56
 70
     1
102
RTVSPropertyOp57
 70
     1
102
RTVSPost2010Prop28
280
     0
102
RTVSPost2010PropOp28
 70
     1
102
RTVSPost2010Prop29
280
     1
102
RTVSPost2010PropOp29
 70
     1
102
RTVSPost2010Prop30
280
     1
102
RTVSPost2010PropOp30
 70
     1
102
RTVSPost2010Prop31
280
     0
102
RTVSPost2010PropOp31
 70
     1
102
RTVSPost2010Prop32
280
     0
102
RTVSPost2010PropOp32
 70
     1
102
RTVSPost2010Prop33
280
     0
102
RTVSPost2010PropOp33
 70
     1
102
RTVSPost2010Prop34
280
     0
102
RTVSPost2010PropOp34
 70
     1
102
RTVSPost2010Prop35
280
     0
102
RTVSPost2010PropOp35
 70
     1
102
RTVSPost2010Prop36
280
     0
102
RTVSPost2010PropOp36
 70
     1
102
RTVSPost2010Prop37
 90
       50
102
RTVSPost2010PropOp37
 70
     1
102
RTVSPost2010Prop38
140
0.0
102
RTVSPost2010PropOp38
 70
     1
102
RTVSPost2010Prop39
140
1.0
102
RTVSPost2010PropOp39
 70
     1
102
RTVSPost2010Prop40
 90
        0
102
RTVSPost2010PropOp40
 70
     1
102
RTVSPost2010Prop41ColorIndex
 90
       18
102
RTVSPost2010Prop41ColorRGB
 90
        0
102
RTVSPost2010PropOp41
 70
     1
102
RTVSPost2010Prop42
 90
       50
102
RTVSPost2010PropOp42
 70
     1
102
RTVSPost2010Prop43
 90
        3
102
RTVSPost2010PropOp43
 70
     1
102
RTVSPost2010Prop44ColorIndex
 90
        5
102
RTVSPost2010Prop44ColorRGB
 90
      255
102
RTVSPost2010PropOp44
 70
     1
102
RTVSPost2010Prop45
280
     0
102
RTVSPost2010PropOp45
 70
     1
102
RTVSPost2010Prop46
 90
       50
102
RTVSPost2010PropOp46
 70
     1
102
RTVSPost2010Prop47
 90
       50
102
RTVSPost2010PropOp47
 70
     1
102
RTVSPost2010Prop48
 90
       50
102
RTVSPost2010PropOp48
 70
     1
102
RTVSPost2010Prop49
280
     0
102
RTVSPost2010PropOp49
 70
     1
102
RTVSPost2010Prop50
 90
       50
102
RTVSPost2010PropOp50
 70
     1
102
RTVSPost2010Prop51ColorIndex
 90
      256
102
RTVSPost2010Prop51ColorRGB
 90
-16777216
102
RTVSPost2010PropOp51
 70
     0
102
RTVSPost2010Prop52
140
1.0
102
RTVSPost2010PropOp52
 70
     0
102
RTVSPost2010Prop53
 90
        2
102
RTVSPost2010PropOp53
 70
     1
102
RTVSPost2010Prop54
  1
strokes_ogs.tif
102
RTVSPost2010PropOp54
 70
     1
102
RTVSPost2010Prop55
280
     0
102
RTVSPost2010PropOp55
 70
     1
102
RTVSPost2010Prop56
140
1.0
102
RTVSPost2010PropOp56
 70
     1
102
RTVSPost2010Prop57
140
1.0
102
RTVSPost2010PropOp57
 70
     1
  0
XRECORD
  5
CC
102
{ACAD_REACTORS
330
CB
102
}
330
CB
100
AcDbXrecord
280
     1
102
RTVSPropertyOp0
 70
     0
102
RTVSPropertyOp1
 70
     0
102
RTVSPropertyOp2
 70
     0
102
RTVSPropertyOp3
 70
     0
102
RTVSPropertyOp4
 70
     0
102
RTVSPropertyOp5
 70
     0
102
RTVSPropertyOp6
 70
     0
102
RTVSPropertyOp7
 70
     0
102
RTVSPropertyOp8
 70
     0
102
RTVSPropertyOp9
 70
     0
102
RTVSPropertyOp10
 70
     0
102
RTVSPropertyOp11
 70
     0
102
RTVSPropertyOp12
 70
     0
102
RTVSPropertyOp13
 70
     0
102
RTVSPropertyOp14
 70
     2
102
RTVSPropertyOp15
 70
     0
102
RTVSPropertyOp16
 70
     0
102
RTVSPropertyOp17
 70
     0
102
RTVSPropertyOp18
 70
     0
102
RTVSPropertyOp19
 70
     0
102
RTVSPropertyOp20
 70
     0
102
RTVSPropertyOp21
 70
     0
102
RTVSPropertyOp22
 70
     0
102
RTVSPropertyOp23
 70
     0
102
RTVSPropertyOp24
 70
     0
102
RTVSPropertyOp25
 70
     0
102
RTVSPropertyOp26
 70
     0
102
RTVSPropertyOp27
 70
     0
102
RTVSPropertyOp28
 70
     0
102
RTVSPropertyOp29
 70
     0
102
RTVSPropertyOp30
 70
     0
102
RTVSPropertyOp31
 70
     0
102
RTVSPropertyOp32
 70
     0
102
RTVSPropertyOp33
 70
     0
102
RTVSPropertyOp34
 70
     0
102
RTVSPropertyOp35
 70
     0
102
RTVSPropertyOp36
 70
     0
102
RTVSPropertyOp37
 70
     0
102
RTVSPropertyOp38
 70
     0
102
RTVSPropertyOp39
 70
     0
102
RTVSPropertyOp40
 70
     0
102
RTVSPropertyOp41
 70
     0
102
RTVSPropertyOp42
 70
     0
102
RTVSPropertyOp43
 70
     0
102
RTVSPropertyOp44
 70
     0
102
RTVSPropertyOp45
 70
     0
102
RTVSPropertyOp46
 70
     0
102
RTVSPropertyOp47
 70
     0
102
RTVSPropertyOp48
 70
     0
102
RTVSPropertyOp49
 70
     0
102
RTVSPropertyOp50
 70
     0
102
RTVSPropertyOp51
 70
     0
102
RTVSPropertyOp52
 70
     0
102
RTVSPropertyOp53
 70
     0
102
RTVSPropertyOp54
 70
     0
102
RTVSPropertyOp55
 70
     0
102
RTVSPropertyOp56
 70
     0
102
RTVSPropertyOp57
 70
     0
102
RTVSPost2010Prop28
280
     0
102
RTVSPost2010PropOp28
 70
     0
102
RTVSPost2010Prop29
280
     1
102
RTVSPost2010PropOp29
 70
     0
102
RTVSPost2010Prop30
280
     1
102
RTVSPost2010PropOp30
 70
     0
102
RTVSPost2010Prop31
280
     0
102
RTVSPost2010PropOp31
 70
     0
102
RTVSPost2010Prop32
280
     0
102
RTVSPost2010PropOp32
 70
     0
102
RTVSPost2010Prop33
280
     0
102
RTVSPost2010PropOp33
 70
     0
102
RTVSPost2010Prop34
280
     0
102
RTVSPost2010PropOp34
 70
     0
102
RTVSPost2010Prop35
280
     0
102
RTVSPost2010PropOp35
 70
     0
102
RTVSPost2010Prop36
280
     0
102
RTVSPost2010PropOp36
 70
     0
102
RTVSPost2010Prop37
 90
       50
102
RTVSPost2010PropOp37
 70
     0
102
RTVSPost2010Prop38
140
0.0
102
RTVSPost2010PropOp38
 70
     0
102
RTVSPost2010Prop39
140
1.0
102
RTVSPost2010PropOp39
 70
     0
102
RTVSPost2010Prop40
 90
        0
102
RTVSPost2010PropOp40
 70
     0
102
RTVSPost2010Prop41ColorIndex
 90
       18
102
RTVSPost2010Prop41ColorRGB
 90
        0
102
RTVSPost2010PropOp41
 70
     0
102
RTVSPost2010Prop42
 90
       50
102
RTVSPost2010PropOp42
 70
     0
102
RTVSPost2010Prop43
 90
        3
102
RTVSPost2010PropOp43
 70
     0
102
RTVSPost2010Prop44ColorIndex
 90
        5
102
RTVSPost2010Prop44ColorRGB
 90
      255
102
RTVSPost2010PropOp44
 70
     0
102
RTVSPost2010Prop45
280
     0
102
RTVSPost2010PropOp45
 70
     0
102
RTVSPost2010Prop46
 90
       50
102
RTVSPost2010PropOp46
 70
     0
102
RTVSPost2010Prop47
 90
       50
102
RTVSPost2010PropOp47
 70
     0
102
RTVSPost2010Prop48
 90
       50
102
RTVSPost2010PropOp48
 70
     0
102
RTVSPost2010Prop49
280
     0
102
RTVSPost2010PropOp49
 70
     0
102
RTVSPost2010Prop50
 90
       50
102
RTVSPost2010PropOp50
 70
     0
102
RTVSPost2010Prop51ColorIndex
 90
      256
102
RTVSPost2010Prop51ColorRGB
 90
-16777216
102
RTVSPost2010PropOp51
 70
     0
102
RTVSPost2010Prop52
140
1.0
102
RTVSPost2010PropOp52
 70
     0
102
RTVSPost2010Prop53
 90
        2
102
RTVSPost2010PropOp53
 70
     0
102
RTVSPost2010Prop54
  1
strokes_ogs.tif
102
RTVSPost2010PropOp54
 70
     0
102
RTVSPost2010Prop55
280
     0
102
RTVSPost2010PropOp55
 70
     0
102
RTVSPost2010Prop56
140
1.0
102
RTVSPost2010PropOp56
 70
     0
102
RTVSPost2010Prop57
140
1.0
102
RTVSPost2010PropOp57
 70
     0
  0
XRECORD
  5
C4
102
{ACAD_REACTORS
330
C3
102
}
330
C3
100
AcDbXrecord
280
     1
102
RTVSPropertyOp0
 70
     1
102
RTVSPropertyOp1
 70
     1
102
RTVSPropertyOp2
 70
     1
102
RTVSPropertyOp3
 70
     1
102
RTVSPropertyOp4
 70
     1
102
RTVSPropertyOp5
 70
     1
102
RTVSPropertyOp6
 70
     1
102
RTVSPropertyOp7
 70
     1
102
RTVSPropertyOp8
 70
     1
102
RTVSPropertyOp9
 70
     1
102
RTVSPropertyOp10
 70
     1
102
RTVSPropertyOp11
 70
     1
102
RTVSPropertyOp12
 70
     1
102
RTVSPropertyOp13
 70
     1
102
RTVSPropertyOp14
 70
     1
102
RTVSPropertyOp15
 70
     1
102
RTVSPropertyOp16
 70
     1
102
RTVSPropertyOp17
 70
     1
102
RTVSPropertyOp18
 70
     1
102
RTVSPropertyOp19
 70
     1
102
RTVSPropertyOp20
 70
     1
102
RTVSPropertyOp21
 70
     1
102
RTVSPropertyOp22
 70
     1
102
RTVSPropertyOp23
 70
     1
102
RTVSPropertyOp24
 70
     1
102
RTVSPropertyOp25
 70
     1
102
RTVSPropertyOp26
 70
     1
102
RTVSPropertyOp27
 70
     1
102
RTVSPropertyOp28
 70
     1
102
RTVSPropertyOp29
 70
     1
102
RTVSPropertyOp30
 70
     1
102
RTVSPropertyOp31
 70
     1
102
RTVSPropertyOp32
 70
     1
102
RTVSPropertyOp33
 70
     1
102
RTVSPropertyOp34
 70
     1
102
RTVSPropertyOp35
 70
     1
102
RTVSPropertyOp36
 70
     1
102
RTVSPropertyOp37
 70
     1
102
RTVSPropertyOp38
 70
     1
102
RTVSPropertyOp39
 70
     1
102
RTVSPropertyOp40
 70
     1
102
RTVSPropertyOp41
 70
     1
102
RTVSPropertyOp42
 70
     1
102
RTVSPropertyOp43
 70
     1
102
RTVSPropertyOp44
 70
     1
102
RTVSPropertyOp45
 70
     1
102
RTVSPropertyOp46
 70
     1
102
RTVSPropertyOp47
 70
     1
102
RTVSPropertyOp48
 70
     1
102
RTVSPropertyOp49
 70
     1
102
RTVSPropertyOp50
 70
     1
102
RTVSPropertyOp51
 70
     0
102
RTVSPropertyOp52
 70
     0
102
RTVSPropertyOp53
 70
     1
102
RTVSPropertyOp54
 70
     1
102
RTVSPropertyOp55
 70
     1
102
RTVSPropertyOp56
 70
     1
102
RTVSPropertyOp57
 70
     1
102
RTVSPost2010Prop28
280
     0
102
RTVSPost2010PropOp28
 70
     1
102
RTVSPost2010Prop29
280
     1
102
RTVSPost2010PropOp29
 70
     1
102
RTVSPost2010Prop30
280
     1
102
RTVSPost2010PropOp30
 70
     1
102
RTVSPost2010Prop31
280
     0
102
RTVSPost2010PropOp31
 70
     1
102
RTVSPost2010Prop32
280
     0
102
RTVSPost2010PropOp32
 70
     1
102
RTVSPost2010Prop33
280
     0
102
RTVSPost2010PropOp33
 70
     1
102
RTVSPost2010Prop34
280
     0
102
RTVSPost2010PropOp34
 70
     1
102
RTVSPost2010Prop35
280
     0
102
RTVSPost2010PropOp35
 70
     1
102
RTVSPost2010Prop36
280
     0
102
RTVSPost2010PropOp36
 70
     1
102
RTVSPost2010Prop37
 90
       50
102
RTVSPost2010PropOp37
 70
     1
102
RTVSPost2010Prop38
140
0.0
102
RTVSPost2010PropOp38
 70
     1
102
RTVSPost2010Prop39
140
1.0
102
RTVSPost2010PropOp39
 70
     1
102
RTVSPost2010Prop40
 90
        0
102
RTVSPost2010PropOp40
 70
     1
102
RTVSPost2010Prop41ColorIndex
 90
       18
102
RTVSPost2010Prop41ColorRGB
 90
        0
102
RTVSPost2010PropOp41
 70
     1
102
RTVSPost2010Prop42
 90
       50
102
RTVSPost2010PropOp42
 70
     1
102
RTVSPost2010Prop43
 90
        3
102
RTVSPost2010PropOp43
 70
     1
102
RTVSPost2010Prop44ColorIndex
 90
        5
102
RTVSPost2010Prop44ColorRGB
 90
      255
102
RTVSPost2010PropOp44
 70
     1
102
RTVSPost2010Prop45
280
     0
102
RTVSPost2010PropOp45
 70
     1
102
RTVSPost2010Prop46
 90
       50
102
RTVSPost2010PropOp46
 70
     1
102
RTVSPost2010Prop47
 90
       50
102
RTVSPost2010PropOp47
 70
     1
102
RTVSPost2010Prop48
 90
       50
102
RTVSPost2010PropOp48
 70
     1
102
RTVSPost2010Prop49
280
     0
102
RTVSPost2010PropOp49
 70
     1
102
RTVSPost2010Prop50
 90
       50
102
RTVSPost2010PropOp50
 70
     1
102
RTVSPost2010Prop51ColorIndex
 90
      256
102
RTVSPost2010Prop51ColorRGB
 90
-16777216
102
RTVSPost2010PropOp51
 70
     0
102
RTVSPost2010Prop52
140
1.0
102
RTVSPost2010PropOp52
 70
     0
102
RTVSPost2010Prop53
 90
        2
102
RTVSPost2010PropOp53
 70
     1
102
RTVSPost2010Prop54
  1
strokes_ogs.tif
102
RTVSPost2010PropOp54
 70
     1
102
RTVSPost2010Prop55
280
     0
102
RTVSPost2010PropOp55
 70
     1
102
RTVSPost2010Prop56
140
1.0
102
RTVSPost2010PropOp56
 70
     1
102
RTVSPost2010Prop57
140
1.0
102
RTVSPost2010PropOp57
 70
     1
  0
XRECORD
  5
A8
102
{ACAD_REACTORS
330
A7
102
}
330
A7
100
AcDbXrecord
280
     1
102
RTVSPropertyOp0
 70
     1
102
RTVSPropertyOp1
 70
     1
102
RTVSPropertyOp2
 70
     1
102
RTVSPropertyOp3
 70
     1
102
RTVSPropertyOp4
 70
     1
102
RTVSPropertyOp5
 70
     1
102
RTVSPropertyOp6
 70
     1
102
RTVSPropertyOp7
 70
     1
102
RTVSPropertyOp8
 70
     1
102
RTVSPropertyOp9
 70
     1
102
RTVSPropertyOp10
 70
     1
102
RTVSPropertyOp11
 70
     1
102
RTVSPropertyOp12
 70
     1
102
RTVSPropertyOp13
 70
     1
102
RTVSPropertyOp14
 70
     1
102
RTVSPropertyOp15
 70
     1
102
RTVSPropertyOp16
 70
     1
102
RTVSPropertyOp17
 70
     1
102
RTVSPropertyOp18
 70
     1
102
RTVSPropertyOp19
 70
     1
102
RTVSPropertyOp20
 70
     1
102
RTVSPropertyOp21
 70
     1
102
RTVSPropertyOp22
 70
     1
102
RTVSPropertyOp23
 70
     1
102
RTVSPropertyOp24
 70
     1
102
RTVSPropertyOp25
 70
     1
102
RTVSPropertyOp26
 70
     1
102
RTVSPropertyOp27
 70
     1
102
RTVSPropertyOp28
 70
     1
102
RTVSPropertyOp29
 70
     1
102
RTVSPropertyOp30
 70
     1
102
RTVSPropertyOp31
 70
     1
102
RTVSPropertyOp32
 70
     1
102
RTVSPropertyOp33
 70
     1
102
RTVSPropertyOp34
 70
     1
102
RTVSPropertyOp35
 70
     1
102
RTVSPropertyOp36
 70
     1
102
RTVSPropertyOp37
 70
     1
102
RTVSPropertyOp38
 70
     1
102
RTVSPropertyOp39
 70
     1
102
RTVSPropertyOp40
 70
     1
102
RTVSPropertyOp41
 70
     1
102
RTVSPropertyOp42
 70
     1
102
RTVSPropertyOp43
 70
     1
102
RTVSPropertyOp44
 70
     1
102
RTVSPropertyOp45
 70
     1
102
RTVSPropertyOp46
 70
     1
102
RTVSPropertyOp47
 70
     1
102
RTVSPropertyOp48
 70
     1
102
RTVSPropertyOp49
 70
     1
102
RTVSPropertyOp50
 70
     1
102
RTVSPropertyOp51
 70
     0
102
RTVSPropertyOp52
 70
     0
102
RTVSPropertyOp53
 70
     1
102
RTVSPropertyOp54
 70
     1
102
RTVSPropertyOp55
 70
     1
102
RTVSPropertyOp56
 70
     1
102
RTVSPropertyOp57
 70
     1
102
RTVSPost2010Prop28
280
     0
102
RTVSPost2010PropOp28
 70
     1
102
RTVSPost2010Prop29
280
     1
102
RTVSPost2010PropOp29
 70
     1
102
RTVSPost2010Prop30
280
     1
102
RTVSPost2010PropOp30
 70
     1
102
RTVSPost2010Prop31
280
     0
102
RTVSPost2010PropOp31
 70
     1
102
RTVSPost2010Prop32
280
     0
102
RTVSPost2010PropOp32
 70
     1
102
RTVSPost2010Prop33
280
     0
102
RTVSPost2010PropOp33
 70
     1
102
RTVSPost2010Prop34
280
     0
102
RTVSPost2010PropOp34
 70
     1
102
RTVSPost2010Prop35
280
     0
102
RTVSPost2010PropOp35
 70
     1
102
RTVSPost2010Prop36
280
     0
102
RTVSPost2010PropOp36
 70
     1
102
RTVSPost2010Prop37
 90
       50
102
RTVSPost2010PropOp37
 70
     1
102
RTVSPost2010Prop38
140
0.0
102
RTVSPost2010PropOp38
 70
     1
102
RTVSPost2010Prop39
140
1.0
102
RTVSPost2010PropOp39
 70
     1
102
RTVSPost2010Prop40
 90
        0
102
RTVSPost2010PropOp40
 70
     1
102
RTVSPost2010Prop41ColorIndex
 90
       18
102
RTVSPost2010Prop41ColorRGB
 90
        0
102
RTVSPost2010PropOp41
 70
     1
102
RTVSPost2010Prop42
 90
       50
102
RTVSPost2010PropOp42
 70
     1
102
RTVSPost2010Prop43
 90
        3
102
RTVSPost2010PropOp43
 70
     1
102
RTVSPost2010Prop44ColorIndex
 90
        5
102
RTVSPost2010Prop44ColorRGB
 90
      255
102
RTVSPost2010PropOp44
 70
     1
102
RTVSPost2010Prop45
280
     0
102
RTVSPost2010PropOp45
 70
     1
102
RTVSPost2010Prop46
 90
       50
102
RTVSPost2010PropOp46
 70
     1
102
RTVSPost2010Prop47
 90
       50
102
RTVSPost2010PropOp47
 70
     1
102
RTVSPost2010Prop48
 90
       50
102
RTVSPost2010PropOp48
 70
     1
102
RTVSPost2010Prop49
280
     0
102
RTVSPost2010PropOp49
 70
     1
102
RTVSPost2010Prop50
 90
       50
102
RTVSPost2010PropOp50
 70
     1
102
RTVSPost2010Prop51ColorIndex
 90
      256
102
RTVSPost2010Prop51ColorRGB
 90
-16777216
102
RTVSPost2010PropOp51
 70
     0
102
RTVSPost2010Prop52
140
1.0
102
RTVSPost2010PropOp52
 70
     0
102
RTVSPost2010Prop53
 90
        2
102
RTVSPost2010PropOp53
 70
     1
102
RTVSPost2010Prop54
  1
strokes_ogs.tif
102
RTVSPost2010PropOp54
 70
     1
102
RTVSPost2010Prop55
280
     0
102
RTVSPost2010PropOp55
 70
     1
102
RTVSPost2010Prop56
140
1.0
102
RTVSPost2010PropOp56
 70
     1
102
RTVSPost2010Prop57
140
1.0
102
RTVSPost2010PropOp57
 70
     1
  0
XRECORD
  5
AA
102
{ACAD_REACTORS
330
A9
102
}
330
A9
100
AcDbXrecord
280
     1
102
RTVSPropertyOp0
 70
     1
102
RTVSPropertyOp1
 70
     1
102
RTVSPropertyOp2
 70
     1
102
RTVSPropertyOp3
 70
     1
102
RTVSPropertyOp4
 70
     1
102
RTVSPropertyOp5
 70
     1
102
RTVSPropertyOp6
 70
     1
102
RTVSPropertyOp7
 70
     1
102
RTVSPropertyOp8
 70
     1
102
RTVSPropertyOp9
 70
     1
102
RTVSPropertyOp10
 70
     1
102
RTVSPropertyOp11
 70
     1
102
RTVSPropertyOp12
 70
     1
102
RTVSPropertyOp13
 70
     1
102
RTVSPropertyOp14
 70
     1
102
RTVSPropertyOp15
 70
     1
102
RTVSPropertyOp16
 70
     1
102
RTVSPropertyOp17
 70
     1
102
RTVSPropertyOp18
 70
     1
102
RTVSPropertyOp19
 70
     1
102
RTVSPropertyOp20
 70
     1
102
RTVSPropertyOp21
 70
     1
102
RTVSPropertyOp22
 70
     1
102
RTVSPropertyOp23
 70
     1
102
RTVSPropertyOp24
 70
     1
102
RTVSPropertyOp25
 70
     1
102
RTVSPropertyOp26
 70
     1
102
RTVSPropertyOp27
 70
     1
102
RTVSPropertyOp28
 70
     1
102
RTVSPropertyOp29
 70
     1
102
RTVSPropertyOp30
 70
     1
102
RTVSPropertyOp31
 70
     1
102
RTVSPropertyOp32
 70
     1
102
RTVSPropertyOp33
 70
     1
102
RTVSPropertyOp34
 70
     1
102
RTVSPropertyOp35
 70
     1
102
RTVSPropertyOp36
 70
     1
102
RTVSPropertyOp37
 70
     1
102
RTVSPropertyOp38
 70
     1
102
RTVSPropertyOp39
 70
     1
102
RTVSPropertyOp40
 70
     1
102
RTVSPropertyOp41
 70
     1
102
RTVSPropertyOp42
 70
     1
102
RTVSPropertyOp43
 70
     1
102
RTVSPropertyOp44
 70
     1
102
RTVSPropertyOp45
 70
     1
102
RTVSPropertyOp46
 70
     1
102
RTVSPropertyOp47
 70
     1
102
RTVSPropertyOp48
 70
     1
102
RTVSPropertyOp49
 70
     1
102
RTVSPropertyOp50
 70
     1
102
RTVSPropertyOp51
 70
     0
102
RTVSPropertyOp52
 70
     0
102
RTVSPropertyOp53
 70
     1
102
RTVSPropertyOp54
 70
     1
102
RTVSPropertyOp55
 70
     1
102
RTVSPropertyOp56
 70
     1
102
RTVSPropertyOp57
 70
     1
102
RTVSPost2010Prop28
280
     0
102
RTVSPost2010PropOp28
 70
     1
102
RTVSPost2010Prop29
280
     1
102
RTVSPost2010PropOp29
 70
     1
102
RTVSPost2010Prop30
280
     1
102
RTVSPost2010PropOp30
 70
     1
102
RTVSPost2010Prop31
280
     0
102
RTVSPost2010PropOp31
 70
     1
102
RTVSPost2010Prop32
280
     0
102
RTVSPost2010PropOp32
 70
     1
102
RTVSPost2010Prop33
280
     0
102
RTVSPost2010PropOp33
 70
     1
102
RTVSPost2010Prop34
280
     0
102
RTVSPost2010PropOp34
 70
     1
102
RTVSPost2010Prop35
280
     0
102
RTVSPost2010PropOp35
 70
     1
102
RTVSPost2010Prop36
280
     0
102
RTVSPost2010PropOp36
 70
     1
102
RTVSPost2010Prop37
 90
       50
102
RTVSPost2010PropOp37
 70
     1
102
RTVSPost2010Prop38
140
0.0
102
RTVSPost2010PropOp38
 70
     1
102
RTVSPost2010Prop39
140
1.0
102
RTVSPost2010PropOp39
 70
     1
102
RTVSPost2010Prop40
 90
        0
102
RTVSPost2010PropOp40
 70
     1
102
RTVSPost2010Prop41ColorIndex
 90
       18
102
RTVSPost2010Prop41ColorRGB
 90
        0
102
RTVSPost2010PropOp41
 70
     1
102
RTVSPost2010Prop42
 90
       50
102
RTVSPost2010PropOp42
 70
     1
102
RTVSPost2010Prop43
 90
        3
102
RTVSPost2010PropOp43
 70
     1
102
RTVSPost2010Prop44ColorIndex
 90
        5
102
RTVSPost2010Prop44ColorRGB
 90
      255
102
RTVSPost2010PropOp44
 70
     1
102
RTVSPost2010Prop45
280
     0
102
RTVSPost2010PropOp45
 70
     1
102
RTVSPost2010Prop46
 90
       50
102
RTVSPost2010PropOp46
 70
     1
102
RTVSPost2010Prop47
 90
       50
102
RTVSPost2010PropOp47
 70
     1
102
RTVSPost2010Prop48
 90
       50
102
RTVSPost2010PropOp48
 70
     1
102
RTVSPost2010Prop49
280
     0
102
RTVSPost2010PropOp49
 70
     1
102
RTVSPost2010Prop50
 90
       50
102
RTVSPost2010PropOp50
 70
     1
102
RTVSPost2010Prop51ColorIndex
 90
      256
102
RTVSPost2010Prop51ColorRGB
 90
-16777216
102
RTVSPost2010PropOp51
 70
     0
102
RTVSPost2010Prop52
140
1.0
102
RTVSPost2010PropOp52
 70
     0
102
RTVSPost2010Prop53
 90
        2
102
RTVSPost2010PropOp53
 70
     1
102
RTVSPost2010Prop54
  1
strokes_ogs.tif
102
RTVSPost2010PropOp54
 70
     1
102
RTVSPost2010Prop55
280
     0
102
RTVSPost2010PropOp55
 70
     1
102
RTVSPost2010Prop56
140
1.0
102
RTVSPost2010PropOp56
 70
     1
102
RTVSPost2010Prop57
140
1.0
102
RTVSPost2010PropOp57
 70
     1
  0
XRECORD
  5
AC
102
{ACAD_REACTORS
330
AB
102
}
330
AB
100
AcDbXrecord
280
     1
102
RTVSPropertyOp0
 70
     1
102
RTVSPropertyOp1
 70
     1
102
RTVSPropertyOp2
 70
     1
102
RTVSPropertyOp3
 70
     1
102
RTVSPropertyOp4
 70
     1
102
RTVSPropertyOp5
 70
     1
102
RTVSPropertyOp6
 70
     1
102
RTVSPropertyOp7
 70
     1
102
RTVSPropertyOp8
 70
     1
102
RTVSPropertyOp9
 70
     1
102
RTVSPropertyOp10
 70
     1
102
RTVSPropertyOp11
 70
     1
102
RTVSPropertyOp12
 70
     1
102
RTVSPropertyOp13
 70
     1
102
RTVSPropertyOp14
 70
     1
102
RTVSPropertyOp15
 70
     1
102
RTVSPropertyOp16
 70
     1
102
RTVSPropertyOp17
 70
     1
102
RTVSPropertyOp18
 70
     1
102
RTVSPropertyOp19
 70
     1
102
RTVSPropertyOp20
 70
     1
102
RTVSPropertyOp21
 70
     1
102
RTVSPropertyOp22
 70
     1
102
RTVSPropertyOp23
 70
     1
102
RTVSPropertyOp24
 70
     1
102
RTVSPropertyOp25
 70
     1
102
RTVSPropertyOp26
 70
     1
102
RTVSPropertyOp27
 70
     1
102
RTVSPropertyOp28
 70
     1
102
RTVSPropertyOp29
 70
     1
102
RTVSPropertyOp30
 70
     1
102
RTVSPropertyOp31
 70
     1
102
RTVSPropertyOp32
 70
     1
102
RTVSPropertyOp33
 70
     1
102
RTVSPropertyOp34
 70
     1
102
RTVSPropertyOp35
 70
     1
102
RTVSPropertyOp36
 70
     1
102
RTVSPropertyOp37
 70
     1
102
RTVSPropertyOp38
 70
     1
102
RTVSPropertyOp39
 70
     1
102
RTVSPropertyOp40
 70
     1
102
RTVSPropertyOp41
 70
     1
102
RTVSPropertyOp42
 70
     1
102
RTVSPropertyOp43
 70
     1
102
RTVSPropertyOp44
 70
     1
102
RTVSPropertyOp45
 70
     1
102
RTVSPropertyOp46
 70
     1
102
RTVSPropertyOp47
 70
     1
102
RTVSPropertyOp48
 70
     1
102
RTVSPropertyOp49
 70
     1
102
RTVSPropertyOp50
 70
     1
102
RTVSPropertyOp51
 70
     0
102
RTVSPropertyOp52
 70
     0
102
RTVSPropertyOp53
 70
     1
102
RTVSPropertyOp54
 70
     1
102
RTVSPropertyOp55
 70
     1
102
RTVSPropertyOp56
 70
     1
102
RTVSPropertyOp57
 70
     1
102
RTVSPost2010Prop28
280
     0
102
RTVSPost2010PropOp28
 70
     1
102
RTVSPost2010Prop29
280
     1
102
RTVSPost2010PropOp29
 70
     1
102
RTVSPost2010Prop30
280
     1
102
RTVSPost2010PropOp30
 70
     1
102
RTVSPost2010Prop31
280
     0
102
RTVSPost2010PropOp31
 70
     1
102
RTVSPost2010Prop32
280
     0
102
RTVSPost2010PropOp32
 70
     1
102
RTVSPost2010Prop33
280
     0
102
RTVSPost2010PropOp33
 70
     1
102
RTVSPost2010Prop34
280
     0
102
RTVSPost2010PropOp34
 70
     1
102
RTVSPost2010Prop35
280
     0
102
RTVSPost2010PropOp35
 70
     1
102
RTVSPost2010Prop36
280
     0
102
RTVSPost2010PropOp36
 70
     1
102
RTVSPost2010Prop37
 90
       50
102
RTVSPost2010PropOp37
 70
     1
102
RTVSPost2010Prop38
140
0.0
102
RTVSPost2010PropOp38
 70
     1
102
RTVSPost2010Prop39
140
1.0
102
RTVSPost2010PropOp39
 70
     1
102
RTVSPost2010Prop40
 90
        0
102
RTVSPost2010PropOp40
 70
     1
102
RTVSPost2010Prop41ColorIndex
 90
       18
102
RTVSPost2010Prop41ColorRGB
 90
        0
102
RTVSPost2010PropOp41
 70
     1
102
RTVSPost2010Prop42
 90
       50
102
RTVSPost2010PropOp42
 70
     1
102
RTVSPost2010Prop43
 90
        3
102
RTVSPost2010PropOp43
 70
     1
102
RTVSPost2010Prop44ColorIndex
 90
        5
102
RTVSPost2010Prop44ColorRGB
 90
      255
102
RTVSPost2010PropOp44
 70
     1
102
RTVSPost2010Prop45
280
     0
102
RTVSPost2010PropOp45
 70
     1
102
RTVSPost2010Prop46
 90
       50
102
RTVSPost2010PropOp46
 70
     1
102
RTVSPost2010Prop47
 90
       50
102
RTVSPost2010PropOp47
 70
     1
102
RTVSPost2010Prop48
 90
       50
102
RTVSPost2010PropOp48
 70
     1
102
RTVSPost2010Prop49
280
     0
102
RTVSPost2010PropOp49
 70
     1
102
RTVSPost2010Prop50
 90
       50
102
RTVSPost2010PropOp50
 70
     1
102
RTVSPost2010Prop51ColorIndex
 90
      256
102
RTVSPost2010Prop51ColorRGB
 90
-16777216
102
RTVSPost2010PropOp51
 70
     0
102
RTVSPost2010Prop52
140
1.0
102
RTVSPost2010PropOp52
 70
     0
102
RTVSPost2010Prop53
 90
        2
102
RTVSPost2010PropOp53
 70
     1
102
RTVSPost2010Prop54
  1
strokes_ogs.tif
102
RTVSPost2010PropOp54
 70
     1
102
RTVSPost2010Prop55
280
     0
102
RTVSPost2010PropOp55
 70
     1
102
RTVSPost2010Prop56
140
1.0
102
RTVSPost2010PropOp56
 70
     1
102
RTVSPost2010Prop57
140
1.0
102
RTVSPost2010PropOp57
 70
     1
  0
XRECORD
  5
AE
102
{ACAD_REACTORS
330
AD
102
}
330
AD
100
AcDbXrecord
280
     1
102
RTVSPropertyOp0
 70
     1
102
RTVSPropertyOp1
 70
     1
102
RTVSPropertyOp2
 70
     1
102
RTVSPropertyOp3
 70
     1
102
RTVSPropertyOp4
 70
     1
102
RTVSPropertyOp5
 70
     1
102
RTVSPropertyOp6
 70
     1
102
RTVSPropertyOp7
 70
     1
102
RTVSPropertyOp8
 70
     1
102
RTVSPropertyOp9
 70
     1
102
RTVSPropertyOp10
 70
     1
102
RTVSPropertyOp11
 70
     1
102
RTVSPropertyOp12
 70
     1
102
RTVSPropertyOp13
 70
     1
102
RTVSPropertyOp14
 70
     1
102
RTVSPropertyOp15
 70
     1
102
RTVSPropertyOp16
 70
     1
102
RTVSPropertyOp17
 70
     1
102
RTVSPropertyOp18
 70
     1
102
RTVSPropertyOp19
 70
     1
102
RTVSPropertyOp20
 70
     1
102
RTVSPropertyOp21
 70
     1
102
RTVSPropertyOp22
 70
     1
102
RTVSPropertyOp23
 70
     1
102
RTVSPropertyOp24
 70
     1
102
RTVSPropertyOp25
 70
     1
102
RTVSPropertyOp26
 70
     1
102
RTVSPropertyOp27
 70
     1
102
RTVSPropertyOp28
 70
     1
102
RTVSPropertyOp29
 70
     1
102
RTVSPropertyOp30
 70
     1
102
RTVSPropertyOp31
 70
     1
102
RTVSPropertyOp32
 70
     1
102
RTVSPropertyOp33
 70
     1
102
RTVSPropertyOp34
 70
     1
102
RTVSPropertyOp35
 70
     1
102
RTVSPropertyOp36
 70
     1
102
RTVSPropertyOp37
 70
     1
102
RTVSPropertyOp38
 70
     1
102
RTVSPropertyOp39
 70
     1
102
RTVSPropertyOp40
 70
     1
102
RTVSPropertyOp41
 70
     1
102
RTVSPropertyOp42
 70
     1
102
RTVSPropertyOp43
 70
     1
102
RTVSPropertyOp44
 70
     1
102
RTVSPropertyOp45
 70
     1
102
RTVSPropertyOp46
 70
     1
102
RTVSPropertyOp47
 70
     1
102
RTVSPropertyOp48
 70
     1
102
RTVSPropertyOp49
 70
     1
102
RTVSPropertyOp50
 70
     1
102
RTVSPropertyOp51
 70
     0
102
RTVSPropertyOp52
 70
     0
102
RTVSPropertyOp53
 70
     1
102
RTVSPropertyOp54
 70
     1
102
RTVSPropertyOp55
 70
     1
102
RTVSPropertyOp56
 70
     1
102
RTVSPropertyOp57
 70
     1
102
RTVSPost2010Prop28
280
     0
102
RTVSPost2010PropOp28
 70
     1
102
RTVSPost2010Prop29
280
     1
102
RTVSPost2010PropOp29
 70
     1
102
RTVSPost2010Prop30
280
     1
102
RTVSPost2010PropOp30
 70
     1
102
RTVSPost2010Prop31
280
     0
102
RTVSPost2010PropOp31
 70
     1
102
RTVSPost2010Prop32
280
     0
102
RTVSPost2010PropOp32
 70
     1
102
RTVSPost2010Prop33
280
     0
102
RTVSPost2010PropOp33
 70
     1
102
RTVSPost2010Prop34
280
     0
102
RTVSPost2010PropOp34
 70
     1
102
RTVSPost2010Prop35
280
     0
102
RTVSPost2010PropOp35
 70
     1
102
RTVSPost2010Prop36
280
     0
102
RTVSPost2010PropOp36
 70
     1
102
RTVSPost2010Prop37
 90
       50
102
RTVSPost2010PropOp37
 70
     1
102
RTVSPost2010Prop38
140
0.0
102
RTVSPost2010PropOp38
 70
     1
102
RTVSPost2010Prop39
140
1.0
102
RTVSPost2010PropOp39
 70
     1
102
RTVSPost2010Prop40
 90
        0
102
RTVSPost2010PropOp40
 70
     1
102
RTVSPost2010Prop41ColorIndex
 90
       18
102
RTVSPost2010Prop41ColorRGB
 90
        0
102
RTVSPost2010PropOp41
 70
     1
102
RTVSPost2010Prop42
 90
       50
102
RTVSPost2010PropOp42
 70
     1
102
RTVSPost2010Prop43
 90
        3
102
RTVSPost2010PropOp43
 70
     1
102
RTVSPost2010Prop44ColorIndex
 90
        5
102
RTVSPost2010Prop44ColorRGB
 90
      255
102
RTVSPost2010PropOp44
 70
     1
102
RTVSPost2010Prop45
280
     0
102
RTVSPost2010PropOp45
 70
     1
102
RTVSPost2010Prop46
 90
       50
102
RTVSPost2010PropOp46
 70
     1
102
RTVSPost2010Prop47
 90
       50
102
RTVSPost2010PropOp47
 70
     1
102
RTVSPost2010Prop48
 90
       50
102
RTVSPost2010PropOp48
 70
     1
102
RTVSPost2010Prop49
280
     0
102
RTVSPost2010PropOp49
 70
     1
102
RTVSPost2010Prop50
 90
       50
102
RTVSPost2010PropOp50
 70
     1
102
RTVSPost2010Prop51ColorIndex
 90
      256
102
RTVSPost2010Prop51ColorRGB
 90
-16777216
102
RTVSPost2010PropOp51
 70
     0
102
RTVSPost2010Prop52
140
1.0
102
RTVSPost2010PropOp52
 70
     0
102
RTVSPost2010Prop53
 90
        2
102
RTVSPost2010PropOp53
 70
     1
102
RTVSPost2010Prop54
  1
strokes_ogs.tif
102
RTVSPost2010PropOp54
 70
     1
102
RTVSPost2010Prop55
280
     0
102
RTVSPost2010PropOp55
 70
     1
102
RTVSPost2010Prop56
140
1.0
102
RTVSPost2010PropOp56
 70
     1
102
RTVSPost2010Prop57
140
1.0
102
RTVSPost2010PropOp57
 70
     1
  0
XRECORD
  5
B4
102
{ACAD_REACTORS
330
B3
102
}
330
B3
100
AcDbXrecord
280
     1
102
RTVSPropertyOp0
 70
     1
102
RTVSPropertyOp1
 70
     1
102
RTVSPropertyOp2
 70
     1
102
RTVSPropertyOp3
 70
     1
102
RTVSPropertyOp4
 70
     1
102
RTVSPropertyOp5
 70
     1
102
RTVSPropertyOp6
 70
     1
102
RTVSPropertyOp7
 70
     1
102
RTVSPropertyOp8
 70
     1
102
RTVSPropertyOp9
 70
     1
102
RTVSPropertyOp10
 70
     1
102
RTVSPropertyOp11
 70
     1
102
RTVSPropertyOp12
 70
     1
102
RTVSPropertyOp13
 70
     1
102
RTVSPropertyOp14
 70
     1
102
RTVSPropertyOp15
 70
     1
102
RTVSPropertyOp16
 70
     1
102
RTVSPropertyOp17
 70
     1
102
RTVSPropertyOp18
 70
     1
102
RTVSPropertyOp19
 70
     1
102
RTVSPropertyOp20
 70
     1
102
RTVSPropertyOp21
 70
     1
102
RTVSPropertyOp22
 70
     1
102
RTVSPropertyOp23
 70
     1
102
RTVSPropertyOp24
 70
     1
102
RTVSPropertyOp25
 70
     1
102
RTVSPropertyOp26
 70
     1
102
RTVSPropertyOp27
 70
     1
102
RTVSPropertyOp28
 70
     1
102
RTVSPropertyOp29
 70
     1
102
RTVSPropertyOp30
 70
     1
102
RTVSPropertyOp31
 70
     1
102
RTVSPropertyOp32
 70
     1
102
RTVSPropertyOp33
 70
     1
102
RTVSPropertyOp34
 70
     1
102
RTVSPropertyOp35
 70
     1
102
RTVSPropertyOp36
 70
     1
102
RTVSPropertyOp37
 70
     1
102
RTVSPropertyOp38
 70
     1
102
RTVSPropertyOp39
 70
     1
102
RTVSPropertyOp40
 70
     1
102
RTVSPropertyOp41
 70
     1
102
RTVSPropertyOp42
 70
     1
102
RTVSPropertyOp43
 70
     1
102
RTVSPropertyOp44
 70
     1
102
RTVSPropertyOp45
 70
     1
102
RTVSPropertyOp46
 70
     1
102
RTVSPropertyOp47
 70
     1
102
RTVSPropertyOp48
 70
     1
102
RTVSPropertyOp49
 70
     1
102
RTVSPropertyOp50
 70
     1
102
RTVSPropertyOp51
 70
     0
102
RTVSPropertyOp52
 70
     0
102
RTVSPropertyOp53
 70
     1
102
RTVSPropertyOp54
 70
     1
102
RTVSPropertyOp55
 70
     1
102
RTVSPropertyOp56
 70
     1
102
RTVSPropertyOp57
 70
     1
102
RTVSPost2010Prop28
280
     0
102
RTVSPost2010PropOp28
 70
     1
102
RTVSPost2010Prop29
280
     1
102
RTVSPost2010PropOp29
 70
     1
102
RTVSPost2010Prop30
280
     1
102
RTVSPost2010PropOp30
 70
     1
102
RTVSPost2010Prop31
280
     0
102
RTVSPost2010PropOp31
 70
     1
102
RTVSPost2010Prop32
280
     0
102
RTVSPost2010PropOp32
 70
     1
102
RTVSPost2010Prop33
280
     0
102
RTVSPost2010PropOp33
 70
     1
102
RTVSPost2010Prop34
280
     0
102
RTVSPost2010PropOp34
 70
     1
102
RTVSPost2010Prop35
280
     0
102
RTVSPost2010PropOp35
 70
     1
102
RTVSPost2010Prop36
280
     0
102
RTVSPost2010PropOp36
 70
     1
102
RTVSPost2010Prop37
 90
       50
102
RTVSPost2010PropOp37
 70
     1
102
RTVSPost2010Prop38
140
0.0
102
RTVSPost2010PropOp38
 70
     1
102
RTVSPost2010Prop39
140
1.0
102
RTVSPost2010PropOp39
 70
     1
102
RTVSPost2010Prop40
 90
        0
102
RTVSPost2010PropOp40
 70
     1
102
RTVSPost2010Prop41ColorIndex
 90
       18
102
RTVSPost2010Prop41ColorRGB
 90
        0
102
RTVSPost2010PropOp41
 70
     1
102
RTVSPost2010Prop42
 90
       50
102
RTVSPost2010PropOp42
 70
     1
102
RTVSPost2010Prop43
 90
        3
102
RTVSPost2010PropOp43
 70
     1
102
RTVSPost2010Prop44ColorIndex
 90
        5
102
RTVSPost2010Prop44ColorRGB
 90
      255
102
RTVSPost2010PropOp44
 70
     1
102
RTVSPost2010Prop45
280
     0
102
RTVSPost2010PropOp45
 70
     1
102
RTVSPost2010Prop46
 90
       50
102
RTVSPost2010PropOp46
 70
     1
102
RTVSPost2010Prop47
 90
       50
102
RTVSPost2010PropOp47
 70
     1
102
RTVSPost2010Prop48
 90
       50
102
RTVSPost2010PropOp48
 70
     1
102
RTVSPost2010Prop49
280
     0
102
RTVSPost2010PropOp49
 70
     1
102
RTVSPost2010Prop50
 90
       50
102
RTVSPost2010PropOp50
 70
     1
102
RTVSPost2010Prop51ColorIndex
 90
      256
102
RTVSPost2010Prop51ColorRGB
 90
-16777216
102
RTVSPost2010PropOp51
 70
     0
102
RTVSPost2010Prop52
140
1.0
102
RTVSPost2010PropOp52
 70
     0
102
RTVSPost2010Prop53
 90
        2
102
RTVSPost2010PropOp53
 70
     1
102
RTVSPost2010Prop54
  1
strokes_ogs.tif
102
RTVSPost2010PropOp54
 70
     1
102
RTVSPost2010Prop55
280
     0
102
RTVSPost2010PropOp55
 70
     1
102
RTVSPost2010Prop56
140
1.0
102
RTVSPost2010PropOp56
 70
     1
102
RTVSPost2010Prop57
140
1.0
102
RTVSPost2010PropOp57
 70
     1
  0
XRECORD
  5
C8
102
{ACAD_REACTORS
330
C7
102
}
330
C7
100
AcDbXrecord
280
     1
102
RTVSPropertyOp0
 70
     0
102
RTVSPropertyOp1
 70
     0
102
RTVSPropertyOp2
 70
     0
102
RTVSPropertyOp3
 70
     0
102
RTVSPropertyOp4
 70
     0
102
RTVSPropertyOp5
 70
     0
102
RTVSPropertyOp6
 70
     0
102
RTVSPropertyOp7
 70
     0
102
RTVSPropertyOp8
 70
     0
102
RTVSPropertyOp9
 70
     0
102
RTVSPropertyOp10
 70
     0
102
RTVSPropertyOp11
 70
     0
102
RTVSPropertyOp12
 70
     0
102
RTVSPropertyOp13
 70
     0
102
RTVSPropertyOp14
 70
     2
102
RTVSPropertyOp15
 70
     0
102
RTVSPropertyOp16
 70
     0
102
RTVSPropertyOp17
 70
     0
102
RTVSPropertyOp18
 70
     0
102
RTVSPropertyOp19
 70
     0
102
RTVSPropertyOp20
 70
     0
102
RTVSPropertyOp21
 70
     0
102
RTVSPropertyOp22
 70
     0
102
RTVSPropertyOp23
 70
     0
102
RTVSPropertyOp24
 70
     0
102
RTVSPropertyOp25
 70
     0
102
RTVSPropertyOp26
 70
     0
102
RTVSPropertyOp27
 70
     0
102
RTVSPropertyOp28
 70
     0
102
RTVSPropertyOp29
 70
     0
102
RTVSPropertyOp30
 70
     0
102
RTVSPropertyOp31
 70
     0
102
RTVSPropertyOp32
 70
     0
102
RTVSPropertyOp33
 70
     0
102
RTVSPropertyOp34
 70
     0
102
RTVSPropertyOp35
 70
     0
102
RTVSPropertyOp36
 70
     0
102
RTVSPropertyOp37
 70
     0
102
RTVSPropertyOp38
 70
     0
102
RTVSPropertyOp39
 70
     0
102
RTVSPropertyOp40
 70
     0
102
RTVSPropertyOp41
 70
     0
102
RTVSPropertyOp42
 70
     0
102
RTVSPropertyOp43
 70
     0
102
RTVSPropertyOp44
 70
     0
102
RTVSPropertyOp45
 70
     0
102
RTVSPropertyOp46
 70
     0
102
RTVSPropertyOp47
 70
     0
102
RTVSPropertyOp48
 70
     0
102
RTVSPropertyOp49
 70
     0
102
RTVSPropertyOp50
 70
     0
102
RTVSPropertyOp51
 70
     0
102
RTVSPropertyOp52
 70
     0
102
RTVSPropertyOp53
 70
     0
102
RTVSPropertyOp54
 70
     0
102
RTVSPropertyOp55
 70
     0
102
RTVSPropertyOp56
 70
     0
102
RTVSPropertyOp57
 70
     0
102
RTVSPost2010Prop28
280
     0
102
RTVSPost2010PropOp28
 70
     0
102
RTVSPost2010Prop29
280
     1
102
RTVSPost2010PropOp29
 70
     0
102
RTVSPost2010Prop30
280
     1
102
RTVSPost2010PropOp30
 70
     0
102
RTVSPost2010Prop31
280
     0
102
RTVSPost2010PropOp31
 70
     0
102
RTVSPost2010Prop32
280
     0
102
RTVSPost2010PropOp32
 70
     0
102
RTVSPost2010Prop33
280
     0
102
RTVSPost2010PropOp33
 70
     0
102
RTVSPost2010Prop34
280
     0
102
RTVSPost2010PropOp34
 70
     0
102
RTVSPost2010Prop35
280
     0
102
RTVSPost2010PropOp35
 70
     0
102
RTVSPost2010Prop36
280
     0
102
RTVSPost2010PropOp36
 70
     0
102
RTVSPost2010Prop37
 90
       50
102
RTVSPost2010PropOp37
 70
     0
102
RTVSPost2010Prop38
140
0.0
102
RTVSPost2010PropOp38
 70
     0
102
RTVSPost2010Prop39
140
1.0
102
RTVSPost2010PropOp39
 70
     0
102
RTVSPost2010Prop40
 90
        0
102
RTVSPost2010PropOp40
 70
     0
102
RTVSPost2010Prop41ColorIndex
 90
       18
102
RTVSPost2010Prop41ColorRGB
 90
        0
102
RTVSPost2010PropOp41
 70
     0
102
RTVSPost2010Prop42
 90
       50
102
RTVSPost2010PropOp42
 70
     0
102
RTVSPost2010Prop43
 90
        3
102
RTVSPost2010PropOp43
 70
     0
102
RTVSPost2010Prop44ColorIndex
 90
        5
102
RTVSPost2010Prop44ColorRGB
 90
      255
102
RTVSPost2010PropOp44
 70
     0
102
RTVSPost2010Prop45
280
     0
102
RTVSPost2010PropOp45
 70
     0
102
RTVSPost2010Prop46
 90
       50
102
RTVSPost2010PropOp46
 70
     0
102
RTVSPost2010Prop47
 90
       50
102
RTVSPost2010PropOp47
 70
     0
102
RTVSPost2010Prop48
 90
       50
102
RTVSPost2010PropOp48
 70
     0
102
RTVSPost2010Prop49
280
     0
102
RTVSPost2010PropOp49
 70
     0
102
RTVSPost2010Prop50
 90
       50
102
RTVSPost2010PropOp50
 70
     0
102
RTVSPost2010Prop51ColorIndex
 90
      256
102
RTVSPost2010Prop51ColorRGB
 90
-16777216
102
RTVSPost2010PropOp51
 70
     0
102
RTVSPost2010Prop52
140
1.0
102
RTVSPost2010PropOp52
 70
     0
102
RTVSPost2010Prop53
 90
        2
102
RTVSPost2010PropOp53
 70
     0
102
RTVSPost2010Prop54
  1
strokes_ogs.tif
102
RTVSPost2010PropOp54
 70
     0
102
RTVSPost2010Prop55
280
     0
102
RTVSPost2010PropOp55
 70
     0
102
RTVSPost2010Prop56
140
1.0
102
RTVSPost2010PropOp56
 70
     0
102
RTVSPost2010Prop57
140
1.0
102
RTVSPost2010PropOp57
 70
     0
  0
XRECORD
  5
C2
102
{ACAD_REACTORS
330
C1
102
}
330
C1
100
AcDbXrecord
280
     1
102
RTVSPropertyOp0
 70
     1
102
RTVSPropertyOp1
 70
     1
102
RTVSPropertyOp2
 70
     1
102
RTVSPropertyOp3
 70
     1
102
RTVSPropertyOp4
 70
     1
102
RTVSPropertyOp5
 70
     1
102
RTVSPropertyOp6
 70
     1
102
RTVSPropertyOp7
 70
     1
102
RTVSPropertyOp8
 70
     1
102
RTVSPropertyOp9
 70
     1
102
RTVSPropertyOp10
 70
     1
102
RTVSPropertyOp11
 70
     1
102
RTVSPropertyOp12
 70
     1
102
RTVSPropertyOp13
 70
     1
102
RTVSPropertyOp14
 70
     1
102
RTVSPropertyOp15
 70
     1
102
RTVSPropertyOp16
 70
     1
102
RTVSPropertyOp17
 70
     1
102
RTVSPropertyOp18
 70
     1
102
RTVSPropertyOp19
 70
     1
102
RTVSPropertyOp20
 70
     1
102
RTVSPropertyOp21
 70
     1
102
RTVSPropertyOp22
 70
     1
102
RTVSPropertyOp23
 70
     1
102
RTVSPropertyOp24
 70
     1
102
RTVSPropertyOp25
 70
     1
102
RTVSPropertyOp26
 70
     1
102
RTVSPropertyOp27
 70
     1
102
RTVSPropertyOp28
 70
     1
102
RTVSPropertyOp29
 70
     1
102
RTVSPropertyOp30
 70
     1
102
RTVSPropertyOp31
 70
     1
102
RTVSPropertyOp32
 70
     1
102
RTVSPropertyOp33
 70
     1
102
RTVSPropertyOp34
 70
     1
102
RTVSPropertyOp35
 70
     1
102
RTVSPropertyOp36
 70
     1
102
RTVSPropertyOp37
 70
     1
102
RTVSPropertyOp38
 70
     1
102
RTVSPropertyOp39
 70
     1
102
RTVSPropertyOp40
 70
     1
102
RTVSPropertyOp41
 70
     1
102
RTVSPropertyOp42
 70
     1
102
RTVSPropertyOp43
 70
     1
102
RTVSPropertyOp44
 70
     1
102
RTVSPropertyOp45
 70
     1
102
RTVSPropertyOp46
 70
     1
102
RTVSPropertyOp47
 70
     1
102
RTVSPropertyOp48
 70
     1
102
RTVSPropertyOp49
 70
     1
102
RTVSPropertyOp50
 70
     1
102
RTVSPropertyOp51
 70
     0
102
RTVSPropertyOp52
 70
     0
102
RTVSPropertyOp53
 70
     1
102
RTVSPropertyOp54
 70
     1
102
RTVSPropertyOp55
 70
     1
102
RTVSPropertyOp56
 70
     1
102
RTVSPropertyOp57
 70
     1
102
RTVSPost2010Prop28
280
     0
102
RTVSPost2010PropOp28
 70
     1
102
RTVSPost2010Prop29
280
     1
102
RTVSPost2010PropOp29
 70
     1
102
RTVSPost2010Prop30
280
     1
102
RTVSPost2010PropOp30
 70
     1
102
RTVSPost2010Prop31
280
     0
102
RTVSPost2010PropOp31
 70
     1
102
RTVSPost2010Prop32
280
     0
102
RTVSPost2010PropOp32
 70
     1
102
RTVSPost2010Prop33
280
     0
102
RTVSPost2010PropOp33
 70
     1
102
RTVSPost2010Prop34
280
     0
102
RTVSPost2010PropOp34
 70
     1
102
RTVSPost2010Prop35
280
     0
102
RTVSPost2010PropOp35
 70
     1
102
RTVSPost2010Prop36
280
     0
102
RTVSPost2010PropOp36
 70
     1
102
RTVSPost2010Prop37
 90
       50
102
RTVSPost2010PropOp37
 70
     1
102
RTVSPost2010Prop38
140
0.0
102
RTVSPost2010PropOp38
 70
     1
102
RTVSPost2010Prop39
140
1.0
102
RTVSPost2010PropOp39
 70
     1
102
RTVSPost2010Prop40
 90
        0
102
RTVSPost2010PropOp40
 70
     1
102
RTVSPost2010Prop41ColorIndex
 90
       18
102
RTVSPost2010Prop41ColorRGB
 90
        0
102
RTVSPost2010PropOp41
 70
     1
102
RTVSPost2010Prop42
 90
       50
102
RTVSPost2010PropOp42
 70
     1
102
RTVSPost2010Prop43
 90
        3
102
RTVSPost2010PropOp43
 70
     1
102
RTVSPost2010Prop44ColorIndex
 90
        5
102
RTVSPost2010Prop44ColorRGB
 90
      255
102
RTVSPost2010PropOp44
 70
     1
102
RTVSPost2010Prop45
280
     0
102
RTVSPost2010PropOp45
 70
     1
102
RTVSPost2010Prop46
 90
       50
102
RTVSPost2010PropOp46
 70
     1
102
RTVSPost2010Prop47
 90
       50
102
RTVSPost2010PropOp47
 70
     1
102
RTVSPost2010Prop48
 90
       50
102
RTVSPost2010PropOp48
 70
     1
102
RTVSPost2010Prop49
280
     0
102
RTVSPost2010PropOp49
 70
     1
102
RTVSPost2010Prop50
 90
       50
102
RTVSPost2010PropOp50
 70
     1
102
RTVSPost2010Prop51ColorIndex
 90
      256
102
RTVSPost2010Prop51ColorRGB
 90
-16777216
102
RTVSPost2010PropOp51
 70
     0
102
RTVSPost2010Prop52
140
1.0
102
RTVSPost2010PropOp52
 70
     0
102
RTVSPost2010Prop53
 90
        2
102
RTVSPost2010PropOp53
 70
     1
102
RTVSPost2010Prop54
  1
strokes_ogs.tif
102
RTVSPost2010PropOp54
 70
     1
102
RTVSPost2010Prop55
280
     0
102
RTVSPost2010PropOp55
 70
     1
102
RTVSPost2010Prop56
140
1.0
102
RTVSPost2010PropOp56
 70
     1
102
RTVSPost2010Prop57
140
1.0
102
RTVSPost2010PropOp57
 70
     1
  0
XRECORD
  5
CA
102
{ACAD_REACTORS
330
C9
102
}
330
C9
100
AcDbXrecord
280
     1
102
RTVSPropertyOp0
 70
     0
102
RTVSPropertyOp1
 70
     0
102
RTVSPropertyOp2
 70
     0
102
RTVSPropertyOp3
 70
     0
102
RTVSPropertyOp4
 70
     0
102
RTVSPropertyOp5
 70
     0
102
RTVSPropertyOp6
 70
     0
102
RTVSPropertyOp7
 70
     0
102
RTVSPropertyOp8
 70
     0
102
RTVSPropertyOp9
 70
     0
102
RTVSPropertyOp10
 70
     0
102
RTVSPropertyOp11
 70
     0
102
RTVSPropertyOp12
 70
     0
102
RTVSPropertyOp13
 70
     0
102
RTVSPropertyOp14
 70
     2
102
RTVSPropertyOp15
 70
     0
102
RTVSPropertyOp16
 70
     0
102
RTVSPropertyOp17
 70
     0
102
RTVSPropertyOp18
 70
     0
102
RTVSPropertyOp19
 70
     0
102
RTVSPropertyOp20
 70
     0
102
RTVSPropertyOp21
 70
     0
102
RTVSPropertyOp22
 70
     0
102
RTVSPropertyOp23
 70
     0
102
RTVSPropertyOp24
 70
     0
102
RTVSPropertyOp25
 70
     0
102
RTVSPropertyOp26
 70
     0
102
RTVSPropertyOp27
 70
     0
102
RTVSPropertyOp28
 70
     0
102
RTVSPropertyOp29
 70
     0
102
RTVSPropertyOp30
 70
     0
102
RTVSPropertyOp31
 70
     0
102
RTVSPropertyOp32
 70
     0
102
RTVSPropertyOp33
 70
     0
102
RTVSPropertyOp34
 70
     0
102
RTVSPropertyOp35
 70
     0
102
RTVSPropertyOp36
 70
     0
102
RTVSPropertyOp37
 70
     0
102
RTVSPropertyOp38
 70
     0
102
RTVSPropertyOp39
 70
     0
102
RTVSPropertyOp40
 70
     0
102
RTVSPropertyOp41
 70
     0
102
RTVSPropertyOp42
 70
     0
102
RTVSPropertyOp43
 70
     0
102
RTVSPropertyOp44
 70
     0
102
RTVSPropertyOp45
 70
     0
102
RTVSPropertyOp46
 70
     0
102
RTVSPropertyOp47
 70
     0
102
RTVSPropertyOp48
 70
     0
102
RTVSPropertyOp49
 70
     0
102
RTVSPropertyOp50
 70
     0
102
RTVSPropertyOp51
 70
     0
102
RTVSPropertyOp52
 70
     0
102
RTVSPropertyOp53
 70
     0
102
RTVSPropertyOp54
 70
     0
102
RTVSPropertyOp55
 70
     0
102
RTVSPropertyOp56
 70
     0
102
RTVSPropertyOp57
 70
     0
102
RTVSPost2010Prop28
280
     0
102
RTVSPost2010PropOp28
 70
     0
102
RTVSPost2010Prop29
280
     1
102
RTVSPost2010PropOp29
 70
     0
102
RTVSPost2010Prop30
280
     1
102
RTVSPost2010PropOp30
 70
     0
102
RTVSPost2010Prop31
280
     0
102
RTVSPost2010PropOp31
 70
     0
102
RTVSPost2010Prop32
280
     0
102
RTVSPost2010PropOp32
 70
     0
102
RTVSPost2010Prop33
280
     0
102
RTVSPost2010PropOp33
 70
     0
102
RTVSPost2010Prop34
280
     0
102
RTVSPost2010PropOp34
 70
     0
102
RTVSPost2010Prop35
280
     0
102
RTVSPost2010PropOp35
 70
     0
102
RTVSPost2010Prop36
280
     0
102
RTVSPost2010PropOp36
 70
     0
102
RTVSPost2010Prop37
 90
       50
102
RTVSPost2010PropOp37
 70
     0
102
RTVSPost2010Prop38
140
0.0
102
RTVSPost2010PropOp38
 70
     0
102
RTVSPost2010Prop39
140
1.0
102
RTVSPost2010PropOp39
 70
     0
102
RTVSPost2010Prop40
 90
        0
102
RTVSPost2010PropOp40
 70
     0
102
RTVSPost2010Prop41ColorIndex
 90
       18
102
RTVSPost2010Prop41ColorRGB
 90
        0
102
RTVSPost2010PropOp41
 70
     0
102
RTVSPost2010Prop42
 90
       50
102
RTVSPost2010PropOp42
 70
     0
102
RTVSPost2010Prop43
 90
        3
102
RTVSPost2010PropOp43
 70
     0
102
RTVSPost2010Prop44ColorIndex
 90
        5
102
RTVSPost2010Prop44ColorRGB
 90
      255
102
RTVSPost2010PropOp44
 70
     0
102
RTVSPost2010Prop45
280
     0
102
RTVSPost2010PropOp45
 70
     0
102
RTVSPost2010Prop46
 90
       50
102
RTVSPost2010PropOp46
 70
     0
102
RTVSPost2010Prop47
 90
       50
102
RTVSPost2010PropOp47
 70
     0
102
RTVSPost2010Prop48
 90
       50
102
RTVSPost2010PropOp48
 70
     0
102
RTVSPost2010Prop49
280
     0
102
RTVSPost2010PropOp49
 70
     0
102
RTVSPost2010Prop50
 90
       50
102
RTVSPost2010PropOp50
 70
     0
102
RTVSPost2010Prop51ColorIndex
 90
      256
102
RTVSPost2010Prop51ColorRGB
 90
-16777216
102
RTVSPost2010PropOp51
 70
     0
102
RTVSPost2010Prop52
140
1.0
102
RTVSPost2010PropOp52
 70
     0
102
RTVSPost2010Prop53
 90
        2
102
RTVSPost2010PropOp53
 70
     0
102
RTVSPost2010Prop54
  1
strokes_ogs.tif
102
RTVSPost2010PropOp54
 70
     0
102
RTVSPost2010Prop55
280
     0
102
RTVSPost2010PropOp55
 70
     0
102
RTVSPost2010Prop56
140
1.0
102
RTVSPost2010PropOp56
 70
     0
102
RTVSPost2010Prop57
140
1.0
102
RTVSPost2010PropOp57
 70
     0
  0
XRECORD
  5
B8
102
{ACAD_REACTORS
330
B7
102
}
330
B7
100
AcDbXrecord
280
     1
102
RTVSPropertyOp0
 70
     1
102
RTVSPropertyOp1
 70
     1
102
RTVSPropertyOp2
 70
     1
102
RTVSPropertyOp3
 70
     1
102
RTVSPropertyOp4
 70
     1
102
RTVSPropertyOp5
 70
     1
102
RTVSPropertyOp6
 70
     1
102
RTVSPropertyOp7
 70
     1
102
RTVSPropertyOp8
 70
     1
102
RTVSPropertyOp9
 70
     1
102
RTVSPropertyOp10
 70
     1
102
RTVSPropertyOp11
 70
     1
102
RTVSPropertyOp12
 70
     1
102
RTVSPropertyOp13
 70
     1
102
RTVSPropertyOp14
 70
     1
102
RTVSPropertyOp15
 70
     1
102
RTVSPropertyOp16
 70
     1
102
RTVSPropertyOp17
 70
     1
102
RTVSPropertyOp18
 70
     1
102
RTVSPropertyOp19
 70
     1
102
RTVSPropertyOp20
 70
     1
102
RTVSPropertyOp21
 70
     1
102
RTVSPropertyOp22
 70
     1
102
RTVSPropertyOp23
 70
     1
102
RTVSPropertyOp24
 70
     1
102
RTVSPropertyOp25
 70
     1
102
RTVSPropertyOp26
 70
     1
102
RTVSPropertyOp27
 70
     1
102
RTVSPropertyOp28
 70
     1
102
RTVSPropertyOp29
 70
     1
102
RTVSPropertyOp30
 70
     1
102
RTVSPropertyOp31
 70
     1
102
RTVSPropertyOp32
 70
     1
102
RTVSPropertyOp33
 70
     1
102
RTVSPropertyOp34
 70
     1
102
RTVSPropertyOp35
 70
     1
102
RTVSPropertyOp36
 70
     1
102
RTVSPropertyOp37
 70
     1
102
RTVSPropertyOp38
 70
     1
102
RTVSPropertyOp39
 70
     1
102
RTVSPropertyOp40
 70
     1
102
RTVSPropertyOp41
 70
     1
102
RTVSPropertyOp42
 70
     1
102
RTVSPropertyOp43
 70
     1
102
RTVSPropertyOp44
 70
     1
102
RTVSPropertyOp45
 70
     1
102
RTVSPropertyOp46
 70
     1
102
RTVSPropertyOp47
 70
     1
102
RTVSPropertyOp48
 70
     1
102
RTVSPropertyOp49
 70
     1
102
RTVSPropertyOp50
 70
     1
102
RTVSPropertyOp51
 70
     0
102
RTVSPropertyOp52
 70
     0
102
RTVSPropertyOp53
 70
     1
102
RTVSPropertyOp54
 70
     1
102
RTVSPropertyOp55
 70
     1
102
RTVSPropertyOp56
 70
     1
102
RTVSPropertyOp57
 70
     1
102
RTVSPost2010Prop28
280
     0
102
RTVSPost2010PropOp28
 70
     1
102
RTVSPost2010Prop29
280
     1
102
RTVSPost2010PropOp29
 70
     1
102
RTVSPost2010Prop30
280
     1
102
RTVSPost2010PropOp30
 70
     1
102
RTVSPost2010Prop31
280
     0
102
RTVSPost2010PropOp31
 70
     1
102
RTVSPost2010Prop32
280
     0
102
RTVSPost2010PropOp32
 70
     1
102
RTVSPost2010Prop33
280
     0
102
RTVSPost2010PropOp33
 70
     1
102
RTVSPost2010Prop34
280
     0
102
RTVSPost2010PropOp34
 70
     1
102
RTVSPost2010Prop35
280
     0
102
RTVSPost2010PropOp35
 70
     1
102
RTVSPost2010Prop36
280
     0
102
RTVSPost2010PropOp36
 70
     1
102
RTVSPost2010Prop37
 90
       50
102
RTVSPost2010PropOp37
 70
     1
102
RTVSPost2010Prop38
140
0.0
102
RTVSPost2010PropOp38
 70
     1
102
RTVSPost2010Prop39
140
1.0
102
RTVSPost2010PropOp39
 70
     1
102
RTVSPost2010Prop40
 90
        0
102
RTVSPost2010PropOp40
 70
     1
102
RTVSPost2010Prop41ColorIndex
 90
       18
102
RTVSPost2010Prop41ColorRGB
 90
        0
102
RTVSPost2010PropOp41
 70
     1
102
RTVSPost2010Prop42
 90
       50
102
RTVSPost2010PropOp42
 70
     1
102
RTVSPost2010Prop43
 90
        3
102
RTVSPost2010PropOp43
 70
     1
102
RTVSPost2010Prop44ColorIndex
 90
        5
102
RTVSPost2010Prop44ColorRGB
 90
      255
102
RTVSPost2010PropOp44
 70
     1
102
RTVSPost2010Prop45
280
     0
102
RTVSPost2010PropOp45
 70
     1
102
RTVSPost2010Prop46
 90
       50
102
RTVSPost2010PropOp46
 70
     1
102
RTVSPost2010Prop47
 90
       50
102
RTVSPost2010PropOp47
 70
     1
102
RTVSPost2010Prop48
 90
       50
102
RTVSPost2010PropOp48
 70
     1
102
RTVSPost2010Prop49
280
     0
102
RTVSPost2010PropOp49
 70
     1
102
RTVSPost2010Prop50
 90
       50
102
RTVSPost2010PropOp50
 70
     1
102
RTVSPost2010Prop51ColorIndex
 90
      256
102
RTVSPost2010Prop51ColorRGB
 90
-16777216
102
RTVSPost2010PropOp51
 70
     0
102
RTVSPost2010Prop52
140
1.0
102
RTVSPost2010PropOp52
 70
     0
102
RTVSPost2010Prop53
 90
        2
102
RTVSPost2010PropOp53
 70
     1
102
RTVSPost2010Prop54
  1
strokes_ogs.tif
102
RTVSPost2010PropOp54
 70
     1
102
RTVSPost2010Prop55
280
     0
102
RTVSPost2010PropOp55
 70
     1
102
RTVSPost2010Prop56
140
1.0
102
RTVSPost2010PropOp56
 70
     1
102
RTVSPost2010Prop57
140
1.0
102
RTVSPost2010PropOp57
 70
     1
  0
XRECORD
  5
D6
102
{ACAD_REACTORS
330
D5
102
}
330
D5
100
AcDbXrecord
280
     1
102
RTVSPropertyOp0
 70
     1
102
RTVSPropertyOp1
 70
     1
102
RTVSPropertyOp2
 70
     1
102
RTVSPropertyOp3
 70
     1
102
RTVSPropertyOp4
 70
     1
102
RTVSPropertyOp5
 70
     1
102
RTVSPropertyOp6
 70
     1
102
RTVSPropertyOp7
 70
     1
102
RTVSPropertyOp8
 70
     1
102
RTVSPropertyOp9
 70
     1
102
RTVSPropertyOp10
 70
     1
102
RTVSPropertyOp11
 70
     1
102
RTVSPropertyOp12
 70
     1
102
RTVSPropertyOp13
 70
     1
102
RTVSPropertyOp14
 70
     1
102
RTVSPropertyOp15
 70
     1
102
RTVSPropertyOp16
 70
     1
102
RTVSPropertyOp17
 70
     1
102
RTVSPropertyOp18
 70
     1
102
RTVSPropertyOp19
 70
     1
102
RTVSPropertyOp20
 70
     1
102
RTVSPropertyOp21
 70
     1
102
RTVSPropertyOp22
 70
     1
102
RTVSPropertyOp23
 70
     1
102
RTVSPropertyOp24
 70
     1
102
RTVSPropertyOp25
 70
     1
102
RTVSPropertyOp26
 70
     1
102
RTVSPropertyOp27
 70
     1
102
RTVSPropertyOp28
 70
     1
102
RTVSPropertyOp29
 70
     1
102
RTVSPropertyOp30
 70
     1
102
RTVSPropertyOp31
 70
     1
102
RTVSPropertyOp32
 70
     1
102
RTVSPropertyOp33
 70
     1
102
RTVSPropertyOp34
 70
     1
102
RTVSPropertyOp35
 70
     1
102
RTVSPropertyOp36
 70
     1
102
RTVSPropertyOp37
 70
     1
102
RTVSPropertyOp38
 70
     1
102
RTVSPropertyOp39
 70
     1
102
RTVSPropertyOp40
 70
     1
102
RTVSPropertyOp41
 70
     1
102
RTVSPropertyOp42
 70
     1
102
RTVSPropertyOp43
 70
     1
102
RTVSPropertyOp44
 70
     1
102
RTVSPropertyOp45
 70
     1
102
RTVSPropertyOp46
 70
     1
102
RTVSPropertyOp47
 70
     1
102
RTVSPropertyOp48
 70
     1
102
RTVSPropertyOp49
 70
     1
102
RTVSPropertyOp50
 70
     1
102
RTVSPropertyOp51
 70
     0
102
RTVSPropertyOp52
 70
     0
102
RTVSPropertyOp53
 70
     1
102
RTVSPropertyOp54
 70
     1
102
RTVSPropertyOp55
 70
     1
102
RTVSPropertyOp56
 70
     1
102
RTVSPropertyOp57
 70
     1
102
RTVSPost2010Prop28
280
     0
102
RTVSPost2010PropOp28
 70
     1
102
RTVSPost2010Prop29
280
     1
102
RTVSPost2010PropOp29
 70
     1
102
RTVSPost2010Prop30
280
     1
102
RTVSPost2010PropOp30
 70
     1
102
RTVSPost2010Prop31
280
     0
102
RTVSPost2010PropOp31
 70
     1
102
RTVSPost2010Prop32
280
     0
102
RTVSPost2010PropOp32
 70
     1
102
RTVSPost2010Prop33
280
     0
102
RTVSPost2010PropOp33
 70
     1
102
RTVSPost2010Prop34
280
     0
102
RTVSPost2010PropOp34
 70
     1
102
RTVSPost2010Prop35
280
     0
102
RTVSPost2010PropOp35
 70
     1
102
RTVSPost2010Prop36
280
     0
102
RTVSPost2010PropOp36
 70
     1
102
RTVSPost2010Prop37
 90
       50
102
RTVSPost2010PropOp37
 70
     1
102
RTVSPost2010Prop38
140
0.0
102
RTVSPost2010PropOp38
 70
     1
102
RTVSPost2010Prop39
140
1.0
102
RTVSPost2010PropOp39
 70
     1
102
RTVSPost2010Prop40
 90
        0
102
RTVSPost2010PropOp40
 70
     1
102
RTVSPost2010Prop41ColorIndex
 90
       18
102
RTVSPost2010Prop41ColorRGB
 90
        0
102
RTVSPost2010PropOp41
 70
     1
102
RTVSPost2010Prop42
 90
       50
102
RTVSPost2010PropOp42
 70
     1
102
RTVSPost2010Prop43
 90
        3
102
RTVSPost2010PropOp43
 70
     1
102
RTVSPost2010Prop44ColorIndex
 90
        5
102
RTVSPost2010Prop44ColorRGB
 90
      255
102
RTVSPost2010PropOp44
 70
     1
102
RTVSPost2010Prop45
280
     0
102
RTVSPost2010PropOp45
 70
     1
102
RTVSPost2010Prop46
 90
       50
102
RTVSPost2010PropOp46
 70
     1
102
RTVSPost2010Prop47
 90
       50
102
RTVSPost2010PropOp47
 70
     1
102
RTVSPost2010Prop48
 90
       50
102
RTVSPost2010PropOp48
 70
     1
102
RTVSPost2010Prop49
280
     0
102
RTVSPost2010PropOp49
 70
     1
102
RTVSPost2010Prop50
 90
       50
102
RTVSPost2010PropOp50
 70
     1
102
RTVSPost2010Prop51ColorIndex
 90
      256
102
RTVSPost2010Prop51ColorRGB
 90
-16777216
102
RTVSPost2010PropOp51
 70
     0
102
RTVSPost2010Prop52
140
1.0
102
RTVSPost2010PropOp52
 70
     0
102
RTVSPost2010Prop53
 90
        2
102
RTVSPost2010PropOp53
 70
     1
102
RTVSPost2010Prop54
  1
strokes_ogs.tif
102
RTVSPost2010PropOp54
 70
     1
102
RTVSPost2010Prop55
280
     0
102
RTVSPost2010PropOp55
 70
     1
102
RTVSPost2010Prop56
140
1.0
102
RTVSPost2010PropOp56
 70
     1
102
RTVSPost2010Prop57
140
1.0
102
RTVSPost2010PropOp57
 70
     1
  0
XRECORD
  5
D4
102
{ACAD_REACTORS
330
D3
102
}
330
D3
100
AcDbXrecord
280
     1
102
RTVSPropertyOp0
 70
     1
102
RTVSPropertyOp1
 70
     1
102
RTVSPropertyOp2
 70
     1
102
RTVSPropertyOp3
 70
     1
102
RTVSPropertyOp4
 70
     1
102
RTVSPropertyOp5
 70
     1
102
RTVSPropertyOp6
 70
     1
102
RTVSPropertyOp7
 70
     1
102
RTVSPropertyOp8
 70
     1
102
RTVSPropertyOp9
 70
     1
102
RTVSPropertyOp10
 70
     1
102
RTVSPropertyOp11
 70
     1
102
RTVSPropertyOp12
 70
     1
102
RTVSPropertyOp13
 70
     1
102
RTVSPropertyOp14
 70
     1
102
RTVSPropertyOp15
 70
     1
102
RTVSPropertyOp16
 70
     1
102
RTVSPropertyOp17
 70
     1
102
RTVSPropertyOp18
 70
     1
102
RTVSPropertyOp19
 70
     1
102
RTVSPropertyOp20
 70
     1
102
RTVSPropertyOp21
 70
     1
102
RTVSPropertyOp22
 70
     1
102
RTVSPropertyOp23
 70
     1
102
RTVSPropertyOp24
 70
     1
102
RTVSPropertyOp25
 70
     1
102
RTVSPropertyOp26
 70
     1
102
RTVSPropertyOp27
 70
     1
102
RTVSPropertyOp28
 70
     1
102
RTVSPropertyOp29
 70
     1
102
RTVSPropertyOp30
 70
     1
102
RTVSPropertyOp31
 70
     1
102
RTVSPropertyOp32
 70
     1
102
RTVSPropertyOp33
 70
     1
102
RTVSPropertyOp34
 70
     1
102
RTVSPropertyOp35
 70
     1
102
RTVSPropertyOp36
 70
     1
102
RTVSPropertyOp37
 70
     1
102
RTVSPropertyOp38
 70
     1
102
RTVSPropertyOp39
 70
     1
102
RTVSPropertyOp40
 70
     1
102
RTVSPropertyOp41
 70
     1
102
RTVSPropertyOp42
 70
     1
102
RTVSPropertyOp43
 70
     1
102
RTVSPropertyOp44
 70
     1
102
RTVSPropertyOp45
 70
     1
102
RTVSPropertyOp46
 70
     1
102
RTVSPropertyOp47
 70
     1
102
RTVSPropertyOp48
 70
     1
102
RTVSPropertyOp49
 70
     1
102
RTVSPropertyOp50
 70
     1
102
RTVSPropertyOp51
 70
     0
102
RTVSPropertyOp52
 70
     0
102
RTVSPropertyOp53
 70
     1
102
RTVSPropertyOp54
 70
     1
102
RTVSPropertyOp55
 70
     1
102
RTVSPropertyOp56
 70
     1
102
RTVSPropertyOp57
 70
     1
102
RTVSPost2010Prop28
280
     0
102
RTVSPost2010PropOp28
 70
     1
102
RTVSPost2010Prop29
280
     1
102
RTVSPost2010PropOp29
 70
     1
102
RTVSPost2010Prop30
280
     1
102
RTVSPost2010PropOp30
 70
     1
102
RTVSPost2010Prop31
280
     0
102
RTVSPost2010PropOp31
 70
     1
102
RTVSPost2010Prop32
280
     0
102
RTVSPost2010PropOp32
 70
     1
102
RTVSPost2010Prop33
280
     0
102
RTVSPost2010PropOp33
 70
     1
102
RTVSPost2010Prop34
280
     0
102
RTVSPost2010PropOp34
 70
     1
102
RTVSPost2010Prop35
280
     0
102
RTVSPost2010PropOp35
 70
     1
102
RTVSPost2010Prop36
280
     0
102
RTVSPost2010PropOp36
 70
     1
102
RTVSPost2010Prop37
 90
       50
102
RTVSPost2010PropOp37
 70
     1
102
RTVSPost2010Prop38
140
0.0
102
RTVSPost2010PropOp38
 70
     1
102
RTVSPost2010Prop39
140
1.0
102
RTVSPost2010PropOp39
 70
     1
102
RTVSPost2010Prop40
 90
        0
102
RTVSPost2010PropOp40
 70
     1
102
RTVSPost2010Prop41ColorIndex
 90
       18
102
RTVSPost2010Prop41ColorRGB
 90
        0
102
RTVSPost2010PropOp41
 70
     1
102
RTVSPost2010Prop42
 90
       50
102
RTVSPost2010PropOp42
 70
     1
102
RTVSPost2010Prop43
 90
        3
102
RTVSPost2010PropOp43
 70
     1
102
RTVSPost2010Prop44ColorIndex
 90
        5
102
RTVSPost2010Prop44ColorRGB
 90
      255
102
RTVSPost2010PropOp44
 70
     1
102
RTVSPost2010Prop45
280
     0
102
RTVSPost2010PropOp45
 70
     1
102
RTVSPost2010Prop46
 90
       50
102
RTVSPost2010PropOp46
 70
     1
102
RTVSPost2010Prop47
 90
       50
102
RTVSPost2010PropOp47
 70
     1
102
RTVSPost2010Prop48
 90
       50
102
RTVSPost2010PropOp48
 70
     1
102
RTVSPost2010Prop49
280
     0
102
RTVSPost2010PropOp49
 70
     1
102
RTVSPost2010Prop50
 90
       50
102
RTVSPost2010PropOp50
 70
     1
102
RTVSPost2010Prop51ColorIndex
 90
      256
102
RTVSPost2010Prop51ColorRGB
 90
-16777216
102
RTVSPost2010PropOp51
 70
     0
102
RTVSPost2010Prop52
140
1.0
102
RTVSPost2010PropOp52
 70
     0
102
RTVSPost2010Prop53
 90
        2
102
RTVSPost2010PropOp53
 70
     1
102
RTVSPost2010Prop54
  1
strokes_ogs.tif
102
RTVSPost2010PropOp54
 70
     1
102
RTVSPost2010Prop55
280
     0
102
RTVSPost2010PropOp55
 70
     1
102
RTVSPost2010Prop56
140
1.0
102
RTVSPost2010PropOp56
 70
     1
102
RTVSPost2010Prop57
140
1.0
102
RTVSPost2010PropOp57
 70
     1
  0
XRECORD
  5
CE
102
{ACAD_REACTORS
330
CD
102
}
330
CD
100
AcDbXrecord
280
     1
102
RTVSPropertyOp0
 70
     1
102
RTVSPropertyOp1
 70
     1
102
RTVSPropertyOp2
 70
     1
102
RTVSPropertyOp3
 70
     1
102
RTVSPropertyOp4
 70
     1
102
RTVSPropertyOp5
 70
     1
102
RTVSPropertyOp6
 70
     1
102
RTVSPropertyOp7
 70
     1
102
RTVSPropertyOp8
 70
     1
102
RTVSPropertyOp9
 70
     1
102
RTVSPropertyOp10
 70
     1
102
RTVSPropertyOp11
 70
     1
102
RTVSPropertyOp12
 70
     1
102
RTVSPropertyOp13
 70
     1
102
RTVSPropertyOp14
 70
     1
102
RTVSPropertyOp15
 70
     1
102
RTVSPropertyOp16
 70
     1
102
RTVSPropertyOp17
 70
     1
102
RTVSPropertyOp18
 70
     1
102
RTVSPropertyOp19
 70
     1
102
RTVSPropertyOp20
 70
     1
102
RTVSPropertyOp21
 70
     1
102
RTVSPropertyOp22
 70
     1
102
RTVSPropertyOp23
 70
     1
102
RTVSPropertyOp24
 70
     1
102
RTVSPropertyOp25
 70
     1
102
RTVSPropertyOp26
 70
     1
102
RTVSPropertyOp27
 70
     1
102
RTVSPropertyOp28
 70
     1
102
RTVSPropertyOp29
 70
     1
102
RTVSPropertyOp30
 70
     1
102
RTVSPropertyOp31
 70
     1
102
RTVSPropertyOp32
 70
     1
102
RTVSPropertyOp33
 70
     1
102
RTVSPropertyOp34
 70
     1
102
RTVSPropertyOp35
 70
     1
102
RTVSPropertyOp36
 70
     1
102
RTVSPropertyOp37
 70
     1
102
RTVSPropertyOp38
 70
     1
102
RTVSPropertyOp39
 70
     1
102
RTVSPropertyOp40
 70
     1
102
RTVSPropertyOp41
 70
     1
102
RTVSPropertyOp42
 70
     1
102
RTVSPropertyOp43
 70
     1
102
RTVSPropertyOp44
 70
     1
102
RTVSPropertyOp45
 70
     1
102
RTVSPropertyOp46
 70
     1
102
RTVSPropertyOp47
 70
     1
102
RTVSPropertyOp48
 70
     1
102
RTVSPropertyOp49
 70
     1
102
RTVSPropertyOp50
 70
     1
102
RTVSPropertyOp51
 70
     0
102
RTVSPropertyOp52
 70
     0
102
RTVSPropertyOp53
 70
     1
102
RTVSPropertyOp54
 70
     1
102
RTVSPropertyOp55
 70
     1
102
RTVSPropertyOp56
 70
     1
102
RTVSPropertyOp57
 70
     1
102
RTVSPost2010Prop28
280
     0
102
RTVSPost2010PropOp28
 70
     1
102
RTVSPost2010Prop29
280
     1
102
RTVSPost2010PropOp29
 70
     1
102
RTVSPost2010Prop30
280
     1
102
RTVSPost2010PropOp30
 70
     1
102
RTVSPost2010Prop31
280
     0
102
RTVSPost2010PropOp31
 70
     1
102
RTVSPost2010Prop32
280
     0
102
RTVSPost2010PropOp32
 70
     1
102
RTVSPost2010Prop33
280
     0
102
RTVSPost2010PropOp33
 70
     1
102
RTVSPost2010Prop34
280
     0
102
RTVSPost2010PropOp34
 70
     1
102
RTVSPost2010Prop35
280
     0
102
RTVSPost2010PropOp35
 70
     1
102
RTVSPost2010Prop36
280
     0
102
RTVSPost2010PropOp36
 70
     1
102
RTVSPost2010Prop37
 90
       50
102
RTVSPost2010PropOp37
 70
     1
102
RTVSPost2010Prop38
140
0.0
102
RTVSPost2010PropOp38
 70
     1
102
RTVSPost2010Prop39
140
1.0
102
RTVSPost2010PropOp39
 70
     1
102
RTVSPost2010Prop40
 90
        0
102
RTVSPost2010PropOp40
 70
     1
102
RTVSPost2010Prop41ColorIndex
 90
       18
102
RTVSPost2010Prop41ColorRGB
 90
        0
102
RTVSPost2010PropOp41
 70
     1
102
RTVSPost2010Prop42
 90
       50
102
RTVSPost2010PropOp42
 70
     1
102
RTVSPost2010Prop43
 90
        3
102
RTVSPost2010PropOp43
 70
     1
102
RTVSPost2010Prop44ColorIndex
 90
        5
102
RTVSPost2010Prop44ColorRGB
 90
      255
102
RTVSPost2010PropOp44
 70
     1
102
RTVSPost2010Prop45
280
     0
102
RTVSPost2010PropOp45
 70
     1
102
RTVSPost2010Prop46
 90
       50
102
RTVSPost2010PropOp46
 70
     1
102
RTVSPost2010Prop47
 90
       50
102
RTVSPost2010PropOp47
 70
     1
102
RTVSPost2010Prop48
 90
       50
102
RTVSPost2010PropOp48
 70
     1
102
RTVSPost2010Prop49
280
     0
102
RTVSPost2010PropOp49
 70
     1
102
RTVSPost2010Prop50
 90
       50
102
RTVSPost2010PropOp50
 70
     1
102
RTVSPost2010Prop51ColorIndex
 90
      256
102
RTVSPost2010Prop51ColorRGB
 90
-16777216
102
RTVSPost2010PropOp51
 70
     0
102
RTVSPost2010Prop52
140
1.0
102
RTVSPost2010PropOp52
 70
     0
102
RTVSPost2010Prop53
 90
        2
102
RTVSPost2010PropOp53
 70
     1
102
RTVSPost2010Prop54
  1
strokes_ogs.tif
102
RTVSPost2010PropOp54
 70
     1
102
RTVSPost2010Prop55
280
     0
102
RTVSPost2010PropOp55
 70
     1
102
RTVSPost2010Prop56
140
1.0
102
RTVSPost2010PropOp56
 70
     1
102
RTVSPost2010Prop57
140
1.0
102
RTVSPost2010PropOp57
 70
     1
  0
XRECORD
  5
D0
102
{ACAD_REACTORS
330
CF
102
}
330
CF
100
AcDbXrecord
280
     1
102
RTVSPropertyOp0
 70
     1
102
RTVSPropertyOp1
 70
     1
102
RTVSPropertyOp2
 70
     1
102
RTVSPropertyOp3
 70
     1
102
RTVSPropertyOp4
 70
     1
102
RTVSPropertyOp5
 70
     1
102
RTVSPropertyOp6
 70
     1
102
RTVSPropertyOp7
 70
     1
102
RTVSPropertyOp8
 70
     1
102
RTVSPropertyOp9
 70
     1
102
RTVSPropertyOp10
 70
     1
102
RTVSPropertyOp11
 70
     1
102
RTVSPropertyOp12
 70
     1
102
RTVSPropertyOp13
 70
     1
102
RTVSPropertyOp14
 70
     1
102
RTVSPropertyOp15
 70
     1
102
RTVSPropertyOp16
 70
     1
102
RTVSPropertyOp17
 70
     1
102
RTVSPropertyOp18
 70
     1
102
RTVSPropertyOp19
 70
     1
102
RTVSPropertyOp20
 70
     1
102
RTVSPropertyOp21
 70
     1
102
RTVSPropertyOp22
 70
     1
102
RTVSPropertyOp23
 70
     1
102
RTVSPropertyOp24
 70
     1
102
RTVSPropertyOp25
 70
     1
102
RTVSPropertyOp26
 70
     1
102
RTVSPropertyOp27
 70
     1
102
RTVSPropertyOp28
 70
     1
102
RTVSPropertyOp29
 70
     1
102
RTVSPropertyOp30
 70
     1
102
RTVSPropertyOp31
 70
     1
102
RTVSPropertyOp32
 70
     1
102
RTVSPropertyOp33
 70
     1
102
RTVSPropertyOp34
 70
     1
102
RTVSPropertyOp35
 70
     1
102
RTVSPropertyOp36
 70
     1
102
RTVSPropertyOp37
 70
     1
102
RTVSPropertyOp38
 70
     1
102
RTVSPropertyOp39
 70
     1
102
RTVSPropertyOp40
 70
     1
102
RTVSPropertyOp41
 70
     1
102
RTVSPropertyOp42
 70
     1
102
RTVSPropertyOp43
 70
     1
102
RTVSPropertyOp44
 70
     1
102
RTVSPropertyOp45
 70
     1
102
RTVSPropertyOp46
 70
     1
102
RTVSPropertyOp47
 70
     1
102
RTVSPropertyOp48
 70
     1
102
RTVSPropertyOp49
 70
     1
102
RTVSPropertyOp50
 70
     1
102
RTVSPropertyOp51
 70
     0
102
RTVSPropertyOp52
 70
     0
102
RTVSPropertyOp53
 70
     1
102
RTVSPropertyOp54
 70
     1
102
RTVSPropertyOp55
 70
     1
102
RTVSPropertyOp56
 70
     1
102
RTVSPropertyOp57
 70
     1
102
RTVSPost2010Prop28
280
     0
102
RTVSPost2010PropOp28
 70
     1
102
RTVSPost2010Prop29
280
     1
102
RTVSPost2010PropOp29
 70
     1
102
RTVSPost2010Prop30
280
     1
102
RTVSPost2010PropOp30
 70
     1
102
RTVSPost2010Prop31
280
     0
102
RTVSPost2010PropOp31
 70
     1
102
RTVSPost2010Prop32
280
     0
102
RTVSPost2010PropOp32
 70
     1
102
RTVSPost2010Prop33
280
     0
102
RTVSPost2010PropOp33
 70
     1
102
RTVSPost2010Prop34
280
     0
102
RTVSPost2010PropOp34
 70
     1
102
RTVSPost2010Prop35
280
     0
102
RTVSPost2010PropOp35
 70
     1
102
RTVSPost2010Prop36
280
     0
102
RTVSPost2010PropOp36
 70
     1
102
RTVSPost2010Prop37
 90
       50
102
RTVSPost2010PropOp37
 70
     1
102
RTVSPost2010Prop38
140
0.0
102
RTVSPost2010PropOp38
 70
     1
102
RTVSPost2010Prop39
140
1.0
102
RTVSPost2010PropOp39
 70
     1
102
RTVSPost2010Prop40
 90
        0
102
RTVSPost2010PropOp40
 70
     1
102
RTVSPost2010Prop41ColorIndex
 90
       18
102
RTVSPost2010Prop41ColorRGB
 90
        0
102
RTVSPost2010PropOp41
 70
     1
102
RTVSPost2010Prop42
 90
       50
102
RTVSPost2010PropOp42
 70
     1
102
RTVSPost2010Prop43
 90
        3
102
RTVSPost2010PropOp43
 70
     1
102
RTVSPost2010Prop44ColorIndex
 90
        5
102
RTVSPost2010Prop44ColorRGB
 90
      255
102
RTVSPost2010PropOp44
 70
     1
102
RTVSPost2010Prop45
280
     0
102
RTVSPost2010PropOp45
 70
     1
102
RTVSPost2010Prop46
 90
       50
102
RTVSPost2010PropOp46
 70
     1
102
RTVSPost2010Prop47
 90
       50
102
RTVSPost2010PropOp47
 70
     1
102
RTVSPost2010Prop48
 90
       50
102
RTVSPost2010PropOp48
 70
     1
102
RTVSPost2010Prop49
280
     0
102
RTVSPost2010PropOp49
 70
     1
102
RTVSPost2010Prop50
 90
       50
102
RTVSPost2010PropOp50
 70
     1
102
RTVSPost2010Prop51ColorIndex
 90
      256
102
RTVSPost2010Prop51ColorRGB
 90
-16777216
102
RTVSPost2010PropOp51
 70
     0
102
RTVSPost2010Prop52
140
1.0
102
RTVSPost2010PropOp52
 70
     0
102
RTVSPost2010Prop53
 90
        2
102
RTVSPost2010PropOp53
 70
     1
102
RTVSPost2010Prop54
  1
strokes_ogs.tif
102
RTVSPost2010PropOp54
 70
     1
102
RTVSPost2010Prop55
280
     0
102
RTVSPost2010PropOp55
 70
     1
102
RTVSPost2010Prop56
140
1.0
102
RTVSPost2010PropOp56
 70
     1
102
RTVSPost2010Prop57
140
1.0
102
RTVSPost2010PropOp57
 70
     1
  0
XRECORD
  5
C0
102
{ACAD_REACTORS
330
BF
102
}
330
BF
100
AcDbXrecord
280
     1
102
RTVSPropertyOp0
 70
     1
102
RTVSPropertyOp1
 70
     1
102
RTVSPropertyOp2
 70
     1
102
RTVSPropertyOp3
 70
     1
102
RTVSPropertyOp4
 70
     1
102
RTVSPropertyOp5
 70
     1
102
RTVSPropertyOp6
 70
     1
102
RTVSPropertyOp7
 70
     1
102
RTVSPropertyOp8
 70
     1
102
RTVSPropertyOp9
 70
     1
102
RTVSPropertyOp10
 70
     1
102
RTVSPropertyOp11
 70
     1
102
RTVSPropertyOp12
 70
     1
102
RTVSPropertyOp13
 70
     1
102
RTVSPropertyOp14
 70
     1
102
RTVSPropertyOp15
 70
     1
102
RTVSPropertyOp16
 70
     1
102
RTVSPropertyOp17
 70
     1
102
RTVSPropertyOp18
 70
     1
102
RTVSPropertyOp19
 70
     1
102
RTVSPropertyOp20
 70
     1
102
RTVSPropertyOp21
 70
     1
102
RTVSPropertyOp22
 70
     1
102
RTVSPropertyOp23
 70
     1
102
RTVSPropertyOp24
 70
     1
102
RTVSPropertyOp25
 70
     1
102
RTVSPropertyOp26
 70
     1
102
RTVSPropertyOp27
 70
     1
102
RTVSPropertyOp28
 70
     1
102
RTVSPropertyOp29
 70
     1
102
RTVSPropertyOp30
 70
     1
102
RTVSPropertyOp31
 70
     1
102
RTVSPropertyOp32
 70
     1
102
RTVSPropertyOp33
 70
     1
102
RTVSPropertyOp34
 70
     1
102
RTVSPropertyOp35
 70
     1
102
RTVSPropertyOp36
 70
     1
102
RTVSPropertyOp37
 70
     1
102
RTVSPropertyOp38
 70
     1
102
RTVSPropertyOp39
 70
     1
102
RTVSPropertyOp40
 70
     1
102
RTVSPropertyOp41
 70
     1
102
RTVSPropertyOp42
 70
     1
102
RTVSPropertyOp43
 70
     1
102
RTVSPropertyOp44
 70
     1
102
RTVSPropertyOp45
 70
     1
102
RTVSPropertyOp46
 70
     1
102
RTVSPropertyOp47
 70
     1
102
RTVSPropertyOp48
 70
     1
102
RTVSPropertyOp49
 70
     1
102
RTVSPropertyOp50
 70
     1
102
RTVSPropertyOp51
 70
     0
102
RTVSPropertyOp52
 70
     0
102
RTVSPropertyOp53
 70
     1
102
RTVSPropertyOp54
 70
     1
102
RTVSPropertyOp55
 70
     1
102
RTVSPropertyOp56
 70
     1
102
RTVSPropertyOp57
 70
     1
102
RTVSPost2010Prop28
280
     0
102
RTVSPost2010PropOp28
 70
     1
102
RTVSPost2010Prop29
280
     1
102
RTVSPost2010PropOp29
 70
     1
102
RTVSPost2010Prop30
280
     1
102
RTVSPost2010PropOp30
 70
     1
102
RTVSPost2010Prop31
280
     0
102
RTVSPost2010PropOp31
 70
     1
102
RTVSPost2010Prop32
280
     0
102
RTVSPost2010PropOp32
 70
     1
102
RTVSPost2010Prop33
280
     0
102
RTVSPost2010PropOp33
 70
     1
102
RTVSPost2010Prop34
280
     0
102
RTVSPost2010PropOp34
 70
     1
102
RTVSPost2010Prop35
280
     0
102
RTVSPost2010PropOp35
 70
     1
102
RTVSPost2010Prop36
280
     0
102
RTVSPost2010PropOp36
 70
     1
102
RTVSPost2010Prop37
 90
       50
102
RTVSPost2010PropOp37
 70
     1
102
RTVSPost2010Prop38
140
0.0
102
RTVSPost2010PropOp38
 70
     1
102
RTVSPost2010Prop39
140
1.0
102
RTVSPost2010PropOp39
 70
     1
102
RTVSPost2010Prop40
 90
        0
102
RTVSPost2010PropOp40
 70
     1
102
RTVSPost2010Prop41ColorIndex
 90
       18
102
RTVSPost2010Prop41ColorRGB
 90
        0
102
RTVSPost2010PropOp41
 70
     1
102
RTVSPost2010Prop42
 90
       50
102
RTVSPost2010PropOp42
 70
     1
102
RTVSPost2010Prop43
 90
        3
102
RTVSPost2010PropOp43
 70
     1
102
RTVSPost2010Prop44ColorIndex
 90
        5
102
RTVSPost2010Prop44ColorRGB
 90
      255
102
RTVSPost2010PropOp44
 70
     1
102
RTVSPost2010Prop45
280
     0
102
RTVSPost2010PropOp45
 70
     1
102
RTVSPost2010Prop46
 90
       50
102
RTVSPost2010PropOp46
 70
     1
102
RTVSPost2010Prop47
 90
       50
102
RTVSPost2010PropOp47
 70
     1
102
RTVSPost2010Prop48
 90
       50
102
RTVSPost2010PropOp48
 70
     1
102
RTVSPost2010Prop49
280
     0
102
RTVSPost2010PropOp49
 70
     1
102
RTVSPost2010Prop50
 90
       50
102
RTVSPost2010PropOp50
 70
     1
102
RTVSPost2010Prop51ColorIndex
 90
      256
102
RTVSPost2010Prop51ColorRGB
 90
-16777216
102
RTVSPost2010PropOp51
 70
     0
102
RTVSPost2010Prop52
140
1.0
102
RTVSPost2010PropOp52
 70
     0
102
RTVSPost2010Prop53
 90
        2
102
RTVSPost2010PropOp53
 70
     1
102
RTVSPost2010Prop54
  1
strokes_ogs.tif
102
RTVSPost2010PropOp54
 70
     1
102
RTVSPost2010Prop55
280
     0
102
RTVSPost2010PropOp55
 70
     1
102
RTVSPost2010Prop56
140
1.0
102
RTVSPost2010PropOp56
 70
     1
102
RTVSPost2010Prop57
140
1.0
102
RTVSPost2010PropOp57
 70
     1
  0
XRECORD
  5
B2
102
{ACAD_REACTORS
330
B1
102
}
330
B1
100
AcDbXrecord
280
     1
102
RTVSPropertyOp0
 70
     1
102
RTVSPropertyOp1
 70
     1
102
RTVSPropertyOp2
 70
     1
102
RTVSPropertyOp3
 70
     1
102
RTVSPropertyOp4
 70
     1
102
RTVSPropertyOp5
 70
     1
102
RTVSPropertyOp6
 70
     1
102
RTVSPropertyOp7
 70
     1
102
RTVSPropertyOp8
 70
     1
102
RTVSPropertyOp9
 70
     1
102
RTVSPropertyOp10
 70
     1
102
RTVSPropertyOp11
 70
     1
102
RTVSPropertyOp12
 70
     1
102
RTVSPropertyOp13
 70
     1
102
RTVSPropertyOp14
 70
     1
102
RTVSPropertyOp15
 70
     1
102
RTVSPropertyOp16
 70
     1
102
RTVSPropertyOp17
 70
     1
102
RTVSPropertyOp18
 70
     1
102
RTVSPropertyOp19
 70
     1
102
RTVSPropertyOp20
 70
     1
102
RTVSPropertyOp21
 70
     1
102
RTVSPropertyOp22
 70
     1
102
RTVSPropertyOp23
 70
     1
102
RTVSPropertyOp24
 70
     1
102
RTVSPropertyOp25
 70
     1
102
RTVSPropertyOp26
 70
     1
102
RTVSPropertyOp27
 70
     1
102
RTVSPropertyOp28
 70
     1
102
RTVSPropertyOp29
 70
     1
102
RTVSPropertyOp30
 70
     1
102
RTVSPropertyOp31
 70
     1
102
RTVSPropertyOp32
 70
     1
102
RTVSPropertyOp33
 70
     1
102
RTVSPropertyOp34
 70
     1
102
RTVSPropertyOp35
 70
     1
102
RTVSPropertyOp36
 70
     1
102
RTVSPropertyOp37
 70
     1
102
RTVSPropertyOp38
 70
     1
102
RTVSPropertyOp39
 70
     1
102
RTVSPropertyOp40
 70
     1
102
RTVSPropertyOp41
 70
     1
102
RTVSPropertyOp42
 70
     1
102
RTVSPropertyOp43
 70
     1
102
RTVSPropertyOp44
 70
     1
102
RTVSPropertyOp45
 70
     1
102
RTVSPropertyOp46
 70
     1
102
RTVSPropertyOp47
 70
     1
102
RTVSPropertyOp48
 70
     1
102
RTVSPropertyOp49
 70
     1
102
RTVSPropertyOp50
 70
     1
102
RTVSPropertyOp51
 70
     0
102
RTVSPropertyOp52
 70
     0
102
RTVSPropertyOp53
 70
     1
102
RTVSPropertyOp54
 70
     1
102
RTVSPropertyOp55
 70
     1
102
RTVSPropertyOp56
 70
     1
102
RTVSPropertyOp57
 70
     1
102
RTVSPost2010Prop28
280
     0
102
RTVSPost2010PropOp28
 70
     1
102
RTVSPost2010Prop29
280
     1
102
RTVSPost2010PropOp29
 70
     1
102
RTVSPost2010Prop30
280
     1
102
RTVSPost2010PropOp30
 70
     1
102
RTVSPost2010Prop31
280
     0
102
RTVSPost2010PropOp31
 70
     1
102
RTVSPost2010Prop32
280
     0
102
RTVSPost2010PropOp32
 70
     1
102
RTVSPost2010Prop33
280
     0
102
RTVSPost2010PropOp33
 70
     1
102
RTVSPost2010Prop34
280
     0
102
RTVSPost2010PropOp34
 70
     1
102
RTVSPost2010Prop35
280
     0
102
RTVSPost2010PropOp35
 70
     1
102
RTVSPost2010Prop36
280
     0
102
RTVSPost2010PropOp36
 70
     1
102
RTVSPost2010Prop37
 90
       50
102
RTVSPost2010PropOp37
 70
     1
102
RTVSPost2010Prop38
140
0.0
102
RTVSPost2010PropOp38
 70
     1
102
RTVSPost2010Prop39
140
1.0
102
RTVSPost2010PropOp39
 70
     1
102
RTVSPost2010Prop40
 90
        0
102
RTVSPost2010PropOp40
 70
     1
102
RTVSPost2010Prop41ColorIndex
 90
       18
102
RTVSPost2010Prop41ColorRGB
 90
        0
102
RTVSPost2010PropOp41
 70
     1
102
RTVSPost2010Prop42
 90
       50
102
RTVSPost2010PropOp42
 70
     1
102
RTVSPost2010Prop43
 90
        3
102
RTVSPost2010PropOp43
 70
     1
102
RTVSPost2010Prop44ColorIndex
 90
        5
102
RTVSPost2010Prop44ColorRGB
 90
      255
102
RTVSPost2010PropOp44
 70
     1
102
RTVSPost2010Prop45
280
     0
102
RTVSPost2010PropOp45
 70
     1
102
RTVSPost2010Prop46
 90
       50
102
RTVSPost2010PropOp46
 70
     1
102
RTVSPost2010Prop47
 90
       50
102
RTVSPost2010PropOp47
 70
     1
102
RTVSPost2010Prop48
 90
       50
102
RTVSPost2010PropOp48
 70
     1
102
RTVSPost2010Prop49
280
     0
102
RTVSPost2010PropOp49
 70
     1
102
RTVSPost2010Prop50
 90
       50
102
RTVSPost2010PropOp50
 70
     1
102
RTVSPost2010Prop51ColorIndex
 90
      256
102
RTVSPost2010Prop51ColorRGB
 90
-16777216
102
RTVSPost2010PropOp51
 70
     0
102
RTVSPost2010Prop52
140
1.0
102
RTVSPost2010PropOp52
 70
     0
102
RTVSPost2010Prop53
 90
        2
102
RTVSPost2010PropOp53
 70
     1
102
RTVSPost2010Prop54
  1
strokes_ogs.tif
102
RTVSPost2010PropOp54
 70
     1
102
RTVSPost2010Prop55
280
     0
102
RTVSPost2010PropOp55
 70
     1
102
RTVSPost2010Prop56
140
1.0
102
RTVSPost2010PropOp56
 70
     1
102
RTVSPost2010Prop57
140
1.0
102
RTVSPost2010PropOp57
 70
     1
  0
XRECORD
  5
D2
102
{ACAD_REACTORS
330
D1
102
}
330
D1
100
AcDbXrecord
280
     1
102
RTVSPropertyOp0
 70
     1
102
RTVSPropertyOp1
 70
     1
102
RTVSPropertyOp2
 70
     1
102
RTVSPropertyOp3
 70
     1
102
RTVSPropertyOp4
 70
     1
102
RTVSPropertyOp5
 70
     1
102
RTVSPropertyOp6
 70
     1
102
RTVSPropertyOp7
 70
     1
102
RTVSPropertyOp8
 70
     1
102
RTVSPropertyOp9
 70
     1
102
RTVSPropertyOp10
 70
     1
102
RTVSPropertyOp11
 70
     1
102
RTVSPropertyOp12
 70
     1
102
RTVSPropertyOp13
 70
     1
102
RTVSPropertyOp14
 70
     1
102
RTVSPropertyOp15
 70
     1
102
RTVSPropertyOp16
 70
     1
102
RTVSPropertyOp17
 70
     1
102
RTVSPropertyOp18
 70
     1
102
RTVSPropertyOp19
 70
     1
102
RTVSPropertyOp20
 70
     1
102
RTVSPropertyOp21
 70
     1
102
RTVSPropertyOp22
 70
     1
102
RTVSPropertyOp23
 70
     1
102
RTVSPropertyOp24
 70
     1
102
RTVSPropertyOp25
 70
     1
102
RTVSPropertyOp26
 70
     1
102
RTVSPropertyOp27
 70
     1
102
RTVSPropertyOp28
 70
     1
102
RTVSPropertyOp29
 70
     1
102
RTVSPropertyOp30
 70
     1
102
RTVSPropertyOp31
 70
     1
102
RTVSPropertyOp32
 70
     1
102
RTVSPropertyOp33
 70
     1
102
RTVSPropertyOp34
 70
     1
102
RTVSPropertyOp35
 70
     1
102
RTVSPropertyOp36
 70
     1
102
RTVSPropertyOp37
 70
     1
102
RTVSPropertyOp38
 70
     1
102
RTVSPropertyOp39
 70
     1
102
RTVSPropertyOp40
 70
     1
102
RTVSPropertyOp41
 70
     1
102
RTVSPropertyOp42
 70
     1
102
RTVSPropertyOp43
 70
     1
102
RTVSPropertyOp44
 70
     1
102
RTVSPropertyOp45
 70
     1
102
RTVSPropertyOp46
 70
     1
102
RTVSPropertyOp47
 70
     1
102
RTVSPropertyOp48
 70
     1
102
RTVSPropertyOp49
 70
     1
102
RTVSPropertyOp50
 70
     1
102
RTVSPropertyOp51
 70
     0
102
RTVSPropertyOp52
 70
     0
102
RTVSPropertyOp53
 70
     1
102
RTVSPropertyOp54
 70
     1
102
RTVSPropertyOp55
 70
     1
102
RTVSPropertyOp56
 70
     1
102
RTVSPropertyOp57
 70
     1
102
RTVSPost2010Prop28
280
     0
102
RTVSPost2010PropOp28
 70
     1
102
RTVSPost2010Prop29
280
     1
102
RTVSPost2010PropOp29
 70
     1
102
RTVSPost2010Prop30
280
     1
102
RTVSPost2010PropOp30
 70
     1
102
RTVSPost2010Prop31
280
     0
102
RTVSPost2010PropOp31
 70
     1
102
RTVSPost2010Prop32
280
     0
102
RTVSPost2010PropOp32
 70
     1
102
RTVSPost2010Prop33
280
     0
102
RTVSPost2010PropOp33
 70
     1
102
RTVSPost2010Prop34
280
     0
102
RTVSPost2010PropOp34
 70
     1
102
RTVSPost2010Prop35
280
     0
102
RTVSPost2010PropOp35
 70
     1
102
RTVSPost2010Prop36
280
     0
102
RTVSPost2010PropOp36
 70
     1
102
RTVSPost2010Prop37
 90
       50
102
RTVSPost2010PropOp37
 70
     1
102
RTVSPost2010Prop38
140
0.0
102
RTVSPost2010PropOp38
 70
     1
102
RTVSPost2010Prop39
140
1.0
102
RTVSPost2010PropOp39
 70
     1
102
RTVSPost2010Prop40
 90
        0
102
RTVSPost2010PropOp40
 70
     1
102
RTVSPost2010Prop41ColorIndex
 90
       18
102
RTVSPost2010Prop41ColorRGB
 90
        0
102
RTVSPost2010PropOp41
 70
     1
102
RTVSPost2010Prop42
 90
       50
102
RTVSPost2010PropOp42
 70
     1
102
RTVSPost2010Prop43
 90
        3
102
RTVSPost2010PropOp43
 70
     1
102
RTVSPost2010Prop44ColorIndex
 90
        5
102
RTVSPost2010Prop44ColorRGB
 90
      255
102
RTVSPost2010PropOp44
 70
     1
102
RTVSPost2010Prop45
280
     0
102
RTVSPost2010PropOp45
 70
     1
102
RTVSPost2010Prop46
 90
       50
102
RTVSPost2010PropOp46
 70
     1
102
RTVSPost2010Prop47
 90
       50
102
RTVSPost2010PropOp47
 70
     1
102
RTVSPost2010Prop48
 90
       50
102
RTVSPost2010PropOp48
 70
     1
102
RTVSPost2010Prop49
280
     0
102
RTVSPost2010PropOp49
 70
     1
102
RTVSPost2010Prop50
 90
       50
102
RTVSPost2010PropOp50
 70
     1
102
RTVSPost2010Prop51ColorIndex
 90
      256
102
RTVSPost2010Prop51ColorRGB
 90
-16777216
102
RTVSPost2010PropOp51
 70
     0
102
RTVSPost2010Prop52
140
1.0
102
RTVSPost2010PropOp52
 70
     0
102
RTVSPost2010Prop53
 90
        2
102
RTVSPost2010PropOp53
 70
     1
102
RTVSPost2010Prop54
  1
strokes_ogs.tif
102
RTVSPost2010PropOp54
 70
     1
102
RTVSPost2010Prop55
280
     0
102
RTVSPost2010PropOp55
 70
     1
102
RTVSPost2010Prop56
140
1.0
102
RTVSPost2010PropOp56
 70
     1
102
RTVSPost2010Prop57
140
1.0
102
RTVSPost2010PropOp57
 70
     1
  0
ENDSEC
  0
EOF
