  0
SECTION
  2
HEADER
  9
$ACADVER
  1
AC1021
  9
$ACADMAINTVER
 70
    25
  9
$DWGCODEPAGE
  3
ANSI_1252
  9
$INSBASE
 10
0.0
 20
0.0
 30
0.0
  9
$EXTMIN
 10
1.000000000000000E+20
 20
1.000000000000000E+20
 30
1.000000000000000E+20
  9
$EXTMAX
 10
-1.000000000000000E+20
 20
-1.000000000000000E+20
 30
-1.000000000000000E+20
  9
$LIMMIN
 10
0.0
 20
0.0
  9
$LIMMAX
 10
12.0
 20
9.0
  9
$ORTHOMODE
 70
     0
  9
$REGENMODE
 70
     1
  9
$FILLMODE
 70
     1
  9
$QTEXTMODE
 70
     0
  9
$MIRRTEXT
 70
     1
  9
$LTSCALE
 40
1.0
  9
$ATTMODE
 70
     1
  9
$TEXTSIZE
 40
0.2
  9
$TRACEWID
 40
0.05
  9
$TEXTSTYLE
  7
Standard
  9
$CLAYER
  8
Layer 01
  9
$CELTYPE
  6
ByLayer
  9
$CECOLOR
 62
   256
  9
$CELTSCALE
 40
1.0
  9
$DISPSILH
 70
     0
  9
$DIMSCALE
 40
1.0
  9
$DIMASZ
 40
0.18
  9
$DIMEXO
 40
0.0625
  9
$DIMDLI
 40
0.38
  9
$DIMRND
 40
0.0
  9
$DIMDLE
 40
0.0
  9
$DIMEXE
 40
0.18
  9
$DIMTP
 40
0.0
  9
$DIMTM
 40
0.0
  9
$DIMTXT
 40
0.18
  9
$DIMCEN
 40
0.09
  9
$DIMTSZ
 40
0.0
  9
$DIMTOL
 70
     0
  9
$DIMLIM
 70
     0
  9
$DIMTIH
 70
     1
  9
$DIMTOH
 70
     1
  9
$DIMSE1
 70
     0
  9
$DIMSE2
 70
     0
  9
$DIMTAD
 70
     0
  9
$DIMZIN
 70
     0
  9
$DIMBLK
  1

  9
$DIMASO
 70
     1
  9
$DIMSHO
 70
     1
  9
$DIMPOST
  1

  9
$DIMAPOST
  1

  9
$DIMALT
 70
     0
  9
$DIMALTD
 70
     2
  9
$DIMALTF
 40
25.4
  9
$DIMLFAC
 40
1.0
  9
$DIMTOFL
 70
     0
  9
$DIMTVP
 40
0.0
  9
$DIMTIX
 70
     0
  9
$DIMSOXD
 70
     0
  9
$DIMSAH
 70
     0
  9
$DIMBLK1
  1

  9
$DIMBLK2
  1

  9
$DIMSTYLE
  2
STANDARD_ACAD
  9
$DIMCLRD
 70
     0
  9
$DIMCLRE
 70
     0
  9
$DIMCLRT
 70
     0
  9
$DIMTFAC
 40
1.0
  9
$DIMGAP
 40
0.09
  9
$DIMJUST
 70
     0
  9
$DIMSD1
 70
     0
  9
$DIMSD2
 70
     0
  9
$DIMTOLJ
 70
     1
  9
$DIMTZIN
 70
     0
  9
$DIMALTZ
 70
     0
  9
$DIMALTTZ
 70
     0
  9
$DIMUPT
 70
     0
  9
$DIMDEC
 70
     4
  9
$DIMTDEC
 70
     4
  9
$DIMALTU
 70
     2
  9
$DIMALTTD
 70
     2
  9
$DIMTXSTY
  7
Standard
  9
$DIMAUNIT
 70
     0
  9
$DIMADEC
 70
     0
  9
$DIMALTRND
 40
0.0
  9
$DIMAZIN
 70
     0
  9
$DIMDSEP
 70
    46
  9
$DIMATFIT
 70
     3
  9
$DIMFRAC
 70
     0
  9
$DIMLDRBLK
  1

  9
$DIMLUNIT
 70
     2
  9
$DIMLWD
 70
    -2
  9
$DIMLWE
 70
    -2
  9
$DIMTMOVE
 70
     2
  9
$DIMFXL
 40
1.0
  9
$DIMFXLON
 70
     0
  9
$DIMJOGANG
 40
0.7853981633974483
  9
$DIMTFILL
 70
     0
  9
$DIMTFILLCLR
 70
     0
  9
$DIMARCSYM
 70
     0
  9
$DIMLTYPE
  6

  9
$DIMLTEX1
  6

  9
$DIMLTEX2
  6

  9
$LUNITS
 70
     2
  9
$LUPREC
 70
     3
  9
$SKETCHINC
 40
0.1
  9
$FILLETRAD
 40
0.5
  9
$AUNITS
 70
     0
  9
$AUPREC
 70
     0
  9
$MENU
  1
.
  9
$ELEVATION
 40
0.0
  9
$PELEVATION
 40
0.0
  9
$THICKNESS
 40
0.0
  9
$LIMCHECK
 70
     0
  9
$CHAMFERA
 40
0.0
  9
$CHAMFERB
 40
0.0
  9
$CHAMFERC
 40
0.0
  9
$CHAMFERD
 40
0.0
  9
$SKPOLY
 70
     0
  9
$TDCREATE
 40
2458834.529544722
  9
$TDUCREATE
 40
2458834.737878056
  9
$TDUPDATE
 40
2458834.529559873
  9
$TDUUPDATE
 40
2458834.737893206
  9
$TDINDWG
 40
0.0000000116
  9
$TDUSRTIMER
 40
0.0000000116
  9
$USRTIMER
 70
     1
  9
$ANGBASE
 50
0.0
  9
$ANGDIR
 70
     0
  9
$PDMODE
 70
     0
  9
$PDSIZE
 40
0.0
  9
$PLINEWID
 40
0.0
  9
$SPLFRAME
 70
     0
  9
$SPLINETYPE
 70
     6
  9
$SPLINESEGS
 70
     8
  9
$HANDSEED
  5
164
  9
$SURFTAB1
 70
     6
  9
$SURFTAB2
 70
     6
  9
$SURFTYPE
 70
     6
  9
$SURFU
 70
     6
  9
$SURFV
 70
     6
  9
$UCSBASE
  2

  9
$UCSNAME
  2

  9
$UCSORG
 10
0.0
 20
0.0
 30
0.0
  9
$UCSXDIR
 10
1.0
 20
0.0
 30
0.0
  9
$UCSYDIR
 10
0.0
 20
1.0
 30
0.0
  9
$UCSORTHOREF
  2

  9
$UCSORTHOVIEW
 70
     0
  9
$UCSORGTOP
 10
0.0
 20
0.0
 30
0.0
  9
$UCSORGBOTTOM
 10
0.0
 20
0.0
 30
0.0
  9
$UCSORGLEFT
 10
0.0
 20
0.0
 30
0.0
  9
$UCSORGRIGHT
 10
0.0
 20
0.0
 30
0.0
  9
$UCSORGFRONT
 10
0.0
 20
0.0
 30
0.0
  9
$UCSORGBACK
 10
0.0
 20
0.0
 30
0.0
  9
$PUCSBASE
  2

  9
$PUCSNAME
  2

  9
$PUCSORG
 10
0.0
 20
0.0
 30
0.0
  9
$PUCSXDIR
 10
1.0
 20
0.0
 30
0.0
  9
$PUCSYDIR
 10
0.0
 20
1.0
 30
0.0
  9
$PUCSORTHOREF
  2

  9
$PUCSORTHOVIEW
 70
     0
  9
$PUCSORGTOP
 10
0.0
 20
0.0
 30
0.0
  9
$PUCSORGBOTTOM
 10
0.0
 20
0.0
 30
0.0
  9
$PUCSORGLEFT
 10
0.0
 20
0.0
 30
0.0
  9
$PUCSORGRIGHT
 10
0.0
 20
0.0
 30
0.0
  9
$PUCSORGFRONT
 10
0.0
 20
0.0
 30
0.0
  9
$PUCSORGBACK
 10
0.0
 20
0.0
 30
0.0
  9
$USERI1
 70
     0
  9
$USERI2
 70
     0
  9
$USERI3
 70
     0
  9
$USERI4
 70
     0
  9
$USERI5
 70
     0
  9
$USERR1
 40
0.0
  9
$USERR2
 40
0.0
  9
$USERR3
 40
0.0
  9
$USERR4
 40
0.0
  9
$USERR5
 40
0.0
  9
$WORLDVIEW
 70
     1
  9
$SHADEDGE
 70
     3
  9
$SHADEDIF
 70
    70
  9
$TILEMODE
 70
     1
  9
$MAXACTVP
 70
    64
  9
$PINSBASE
 10
0.0
 20
0.0
 30
0.0
  9
$PLIMCHECK
 70
     0
  9
$PEXTMIN
 10
1.000000000000000E+20
 20
1.000000000000000E+20
 30
1.000000000000000E+20
  9
$PEXTMAX
 10
-1.000000000000000E+20
 20
-1.000000000000000E+20
 30
-1.000000000000000E+20
  9
$PLIMMIN
 10
0.0
 20
0.0
  9
$PLIMMAX
 10
12.0
 20
9.0
  9
$UNITMODE
 70
     0
  9
$VISRETAIN
 70
     1
  9
$PLINEGEN
 70
     0
  9
$PSLTSCALE
 70
     1
  9
$TREEDEPTH
 70
  3020
  9
$CMLSTYLE
  2
Standard
  9
$CMLJUST
 70
     0
  9
$CMLSCALE
 40
1.0
  9
$PROXYGRAPHICS
 70
     1
  9
$MEASUREMENT
 70
     0
  9
$CELWEIGHT
370
    -1
  9
$ENDCAPS
280
     0
  9
$JOINSTYLE
280
     0
  9
$LWDISPLAY
290
     0
  9
$INSUNITS
 70
     1
  9
$HYPERLINKBASE
  1

  9
$STYLESHEET
  1

  9
$XEDIT
290
     1
  9
$CEPSNTYPE
380
     0
  9
$PSTYLEMODE
290
     1
  9
$FINGERPRINTGUID
  2
{7e672c40-b17b-4428-8dc4-d1e3fc4788de}
  9
$VERSIONGUID
  2
{FAEB1C32-E019-11D5-929B-00C0DF256EC4}
  9
$EXTNAMES
290
     1
  9
$PSVPSCALE
 40
0.0
  9
$OLESTARTUP
290
     0
  9
$SORTENTS
280
   127
  9
$INDEXCTL
280
     0
  9
$HIDETEXT
280
     1
  9
$XCLIPFRAME
290
     0
  9
$HALOGAP
280
     0
  9
$OBSCOLOR
 70
   257
  9
$OBSLTYPE
280
     0
  9
$INTERSECTIONDISPLAY
280
     0
  9
$INTERSECTIONCOLOR
 70
   257
  9
$DIMASSOC
280
     2
  9
$PROJECTNAME
  1

  9
$CAMERADISPLAY
290
     0
  9
$LENSLENGTH
 40
50.0
  9
$CAMERAHEIGHT
 40
0.0
  9
$STEPSPERSEC
 40
2.0
  9
$STEPSIZE
 40
6.0
  9
$3DDWFPREC
 40
2.0
  9
$PSOLWIDTH
 40
0.25
  9
$PSOLHEIGHT
 40
4.0
  9
$LOFTANG1
 40
1.570796326794897
  9
$LOFTANG2
 40
1.570796326794897
  9
$LOFTMAG1
 40
0.0
  9
$LOFTMAG2
 40
0.0
  9
$LOFTPARAM
 70
     7
  9
$LOFTNORMALS
280
     1
  9
$LATITUDE
 40
37.795
  9
$LONGITUDE
 40
-122.394
  9
$NORTHDIRECTION
 40
0.0
  9
$TIMEZONE
 70
 -8000
  9
$LIGHTGLYPHDISPLAY
280
     1
  9
$TILEMODELIGHTSYNCH
280
     1
  9
$CMATERIAL
347
44
  9
$SOLIDHIST
280
     0
  9
$SHOWHIST
280
     1
  9
$DWFFRAME
280
     2
  9
$DGNFRAME
280
     2
  9
$REALWORLDSCALE
290
     1
  9
$INTERFERECOLOR
 62
   256
  9
$CSHADOW
280
     0
  9
$SHADOWPLANELOCATION
 40
0.0
  0
ENDSEC
  0
SECTION
  2
CLASSES
  0
CLASS
  1
ACDBDICTIONARYWDFLT
  2
AcDbDictionaryWithDefault
  3
ObjectDBX Classes
 90
        0
 91
        3
280
     0
281
     0
  0
CLASS
  1
VISUALSTYLE
  2
AcDbVisualStyle
  3
ObjectDBX Classes
 90
     4095
 91
        3
280
     0
281
     0
  0
CLASS
  1
MATERIAL
  2
AcDbMaterial
  3
ObjectDBX Classes
 90
     1153
 91
        3
280
     0
281
     0
  0
CLASS
  1
SCALE
  2
AcDbScale
  3
ObjectDBX Classes
 90
     1153
 91
        3
280
     0
281
     0
  0
CLASS
  1
TABLESTYLE
  2
AcDbTableStyle
  3
ObjectDBX Classes
 90
     4095
 91
        3
280
     0
281
     0
  0
CLASS
  1
MLEADERSTYLE
  2
AcDbMLeaderStyle
  3
ACDB_MLEADERSTYLE_CLASS
 90
     4095
 91
        3
280
     0
281
     0
  0
CLASS
  1
SUN
  2
AcDbSun
  3
SCENEOE
 90
     1153
 91
        3
280
     0
281
     0
  0
CLASS
  1
DICTIONARYVAR
  2
AcDbDictionaryVar
  3
ObjectDBX Classes
 90
        0
 91
        3
280
     0
281
     0
  0
CLASS
  1
CELLSTYLEMAP
  2
AcDbCellStyleMap
  3
ObjectDBX Classes
 90
     1152
 91
        3
280
     0
281
     0
  0
ENDSEC
  0
SECTION
  2
TABLES
  0
TABLE
  2
VPORT
  5
8
330
0
100
AcDbSymbolTable
 70
     1
  0
VPORT
  5
29
330
8
100
AcDbSymbolTableRecord
100
AcDbViewportTableRecord
  2
*Active
 70
     0
 10
0.0
 20
0.0
 11
1.0
 21
1.0
 12
10.42990654205607
 22
4.5
 13
0.0
 23
0.0
 14
0.5
 24
0.5
 15
0.5
 25
0.5
 16
0.0
 26
0.0
 36
1.0
 17
0.0
 27
0.0
 37
0.0
 40
9.0
 41
1.972972972850329
 42
50.0
 43
0.0
 44
0.0
 50
0.0
 51
0.0
 71
     0
 72
   100
 73
     1
 74
     3
 75
     0
 76
     0
 77
     0
 78
     0
281
     0
 65
     1
110
0.0
120
0.0
130
0.0
111
1.0
121
0.0
131
0.0
112
0.0
122
1.0
132
0.0
 79
     0
146
0.0
348
2F
 60
     3
 61
     5
292
     1
282
     1
141
0.0
142
0.0
 63
   250
361
6D
  0
ENDTAB
  0
TABLE
  2
LTYPE
  5
5
330
0
100
AcDbSymbolTable
 70
     1
  0
LTYPE
  5
14
330
5
100
AcDbSymbolTableRecord
100
AcDbLinetypeTableRecord
  2
ByBlock
 70
     0
  3

 72
    65
 73
     0
 40
0.0
  0
LTYPE
  5
15
330
5
100
AcDbSymbolTableRecord
100
AcDbLinetypeTableRecord
  2
ByLayer
 70
     0
  3

 72
    65
 73
     0
 40
0.0
  0
LTYPE
  5
16
330
5
100
AcDbSymbolTableRecord
100
AcDbLinetypeTableRecord
  2
Continuous
 70
     0
  3
Solid line
 72
    65
 73
     0
 40
0.0
  0
ENDTAB
  0
TABLE
  2
LAYER
  5
2
330
0
100
AcDbSymbolTable
 70
     4
  0
LAYER
  5
10
330
2
100
AcDbSymbolTableRecord
100
AcDbLayerTableRecord
  2
0
 70
     0
 62
     7
  6
Continuous
370
    -3
390
F
347
46
  0
LAYER
  5
6E
330
2
100
AcDbSymbolTableRecord
100
AcDbLayerTableRecord
  2
Make2D$Visible$Curves
 70
     0
 62
    18
420
        0
  6
Continuous
370
    -3
390
F
347
46
  0
LAYER
  5
8B
330
2
100
AcDbSymbolTableRecord
100
AcDbLayerTableRecord
  2
Layer 01
 70
     0
 62
    18
420
        0
  6
Continuous
370
    -3
390
F
347
46
  0
LAYER
  5
9F
330
2
100
AcDbSymbolTableRecord
100
AcDbLayerTableRecord
  2
1
 70
     0
 62
    18
420
        0
  6
Continuous
370
    -3
390
F
347
46
  0
ENDTAB
  0
TABLE
  2
STYLE
  5
3
330
0
100
AcDbSymbolTable
 70
     1
  0
STYLE
  5
11
330
3
100
AcDbSymbolTableRecord
100
AcDbTextStyleTableRecord
  2
Standard
 70
     0
 40
0.0
 41
1.0
 50
0.0
 71
     0
 42
0.2
  3
txt
  4

  0
ENDTAB
  0
TABLE
  2
VIEW
  5
6
330
0
100
AcDbSymbolTable
 70
     0
  0
ENDTAB
  0
TABLE
  2
UCS
  5
7
330
0
100
AcDbSymbolTable
 70
     0
  0
ENDTAB
  0
TABLE
  2
APPID
  5
9
330
0
100
AcDbSymbolTable
 70
     2
  0
APPID
  5
12
330
9
100
AcDbSymbolTableRecord
100
AcDbRegAppTableRecord
  2
ACAD
 70
     0
  0
APPID
  5
15C
330
9
100
AcDbSymbolTableRecord
100
AcDbRegAppTableRecord
  2
ACAD_MLEADERVER
 70
     0
  0
ENDTAB
  0
TABLE
  2
DIMSTYLE
  5
A
330
0
100
AcDbSymbolTable
 70
     1
100
AcDbDimStyleTable
  0
DIMSTYLE
105
27
330
A
100
AcDbSymbolTableRecord
100
AcDbDimStyleTableRecord
  2
STANDARD_ACAD
 70
     0
178
     0
340
11
  0
ENDTAB
  0
TABLE
  2
BLOCK_RECORD
  5
1
330
0
100
AcDbSymbolTable
 70
     1
  0
BLOCK_RECORD
  5
1F
330
1
100
AcDbSymbolTableRecord
100
AcDbBlockTableRecord
  2
*Model_Space
340
22
 70
     0
280
     1
281
     0
  0
BLOCK_RECORD
  5
1B
330
1
100
AcDbSymbolTableRecord
100
AcDbBlockTableRecord
  2
*Paper_Space
340
1E
 70
     0
280
     1
281
     0
  0
BLOCK_RECORD
  5
23
330
1
100
AcDbSymbolTableRecord
100
AcDbBlockTableRecord
  2
*Paper_Space0
340
26
 70
     0
280
     1
281
     0
  0
ENDTAB
  0
ENDSEC
  0
SECTION
  2
BLOCKS
  0
BLOCK
  5
20
330
1F
100
AcDbEntity
  8
0
100
AcDbBlockBegin
  2
*Model_Space
 70
     0
 10
0.0
 20
0.0
 30
0.0
  3
*Model_Space
  1

  0
ENDBLK
  5
21
330
1F
100
AcDbEntity
  8
0
100
AcDbBlockEnd
  0
BLOCK
  5
1C
330
1B
100
AcDbEntity
 67
     1
  8
0
100
AcDbBlockBegin
  2
*Paper_Space
 70
     0
 10
0.0
 20
0.0
 30
0.0
  3
*Paper_Space
  1

  0
ENDBLK
  5
1D
330
1B
100
AcDbEntity
 67
     1
  8
0
100
AcDbBlockEnd
  0
BLOCK
  5
24
330
23
100
AcDbEntity
  8
0
100
AcDbBlockBegin
  2
*Paper_Space0
 70
     0
 10
0.0
 20
0.0
 30
0.0
  3
*Paper_Space0
  1

  0
ENDBLK
  5
25
330
23
100
AcDbEntity
  8
0
100
AcDbBlockEnd
  0
ENDSEC
  0
SECTION
  2
ENTITIES
  0
SPLINE
  5
6F
330
1F
100
AcDbEntity
  8
Make2D$Visible$Curves
 62
    18
420
        0
370
    -3
100
AcDbSpline
210
0.0
220
0.0
230
1.0
 70
    24
 71
     2
 72
     6
 73
     3
 74
     0
 42
0.000000001
 43
0.0000000001
 40
0.0
 40
0.0
 40
0.0
 40
2.66364320189934
 40
2.66364320189934
 40
2.66364320189934
 10
58.45191912752666
 20
9.620206890024
 30
0.0
 10
58.55441964963562
 20
8.292335503283729
 30
0.0
 10
58.65692017174457
 20
6.964464116543458
 30
0.0
  0
SPLINE
  5
70
330
1F
100
AcDbEntity
  8
Make2D$Visible$Curves
 62
    18
420
        0
370
    -3
100
AcDbSpline
210
0.0
220
0.0
230
1.0
 70
    24
 71
     2
 72
     6
 73
     3
 74
     0
 42
0.000000001
 43
0.0000000001
 40
-2.67179651896933
 40
-2.67179651896933
 40
-2.67179651896933
 40
0.0
 40
0.0
 40
0.0
 10
68.41810118153752
 20
7.709767762649794
 30
0.0
 10
68.31528690897709
 20
9.041703716459898
 30
0.0
 10
68.21247263641665
 20
10.37363967027
 30
0.0
  0
LINE
  5
71
330
1F
100
AcDbEntity
  8
Make2D$Visible$Curves
 62
    18
420
        0
370
    -3
100
AcDbLine
 10
76.13413676949286
 20
0.0607845842426245
 30
0.0
 11
76.14005072623057
 21
0.2500000000000009
 31
0.0
  0
LINE
  5
72
330
1F
100
AcDbEntity
  8
Make2D$Visible$Curves
 62
    18
420
        0
370
    -3
100
AcDbLine
 10
76.14005072623057
 20
0.2500000000000009
 30
0.0
 11
75.26505072623063
 21
0.2500000000000009
 31
0.0
  0
LINE
  5
73
330
1F
100
AcDbEntity
  8
Make2D$Visible$Curves
 62
    18
420
        0
370
    -3
100
AcDbLine
 10
75.26505072623063
 20
0.2500000000000009
 30
0.0
 11
75.27099992914081
 21
0.0600836941051875
 31
0.0
  0
SPLINE
  5
74
330
1F
100
AcDbEntity
  8
Make2D$Visible$Curves
 62
    18
420
        0
370
    -3
100
AcDbSpline
210
0.0
220
0.0
230
1.0
 70
     8
 71
     3
 72
     9
 73
     5
 74
     0
 42
0.000000001
 43
0.0000000001
 40
7.737250991575596
 40
7.737250991575596
 40
7.737250991575596
 40
7.737250991575596
 40
8.737250991575596
 40
9.737250991575596
 40
9.737250991575596
 40
9.737250991575596
 40
9.737250991575596
 10
75.27099992914081
 20
0.0600836941051875
 30
0.0
 10
75.27200044359508
 20
0.0435809951469155
 30
0.0
 10
75.28605815175668
 20
0.0115276156554
 30
0.0
 10
75.3185128124954
 20
0.00219741088637
 30
0.0
 10
75.3339252304428
 20
0.0
 30
0.0
  0
LINE
  5
75
330
1F
100
AcDbEntity
  8
Make2D$Visible$Curves
 62
    18
420
        0
370
    -3
100
AcDbLine
 10
75.3339252304428
 20
0.0
 30
0.0
 11
76.0711762220184
 21
0.0
 31
0.0
  0
SPLINE
  5
76
330
1F
100
AcDbEntity
  8
Make2D$Visible$Curves
 62
    18
420
        0
370
    -3
100
AcDbSpline
210
0.0
220
0.0
230
1.0
 70
     8
 71
     3
 72
     9
 73
     5
 74
     0
 42
0.000000001
 43
0.0000000001
 40
10.47450198315119
 40
10.47450198315119
 40
10.47450198315119
 40
10.47450198315119
 40
11.47450198315119
 40
12.47450198315119
 40
12.47450198315119
 40
12.47450198315119
 40
12.47450198315119
 10
76.0711762220184
 20
0.0
 30
0.0
 10
76.08682850976818
 20
0.0021765459964815
 30
0.0
 10
76.11972864358206
 20
0.0119332356678441
 30
0.0
 10
76.13352047769051
 20
0.0447294479892242
 30
0.0
 10
76.13413676949286
 20
0.0607845842426245
 30
0.0
  0
LINE
  5
77
330
1F
100
AcDbEntity
  8
Make2D$Visible$Curves
 62
    18
420
        0
370
    -3
100
AcDbLine
 10
50.0552576359799
 20
0.0607845842426245
 30
0.0
 11
50.06117159271761
 21
0.2500000000000009
 31
0.0
  0
LINE
  5
78
330
1F
100
AcDbEntity
  8
Make2D$Visible$Curves
 62
    18
420
        0
370
    -3
100
AcDbLine
 10
50.06117159271761
 20
0.2500000000000009
 30
0.0
 11
49.18617159271767
 21
0.2500000000000009
 31
0.0
  0
LINE
  5
79
330
1F
100
AcDbEntity
  8
Make2D$Visible$Curves
 62
    18
420
        0
370
    -3
100
AcDbLine
 10
49.18617159271767
 20
0.2500000000000009
 30
0.0
 11
49.19212079562786
 21
0.0600836941051875
 31
0.0
  0
SPLINE
  5
7A
330
1F
100
AcDbEntity
  8
Make2D$Visible$Curves
 62
    18
420
        0
370
    -3
100
AcDbSpline
210
0.0
220
0.0
230
1.0
 70
     8
 71
     3
 72
     9
 73
     5
 74
     0
 42
0.000000001
 43
0.0000000001
 40
7.737250991575596
 40
7.737250991575596
 40
7.737250991575596
 40
7.737250991575596
 40
8.737250991575596
 40
9.737250991575596
 40
9.737250991575596
 40
9.737250991575596
 40
9.737250991575596
 10
49.19212079562786
 20
0.0600836941051875
 30
0.0
 10
49.19312131008212
 20
0.0435809951469155
 30
0.0
 10
49.20717901824372
 20
0.0115276156554
 30
0.0
 10
49.23963367898244
 20
0.00219741088637
 30
0.0
 10
49.25504609692985
 20
0.0
 30
0.0
  0
LINE
  5
7B
330
1F
100
AcDbEntity
  8
Make2D$Visible$Curves
 62
    18
420
        0
370
    -3
100
AcDbLine
 10
49.25504609692985
 20
0.0
 30
0.0
 11
49.99229708850544
 21
0.0
 31
0.0
  0
SPLINE
  5
7C
330
1F
100
AcDbEntity
  8
Make2D$Visible$Curves
 62
    18
420
        0
370
    -3
100
AcDbSpline
210
0.0
220
0.0
230
1.0
 70
     8
 71
     3
 72
     9
 73
     5
 74
     0
 42
0.000000001
 43
0.0000000001
 40
10.47450198315119
 40
10.47450198315119
 40
10.47450198315119
 40
10.47450198315119
 40
11.47450198315119
 40
12.47450198315119
 40
12.47450198315119
 40
12.47450198315119
 40
12.47450198315119
 10
49.99229708850544
 20
0.0
 30
0.0
 10
50.00794937625523
 20
0.0021765459964815
 30
0.0
 10
50.04084951006911
 20
0.0119332356678441
 30
0.0
 10
50.05464134417755
 20
0.0447294479892242
 30
0.0
 10
50.0552576359799
 20
0.0607845842426245
 30
0.0
  0
SPLINE
  5
7D
330
1F
100
AcDbEntity
  8
Make2D$Visible$Curves
 62
    18
420
        0
370
    -3
100
AcDbSpline
210
0.0
220
0.0
230
1.0
 70
     8
 71
     2
 72
    15
 73
    12
 74
     0
 42
0.000000001
 43
0.0000000001
 40
0.0
 40
0.0
 40
0.0
 40
1.0
 40
2.0
 40
3.0
 40
4.0
 40
5.0
 40
6.0
 40
7.0
 40
8.0
 40
9.0
 40
10.0
 40
10.0
 40
10.0
 10
77.62935780342582
 20
13.24989402345467
 30
0.0
 10
77.89451035166164
 20
13.41687867585308
 30
0.0
 10
78.25262181204339
 20
13.92995988105997
 30
0.0
 10
78.43538041462816
 20
14.52539449999059
 30
0.0
 10
78.4398621793479
 20
15.14776022530181
 30
0.0
 10
78.28612529531344
 20
15.75099218981752
 30
0.0
 10
77.96939977846291
 20
16.28633990750572
 30
0.0
 10
77.53124330291048
 20
16.72689367351914
 30
0.0
 10
77.01011039394461
 20
17.06361897969588
 30
0.0
 10
76.44074841086727
 20
17.30826339174872
 30
0.0
 10
75.8444556381263
 20
17.47526828046434
 30
0.0
 10
75.53943325221985
 20
17.52785347591111
 30
0.0
  0
SPLINE
  5
7E
330
1F
100
AcDbEntity
  8
Make2D$Visible$Curves
 62
    18
420
        0
370
    -3
100
AcDbSpline
210
0.0
220
0.0
230
1.0
 70
     8
 71
     3
 72
    24
 73
    20
 74
     0
 42
0.000000001
 43
0.0000000001
 40
0.0
 40
0.0
 40
0.0
 40
0.0
 40
1.000155520406781
 40
1.000155520406781
 40
2.000311040813563
 40
2.000311040813563
 40
3.000466561220344
 40
3.000466561220344
 40
4.000622081627125
 40
4.000622081627125
 40
5.000777602033907
 40
5.000777602033907
 40
6.000933122440689
 40
6.000933122440689
 40
7.00108864284747
 40
7.00108864284747
 40
8.00124416325425
 40
8.00124416325425
 40
9.0
 40
9.0
 40
9.0
 40
9.0
 10
74.43800006230005
 20
10.85419811736103
 30
0.0
 10
74.63296095925428
 20
10.87460854025336
 30
0.0
 10
74.82776271190143
 20
10.89644049154452
 30
0.0
 10
75.21704792858155
 20
10.94294745092446
 30
0.0
 10
75.41148351732546
 20
10.96782524060991
 30
0.0
 10
75.79994065562099
 20
11.02082943997178
 30
0.0
 10
75.9938177427645
 20
11.0497613828395
 30
0.0
 10
76.3808689530431
 20
11.1124849549485
 30
0.0
 10
76.57355790254488
 20
11.14830982308697
 30
0.0
 10
76.9572624902734
 20
11.22888572353183
 30
0.0
 10
77.14792257331628
 20
11.27458762037647
 30
0.0
 10
77.52685831775936
 20
11.37681930731016
 30
0.0
 10
77.70727814885466
 20
11.45532959648247
 30
0.0
 10
78.04451935863564
 20
11.69118041408161
 30
0.0
 10
78.15516750720872
 20
11.84374553826039
 30
0.0
 10
78.25501652156298
 20
12.24219656521995
 30
0.0
 10
78.23420795498102
 20
12.43218248615668
 30
0.0
 10
78.0512527837136
 20
12.79342219460002
 30
0.0
 10
77.92262678493263
 20
12.93907860637114
 30
0.0
 10
77.75678831829715
 20
13.04989804986373
 30
0.0
  0
SPLINE
  5
7F
330
1F
100
AcDbEntity
  8
Make2D$Visible$Curves
 62
    18
420
        0
370
    -3
100
AcDbSpline
210
0.0
220
0.0
230
1.0
 70
     8
 71
     3
 72
   108
 73
   104
 74
     0
 42
0.000000001
 43
0.0000000001
 40
9.0
 40
9.0
 40
9.0
 40
9.0
 40
9.998594760343936
 40
9.998594760343936
 40
10.99877041530094
 40
10.99877041530094
 40
11.99894607025795
 40
11.99894607025795
 40
12.99912172521496
 40
12.99912172521496
 40
13.99929738017197
 40
13.99929738017197
 40
14.99947303512898
 40
14.99947303512898
 40
15.99964869008598
 40
15.99964869008598
 40
16.99982434504299
 40
16.99982434504299
 40
18.0
 40
18.0
 40
18.0
 40
19.00001048605852
 40
19.00001048605852
 40
20.00002097211704
 40
20.00002097211704
 40
21.00003145817555
 40
21.00003145817555
 40
22.00004194423407
 40
22.00004194423407
 40
23.00005243029258
 40
23.00005243029258
 40
24.0000629163511
 40
24.0000629163511
 40
25.0
 40
25.0
 40
25.0
 40
26.0
 40
26.0
 40
26.0
 40
27.0
 40
27.0
 40
28.0
 40
28.0
 40
29.0
 40
29.0
 40
30.0
 40
30.0
 40
31.0
 40
31.0
 40
32.0
 40
32.0
 40
33.0
 40
33.0
 40
34.0
 40
34.0
 40
35.0
 40
35.0
 40
36.0
 40
36.0
 40
36.0
 40
37.0
 40
37.0
 40
37.0
 40
38.0
 40
38.0
 40
39.0
 40
39.0
 40
40.0
 40
40.0
 40
41.0
 40
41.0
 40
42.0
 40
42.0
 40
43.0
 40
43.0
 40
44.0
 40
44.0
 40
45.0
 40
45.0
 40
45.0
 40
46.0
 40
46.0
 40
47.0
 40
47.0
 40
47.0
 40
48.0
 40
48.0
 40
48.0
 40
49.0
 40
49.0
 40
50.0
 40
50.0
 40
51.0
 40
51.0
 40
52.0
 40
52.0
 40
53.0
 40
53.0
 40
54.0
 40
54.0
 40
55.0
 40
55.0
 40
56.0
 40
56.0
 40
56.0
 40
56.0
 10
77.75678831829715
 20
13.04989804986373
 30
0.0
 10
77.66027864474252
 20
13.2082653271162
 30
0.0
 10
77.55650874706723
 20
13.36184693162514
 30
0.0
 10
77.33427272954935
 20
13.65967435686358
 30
0.0
 10
77.23048796494807
 20
13.81356206290346
 30
0.0
 10
77.03776069798687
 20
14.13104990011693
 30
0.0
 10
76.94791107680891
 20
14.29347652325475
 30
0.0
 10
76.78123985905826
 20
14.62569517859257
 30
0.0
 10
76.69995575683835
 20
14.79274486674335
 30
0.0
 10
76.54149056570935
 20
15.1287249640087
 30
0.0
 10
76.46413259907463
 20
15.29758225653581
 30
0.0
 10
76.3131659236647
 20
15.63703132937893
 30
0.0
 10
76.23863033086731
 20
15.80716879464558
 30
0.0
 10
76.09145463508776
 20
16.14826958286906
 30
0.0
 10
76.01975610519338
 20
16.31961172255594
 30
0.0
 10
75.88013768139541
 20
16.66387949307994
 30
0.0
 10
75.81123056605485
 20
16.83637088899132
 30
0.0
 10
75.67522052849058
 20
17.18206870211285
 30
0.0
 10
75.60728976085353
 20
17.35494658056003
 30
0.0
 10
75.53943324436155
 20
17.52785343089364
 30
0.0
 10
75.38417287995755
 20
17.92407095470327
 30
0.0
 10
75.2266720862434
 20
18.31942371712679
 30
0.0
 10
74.9071896401947
 20
19.1083997192016
 30
0.0
 10
74.74700951239771
 20
19.50255585246904
 30
0.0
 10
74.42577144725846
 20
20.29020438346398
 30
0.0
 10
74.25959887009337
 20
20.68264280202685
 30
0.0
 10
73.9161466265722
 20
21.46474794528343
 30
0.0
 10
73.68637674272439
 20
21.82058765141339
 30
0.0
 10
73.11074945085431
 20
22.46184133267666
 30
0.0
 10
72.77162554528958
 20
22.71177392462057
 30
0.0
 10
71.99075721490077
 20
23.07025061113293
 30
0.0
 10
71.58544451656823
 20
23.19639960796164
 30
0.0
 10
70.74509289635243
 20
23.34251354606589
 30
0.0
 10
70.32339320922593
 20
23.4007827556412
 30
0.0
 10
69.9001542237181
 20
23.44426688708877
 30
0.0
 10
66.38474258646572
 20
23.81907842390332
 30
0.0
 10
62.87155061484469
 20
24.2130565749476
 30
0.0
 10
59.36057830885501
 20
24.62620134022162
 30
0.0
 10
58.98423688909423
 20
24.67048636271089
 30
0.0
 10
58.60718907814583
 20
24.71828500469465
 30
0.0
 10
57.85801700021208
 20
24.84911409486523
 30
0.0
 10
57.49499307656469
 20
24.95391206828607
 30
0.0
 10
56.79206945990895
 20
25.24227487179884
 30
0.0
 10
56.49902633786417
 20
25.47495304573465
 30
0.0
 10
56.02240660333079
 20
26.080448622915
 30
0.0
 10
55.82167452795165
 20
26.40355019309445
 30
0.0
 10
55.49536596096851
 20
27.09046089663192
 30
0.0
 10
55.37727121944184
 20
27.44931425091477
 30
0.0
 10
55.23120082031839
 20
28.19781696450866
 30
0.0
 10
55.18291814049257
 20
28.5743567277615
 30
0.0
 10
55.13585782031274
 20
29.33201306717897
 30
0.0
 10
55.11982900807271
 20
29.71114831555463
 30
0.0
 10
55.10277407929247
 20
30.47003296963985
 30
0.0
 10
55.09210918266564
 20
30.8493970777319
 30
0.0
 10
55.06650452493859
 20
31.60796885601489
 30
0.0
 10
55.05423028357291
 20
31.98727340192288
 30
0.0
 10
55.03073797583719
 20
32.74591980727182
 30
0.0
 10
55.01973572922296
 20
33.1252643967948
 30
0.0
 10
55.00947738986237
 20
33.50463037316627
 30
0.0
 10
54.98951024843831
 20
34.24303976238846
 30
0.0
 10
54.9672894008828
 20
35.52482318468557
 30
0.0
 10
54.87463006146693
 20
36.25462943020985
 30
0.0
 10
54.84693950514444
 20
36.47272661365177
 30
0.0
 10
54.81052586343238
 20
36.6895339463457
 30
0.0
 10
54.72025240922908
 20
37.12056891023758
 30
0.0
 10
54.65543769646596
 20
37.33024704753166
 30
0.0
 10
54.48645229961679
 20
37.73792463281612
 30
0.0
 10
54.3778480487866
 20
37.92839304990546
 30
0.0
 10
54.1124164423149
 20
38.28258913297829
 30
0.0
 10
53.95559019492298
 20
38.43522565598123
 30
0.0
 10
53.59371681182702
 20
38.69157566492013
 30
0.0
 10
53.39758162085698
 20
38.78816009056468
 30
0.0
 10
52.97491424007274
 20
38.918147784204
 30
0.0
 10
52.75964773186644
 20
38.96113344288673
 30
0.0
 10
52.32124907982547
 20
39.00308838397832
 30
0.0
 10
52.1017503154387
 20
39.01578889418008
 30
0.0
 10
51.66215390993261
 20
39.02463599389554
 30
0.0
 10
51.44235505235624
 20
39.02453951789095
 30
0.0
 10
51.22255553995656
 20
39.01992301602402
 30
0.0
 10
50.65173201360801
 20
39.00793387261643
 30
0.0
 10
50.08078846700678
 20
39.00045184238618
 30
0.0
 10
48.93866133329891
 20
38.99450200828041
 30
0.0
 10
48.36768276704998
 20
38.98973537979679
 30
0.0
 10
47.79678920140607
 20
38.98317703988244
 30
0.0
 10
47.33874266015012
 20
38.97791506970984
 30
0.0
 10
47.00349021661051
 20
38.82331467728609
 30
0.0
 10
46.94242116861638
 20
38.40960831945569
 30
0.0
 10
46.76939500849871
 20
37.26588958408587
 30
0.0
 10
46.65469412765149
 20
36.11645997794692
 30
0.0
 10
46.54194292449795
 20
33.80617902413078
 30
0.0
 10
46.5337642069725
 20
32.65094555133344
 30
0.0
 10
46.61380054002424
 20
30.34029261396026
 30
0.0
 10
46.6781564573326
 20
29.18634927800322
 30
0.0
 10
46.85554379351429
 20
26.88122887154827
 30
0.0
 10
46.98232231232134
 20
25.73268419028609
 30
0.0
 10
47.31204905136784
 20
23.44362587169232
 30
0.0
 10
47.54434140786881
 20
22.31255819140249
 30
0.0
 10
48.14378409482614
 20
20.07734578883695
 30
0.0
 10
48.50069675548798
 20
18.9785366958522
 30
0.0
 10
49.32890471117806
 20
16.81851272647877
 30
0.0
 10
49.80548956690762
 20
15.76627857737014
 30
0.0
 10
50.88362103413579
 20
13.717365950309
 30
0.0
 10
51.49712428287115
 20
12.73958420791275
 30
0.0
 10
52.18506504672777
 20
11.80847703665081
 30
0.0
  0
LINE
  5
80
330
1F
100
AcDbEntity
  8
Make2D$Visible$Curves
 62
    18
420
        0
370
    -3
100
AcDbLine
 10
72.90687916503937
 20
10.49233398159289
 30
0.0
 11
70.85567147501855
 21
10.33547190246948
 31
0.0
  0
SPLINE
  5
81
330
1F
100
AcDbEntity
  8
Make2D$Visible$Curves
 62
    18
420
        0
370
    -3
100
AcDbSpline
210
0.0
220
0.0
230
1.0
 70
     8
 71
     2
 72
     6
 73
     3
 74
     0
 42
0.000000001
 43
0.0000000001
 40
4.064127133778431
 40
4.064127133778431
 40
4.064127133778431
 40
5.064127133778431
 40
5.064127133778431
 40
5.064127133778431
 10
70.85567147501855
 20
10.33547190246948
 30
0.0
 10
70.72048654565981
 20
10.41260210613684
 30
0.0
 10
70.6691066985414
 20
10.56441738004334
 30
0.0
  0
SPLINE
  5
82
330
1F
100
AcDbEntity
  8
Make2D$Visible$Curves
 62
    18
420
        0
370
    -3
100
AcDbSpline
210
0.0
220
0.0
230
1.0
 70
    12
 71
     3
 72
     8
 73
     4
 74
     0
 42
0.000000001
 43
0.0000000001
 40
-1.422655352258096
 40
-1.422655352258096
 40
-1.422655352258096
 40
-1.422655352258096
 40
0.0000534948024111
 40
0.0000534948024111
 40
0.0000534948024111
 40
0.0000534948024111
 10
53.40992304833492
 20
10.38913102883693
 30
0.0
 41
0.9999999999999991
 10
53.74003798944514
 20
10.04533296248896
 30
0.0
 41
0.9999999999999991
 10
54.08558858508969
 20
9.716208815434335
 30
0.0
 41
0.9999999999999996
 10
54.45238886871478
 20
9.409749399968181
 30
0.0
 41
1.0
  0
SPLINE
  5
83
330
1F
100
AcDbEntity
  8
Make2D$Visible$Curves
 62
    18
420
        0
370
    -3
100
AcDbSpline
210
0.0
220
0.0
230
1.0
 70
     8
 71
     3
 72
     8
 73
     4
 74
     0
 42
0.000000001
 43
0.0000000001
 40
0.0000534948024111
 40
0.0000534948024111
 40
0.0000534948024111
 40
0.0000534948024111
 40
1.000053494802411
 40
1.000053494802411
 40
1.000053494802411
 40
1.000053494802411
 10
54.45238886871478
 20
9.409749399968181
 30
0.0
 10
54.54174658875282
 20
9.335091566065753
 30
0.0
 10
54.77344771956103
 20
9.336259782164321
 30
0.0
 10
54.94549910180734
 20
9.34954070431212
 30
0.0
  0
LINE
  5
84
330
1F
100
AcDbEntity
  8
Make2D$Visible$Curves
 62
    18
420
        0
370
    -3
100
AcDbLine
 10
54.94549910180734
 20
9.34954070431212
 30
0.0
 11
72.85873283616318
 21
10.73229194719804
 31
0.0
  0
SPLINE
  5
85
330
1F
100
AcDbEntity
  8
Make2D$Visible$Curves
 62
    18
420
        0
370
    -3
100
AcDbSpline
210
0.0
220
0.0
230
1.0
 70
     8
 71
     2
 72
     9
 73
     6
 74
     0
 42
0.000000001
 43
0.0000000001
 40
0.0
 40
0.0
 40
0.0
 40
1.0
 40
2.0
 40
3.0
 40
4.0
 40
4.0
 40
4.0
 10
72.73343612436754
 20
11.35684259571883
 30
0.0
 10
73.01040833437713
 20
9.976125684127105
 30
0.0
 10
73.56479690633634
 20
7.214752692142406
 30
0.0
 10
74.14980062561357
 20
4.45974607499468
 30
0.0
 10
74.76286635737587
 20
1.710503496223803
 30
0.0
 10
75.13653174029663
 20
0.3524089119454015
 30
0.0
  0
SPLINE
  5
86
330
1F
100
AcDbEntity
  8
Make2D$Visible$Curves
 62
    18
420
        0
370
    -3
100
AcDbSpline
210
0.0
220
0.0
230
1.0
 70
     8
 71
     3
 72
     8
 73
     4
 74
     0
 42
0.000000001
 43
0.0000000001
 40
4.0
 40
4.0
 40
4.0
 40
4.0
 40
5.0
 40
5.0
 40
5.0
 40
5.0
 10
75.13653174029663
 20
0.3524089119454015
 30
0.0
 10
75.15391982022312
 20
0.2892115748129658
 30
0.0
 10
75.19590564038866
 20
0.2500000000000009
 30
0.0
 10
75.25918217320749
 20
0.2500000000000009
 30
0.0
  0
LINE
  5
87
330
1F
100
AcDbEntity
  8
Make2D$Visible$Curves
 62
    18
420
        0
370
    -3
100
AcDbLine
 10
75.25918217320749
 20
0.2500000000000009
 30
0.0
 11
76.1421707389316
 21
0.2500000000000009
 31
0.0
  0
SPLINE
  5
88
330
1F
100
AcDbEntity
  8
Make2D$Visible$Curves
 62
    18
420
        0
370
    -3
100
AcDbSpline
210
0.0
220
0.0
230
1.0
 70
     8
 71
     3
 72
     8
 73
     4
 74
     0
 42
0.000000001
 43
0.0000000001
 40
5.882988565724105
 40
5.882988565724105
 40
5.882988565724105
 40
5.882988565724105
 40
6.882988565724105
 40
6.882988565724105
 40
6.882988565724105
 40
6.882988565724105
 10
76.1421707389316
 20
0.2500000000000009
 30
0.0
 10
76.23260833285336
 20
0.2500000000000009
 30
0.0
 10
76.27069092083607
 20
0.3037842530133743
 30
0.0
 10
76.26112926756662
 20
0.3962989151779012
 30
0.0
  0
SPLINE
  5
89
330
1F
100
AcDbEntity
  8
Make2D$Visible$Curves
 62
    18
420
        0
370
    -3
100
AcDbSpline
210
0.0
220
0.0
230
1.0
 70
     8
 71
     2
 72
     9
 73
     6
 74
     0
 42
0.000000001
 43
0.0000000001
 40
6.882988565724105
 40
6.882988565724105
 40
6.882988565724105
 40
7.882988565724105
 40
8.882988565724105
 40
9.882988565724105
 40
10.88298856572411
 40
10.88298856572411
 40
10.88298856572411
 10
76.26112926756662
 20
0.3962989151779012
 30
0.0
 10
76.11558110152833
 20
1.804563681764053
 30
0.0
 10
75.62720421274506
 20
4.593626306231098
 30
0.0
 10
75.11468575781842
 20
7.377364872431732
 30
0.0
 10
74.57587343644556
 20
10.15630603799222
 30
0.0
 10
74.3020215853809
 20
11.54488160919108
 30
0.0
  0
SPLINE
  5
8A
330
1F
100
AcDbEntity
  8
Make2D$Visible$Curves
 62
    18
420
        0
370
    -3
100
AcDbSpline
210
0.0
220
0.0
230
1.0
 70
    12
 71
     3
 72
    11
 73
     7
 74
     0
 42
0.000000001
 43
0.0000000001
 40
10.88298856572411
 40
10.88298856572411
 40
10.88298856572411
 40
10.88298856572411
 40
12.453784892519
 40
12.453784892519
 40
12.453784892519
 40
14.15854327639574
 40
14.15854327639574
 40
14.15854327639574
 40
14.15854327639574
 10
74.3020215853809
 20
11.54488160919108
 30
0.0
 41
1.0
 10
74.23466429739463
 20
11.88641913861179
 30
0.0
 41
0.8047378541243649
 10
73.9069805721419
 20
12.09643169697578
 30
0.0
 41
0.8047378541243649
 10
73.4473764390328
 20
12.04187389268227
 30
0.0
 41
1.0
 10
72.98777230592363
 20
11.98731608838875
 30
0.0
 41
0.8047378541243649
 10
72.66496792424874
 20
11.69815915526459
 30
0.0
 41
0.8047378541243649
 10
72.73343612436754
 20
11.35684259571883
 30
0.0
 41
1.0
  0
SPLINE
  5
8C
330
1F
100
AcDbEntity
  8
Layer 01
100
AcDbSpline
210
0.0
220
0.0
230
1.0
 70
     8
 71
     2
 72
     7
 73
     4
 74
     0
 42
0.000000001
 43
0.0000000001
 40
-8.897437111438691
 40
-8.897437111438691
 40
-8.897437111438691
 40
-7.897437111438691
 40
-6.897437111438691
 40
-6.897437111438691
 40
-6.897437111438691
 10
52.22273713168842
 20
6.469380713463124
 30
0.0
 10
51.74761484348615
 20
4.923420876044364
 30
0.0
 10
50.77043146022748
 20
1.838786477045037
 30
0.0
 10
50.1861576989411
 20
0.3301908623141436
 30
0.0
  0
SPLINE
  5
8D
330
1F
100
AcDbEntity
  8
Layer 01
100
AcDbSpline
210
0.0
220
0.0
230
1.0
 70
     8
 71
     3
 72
     8
 73
     4
 74
     0
 42
0.000000001
 43
0.0000000001
 40
-6.897437111438691
 40
-6.897437111438691
 40
-6.897437111438691
 40
-6.897437111438691
 40
-5.897437111438691
 40
-5.897437111438691
 40
-5.897437111438691
 40
-5.897437111438691
 10
50.1861576989411
 20
0.3301908623141436
 30
0.0
 10
50.16695778097499
 20
0.280616649049632
 30
0.0
 10
50.12684700649783
 20
0.249952294339197
 30
0.0
 10
50.07471140209555
 20
0.249952294339197
 30
0.0
  0
LINE
  5
8E
330
1F
100
AcDbEntity
  8
Layer 01
100
AcDbLine
 10
50.07471140209555
 20
0.249952294339197
 30
0.0
 11
49.17727429065685
 21
0.249952294339197
 31
0.0
  0
SPLINE
  5
8F
330
1F
100
AcDbEntity
  8
Layer 01
100
AcDbSpline
210
0.0
220
0.0
230
1.0
 70
     8
 71
     3
 72
     8
 73
     4
 74
     0
 42
0.000000001
 43
0.0000000001
 40
-5.0
 40
-5.0
 40
-5.0
 40
-5.0
 40
-4.0
 40
-4.0
 40
-4.0
 40
-4.0
 10
49.17727429065685
 20
0.249952294339197
 30
0.0
 10
49.07814360988913
 20
0.249952294339197
 30
0.0
 10
49.03430993865631
 20
0.3021111787124783
 30
0.0
 10
49.05453828092966
 20
0.3988179849136664
 30
0.0
  0
SPLINE
  5
90
330
1F
100
AcDbEntity
  8
Layer 01
100
AcDbSpline
210
0.0
220
0.0
230
1.0
 70
     8
 71
     2
 72
     9
 73
     6
 74
     0
 42
0.000000001
 43
0.0000000001
 40
-4.0
 40
-4.0
 40
-4.0
 40
-3.0
 40
-2.0
 40
-1.0
 40
0.0
 40
0.0
 40
0.0
 10
49.05453828092966
 20
0.3988179849136664
 30
0.0
 10
49.39561155070311
 20
2.029406698247823
 30
0.0
 10
50.2774190416674
 20
5.242367617224422
 30
0.0
 10
51.19556454416023
 20
8.444306630377504
 30
0.0
 10
52.13657618730879
 20
11.6397198186311
 30
0.0
 10
52.60822946714696
 20
13.23706972728226
 30
0.0
  0
SPLINE
  5
91
330
1F
100
AcDbEntity
  8
Layer 01
100
AcDbSpline
210
0.0
220
0.0
230
1.0
 70
     8
 71
     2
 72
    13
 73
    10
 74
     0
 42
0.000000001
 43
0.0000000001
 40
0.0
 40
0.0
 40
0.0
 40
1.0
 40
2.0
 40
3.0
 40
4.0
 40
5.0
 40
6.0
 40
7.0
 40
8.0
 40
8.0
 40
8.0
 10
52.60822946714696
 20
13.23706972728226
 30
0.0
 10
52.65601121896217
 20
13.39889236301886
 30
0.0
 10
52.97223145392837
 20
13.23002964798701
 30
0.0
 10
53.17265618944985
 20
13.0373721217152
 30
0.0
 10
53.35035172488206
 20
12.81550438993642
 30
0.0
 10
53.50583290384108
 20
12.57897059771379
 30
0.0
 10
53.63833361353856
 20
12.32848078569659
 30
0.0
 10
53.74331019234911
 20
12.06583116084076
 30
0.0
 10
53.82637039215444
 20
11.78508369436881
 30
0.0
 10
53.78523925673655
 20
11.64762236121238
 30
0.0
  0
LINE
  5
92
330
1F
100
AcDbEntity
  8
Layer 01
100
AcDbLine
 10
53.78523925673655
 20
11.64762236121238
 30
0.0
 11
52.98315337181874
 21
8.967030300561266
 31
0.0
  0
LINE
  5
93
330
1F
100
AcDbEntity
  8
Layer 01
100
AcDbLine
 10
73.38962225569716
 20
8.089948901574127
 30
0.0
 11
52.13313440817167
 21
6.462486159639001
 31
0.0
  0
SPLINE
  5
94
330
1F
100
AcDbEntity
  8
Layer 01
100
AcDbSpline
210
0.0
220
0.0
230
1.0
 70
     8
 71
     3
 72
     9
 73
     5
 74
     0
 42
0.000000001
 43
0.0000000001
 40
21.31869861385507
 40
21.31869861385507
 40
21.31869861385507
 40
21.31869861385507
 40
21.34712834278248
 40
21.37555807170989
 40
21.37555807170989
 40
21.37555807170989
 40
21.37555807170989
 10
52.13313440817167
 20
6.462486159639001
 30
0.0
 10
52.13038830299065
 20
6.467702919567001
 30
0.0
 10
52.12448709956767
 20
6.477860881205001
 30
0.0
 10
52.11775490826166
 20
6.487461098969001
 30
0.0
 10
52.11417721745563
 20
6.492119118061001
 30
0.0
  0
SPLINE
  5
95
330
1F
100
AcDbEntity
  8
Layer 01
100
AcDbSpline
210
0.0
220
0.0
230
1.0
 70
     8
 71
     3
 72
    10
 73
     6
 74
     0
 42
0.000000001
 43
0.0000000001
 40
21.37555807170989
 40
21.37555807170989
 40
21.37555807170989
 40
21.37555807170989
 40
22.07055881901195
 40
22.76555956631422
 40
23.46056031361628
 40
23.46056031361628
 40
23.46056031361628
 40
23.46056031361628
 10
52.11417721745563
 20
6.492119118061001
 30
0.0
 10
52.18023734040862
 20
6.703631345516001
 30
0.0
 10
52.31278733278465
 20
7.130338857916001
 30
0.0
 10
52.51322678911266
 20
7.781313505337001
 30
0.0
 10
52.64798699078564
 20
8.222541662369
 30
0.0
 10
52.71564742372466
 20
8.444968859786002
 30
0.0
  0
LINE
  5
96
330
1F
100
AcDbEntity
  8
Layer 01
100
AcDbLine
 10
52.71564742372466
 20
8.444968859786002
 30
0.0
 11
52.98315337181874
 21
8.967030300561266
 31
0.0
  0
LINE
  5
97
330
1F
100
AcDbEntity
  8
Layer 01
100
AcDbLine
 10
52.98315337181874
 20
8.967030300561266
 30
0.0
 11
55.83544128758006
 21
9.186501894562841
 31
0.0
  0
SPLINE
  5
98
330
1F
100
AcDbEntity
  8
Layer 01
100
AcDbSpline
210
0.0
220
0.0
230
1.0
 70
     8
 71
     2
 72
     6
 73
     3
 74
     0
 42
0.000000001
 43
0.0000000001
 40
27.31621252405905
 40
27.31621252405905
 40
27.31621252405905
 40
28.28910420141837
 40
28.28910420141837
 40
28.28910420141837
 10
55.83544128758006
 20
9.186501894562841
 30
0.0
 10
56.05405605068907
 20
9.230328831858015
 30
0.0
 10
56.13131264869705
 20
9.44107555391883
 30
0.0
  0
LINE
  5
99
330
1F
100
AcDbEntity
  8
Make2D$Visible$Curves
 62
    18
420
        0
370
    -3
100
AcDbLine
 10
26.21578135148013
 20
0.0607845842426245
 30
0.0
 11
26.22169530821785
 21
0.2500000000000009
 31
0.0
  0
LINE
  5
9A
330
1F
100
AcDbEntity
  8
Make2D$Visible$Curves
 62
    18
420
        0
370
    -3
100
AcDbLine
 10
26.22169530821785
 20
0.2500000000000009
 30
0.0
 11
25.3466953082179
 21
0.2500000000000009
 31
0.0
  0
LINE
  5
9B
330
1F
100
AcDbEntity
  8
Make2D$Visible$Curves
 62
    18
420
        0
370
    -3
100
AcDbLine
 10
25.3466953082179
 20
0.2500000000000009
 30
0.0
 11
25.35264451112809
 21
0.0600836941051875
 31
0.0
  0
SPLINE
  5
9C
330
1F
100
AcDbEntity
  8
Make2D$Visible$Curves
 62
    18
420
        0
370
    -3
100
AcDbSpline
210
0.0
220
0.0
230
1.0
 70
     8
 71
     3
 72
     9
 73
     5
 74
     0
 42
0.000000001
 43
0.0000000001
 40
7.737250991575596
 40
7.737250991575596
 40
7.737250991575596
 40
7.737250991575596
 40
8.737250991575596
 40
9.737250991575596
 40
9.737250991575596
 40
9.737250991575596
 40
9.737250991575596
 10
25.35264451112809
 20
0.0600836941051875
 30
0.0
 10
25.35364502558235
 20
0.0435809951469155
 30
0.0
 10
25.36770273374395
 20
0.0115276156554
 30
0.0
 10
25.40015739448268
 20
0.00219741088637
 30
0.0
 10
25.41556981243008
 20
0.0
 30
0.0
  0
LINE
  5
9D
330
1F
100
AcDbEntity
  8
Make2D$Visible$Curves
 62
    18
420
        0
370
    -3
100
AcDbLine
 10
25.41556981243008
 20
0.0
 30
0.0
 11
26.15282080400567
 21
0.0
 31
0.0
  0
SPLINE
  5
9E
330
1F
100
AcDbEntity
  8
Make2D$Visible$Curves
 62
    18
420
        0
370
    -3
100
AcDbSpline
210
0.0
220
0.0
230
1.0
 70
     8
 71
     3
 72
     9
 73
     5
 74
     0
 42
0.000000001
 43
0.0000000001
 40
10.47450198315119
 40
10.47450198315119
 40
10.47450198315119
 40
10.47450198315119
 40
11.47450198315119
 40
12.47450198315119
 40
12.47450198315119
 40
12.47450198315119
 40
12.47450198315119
 10
26.15282080400567
 20
0.0
 30
0.0
 10
26.16847309175544
 20
0.0021765459964815
 30
0.0
 10
26.20137322556933
 20
0.0119332356678441
 30
0.0
 10
26.21516505967777
 20
0.0447294479892242
 30
0.0
 10
26.21578135148013
 20
0.0607845842426245
 30
0.0
  0
SPLINE
  5
A0
330
1F
100
AcDbEntity
  8
1
370
    -3
100
AcDbSpline
210
0.0
220
0.0
230
1.0
 70
     8
 71
     2
 72
    51
 73
    48
 74
     0
 42
0.000000001
 43
0.0000000001
 40
0.0
 40
0.0
 40
0.0
 40
1.0
 40
2.0
 40
3.0
 40
4.0
 40
5.0
 40
6.0
 40
7.0
 40
8.0
 40
9.0
 40
10.0
 40
11.0
 40
12.0
 40
13.0
 40
14.0
 40
15.0
 40
16.0
 40
17.0
 40
18.0
 40
18.0
 40
19.0
 40
20.0
 40
21.0
 40
22.0
 40
23.0
 40
24.0
 40
25.0
 40
26.0
 40
26.0
 40
27.00000003910496
 40
28.00000007820993
 40
29.00000011731489
 40
30.00000015641986
 40
31.00000019552483
 40
32.00000023462979
 40
33.00000027373476
 40
34.00000031283972
 40
35.00000035194468
 40
36.00000039104965
 40
37.00000043015461
 40
38.00000046925958
 40
39.00000050836454
 40
40.00000054746951
 40
41.00000058657447
 40
42.00000062567944
 40
43.0000006647844
 40
43.97765612494359
 40
43.97765612494359
 40
43.97765612494359
 10
-29.37069330546896
 20
59.24600739009333
 30
0.0
 10
-29.74879710072386
 20
59.67260018363227
 30
0.0
 10
-29.7128510123913
 20
60.79093805848538
 30
0.0
 10
-29.52493904050733
 20
61.85438672669572
 30
0.0
 10
-29.31778654591739
 20
62.92018438834945
 30
0.0
 10
-29.11630305214705
 20
63.98603080300526
 30
0.0
 10
-28.91457633903083
 20
65.05200713467175
 30
0.0
 10
-28.71183004618933
 20
66.11776007333475
 30
0.0
 10
-28.50621228561741
 20
67.18296888945787
 30
0.0
 10
-28.29649278300758
 20
68.24737687025757
 30
0.0
 10
-28.08289367980819
 20
69.31101294745167
 30
0.0
 10
-27.86594304518104
 20
70.37397039937812
 30
0.0
 10
-27.64598046934519
 20
71.43630855146611
 30
0.0
 10
-27.42336564608038
 20
72.49809238593625
 30
0.0
 10
-27.19857921806577
 20
73.55942792688901
 30
0.0
 10
-26.97179862145406
 20
74.62028409762598
 30
0.0
 10
-26.75977581172111
 20
75.6845829271694
 30
0.0
 10
-26.59127879693858
 20
76.7550063619559
 30
0.0
 10
-26.47861998423049
 20
77.84251511258256
 30
0.0
 10
-26.61040424932459
 20
78.37122836286315
 30
0.0
 10
-26.63273123997078
 20
78.43006242069617
 30
0.0
 10
-26.71757969684546
 20
78.52359977384535
 30
0.0
 10
-26.8376786158647
 20
78.56254999333237
 30
0.0
 10
-26.95247473558274
 20
78.60979645855562
 30
0.0
 10
-27.06765092109445
 20
78.65694640244064
 30
0.0
 10
-27.18354105338341
 20
78.70220699721358
 30
0.0
 10
-27.30019391138936
 20
78.74532058557628
 30
0.0
 10
-27.41130731594217
 20
78.80377004618927
 30
0.0
 10
-27.44840424931856
 20
78.85531699175806
 30
0.0
 10
-27.48630345243471
 20
79.25482572938228
 30
0.0
 10
-27.18661679339242
 20
80.01889927337956
 30
0.0
 10
-26.84240236219313
 20
80.74790721013429
 30
0.0
 10
-26.42222580190681
 20
81.43886150619176
 30
0.0
 10
-25.94867601011524
 20
82.09417871872284
 30
0.0
 10
-25.40618521891243
 20
82.69356824955392
 30
0.0
 10
-24.80588634354672
 20
83.23507996905039
 30
0.0
 10
-24.16193019126874
 20
83.72362723910933
 30
0.0
 10
-23.47279671277354
 20
84.14684285619683
 30
0.0
 10
-22.73614924648786
 20
84.48075438394952
 30
0.0
 10
-21.96437621169463
 20
84.72184165636327
 30
0.0
 10
-21.18253831794556
 20
84.92524615789219
 30
0.0
 10
-20.39075811723291
 20
85.08634299883755
 30
0.0
 10
-19.59249171372579
 20
85.21089211663042
 30
0.0
 10
-18.78980763903836
 20
85.30264090329172
 30
0.0
 10
-17.9842335152285
 20
85.36383284964649
 30
0.0
 10
-17.17705023385342
 20
85.39706499395979
 30
0.0
 10
-16.3783374848257
 20
85.4094512871091
 30
0.0
 10
-15.98345457988358
 20
85.40945128710909
 30
0.0
  0
LINE
  5
A1
330
1F
100
AcDbEntity
  8
1
370
    -3
100
AcDbLine
 10
-15.98345457988358
 20
85.40945128710909
 30
0.0
 11
15.98345457988358
 21
85.40945128710909
 31
0.0
  0
SPLINE
  5
A2
330
1F
100
AcDbEntity
  8
1
370
    -3
100
AcDbSpline
210
0.0
220
0.0
230
1.0
 70
     8
 71
     2
 72
    51
 73
    48
 74
     0
 42
0.000000001
 43
0.0000000001
 40
75.94456528471075
 40
75.94456528471075
 40
75.94456528471075
 40
76.92222074486993
 40
77.9222207839749
 40
78.92222082307985
 40
79.92222086218482
 40
80.92222090128979
 40
81.92222094039475
 40
82.92222097949973
 40
83.92222101860467
 40
84.92222105770965
 40
85.92222109681461
 40
86.92222113591957
 40
87.92222117502455
 40
88.92222121412951
 40
89.92222125323447
 40
90.92222129233944
 40
91.9222213314444
 40
92.92222137054937
 40
93.92222140965433
 40
93.92222140965433
 40
94.92222140965433
 40
95.92222140965433
 40
96.92222140965433
 40
97.92222140965433
 40
98.92222140965433
 40
99.92222140965433
 40
100.9222214096543
 40
101.9222214096543
 40
101.9222214096543
 40
102.9222214096543
 40
103.9222214096543
 40
104.9222214096543
 40
105.9222214096543
 40
106.9222214096543
 40
107.9222214096543
 40
108.9222214096543
 40
109.9222214096543
 40
110.9222214096543
 40
111.9222214096543
 40
112.9222214096543
 40
113.9222214096543
 40
114.9222214096543
 40
115.9222214096543
 40
116.9222214096543
 40
117.9222214096543
 40
118.9222214096543
 40
119.9222214096543
 40
119.9222214096543
 40
119.9222214096543
 10
15.98345457988358
 20
85.40945128710909
 30
0.0
 10
16.3783374848257
 20
85.4094512871091
 30
0.0
 10
17.17705023385342
 20
85.39706499395979
 30
0.0
 10
17.9842335152285
 20
85.36383284964649
 30
0.0
 10
18.78980763903836
 20
85.30264090329172
 30
0.0
 10
19.59249171372579
 20
85.21089211663042
 30
0.0
 10
20.39075811723291
 20
85.08634299883755
 30
0.0
 10
21.18253831794556
 20
84.92524615789219
 30
0.0
 10
21.96437621169463
 20
84.72184165636327
 30
0.0
 10
22.73614924648786
 20
84.48075438394952
 30
0.0
 10
23.47279671277354
 20
84.14684285619683
 30
0.0
 10
24.16193019126874
 20
83.72362723910933
 30
0.0
 10
24.80588634354672
 20
83.23507996905039
 30
0.0
 10
25.40618521891243
 20
82.69356824955392
 30
0.0
 10
25.94867601011524
 20
82.09417871872284
 30
0.0
 10
26.42222580190681
 20
81.43886150619176
 30
0.0
 10
26.84240236219313
 20
80.74790721013429
 30
0.0
 10
27.18661679339242
 20
80.01889927337956
 30
0.0
 10
27.48630345243471
 20
79.25482572938228
 30
0.0
 10
27.44840424931856
 20
78.85531699175806
 30
0.0
 10
27.41130731594217
 20
78.80377004618927
 30
0.0
 10
27.30019391138936
 20
78.74532058557628
 30
0.0
 10
27.18354105338341
 20
78.70220699721358
 30
0.0
 10
27.06765092109445
 20
78.65694640244064
 30
0.0
 10
26.95247473558274
 20
78.60979645855562
 30
0.0
 10
26.8376786158647
 20
78.56254999333237
 30
0.0
 10
26.71757969684546
 20
78.52359977384535
 30
0.0
 10
26.63273123997078
 20
78.43006242069617
 30
0.0
 10
26.61040424932459
 20
78.37122836286315
 30
0.0
 10
26.47861998423049
 20
77.84251511258256
 30
0.0
 10
26.59127879693858
 20
76.7550063619559
 30
0.0
 10
26.75977581172111
 20
75.6845829271694
 30
0.0
 10
26.97179862145406
 20
74.62028409762598
 30
0.0
 10
27.19857921806577
 20
73.55942792688901
 30
0.0
 10
27.42336564608038
 20
72.49809238593625
 30
0.0
 10
27.64598046934519
 20
71.43630855146611
 30
0.0
 10
27.86594304518104
 20
70.37397039937812
 30
0.0
 10
28.08289367980819
 20
69.31101294745167
 30
0.0
 10
28.29649278300758
 20
68.24737687025757
 30
0.0
 10
28.50621228561741
 20
67.18296888945787
 30
0.0
 10
28.71183004618933
 20
66.11776007333475
 30
0.0
 10
28.91457633903083
 20
65.05200713467175
 30
0.0
 10
29.11630305214705
 20
63.98603080300526
 30
0.0
 10
29.31778654591739
 20
62.92018438834945
 30
0.0
 10
29.52493904050733
 20
61.85438672669572
 30
0.0
 10
29.7128510123913
 20
60.79093805848538
 30
0.0
 10
29.74879710072386
 20
59.67260018363227
 30
0.0
 10
29.37069330546896
 20
59.24600739009333
 30
0.0
  0
SPLINE
  5
A3
330
1F
100
AcDbEntity
  8
Make2D$Visible$Curves
 62
    18
420
        0
370
    -3
100
AcDbSpline
210
0.0
220
0.0
230
1.0
 70
     8
 71
     2
 72
    23
 73
    20
 74
     0
 42
0.000000001
 43
0.0000000001
 40
0.4604724900154364
 40
0.4604724900154364
 40
0.4604724900154364
 40
1.0
 40
2.0
 40
3.0
 40
4.0
 40
5.0
 40
6.0
 40
7.0
 40
8.0
 40
9.0
 40
10.0
 40
11.0
 40
12.0
 40
13.0
 40
14.0
 40
15.0
 40
16.0
 40
17.0
 40
18.0
 40
18.0
 40
18.0
 10
24.10540618501587
 20
55.77451681199912
 30
0.0
 10
24.50831598907723
 20
55.87089868020369
 30
0.0
 10
25.63654064505979
 20
56.2296896319961
 30
0.0
 10
27.07842968725455
 20
56.76776699423059
 30
0.0
 10
28.41893152131279
 20
57.52991698847406
 30
0.0
 10
29.61288010538225
 20
58.4899291600773
 30
0.0
 10
30.71668567593456
 20
59.6077817564334
 30
0.0
 10
31.08161068971962
 20
61.1151880074608
 30
0.0
 10
30.82608939353198
 20
62.64632154523473
 30
0.0
 10
30.5419120056719
 20
64.15455318964153
 30
0.0
 10
30.25563444870316
 20
65.66541977489065
 30
0.0
 10
29.96589526484579
 20
67.17510664477034
 30
0.0
 10
29.67313684425212
 20
68.68430108344346
 30
0.0
 10
29.37362811080166
 20
70.19215671511392
 30
0.0
 10
29.06573715486484
 20
71.69832764912555
 30
0.0
 10
28.74866079672436
 20
73.20258808411377
 30
0.0
 10
28.42534661568838
 20
74.70552815196858
 30
0.0
 10
28.08104086549235
 20
76.2038591081452
 30
0.0
 10
27.84159056454079
 20
77.72476333998151
 30
0.0
 10
27.83310981940519
 20
78.49439374639903
 30
0.0
  0
SPLINE
  5
A4
330
1F
100
AcDbEntity
  8
Make2D$Visible$Curves
 62
    18
420
        0
370
    -3
100
AcDbSpline
210
0.0
220
0.0
230
1.0
 70
     8
 71
     2
 72
    23
 73
    20
 74
     0
 42
0.000000001
 43
0.0000000001
 40
0.4604724900154342
 40
0.4604724900154342
 40
0.4604724900154342
 40
1.0
 40
2.0
 40
3.0
 40
4.0
 40
5.0
 40
6.0
 40
7.0
 40
8.0
 40
9.0
 40
10.0
 40
11.0
 40
12.0
 40
13.0
 40
14.0
 40
15.0
 40
16.0
 40
17.0
 40
18.0
 40
18.0
 40
18.0
 10
-24.10540618501587
 20
55.77451681199912
 30
0.0
 10
-24.50831598907723
 20
55.87089868020369
 30
0.0
 10
-25.63654064505979
 20
56.2296896319961
 30
0.0
 10
-27.07842968725455
 20
56.76776699423059
 30
0.0
 10
-28.41893152131279
 20
57.52991698847406
 30
0.0
 10
-29.61288010538225
 20
58.4899291600773
 30
0.0
 10
-30.71668567593456
 20
59.6077817564334
 30
0.0
 10
-31.08161068971962
 20
61.1151880074608
 30
0.0
 10
-30.82608939353198
 20
62.64632154523473
 30
0.0
 10
-30.5419120056719
 20
64.15455318964153
 30
0.0
 10
-30.25563444870316
 20
65.66541977489065
 30
0.0
 10
-29.96589526484579
 20
67.17510664477034
 30
0.0
 10
-29.67313684425212
 20
68.68430108344346
 30
0.0
 10
-29.37362811080166
 20
70.19215671511392
 30
0.0
 10
-29.06573715486484
 20
71.69832764912555
 30
0.0
 10
-28.74866079672436
 20
73.20258808411377
 30
0.0
 10
-28.42534661568838
 20
74.70552815196858
 30
0.0
 10
-28.08104086549235
 20
76.2038591081452
 30
0.0
 10
-27.84159056454079
 20
77.72476333998151
 30
0.0
 10
-27.83310981940519
 20
78.49439374639903
 30
0.0
  0
SPLINE
  5
A5
330
1F
100
AcDbEntity
  8
Layer 01
100
AcDbSpline
210
0.0
220
0.0
230
1.0
 70
     8
 71
     2
 72
    36
 73
    33
 74
     0
 42
0.000000001
 43
0.0000000001
 40
-30.0
 40
-30.0
 40
-30.0
 40
-29.0
 40
-28.0
 40
-27.0
 40
-26.0
 40
-25.0
 40
-24.0
 40
-23.0
 40
-22.0
 40
-21.0
 40
-20.0
 40
-19.0
 40
-18.0
 40
-17.0
 40
-16.0
 40
-15.0
 40
-14.0
 40
-13.0
 40
-12.0
 40
-12.0
 40
-11.0
 40
-10.0
 40
-9.0
 40
-8.0
 40
-7.0
 40
-6.0
 40
-5.0
 40
-4.0
 40
-3.0
 40
-2.0
 40
-1.0
 40
0.0
 40
0.0
 40
0.0
 10
-23.31432632565702
 20
74.14035638056707
 30
0.0
 10
-23.47245518392906
 20
73.78323479560945
 30
0.0
 10
-23.72709806629418
 20
73.04227768282844
 30
0.0
 10
-23.94508138330257
 20
72.29071994994985
 30
0.0
 10
-24.12401029581821
 20
71.5282118477853
 30
0.0
 10
-24.26296100454513
 20
70.75768568051193
 30
0.0
 10
-24.40472870994785
 20
69.98777272550325
 30
0.0
 10
-24.54206041076342
 20
69.21703863660497
 30
0.0
 10
-24.67881474897782
 20
68.44620605723652
 30
0.0
 10
-24.81887933735253
 20
67.6759653187452
 30
0.0
 10
-24.96451622943582
 20
66.90675874420678
 30
0.0
 10
-25.11326554891479
 20
66.13815024283636
 30
0.0
 10
-25.26237207624241
 20
65.36961112850733
 30
0.0
 10
-25.40956140744744
 20
64.60070222208982
 30
0.0
 10
-25.55443090767601
 20
63.83135188052222
 30
0.0
 10
-25.6950501706004
 20
63.06121202626691
 30
0.0
 10
-25.82870368714519
 20
62.28983203981258
 30
0.0
 10
-25.96598068586609
 20
61.51908801085517
 30
0.0
 10
-26.09416186096368
 20
60.74676559082278
 30
0.0
 10
-26.14911186412664
 20
60.35918535899671
 30
0.0
 10
-26.23061793700401
 20
59.7842965363817
 30
0.0
 10
-26.34013873331627
 20
58.63031995214825
 30
0.0
 10
-26.26404284527957
 20
57.45601852706603
 30
0.0
 10
-25.63323280783533
 20
56.4555518822042
 30
0.0
 10
-24.58571932410329
 20
55.91371785894631
 30
0.0
 10
-23.47191984949897
 20
55.5896194399087
 30
0.0
 10
-22.32865069765549
 20
55.38370680732778
 30
0.0
 10
-21.17674957733136
 20
55.24226076790376
 30
0.0
 10
-20.01918846744383
 20
55.15784652393691
 30
0.0
 10
-18.86026071129005
 20
55.09793427728
 30
0.0
 10
-17.70053647695673
 20
55.05584094190278
 30
0.0
 10
-16.54024887377006
 20
55.03432901843585
 30
0.0
 10
-15.95999999955635
 20
55.03432901843585
 30
0.0
  0
LINE
  5
A6
330
1F
100
AcDbEntity
  8
Layer 01
100
AcDbLine
 10
-15.95999999955635
 20
55.03432901843585
 30
0.0
 11
15.95999999955635
 21
55.03432901843585
 31
0.0
  0
SPLINE
  5
A7
330
1F
100
AcDbEntity
  8
Layer 01
100
AcDbSpline
210
0.0
220
0.0
230
1.0
 70
     8
 71
     2
 72
    36
 73
    33
 74
     0
 42
0.000000001
 43
0.0000000001
 40
31.91999999911269
 40
31.91999999911269
 40
31.91999999911269
 40
32.91999999911269
 40
33.91999999911269
 40
34.91999999911269
 40
35.91999999911269
 40
36.91999999911269
 40
37.91999999911269
 40
38.91999999911269
 40
39.91999999911269
 40
40.91999999911269
 40
41.91999999911269
 40
42.91999999911269
 40
43.91999999911269
 40
43.91999999911269
 40
44.91999999911269
 40
45.91999999911269
 40
46.91999999911269
 40
47.91999999911269
 40
48.91999999911269
 40
49.91999999911269
 40
50.91999999911269
 40
51.91999999911269
 40
52.91999999911269
 40
53.91999999911269
 40
54.91999999911269
 40
55.91999999911269
 40
56.91999999911269
 40
57.91999999911269
 40
58.91999999911269
 40
59.91999999911269
 40
60.91999999911269
 40
61.91999999911269
 40
61.91999999911269
 40
61.91999999911269
 10
15.95999999955635
 20
55.03432901843585
 30
0.0
 10
16.54024887377006
 20
55.03432901843585
 30
0.0
 10
17.70053647695673
 20
55.05584094190278
 30
0.0
 10
18.86026071129005
 20
55.09793427728
 30
0.0
 10
20.01918846744383
 20
55.15784652393691
 30
0.0
 10
21.17674957733136
 20
55.24226076790376
 30
0.0
 10
22.32865069765549
 20
55.38370680732778
 30
0.0
 10
23.47191984949897
 20
55.5896194399087
 30
0.0
 10
24.58571932410329
 20
55.91371785894631
 30
0.0
 10
25.63323280783533
 20
56.4555518822042
 30
0.0
 10
26.26404284527957
 20
57.45601852706603
 30
0.0
 10
26.34013873331627
 20
58.63031995214825
 30
0.0
 10
26.23061793700401
 20
59.7842965363817
 30
0.0
 10
26.14911186412664
 20
60.35918535899671
 30
0.0
 10
26.09416186096368
 20
60.74676559082278
 30
0.0
 10
25.96598068586609
 20
61.51908801085517
 30
0.0
 10
25.82870368714519
 20
62.28983203981258
 30
0.0
 10
25.6950501706004
 20
63.06121202626691
 30
0.0
 10
25.55443090767601
 20
63.83135188052222
 30
0.0
 10
25.40956140744744
 20
64.60070222208982
 30
0.0
 10
25.26237207624241
 20
65.36961112850733
 30
0.0
 10
25.11326554891479
 20
66.13815024283636
 30
0.0
 10
24.96451622943582
 20
66.90675874420678
 30
0.0
 10
24.81887933735253
 20
67.6759653187452
 30
0.0
 10
24.67881474897782
 20
68.44620605723652
 30
0.0
 10
24.54206041076342
 20
69.21703863660497
 30
0.0
 10
24.40472870994785
 20
69.98777272550325
 30
0.0
 10
24.26296100454513
 20
70.75768568051193
 30
0.0
 10
24.12401029581821
 20
71.5282118477853
 30
0.0
 10
23.94508138330257
 20
72.29071994994985
 30
0.0
 10
23.72709806629418
 20
73.04227768282844
 30
0.0
 10
23.47245518392906
 20
73.78323479560945
 30
0.0
 10
23.31432632565702
 20
74.14035638056707
 30
0.0
  0
LINE
  5
A8
330
1F
100
AcDbEntity
  8
Layer 01
100
AcDbLine
 10
0.0
 20
71.24374021903981
 30
0.0
 11
0.0
 21
58.69413455796981
 31
0.0
  0
LINE
  5
A9
330
1F
100
AcDbEntity
  8
Layer 01
100
AcDbLine
 10
0.0000000000003695
 20
77.67307165589934
 30
0.0
 11
0.0000000000003695
 21
74.28186181377906
 31
0.0
  0
LINE
  5
AA
330
1F
100
AcDbEntity
  8
Layer 01
100
AcDbLine
 10
-0.0000000000000142
 20
86.84283053472225
 30
0.0
 11
0.0000000000024727
 21
84.28995335156364
 31
0.0
  0
SPLINE
  5
AB
330
1F
100
AcDbEntity
  8
Make2D$Visible$Curves
 62
    18
420
        0
370
    -3
100
AcDbSpline
210
0.0
220
0.0
230
1.0
 70
     8
 71
     2
 72
    15
 73
    12
 74
     0
 42
0.000000001
 43
0.0000000001
 40
0.0
 40
0.0
 40
0.0
 40
1.0
 40
2.0
 40
3.0
 40
4.0
 40
5.0
 40
6.0
 40
7.0
 40
8.0
 40
9.0
 40
10.0
 40
10.0
 40
10.0
 10
-27.49258543958607
 20
78.3832313475145
 30
0.0
 10
-27.75558715708095
 20
78.46506614197317
 30
0.0
 10
-28.27858583457687
 20
78.66384228167868
 30
0.0
 10
-28.63004206210941
 20
79.10805966600923
 30
0.0
 10
-28.70104615126146
 20
79.66693601580079
 30
0.0
 10
-28.59042322065952
 20
80.21064581258861
 30
0.0
 10
-28.40136806332685
 20
80.73102253676049
 30
0.0
 10
-28.16773195997497
 20
81.23262145601389
 30
0.0
 10
-27.8853003341458
 20
81.7085105192083
 30
0.0
 10
-27.57177735584203
 20
82.16423433925083
 30
0.0
 10
-27.23507291547313
 20
82.6030741782888
 30
0.0
 10
-27.05636380084393
 20
82.81417743286792
 30
0.0
  0
SPLINE
  5
AC
330
1F
100
AcDbEntity
  8
Make2D$Visible$Curves
 62
    18
420
        0
370
    -3
100
AcDbSpline
210
0.0
220
0.0
230
1.0
 70
     8
 71
     2
 72
    15
 73
    12
 74
     0
 42
0.000000001
 43
0.0000000001
 40
10.0
 40
10.0
 40
10.0
 40
11.0
 40
12.0
 40
13.0
 40
14.0
 40
15.0
 40
16.0
 40
17.0
 40
18.0
 40
19.0
 40
20.0
 40
20.0
 40
20.0
 10
-27.05636380084393
 20
82.81417743286792
 30
0.0
 10
-26.15171232920771
 20
83.90049842965527
 30
0.0
 10
-23.82687421260898
 20
85.51099336726341
 30
0.0
 10
-21.12946142414826
 20
86.35021682801727
 30
0.0
 10
-18.3439972496945
 20
86.74403768968043
 30
0.0
 10
-15.53325787404758
 20
86.81291864914388
 30
0.0
 10
-12.72398622198008
 20
86.85284614000034
 30
0.0
 10
-9.914303108670538
 20
86.88636904535633
 30
0.0
 10
-7.104566956797268
 20
86.90928278827387
 30
0.0
 10
-4.294750564353167
 20
86.92027926840109
 30
0.0
 10
-1.484917437261117
 20
86.92312053845521
 30
0.0
 10
-0.0800009974911688
 20
86.92288250630493
 30
0.0
  0
SPLINE
  5
AD
330
1F
100
AcDbEntity
  8
Make2D$Visible$Curves
 62
    18
420
        0
370
    -3
100
AcDbSpline
210
0.0
220
0.0
230
1.0
 70
     8
 71
     3
 72
    12
 73
     8
 74
     0
 42
0.000000001
 43
0.0000000001
 40
20.0
 40
20.0
 40
20.0
 40
20.0
 40
20.06831870170058
 40
20.06831870170058
 40
20.10333405069733
 40
20.10333405069733
 40
20.12726186599533
 40
20.12726186599533
 40
20.12726186599533
 40
20.12726186599533
 10
-0.0800009974911688
 20
86.92288250630493
 30
0.0
 10
-0.058818122062462
 20
86.92282967297604
 30
0.0
 10
-0.0384594910447476
 20
86.91442593165092
 30
0.0
 10
-0.0157296822198703
 20
86.8916967341405
 30
0.0
 10
-0.0096541244747073
 20
86.88247522532514
 30
0.0
 10
-0.0042127624678443
 20
86.8649160734542
 30
0.0
 10
-0.0014042541576202
 20
86.85019238096623
 30
0.0
 10
-0.0000000000000142
 20
86.84283053472225
 30
0.0
  0
SPLINE
  5
AE
330
1F
100
AcDbEntity
  8
Make2D$Visible$Curves
 62
    18
420
        0
370
    -3
100
AcDbSpline
210
0.0
220
0.0
230
1.0
 70
     8
 71
     3
 72
    12
 73
     8
 74
     0
 42
0.000000001
 43
0.0000000001
 40
20.12726186599533
 40
20.12726186599533
 40
20.12726186599533
 40
20.12726186599533
 40
20.15118968129333
 40
20.15118968129333
 40
20.18620503029006
 40
20.18620503029006
 40
20.25452373199067
 40
20.25452373199067
 40
20.25452373199067
 40
20.25452373199067
 10
-0.0000000000000142
 20
86.84283053472225
 30
0.0
 10
0.0014042541575918
 20
86.85019238096623
 30
0.0
 10
0.0042127624678301
 20
86.8649160734542
 30
0.0
 10
0.009654124474693
 20
86.88247522532514
 30
0.0
 10
0.0157296822198703
 20
86.8916967341405
 30
0.0
 10
0.0384594910447333
 20
86.91442593165094
 30
0.0
 10
0.0588181220624335
 20
86.92282967297604
 30
0.0
 10
0.0800009974911617
 20
86.92288250630493
 30
0.0
  0
SPLINE
  5
AF
330
1F
100
AcDbEntity
  8
Make2D$Visible$Curves
 62
    18
420
        0
370
    -3
100
AcDbSpline
210
0.0
220
0.0
230
1.0
 70
     8
 71
     2
 72
    15
 73
    12
 74
     0
 42
0.000000001
 43
0.0000000001
 40
20.25452373199067
 40
20.25452373199067
 40
20.25452373199067
 40
21.25452373199067
 40
22.25452373199067
 40
23.25452373199067
 40
24.25452373199067
 40
25.25452373199067
 40
26.25452373199067
 40
27.25452373199067
 40
28.25452373199067
 40
29.25452373199067
 40
30.25452373199067
 40
30.25452373199067
 40
30.25452373199067
 10
0.0800009974911617
 20
86.92288250630493
 30
0.0
 10
1.484917437261117
 20
86.92312053845521
 30
0.0
 10
4.294750564353167
 20
86.92027926840109
 30
0.0
 10
7.104566956797268
 20
86.90928278827387
 30
0.0
 10
9.914303108670538
 20
86.88636904535633
 30
0.0
 10
12.72398622198008
 20
86.85284614000034
 30
0.0
 10
15.53325787404758
 20
86.81291864914388
 30
0.0
 10
18.3439972496945
 20
86.74403768968043
 30
0.0
 10
21.12946142414826
 20
86.35021682801727
 30
0.0
 10
23.82687421260898
 20
85.51099336726341
 30
0.0
 10
26.15171232920771
 20
83.90049842965527
 30
0.0
 10
27.05636380084393
 20
82.81417743286792
 30
0.0
  0
SPLINE
  5
B0
330
1F
100
AcDbEntity
  8
Make2D$Visible$Curves
 62
    18
420
        0
370
    -3
100
AcDbSpline
210
0.0
220
0.0
230
1.0
 70
     8
 71
     2
 72
    15
 73
    12
 74
     0
 42
0.000000001
 43
0.0000000001
 40
30.25452373199067
 40
30.25452373199067
 40
30.25452373199067
 40
31.25452373199067
 40
32.25452373199067
 40
33.25452373199067
 40
34.25452373199067
 40
35.25452373199067
 40
36.25452373199067
 40
37.25452373199067
 40
38.25452373199067
 40
39.25452373199067
 40
40.25452373199067
 40
40.25452373199067
 40
40.25452373199067
 10
27.05636380084393
 20
82.81417743286792
 30
0.0
 10
27.23507291547313
 20
82.6030741782888
 30
0.0
 10
27.57177735584203
 20
82.16423433925083
 30
0.0
 10
27.8853003341458
 20
81.7085105192083
 30
0.0
 10
28.16773195997497
 20
81.23262145601389
 30
0.0
 10
28.40136806332685
 20
80.73102253676049
 30
0.0
 10
28.59042322065952
 20
80.21064581258861
 30
0.0
 10
28.70104615126146
 20
79.66693601580079
 30
0.0
 10
28.63004206210941
 20
79.10805966600923
 30
0.0
 10
28.27858583457687
 20
78.66384228167868
 30
0.0
 10
27.75558715708095
 20
78.46506614197317
 30
0.0
 10
27.49258543958607
 20
78.3832313475145
 30
0.0
  0
SPLINE
  5
B1
330
1F
100
AcDbEntity
  8
Layer 01
100
AcDbSpline
210
0.0
220
0.0
230
1.0
 70
     8
 71
     2
 72
    15
 73
    12
 74
     0
 42
0.000000001
 43
0.0000000001
 40
-10.0
 40
-10.0
 40
-10.0
 40
-9.0
 40
-8.0
 40
-7.0
 40
-6.0
 40
-5.0
 40
-4.0
 40
-3.0
 40
-2.0
 40
-1.0
 40
0.0
 40
0.0
 40
0.0
 10
-23.84981078637782
 20
79.53287524975903
 30
0.0
 10
-23.98658785278868
 20
79.11837970253325
 30
0.0
 10
-24.01030218692303
 20
78.24828342276213
 30
0.0
 10
-23.99638537844186
 20
77.38201801544976
 30
0.0
 10
-23.94293712115653
 20
76.51637703330283
 30
0.0
 10
-23.85603067438388
 20
75.65506532700759
 30
0.0
 10
-23.76510135176439
 20
74.78606630585853
 30
0.0
 10
-23.29325872645508
 20
74.03025140422238
 30
0.0
 10
-22.49448922556591
 20
73.65923402553688
 30
0.0
 10
-21.62119780454513
 20
73.55909332612971
 30
0.0
 10
-20.75717959844429
 20
73.55909332612971
 30
0.0
 10
-20.32383511721683
 20
73.55909332612971
 30
0.0
  0
LINE
  5
B2
330
1F
100
AcDbEntity
  8
Layer 01
100
AcDbLine
 10
-20.32383511721683
 20
73.55909332612971
 30
0.0
 11
20.32383511721683
 21
73.55909332612971
 31
0.0
  0
SPLINE
  5
B3
330
1F
100
AcDbEntity
  8
Layer 01
100
AcDbSpline
210
0.0
220
0.0
230
1.0
 70
     8
 71
     2
 72
    15
 73
    12
 74
     0
 42
0.000000001
 43
0.0000000001
 40
40.64767023443366
 40
40.64767023443366
 40
40.64767023443366
 40
41.64767023443366
 40
42.64767023443366
 40
43.64767023443366
 40
44.64767023443366
 40
45.64767023443366
 40
46.64767023443366
 40
47.64767023443366
 40
48.64767023443366
 40
49.64767023443366
 40
50.64767023443366
 40
50.64767023443366
 40
50.64767023443366
 10
20.32383511721683
 20
73.55909332612971
 30
0.0
 10
20.75717959844429
 20
73.55909332612971
 30
0.0
 10
21.62119780454513
 20
73.55909332612971
 30
0.0
 10
22.49448922556591
 20
73.65923402553688
 30
0.0
 10
23.29325872645508
 20
74.03025140422238
 30
0.0
 10
23.76510135176439
 20
74.78606630585853
 30
0.0
 10
23.85603067438388
 20
75.65506532700759
 30
0.0
 10
23.94293712115653
 20
76.51637703330283
 30
0.0
 10
23.99638537844186
 20
77.38201801544976
 30
0.0
 10
24.01030218692303
 20
78.24828342276213
 30
0.0
 10
23.98658785278868
 20
79.11837970253325
 30
0.0
 10
23.84981078637782
 20
79.53287524975903
 30
0.0
  0
LINE
  5
B4
330
1F
100
AcDbEntity
  8
Layer 01
100
AcDbLine
 10
-15.95999999973168
 20
84.2890803692563
 30
0.0
 11
15.95999999973741
 21
84.289080369269
 31
0.0
  0
SPLINE
  5
B5
330
1F
100
AcDbEntity
  8
Layer 01
100
AcDbSpline
210
0.0
220
0.0
230
1.0
 70
     8
 71
     2
 72
    22
 73
    19
 74
     0
 42
0.000000001
 43
0.0000000001
 40
47.61545052988957
 40
47.61545052988957
 40
47.61545052988957
 40
48.61545052988957
 40
49.61545052988957
 40
50.61545052988957
 40
51.61545052988957
 40
52.61545052988957
 40
53.61545052988957
 40
54.61545052988957
 40
55.61545052988957
 40
55.61545052988957
 40
57.31090106031006
 40
57.31090106031006
 40
58.31090106031006
 40
59.31090106031006
 40
60.31090106031006
 40
61.31090106031006
 40
62.31090106031006
 40
63.31090106031006
 40
63.31090106031006
 40
63.31090106031006
 10
15.95999999973741
 20
84.289080369269
 30
0.0
 10
16.52367590737824
 20
84.28908036926923
 30
0.0
 10
17.65088406215324
 20
84.26962541448265
 30
0.0
 10
18.77684730528928
 20
84.21033692662651
 30
0.0
 10
19.89877880146676
 20
84.1000933113795
 30
0.0
 10
21.01967458945381
 20
83.97693317919305
 30
0.0
 10
22.12781097730119
 20
83.76429717122957
 30
0.0
 10
23.19362777913907
 20
83.37694546964848
 30
0.0
 10
24.00399275694602
 20
82.57364835360528
 30
0.0
 10
24.00399275694651
 20
81.96675296571041
 30
0.0
 10
24.00399275694718
 20
81.11902770050017
 30
0.0
 10
24.00399275694785
 20
80.27130243528993
 30
0.0
 10
24.00399275694815
 20
79.89434404582911
 30
0.0
 10
23.68716118761898
 20
79.21953657808665
 30
0.0
 10
23.04434247519929
 20
78.81739958191845
 30
0.0
 10
22.30767709156047
 20
78.68579791543976
 30
0.0
 10
21.56453366821798
 20
78.64799048132814
 30
0.0
 10
20.82097497426794
 20
78.61582048371662
 30
0.0
 10
20.44894849383293
 20
78.61582048371648
 30
0.0
  0
LINE
  5
B6
330
1F
100
AcDbEntity
  8
Layer 01
100
AcDbLine
 10
20.44894849383293
 20
78.61582048371648
 30
0.0
 11
-20.44894849382268
 21
78.6158204837002
 31
0.0
  0
SPLINE
  5
B7
330
1F
100
AcDbEntity
  8
Layer 01
100
AcDbSpline
210
0.0
220
0.0
230
1.0
 70
     8
 71
     2
 72
    22
 73
    19
 74
     0
 42
0.000000001
 43
0.0000000001
 40
104.2087980479657
 40
104.2087980479657
 40
104.2087980479657
 40
105.2087980479657
 40
106.2087980479657
 40
107.2087980479657
 40
108.2087980479657
 40
109.2087980479657
 40
110.2087980479657
 40
110.2087980479657
 40
111.9042485783862
 40
111.9042485783862
 40
112.9042485783862
 40
113.9042485783862
 40
114.9042485783862
 40
115.9042485783862
 40
116.9042485783862
 40
117.9042485783862
 40
118.9042485783862
 40
119.9042485783862
 40
119.9042485783862
 40
119.9042485783862
 10
-20.44894849382268
 20
78.6158204837002
 30
0.0
 10
-20.8209749742577
 20
78.61582048370006
 30
0.0
 10
-21.56453366820776
 20
78.64799048131098
 30
0.0
 10
-22.30767709155028
 20
78.68579791542201
 30
0.0
 10
-23.04434247518921
 20
78.81739958190012
 30
0.0
 10
-23.68716118760922
 20
79.2195365780678
 30
0.0
 10
-24.00399275693893
 20
79.89434404581002
 30
0.0
 10
-24.00399275693893
 20
80.27130243527083
 30
0.0
 10
-24.00399275693893
 20
81.11902770048107
 30
0.0
 10
-24.00399275693893
 20
81.96675296569131
 30
0.0
 10
-24.00399275693893
 20
82.57364835358618
 30
0.0
 10
-23.19362777913261
 20
83.37694546963003
 30
0.0
 10
-22.12781097729505
 20
83.76429717121196
 30
0.0
 10
-21.01967458944783
 20
83.97693317917633
 30
0.0
 10
-19.89877880146088
 20
84.10009331136366
 30
0.0
 10
-18.77684730528349
 20
84.21033692661157
 30
0.0
 10
-17.65088406214749
 20
84.2696254144686
 30
0.0
 10
-16.52367590737251
 20
84.28908036925607
 30
0.0
 10
-15.95999999973168
 20
84.2890803692563
 30
0.0
  0
SPLINE
  5
B8
330
1F
100
AcDbEntity
  8
Make2D$Visible$Curves
 62
    18
420
        0
370
    -3
100
AcDbSpline
210
0.0
220
0.0
230
1.0
 70
    24
 71
     3
 72
    10
 73
     6
 74
     0
 42
0.000000001
 43
0.0000000001
 40
-5.404505813879601
 40
-5.404505813879601
 40
-5.404505813879601
 40
-5.404505813879601
 40
-2.702252906939801
 40
-1.3511264534699
 40
0.0
 40
0.0
 40
0.0
 40
0.0
 10
0.0000000000003695
 20
80.94376737356635
 30
0.0
 10
0.0000000000003695
 20
80.56997706413733
 30
0.0
 10
0.0000000000003837
 20
80.07072378093332
 30
0.0
 10
0.0000000000003695
 20
79.51029893078932
 30
0.0
 10
0.0000000000003695
 20
79.27765298411032
 30
0.0
 10
0.0000000000003695
 20
79.17901980705332
 30
0.0
  0
SPLINE
  5
B9
330
1F
100
AcDbEntity
  8
Make2D$Visible$Curves
 62
    18
420
        0
370
    -3
100
AcDbSpline
210
0.0
220
0.0
230
1.0
 70
     8
 71
     2
 72
     7
 73
     4
 74
     0
 42
0.000000001
 43
0.0000000001
 40
0.0
 40
0.0
 40
0.0
 40
1.0
 40
2.0
 40
2.0
 40
2.0
 10
21.54732217364833
 20
6.462486159639003
 30
0.0
 10
21.27456488996442
 20
6.471156634910045
 30
0.0
 10
20.72575097494644
 20
6.471068214840283
 30
0.0
 10
20.45983644142832
 20
6.415509915438003
 30
0.0
  0
SPLINE
  5
BA
330
1F
100
AcDbEntity
  8
Make2D$Visible$Curves
 62
    18
420
        0
370
    -3
100
AcDbSpline
210
0.0
220
0.0
230
1.0
 70
     8
 71
     2
 72
     7
 73
     4
 74
     0
 42
0.000000001
 43
0.0000000001
 40
0.0
 40
0.0
 40
0.0
 40
1.0
 40
2.0
 40
2.0
 40
2.0
 10
-21.54732217364833
 20
6.462486159639003
 30
0.0
 10
-21.27456488996442
 20
6.471156634910045
 30
0.0
 10
-20.72575097494644
 20
6.471068214840283
 30
0.0
 10
-20.45983644142832
 20
6.415509915438003
 30
0.0
  0
SPLINE
  5
BB
330
1F
100
AcDbEntity
  8
Make2D$Visible$Curves
 62
    18
420
        0
370
    -3
100
AcDbSpline
210
0.0
220
0.0
230
1.0
 70
     8
 71
     3
 72
     8
 73
     4
 74
     0
 42
0.000000001
 43
0.0000000001
 40
3.266884707705468
 40
3.266884707705468
 40
3.266884707705468
 40
3.266884707705468
 40
3.267382828554553
 40
3.267382828554553
 40
3.267382828554553
 40
3.267382828554553
 10
-23.82825887045006
 20
17.43563198322948
 30
0.0
 10
-23.82809170729627
 20
17.43564506597464
 30
0.0
 10
-23.8279245210969
 20
17.43565815006226
 30
0.0
 10
-23.82775731170445
 20
17.43567123550373
 30
0.0
  0
SPLINE
  5
BC
330
1F
100
AcDbEntity
  8
Make2D$Visible$Curves
 62
    18
420
        0
370
    -3
100
AcDbSpline
210
0.0
220
0.0
230
1.0
 70
     8
 71
     3
 72
     8
 73
     4
 74
     0
 42
0.000000001
 43
0.0000000001
 40
1.684035283372087
 40
1.684035283372087
 40
1.684035283372087
 40
1.684035283372087
 40
1.685529523806025
 40
1.685529523806025
 40
1.685529523806025
 40
1.685529523806025
 10
-22.08117345573132
 20
27.04796747843374
 30
0.0
 10
-22.08070319868619
 20
27.04802021916206
 30
0.0
 10
-22.08023280779682
 20
27.04807293325712
 30
0.0
 10
-22.07976228352413
 20
27.04812562072859
 30
0.0
  0
SPLINE
  5
BD
330
1F
100
AcDbEntity
  8
Make2D$Visible$Curves
 62
    18
420
        0
370
    -3
100
AcDbSpline
210
0.0
220
0.0
230
1.0
 70
    24
 71
     2
 72
     6
 73
     3
 74
     0
 42
0.000000001
 43
0.0000000001
 40
-40.456
 40
-40.456
 40
-40.456
 40
-40.45314854150079
 40
-40.45314854150079
 40
-40.45314854150079
 10
20.22799929319169
 20
10.53212335571
 30
0.0
 10
20.22657356394207
 20
10.53212335571
 30
0.0
 10
20.22514783469245
 20
10.53212335571
 30
0.0
  0
SPLINE
  5
BE
330
1F
100
AcDbEntity
  8
Make2D$Visible$Curves
 62
    18
420
        0
370
    -3
100
AcDbSpline
210
0.0
220
0.0
230
1.0
 70
    24
 71
     2
 72
     6
 73
     3
 74
     0
 42
0.000000001
 43
0.0000000001
 40
-0.3725866446376399
 40
-0.3725866446376399
 40
-0.3725866446376399
 40
-0.3682500309893376
 40
-0.3682500309893376
 40
-0.3682500309893376
 10
-20.22409982595832
 20
10.53205414742948
 30
0.0
 10
-20.22563305046112
 20
10.53217105451793
 30
0.0
 10
-20.22716627496392
 20
10.53228796160638
 30
0.0
  0
SPLINE
  5
BF
330
1F
100
AcDbEntity
  8
Make2D$Visible$Curves
 62
    18
420
        0
370
    -3
100
AcDbSpline
210
0.0
220
0.0
230
1.0
 70
     8
 71
     3
 72
    10
 73
     6
 74
     0
 42
0.000000001
 43
0.0000000001
 40
-2.085002241906396
 40
-2.085002241906396
 40
-2.085002241906396
 40
-2.085002241906396
 40
-1.390001494604334
 40
-0.6950007473020626
 40
-0.6664298082330579
 40
-0.6664298082330579
 40
-0.6664298082330579
 40
-0.6664298082330579
 10
-21.59194274016832
 20
6.492119118061003
 30
0.0
 10
-21.54654298992833
 20
6.703631345516003
 30
0.0
 10
-21.45535026124833
 20
7.130338857916002
 30
0.0
 10
-21.361362388031
 20
7.573242309668315
 30
0.0
 10
-21.3131692433757
 20
7.80111745730694
 30
0.0
 10
-21.31126589578828
 20
7.810118392545883
 30
0.0
  0
SPLINE
  5
C0
330
1F
100
AcDbEntity
  8
Make2D$Visible$Curves
 62
    18
420
        0
370
    -3
100
AcDbSpline
210
0.0
220
0.0
230
1.0
 70
     8
 71
     3
 72
     9
 73
     5
 74
     0
 42
0.000000001
 43
0.0000000001
 40
-0.0568594578548247
 40
-0.0568594578548247
 40
-0.0568594578548247
 40
-0.0568594578548247
 40
-0.0284297289274123
 40
0.0
 40
0.0
 40
0.0
 40
0.0
 10
-21.54732217364833
 20
6.462486159639003
 30
0.0
 10
-21.55479960175832
 20
6.467702919567003
 30
0.0
 10
-21.56971356317833
 20
6.477860881205003
 30
0.0
 10
-21.58454677412833
 20
6.487461098969002
 30
0.0
 10
-21.59194274016832
 20
6.492119118061003
 30
0.0
  0
SPLINE
  5
C1
330
1F
100
AcDbEntity
  8
Make2D$Visible$Curves
 62
    18
420
        0
370
    -3
100
AcDbSpline
210
0.0
220
0.0
230
1.0
 70
     8
 71
     3
 72
    12
 73
     8
 74
     0
 42
0.000000001
 43
0.0000000001
 40
0.0
 40
0.0
 40
0.0
 40
0.0
 40
1.0
 40
2.0
 40
3.0
 40
4.0
 40
5.0
 40
5.0
 40
5.0
 40
5.0
 10
-22.08131051343329
 20
27.04795210582607
 30
0.0
 10
-22.32288329735306
 20
27.08329139767607
 30
0.0
 10
-22.79751482972951
 20
27.17769147193235
 30
0.0
 10
-23.49708978156477
 20
27.44563281711547
 30
0.0
 10
-23.94905216776194
 20
28.05625071199662
 30
0.0
 10
-24.03711490985073
 20
28.79493471300093
 30
0.0
 10
-24.05056059801322
 20
29.27849529182288
 30
0.0
 10
-24.05456263257987
 20
29.52251537876159
 30
0.0
  0
LINE
  5
C2
330
1F
100
AcDbEntity
  8
Make2D$Visible$Curves
 62
    18
420
        0
370
    -3
100
AcDbLine
 10
-24.05456263257987
 20
29.52251537876159
 30
0.0
 11
-24.00439829100209
 21
35.57782739820077
 31
0.0
  0
SPLINE
  5
C3
330
1F
100
AcDbEntity
  8
Make2D$Visible$Curves
 62
    18
420
        0
370
    -3
100
AcDbSpline
210
0.0
220
0.0
230
1.0
 70
     8
 71
     3
 72
    14
 73
    10
 74
     0
 42
0.000000001
 43
0.0000000001
 40
11.05551980542798
 40
11.05551980542798
 40
11.05551980542798
 40
11.05551980542798
 40
12.05551980542798
 40
13.05551980542798
 40
14.05551980542798
 40
15.05551980542798
 40
16.05551980542798
 40
17.05551980542798
 40
18.05551980542798
 40
18.05551980542798
 40
18.05551980542798
 40
18.05551980542798
 10
-24.00439829100209
 20
35.57782739820077
 30
0.0
 10
-24.00309165038083
 20
35.73555131941929
 30
0.0
 10
-23.9982307672364
 20
36.05093995289202
 30
0.0
 10
-23.96838497281869
 20
36.52327930539178
 30
0.0
 10
-23.91544267377965
 20
36.99349401894239
 30
0.0
 10
-23.77064238552432
 20
37.45076471962487
 30
0.0
 10
-23.43874442919581
 20
37.80926873912708
 30
0.0
 10
-22.98402502933749
 20
37.96666896068689
 30
0.0
 10
-22.67464707234341
 20
38.02481697605235
 30
0.0
 10
-22.51653143040099
 20
38.03154612914092
 30
0.0
  0
SPLINE
  5
C4
330
1F
100
AcDbEntity
  8
Make2D$Visible$Curves
 62
    18
420
        0
370
    -3
100
AcDbSpline
210
0.0
220
0.0
230
1.0
 70
     8
 71
     3
 72
    32
 73
    28
 74
     0
 42
0.000000001
 43
0.0000000001
 40
18.05551980542798
 40
18.05551980542798
 40
18.05551980542798
 40
18.05551980542798
 40
18.33556453167481
 40
18.33556453167481
 40
18.33556453167481
 40
18.61550840017905
 40
18.61550840017905
 40
18.61550840017905
 40
19.17533919928936
 40
19.17533919928936
 40
19.17533919928936
 40
19.45527758708388
 40
19.45527758708388
 40
19.45527758708388
 40
19.73527928573248
 40
19.73527928573248
 40
19.73527928573248
 40
20.29562692731817
 40
20.29562692731817
 40
20.29562692731817
 40
20.85779336187196
 40
20.85779336187196
 40
20.85779336187196
 40
21.42038977110446
 40
21.42038977110446
 40
21.42038977110446
 40
22.54580779600595
 40
22.54580779600595
 40
22.54580779600595
 40
22.54580779600595
 10
-22.51653143040099
 20
38.03154612914092
 30
0.0
 10
-22.42324222056945
 20
38.03455962394809
 30
0.0
 10
-22.32994081152378
 20
38.03730648445385
 30
0.0
 10
-22.23664797212746
 20
38.03981699962069
 30
0.0
 10
-22.14339132944134
 20
38.04232654073217
 30
0.0
 10
-22.05013314753116
 20
38.04460492865606
 30
0.0
 10
-21.95688095823358
 20
38.04669057266128
 30
0.0
 10
-21.77039630908729
 20
38.05086141941019
 30
0.0
 10
-21.58391872312342
 20
38.05427530611244
 30
0.0
 10
-21.39742177525545
 20
38.05719877791909
 30
0.0
 10
-21.30416259159935
 20
38.05866068170491
 30
0.0
 10
-21.21089814580631
 20
38.05999478462854
 30
0.0
 10
-21.11763141281085
 20
38.06120434749183
 30
0.0
 10
-21.02433938656122
 20
38.0624142383797
 30
0.0
 10
-20.931045429747
 20
38.06349869396966
 30
0.0
 10
-20.83775123462253
 20
38.06446571562139
 30
0.0
 10
-20.65102581644867
 20
38.06640117925941
 30
0.0
 10
-20.46430048983834
 20
38.06786601755222
 30
0.0
 10
-20.27758357005021
 20
38.06893869162786
 30
0.0
 10
-20.09022383520389
 20
38.07001505862563
 30
0.0
 10
-19.90286453694812
 20
38.07069735775401
 30
0.0
 10
-19.71551959600006
 20
38.07111406169993
 30
0.0
 10
-19.52800225387045
 20
38.07153114911101
 30
0.0
 10
-19.34048337220514
 20
38.07168223030718
 30
0.0
 10
-19.15297282678634
 20
38.07168313796435
 30
0.0
 10
-18.77787662038625
 20
38.07168495364233
 30
0.0
 10
-18.40272715356741
 20
38.07115606387447
 30
0.0
 10
-18.02758357345856
 20
38.07113658548322
 30
0.0
  0
LINE
  5
C5
330
1F
100
AcDbEntity
  8
Make2D$Visible$Curves
 62
    18
420
        0
370
    -3
100
AcDbLine
 10
-18.02758357345856
 20
38.07113658548322
 30
0.0
 11
18.02758357345856
 21
38.07113658548322
 31
0.0
  0
SPLINE
  5
C6
330
1F
100
AcDbEntity
  8
Make2D$Visible$Curves
 62
    18
420
        0
370
    -3
100
AcDbSpline
210
0.0
220
0.0
230
1.0
 70
     8
 71
     3
 72
    32
 73
    28
 74
     0
 42
0.000000001
 43
0.0000000001
 40
58.60097494292308
 40
58.60097494292308
 40
58.60097494292308
 40
58.60097494292308
 40
59.72639296782457
 40
59.72639296782457
 40
59.72639296782457
 40
60.28898937705707
 40
60.28898937705707
 40
60.28898937705707
 40
60.85115581161086
 40
60.85115581161086
 40
60.85115581161086
 40
61.41150345319655
 40
61.41150345319655
 40
61.41150345319655
 40
61.69150515184516
 40
61.69150515184516
 40
61.69150515184516
 40
61.97144353963967
 40
61.97144353963967
 40
61.97144353963967
 40
62.53127433874998
 40
62.53127433874998
 40
62.53127433874998
 40
62.81121820725422
 40
62.81121820725422
 40
62.81121820725422
 40
63.09126293350105
 40
63.09126293350105
 40
63.09126293350105
 40
63.09126293350105
 10
18.02758357345856
 20
38.07113658548322
 30
0.0
 10
18.40272715356741
 20
38.07115606387447
 30
0.0
 10
18.77787662038625
 20
38.07168495364233
 30
0.0
 10
19.15297282678634
 20
38.07168313796435
 30
0.0
 10
19.34048337220514
 20
38.07168223030718
 30
0.0
 10
19.52800225387045
 20
38.07153114911101
 30
0.0
 10
19.71551959600006
 20
38.07111406169993
 30
0.0
 10
19.90286453694812
 20
38.07069735775401
 30
0.0
 10
20.09022383520389
 20
38.07001505862563
 30
0.0
 10
20.27758357005021
 20
38.06893869162786
 30
0.0
 10
20.46430048983834
 20
38.06786601755222
 30
0.0
 10
20.65102581644867
 20
38.06640117925941
 30
0.0
 10
20.83775123462253
 20
38.06446571562139
 30
0.0
 10
20.931045429747
 20
38.06349869396966
 30
0.0
 10
21.02433938656122
 20
38.0624142383797
 30
0.0
 10
21.11763141281085
 20
38.06120434749183
 30
0.0
 10
21.21089814580631
 20
38.05999478462854
 30
0.0
 10
21.30416259159935
 20
38.05866068170491
 30
0.0
 10
21.39742177525545
 20
38.05719877791909
 30
0.0
 10
21.58391872312342
 20
38.05427530611244
 30
0.0
 10
21.77039630908729
 20
38.05086141941019
 30
0.0
 10
21.95688095823358
 20
38.04669057266128
 30
0.0
 10
22.05013314753116
 20
38.04460492865606
 30
0.0
 10
22.14339132944134
 20
38.04232654073217
 30
0.0
 10
22.23664797212746
 20
38.03981699962069
 30
0.0
 10
22.32994081152378
 20
38.03730648445385
 30
0.0
 10
22.42324222056945
 20
38.03455962394809
 30
0.0
 10
22.51653143040099
 20
38.03154612914092
 30
0.0
  0
SPLINE
  5
C7
330
1F
100
AcDbEntity
  8
Make2D$Visible$Curves
 62
    18
420
        0
370
    -3
100
AcDbSpline
210
0.0
220
0.0
230
1.0
 70
     8
 71
     3
 72
    14
 73
    10
 74
     0
 42
0.000000001
 43
0.0000000001
 40
63.09126293350105
 40
63.09126293350105
 40
63.09126293350105
 40
63.09126293350105
 40
64.09126293350104
 40
65.09126293350104
 40
66.09126293350104
 40
67.09126293350104
 40
68.09126293350104
 40
69.09126293350104
 40
70.09126293350104
 40
70.09126293350104
 40
70.09126293350104
 40
70.09126293350104
 10
22.51653143040099
 20
38.03154612914092
 30
0.0
 10
22.67464707234341
 20
38.02481697605235
 30
0.0
 10
22.98402502933749
 20
37.96666896068689
 30
0.0
 10
23.43874442919581
 20
37.80926873912708
 30
0.0
 10
23.77064238552432
 20
37.45076471962487
 30
0.0
 10
23.91544267377965
 20
36.99349401894239
 30
0.0
 10
23.96838497281869
 20
36.52327930539178
 30
0.0
 10
23.9982307672364
 20
36.05093995289202
 30
0.0
 10
24.00309165038083
 20
35.73555131941929
 30
0.0
 10
24.00439829100209
 20
35.57782739820077
 30
0.0
  0
LINE
  5
C8
330
1F
100
AcDbEntity
  8
Make2D$Visible$Curves
 62
    18
420
        0
370
    -3
100
AcDbLine
 10
24.00439829100209
 20
35.57782739820077
 30
0.0
 11
24.05456263257987
 21
29.52251537876159
 31
0.0
  0
SPLINE
  5
C9
330
1F
100
AcDbEntity
  8
Make2D$Visible$Curves
 62
    18
420
        0
370
    -3
100
AcDbSpline
210
0.0
220
0.0
230
1.0
 70
     8
 71
     3
 72
    12
 73
     8
 74
     0
 42
0.000000001
 43
0.0000000001
 40
76.14678273892902
 40
76.14678273892902
 40
76.14678273892902
 40
76.14678273892902
 40
77.14678273892902
 40
78.14678273892902
 40
79.14678273892902
 40
80.14678273892902
 40
81.14678273892902
 40
81.14678273892902
 40
81.14678273892902
 40
81.14678273892902
 10
24.05456263257987
 20
29.52251537876159
 30
0.0
 10
24.05056059801322
 20
29.27849529182288
 30
0.0
 10
24.03711490985073
 20
28.79493471300093
 30
0.0
 10
23.94905216776194
 20
28.05625071199662
 30
0.0
 10
23.49708978156477
 20
27.44563281711547
 30
0.0
 10
22.79751482972951
 20
27.17769147193235
 30
0.0
 10
22.32288329735306
 20
27.08329139767607
 30
0.0
 10
22.08131051343329
 20
27.04795210582607
 30
0.0
  0
SPLINE
  5
CA
330
1F
100
AcDbEntity
  8
Make2D$Visible$Curves
 62
    18
420
        0
370
    -3
100
AcDbSpline
210
0.0
220
0.0
230
1.0
 70
     8
 71
     2
 72
     9
 73
     6
 74
     0
 42
0.000000001
 43
0.0000000001
 40
0.0
 40
0.0
 40
0.0
 40
1.0
 40
2.0
 40
3.0
 40
4.0
 40
4.0
 40
4.0
 10
-23.82833263272599
 20
17.43680060578069
 30
0.0
 10
-23.86661110019127
 20
18.19325284854235
 30
0.0
 10
-23.93646466223402
 20
19.70649471025209
 30
0.0
 10
-23.98562731829814
 20
21.22057098817925
 30
0.0
 10
-24.00472230027507
 20
22.73528207910157
 30
0.0
 10
-24.00565573480441
 20
23.49271542813446
 30
0.0
  0
SPLINE
  5
CB
330
1F
100
AcDbEntity
  8
Make2D$Visible$Curves
 62
    18
420
        0
370
    -3
100
AcDbSpline
210
0.0
220
0.0
230
1.0
 70
     8
 71
     2
 72
    19
 73
    16
 74
     0
 42
0.000000001
 43
0.0000000001
 40
4.0
 40
4.0
 40
4.0
 40
5.0
 40
6.0
 40
7.0
 40
8.0
 40
9.0
 40
10.0
 40
11.0
 40
12.0
 40
13.0
 40
14.0
 40
15.0
 40
16.0
 40
17.0
 40
18.0
 40
18.0
 40
18.0
 10
-24.00565573480441
 20
23.49271542813446
 30
0.0
 10
-24.00613175149029
 20
23.87897809707394
 30
0.0
 10
-23.99697563822898
 20
24.6514962138999
 30
0.0
 10
-23.96502151456757
 20
25.42332653459748
 30
0.0
 10
-23.79484911973196
 20
26.18694461082487
 30
0.0
 10
-23.27421976002885
 20
26.77960161351335
 30
0.0
 10
-22.51979506103088
 20
27.00198419429429
 30
0.0
 10
-21.75236423779933
 20
27.08399539218267
 30
0.0
 10
-20.98088857207284
 20
27.12898834564693
 30
0.0
 10
-20.20872991863051
 20
27.15248710154992
 30
0.0
 10
-19.43630583861547
 20
27.16574918551703
 30
0.0
 10
-18.66382228722443
 20
27.17382375753249
 30
0.0
 10
-17.89131026187601
 20
27.17857461226145
 30
0.0
 10
-17.11878904824159
 20
27.18125344600464
 30
0.0
 10
-16.34626342506422
 20
27.18178555054951
 30
0.0
 10
-15.9600007017337
 20
27.18168885869675
 30
0.0
  0
LINE
  5
CC
330
1F
100
AcDbEntity
  8
Make2D$Visible$Curves
 62
    18
420
        0
370
    -3
100
AcDbLine
 10
-15.9600007017337
 20
27.18168885869675
 30
0.0
 11
15.9600007017337
 21
27.18168885869675
 31
0.0
  0
SPLINE
  5
CD
330
1F
100
AcDbEntity
  8
Make2D$Visible$Curves
 62
    18
420
        0
370
    -3
100
AcDbSpline
210
0.0
220
0.0
230
1.0
 70
     8
 71
     2
 72
    19
 73
    16
 74
     0
 42
0.000000001
 43
0.0000000001
 40
49.92000140346741
 40
49.92000140346741
 40
49.92000140346741
 40
50.92000140346741
 40
51.92000140346741
 40
52.92000140346741
 40
53.92000140346741
 40
54.92000140346741
 40
55.92000140346741
 40
56.92000140346741
 40
57.92000140346741
 40
58.92000140346741
 40
59.92000140346741
 40
60.92000140346741
 40
61.92000140346741
 40
62.92000140346741
 40
63.92000140346741
 40
63.92000140346741
 40
63.92000140346741
 10
15.9600007017337
 20
27.18168885869675
 30
0.0
 10
16.34626342506422
 20
27.18178555054951
 30
0.0
 10
17.11878904824159
 20
27.18125344600464
 30
0.0
 10
17.89131026187601
 20
27.17857461226145
 30
0.0
 10
18.66382228722443
 20
27.17382375753249
 30
0.0
 10
19.43630583861547
 20
27.16574918551703
 30
0.0
 10
20.20872991863051
 20
27.15248710154992
 30
0.0
 10
20.98088857207284
 20
27.12898834564693
 30
0.0
 10
21.75236423779933
 20
27.08399539218267
 30
0.0
 10
22.51979506103088
 20
27.00198419429429
 30
0.0
 10
23.27421976002885
 20
26.77960161351335
 30
0.0
 10
23.79484911973196
 20
26.18694461082487
 30
0.0
 10
23.96502151456757
 20
25.42332653459748
 30
0.0
 10
23.99697563822898
 20
24.6514962138999
 30
0.0
 10
24.00613175149029
 20
23.87897809707394
 30
0.0
 10
24.00565573480441
 20
23.49271542813446
 30
0.0
  0
SPLINE
  5
CE
330
1F
100
AcDbEntity
  8
Make2D$Visible$Curves
 62
    18
420
        0
370
    -3
100
AcDbSpline
210
0.0
220
0.0
230
1.0
 70
     8
 71
     2
 72
     9
 73
     6
 74
     0
 42
0.000000001
 43
0.0000000001
 40
63.92000140346741
 40
63.92000140346741
 40
63.92000140346741
 40
64.92000140346741
 40
65.92000140346741
 40
66.92000140346741
 40
67.92000140346741
 40
67.92000140346741
 40
67.92000140346741
 10
24.00565573480441
 20
23.49271542813446
 30
0.0
 10
24.00472230027507
 20
22.73528207910157
 30
0.0
 10
23.98562731829814
 20
21.22057098817925
 30
0.0
 10
23.93646466223402
 20
19.70649471025209
 30
0.0
 10
23.86661110019127
 20
18.19325284854235
 30
0.0
 10
23.82833263272599
 20
17.43680060578069
 30
0.0
  0
LINE
  5
CF
330
1F
100
AcDbEntity
  8
Layer 01
100
AcDbLine
 10
-0.0000007068079384
 20
36.56500001077563
 30
0.0
 11
-0.0000007068079384
 21
29.18990591698963
 31
0.0
  0
LINE
  5
D0
330
1F
100
AcDbEntity
  8
Layer 01
100
AcDbLine
 10
-0.0001423727175194
 20
26.30753061048063
 30
0.0
 11
-0.0000007068079384
 21
18.0752986117861
 31
0.0
  0
LINE
  5
D1
330
1F
100
AcDbEntity
  8
Layer 01
100
AcDbLine
 10
-0.000000706810809
 20
38.90956761016256
 30
0.0
 11
-0.000000706810809
 21
38.07113658548321
 31
0.0
  0
SPLINE
  5
D2
330
1F
100
AcDbEntity
  8
Make2D$Visible$Curves
 62
    18
420
        0
370
    -3
100
AcDbSpline
210
0.0
220
0.0
230
1.0
 70
     8
 71
     2
 72
    13
 73
    10
 74
     0
 42
0.000000001
 43
0.0000000001
 40
0.0
 40
0.0
 40
0.0
 40
1.000000106783365
 40
2.000000213566731
 40
3.000000320350096
 40
4.000000427133461
 40
5.000000533916825
 40
6.000000640700192
 40
7.000000747483557
 40
8.0
 40
8.0
 40
8.0
 10
-25.27304744368885
 20
11.35290030832336
 30
0.0
 10
-25.75124212618464
 20
11.81505599663754
 30
0.0
 10
-26.64891113942174
 20
12.79637619668748
 30
0.0
 10
-27.5077125671798
 20
13.81203502901796
 30
0.0
 10
-28.2776949162101
 20
14.89703038683007
 30
0.0
 10
-28.95508243494085
 20
16.04199637922317
 30
0.0
 10
-29.54900105184971
 20
17.23216213245578
 30
0.0
 10
-30.0648692428077
 20
18.45801157532714
 30
0.0
 10
-30.52312681068712
 20
19.70659785149414
 30
0.0
 10
-30.70746092562759
 20
20.34566834311119
 30
0.0
  0
SPLINE
  5
D3
330
1F
100
AcDbEntity
  8
Make2D$Visible$Curves
 62
    18
420
        0
370
    -3
100
AcDbSpline
210
0.0
220
0.0
230
1.0
 70
     8
 71
     2
 72
    15
 73
    12
 74
     0
 42
0.000000001
 43
0.0000000001
 40
8.0
 40
8.0
 40
8.0
 40
9.000108693614969
 40
10.00022076893448
 40
11.00033284425398
 40
12.00044491957349
 40
13.000556994893
 40
14.00066907021251
 40
15.00078114553201
 40
16.00089322085152
 40
17.00100529617103
 40
18.0
 40
18.0
 40
18.0
 10
-30.70746092562759
 20
20.34566834311119
 30
0.0
 10
-30.75414383903299
 20
20.50607065283665
 30
0.0
 10
-30.84042790691065
 20
20.82886728962364
 30
0.0
 10
-30.9153785210842
 20
21.15449256116703
 30
0.0
 10
-30.97527316487872
 20
21.48331421815014
 30
0.0
 10
-31.0082082757807
 20
21.81607704637866
 30
0.0
 10
-31.00043083775804
 20
22.15062361931205
 30
0.0
 10
-30.94105651421628
 20
22.480304065551
 30
0.0
 10
-30.81696092240176
 20
22.79195882424569
 30
0.0
 10
-30.62253644514142
 20
23.06636053153249
 30
0.0
 10
-30.35552564009684
 20
23.269663630636
 30
0.0
 10
-30.209918706038
 20
23.35132339084245
 30
0.0
  0
SPLINE
  5
D4
330
1F
100
AcDbEntity
  8
Make2D$Visible$Curves
 62
    18
420
        0
370
    -3
100
AcDbSpline
210
0.0
220
0.0
230
1.0
 70
     8
 71
     2
 72
    10
 73
     7
 74
     0
 42
0.000000001
 43
0.0000000001
 40
18.0
 40
18.0
 40
18.0
 40
18.99942021043053
 40
19.9995651578229
 40
20.99971010521526
 40
21.99985505260763
 40
23.0
 40
23.0
 40
23.0
 10
-30.209918706038
 20
23.35132339084245
 30
0.0
 10
-29.98471950711698
 20
23.4767739287387
 30
0.0
 10
-29.53479315626014
 20
23.72887690190382
 30
0.0
 10
-29.08821309174674
 20
23.98733222768439
 30
0.0
 10
-28.63447489571458
 20
24.23297563802075
 30
0.0
 10
-28.18098515551204
 20
24.47902511798075
 30
0.0
 10
-27.95822151021112
 20
24.60916929231768
 30
0.0
  0
SPLINE
  5
D5
330
1F
100
AcDbEntity
  8
Make2D$Visible$Curves
 62
    18
420
        0
370
    -3
100
AcDbSpline
210
0.0
220
0.0
230
1.0
 70
     8
 71
     2
 72
    13
 73
    10
 74
     0
 42
0.000000001
 43
0.0000000001
 40
23.0
 40
23.0
 40
23.0
 40
24.0
 40
25.0
 40
26.0
 40
27.0
 40
28.0
 40
29.0
 40
30.0
 40
31.0
 40
31.0
 40
31.0
 10
-27.95822151021112
 20
24.60916929231768
 30
0.0
 10
-27.8199688797133
 20
25.32836775155258
 30
0.0
 10
-27.83318228091857
 20
26.79289738802343
 30
0.0
 10
-27.91318788933749
 20
28.25145537996111
 30
0.0
 10
-28.04536578904651
 20
29.70673001201278
 30
0.0
 10
-28.18662626369709
 20
31.16096215373291
 30
0.0
 10
-28.31632435057397
 20
32.61630643593148
 30
0.0
 10
-28.45537512489647
 20
34.07077512416519
 30
0.0
 10
-28.58495655956261
 20
35.52613208372458
 30
0.0
 10
-28.63980414195344
 20
36.25462951588078
 30
0.0
  0
SPLINE
  5
D6
330
1F
100
AcDbEntity
  8
Make2D$Visible$Curves
 62
    18
420
        0
370
    -3
100
AcDbSpline
210
0.0
220
0.0
230
1.0
 70
     8
 71
     2
 72
    15
 73
    12
 74
     0
 42
0.000000001
 43
0.0000000001
 40
31.0
 40
31.0
 40
31.0
 40
32.0
 40
33.0
 40
34.0
 40
35.0
 40
36.0
 40
37.0
 40
38.0
 40
39.0
 40
40.0
 40
41.0
 40
41.0
 40
41.0
 10
-28.63980414195344
 20
36.25462951588078
 30
0.0
 10
-28.67042294188634
 20
36.65345249952961
 30
0.0
 10
-28.69004308139442
 20
37.45425010957316
 30
0.0
 10
-28.52073560945619
 20
38.24724990926944
 30
0.0
 10
-27.9751786278097
 20
38.86354745864978
 30
0.0
 10
-27.17537047811425
 20
39.0285062856145
 30
0.0
 10
-26.37580922180582
 20
39.01940897127423
 30
0.0
 10
-25.57570079619292
 20
39.01251469788383
 30
0.0
 10
-24.77568123561531
 20
39.00568987398248
 30
0.0
 10
-23.97565333407499
 20
38.99806002912717
 30
0.0
 10
-23.17560654085354
 20
38.98935953244939
 30
0.0
 10
-22.7755737682146
 20
38.98935953244939
 30
0.0
  0
LINE
  5
D7
330
1F
100
AcDbEntity
  8
Make2D$Visible$Curves
 62
    18
420
        0
370
    -3
100
AcDbLine
 10
-22.7755737682146
 20
38.98935953244939
 30
0.0
 11
-0.0799945750367215
 21
38.98935953244939
 31
0.0
  0
SPLINE
  5
D8
330
1F
100
AcDbEntity
  8
Make2D$Visible$Curves
 62
    18
420
        0
370
    -3
100
AcDbSpline
210
0.0
220
0.0
230
1.0
 70
     8
 71
     3
 72
    11
 73
     7
 74
     0
 42
0.000000001
 43
0.0000000001
 40
63.69557919317788
 40
63.69557919317788
 40
63.69557919317788
 40
63.69557919317788
 40
63.75999949252259
 40
63.75999949252259
 40
63.75999949252259
 40
63.82479311173172
 40
63.82479311173172
 40
63.82479311173172
 40
63.82479311173172
 10
-0.0799945750367215
 20
38.98935953244939
 30
0.0
 10
-0.0588284111120743
 20
38.98935782982174
 30
0.0
 10
-0.0384671065272073
 20
38.98098587342646
 30
0.0
 10
-0.023429996457935
 20
38.96598672466646
 30
0.0
 10
-0.0092234181014703
 20
38.95181601093508
 30
0.0
 10
-0.0000007068108232
 20
38.9292167734968
 30
0.0
 10
0.0
 20
38.90956761016256
 30
0.0
  0
SPLINE
  5
D9
330
1F
100
AcDbEntity
  8
Make2D$Visible$Curves
 62
    18
420
        0
370
    -3
100
AcDbSpline
210
0.0
220
0.0
230
1.0
 70
     8
 71
     3
 72
    11
 73
     7
 74
     0
 42
0.000000001
 43
0.0000000001
 40
63.82479311173172
 40
63.82479311173172
 40
63.82479311173172
 40
63.82479311173172
 40
63.88958673094086
 40
63.88958673094086
 40
63.88958673094086
 40
63.95400703028557
 40
63.95400703028557
 40
63.95400703028557
 40
63.95400703028557
 10
0.0
 20
38.90956761016256
 30
0.0
 10
0.0000007068108232
 20
38.9292167734968
 30
0.0
 10
0.0092234181014703
 20
38.95181601093508
 30
0.0
 10
0.023429996457935
 20
38.96598672466646
 30
0.0
 10
0.0384671065272073
 20
38.98098587342646
 30
0.0
 10
0.0588284111120743
 20
38.98935782982174
 30
0.0
 10
0.0799945750367215
 20
38.98935953244939
 30
0.0
  0
LINE
  5
DA
330
1F
100
AcDbEntity
  8
Make2D$Visible$Curves
 62
    18
420
        0
370
    -3
100
AcDbLine
 10
0.0799945750367215
 20
38.98935953244939
 30
0.0
 11
22.7755737682146
 21
38.98935953244939
 31
0.0
  0
SPLINE
  5
DB
330
1F
100
AcDbEntity
  8
Make2D$Visible$Curves
 62
    18
420
        0
370
    -3
100
AcDbSpline
210
0.0
220
0.0
230
1.0
 70
     8
 71
     2
 72
    15
 73
    12
 74
     0
 42
0.000000001
 43
0.0000000001
 40
86.64958622346344
 40
86.64958622346344
 40
86.64958622346344
 40
87.64958622346344
 40
88.64958622346344
 40
89.64958622346344
 40
90.64958622346344
 40
91.64958622346344
 40
92.64958622346344
 40
93.64958622346344
 40
94.64958622346344
 40
95.64958622346344
 40
96.64958622346344
 40
96.64958622346344
 40
96.64958622346344
 10
22.7755737682146
 20
38.98935953244939
 30
0.0
 10
23.17560654085354
 20
38.98935953244939
 30
0.0
 10
23.97565333407499
 20
38.99806002912717
 30
0.0
 10
24.77568123561531
 20
39.00568987398248
 30
0.0
 10
25.57570079619292
 20
39.01251469788383
 30
0.0
 10
26.37580922180582
 20
39.01940897127423
 30
0.0
 10
27.17537047811425
 20
39.0285062856145
 30
0.0
 10
27.9751786278097
 20
38.86354745864978
 30
0.0
 10
28.52073560945619
 20
38.24724990926944
 30
0.0
 10
28.69004308139442
 20
37.45425010957316
 30
0.0
 10
28.67042294188634
 20
36.65345249952961
 30
0.0
 10
28.63980414195344
 20
36.25462951588078
 30
0.0
  0
SPLINE
  5
DC
330
1F
100
AcDbEntity
  8
Make2D$Visible$Curves
 62
    18
420
        0
370
    -3
100
AcDbSpline
210
0.0
220
0.0
230
1.0
 70
     8
 71
     2
 72
    13
 73
    10
 74
     0
 42
0.000000001
 43
0.0000000001
 40
96.64958622346344
 40
96.64958622346344
 40
96.64958622346344
 40
97.64958622346344
 40
98.64958622346344
 40
99.64958622346344
 40
100.6495862234634
 40
101.6495862234634
 40
102.6495862234634
 40
103.6495862234634
 40
104.6495862234634
 40
104.6495862234634
 40
104.6495862234634
 10
28.63980414195344
 20
36.25462951588078
 30
0.0
 10
28.58495655956261
 20
35.52613208372458
 30
0.0
 10
28.45537512489647
 20
34.07077512416519
 30
0.0
 10
28.31632435057397
 20
32.61630643593148
 30
0.0
 10
28.18662626369709
 20
31.16096215373291
 30
0.0
 10
28.04536578904651
 20
29.70673001201278
 30
0.0
 10
27.91318788933749
 20
28.25145537996111
 30
0.0
 10
27.83318228091857
 20
26.79289738802343
 30
0.0
 10
27.8199688797133
 20
25.32836775155258
 30
0.0
 10
27.95822151021112
 20
24.60916929231768
 30
0.0
  0
SPLINE
  5
DD
330
1F
100
AcDbEntity
  8
Make2D$Visible$Curves
 62
    18
420
        0
370
    -3
100
AcDbSpline
210
0.0
220
0.0
230
1.0
 70
     8
 71
     2
 72
    10
 73
     7
 74
     0
 42
0.000000001
 43
0.0000000001
 40
104.6495862234634
 40
104.6495862234634
 40
104.6495862234634
 40
105.6497311708558
 40
106.6498761182482
 40
107.6500210656405
 40
108.6501660130329
 40
109.6495862234634
 40
109.6495862234634
 40
109.6495862234634
 10
27.95822151021112
 20
24.60916929231768
 30
0.0
 10
28.18098515551204
 20
24.47902511798075
 30
0.0
 10
28.63447489571458
 20
24.23297563802075
 30
0.0
 10
29.08821309174674
 20
23.98733222768439
 30
0.0
 10
29.53479315626014
 20
23.72887690190382
 30
0.0
 10
29.98471950711698
 20
23.4767739287387
 30
0.0
 10
30.209918706038
 20
23.35132339084245
 30
0.0
  0
SPLINE
  5
DE
330
1F
100
AcDbEntity
  8
Make2D$Visible$Curves
 62
    18
420
        0
370
    -3
100
AcDbSpline
210
0.0
220
0.0
230
1.0
 70
     8
 71
     2
 72
    15
 73
    12
 74
     0
 42
0.000000001
 43
0.0000000001
 40
109.6495862234634
 40
109.6495862234634
 40
109.6495862234634
 40
110.6485809272924
 40
111.6486930026119
 40
112.6488050779314
 40
113.6489171532509
 40
114.6490292285704
 40
115.6491413038899
 40
116.6492533792095
 40
117.649365454529
 40
118.6494775298485
 40
119.6495862234634
 40
119.6495862234634
 40
119.6495862234634
 10
30.209918706038
 20
23.35132339084245
 30
0.0
 10
30.35552564009684
 20
23.269663630636
 30
0.0
 10
30.62253644514142
 20
23.06636053153249
 30
0.0
 10
30.81696092240176
 20
22.79195882424569
 30
0.0
 10
30.94105651421628
 20
22.480304065551
 30
0.0
 10
31.00043083775804
 20
22.15062361931205
 30
0.0
 10
31.0082082757807
 20
21.81607704637866
 30
0.0
 10
30.97527316487872
 20
21.48331421815014
 30
0.0
 10
30.9153785210842
 20
21.15449256116703
 30
0.0
 10
30.84042790691065
 20
20.82886728962364
 30
0.0
 10
30.75414383903299
 20
20.50607065283665
 30
0.0
 10
30.70746092562759
 20
20.34566834311119
 30
0.0
  0
SPLINE
  5
DF
330
1F
100
AcDbEntity
  8
Make2D$Visible$Curves
 62
    18
420
        0
370
    -3
100
AcDbSpline
210
0.0
220
0.0
230
1.0
 70
     8
 71
     2
 72
    13
 73
    10
 74
     0
 42
0.000000001
 43
0.0000000001
 40
119.6495862234634
 40
119.6495862234634
 40
119.6495862234634
 40
120.6495854759799
 40
121.6495855827633
 40
122.6495856895466
 40
123.64958579633
 40
124.6495859031133
 40
125.6495860098967
 40
126.6495861166801
 40
127.6495862234634
 40
127.6495862234634
 40
127.6495862234634
 10
30.70746092562759
 20
20.34566834311119
 30
0.0
 10
30.52312681068712
 20
19.70659785149414
 30
0.0
 10
30.0648692428077
 20
18.45801157532714
 30
0.0
 10
29.54900105184971
 20
17.23216213245578
 30
0.0
 10
28.95508243494085
 20
16.04199637922317
 30
0.0
 10
28.2776949162101
 20
14.89703038683007
 30
0.0
 10
27.5077125671798
 20
13.81203502901796
 30
0.0
 10
26.64891113942174
 20
12.79637619668748
 30
0.0
 10
25.75124212618464
 20
11.81505599663754
 30
0.0
 10
25.27304744368885
 20
11.35290030832336
 30
0.0
  0
SPLINE
  5
E0
330
1F
100
AcDbEntity
  8
Make2D$Visible$Curves
 62
    18
420
        0
370
    -3
100
AcDbSpline
210
0.0
220
0.0
230
1.0
 70
     8
 71
     2
 72
     9
 73
     6
 74
     0
 42
0.000000001
 43
0.0000000001
 40
-4.0
 40
-4.0
 40
-4.0
 40
-3.0
 40
-2.0
 40
-1.0
 40
0.0
 40
0.0
 40
0.0
 10
15.96001112886091
 20
13.06960283192295
 30
0.0
 10
16.66194258588368
 20
13.07024796679474
 30
0.0
 10
18.06529137689655
 20
13.10681888892636
 30
0.0
 10
19.46814647219445
 20
13.15796135432839
 30
0.0
 10
20.87063342587916
 20
13.21846330601059
 30
0.0
 10
21.57152977566119
 20
13.25591972756981
 30
0.0
  0
SPLINE
  5
E1
330
1F
100
AcDbEntity
  8
Make2D$Visible$Curves
 62
    18
420
        0
370
    -3
100
AcDbSpline
210
0.0
220
0.0
230
1.0
 70
     8
 71
     2
 72
    28
 73
    25
 74
     0
 42
0.000000001
 43
0.0000000001
 40
0.0
 40
0.0
 40
0.0
 40
1.0
 40
2.0
 40
3.0
 40
4.0
 40
5.0
 40
6.0
 40
7.0
 40
8.0
 40
9.0
 40
10.0
 40
11.0
 40
12.0
 40
13.0
 40
14.0
 40
15.0
 40
16.0
 40
17.0
 40
18.0
 40
19.0
 40
20.0
 40
21.0
 40
22.0
 40
23.0
 40
23.0
 40
23.0
 10
21.57152977566119
 20
13.25591972756981
 30
0.0
 10
21.94024846713312
 20
13.2789631274231
 30
0.0
 10
22.67555728348755
 20
13.35693719592013
 30
0.0
 10
23.39824323443757
 20
13.51348523165614
 30
0.0
 10
24.09706226787124
 20
13.75639857685693
 30
0.0
 10
24.76968050653899
 20
14.06417232156914
 30
0.0
 10
25.39101139410717
 20
14.4667260974838
 30
0.0
 10
25.92532925010075
 20
14.98220973835673
 30
0.0
 10
26.29650612597897
 20
15.63098099031195
 30
0.0
 10
26.33300383595205
 20
16.39204413797103
 30
0.0
 10
25.87564957623389
 20
17.00139587719198
 30
0.0
 10
25.1848724493834
 20
17.2930819167845
 30
0.0
 10
24.45072816486496
 20
17.388578395991
 30
0.0
 10
23.71408981545282
 20
17.44510512078056
 30
0.0
 10
22.97697230835288
 20
17.49666928418717
 30
0.0
 10
22.2391967310777
 20
17.53757863130382
 30
0.0
 10
21.5009898990429
 20
17.56971296300145
 30
0.0
 10
20.76247703548931
 20
17.59377040654
 30
0.0
 10
20.02377727179605
 20
17.61107289705654
 30
0.0
 10
19.2849755909263
 20
17.62317369654398
 30
0.0
 10
18.54612340249132
 20
17.63154313716061
 30
0.0
 10
17.80724210845555
 20
17.63669807571
 30
0.0
 10
17.06834800421617
 20
17.63934022396001
 30
0.0
 10
16.32945006215591
 20
17.64021708314852
 30
0.0
 10
15.96000070796562
 20
17.64015474908949
 30
0.0
  0
LINE
  5
E2
330
1F
100
AcDbEntity
  8
Make2D$Visible$Curves
 62
    18
420
        0
370
    -3
100
AcDbLine
 10
15.96000070796562
 20
17.64015474908949
 30
0.0
 11
-15.96000070738616
 21
17.64016168876278
 31
0.0
  0
SPLINE
  5
E3
330
1F
100
AcDbEntity
  8
Make2D$Visible$Curves
 62
    18
420
        0
370
    -3
100
AcDbSpline
210
0.0
220
0.0
230
1.0
 70
     8
 71
     2
 72
    28
 73
    25
 74
     0
 42
0.000000001
 43
0.0000000001
 40
54.92000141477534
 40
54.92000141477534
 40
54.92000141477534
 40
55.92000141477534
 40
56.92000141477534
 40
57.92000141477534
 40
58.92000141477534
 40
59.92000141477534
 40
60.92000141477534
 40
61.92000141477534
 40
62.92000141477534
 40
63.92000141477534
 40
64.92000141477534
 40
65.92000141477534
 40
66.92000141477534
 40
67.92000141477534
 40
68.92000141477534
 40
69.92000141477534
 40
70.92000141477534
 40
71.92000141477534
 40
72.92000141477534
 40
73.92000141477534
 40
74.92000141477534
 40
75.92000141477534
 40
76.92000141477534
 40
77.92000141477534
 40
77.92000141477534
 40
77.92000141477534
 10
-15.96000070738616
 20
17.64016168876278
 30
0.0
 10
-16.32945006215591
 20
17.64021708314852
 30
0.0
 10
-17.06834800421617
 20
17.63934022396001
 30
0.0
 10
-17.80724210845555
 20
17.63669807571
 30
0.0
 10
-18.54612340249132
 20
17.63154313716061
 30
0.0
 10
-19.2849755909263
 20
17.62317369654398
 30
0.0
 10
-20.02377727179605
 20
17.61107289705654
 30
0.0
 10
-20.76247703548931
 20
17.59377040654
 30
0.0
 10
-21.5009898990429
 20
17.56971296300145
 30
0.0
 10
-22.2391967310777
 20
17.53757863130382
 30
0.0
 10
-22.97697230835288
 20
17.49666928418717
 30
0.0
 10
-23.71408981545282
 20
17.44510512078056
 30
0.0
 10
-24.45072816486496
 20
17.388578395991
 30
0.0
 10
-25.1848724493834
 20
17.2930819167845
 30
0.0
 10
-25.87564957623389
 20
17.00139587719198
 30
0.0
 10
-26.33300383595205
 20
16.39204413797103
 30
0.0
 10
-26.29650612597897
 20
15.63098099031195
 30
0.0
 10
-25.92532925010075
 20
14.98220973835673
 30
0.0
 10
-25.39101139410717
 20
14.4667260974838
 30
0.0
 10
-24.76968050653899
 20
14.06417232156914
 30
0.0
 10
-24.09706226787124
 20
13.75639857685693
 30
0.0
 10
-23.39824323443757
 20
13.51348523165614
 30
0.0
 10
-22.67555728348755
 20
13.35693719592013
 30
0.0
 10
-21.94024846713312
 20
13.2789631274231
 30
0.0
 10
-21.57152977566119
 20
13.25591972756981
 30
0.0
  0
SPLINE
  5
E4
330
1F
100
AcDbEntity
  8
Make2D$Visible$Curves
 62
    18
420
        0
370
    -3
100
AcDbSpline
210
0.0
220
0.0
230
1.0
 70
     8
 71
     2
 72
     9
 73
     6
 74
     0
 42
0.000000001
 43
0.0000000001
 40
77.92000141477534
 40
77.92000141477534
 40
77.92000141477534
 40
78.92000141477534
 40
79.92000141477534
 40
80.92000141477534
 40
81.92000141477534
 40
81.92000141477534
 40
81.92000141477534
 10
-21.57152977566119
 20
13.25591972756981
 30
0.0
 10
-20.87063342587916
 20
13.21846330601059
 30
0.0
 10
-19.46814647219445
 20
13.15796135432839
 30
0.0
 10
-18.06529137689655
 20
13.10681888892636
 30
0.0
 10
-16.66194258588368
 20
13.07024796679474
 30
0.0
 10
-15.96001112886091
 20
13.06960283192295
 30
0.0
  0
LINE
  5
E5
330
1F
100
AcDbEntity
  8
Make2D$Visible$Curves
 62
    18
420
        0
370
    -3
100
AcDbLine
 10
-15.96001112886091
 20
13.06960283192295
 30
0.0
 11
15.96001112886091
 21
13.06960283192295
 31
0.0
  0
LINE
  5
E6
330
1F
100
AcDbEntity
  8
Make2D$Visible$Curves
 62
    18
420
        0
370
    -3
100
AcDbLine
 10
-26.21578135148013
 20
0.0607845842426245
 30
0.0
 11
-26.22169530821785
 21
0.2500000000000009
 31
0.0
  0
LINE
  5
E7
330
1F
100
AcDbEntity
  8
Make2D$Visible$Curves
 62
    18
420
        0
370
    -3
100
AcDbLine
 10
-26.22169530821785
 20
0.2500000000000009
 30
0.0
 11
-25.3466953082179
 21
0.2500000000000009
 31
0.0
  0
LINE
  5
E8
330
1F
100
AcDbEntity
  8
Make2D$Visible$Curves
 62
    18
420
        0
370
    -3
100
AcDbLine
 10
-25.3466953082179
 20
0.2500000000000009
 30
0.0
 11
-25.35264451112809
 21
0.0600836941051875
 31
0.0
  0
SPLINE
  5
E9
330
1F
100
AcDbEntity
  8
Make2D$Visible$Curves
 62
    18
420
        0
370
    -3
100
AcDbSpline
210
0.0
220
0.0
230
1.0
 70
     8
 71
     3
 72
     9
 73
     5
 74
     0
 42
0.000000001
 43
0.0000000001
 40
7.737250991575596
 40
7.737250991575596
 40
7.737250991575596
 40
7.737250991575596
 40
8.737250991575596
 40
9.737250991575596
 40
9.737250991575596
 40
9.737250991575596
 40
9.737250991575596
 10
-25.35264451112809
 20
0.0600836941051875
 30
0.0
 10
-25.35364502558235
 20
0.0435809951469155
 30
0.0
 10
-25.36770273374395
 20
0.0115276156554
 30
0.0
 10
-25.40015739448268
 20
0.00219741088637
 30
0.0
 10
-25.41556981243008
 20
0.0
 30
0.0
  0
LINE
  5
EA
330
1F
100
AcDbEntity
  8
Make2D$Visible$Curves
 62
    18
420
        0
370
    -3
100
AcDbLine
 10
-25.41556981243008
 20
0.0
 30
0.0
 11
-26.15282080400567
 21
0.0
 31
0.0
  0
SPLINE
  5
EB
330
1F
100
AcDbEntity
  8
Make2D$Visible$Curves
 62
    18
420
        0
370
    -3
100
AcDbSpline
210
0.0
220
0.0
230
1.0
 70
     8
 71
     3
 72
     9
 73
     5
 74
     0
 42
0.000000001
 43
0.0000000001
 40
10.47450198315119
 40
10.47450198315119
 40
10.47450198315119
 40
10.47450198315119
 40
11.47450198315119
 40
12.47450198315119
 40
12.47450198315119
 40
12.47450198315119
 40
12.47450198315119
 10
-26.15282080400567
 20
0.0
 30
0.0
 10
-26.16847309175544
 20
0.0021765459964815
 30
0.0
 10
-26.20137322556933
 20
0.0119332356678441
 30
0.0
 10
-26.21516505967777
 20
0.0447294479892242
 30
0.0
 10
-26.21578135148013
 20
0.0607845842426245
 30
0.0
  0
LINE
  5
EC
330
1F
100
AcDbEntity
  8
Make2D$Visible$Curves
 62
    18
420
        0
370
    -3
100
AcDbLine
 10
-22.92555733843363
 20
0.0607845842426245
 30
0.0
 11
-22.93147129517134
 21
0.2500000000000009
 31
0.0
  0
LINE
  5
ED
330
1F
100
AcDbEntity
  8
Make2D$Visible$Curves
 62
    18
420
        0
370
    -3
100
AcDbLine
 10
-22.93147129517134
 20
0.2500000000000009
 30
0.0
 11
-22.0564712951714
 21
0.2500000000000009
 31
0.0
  0
LINE
  5
EE
330
1F
100
AcDbEntity
  8
Make2D$Visible$Curves
 62
    18
420
        0
370
    -3
100
AcDbLine
 10
-22.0564712951714
 20
0.2500000000000009
 30
0.0
 11
-22.06242049808159
 21
0.0600836941051875
 31
0.0
  0
SPLINE
  5
EF
330
1F
100
AcDbEntity
  8
Make2D$Visible$Curves
 62
    18
420
        0
370
    -3
100
AcDbSpline
210
0.0
220
0.0
230
1.0
 70
     8
 71
     3
 72
     9
 73
     5
 74
     0
 42
0.000000001
 43
0.0000000001
 40
7.737250991575596
 40
7.737250991575596
 40
7.737250991575596
 40
7.737250991575596
 40
8.737250991575596
 40
9.737250991575596
 40
9.737250991575596
 40
9.737250991575596
 40
9.737250991575596
 10
-22.06242049808159
 20
0.0600836941051875
 30
0.0
 10
-22.06342101253585
 20
0.0435809951469155
 30
0.0
 10
-22.07747872069745
 20
0.0115276156554
 30
0.0
 10
-22.10993338143617
 20
0.00219741088637
 30
0.0
 10
-22.12534579938357
 20
0.0
 30
0.0
  0
LINE
  5
F0
330
1F
100
AcDbEntity
  8
Make2D$Visible$Curves
 62
    18
420
        0
370
    -3
100
AcDbLine
 10
-22.12534579938357
 20
0.0
 30
0.0
 11
-22.86259679095917
 21
0.0
 31
0.0
  0
SPLINE
  5
F1
330
1F
100
AcDbEntity
  8
Make2D$Visible$Curves
 62
    18
420
        0
370
    -3
100
AcDbSpline
210
0.0
220
0.0
230
1.0
 70
     8
 71
     3
 72
     9
 73
     5
 74
     0
 42
0.000000001
 43
0.0000000001
 40
10.47450198315119
 40
10.47450198315119
 40
10.47450198315119
 40
10.47450198315119
 40
11.47450198315119
 40
12.47450198315119
 40
12.47450198315119
 40
12.47450198315119
 40
12.47450198315119
 10
-22.86259679095917
 20
0.0
 30
0.0
 10
-22.87824907870894
 20
0.0021765459964815
 30
0.0
 10
-22.91114921252282
 20
0.0119332356678441
 30
0.0
 10
-22.92494104663127
 20
0.0447294479892242
 30
0.0
 10
-22.92555733843363
 20
0.0607845842426245
 30
0.0
  0
SPLINE
  5
F2
330
1F
100
AcDbEntity
  8
Make2D$Visible$Curves
 62
    18
420
        0
370
    -3
100
AcDbSpline
210
0.0
220
0.0
230
1.0
 70
    15
 71
     3
 72
    38
 73
    34
 74
     0
 42
0.000000001
 43
0.0000000001
 40
-9.0
 40
-9.0
 40
-9.0
 40
-9.0
 40
-8.0
 40
-8.0
 40
-7.0
 40
-7.0
 40
-6.0
 40
-6.0
 40
-5.0
 40
-5.0
 40
-5.0
 40
-4.0
 40
-4.0
 40
-4.0
 40
-3.0
 40
-3.0
 40
-2.0
 40
-2.0
 40
-1.0
 40
-1.0
 40
0.0
 40
0.0
 40
0.0
 40
0.0996395820028644
 40
0.0996395820028644
 40
0.0996395820028644
 40
0.1992791640057288
 40
0.1992791640057288
 40
0.1992791640057288
 40
1.080981797490294
 40
1.080981797490294
 40
1.080981797490294
 40
2.080981797490294
 40
2.080981797490294
 40
2.080981797490294
 40
2.080981797490294
 10
-25.23479553147869
 20
0.3515176362717379
 30
0.0
 41
1.0
 10
-25.05583252299617
 20
1.246135392670955
 30
0.0
 41
1.0
 10
-24.90164758833743
 20
2.134299304487251
 30
0.0
 41
1.0
 10
-24.64036800154234
 20
3.91867929251808
 30
0.0
 41
1.0
 10
-24.51584918596991
 20
4.811660767733823
 30
0.0
 41
1.0
 10
-24.27905351047528
 20
6.599206680565968
 30
0.0
 41
1.0
 10
-24.16364551882401
 20
7.493371148064598
 30
0.0
 41
1.0
 10
-23.93880922771355
 20
9.282483105226978
 30
0.0
 41
1.0
 10
-23.82837378002802
 20
10.17728184395324
 30
0.0
 41
1.0
 10
-23.71992103021218
 20
11.07232334282459
 30
0.0
 41
1.0
 10
-23.70193367655667
 20
11.22076981378904
 30
0.0
 41
1.0
 10
-25.19899343405749
 20
11.97303935304902
 30
0.0
 41
1.0
 10
-25.21651492910418
 20
11.82723735585316
 30
0.0
 41
1.0
 10
-25.3308323689549
 20
10.87596516132071
 30
0.0
 41
1.0
 10
-25.44272326699613
 20
9.924405128616439
 30
0.0
 41
1.0
 10
-25.66165197945959
 20
8.02070938686428
 30
0.0
 41
1.0
 10
-25.76880820841543
 20
7.068614252988941
 30
0.0
 41
1.0
 10
-25.97850441177531
 20
5.163929459239749
 30
0.0
 41
1.0
 10
-26.07626814548184
 20
4.210754076184357
 30
0.0
 41
1.0
 10
-26.25762687694809
 20
2.302737337711989
 30
0.0
 41
1.0
 10
-26.31965039639524
 20
1.346816087560731
 30
0.0
 41
1.0
 10
-26.35425100211901
 20
0.3785020297123635
 30
0.0
 41
1.0
 10
-26.35504731231142
 20
0.3443534075652089
 30
0.0
 41
0.9477476326523552
 10
-26.34254314647621
 20
0.3125838811906569
 30
0.0
 41
0.9477476326523552
 10
-26.31869862141318
 20
0.2881735494764587
 30
0.0
 41
1.0
 10
-26.29485409635014
 20
0.2637632177622616
 30
0.0
 41
0.9477476326523552
 10
-26.26340517940515
 20
0.2505200733634676
 30
0.0
 41
0.9477476326523552
 10
-26.22928171166091
 20
0.2505200732179677
 30
0.0
 41
1.0
 10
-25.93538083383272
 20
0.2505200732179677
 30
0.0
 41
1.0
 10
-25.64147995600453
 20
0.2505200732179677
 30
0.0
 41
1.0
 10
-25.34757907817634
 20
0.2505200732179677
 30
0.0
 41
1.0
 10
-25.2854160924752
 20
0.2505200732179677
 30
0.0
 41
1.0
 10
-25.24746101507953
 20
0.2885117937099703
 30
0.0
 41
1.0
 10
-25.23479553147869
 20
0.3515176362717379
 30
0.0
 41
1.0
  0
LINE
  5
F3
330
1F
100
AcDbEntity
  8
Make2D$Visible$Curves
 62
    18
420
        0
370
    -3
100
AcDbLine
 10
22.92555733843363
 20
0.0607845842426245
 30
0.0
 11
22.93147129517134
 21
0.2500000000000009
 31
0.0
  0
LINE
  5
F4
330
1F
100
AcDbEntity
  8
Make2D$Visible$Curves
 62
    18
420
        0
370
    -3
100
AcDbLine
 10
22.93147129517134
 20
0.2500000000000009
 30
0.0
 11
22.0564712951714
 21
0.2500000000000009
 31
0.0
  0
LINE
  5
F5
330
1F
100
AcDbEntity
  8
Make2D$Visible$Curves
 62
    18
420
        0
370
    -3
100
AcDbLine
 10
22.0564712951714
 20
0.2500000000000009
 30
0.0
 11
22.06242049808159
 21
0.0600836941051875
 31
0.0
  0
SPLINE
  5
F6
330
1F
100
AcDbEntity
  8
Make2D$Visible$Curves
 62
    18
420
        0
370
    -3
100
AcDbSpline
210
0.0
220
0.0
230
1.0
 70
     8
 71
     3
 72
     9
 73
     5
 74
     0
 42
0.000000001
 43
0.0000000001
 40
7.737250991575596
 40
7.737250991575596
 40
7.737250991575596
 40
7.737250991575596
 40
8.737250991575596
 40
9.737250991575596
 40
9.737250991575596
 40
9.737250991575596
 40
9.737250991575596
 10
22.06242049808159
 20
0.0600836941051875
 30
0.0
 10
22.06342101253585
 20
0.0435809951469155
 30
0.0
 10
22.07747872069745
 20
0.0115276156554
 30
0.0
 10
22.10993338143617
 20
0.00219741088637
 30
0.0
 10
22.12534579938357
 20
0.0
 30
0.0
  0
LINE
  5
F7
330
1F
100
AcDbEntity
  8
Make2D$Visible$Curves
 62
    18
420
        0
370
    -3
100
AcDbLine
 10
22.12534579938357
 20
0.0
 30
0.0
 11
22.86259679095917
 21
0.0
 31
0.0
  0
SPLINE
  5
F8
330
1F
100
AcDbEntity
  8
Make2D$Visible$Curves
 62
    18
420
        0
370
    -3
100
AcDbSpline
210
0.0
220
0.0
230
1.0
 70
     8
 71
     3
 72
     9
 73
     5
 74
     0
 42
0.000000001
 43
0.0000000001
 40
10.47450198315119
 40
10.47450198315119
 40
10.47450198315119
 40
10.47450198315119
 40
11.47450198315119
 40
12.47450198315119
 40
12.47450198315119
 40
12.47450198315119
 40
12.47450198315119
 10
22.86259679095917
 20
0.0
 30
0.0
 10
22.87824907870894
 20
0.0021765459964815
 30
0.0
 10
22.91114921252282
 20
0.0119332356678441
 30
0.0
 10
22.92494104663127
 20
0.0447294479892242
 30
0.0
 10
22.92555733843363
 20
0.0607845842426245
 30
0.0
  0
SPLINE
  5
F9
330
1F
100
AcDbEntity
  8
Make2D$Visible$Curves
 62
    18
420
        0
370
    -3
100
AcDbSpline
210
0.0
220
0.0
230
1.0
 70
    15
 71
     3
 72
    38
 73
    34
 74
     0
 42
0.000000001
 43
0.0000000001
 40
-9.0
 40
-9.0
 40
-9.0
 40
-9.0
 40
-8.0
 40
-8.0
 40
-7.0
 40
-7.0
 40
-6.0
 40
-6.0
 40
-5.0
 40
-5.0
 40
-5.0
 40
-4.0
 40
-4.0
 40
-4.0
 40
-3.0
 40
-3.0
 40
-2.0
 40
-2.0
 40
-1.0
 40
-1.0
 40
0.0
 40
0.0
 40
0.0
 40
0.0996395820028644
 40
0.0996395820028644
 40
0.0996395820028644
 40
0.1992791640057288
 40
0.1992791640057288
 40
0.1992791640057288
 40
1.080981797490294
 40
1.080981797490294
 40
1.080981797490294
 40
2.080981797490294
 40
2.080981797490294
 40
2.080981797490294
 40
2.080981797490294
 10
25.23479553147869
 20
0.3515176362717379
 30
0.0
 41
1.0
 10
25.05583252299617
 20
1.246135392670955
 30
0.0
 41
1.0
 10
24.90164758833743
 20
2.134299304487251
 30
0.0
 41
1.0
 10
24.64036800154234
 20
3.91867929251808
 30
0.0
 41
1.0
 10
24.51584918596991
 20
4.811660767733823
 30
0.0
 41
1.0
 10
24.27905351047528
 20
6.599206680565968
 30
0.0
 41
1.0
 10
24.16364551882401
 20
7.493371148064598
 30
0.0
 41
1.0
 10
23.93880922771355
 20
9.282483105226978
 30
0.0
 41
1.0
 10
23.82837378002802
 20
10.17728184395324
 30
0.0
 41
1.0
 10
23.71992103021218
 20
11.07232334282459
 30
0.0
 41
1.0
 10
23.70193367655667
 20
11.22076981378904
 30
0.0
 41
1.0
 10
25.19899343405749
 20
11.97303935304902
 30
0.0
 41
1.0
 10
25.21651492910418
 20
11.82723735585316
 30
0.0
 41
1.0
 10
25.3308323689549
 20
10.87596516132071
 30
0.0
 41
1.0
 10
25.44272326699613
 20
9.924405128616439
 30
0.0
 41
1.0
 10
25.66165197945959
 20
8.02070938686428
 30
0.0
 41
1.0
 10
25.76880820841543
 20
7.068614252988941
 30
0.0
 41
1.0
 10
25.97850441177531
 20
5.163929459239749
 30
0.0
 41
1.0
 10
26.07626814548184
 20
4.210754076184357
 30
0.0
 41
1.0
 10
26.25762687694809
 20
2.302737337711989
 30
0.0
 41
1.0
 10
26.31965039639524
 20
1.346816087560731
 30
0.0
 41
1.0
 10
26.35425100211901
 20
0.3785020297123635
 30
0.0
 41
1.0
 10
26.35504731231142
 20
0.3443534075652089
 30
0.0
 41
0.9477476326523552
 10
26.34254314647621
 20
0.3125838811906569
 30
0.0
 41
0.9477476326523552
 10
26.31869862141318
 20
0.2881735494764587
 30
0.0
 41
1.0
 10
26.29485409635014
 20
0.2637632177622616
 30
0.0
 41
0.9477476326523552
 10
26.26340517940515
 20
0.2505200733634676
 30
0.0
 41
0.9477476326523552
 10
26.22928171166091
 20
0.2505200732179677
 30
0.0
 41
1.0
 10
25.93538083383272
 20
0.2505200732179677
 30
0.0
 41
1.0
 10
25.64147995600453
 20
0.2505200732179677
 30
0.0
 41
1.0
 10
25.34757907817634
 20
0.2505200732179677
 30
0.0
 41
1.0
 10
25.2854160924752
 20
0.2505200732179677
 30
0.0
 41
1.0
 10
25.24746101507953
 20
0.2885117937099703
 30
0.0
 41
1.0
 10
25.23479553147869
 20
0.3515176362717379
 30
0.0
 41
1.0
  0
SPLINE
  5
FA
330
1F
100
AcDbEntity
  8
Make2D$Visible$Curves
 62
    18
420
        0
370
    -3
100
AcDbSpline
210
0.0
220
0.0
230
1.0
 70
    24
 71
     2
 72
     6
 73
     3
 74
     0
 42
0.000000001
 43
0.0000000001
 40
-2.674705818906331
 40
-2.674705818906331
 40
-2.674705818906331
 40
0.0
 40
0.0
 40
0.0
 10
-20.22800070680833
 20
10.53212335571
 30
0.0
 10
-20.22800070680833
 20
9.198663135000002
 30
0.0
 10
-20.22800070680833
 20
7.865202914290003
 30
0.0
  0
SPLINE
  5
FB
330
1F
100
AcDbEntity
  8
Make2D$Visible$Curves
 62
    18
420
        0
370
    -3
100
AcDbSpline
210
0.0
220
0.0
230
1.0
 70
    24
 71
     2
 72
     6
 73
     3
 74
     0
 42
0.000000001
 43
0.0000000001
 40
-2.674705818906331
 40
-2.674705818906331
 40
-2.674705818906331
 40
0.0
 40
0.0
 40
0.0
 10
20.22799929319169
 20
7.865202914290003
 30
0.0
 10
20.22799929319169
 20
9.198663135000002
 30
0.0
 10
20.22799929319169
 20
10.53212335571
 30
0.0
  0
SPLINE
  5
FC
330
1F
100
AcDbEntity
  8
Make2D$Visible$Curves
 62
    18
420
        0
370
    -3
100
AcDbSpline
210
0.0
220
0.0
230
1.0
 70
    28
 71
     2
 72
     6
 73
     3
 74
     0
 42
0.000000001
 43
0.0000000001
 40
1.125300563379897
 40
1.125300563379897
 40
1.125300563379897
 40
4.122522049618125
 40
4.122522049618125
 40
4.122522049618125
 10
23.78695899446252
 20
10.51091588468295
 30
0.0
 41
0.9595683938100001
 10
22.72728117564393
 20
10.43011633096975
 30
0.0
 41
0.9595683938100001
 10
21.66760335682534
 20
10.34931677725655
 30
0.0
 41
0.9595683938100001
  0
ARC
  5
FD
330
1F
100
AcDbEntity
  8
Make2D$Visible$Curves
 62
    18
420
        0
370
    -3
100
AcDbCircle
 10
-22.00881499878828
 20
10.64594242100305
 30
0.0
 40
0.4521196270226162
210
0.0
220
0.0
230
-1.0
100
AcDbArc
 50
318.9985760229636
 51
345.4191761787094
  0
LINE
  5
FE
330
1F
100
AcDbEntity
  8
Make2D$Visible$Curves
 62
    18
420
        0
370
    -3
100
AcDbLine
 10
21.57125657124416
 20
10.53212335571
 30
0.0
 11
-21.57125657124416
 21
10.53212335571
 31
0.0
  0
ARC
  5
FF
330
1F
100
AcDbEntity
  8
Make2D$Visible$Curves
 62
    18
420
        0
370
    -3
100
AcDbCircle
 10
22.00881499878828
 20
10.64594242100305
 30
0.0
 40
0.4521196270226162
210
0.0
220
0.0
230
-1.0
100
AcDbArc
 50
194.5808238212906
 51
221.0014239770365
  0
SPLINE
  5
100
330
1F
100
AcDbEntity
  8
Make2D$Visible$Curves
 62
    18
420
        0
370
    -3
100
AcDbSpline
210
0.0
220
0.0
230
1.0
 70
    28
 71
     2
 72
     6
 73
     3
 74
     0
 42
0.000000001
 43
0.0000000001
 40
47.68305184982815
 40
47.68305184982815
 40
47.68305184982815
 40
50.68027333606638
 40
50.68027333606638
 40
50.68027333606638
 10
-21.66760335682534
 20
10.34931677725655
 30
0.0
 41
0.9595683938100001
 10
-22.72728117564393
 20
10.43011633096975
 30
0.0
 41
0.9595683938100001
 10
-23.78695899446252
 20
10.51091588468295
 30
0.0
 41
0.9595683938100001
  0
LINE
  5
101
330
1F
100
AcDbEntity
  8
Make2D$Visible$Curves
 62
    18
420
        0
370
    -3
100
AcDbLine
 10
-24.08046147510968
 20
8.155842352855363
 30
0.0
 11
-20.22787879169825
 21
7.865202914290003
 31
0.0
  0
LINE
  5
102
330
1F
100
AcDbEntity
  8
Make2D$Visible$Curves
 62
    18
420
        0
370
    -3
100
AcDbLine
 10
-20.22787879169825
 20
7.865202914290003
 30
0.0
 11
20.22800000000001
 21
7.865202914290003
 31
0.0
  0
LINE
  5
103
330
1F
100
AcDbEntity
  8
Make2D$Visible$Curves
 62
    18
420
        0
370
    -3
100
AcDbLine
 10
20.22800000000001
 20
7.865202914290003
 30
0.0
 11
24.08046147510968
 21
8.155842352855363
 31
0.0
  0
SPLINE
  5
104
330
1F
100
AcDbEntity
  8
Make2D$Visible$Curves
 62
    18
420
        0
370
    -3
100
AcDbSpline
210
0.0
220
0.0
230
1.0
 70
     8
 71
     2
 72
     9
 73
     6
 74
     0
 42
0.000000001
 43
0.0000000001
 40
0.0
 40
0.0
 40
0.0
 40
1.0
 40
2.0
 40
3.0
 40
4.0
 40
4.0
 40
4.0
 10
-20.45697955582003
 20
6.416608247198523
 30
0.0
 10
-20.62654982097626
 20
5.653240103659195
 30
0.0
 10
-20.97600604390182
 20
4.128830576147874
 30
0.0
 10
-21.33703565532097
 20
2.607119102336164
 30
0.0
 10
-21.72063862730959
 20
1.090848286653143
 30
0.0
 10
-21.94028072035529
 20
0.3402532136284844
 30
0.0
  0
SPLINE
  5
105
330
1F
100
AcDbEntity
  8
Make2D$Visible$Curves
 62
    18
420
        0
370
    -3
100
AcDbSpline
210
0.0
220
0.0
230
1.0
 70
     8
 71
     3
 72
     8
 73
     4
 74
     0
 42
0.000000001
 43
0.0000000001
 40
4.0
 40
4.0
 40
4.0
 40
4.0
 40
5.0
 40
5.0
 40
5.0
 40
5.0
 10
-21.94028072035529
 20
0.3402532136284844
 30
0.0
 10
-21.95680621599086
 20
0.2837797233637095
 30
0.0
 10
-21.99699448133279
 20
0.2500000000000009
 30
0.0
 10
-22.05467518865924
 20
0.2500000000000009
 30
0.0
  0
LINE
  5
106
330
1F
100
AcDbEntity
  8
Make2D$Visible$Curves
 62
    18
420
        0
370
    -3
100
AcDbLine
 10
-22.05467518865924
 20
0.2500000000000009
 30
0.0
 11
-22.93384545869694
 21
0.2500000000000009
 31
0.0
  0
SPLINE
  5
107
330
1F
100
AcDbEntity
  8
Make2D$Visible$Curves
 62
    18
420
        0
370
    -3
100
AcDbSpline
210
0.0
220
0.0
230
1.0
 70
     8
 71
     3
 72
     8
 73
     4
 74
     0
 42
0.000000001
 43
0.0000000001
 40
5.879170270037704
 40
5.879170270037704
 40
5.879170270037704
 40
5.879170270037704
 40
6.879170270037704
 40
6.879170270037704
 40
6.879170270037704
 40
6.879170270037704
 10
-22.93384545869694
 20
0.2500000000000009
 30
0.0
 10
-23.01867887436091
 20
0.2500000000000009
 30
0.0
 10
-23.05385201735923
 20
0.3013148977003214
 30
0.0
 10
-23.04531961419832
 20
0.3885380475837028
 30
0.0
  0
SPLINE
  5
108
330
1F
100
AcDbEntity
  8
Make2D$Visible$Curves
 62
    18
420
        0
370
    -3
100
AcDbSpline
210
0.0
220
0.0
230
1.0
 70
     8
 71
     2
 72
     9
 73
     6
 74
     0
 42
0.000000001
 43
0.0000000001
 40
6.879170270037704
 40
6.879170270037704
 40
6.879170270037704
 40
7.879170270037704
 40
8.879170270037704
 40
9.879170270037704
 40
10.8791702700377
 40
10.8791702700377
 40
10.8791702700377
 10
-23.04531961419832
 20
0.3885380475837028
 30
0.0
 10
-22.95313840097418
 20
1.330867614746413
 30
0.0
 10
-22.65214409574952
 20
3.200206755092606
 30
0.0
 10
-22.30385123527409
 20
5.060993285118071
 30
0.0
 10
-21.92406947661128
 20
6.915603430944115
 30
0.0
 10
-21.73015445950358
 20
7.842058297678094
 30
0.0
  0
SPLINE
  5
109
330
1F
100
AcDbEntity
  8
Make2D$Visible$Curves
 62
    18
420
        0
370
    -3
100
AcDbSpline
210
0.0
220
0.0
230
1.0
 70
     8
 71
     2
 72
     9
 73
     6
 74
     0
 42
0.000000001
 43
0.0000000001
 40
0.0
 40
0.0
 40
0.0
 40
1.0
 40
2.0
 40
3.0
 40
4.0
 40
4.0
 40
4.0
 10
20.45697955582003
 20
6.416608247198523
 30
0.0
 10
20.62654982097626
 20
5.653240103659195
 30
0.0
 10
20.97600604390182
 20
4.128830576147874
 30
0.0
 10
21.33703565532097
 20
2.607119102336164
 30
0.0
 10
21.72063862730959
 20
1.090848286653143
 30
0.0
 10
21.94028072035529
 20
0.3402532136284844
 30
0.0
  0
SPLINE
  5
10A
330
1F
100
AcDbEntity
  8
Make2D$Visible$Curves
 62
    18
420
        0
370
    -3
100
AcDbSpline
210
0.0
220
0.0
230
1.0
 70
     8
 71
     3
 72
     8
 73
     4
 74
     0
 42
0.000000001
 43
0.0000000001
 40
4.0
 40
4.0
 40
4.0
 40
4.0
 40
5.0
 40
5.0
 40
5.0
 40
5.0
 10
21.94028072035529
 20
0.3402532136284844
 30
0.0
 10
21.95680621599086
 20
0.2837797233637095
 30
0.0
 10
21.99699448133279
 20
0.2500000000000009
 30
0.0
 10
22.05467518865924
 20
0.2500000000000009
 30
0.0
  0
LINE
  5
10B
330
1F
100
AcDbEntity
  8
Make2D$Visible$Curves
 62
    18
420
        0
370
    -3
100
AcDbLine
 10
22.05467518865924
 20
0.2500000000000009
 30
0.0
 11
22.93384545869694
 21
0.2500000000000009
 31
0.0
  0
SPLINE
  5
10C
330
1F
100
AcDbEntity
  8
Make2D$Visible$Curves
 62
    18
420
        0
370
    -3
100
AcDbSpline
210
0.0
220
0.0
230
1.0
 70
     8
 71
     3
 72
     8
 73
     4
 74
     0
 42
0.000000001
 43
0.0000000001
 40
5.879170270037704
 40
5.879170270037704
 40
5.879170270037704
 40
5.879170270037704
 40
6.879170270037704
 40
6.879170270037704
 40
6.879170270037704
 40
6.879170270037704
 10
22.93384545869694
 20
0.2500000000000009
 30
0.0
 10
23.01867887436091
 20
0.2500000000000009
 30
0.0
 10
23.05385201735923
 20
0.3013148977003214
 30
0.0
 10
23.04531961419832
 20
0.3885380475837028
 30
0.0
  0
SPLINE
  5
10D
330
1F
100
AcDbEntity
  8
Make2D$Visible$Curves
 62
    18
420
        0
370
    -3
100
AcDbSpline
210
0.0
220
0.0
230
1.0
 70
     8
 71
     2
 72
     9
 73
     6
 74
     0
 42
0.000000001
 43
0.0000000001
 40
6.879170270037704
 40
6.879170270037704
 40
6.879170270037704
 40
7.879170270037704
 40
8.879170270037704
 40
9.879170270037704
 40
10.8791702700377
 40
10.8791702700377
 40
10.8791702700377
 10
23.04531961419832
 20
0.3885380475837028
 30
0.0
 10
22.95313840097418
 20
1.330867614746413
 30
0.0
 10
22.65214409574952
 20
3.200206755092606
 30
0.0
 10
22.30385123527409
 20
5.060993285118071
 30
0.0
 10
21.92406947661128
 20
6.915603430944115
 30
0.0
 10
21.73015445950358
 20
7.842058297678094
 30
0.0
  0
LINE
  5
10E
330
1F
100
AcDbEntity
  8
Layer 01
100
AcDbLine
 10
-20.22787879169825
 20
7.865202914290003
 30
0.0
 11
-10.70386506013833
 21
7.135912494538003
 31
0.0
  0
LINE
  5
10F
330
1F
100
AcDbEntity
  8
Make2D$Visible$Curves
 62
    18
420
        0
370
    -3
100
AcDbLine
 10
-10.70386506013833
 20
7.135912494538003
 30
0.0
 11
-10.70386506013833
 21
7.865202914290004
 31
0.0
  0
LINE
  5
110
330
1F
100
AcDbEntity
  8
Layer 01
100
AcDbLine
 10
-15.20537085429832
 20
7.135912494538002
 30
0.0
 11
15.20537085429832
 21
7.135912494538002
 31
0.0
  0
LINE
  5
111
330
1F
100
AcDbEntity
  8
Make2D$Visible$Curves
 62
    18
420
        0
370
    -3
100
AcDbLine
 10
-12.46975902665832
 20
7.135960835889002
 30
0.0
 11
-24.09731277550901
 21
8.02255215355125
 31
0.0
  0
LINE
  5
112
330
1F
100
AcDbEntity
  8
Make2D$Visible$Curves
 62
    18
420
        0
370
    -3
100
AcDbLine
 10
12.46975902665832
 20
7.135960835889002
 30
0.0
 11
24.09731277550901
 21
8.02255215355125
 31
0.0
  0
LINE
  5
113
330
1F
100
AcDbEntity
  8
Layer 01
100
AcDbLine
 10
-20.45697955582003
 20
6.416608247198523
 30
0.0
 11
-14.27587897049833
 21
7.273375581910003
 31
0.0
  0
LINE
  5
114
330
1F
100
AcDbEntity
  8
Layer 01
100
AcDbLine
 10
-15.19476703222293
 20
7.343740433427519
 30
0.0
 11
-21.54732217364833
 21
6.462486159639003
 31
0.0
  0
LINE
  5
115
330
1F
100
AcDbEntity
  8
Layer 01
100
AcDbLine
 10
-17.01125532087163
 20
7.091749221699246
 30
0.0
 11
-17.01125532087163
 21
7.481492395931192
 31
0.0
  0
LINE
  5
116
330
1F
100
AcDbEntity
  8
Make2D$Visible$Curves
 62
    18
420
        0
370
    -3
100
AcDbLine
 10
-17.98015994439089
 20
6.957338528464678
 30
0.0
 11
-20.06780825739678
 21
7.715305780203614
 31
0.0
  0
LINE
  5
117
330
1F
100
AcDbEntity
  8
Make2D$Visible$Curves
 62
    18
420
        0
370
    -3
100
AcDbLine
 10
-18.37271089679713
 20
7.58605601409108
 30
0.0
 11
-17.01125532087163
 21
7.091749221699246
 31
0.0
  0
SPLINE
  5
118
330
1F
100
AcDbEntity
  8
Make2D$Visible$Curves
 62
    18
420
        0
370
    -3
100
AcDbSpline
210
0.0
220
0.0
230
1.0
 70
     8
 71
     3
 72
    10
 73
     6
 74
     0
 42
0.000000001
 43
0.0000000001
 40
-2.085002241906396
 40
-2.085002241906396
 40
-2.085002241906396
 40
-2.085002241906396
 40
-1.390001494604334
 40
-0.6950007473020626
 40
-0.6664298082330579
 40
-0.6664298082330579
 40
-0.6664298082330579
 40
-0.6664298082330579
 10
21.59194274016832
 20
6.492119118061003
 30
0.0
 10
21.54654298992833
 20
6.703631345516003
 30
0.0
 10
21.45535026124833
 20
7.130338857916002
 30
0.0
 10
21.361362388031
 20
7.573242309668315
 30
0.0
 10
21.3131692433757
 20
7.80111745730694
 30
0.0
 10
21.31126589578828
 20
7.810118392545883
 30
0.0
  0
SPLINE
  5
119
330
1F
100
AcDbEntity
  8
Make2D$Visible$Curves
 62
    18
420
        0
370
    -3
100
AcDbSpline
210
0.0
220
0.0
230
1.0
 70
     8
 71
     3
 72
     9
 73
     5
 74
     0
 42
0.000000001
 43
0.0000000001
 40
-0.0568594578548247
 40
-0.0568594578548247
 40
-0.0568594578548247
 40
-0.0568594578548247
 40
-0.0284297289274123
 40
0.0
 40
0.0
 40
0.0
 40
0.0
 10
21.54732217364833
 20
6.462486159639003
 30
0.0
 10
21.55479960175832
 20
6.467702919567003
 30
0.0
 10
21.56971356317833
 20
6.477860881205003
 30
0.0
 10
21.58454677412833
 20
6.487461098969002
 30
0.0
 10
21.59194274016832
 20
6.492119118061003
 30
0.0
  0
LINE
  5
11A
330
1F
100
AcDbEntity
  8
Make2D$Visible$Curves
 62
    18
420
        0
370
    -3
100
AcDbLine
 10
12.46975902665832
 20
7.135960835889002
 30
0.0
 11
24.09731277550901
 21
8.02255215355125
 31
0.0
  0
LINE
  5
11B
330
1F
100
AcDbEntity
  8
Layer 01
100
AcDbLine
 10
20.45697955582003
 20
6.416608247198523
 30
0.0
 11
14.27587897049833
 21
7.273375581910003
 31
0.0
  0
LINE
  5
11C
330
1F
100
AcDbEntity
  8
Layer 01
100
AcDbLine
 10
15.19476703222293
 20
7.343740433427519
 30
0.0
 11
21.54732217364833
 21
6.462486159639003
 31
0.0
  0
LINE
  5
11D
330
1F
100
AcDbEntity
  8
Layer 01
100
AcDbLine
 10
17.01125532087163
 20
7.091749221699246
 30
0.0
 11
17.01125532087163
 21
7.481492395931192
 31
0.0
  0
LINE
  5
11E
330
1F
100
AcDbEntity
  8
Make2D$Visible$Curves
 62
    18
420
        0
370
    -3
100
AcDbLine
 10
17.98015994439089
 20
6.957338528464678
 30
0.0
 11
20.06780825739678
 21
7.715305780203614
 31
0.0
  0
LINE
  5
11F
330
1F
100
AcDbEntity
  8
Make2D$Visible$Curves
 62
    18
420
        0
370
    -3
100
AcDbLine
 10
18.37271089679713
 20
7.58605601409108
 30
0.0
 11
17.01125532087163
 21
7.091749221699246
 31
0.0
  0
LINE
  5
120
330
1F
100
AcDbEntity
  8
Make2D$Visible$Curves
 62
    18
420
        0
370
    -3
100
AcDbLine
 10
10.70386506013833
 20
7.135912494538003
 30
0.0
 11
10.70386506013833
 21
7.865202914290004
 31
0.0
  0
LINE
  5
121
330
1F
100
AcDbEntity
  8
Layer 01
100
AcDbLine
 10
20.22787879169825
 20
7.865202914290003
 30
0.0
 11
10.70386506013833
 21
7.135912494538003
 31
0.0
  0
SPLINE
  5
122
330
1F
100
AcDbEntity
  8
1
370
    -3
100
AcDbSpline
210
0.0
220
0.0
230
1.0
 70
     8
 71
     2
 72
    28
 73
    25
 74
     0
 42
0.000000001
 43
0.0000000001
 40
0.0
 40
0.0
 40
0.0
 40
1.0
 40
2.0
 40
3.0
 40
4.0
 40
5.0
 40
6.0
 40
7.0
 40
8.0
 40
9.0
 40
10.0
 40
11.0
 40
12.0
 40
13.0
 40
14.0
 40
15.0
 40
16.0
 40
17.0
 40
18.0
 40
19.0
 40
20.0
 40
21.0
 40
22.0
 40
23.0
 40
23.0
 40
23.0
 10
-27.08992165212612
 20
24.04334057781091
 30
0.0
 10
-26.76306947662003
 20
24.19908687911422
 30
0.0
 10
-26.55862073592118
 20
24.86539564375008
 30
0.0
 10
-26.52153576132294
 20
25.54070309779685
 30
0.0
 10
-26.51875424599612
 20
26.21780325474317
 30
0.0
 10
-26.54929042364455
 20
26.89407024387946
 30
0.0
 10
-26.59741436403931
 20
27.56925181612007
 30
0.0
 10
-26.65998566208495
 20
28.24324582618702
 30
0.0
 10
-26.72646600440707
 20
28.91684459276836
 30
0.0
 10
-26.7959257740913
 20
29.59014542329749
 30
0.0
 10
-26.86566269722442
 20
30.26341615467035
 30
0.0
 10
-26.93512822062429
 20
30.93671545043072
 30
0.0
 10
-27.00487583345354
 20
31.60998537646653
 30
0.0
 10
-27.07515333408247
 20
32.28320018068881
 30
0.0
 10
-27.14565427204732
 20
32.95639167372682
 30
0.0
 10
-27.21599593378455
 20
33.62960039133309
 30
0.0
 10
-27.28588426705124
 20
34.30285332451449
 30
0.0
 10
-27.35434318698337
 20
34.97626986879855
 30
0.0
 10
-27.42223469236856
 20
35.64964642327844
 30
0.0
 10
-27.47950341656546
 20
36.32464909306579
 30
0.0
 10
-27.4608318423996
 20
37.00051369618959
 30
0.0
 10
-27.38961040218581
 20
37.68144763573117
 30
0.0
 10
-26.99403632249107
 20
38.2605218838002
 30
0.0
 10
-26.29452749620495
 20
38.33959896538828
 30
0.0
 10
-25.95992165212613
 20
38.32082006505171
 30
0.0
  0
SPLINE
  5
123
330
1F
100
AcDbEntity
  8
1
370
    -3
100
AcDbSpline
210
0.0
220
0.0
230
1.0
 70
     8
 71
     2
 72
    28
 73
    25
 74
     0
 42
0.000000001
 43
0.0000000001
 40
0.0
 40
0.0
 40
0.0
 40
1.0
 40
2.0
 40
3.0
 40
4.0
 40
5.0
 40
6.0
 40
7.0
 40
8.0
 40
9.0
 40
10.0
 40
11.0
 40
12.0
 40
13.0
 40
14.0
 40
15.0
 40
16.0
 40
17.0
 40
18.0
 40
19.0
 40
20.0
 40
21.0
 40
22.0
 40
23.0
 40
23.0
 40
23.0
 10
27.08992165212612
 20
24.04334057781091
 30
0.0
 10
26.76306947662003
 20
24.19908687911422
 30
0.0
 10
26.55862073592118
 20
24.86539564375008
 30
0.0
 10
26.52153576132294
 20
25.54070309779685
 30
0.0
 10
26.51875424599612
 20
26.21780325474317
 30
0.0
 10
26.54929042364455
 20
26.89407024387946
 30
0.0
 10
26.59741436403931
 20
27.56925181612007
 30
0.0
 10
26.65998566208495
 20
28.24324582618702
 30
0.0
 10
26.72646600440707
 20
28.91684459276836
 30
0.0
 10
26.7959257740913
 20
29.59014542329749
 30
0.0
 10
26.86566269722442
 20
30.26341615467035
 30
0.0
 10
26.93512822062429
 20
30.93671545043072
 30
0.0
 10
27.00487583345354
 20
31.60998537646653
 30
0.0
 10
27.07515333408247
 20
32.28320018068881
 30
0.0
 10
27.14565427204732
 20
32.95639167372682
 30
0.0
 10
27.21599593378455
 20
33.62960039133309
 30
0.0
 10
27.28588426705124
 20
34.30285332451449
 30
0.0
 10
27.35434318698337
 20
34.97626986879855
 30
0.0
 10
27.42223469236856
 20
35.64964642327844
 30
0.0
 10
27.47950341656546
 20
36.32464909306579
 30
0.0
 10
27.4608318423996
 20
37.00051369618959
 30
0.0
 10
27.38961040218581
 20
37.68144763573117
 30
0.0
 10
26.99403632249107
 20
38.2605218838002
 30
0.0
 10
26.29452749620495
 20
38.33959896538828
 30
0.0
 10
25.95992165212613
 20
38.32082006505171
 30
0.0
  0
SPLINE
  5
124
330
1F
100
AcDbEntity
  8
1
370
    -3
100
AcDbSpline
210
0.0
220
0.0
230
1.0
 70
     8
 71
     2
 72
    28
 73
    25
 74
     0
 42
0.000000001
 43
0.0000000001
 40
-46.0
 40
-46.0
 40
-46.0
 40
-45.0
 40
-44.0
 40
-43.0
 40
-42.0
 40
-41.0
 40
-40.0
 40
-39.0
 40
-38.0
 40
-37.0
 40
-36.0
 40
-35.0
 40
-34.0
 40
-33.0
 40
-32.0
 40
-31.0
 40
-30.0
 40
-29.0
 40
-28.0
 40
-27.0
 40
-26.0
 40
-25.0
 40
-24.0
 40
0.0
 40
0.0
 40
0.0
 10
-29.23571610908613
 20
23.02871811639634
 30
0.0
 10
-29.68451302868446
 20
22.83286118390506
 30
0.0
 10
-29.72886504730751
 20
21.92329316756158
 30
0.0
 10
-29.54196735424499
 20
21.08274998186611
 30
0.0
 10
-29.24871429504304
 20
20.26696768804814
 30
0.0
 10
-28.9463023052807
 20
19.45667866375008
 30
0.0
 10
-28.61092216634327
 20
18.65898483440798
 30
0.0
 10
-28.24582695861869
 20
17.87455760764688
 30
0.0
 10
-27.85038568663713
 20
17.10491415593743
 30
0.0
 10
-27.41546221043534
 20
16.35665613629774
 30
0.0
 10
-26.91617538653122
 20
15.64905486162691
 30
0.0
 10
-26.331443398704
 20
15.00962252986091
 30
0.0
 10
-25.66012988832657
 20
14.46145319286998
 30
0.0
 10
-24.91723902663898
 20
14.01512886512401
 30
0.0
 10
-24.12003960175225
 20
13.67703799230297
 30
0.0
 10
-23.29603494937199
 20
13.40918215950853
 30
0.0
 10
-22.44313962782904
 20
13.2590835156713
 30
0.0
 10
-21.58024026119884
 20
13.19147912472631
 30
0.0
 10
-20.71600358117207
 20
13.15204715664172
 30
0.0
 10
-19.85159849525695
 20
13.11619156028618
 30
0.0
 10
-18.98702942558461
 20
13.08459849214792
 30
0.0
 10
-18.12235853038894
 20
13.05592521394102
 30
0.0
 10
-17.25754508575372
 20
13.03178951290401
 30
0.0
 10
-16.39250465329846
 20
13.0174282002584
 30
0.0
 10
-15.95992165212613
 20
13.01735331992609
 30
0.0
  0
LINE
  5
125
330
1F
100
AcDbEntity
  8
1
370
    -3
100
AcDbLine
 10
-15.95992165212613
 20
13.01735331992609
 30
0.0
 11
15.95992165212613
 21
13.01735331992609
 31
0.0
  0
SPLINE
  5
126
330
1F
100
AcDbEntity
  8
1
370
    -3
100
AcDbSpline
210
0.0
220
0.0
230
1.0
 70
     8
 71
     2
 72
    28
 73
    25
 74
     0
 42
0.000000001
 43
0.0000000001
 40
31.91984330425226
 40
31.91984330425226
 40
31.91984330425226
 40
55.91984330425225
 40
56.91984330425225
 40
57.91984330425225
 40
58.91984330425225
 40
59.91984330425225
 40
60.91984330425225
 40
61.91984330425225
 40
62.91984330425225
 40
63.91984330425225
 40
64.91984330425225
 40
65.91984330425225
 40
66.91984330425225
 40
67.91984330425225
 40
68.91984330425225
 40
69.91984330425225
 40
70.91984330425225
 40
71.91984330425225
 40
72.91984330425225
 40
73.91984330425225
 40
74.91984330425225
 40
75.91984330425225
 40
76.91984330425225
 40
77.91984330425225
 40
77.91984330425225
 40
77.91984330425225
 10
15.95992165212613
 20
13.01735331992609
 30
0.0
 10
16.39250465329846
 20
13.0174282002584
 30
0.0
 10
17.25754508575372
 20
13.03178951290401
 30
0.0
 10
18.12235853038894
 20
13.05592521394102
 30
0.0
 10
18.98702942558461
 20
13.08459849214792
 30
0.0
 10
19.85159849525695
 20
13.11619156028618
 30
0.0
 10
20.71600358117207
 20
13.15204715664172
 30
0.0
 10
21.58024026119884
 20
13.19147912472631
 30
0.0
 10
22.44313962782904
 20
13.2590835156713
 30
0.0
 10
23.29603494937199
 20
13.40918215950853
 30
0.0
 10
24.12003960175225
 20
13.67703799230297
 30
0.0
 10
24.91723902663898
 20
14.01512886512401
 30
0.0
 10
25.66012988832657
 20
14.46145319286998
 30
0.0
 10
26.331443398704
 20
15.00962252986091
 30
0.0
 10
26.91617538653122
 20
15.64905486162691
 30
0.0
 10
27.41546221043534
 20
16.35665613629774
 30
0.0
 10
27.85038568663713
 20
17.10491415593743
 30
0.0
 10
28.24582695861869
 20
17.87455760764688
 30
0.0
 10
28.61092216634327
 20
18.65898483440798
 30
0.0
 10
28.9463023052807
 20
19.45667866375008
 30
0.0
 10
29.24871429504304
 20
20.26696768804814
 30
0.0
 10
29.54196735424499
 20
21.08274998186611
 30
0.0
 10
29.72886504730751
 20
21.92329316756158
 30
0.0
 10
29.68451302868446
 20
22.83286118390506
 30
0.0
 10
29.23571610908613
 20
23.02871811639634
 30
0.0
  0
ENDSEC
  0
SECTION
  2
OBJECTS
  0
DICTIONARY
  5
C
330
0
100
AcDbDictionary
281
     1
  3
ACAD_DETAILVIEWSTYLE
350
162
  3
ACAD_GROUP
350
D
  3
ACAD_LAYOUT
350
1A
  3
ACAD_MATERIAL
350
43
  3
ACAD_MLEADERSTYLE
350
6B
  3
ACAD_MLINESTYLE
350
17
  3
ACAD_PLOTSETTINGS
350
19
  3
ACAD_PLOTSTYLENAME
350
E
  3
ACAD_SCALELIST
350
47
  3
ACAD_SECTIONVIEWSTYLE
350
163
  3
ACAD_TABLESTYLE
350
69
  3
ACAD_VISUALSTYLE
350
2A
  3
ACDB_RECOMPOSE_DATA
350
15F
  3
AcDbVariableDictionary
350
127
  0
SUN
  5
6D
330
29
100
AcDbSun
 90
        1
290
     0
 63
     7
421
 16777215
 40
1.0
291
     1
 91
  2455826
 92
 54000000
292
     0
 70
     2
 71
   256
280
     1
  0
DICTIONARY
  5
162
102
{ACAD_REACTORS
330
C
102
}
330
C
100
AcDbDictionary
281
     1
  0
DICTIONARY
  5
D
102
{ACAD_REACTORS
330
C
102
}
330
C
100
AcDbDictionary
281
     1
  0
DICTIONARY
  5
1A
102
{ACAD_REACTORS
330
C
102
}
330
C
100
AcDbDictionary
281
     1
  3
Layout1
350
1E
  3
Layout2
350
26
  3
Model
350
22
  0
DICTIONARY
  5
43
102
{ACAD_REACTORS
330
C
102
}
330
C
100
AcDbDictionary
281
     1
  3
ByBlock
350
45
  3
ByLayer
350
44
  3
Global
350
46
  0
DICTIONARY
  5
6B
102
{ACAD_REACTORS
330
C
102
}
330
C
100
AcDbDictionary
281
     1
  3
Standard
350
6C
  0
DICTIONARY
  5
17
102
{ACAD_REACTORS
330
C
102
}
330
C
100
AcDbDictionary
281
     1
  3
Standard
350
18
  0
DICTIONARY
  5
19
102
{ACAD_REACTORS
330
C
102
}
330
C
100
AcDbDictionary
281
     1
  0
ACDBDICTIONARYWDFLT
  5
E
102
{ACAD_REACTORS
330
C
102
}
330
C
100
AcDbDictionary
281
     1
  3
Normal
350
F
100
AcDbDictionaryWithDefault
340
F
  0
DICTIONARY
  5
47
102
{ACAD_REACTORS
330
C
102
}
330
C
100
AcDbDictionary
281
     1
  3
A0
350
48
  3
A1
350
49
  3
A2
350
4A
  3
A3
350
4B
  3
A4
350
4C
  3
A5
350
4D
  3
A6
350
4E
  3
A7
350
4F
  3
A8
350
50
  3
A9
350
51
  3
B0
350
52
  3
B1
350
53
  3
B2
350
54
  3
B3
350
55
  3
B4
350
56
  3
B5
350
57
  3
B6
350
58
  3
B7
350
59
  3
B8
350
5A
  3
B9
350
5B
  3
C0
350
5C
  3
C1
350
5D
  3
C2
350
5E
  3
C3
350
5F
  3
C4
350
60
  3
C5
350
61
  3
C6
350
62
  3
C7
350
63
  3
C8
350
64
  3
C9
350
65
  3
D0
350
66
  3
D1
350
67
  3
D2
350
68
  0
DICTIONARY
  5
163
102
{ACAD_REACTORS
330
C
102
}
330
C
100
AcDbDictionary
281
     1
  0
DICTIONARY
  5
69
102
{ACAD_REACTORS
330
C
102
}
330
C
100
AcDbDictionary
281
     1
  3
Standard
350
6A
  0
DICTIONARY
  5
2A
102
{ACAD_REACTORS
330
C
102
}
330
C
100
AcDbDictionary
281
     1
  3
2dWireframe
350
2F
  3
Basic
350
32
  3
Brighten
350
36
  3
ColorChange
350
3A
  3
Conceptual
350
34
  3
Dim
350
35
  3
EdgeColorOff
350
3D
  3
Facepattern
350
39
  3
Flat
350
2B
  3
FlatWithEdges
350
2C
  3
Gouraud
350
2D
  3
GouraudWithEdges
350
2E
  3
Hidden
350
31
  3
JitterOff
350
3B
  3
Linepattern
350
38
  3
OverhangOff
350
3C
  3
Realistic
350
33
  3
Shaded
350
42
  3
Shaded with edges
350
41
  3
Shades of Gray
350
3E
  3
Sketchy
350
3F
  3
Thicken
350
37
  3
Wireframe
350
30
  3
X-Ray
350
40
  0
XRECORD
  5
15F
102
{ACAD_REACTORS
330
C
102
}
330
C
100
AcDbXrecord
280
     1
 90
        1
330
6A
  0
DICTIONARY
  5
127
102
{ACAD_REACTORS
330
C
102
}
330
C
100
AcDbDictionary
281
     1
  3
CANNOSCALE
350
128
  3
CMLEADERSTYLE
350
161
  3
CTABLESTYLE
350
160
  3
XCLIPFRAME
350
129
  0
LAYOUT
  5
1E
102
{ACAD_REACTORS
330
1A
102
}
330
1A
100
AcDbPlotSettings
  1

  2
none_device
  4

  6

 40
0.0
 41
0.0
 42
0.0
 43
0.0
 44
0.0
 45
0.0
 46
0.0
 47
0.0
 48
0.0
 49
0.0
140
0.0
141
0.0
142
1.0
143
1.0
 70
   688
 72
     0
 73
     0
 74
     5
  7

 75
    16
 76
     0
 77
     2
 78
   300
147
1.0
148
0.0
149
0.0
100
AcDbLayout
  1
Layout1
 70
     1
 71
     1
 10
0.0
 20
0.0
 11
12.0
 21
9.0
 12
0.0
 22
0.0
 32
0.0
 14
1.000000000000000E+20
 24
1.000000000000000E+20
 34
1.000000000000000E+20
 15
-1.000000000000000E+20
 25
-1.000000000000000E+20
 35
-1.000000000000000E+20
146
0.0
 13
0.0
 23
0.0
 33
0.0
 16
1.0
 26
0.0
 36
0.0
 17
0.0
 27
1.0
 37
0.0
 76
     0
330
1B
  0
LAYOUT
  5
26
102
{ACAD_REACTORS
330
1A
102
}
330
1A
100
AcDbPlotSettings
  1

  2
none_device
  4

  6

 40
0.0
 41
0.0
 42
0.0
 43
0.0
 44
0.0
 45
0.0
 46
0.0
 47
0.0
 48
0.0
 49
0.0
140
0.0
141
0.0
142
1.0
143
1.0
 70
   688
 72
     0
 73
     0
 74
     5
  7

 75
    16
 76
     0
 77
     2
 78
   300
147
1.0
148
0.0
149
0.0
100
AcDbLayout
  1
Layout2
 70
     1
 71
     2
 10
0.0
 20
0.0
 11
0.0
 21
0.0
 12
0.0
 22
0.0
 32
0.0
 14
0.0
 24
0.0
 34
0.0
 15
0.0
 25
0.0
 35
0.0
146
0.0
 13
0.0
 23
0.0
 33
0.0
 16
1.0
 26
0.0
 36
0.0
 17
0.0
 27
1.0
 37
0.0
 76
     0
330
23
  0
LAYOUT
  5
22
102
{ACAD_REACTORS
330
1A
102
}
330
1A
100
AcDbPlotSettings
  1

  2
none_device
  4
Letter_(8.50_x_11.00_Inches)
  6

 40
6.35
 41
6.35
 42
6.35000508
 43
6.35000508
 44
215.9
 45
279.4
 46
0.0
 47
0.0
 48
0.0
 49
0.0
140
0.0
141
0.0
142
1.0
143
1.0
 70
  1712
 72
     0
 73
     0
 74
     0
  7

 75
     0
 76
     0
 77
     2
 78
   300
147
1.0
148
0.0
149
0.0
100
AcDbLayout
  1
Model
 70
     1
 71
     0
 10
0.0
 20
0.0
 11
12.0
 21
9.0
 12
0.0
 22
0.0
 32
0.0
 14
1.000000000000000E+20
 24
1.000000000000000E+20
 34
1.000000000000000E+20
 15
-1.000000000000000E+20
 25
-1.000000000000000E+20
 35
-1.000000000000000E+20
146
0.0
 13
0.0
 23
0.0
 33
0.0
 16
1.0
 26
0.0
 36
0.0
 17
0.0
 27
1.0
 37
0.0
 76
     0
330
1F
331
29
  0
MATERIAL
  5
45
102
{ACAD_REACTORS
330
43
102
}
330
43
100
AcDbMaterial
  1
ByBlock
 72
     1
 94
      127
  0
MATERIAL
  5
44
102
{ACAD_REACTORS
330
43
102
}
330
43
100
AcDbMaterial
  1
ByLayer
 72
     1
 94
      127
  0
MATERIAL
  5
46
102
{ACAD_REACTORS
330
43
102
}
330
43
100
AcDbMaterial
  1
Global
 72
     1
 94
      127
  0
MLEADERSTYLE
  5
6C
102
{ACAD_REACTORS
330
6B
102
}
102
{ACAD_XDICTIONARY
360
15D
102
}
330
6B
100
AcDbMLeaderStyle
170
     2
171
     1
172
     0
 90
        2
 40
0.0
 41
0.0
173
     1
 91
-1056964608
340
14
 92
       -2
290
     1
 42
0.09
291
     1
 43
0.36
  3
Standard
341
0
 44
0.18
300

342
11
174
     1
178
     6
175
     1
176
     0
 93
-1056964608
 45
0.18
292
     0
297
     0
 46
0.18
343
0
 94
-1056964608
 47
1.0
 49
1.0
140
1.0
293
     1
141
0.0
294
     1
177
     0
142
1.0
295
     0
296
     0
143
0.125
1001
ACAD_MLEADERVER
1070
     2
  0
MLINESTYLE
  5
18
102
{ACAD_REACTORS
330
17
102
}
330
17
100
AcDbMlineStyle
  2
Standard
 70
     0
  3

 62
   256
 51
90.0
 52
90.0
 71
     2
 49
0.5
 62
   256
  6
BYLAYER
 49
-0.5
 62
   256
  6
BYLAYER
  0
ACDBPLACEHOLDER
  5
F
102
{ACAD_REACTORS
330
E
102
}
330
E
  0
SCALE
  5
48
102
{ACAD_REACTORS
330
47
102
}
330
47
100
AcDbScale
 70
     0
300
1:1
140
1.0
141
1.0
290
     1
  0
SCALE
  5
49
102
{ACAD_REACTORS
330
47
102
}
330
47
100
AcDbScale
 70
     0
300
1:2
140
1.0
141
2.0
290
     0
  0
SCALE
  5
4A
102
{ACAD_REACTORS
330
47
102
}
330
47
100
AcDbScale
 70
     0
300
1:4
140
1.0
141
4.0
290
     0
  0
SCALE
  5
4B
102
{ACAD_REACTORS
330
47
102
}
330
47
100
AcDbScale
 70
     0
300
1:5
140
1.0
141
5.0
290
     0
  0
SCALE
  5
4C
102
{ACAD_REACTORS
330
47
102
}
330
47
100
AcDbScale
 70
     0
300
1:8
140
1.0
141
8.0
290
     0
  0
SCALE
  5
4D
102
{ACAD_REACTORS
330
47
102
}
330
47
100
AcDbScale
 70
     0
300
1:10
140
1.0
141
10.0
290
     0
  0
SCALE
  5
4E
102
{ACAD_REACTORS
330
47
102
}
330
47
100
AcDbScale
 70
     0
300
1:16
140
1.0
141
16.0
290
     0
  0
SCALE
  5
4F
102
{ACAD_REACTORS
330
47
102
}
330
47
100
AcDbScale
 70
     0
300
1:20
140
1.0
141
20.0
290
     0
  0
SCALE
  5
50
102
{ACAD_REACTORS
330
47
102
}
330
47
100
AcDbScale
 70
     0
300
1:30
140
1.0
141
30.0
290
     0
  0
SCALE
  5
51
102
{ACAD_REACTORS
330
47
102
}
330
47
100
AcDbScale
 70
     0
300
1:40
140
1.0
141
40.0
290
     0
  0
SCALE
  5
52
102
{ACAD_REACTORS
330
47
102
}
330
47
100
AcDbScale
 70
     0
300
1:50
140
1.0
141
50.0
290
     0
  0
SCALE
  5
53
102
{ACAD_REACTORS
330
47
102
}
330
47
100
AcDbScale
 70
     0
300
1:100
140
1.0
141
100.0
290
     0
  0
SCALE
  5
54
102
{ACAD_REACTORS
330
47
102
}
330
47
100
AcDbScale
 70
     0
300
2:1
140
2.0
141
1.0
290
     0
  0
SCALE
  5
55
102
{ACAD_REACTORS
330
47
102
}
330
47
100
AcDbScale
 70
     0
300
4:1
140
4.0
141
1.0
290
     0
  0
SCALE
  5
56
102
{ACAD_REACTORS
330
47
102
}
330
47
100
AcDbScale
 70
     0
300
8:1
140
8.0
141
1.0
290
     0
  0
SCALE
  5
57
102
{ACAD_REACTORS
330
47
102
}
330
47
100
AcDbScale
 70
     0
300
10:1
140
10.0
141
1.0
290
     0
  0
SCALE
  5
58
102
{ACAD_REACTORS
330
47
102
}
330
47
100
AcDbScale
 70
     0
300
100:1
140
100.0
141
1.0
290
     0
  0
SCALE
  5
59
102
{ACAD_REACTORS
330
47
102
}
330
47
100
AcDbScale
 70
     0
300
1/128" = 1'-0"
140
0.0078125
141
12.0
290
     0
  0
SCALE
  5
5A
102
{ACAD_REACTORS
330
47
102
}
330
47
100
AcDbScale
 70
     0
300
1/64" = 1'-0"
140
0.015625
141
12.0
290
     0
  0
SCALE
  5
5B
102
{ACAD_REACTORS
330
47
102
}
330
47
100
AcDbScale
 70
     0
300
1/32" = 1'-0"
140
0.03125
141
12.0
290
     0
  0
SCALE
  5
5C
102
{ACAD_REACTORS
330
47
102
}
330
47
100
AcDbScale
 70
     0
300
1/16" = 1'-0"
140
0.0625
141
12.0
290
     0
  0
SCALE
  5
5D
102
{ACAD_REACTORS
330
47
102
}
330
47
100
AcDbScale
 70
     0
300
3/32" = 1'-0"
140
0.09375
141
12.0
290
     0
  0
SCALE
  5
5E
102
{ACAD_REACTORS
330
47
102
}
330
47
100
AcDbScale
 70
     0
300
1/8" = 1'-0"
140
0.125
141
12.0
290
     0
  0
SCALE
  5
5F
102
{ACAD_REACTORS
330
47
102
}
330
47
100
AcDbScale
 70
     0
300
3/16" = 1'-0"
140
0.1875
141
12.0
290
     0
  0
SCALE
  5
60
102
{ACAD_REACTORS
330
47
102
}
330
47
100
AcDbScale
 70
     0
300
1/4" = 1'-0"
140
0.25
141
12.0
290
     0
  0
SCALE
  5
61
102
{ACAD_REACTORS
330
47
102
}
330
47
100
AcDbScale
 70
     0
300
3/8" = 1'-0"
140
0.375
141
12.0
290
     0
  0
SCALE
  5
62
102
{ACAD_REACTORS
330
47
102
}
330
47
100
AcDbScale
 70
     0
300
1/2" = 1'-0"
140
0.5
141
12.0
290
     0
  0
SCALE
  5
63
102
{ACAD_REACTORS
330
47
102
}
330
47
100
AcDbScale
 70
     0
300
3/4" = 1'-0"
140
0.75
141
12.0
290
     0
  0
SCALE
  5
64
102
{ACAD_REACTORS
330
47
102
}
330
47
100
AcDbScale
 70
     0
300
1" = 1'-0"
140
1.0
141
12.0
290
     0
  0
SCALE
  5
65
102
{ACAD_REACTORS
330
47
102
}
330
47
100
AcDbScale
 70
     0
300
1-1/2" = 1'-0"
140
1.5
141
12.0
290
     0
  0
SCALE
  5
66
102
{ACAD_REACTORS
330
47
102
}
330
47
100
AcDbScale
 70
     0
300
3" = 1'-0"
140
3.0
141
12.0
290
     0
  0
SCALE
  5
67
102
{ACAD_REACTORS
330
47
102
}
330
47
100
AcDbScale
 70
     0
300
6" = 1'-0"
140
6.0
141
12.0
290
     0
  0
SCALE
  5
68
102
{ACAD_REACTORS
330
47
102
}
330
47
100
AcDbScale
 70
     0
300
1'-0" = 1'-0"
140
12.0
141
12.0
290
     0
  0
TABLESTYLE
  5
6A
102
{ACAD_REACTORS
330
69
102
}
102
{ACAD_XDICTIONARY
360
15A
102
}
330
69
100
AcDbTableStyle
  3
Standard
 70
     0
 71
     0
 40
0.06
 41
0.06
280
     0
281
     0
  7
Standard
140
0.18
170
     2
 62
     0
 63
   257
283
     0
 90
        4
 91
        0
  1

274
    -2
284
     1
 64
     0
275
    -2
285
     1
 65
     0
276
    -2
286
     1
 66
     0
277
    -2
287
     1
 67
     0
278
    -2
288
     1
 68
     0
279
    -2
289
     1
 69
     0
  7
Standard
140
0.25
170
     5
 62
     0
 63
   257
283
     0
 90
        4
 91
        0
  1

274
    -2
284
     1
 64
     0
275
    -2
285
     1
 65
     0
276
    -2
286
     1
 66
     0
277
    -2
287
     1
 67
     0
278
    -2
288
     1
 68
     0
279
    -2
289
     1
 69
     0
  7
Standard
140
0.18
170
     5
 62
     0
 63
   257
283
     0
 90
        4
 91
        0
  1

274
    -2
284
     1
 64
     0
275
    -2
285
     1
 65
     0
276
    -2
286
     1
 66
     0
277
    -2
287
     1
 67
     0
278
    -2
288
     1
 68
     0
279
    -2
289
     1
 69
     0
  0
VISUALSTYLE
  5
2F
102
{ACAD_REACTORS
330
2A
102
}
102
{ACAD_XDICTIONARY
360
132
102
}
330
2A
100
AcDbVisualStyle
  2
2dWireframe
 70
     4
 71
     0
 72
     2
 73
     0
 90
        0
 40
0.6
 41
30.0
 62
     5
 63
     7
421
 16777215
 74
     1
 91
        4
 64
     7
 65
   257
 75
     1
175
     1
 42
1.0
 92
        0
 66
   257
 43
1.0
 76
     1
 77
     6
 78
     2
 67
     7
 79
     5
170
     0
171
     0
290
     0
174
     0
 93
        1
 44
0.0
173
     0
291
     0
 45
0.0
  0
VISUALSTYLE
  5
32
102
{ACAD_REACTORS
330
2A
102
}
102
{ACAD_XDICTIONARY
360
138
102
}
330
2A
100
AcDbVisualStyle
  2
Basic
 70
     7
 71
     1
 72
     0
 73
     1
 90
        0
 40
0.6
 41
30.0
 62
     5
 63
     7
421
 16777215
 74
     0
 91
        4
 64
     7
 65
   257
 75
     1
175
     1
 42
1.0
 92
        8
 66
     7
 43
1.0
 76
     1
 77
     6
 78
     2
 67
     7
 79
     5
170
     0
171
     0
290
     0
174
     0
 93
        1
 44
0.0
173
     0
291
     1
 45
0.0
  0
VISUALSTYLE
  5
36
102
{ACAD_REACTORS
330
2A
102
}
102
{ACAD_XDICTIONARY
360
140
102
}
330
2A
100
AcDbVisualStyle
  2
Brighten
 70
    12
 71
     2
 72
     2
 73
     0
 90
        0
 40
0.6
 41
30.0
 62
     5
 63
     7
421
 16777215
 74
     1
 91
        4
 64
     7
 65
   257
 75
     1
175
     1
 42
1.0
 92
        8
 66
     7
 43
1.0
 76
     1
 77
     6
 78
     2
 67
     7
 79
     5
170
     0
171
     0
290
     0
174
     0
 93
        1
 44
50.0
173
     0
291
     1
 45
0.0
  0
VISUALSTYLE
  5
3A
102
{ACAD_REACTORS
330
2A
102
}
102
{ACAD_XDICTIONARY
360
148
102
}
330
2A
100
AcDbVisualStyle
  2
ColorChange
 70
    16
 71
     2
 72
     2
 73
     3
 90
        0
 40
0.6
 41
30.0
 62
     5
 63
     8
421
  8421504
 74
     1
 91
        4
 64
     7
 65
   257
 75
     1
175
     1
 42
1.0
 92
        8
 66
     8
424
  8421504
 43
1.0
 76
     1
 77
     6
 78
     2
 67
     7
 79
     5
170
     0
171
     0
290
     0
174
     0
 93
        1
 44
0.0
173
     0
291
     1
 45
0.0
  0
VISUALSTYLE
  5
34
102
{ACAD_REACTORS
330
2A
102
}
102
{ACAD_XDICTIONARY
360
13C
102
}
330
2A
100
AcDbVisualStyle
  2
Conceptual
 70
     9
 71
     3
 72
     2
 73
     0
 90
        0
 40
0.6
 41
30.0
 62
     5
 63
     7
421
 16777215
 74
     2
 91
        2
 64
     7
 65
   257
 75
     1
175
     1
 42
179.0
 92
        8
 66
     7
 43
1.0
 76
     1
 77
     6
 78
     2
 67
     7
 79
     3
170
     0
171
     0
290
     0
174
     0
 93
        1
 44
0.0
173
     0
291
     0
 45
0.0
  0
VISUALSTYLE
  5
35
102
{ACAD_REACTORS
330
2A
102
}
102
{ACAD_XDICTIONARY
360
13E
102
}
330
2A
100
AcDbVisualStyle
  2
Dim
 70
    11
 71
     2
 72
     2
 73
     0
 90
        0
 40
0.6
 41
30.0
 62
     5
 63
     7
421
 16777215
 74
     1
 91
        4
 64
     7
 65
   257
 75
     1
175
     1
 42
1.0
 92
        8
 66
     7
 43
1.0
 76
     1
 77
     6
 78
     2
 67
     7
 79
     5
170
     0
171
     0
290
     0
174
     0
 93
        1
 44
-50.0
173
     0
291
     1
 45
0.0
  0
VISUALSTYLE
  5
3D
102
{ACAD_REACTORS
330
2A
102
}
102
{ACAD_XDICTIONARY
360
14E
102
}
330
2A
100
AcDbVisualStyle
  2
EdgeColorOff
 70
    22
 71
     2
 72
     2
 73
     0
 90
        0
 40
0.6
 41
30.0
 62
     5
 63
     7
421
 16777215
 74
     1
 91
        4
 64
     7
 65
   257
 75
     1
175
     1
 42
1.0
 92
        8
 66
     7
 43
1.0
 76
     1
 77
     6
 78
     2
 67
     7
 79
     5
170
     0
171
     0
290
     0
174
     0
 93
        1
 44
0.0
173
     0
291
     1
 45
0.0
  0
VISUALSTYLE
  5
39
102
{ACAD_REACTORS
330
2A
102
}
102
{ACAD_XDICTIONARY
360
146
102
}
330
2A
100
AcDbVisualStyle
  2
Facepattern
 70
    15
 71
     2
 72
     2
 73
     0
 90
        0
 40
0.6
 41
30.0
 62
     5
 63
     7
421
 16777215
 74
     1
 91
        4
 64
     7
 65
   257
 75
     1
175
     1
 42
1.0
 92
        8
 66
     7
 43
1.0
 76
     1
 77
     6
 78
     2
 67
     7
 79
     5
170
     0
171
     0
290
     0
174
     0
 93
        1
 44
0.0
173
     0
291
     1
 45
0.0
  0
VISUALSTYLE
  5
2B
102
{ACAD_REACTORS
330
2A
102
}
102
{ACAD_XDICTIONARY
360
12A
102
}
330
2A
100
AcDbVisualStyle
  2
Flat
 70
     0
 71
     2
 72
     1
 73
     1
 90
        2
 40
0.6
 41
30.0
 62
     5
 63
     7
421
 16777215
 74
     0
 91
        0
 64
     7
 65
   257
 75
     1
175
     1
 42
1.0
 92
        8
 66
     7
 43
1.0
 76
     1
 77
     6
 78
     2
 67
     7
 79
     5
170
     0
171
     0
290
     0
174
     0
 93
       13
 44
0.0
173
     0
291
     1
 45
0.0
  0
VISUALSTYLE
  5
2C
102
{ACAD_REACTORS
330
2A
102
}
102
{ACAD_XDICTIONARY
360
12C
102
}
330
2A
100
AcDbVisualStyle
  2
FlatWithEdges
 70
     1
 71
     2
 72
     1
 73
     1
 90
        2
 40
0.6
 41
30.0
 62
     5
 63
     7
421
 16777215
 74
     1
 91
        0
 64
     7
 65
   257
 75
     1
175
     1
 42
1.0
 92
        0
 66
   257
 43
1.0
 76
     1
 77
     6
 78
     2
 67
     7
 79
     5
170
     0
171
     0
290
     0
174
     0
 93
       13
 44
0.0
173
     0
291
     1
 45
0.0
  0
VISUALSTYLE
  5
2D
102
{ACAD_REACTORS
330
2A
102
}
102
{ACAD_XDICTIONARY
360
12E
102
}
330
2A
100
AcDbVisualStyle
  2
Gouraud
 70
     2
 71
     2
 72
     2
 73
     1
 90
        2
 40
0.6
 41
30.0
 62
     5
 63
     7
421
 16777215
 74
     0
 91
        0
 64
     7
 65
   257
 75
     1
175
     1
 42
1.0
 92
        0
 66
     7
 43
1.0
 76
     1
 77
     6
 78
     2
 67
     7
 79
     5
170
     0
171
     0
290
     0
174
     0
 93
       13
 44
0.0
173
     0
291
     1
 45
0.0
  0
VISUALSTYLE
  5
2E
102
{ACAD_REACTORS
330
2A
102
}
102
{ACAD_XDICTIONARY
360
130
102
}
330
2A
100
AcDbVisualStyle
  2
GouraudWithEdges
 70
     3
 71
     2
 72
     2
 73
     1
 90
        2
 40
0.6
 41
30.0
 62
     5
 63
     7
421
 16777215
 74
     1
 91
        0
 64
     7
 65
   257
 75
     1
175
     1
 42
1.0
 92
        0
 66
   257
 43
1.0
 76
     1
 77
     6
 78
     2
 67
     7
 79
     5
170
     0
171
     0
290
     0
174
     0
 93
       13
 44
0.0
173
     0
291
     1
 45
0.0
  0
VISUALSTYLE
  5
31
102
{ACAD_REACTORS
330
2A
102
}
102
{ACAD_XDICTIONARY
360
136
102
}
330
2A
100
AcDbVisualStyle
  2
Hidden
 70
     6
 71
     1
 72
     2
 73
     2
 90
        0
 40
0.6
 41
30.0
 62
     5
 63
     7
421
 16777215
 74
     2
 91
        2
 64
     7
 65
   257
 75
     2
175
     1
 42
40.0
 92
        0
 66
   257
 43
1.0
 76
     1
 77
     6
 78
     2
 67
     7
 79
     3
170
     0
171
     0
290
     0
174
     0
 93
        1
 44
0.0
173
     0
291
     0
 45
0.0
  0
VISUALSTYLE
  5
3B
102
{ACAD_REACTORS
330
2A
102
}
102
{ACAD_XDICTIONARY
360
14A
102
}
330
2A
100
AcDbVisualStyle
  2
JitterOff
 70
    20
 71
     2
 72
     2
 73
     0
 90
        0
 40
0.6
 41
30.0
 62
     5
 63
     7
421
 16777215
 74
     1
 91
        4
 64
     7
 65
   257
 75
     1
175
     1
 42
1.0
 92
       10
 66
     7
 43
1.0
 76
     1
 77
     6
 78
     2
 67
     7
 79
     5
170
     0
171
     0
290
     0
174
     0
 93
        1
 44
0.0
173
     0
291
     1
 45
0.0
  0
VISUALSTYLE
  5
38
102
{ACAD_REACTORS
330
2A
102
}
102
{ACAD_XDICTIONARY
360
144
102
}
330
2A
100
AcDbVisualStyle
  2
Linepattern
 70
    14
 71
     2
 72
     2
 73
     0
 90
        0
 40
0.6
 41
30.0
 62
     5
 63
     7
421
 16777215
 74
     1
 91
        4
 64
     7
 65
   257
 75
     7
175
     7
 42
1.0
 92
        8
 66
     7
 43
1.0
 76
     1
 77
     6
 78
     2
 67
     7
 79
     5
170
     0
171
     0
290
     0
174
     0
 93
        1
 44
0.0
173
     0
291
     1
 45
0.0
  0
VISUALSTYLE
  5
3C
102
{ACAD_REACTORS
330
2A
102
}
102
{ACAD_XDICTIONARY
360
14C
102
}
330
2A
100
AcDbVisualStyle
  2
OverhangOff
 70
    21
 71
     2
 72
     2
 73
     0
 90
        0
 40
0.6
 41
30.0
 62
     5
 63
     7
421
 16777215
 74
     1
 91
        4
 64
     7
 65
   257
 75
     1
175
     1
 42
1.0
 92
        9
 66
     7
 43
1.0
 76
     1
 77
     6
 78
     2
 67
     7
 79
     5
170
     0
171
     0
290
     0
174
     0
 93
        1
 44
0.0
173
     0
291
     1
 45
0.0
  0
VISUALSTYLE
  5
33
102
{ACAD_REACTORS
330
2A
102
}
102
{ACAD_XDICTIONARY
360
13A
102
}
330
2A
100
AcDbVisualStyle
  2
Realistic
 70
     8
 71
     2
 72
     3
 73
     0
 90
        2
 40
0.6
 41
30.0
 62
     5
 63
     7
421
 16777215
 74
     0
 91
        0
 64
     7
 65
   257
 75
     1
175
     1
 42
1.0
 92
        8
 66
   257
 43
1.0
 76
     1
 77
     6
 78
     2
 67
     7
 79
     3
170
     0
171
     0
290
     0
174
     0
 93
       13
 44
0.0
173
     0
291
     0
 45
0.0
  0
VISUALSTYLE
  5
42
102
{ACAD_REACTORS
330
2A
102
}
102
{ACAD_XDICTIONARY
360
158
102
}
330
2A
100
AcDbVisualStyle
  2
Shaded
 70
    27
 71
     2
 72
     2
 73
     1
 90
        2
 40
0.6
 41
30.0
 62
     5
 63
     7
421
 16777215
 74
     0
 91
        4
 64
     7
 65
   257
 75
     1
175
     1
 42
1.0
 92
        8
 66
   257
 43
1.0
 76
     1
 77
     6
 78
     2
 67
     8
425
  7895160
 79
     3
170
     0
171
     0
290
     0
174
     0
 93
        5
 44
0.0
173
     0
291
     0
 45
0.0
  0
VISUALSTYLE
  5
41
102
{ACAD_REACTORS
330
2A
102
}
102
{ACAD_XDICTIONARY
360
156
102
}
330
2A
100
AcDbVisualStyle
  2
Shaded with edges
 70
    26
 71
     2
 72
     2
 73
     1
 90
        2
 40
0.6
 41
30.0
 62
     5
 63
     7
421
 16777215
 74
     1
 91
       10
 64
     7
 65
   257
 75
     2
175
     1
 42
1.0
 92
        8
 66
   257
 43
1.0
 76
     1
 77
     6
 78
     2
 67
     7
 79
     3
170
     0
171
     0
290
     0
174
     0
 93
        5
 44
0.0
173
     0
291
     0
 45
0.0
  0
VISUALSTYLE
  5
3E
102
{ACAD_REACTORS
330
2A
102
}
102
{ACAD_XDICTIONARY
360
150
102
}
330
2A
100
AcDbVisualStyle
  2
Shades of Gray
 70
    23
 71
     2
 72
     2
 73
     3
 90
        0
 40
0.6
 41
30.0
 62
     5
 63
     7
421
 16777215
 74
     2
 91
        2
 64
     7
 65
     7
 75
     1
175
     1
 42
40.0
 92
        8
 66
     7
 43
1.0
 76
     1
 77
     6
 78
     2
 67
     7
 79
     3
170
     0
171
     0
290
     0
174
     0
 93
        1
 44
0.0
173
     0
291
     0
 45
0.0
  0
VISUALSTYLE
  5
3F
102
{ACAD_REACTORS
330
2A
102
}
102
{ACAD_XDICTIONARY
360
152
102
}
330
2A
100
AcDbVisualStyle
  2
Sketchy
 70
    24
 71
     1
 72
     2
 73
     2
 90
        0
 40
0.6
 41
30.0
 62
     5
 63
     7
421
 16777215
 74
     2
 91
        2
 64
     7
 65
     7
 75
     1
175
     1
 42
40.0
 92
       11
 66
     7
 43
1.0
 76
     1
 77
     6
 78
     2
 67
     7
 79
     6
170
     0
171
     0
290
     0
174
     0
 93
        1
 44
0.0
173
     0
291
     0
 45
0.0
  0
VISUALSTYLE
  5
37
102
{ACAD_REACTORS
330
2A
102
}
102
{ACAD_XDICTIONARY
360
142
102
}
330
2A
100
AcDbVisualStyle
  2
Thicken
 70
    13
 71
     2
 72
     2
 73
     0
 90
        0
 40
0.6
 41
30.0
 62
     5
 63
     7
421
 16777215
 74
     1
 91
        4
 64
     7
 65
   257
 75
     1
175
     1
 42
1.0
 92
       12
 66
     7
 43
1.0
 76
     1
 77
     6
 78
     2
 67
     7
 79
     5
170
     0
171
     0
290
     0
174
     0
 93
        1
 44
0.0
173
     0
291
     1
 45
0.0
  0
VISUALSTYLE
  5
30
102
{ACAD_REACTORS
330
2A
102
}
102
{ACAD_XDICTIONARY
360
134
102
}
330
2A
100
AcDbVisualStyle
  2
Wireframe
 70
     5
 71
     0
 72
     2
 73
     0
 90
        0
 40
0.6
 41
30.0
 62
     5
 63
     7
421
 16777215
 74
     1
 91
        4
 64
     7
 65
   257
 75
     1
175
     1
 42
1.0
 92
        0
 66
   257
 43
1.0
 76
     1
 77
     6
 78
     2
 67
     7
 79
     3
170
     0
171
     0
290
     0
174
     0
 93
        1
 44
0.0
173
     0
291
     0
 45
0.0
  0
VISUALSTYLE
  5
40
102
{ACAD_REACTORS
330
2A
102
}
102
{ACAD_XDICTIONARY
360
154
102
}
330
2A
100
AcDbVisualStyle
  2
X-Ray
 70
    25
 71
     2
 72
     2
 73
     1
 90
        1
 40
0.5
 41
30.0
 62
     5
 63
     7
421
 16777215
 74
     1
 91
        0
 64
     7
 65
   257
 75
     1
175
     1
 42
1.0
 92
        8
 66
     7
 43
1.0
 76
     1
 77
     6
 78
     2
 67
     7
 79
     3
170
     0
171
     0
290
     0
174
     0
 93
       13
 44
0.0
173
     0
291
     0
 45
0.0
  0
DICTIONARYVAR
  5
128
102
{ACAD_REACTORS
330
127
102
}
330
127
100
DictionaryVariables
280
     0
  1
1:1
  0
DICTIONARYVAR
  5
161
102
{ACAD_REACTORS
330
127
102
}
330
127
100
DictionaryVariables
280
     0
  1
Standard
  0
DICTIONARYVAR
  5
160
102
{ACAD_REACTORS
330
127
102
}
330
127
100
DictionaryVariables
280
     0
  1
Standard
  0
DICTIONARYVAR
  5
129
102
{ACAD_REACTORS
330
127
102
}
330
127
100
DictionaryVariables
280
     0
  1
2
  0
DICTIONARY
  5
15D
330
6C
100
AcDbDictionary
280
     1
281
     1
  3
ACAD_XREC_ROUNDTRIP
360
15E
  0
DICTIONARY
  5
15A
330
6A
100
AcDbDictionary
280
     1
281
     1
  3
ACAD_ROUNDTRIP_2008_TABLESTYLE_CELLSTYLEMAP
360
15B
  0
DICTIONARY
  5
132
330
2F
100
AcDbDictionary
280
     1
281
     1
  3
ACAD_XREC_ROUNDTRIP
360
133
  0
DICTIONARY
  5
138
330
32
100
AcDbDictionary
280
     1
281
     1
  3
ACAD_XREC_ROUNDTRIP
360
139
  0
DICTIONARY
  5
140
330
36
100
AcDbDictionary
280
     1
281
     1
  3
ACAD_XREC_ROUNDTRIP
360
141
  0
DICTIONARY
  5
148
330
3A
100
AcDbDictionary
280
     1
281
     1
  3
ACAD_XREC_ROUNDTRIP
360
149
  0
DICTIONARY
  5
13C
330
34
100
AcDbDictionary
280
     1
281
     1
  3
ACAD_XREC_ROUNDTRIP
360
13D
  0
DICTIONARY
  5
13E
330
35
100
AcDbDictionary
280
     1
281
     1
  3
ACAD_XREC_ROUNDTRIP
360
13F
  0
DICTIONARY
  5
14E
330
3D
100
AcDbDictionary
280
     1
281
     1
  3
ACAD_XREC_ROUNDTRIP
360
14F
  0
DICTIONARY
  5
146
330
39
100
AcDbDictionary
280
     1
281
     1
  3
ACAD_XREC_ROUNDTRIP
360
147
  0
DICTIONARY
  5
12A
330
2B
100
AcDbDictionary
280
     1
281
     1
  3
ACAD_XREC_ROUNDTRIP
360
12B
  0
DICTIONARY
  5
12C
330
2C
100
AcDbDictionary
280
     1
281
     1
  3
ACAD_XREC_ROUNDTRIP
360
12D
  0
DICTIONARY
  5
12E
330
2D
100
AcDbDictionary
280
     1
281
     1
  3
ACAD_XREC_ROUNDTRIP
360
12F
  0
DICTIONARY
  5
130
330
2E
100
AcDbDictionary
280
     1
281
     1
  3
ACAD_XREC_ROUNDTRIP
360
131
  0
DICTIONARY
  5
136
330
31
100
AcDbDictionary
280
     1
281
     1
  3
ACAD_XREC_ROUNDTRIP
360
137
  0
DICTIONARY
  5
14A
330
3B
100
AcDbDictionary
280
     1
281
     1
  3
ACAD_XREC_ROUNDTRIP
360
14B
  0
DICTIONARY
  5
144
330
38
100
AcDbDictionary
280
     1
281
     1
  3
ACAD_XREC_ROUNDTRIP
360
145
  0
DICTIONARY
  5
14C
330
3C
100
AcDbDictionary
280
     1
281
     1
  3
ACAD_XREC_ROUNDTRIP
360
14D
  0
DICTIONARY
  5
13A
330
33
100
AcDbDictionary
280
     1
281
     1
  3
ACAD_XREC_ROUNDTRIP
360
13B
  0
DICTIONARY
  5
158
330
42
100
AcDbDictionary
280
     1
281
     1
  3
ACAD_XREC_ROUNDTRIP
360
159
  0
DICTIONARY
  5
156
330
41
100
AcDbDictionary
280
     1
281
     1
  3
ACAD_XREC_ROUNDTRIP
360
157
  0
DICTIONARY
  5
150
330
3E
100
AcDbDictionary
280
     1
281
     1
  3
ACAD_XREC_ROUNDTRIP
360
151
  0
DICTIONARY
  5
152
330
3F
100
AcDbDictionary
280
     1
281
     1
  3
ACAD_XREC_ROUNDTRIP
360
153
  0
DICTIONARY
  5
142
330
37
100
AcDbDictionary
280
     1
281
     1
  3
ACAD_XREC_ROUNDTRIP
360
143
  0
DICTIONARY
  5
134
330
30
100
AcDbDictionary
280
     1
281
     1
  3
ACAD_XREC_ROUNDTRIP
360
135
  0
DICTIONARY
  5
154
330
40
100
AcDbDictionary
280
     1
281
     1
  3
ACAD_XREC_ROUNDTRIP
360
155
  0
XRECORD
  5
15E
102
{ACAD_REACTORS
330
15D
102
}
330
15D
100
AcDbXrecord
280
     1
102
ACAD_ROUNDTRIP_2010_MLEADER_STYLE
  0
CELLSTYLEMAP
  5
15B
102
{ACAD_REACTORS
330
15A
102
}
330
15A
100
AcDbCellStyleMap
 90
        3
300
CELLSTYLE
  1
TABLEFORMAT_BEGIN
 90
        5
170
     1
 91
        0
 92
    32768
 62
   257
 93
        1
300
CONTENTFORMAT
  1
CONTENTFORMAT_BEGIN
 90
        0
 91
        0
 92
        4
 93
        0
300

 40
0.0
140
1.0
 94
        5
 62
     0
340
11
144
0.25
309
CONTENTFORMAT_END
171
     1
301
MARGIN
  1
CELLMARGIN_BEGIN
 40
0.06
 40
0.06
 40
0.06
 40
0.06
 40
0.06
 40
0.06
309
CELLMARGIN_END
 94
        6
 95
        1
302
GRIDFORMAT
  1
GRIDFORMAT_BEGIN
 90
        0
 91
        1
 62
     0
 92
       -2
340
14
 93
        0
 40
0.045
309
GRIDFORMAT_END
 95
        2
302
GRIDFORMAT
  1
GRIDFORMAT_BEGIN
 90
        0
 91
        1
 62
     0
 92
       -2
340
14
 93
        0
 40
0.045
309
GRIDFORMAT_END
 95
        4
302
GRIDFORMAT
  1
GRIDFORMAT_BEGIN
 90
        0
 91
        1
 62
     0
 92
       -2
340
14
 93
        0
 40
0.045
309
GRIDFORMAT_END
 95
        8
302
GRIDFORMAT
  1
GRIDFORMAT_BEGIN
 90
        0
 91
        1
 62
     0
 92
       -2
340
14
 93
        0
 40
0.045
309
GRIDFORMAT_END
 95
       16
302
GRIDFORMAT
  1
GRIDFORMAT_BEGIN
 90
        0
 91
        1
 62
     0
 92
       -2
340
14
 93
        0
 40
0.045
309
GRIDFORMAT_END
 95
       32
302
GRIDFORMAT
  1
GRIDFORMAT_BEGIN
 90
        0
 91
        1
 62
     0
 92
       -2
340
14
 93
        0
 40
0.045
309
GRIDFORMAT_END
309
TABLEFORMAT_END
  1
CELLSTYLE_BEGIN
 90
        1
 91
        1
300
_TITLE
309
CELLSTYLE_END
300
CELLSTYLE
  1
TABLEFORMAT_BEGIN
 90
        5
170
     1
 91
        0
 92
        0
 62
   257
 93
        1
300
CONTENTFORMAT
  1
CONTENTFORMAT_BEGIN
 90
        0
 91
        0
 92
        4
 93
        0
300

 40
0.0
140
1.0
 94
        5
 62
     0
340
11
144
0.18
309
CONTENTFORMAT_END
171
     1
301
MARGIN
  1
CELLMARGIN_BEGIN
 40
0.06
 40
0.06
 40
0.06
 40
0.06
 40
0.06
 40
0.06
309
CELLMARGIN_END
 94
        6
 95
        1
302
GRIDFORMAT
  1
GRIDFORMAT_BEGIN
 90
        0
 91
        1
 62
     0
 92
       -2
340
14
 93
        0
 40
0.045
309
GRIDFORMAT_END
 95
        2
302
GRIDFORMAT
  1
GRIDFORMAT_BEGIN
 90
        0
 91
        1
 62
     0
 92
       -2
340
14
 93
        0
 40
0.045
309
GRIDFORMAT_END
 95
        4
302
GRIDFORMAT
  1
GRIDFORMAT_BEGIN
 90
        0
 91
        1
 62
     0
 92
       -2
340
14
 93
        0
 40
0.045
309
GRIDFORMAT_END
 95
        8
302
GRIDFORMAT
  1
GRIDFORMAT_BEGIN
 90
        0
 91
        1
 62
     0
 92
       -2
340
14
 93
        0
 40
0.045
309
GRIDFORMAT_END
 95
       16
302
GRIDFORMAT
  1
GRIDFORMAT_BEGIN
 90
        0
 91
        1
 62
     0
 92
       -2
340
14
 93
        0
 40
0.045
309
GRIDFORMAT_END
 95
       32
302
GRIDFORMAT
  1
GRIDFORMAT_BEGIN
 90
        0
 91
        1
 62
     0
 92
       -2
340
14
 93
        0
 40
0.045
309
GRIDFORMAT_END
309
TABLEFORMAT_END
  1
CELLSTYLE_BEGIN
 90
        2
 91
        1
300
_HEADER
309
CELLSTYLE_END
300
CELLSTYLE
  1
TABLEFORMAT_BEGIN
 90
        5
170
     1
 91
        0
 92
        0
 62
   257
 93
        1
300
CONTENTFORMAT
  1
CONTENTFORMAT_BEGIN
 90
        0
 91
        0
 92
        4
 93
        0
300

 40
0.0
140
1.0
 94
        2
 62
     0
340
11
144
0.18
309
CONTENTFORMAT_END
171
     1
301
MARGIN
  1
CELLMARGIN_BEGIN
 40
0.06
 40
0.06
 40
0.06
 40
0.06
 40
0.06
 40
0.06
309
CELLMARGIN_END
 94
        6
 95
        1
302
GRIDFORMAT
  1
GRIDFORMAT_BEGIN
 90
        0
 91
        1
 62
     0
 92
       -2
340
14
 93
        0
 40
0.045
309
GRIDFORMAT_END
 95
        2
302
GRIDFORMAT
  1
GRIDFORMAT_BEGIN
 90
        0
 91
        1
 62
     0
 92
       -2
340
14
 93
        0
 40
0.045
309
GRIDFORMAT_END
 95
        4
302
GRIDFORMAT
  1
GRIDFORMAT_BEGIN
 90
        0
 91
        1
 62
     0
 92
       -2
340
14
 93
        0
 40
0.045
309
GRIDFORMAT_END
 95
        8
302
GRIDFORMAT
  1
GRIDFORMAT_BEGIN
 90
        0
 91
        1
 62
     0
 92
       -2
340
14
 93
        0
 40
0.045
309
GRIDFORMAT_END
 95
       16
302
GRIDFORMAT
  1
GRIDFORMAT_BEGIN
 90
        0
 91
        1
 62
     0
 92
       -2
340
14
 93
        0
 40
0.045
309
GRIDFORMAT_END
 95
       32
302
GRIDFORMAT
  1
GRIDFORMAT_BEGIN
 90
        0
 91
        1
 62
     0
 92
       -2
340
14
 93
        0
 40
0.045
309
GRIDFORMAT_END
309
TABLEFORMAT_END
  1
CELLSTYLE_BEGIN
 90
        3
 91
        2
300
_DATA
309
CELLSTYLE_END
  0
XRECORD
  5
133
102
{ACAD_REACTORS
330
132
102
}
330
132
100
AcDbXrecord
280
     1
102
RTVSPropertyOp0
 70
     1
102
RTVSPropertyOp1
 70
     1
102
RTVSPropertyOp2
 70
     1
102
RTVSPropertyOp3
 70
     1
102
RTVSPropertyOp4
 70
     1
102
RTVSPropertyOp5
 70
     1
102
RTVSPropertyOp6
 70
     1
102
RTVSPropertyOp7
 70
     1
102
RTVSPropertyOp8
 70
     1
102
RTVSPropertyOp9
 70
     1
102
RTVSPropertyOp10
 70
     1
102
RTVSPropertyOp11
 70
     1
102
RTVSPropertyOp12
 70
     1
102
RTVSPropertyOp13
 70
     1
102
RTVSPropertyOp14
 70
     1
102
RTVSPropertyOp15
 70
     1
102
RTVSPropertyOp16
 70
     1
102
RTVSPropertyOp17
 70
     1
102
RTVSPropertyOp18
 70
     1
102
RTVSPropertyOp19
 70
     1
102
RTVSPropertyOp20
 70
     1
102
RTVSPropertyOp21
 70
     1
102
RTVSPropertyOp22
 70
     1
102
RTVSPropertyOp23
 70
     1
102
RTVSPropertyOp24
 70
     1
102
RTVSPropertyOp25
 70
     1
102
RTVSPropertyOp26
 70
     1
102
RTVSPropertyOp27
 70
     1
102
RTVSPropertyOp28
 70
     1
102
RTVSPropertyOp29
 70
     1
102
RTVSPropertyOp30
 70
     1
102
RTVSPropertyOp31
 70
     1
102
RTVSPropertyOp32
 70
     1
102
RTVSPropertyOp33
 70
     1
102
RTVSPropertyOp34
 70
     1
102
RTVSPropertyOp35
 70
     1
102
RTVSPropertyOp36
 70
     1
102
RTVSPropertyOp37
 70
     1
102
RTVSPropertyOp38
 70
     1
102
RTVSPropertyOp39
 70
     1
102
RTVSPropertyOp40
 70
     1
102
RTVSPropertyOp41
 70
     1
102
RTVSPropertyOp42
 70
     1
102
RTVSPropertyOp43
 70
     1
102
RTVSPropertyOp44
 70
     1
102
RTVSPropertyOp45
 70
     1
102
RTVSPropertyOp46
 70
     1
102
RTVSPropertyOp47
 70
     1
102
RTVSPropertyOp48
 70
     1
102
RTVSPropertyOp49
 70
     1
102
RTVSPropertyOp50
 70
     1
102
RTVSPropertyOp51
 70
     0
102
RTVSPropertyOp52
 70
     0
102
RTVSPropertyOp53
 70
     1
102
RTVSPropertyOp54
 70
     1
102
RTVSPropertyOp55
 70
     1
102
RTVSPropertyOp56
 70
     1
102
RTVSPropertyOp57
 70
     1
102
RTVSPost2010Prop28
280
     1
102
RTVSPost2010PropOp28
 70
     1
102
RTVSPost2010Prop29
280
     1
102
RTVSPost2010PropOp29
 70
     1
102
RTVSPost2010Prop30
280
     0
102
RTVSPost2010PropOp30
 70
     1
102
RTVSPost2010Prop31
280
     0
102
RTVSPost2010PropOp31
 70
     1
102
RTVSPost2010Prop32
280
     0
102
RTVSPost2010PropOp32
 70
     1
102
RTVSPost2010Prop33
280
     0
102
RTVSPost2010PropOp33
 70
     1
102
RTVSPost2010Prop34
280
     0
102
RTVSPost2010PropOp34
 70
     1
102
RTVSPost2010Prop35
280
     0
102
RTVSPost2010PropOp35
 70
     1
102
RTVSPost2010Prop36
280
     0
102
RTVSPost2010PropOp36
 70
     1
102
RTVSPost2010Prop37
 90
       50
102
RTVSPost2010PropOp37
 70
     1
102
RTVSPost2010Prop38
140
0.0
102
RTVSPost2010PropOp38
 70
     1
102
RTVSPost2010Prop39
140
1.0
102
RTVSPost2010PropOp39
 70
     1
102
RTVSPost2010Prop40
 90
        0
102
RTVSPost2010PropOp40
 70
     1
102
RTVSPost2010Prop41ColorIndex
 90
       18
102
RTVSPost2010Prop41ColorRGB
 90
        0
102
RTVSPost2010PropOp41
 70
     1
102
RTVSPost2010Prop42
 90
       50
102
RTVSPost2010PropOp42
 70
     1
102
RTVSPost2010Prop43
 90
        3
102
RTVSPost2010PropOp43
 70
     1
102
RTVSPost2010Prop44ColorIndex
 90
        5
102
RTVSPost2010Prop44ColorRGB
 90
      255
102
RTVSPost2010PropOp44
 70
     1
102
RTVSPost2010Prop45
280
     0
102
RTVSPost2010PropOp45
 70
     1
102
RTVSPost2010Prop46
 90
       50
102
RTVSPost2010PropOp46
 70
     1
102
RTVSPost2010Prop47
 90
       50
102
RTVSPost2010PropOp47
 70
     1
102
RTVSPost2010Prop48
 90
       50
102
RTVSPost2010PropOp48
 70
     1
102
RTVSPost2010Prop49
280
     0
102
RTVSPost2010PropOp49
 70
     1
102
RTVSPost2010Prop50
 90
       50
102
RTVSPost2010PropOp50
 70
     1
102
RTVSPost2010Prop51ColorIndex
 90
      256
102
RTVSPost2010Prop51ColorRGB
 90
-16777216
102
RTVSPost2010PropOp51
 70
     0
102
RTVSPost2010Prop52
140
1.0
102
RTVSPost2010PropOp52
 70
     0
102
RTVSPost2010Prop53
 90
        2
102
RTVSPost2010PropOp53
 70
     1
102
RTVSPost2010Prop54
  1
strokes_ogs.tif
102
RTVSPost2010PropOp54
 70
     1
102
RTVSPost2010Prop55
280
     0
102
RTVSPost2010PropOp55
 70
     1
102
RTVSPost2010Prop56
140
1.0
102
RTVSPost2010PropOp56
 70
     1
102
RTVSPost2010Prop57
140
1.0
102
RTVSPost2010PropOp57
 70
     1
  0
XRECORD
  5
139
102
{ACAD_REACTORS
330
138
102
}
330
138
100
AcDbXrecord
280
     1
102
RTVSPropertyOp0
 70
     1
102
RTVSPropertyOp1
 70
     1
102
RTVSPropertyOp2
 70
     1
102
RTVSPropertyOp3
 70
     1
102
RTVSPropertyOp4
 70
     1
102
RTVSPropertyOp5
 70
     1
102
RTVSPropertyOp6
 70
     1
102
RTVSPropertyOp7
 70
     1
102
RTVSPropertyOp8
 70
     1
102
RTVSPropertyOp9
 70
     1
102
RTVSPropertyOp10
 70
     1
102
RTVSPropertyOp11
 70
     1
102
RTVSPropertyOp12
 70
     1
102
RTVSPropertyOp13
 70
     1
102
RTVSPropertyOp14
 70
     1
102
RTVSPropertyOp15
 70
     1
102
RTVSPropertyOp16
 70
     1
102
RTVSPropertyOp17
 70
     1
102
RTVSPropertyOp18
 70
     1
102
RTVSPropertyOp19
 70
     1
102
RTVSPropertyOp20
 70
     1
102
RTVSPropertyOp21
 70
     1
102
RTVSPropertyOp22
 70
     1
102
RTVSPropertyOp23
 70
     1
102
RTVSPropertyOp24
 70
     1
102
RTVSPropertyOp25
 70
     1
102
RTVSPropertyOp26
 70
     1
102
RTVSPropertyOp27
 70
     1
102
RTVSPropertyOp28
 70
     1
102
RTVSPropertyOp29
 70
     1
102
RTVSPropertyOp30
 70
     1
102
RTVSPropertyOp31
 70
     1
102
RTVSPropertyOp32
 70
     1
102
RTVSPropertyOp33
 70
     1
102
RTVSPropertyOp34
 70
     1
102
RTVSPropertyOp35
 70
     1
102
RTVSPropertyOp36
 70
     1
102
RTVSPropertyOp37
 70
     1
102
RTVSPropertyOp38
 70
     1
102
RTVSPropertyOp39
 70
     1
102
RTVSPropertyOp40
 70
     1
102
RTVSPropertyOp41
 70
     1
102
RTVSPropertyOp42
 70
     1
102
RTVSPropertyOp43
 70
     1
102
RTVSPropertyOp44
 70
     1
102
RTVSPropertyOp45
 70
     1
102
RTVSPropertyOp46
 70
     1
102
RTVSPropertyOp47
 70
     1
102
RTVSPropertyOp48
 70
     1
102
RTVSPropertyOp49
 70
     1
102
RTVSPropertyOp50
 70
     1
102
RTVSPropertyOp51
 70
     0
102
RTVSPropertyOp52
 70
     0
102
RTVSPropertyOp53
 70
     1
102
RTVSPropertyOp54
 70
     1
102
RTVSPropertyOp55
 70
     1
102
RTVSPropertyOp56
 70
     1
102
RTVSPropertyOp57
 70
     1
102
RTVSPost2010Prop28
280
     0
102
RTVSPost2010PropOp28
 70
     1
102
RTVSPost2010Prop29
280
     1
102
RTVSPost2010PropOp29
 70
     1
102
RTVSPost2010Prop30
280
     1
102
RTVSPost2010PropOp30
 70
     1
102
RTVSPost2010Prop31
280
     0
102
RTVSPost2010PropOp31
 70
     1
102
RTVSPost2010Prop32
280
     0
102
RTVSPost2010PropOp32
 70
     1
102
RTVSPost2010Prop33
280
     0
102
RTVSPost2010PropOp33
 70
     1
102
RTVSPost2010Prop34
280
     0
102
RTVSPost2010PropOp34
 70
     1
102
RTVSPost2010Prop35
280
     0
102
RTVSPost2010PropOp35
 70
     1
102
RTVSPost2010Prop36
280
     0
102
RTVSPost2010PropOp36
 70
     1
102
RTVSPost2010Prop37
 90
       50
102
RTVSPost2010PropOp37
 70
     1
102
RTVSPost2010Prop38
140
0.0
102
RTVSPost2010PropOp38
 70
     1
102
RTVSPost2010Prop39
140
1.0
102
RTVSPost2010PropOp39
 70
     1
102
RTVSPost2010Prop40
 90
        0
102
RTVSPost2010PropOp40
 70
     1
102
RTVSPost2010Prop41ColorIndex
 90
       18
102
RTVSPost2010Prop41ColorRGB
 90
        0
102
RTVSPost2010PropOp41
 70
     1
102
RTVSPost2010Prop42
 90
       50
102
RTVSPost2010PropOp42
 70
     1
102
RTVSPost2010Prop43
 90
        3
102
RTVSPost2010PropOp43
 70
     1
102
RTVSPost2010Prop44ColorIndex
 90
        5
102
RTVSPost2010Prop44ColorRGB
 90
      255
102
RTVSPost2010PropOp44
 70
     1
102
RTVSPost2010Prop45
280
     0
102
RTVSPost2010PropOp45
 70
     1
102
RTVSPost2010Prop46
 90
       50
102
RTVSPost2010PropOp46
 70
     1
102
RTVSPost2010Prop47
 90
       50
102
RTVSPost2010PropOp47
 70
     1
102
RTVSPost2010Prop48
 90
       50
102
RTVSPost2010PropOp48
 70
     1
102
RTVSPost2010Prop49
280
     0
102
RTVSPost2010PropOp49
 70
     1
102
RTVSPost2010Prop50
 90
       50
102
RTVSPost2010PropOp50
 70
     1
102
RTVSPost2010Prop51ColorIndex
 90
      256
102
RTVSPost2010Prop51ColorRGB
 90
-16777216
102
RTVSPost2010PropOp51
 70
     0
102
RTVSPost2010Prop52
140
1.0
102
RTVSPost2010PropOp52
 70
     0
102
RTVSPost2010Prop53
 90
        2
102
RTVSPost2010PropOp53
 70
     1
102
RTVSPost2010Prop54
  1
strokes_ogs.tif
102
RTVSPost2010PropOp54
 70
     1
102
RTVSPost2010Prop55
280
     0
102
RTVSPost2010PropOp55
 70
     1
102
RTVSPost2010Prop56
140
1.0
102
RTVSPost2010PropOp56
 70
     1
102
RTVSPost2010Prop57
140
1.0
102
RTVSPost2010PropOp57
 70
     1
  0
XRECORD
  5
141
102
{ACAD_REACTORS
330
140
102
}
330
140
100
AcDbXrecord
280
     1
102
RTVSPropertyOp0
 70
     1
102
RTVSPropertyOp1
 70
     1
102
RTVSPropertyOp2
 70
     1
102
RTVSPropertyOp3
 70
     1
102
RTVSPropertyOp4
 70
     1
102
RTVSPropertyOp5
 70
     1
102
RTVSPropertyOp6
 70
     1
102
RTVSPropertyOp7
 70
     1
102
RTVSPropertyOp8
 70
     1
102
RTVSPropertyOp9
 70
     1
102
RTVSPropertyOp10
 70
     1
102
RTVSPropertyOp11
 70
     1
102
RTVSPropertyOp12
 70
     1
102
RTVSPropertyOp13
 70
     1
102
RTVSPropertyOp14
 70
     1
102
RTVSPropertyOp15
 70
     1
102
RTVSPropertyOp16
 70
     1
102
RTVSPropertyOp17
 70
     1
102
RTVSPropertyOp18
 70
     1
102
RTVSPropertyOp19
 70
     1
102
RTVSPropertyOp20
 70
     1
102
RTVSPropertyOp21
 70
     1
102
RTVSPropertyOp22
 70
     1
102
RTVSPropertyOp23
 70
     1
102
RTVSPropertyOp24
 70
     1
102
RTVSPropertyOp25
 70
     1
102
RTVSPropertyOp26
 70
     1
102
RTVSPropertyOp27
 70
     1
102
RTVSPropertyOp28
 70
     1
102
RTVSPropertyOp29
 70
     1
102
RTVSPropertyOp30
 70
     1
102
RTVSPropertyOp31
 70
     1
102
RTVSPropertyOp32
 70
     1
102
RTVSPropertyOp33
 70
     1
102
RTVSPropertyOp34
 70
     1
102
RTVSPropertyOp35
 70
     1
102
RTVSPropertyOp36
 70
     1
102
RTVSPropertyOp37
 70
     1
102
RTVSPropertyOp38
 70
     1
102
RTVSPropertyOp39
 70
     1
102
RTVSPropertyOp40
 70
     1
102
RTVSPropertyOp41
 70
     1
102
RTVSPropertyOp42
 70
     1
102
RTVSPropertyOp43
 70
     1
102
RTVSPropertyOp44
 70
     1
102
RTVSPropertyOp45
 70
     1
102
RTVSPropertyOp46
 70
     1
102
RTVSPropertyOp47
 70
     1
102
RTVSPropertyOp48
 70
     1
102
RTVSPropertyOp49
 70
     1
102
RTVSPropertyOp50
 70
     1
102
RTVSPropertyOp51
 70
     0
102
RTVSPropertyOp52
 70
     0
102
RTVSPropertyOp53
 70
     1
102
RTVSPropertyOp54
 70
     1
102
RTVSPropertyOp55
 70
     1
102
RTVSPropertyOp56
 70
     1
102
RTVSPropertyOp57
 70
     1
102
RTVSPost2010Prop28
280
     0
102
RTVSPost2010PropOp28
 70
     1
102
RTVSPost2010Prop29
280
     1
102
RTVSPost2010PropOp29
 70
     1
102
RTVSPost2010Prop30
280
     1
102
RTVSPost2010PropOp30
 70
     1
102
RTVSPost2010Prop31
280
     0
102
RTVSPost2010PropOp31
 70
     1
102
RTVSPost2010Prop32
280
     0
102
RTVSPost2010PropOp32
 70
     1
102
RTVSPost2010Prop33
280
     0
102
RTVSPost2010PropOp33
 70
     1
102
RTVSPost2010Prop34
280
     0
102
RTVSPost2010PropOp34
 70
     1
102
RTVSPost2010Prop35
280
     0
102
RTVSPost2010PropOp35
 70
     1
102
RTVSPost2010Prop36
280
     0
102
RTVSPost2010PropOp36
 70
     1
102
RTVSPost2010Prop37
 90
       50
102
RTVSPost2010PropOp37
 70
     1
102
RTVSPost2010Prop38
140
0.0
102
RTVSPost2010PropOp38
 70
     1
102
RTVSPost2010Prop39
140
1.0
102
RTVSPost2010PropOp39
 70
     1
102
RTVSPost2010Prop40
 90
        0
102
RTVSPost2010PropOp40
 70
     1
102
RTVSPost2010Prop41ColorIndex
 90
       18
102
RTVSPost2010Prop41ColorRGB
 90
        0
102
RTVSPost2010PropOp41
 70
     1
102
RTVSPost2010Prop42
 90
       50
102
RTVSPost2010PropOp42
 70
     1
102
RTVSPost2010Prop43
 90
        3
102
RTVSPost2010PropOp43
 70
     1
102
RTVSPost2010Prop44ColorIndex
 90
        5
102
RTVSPost2010Prop44ColorRGB
 90
      255
102
RTVSPost2010PropOp44
 70
     1
102
RTVSPost2010Prop45
280
     0
102
RTVSPost2010PropOp45
 70
     1
102
RTVSPost2010Prop46
 90
       50
102
RTVSPost2010PropOp46
 70
     1
102
RTVSPost2010Prop47
 90
       50
102
RTVSPost2010PropOp47
 70
     1
102
RTVSPost2010Prop48
 90
       50
102
RTVSPost2010PropOp48
 70
     1
102
RTVSPost2010Prop49
280
     0
102
RTVSPost2010PropOp49
 70
     1
102
RTVSPost2010Prop50
 90
       50
102
RTVSPost2010PropOp50
 70
     1
102
RTVSPost2010Prop51ColorIndex
 90
      256
102
RTVSPost2010Prop51ColorRGB
 90
-16777216
102
RTVSPost2010PropOp51
 70
     0
102
RTVSPost2010Prop52
140
1.0
102
RTVSPost2010PropOp52
 70
     0
102
RTVSPost2010Prop53
 90
        2
102
RTVSPost2010PropOp53
 70
     1
102
RTVSPost2010Prop54
  1
strokes_ogs.tif
102
RTVSPost2010PropOp54
 70
     1
102
RTVSPost2010Prop55
280
     0
102
RTVSPost2010PropOp55
 70
     1
102
RTVSPost2010Prop56
140
1.0
102
RTVSPost2010PropOp56
 70
     1
102
RTVSPost2010Prop57
140
1.0
102
RTVSPost2010PropOp57
 70
     1
  0
XRECORD
  5
149
102
{ACAD_REACTORS
330
148
102
}
330
148
100
AcDbXrecord
280
     1
102
RTVSPropertyOp0
 70
     1
102
RTVSPropertyOp1
 70
     1
102
RTVSPropertyOp2
 70
     1
102
RTVSPropertyOp3
 70
     1
102
RTVSPropertyOp4
 70
     1
102
RTVSPropertyOp5
 70
     1
102
RTVSPropertyOp6
 70
     1
102
RTVSPropertyOp7
 70
     1
102
RTVSPropertyOp8
 70
     1
102
RTVSPropertyOp9
 70
     1
102
RTVSPropertyOp10
 70
     1
102
RTVSPropertyOp11
 70
     1
102
RTVSPropertyOp12
 70
     1
102
RTVSPropertyOp13
 70
     1
102
RTVSPropertyOp14
 70
     1
102
RTVSPropertyOp15
 70
     1
102
RTVSPropertyOp16
 70
     1
102
RTVSPropertyOp17
 70
     1
102
RTVSPropertyOp18
 70
     1
102
RTVSPropertyOp19
 70
     1
102
RTVSPropertyOp20
 70
     1
102
RTVSPropertyOp21
 70
     1
102
RTVSPropertyOp22
 70
     1
102
RTVSPropertyOp23
 70
     1
102
RTVSPropertyOp24
 70
     1
102
RTVSPropertyOp25
 70
     1
102
RTVSPropertyOp26
 70
     1
102
RTVSPropertyOp27
 70
     1
102
RTVSPropertyOp28
 70
     1
102
RTVSPropertyOp29
 70
     1
102
RTVSPropertyOp30
 70
     1
102
RTVSPropertyOp31
 70
     1
102
RTVSPropertyOp32
 70
     1
102
RTVSPropertyOp33
 70
     1
102
RTVSPropertyOp34
 70
     1
102
RTVSPropertyOp35
 70
     1
102
RTVSPropertyOp36
 70
     1
102
RTVSPropertyOp37
 70
     1
102
RTVSPropertyOp38
 70
     1
102
RTVSPropertyOp39
 70
     1
102
RTVSPropertyOp40
 70
     1
102
RTVSPropertyOp41
 70
     1
102
RTVSPropertyOp42
 70
     1
102
RTVSPropertyOp43
 70
     1
102
RTVSPropertyOp44
 70
     1
102
RTVSPropertyOp45
 70
     1
102
RTVSPropertyOp46
 70
     1
102
RTVSPropertyOp47
 70
     1
102
RTVSPropertyOp48
 70
     1
102
RTVSPropertyOp49
 70
     1
102
RTVSPropertyOp50
 70
     1
102
RTVSPropertyOp51
 70
     0
102
RTVSPropertyOp52
 70
     0
102
RTVSPropertyOp53
 70
     1
102
RTVSPropertyOp54
 70
     1
102
RTVSPropertyOp55
 70
     1
102
RTVSPropertyOp56
 70
     1
102
RTVSPropertyOp57
 70
     1
102
RTVSPost2010Prop28
280
     0
102
RTVSPost2010PropOp28
 70
     1
102
RTVSPost2010Prop29
280
     1
102
RTVSPost2010PropOp29
 70
     1
102
RTVSPost2010Prop30
280
     1
102
RTVSPost2010PropOp30
 70
     1
102
RTVSPost2010Prop31
280
     0
102
RTVSPost2010PropOp31
 70
     1
102
RTVSPost2010Prop32
280
     0
102
RTVSPost2010PropOp32
 70
     1
102
RTVSPost2010Prop33
280
     0
102
RTVSPost2010PropOp33
 70
     1
102
RTVSPost2010Prop34
280
     0
102
RTVSPost2010PropOp34
 70
     1
102
RTVSPost2010Prop35
280
     0
102
RTVSPost2010PropOp35
 70
     1
102
RTVSPost2010Prop36
280
     0
102
RTVSPost2010PropOp36
 70
     1
102
RTVSPost2010Prop37
 90
       50
102
RTVSPost2010PropOp37
 70
     1
102
RTVSPost2010Prop38
140
0.0
102
RTVSPost2010PropOp38
 70
     1
102
RTVSPost2010Prop39
140
1.0
102
RTVSPost2010PropOp39
 70
     1
102
RTVSPost2010Prop40
 90
        0
102
RTVSPost2010PropOp40
 70
     1
102
RTVSPost2010Prop41ColorIndex
 90
       18
102
RTVSPost2010Prop41ColorRGB
 90
        0
102
RTVSPost2010PropOp41
 70
     1
102
RTVSPost2010Prop42
 90
       50
102
RTVSPost2010PropOp42
 70
     1
102
RTVSPost2010Prop43
 90
        3
102
RTVSPost2010PropOp43
 70
     1
102
RTVSPost2010Prop44ColorIndex
 90
        5
102
RTVSPost2010Prop44ColorRGB
 90
      255
102
RTVSPost2010PropOp44
 70
     1
102
RTVSPost2010Prop45
280
     0
102
RTVSPost2010PropOp45
 70
     1
102
RTVSPost2010Prop46
 90
       50
102
RTVSPost2010PropOp46
 70
     1
102
RTVSPost2010Prop47
 90
       50
102
RTVSPost2010PropOp47
 70
     1
102
RTVSPost2010Prop48
 90
       50
102
RTVSPost2010PropOp48
 70
     1
102
RTVSPost2010Prop49
280
     0
102
RTVSPost2010PropOp49
 70
     1
102
RTVSPost2010Prop50
 90
       50
102
RTVSPost2010PropOp50
 70
     1
102
RTVSPost2010Prop51ColorIndex
 90
      256
102
RTVSPost2010Prop51ColorRGB
 90
-16777216
102
RTVSPost2010PropOp51
 70
     0
102
RTVSPost2010Prop52
140
1.0
102
RTVSPost2010PropOp52
 70
     0
102
RTVSPost2010Prop53
 90
        2
102
RTVSPost2010PropOp53
 70
     1
102
RTVSPost2010Prop54
  1
strokes_ogs.tif
102
RTVSPost2010PropOp54
 70
     1
102
RTVSPost2010Prop55
280
     0
102
RTVSPost2010PropOp55
 70
     1
102
RTVSPost2010Prop56
140
1.0
102
RTVSPost2010PropOp56
 70
     1
102
RTVSPost2010Prop57
140
1.0
102
RTVSPost2010PropOp57
 70
     1
  0
XRECORD
  5
13D
102
{ACAD_REACTORS
330
13C
102
}
330
13C
100
AcDbXrecord
280
     1
102
RTVSPropertyOp0
 70
     1
102
RTVSPropertyOp1
 70
     1
102
RTVSPropertyOp2
 70
     1
102
RTVSPropertyOp3
 70
     1
102
RTVSPropertyOp4
 70
     1
102
RTVSPropertyOp5
 70
     1
102
RTVSPropertyOp6
 70
     1
102
RTVSPropertyOp7
 70
     1
102
RTVSPropertyOp8
 70
     1
102
RTVSPropertyOp9
 70
     1
102
RTVSPropertyOp10
 70
     1
102
RTVSPropertyOp11
 70
     1
102
RTVSPropertyOp12
 70
     1
102
RTVSPropertyOp13
 70
     1
102
RTVSPropertyOp14
 70
     1
102
RTVSPropertyOp15
 70
     1
102
RTVSPropertyOp16
 70
     1
102
RTVSPropertyOp17
 70
     1
102
RTVSPropertyOp18
 70
     1
102
RTVSPropertyOp19
 70
     1
102
RTVSPropertyOp20
 70
     1
102
RTVSPropertyOp21
 70
     1
102
RTVSPropertyOp22
 70
     1
102
RTVSPropertyOp23
 70
     1
102
RTVSPropertyOp24
 70
     1
102
RTVSPropertyOp25
 70
     1
102
RTVSPropertyOp26
 70
     1
102
RTVSPropertyOp27
 70
     1
102
RTVSPropertyOp28
 70
     1
102
RTVSPropertyOp29
 70
     1
102
RTVSPropertyOp30
 70
     1
102
RTVSPropertyOp31
 70
     1
102
RTVSPropertyOp32
 70
     1
102
RTVSPropertyOp33
 70
     1
102
RTVSPropertyOp34
 70
     1
102
RTVSPropertyOp35
 70
     1
102
RTVSPropertyOp36
 70
     1
102
RTVSPropertyOp37
 70
     1
102
RTVSPropertyOp38
 70
     1
102
RTVSPropertyOp39
 70
     1
102
RTVSPropertyOp40
 70
     1
102
RTVSPropertyOp41
 70
     1
102
RTVSPropertyOp42
 70
     1
102
RTVSPropertyOp43
 70
     1
102
RTVSPropertyOp44
 70
     1
102
RTVSPropertyOp45
 70
     1
102
RTVSPropertyOp46
 70
     1
102
RTVSPropertyOp47
 70
     1
102
RTVSPropertyOp48
 70
     1
102
RTVSPropertyOp49
 70
     1
102
RTVSPropertyOp50
 70
     1
102
RTVSPropertyOp51
 70
     0
102
RTVSPropertyOp52
 70
     0
102
RTVSPropertyOp53
 70
     1
102
RTVSPropertyOp54
 70
     1
102
RTVSPropertyOp55
 70
     1
102
RTVSPropertyOp56
 70
     1
102
RTVSPropertyOp57
 70
     1
102
RTVSPost2010Prop28
280
     0
102
RTVSPost2010PropOp28
 70
     1
102
RTVSPost2010Prop29
280
     1
102
RTVSPost2010PropOp29
 70
     1
102
RTVSPost2010Prop30
280
     1
102
RTVSPost2010PropOp30
 70
     1
102
RTVSPost2010Prop31
280
     0
102
RTVSPost2010PropOp31
 70
     1
102
RTVSPost2010Prop32
280
     0
102
RTVSPost2010PropOp32
 70
     1
102
RTVSPost2010Prop33
280
     0
102
RTVSPost2010PropOp33
 70
     1
102
RTVSPost2010Prop34
280
     0
102
RTVSPost2010PropOp34
 70
     1
102
RTVSPost2010Prop35
280
     0
102
RTVSPost2010PropOp35
 70
     1
102
RTVSPost2010Prop36
280
     0
102
RTVSPost2010PropOp36
 70
     1
102
RTVSPost2010Prop37
 90
       50
102
RTVSPost2010PropOp37
 70
     1
102
RTVSPost2010Prop38
140
0.0
102
RTVSPost2010PropOp38
 70
     1
102
RTVSPost2010Prop39
140
1.0
102
RTVSPost2010PropOp39
 70
     1
102
RTVSPost2010Prop40
 90
        0
102
RTVSPost2010PropOp40
 70
     1
102
RTVSPost2010Prop41ColorIndex
 90
       18
102
RTVSPost2010Prop41ColorRGB
 90
        0
102
RTVSPost2010PropOp41
 70
     1
102
RTVSPost2010Prop42
 90
       50
102
RTVSPost2010PropOp42
 70
     1
102
RTVSPost2010Prop43
 90
        3
102
RTVSPost2010PropOp43
 70
     1
102
RTVSPost2010Prop44ColorIndex
 90
        5
102
RTVSPost2010Prop44ColorRGB
 90
      255
102
RTVSPost2010PropOp44
 70
     1
102
RTVSPost2010Prop45
280
     0
102
RTVSPost2010PropOp45
 70
     1
102
RTVSPost2010Prop46
 90
       50
102
RTVSPost2010PropOp46
 70
     1
102
RTVSPost2010Prop47
 90
       50
102
RTVSPost2010PropOp47
 70
     1
102
RTVSPost2010Prop48
 90
       50
102
RTVSPost2010PropOp48
 70
     1
102
RTVSPost2010Prop49
280
     0
102
RTVSPost2010PropOp49
 70
     1
102
RTVSPost2010Prop50
 90
       50
102
RTVSPost2010PropOp50
 70
     1
102
RTVSPost2010Prop51ColorIndex
 90
      256
102
RTVSPost2010Prop51ColorRGB
 90
-16777216
102
RTVSPost2010PropOp51
 70
     0
102
RTVSPost2010Prop52
140
1.0
102
RTVSPost2010PropOp52
 70
     0
102
RTVSPost2010Prop53
 90
        2
102
RTVSPost2010PropOp53
 70
     1
102
RTVSPost2010Prop54
  1
strokes_ogs.tif
102
RTVSPost2010PropOp54
 70
     1
102
RTVSPost2010Prop55
280
     0
102
RTVSPost2010PropOp55
 70
     1
102
RTVSPost2010Prop56
140
1.0
102
RTVSPost2010PropOp56
 70
     1
102
RTVSPost2010Prop57
140
1.0
102
RTVSPost2010PropOp57
 70
     1
  0
XRECORD
  5
13F
102
{ACAD_REACTORS
330
13E
102
}
330
13E
100
AcDbXrecord
280
     1
102
RTVSPropertyOp0
 70
     1
102
RTVSPropertyOp1
 70
     1
102
RTVSPropertyOp2
 70
     1
102
RTVSPropertyOp3
 70
     1
102
RTVSPropertyOp4
 70
     1
102
RTVSPropertyOp5
 70
     1
102
RTVSPropertyOp6
 70
     1
102
RTVSPropertyOp7
 70
     1
102
RTVSPropertyOp8
 70
     1
102
RTVSPropertyOp9
 70
     1
102
RTVSPropertyOp10
 70
     1
102
RTVSPropertyOp11
 70
     1
102
RTVSPropertyOp12
 70
     1
102
RTVSPropertyOp13
 70
     1
102
RTVSPropertyOp14
 70
     1
102
RTVSPropertyOp15
 70
     1
102
RTVSPropertyOp16
 70
     1
102
RTVSPropertyOp17
 70
     1
102
RTVSPropertyOp18
 70
     1
102
RTVSPropertyOp19
 70
     1
102
RTVSPropertyOp20
 70
     1
102
RTVSPropertyOp21
 70
     1
102
RTVSPropertyOp22
 70
     1
102
RTVSPropertyOp23
 70
     1
102
RTVSPropertyOp24
 70
     1
102
RTVSPropertyOp25
 70
     1
102
RTVSPropertyOp26
 70
     1
102
RTVSPropertyOp27
 70
     1
102
RTVSPropertyOp28
 70
     1
102
RTVSPropertyOp29
 70
     1
102
RTVSPropertyOp30
 70
     1
102
RTVSPropertyOp31
 70
     1
102
RTVSPropertyOp32
 70
     1
102
RTVSPropertyOp33
 70
     1
102
RTVSPropertyOp34
 70
     1
102
RTVSPropertyOp35
 70
     1
102
RTVSPropertyOp36
 70
     1
102
RTVSPropertyOp37
 70
     1
102
RTVSPropertyOp38
 70
     1
102
RTVSPropertyOp39
 70
     1
102
RTVSPropertyOp40
 70
     1
102
RTVSPropertyOp41
 70
     1
102
RTVSPropertyOp42
 70
     1
102
RTVSPropertyOp43
 70
     1
102
RTVSPropertyOp44
 70
     1
102
RTVSPropertyOp45
 70
     1
102
RTVSPropertyOp46
 70
     1
102
RTVSPropertyOp47
 70
     1
102
RTVSPropertyOp48
 70
     1
102
RTVSPropertyOp49
 70
     1
102
RTVSPropertyOp50
 70
     1
102
RTVSPropertyOp51
 70
     0
102
RTVSPropertyOp52
 70
     0
102
RTVSPropertyOp53
 70
     1
102
RTVSPropertyOp54
 70
     1
102
RTVSPropertyOp55
 70
     1
102
RTVSPropertyOp56
 70
     1
102
RTVSPropertyOp57
 70
     1
102
RTVSPost2010Prop28
280
     0
102
RTVSPost2010PropOp28
 70
     1
102
RTVSPost2010Prop29
280
     1
102
RTVSPost2010PropOp29
 70
     1
102
RTVSPost2010Prop30
280
     1
102
RTVSPost2010PropOp30
 70
     1
102
RTVSPost2010Prop31
280
     0
102
RTVSPost2010PropOp31
 70
     1
102
RTVSPost2010Prop32
280
     0
102
RTVSPost2010PropOp32
 70
     1
102
RTVSPost2010Prop33
280
     0
102
RTVSPost2010PropOp33
 70
     1
102
RTVSPost2010Prop34
280
     0
102
RTVSPost2010PropOp34
 70
     1
102
RTVSPost2010Prop35
280
     0
102
RTVSPost2010PropOp35
 70
     1
102
RTVSPost2010Prop36
280
     0
102
RTVSPost2010PropOp36
 70
     1
102
RTVSPost2010Prop37
 90
       50
102
RTVSPost2010PropOp37
 70
     1
102
RTVSPost2010Prop38
140
0.0
102
RTVSPost2010PropOp38
 70
     1
102
RTVSPost2010Prop39
140
1.0
102
RTVSPost2010PropOp39
 70
     1
102
RTVSPost2010Prop40
 90
        0
102
RTVSPost2010PropOp40
 70
     1
102
RTVSPost2010Prop41ColorIndex
 90
       18
102
RTVSPost2010Prop41ColorRGB
 90
        0
102
RTVSPost2010PropOp41
 70
     1
102
RTVSPost2010Prop42
 90
       50
102
RTVSPost2010PropOp42
 70
     1
102
RTVSPost2010Prop43
 90
        3
102
RTVSPost2010PropOp43
 70
     1
102
RTVSPost2010Prop44ColorIndex
 90
        5
102
RTVSPost2010Prop44ColorRGB
 90
      255
102
RTVSPost2010PropOp44
 70
     1
102
RTVSPost2010Prop45
280
     0
102
RTVSPost2010PropOp45
 70
     1
102
RTVSPost2010Prop46
 90
       50
102
RTVSPost2010PropOp46
 70
     1
102
RTVSPost2010Prop47
 90
       50
102
RTVSPost2010PropOp47
 70
     1
102
RTVSPost2010Prop48
 90
       50
102
RTVSPost2010PropOp48
 70
     1
102
RTVSPost2010Prop49
280
     0
102
RTVSPost2010PropOp49
 70
     1
102
RTVSPost2010Prop50
 90
       50
102
RTVSPost2010PropOp50
 70
     1
102
RTVSPost2010Prop51ColorIndex
 90
      256
102
RTVSPost2010Prop51ColorRGB
 90
-16777216
102
RTVSPost2010PropOp51
 70
     0
102
RTVSPost2010Prop52
140
1.0
102
RTVSPost2010PropOp52
 70
     0
102
RTVSPost2010Prop53
 90
        2
102
RTVSPost2010PropOp53
 70
     1
102
RTVSPost2010Prop54
  1
strokes_ogs.tif
102
RTVSPost2010PropOp54
 70
     1
102
RTVSPost2010Prop55
280
     0
102
RTVSPost2010PropOp55
 70
     1
102
RTVSPost2010Prop56
140
1.0
102
RTVSPost2010PropOp56
 70
     1
102
RTVSPost2010Prop57
140
1.0
102
RTVSPost2010PropOp57
 70
     1
  0
XRECORD
  5
14F
102
{ACAD_REACTORS
330
14E
102
}
330
14E
100
AcDbXrecord
280
     1
102
RTVSPropertyOp0
 70
     0
102
RTVSPropertyOp1
 70
     0
102
RTVSPropertyOp2
 70
     0
102
RTVSPropertyOp3
 70
     0
102
RTVSPropertyOp4
 70
     0
102
RTVSPropertyOp5
 70
     0
102
RTVSPropertyOp6
 70
     0
102
RTVSPropertyOp7
 70
     0
102
RTVSPropertyOp8
 70
     0
102
RTVSPropertyOp9
 70
     0
102
RTVSPropertyOp10
 70
     0
102
RTVSPropertyOp11
 70
     0
102
RTVSPropertyOp12
 70
     0
102
RTVSPropertyOp13
 70
     0
102
RTVSPropertyOp14
 70
     2
102
RTVSPropertyOp15
 70
     0
102
RTVSPropertyOp16
 70
     0
102
RTVSPropertyOp17
 70
     0
102
RTVSPropertyOp18
 70
     0
102
RTVSPropertyOp19
 70
     0
102
RTVSPropertyOp20
 70
     0
102
RTVSPropertyOp21
 70
     0
102
RTVSPropertyOp22
 70
     0
102
RTVSPropertyOp23
 70
     0
102
RTVSPropertyOp24
 70
     0
102
RTVSPropertyOp25
 70
     0
102
RTVSPropertyOp26
 70
     0
102
RTVSPropertyOp27
 70
     0
102
RTVSPropertyOp28
 70
     0
102
RTVSPropertyOp29
 70
     0
102
RTVSPropertyOp30
 70
     0
102
RTVSPropertyOp31
 70
     0
102
RTVSPropertyOp32
 70
     0
102
RTVSPropertyOp33
 70
     0
102
RTVSPropertyOp34
 70
     0
102
RTVSPropertyOp35
 70
     0
102
RTVSPropertyOp36
 70
     0
102
RTVSPropertyOp37
 70
     0
102
RTVSPropertyOp38
 70
     0
102
RTVSPropertyOp39
 70
     0
102
RTVSPropertyOp40
 70
     0
102
RTVSPropertyOp41
 70
     0
102
RTVSPropertyOp42
 70
     0
102
RTVSPropertyOp43
 70
     0
102
RTVSPropertyOp44
 70
     0
102
RTVSPropertyOp45
 70
     0
102
RTVSPropertyOp46
 70
     0
102
RTVSPropertyOp47
 70
     0
102
RTVSPropertyOp48
 70
     0
102
RTVSPropertyOp49
 70
     0
102
RTVSPropertyOp50
 70
     0
102
RTVSPropertyOp51
 70
     0
102
RTVSPropertyOp52
 70
     0
102
RTVSPropertyOp53
 70
     0
102
RTVSPropertyOp54
 70
     0
102
RTVSPropertyOp55
 70
     0
102
RTVSPropertyOp56
 70
     0
102
RTVSPropertyOp57
 70
     0
102
RTVSPost2010Prop28
280
     0
102
RTVSPost2010PropOp28
 70
     0
102
RTVSPost2010Prop29
280
     1
102
RTVSPost2010PropOp29
 70
     0
102
RTVSPost2010Prop30
280
     1
102
RTVSPost2010PropOp30
 70
     0
102
RTVSPost2010Prop31
280
     0
102
RTVSPost2010PropOp31
 70
     0
102
RTVSPost2010Prop32
280
     0
102
RTVSPost2010PropOp32
 70
     0
102
RTVSPost2010Prop33
280
     0
102
RTVSPost2010PropOp33
 70
     0
102
RTVSPost2010Prop34
280
     0
102
RTVSPost2010PropOp34
 70
     0
102
RTVSPost2010Prop35
280
     0
102
RTVSPost2010PropOp35
 70
     0
102
RTVSPost2010Prop36
280
     0
102
RTVSPost2010PropOp36
 70
     0
102
RTVSPost2010Prop37
 90
       50
102
RTVSPost2010PropOp37
 70
     0
102
RTVSPost2010Prop38
140
0.0
102
RTVSPost2010PropOp38
 70
     0
102
RTVSPost2010Prop39
140
1.0
102
RTVSPost2010PropOp39
 70
     0
102
RTVSPost2010Prop40
 90
        0
102
RTVSPost2010PropOp40
 70
     0
102
RTVSPost2010Prop41ColorIndex
 90
       18
102
RTVSPost2010Prop41ColorRGB
 90
        0
102
RTVSPost2010PropOp41
 70
     0
102
RTVSPost2010Prop42
 90
       50
102
RTVSPost2010PropOp42
 70
     0
102
RTVSPost2010Prop43
 90
        3
102
RTVSPost2010PropOp43
 70
     0
102
RTVSPost2010Prop44ColorIndex
 90
        5
102
RTVSPost2010Prop44ColorRGB
 90
      255
102
RTVSPost2010PropOp44
 70
     0
102
RTVSPost2010Prop45
280
     0
102
RTVSPost2010PropOp45
 70
     0
102
RTVSPost2010Prop46
 90
       50
102
RTVSPost2010PropOp46
 70
     0
102
RTVSPost2010Prop47
 90
       50
102
RTVSPost2010PropOp47
 70
     0
102
RTVSPost2010Prop48
 90
       50
102
RTVSPost2010PropOp48
 70
     0
102
RTVSPost2010Prop49
280
     0
102
RTVSPost2010PropOp49
 70
     0
102
RTVSPost2010Prop50
 90
       50
102
RTVSPost2010PropOp50
 70
     0
102
RTVSPost2010Prop51ColorIndex
 90
      256
102
RTVSPost2010Prop51ColorRGB
 90
-16777216
102
RTVSPost2010PropOp51
 70
     0
102
RTVSPost2010Prop52
140
1.0
102
RTVSPost2010PropOp52
 70
     0
102
RTVSPost2010Prop53
 90
        2
102
RTVSPost2010PropOp53
 70
     0
102
RTVSPost2010Prop54
  1
strokes_ogs.tif
102
RTVSPost2010PropOp54
 70
     0
102
RTVSPost2010Prop55
280
     0
102
RTVSPost2010PropOp55
 70
     0
102
RTVSPost2010Prop56
140
1.0
102
RTVSPost2010PropOp56
 70
     0
102
RTVSPost2010Prop57
140
1.0
102
RTVSPost2010PropOp57
 70
     0
  0
XRECORD
  5
147
102
{ACAD_REACTORS
330
146
102
}
330
146
100
AcDbXrecord
280
     1
102
RTVSPropertyOp0
 70
     1
102
RTVSPropertyOp1
 70
     1
102
RTVSPropertyOp2
 70
     1
102
RTVSPropertyOp3
 70
     1
102
RTVSPropertyOp4
 70
     1
102
RTVSPropertyOp5
 70
     1
102
RTVSPropertyOp6
 70
     1
102
RTVSPropertyOp7
 70
     1
102
RTVSPropertyOp8
 70
     1
102
RTVSPropertyOp9
 70
     1
102
RTVSPropertyOp10
 70
     1
102
RTVSPropertyOp11
 70
     1
102
RTVSPropertyOp12
 70
     1
102
RTVSPropertyOp13
 70
     1
102
RTVSPropertyOp14
 70
     1
102
RTVSPropertyOp15
 70
     1
102
RTVSPropertyOp16
 70
     1
102
RTVSPropertyOp17
 70
     1
102
RTVSPropertyOp18
 70
     1
102
RTVSPropertyOp19
 70
     1
102
RTVSPropertyOp20
 70
     1
102
RTVSPropertyOp21
 70
     1
102
RTVSPropertyOp22
 70
     1
102
RTVSPropertyOp23
 70
     1
102
RTVSPropertyOp24
 70
     1
102
RTVSPropertyOp25
 70
     1
102
RTVSPropertyOp26
 70
     1
102
RTVSPropertyOp27
 70
     1
102
RTVSPropertyOp28
 70
     1
102
RTVSPropertyOp29
 70
     1
102
RTVSPropertyOp30
 70
     1
102
RTVSPropertyOp31
 70
     1
102
RTVSPropertyOp32
 70
     1
102
RTVSPropertyOp33
 70
     1
102
RTVSPropertyOp34
 70
     1
102
RTVSPropertyOp35
 70
     1
102
RTVSPropertyOp36
 70
     1
102
RTVSPropertyOp37
 70
     1
102
RTVSPropertyOp38
 70
     1
102
RTVSPropertyOp39
 70
     1
102
RTVSPropertyOp40
 70
     1
102
RTVSPropertyOp41
 70
     1
102
RTVSPropertyOp42
 70
     1
102
RTVSPropertyOp43
 70
     1
102
RTVSPropertyOp44
 70
     1
102
RTVSPropertyOp45
 70
     1
102
RTVSPropertyOp46
 70
     1
102
RTVSPropertyOp47
 70
     1
102
RTVSPropertyOp48
 70
     1
102
RTVSPropertyOp49
 70
     1
102
RTVSPropertyOp50
 70
     1
102
RTVSPropertyOp51
 70
     0
102
RTVSPropertyOp52
 70
     0
102
RTVSPropertyOp53
 70
     1
102
RTVSPropertyOp54
 70
     1
102
RTVSPropertyOp55
 70
     1
102
RTVSPropertyOp56
 70
     1
102
RTVSPropertyOp57
 70
     1
102
RTVSPost2010Prop28
280
     0
102
RTVSPost2010PropOp28
 70
     1
102
RTVSPost2010Prop29
280
     1
102
RTVSPost2010PropOp29
 70
     1
102
RTVSPost2010Prop30
280
     1
102
RTVSPost2010PropOp30
 70
     1
102
RTVSPost2010Prop31
280
     0
102
RTVSPost2010PropOp31
 70
     1
102
RTVSPost2010Prop32
280
     0
102
RTVSPost2010PropOp32
 70
     1
102
RTVSPost2010Prop33
280
     0
102
RTVSPost2010PropOp33
 70
     1
102
RTVSPost2010Prop34
280
     0
102
RTVSPost2010PropOp34
 70
     1
102
RTVSPost2010Prop35
280
     0
102
RTVSPost2010PropOp35
 70
     1
102
RTVSPost2010Prop36
280
     0
102
RTVSPost2010PropOp36
 70
     1
102
RTVSPost2010Prop37
 90
       50
102
RTVSPost2010PropOp37
 70
     1
102
RTVSPost2010Prop38
140
0.0
102
RTVSPost2010PropOp38
 70
     1
102
RTVSPost2010Prop39
140
1.0
102
RTVSPost2010PropOp39
 70
     1
102
RTVSPost2010Prop40
 90
        0
102
RTVSPost2010PropOp40
 70
     1
102
RTVSPost2010Prop41ColorIndex
 90
       18
102
RTVSPost2010Prop41ColorRGB
 90
        0
102
RTVSPost2010PropOp41
 70
     1
102
RTVSPost2010Prop42
 90
       50
102
RTVSPost2010PropOp42
 70
     1
102
RTVSPost2010Prop43
 90
        3
102
RTVSPost2010PropOp43
 70
     1
102
RTVSPost2010Prop44ColorIndex
 90
        5
102
RTVSPost2010Prop44ColorRGB
 90
      255
102
RTVSPost2010PropOp44
 70
     1
102
RTVSPost2010Prop45
280
     0
102
RTVSPost2010PropOp45
 70
     1
102
RTVSPost2010Prop46
 90
       50
102
RTVSPost2010PropOp46
 70
     1
102
RTVSPost2010Prop47
 90
       50
102
RTVSPost2010PropOp47
 70
     1
102
RTVSPost2010Prop48
 90
       50
102
RTVSPost2010PropOp48
 70
     1
102
RTVSPost2010Prop49
280
     0
102
RTVSPost2010PropOp49
 70
     1
102
RTVSPost2010Prop50
 90
       50
102
RTVSPost2010PropOp50
 70
     1
102
RTVSPost2010Prop51ColorIndex
 90
      256
102
RTVSPost2010Prop51ColorRGB
 90
-16777216
102
RTVSPost2010PropOp51
 70
     0
102
RTVSPost2010Prop52
140
1.0
102
RTVSPost2010PropOp52
 70
     0
102
RTVSPost2010Prop53
 90
        2
102
RTVSPost2010PropOp53
 70
     1
102
RTVSPost2010Prop54
  1
strokes_ogs.tif
102
RTVSPost2010PropOp54
 70
     1
102
RTVSPost2010Prop55
280
     0
102
RTVSPost2010PropOp55
 70
     1
102
RTVSPost2010Prop56
140
1.0
102
RTVSPost2010PropOp56
 70
     1
102
RTVSPost2010Prop57
140
1.0
102
RTVSPost2010PropOp57
 70
     1
  0
XRECORD
  5
12B
102
{ACAD_REACTORS
330
12A
102
}
330
12A
100
AcDbXrecord
280
     1
102
RTVSPropertyOp0
 70
     1
102
RTVSPropertyOp1
 70
     1
102
RTVSPropertyOp2
 70
     1
102
RTVSPropertyOp3
 70
     1
102
RTVSPropertyOp4
 70
     1
102
RTVSPropertyOp5
 70
     1
102
RTVSPropertyOp6
 70
     1
102
RTVSPropertyOp7
 70
     1
102
RTVSPropertyOp8
 70
     1
102
RTVSPropertyOp9
 70
     1
102
RTVSPropertyOp10
 70
     1
102
RTVSPropertyOp11
 70
     1
102
RTVSPropertyOp12
 70
     1
102
RTVSPropertyOp13
 70
     1
102
RTVSPropertyOp14
 70
     1
102
RTVSPropertyOp15
 70
     1
102
RTVSPropertyOp16
 70
     1
102
RTVSPropertyOp17
 70
     1
102
RTVSPropertyOp18
 70
     1
102
RTVSPropertyOp19
 70
     1
102
RTVSPropertyOp20
 70
     1
102
RTVSPropertyOp21
 70
     1
102
RTVSPropertyOp22
 70
     1
102
RTVSPropertyOp23
 70
     1
102
RTVSPropertyOp24
 70
     1
102
RTVSPropertyOp25
 70
     1
102
RTVSPropertyOp26
 70
     1
102
RTVSPropertyOp27
 70
     1
102
RTVSPropertyOp28
 70
     1
102
RTVSPropertyOp29
 70
     1
102
RTVSPropertyOp30
 70
     1
102
RTVSPropertyOp31
 70
     1
102
RTVSPropertyOp32
 70
     1
102
RTVSPropertyOp33
 70
     1
102
RTVSPropertyOp34
 70
     1
102
RTVSPropertyOp35
 70
     1
102
RTVSPropertyOp36
 70
     1
102
RTVSPropertyOp37
 70
     1
102
RTVSPropertyOp38
 70
     1
102
RTVSPropertyOp39
 70
     1
102
RTVSPropertyOp40
 70
     1
102
RTVSPropertyOp41
 70
     1
102
RTVSPropertyOp42
 70
     1
102
RTVSPropertyOp43
 70
     1
102
RTVSPropertyOp44
 70
     1
102
RTVSPropertyOp45
 70
     1
102
RTVSPropertyOp46
 70
     1
102
RTVSPropertyOp47
 70
     1
102
RTVSPropertyOp48
 70
     1
102
RTVSPropertyOp49
 70
     1
102
RTVSPropertyOp50
 70
     1
102
RTVSPropertyOp51
 70
     0
102
RTVSPropertyOp52
 70
     0
102
RTVSPropertyOp53
 70
     1
102
RTVSPropertyOp54
 70
     1
102
RTVSPropertyOp55
 70
     1
102
RTVSPropertyOp56
 70
     1
102
RTVSPropertyOp57
 70
     1
102
RTVSPost2010Prop28
280
     0
102
RTVSPost2010PropOp28
 70
     1
102
RTVSPost2010Prop29
280
     1
102
RTVSPost2010PropOp29
 70
     1
102
RTVSPost2010Prop30
280
     1
102
RTVSPost2010PropOp30
 70
     1
102
RTVSPost2010Prop31
280
     0
102
RTVSPost2010PropOp31
 70
     1
102
RTVSPost2010Prop32
280
     0
102
RTVSPost2010PropOp32
 70
     1
102
RTVSPost2010Prop33
280
     0
102
RTVSPost2010PropOp33
 70
     1
102
RTVSPost2010Prop34
280
     0
102
RTVSPost2010PropOp34
 70
     1
102
RTVSPost2010Prop35
280
     0
102
RTVSPost2010PropOp35
 70
     1
102
RTVSPost2010Prop36
280
     0
102
RTVSPost2010PropOp36
 70
     1
102
RTVSPost2010Prop37
 90
       50
102
RTVSPost2010PropOp37
 70
     1
102
RTVSPost2010Prop38
140
0.0
102
RTVSPost2010PropOp38
 70
     1
102
RTVSPost2010Prop39
140
1.0
102
RTVSPost2010PropOp39
 70
     1
102
RTVSPost2010Prop40
 90
        0
102
RTVSPost2010PropOp40
 70
     1
102
RTVSPost2010Prop41ColorIndex
 90
       18
102
RTVSPost2010Prop41ColorRGB
 90
        0
102
RTVSPost2010PropOp41
 70
     1
102
RTVSPost2010Prop42
 90
       50
102
RTVSPost2010PropOp42
 70
     1
102
RTVSPost2010Prop43
 90
        3
102
RTVSPost2010PropOp43
 70
     1
102
RTVSPost2010Prop44ColorIndex
 90
        5
102
RTVSPost2010Prop44ColorRGB
 90
      255
102
RTVSPost2010PropOp44
 70
     1
102
RTVSPost2010Prop45
280
     0
102
RTVSPost2010PropOp45
 70
     1
102
RTVSPost2010Prop46
 90
       50
102
RTVSPost2010PropOp46
 70
     1
102
RTVSPost2010Prop47
 90
       50
102
RTVSPost2010PropOp47
 70
     1
102
RTVSPost2010Prop48
 90
       50
102
RTVSPost2010PropOp48
 70
     1
102
RTVSPost2010Prop49
280
     0
102
RTVSPost2010PropOp49
 70
     1
102
RTVSPost2010Prop50
 90
       50
102
RTVSPost2010PropOp50
 70
     1
102
RTVSPost2010Prop51ColorIndex
 90
      256
102
RTVSPost2010Prop51ColorRGB
 90
-16777216
102
RTVSPost2010PropOp51
 70
     0
102
RTVSPost2010Prop52
140
1.0
102
RTVSPost2010PropOp52
 70
     0
102
RTVSPost2010Prop53
 90
        2
102
RTVSPost2010PropOp53
 70
     1
102
RTVSPost2010Prop54
  1
strokes_ogs.tif
102
RTVSPost2010PropOp54
 70
     1
102
RTVSPost2010Prop55
280
     0
102
RTVSPost2010PropOp55
 70
     1
102
RTVSPost2010Prop56
140
1.0
102
RTVSPost2010PropOp56
 70
     1
102
RTVSPost2010Prop57
140
1.0
102
RTVSPost2010PropOp57
 70
     1
  0
XRECORD
  5
12D
102
{ACAD_REACTORS
330
12C
102
}
330
12C
100
AcDbXrecord
280
     1
102
RTVSPropertyOp0
 70
     1
102
RTVSPropertyOp1
 70
     1
102
RTVSPropertyOp2
 70
     1
102
RTVSPropertyOp3
 70
     1
102
RTVSPropertyOp4
 70
     1
102
RTVSPropertyOp5
 70
     1
102
RTVSPropertyOp6
 70
     1
102
RTVSPropertyOp7
 70
     1
102
RTVSPropertyOp8
 70
     1
102
RTVSPropertyOp9
 70
     1
102
RTVSPropertyOp10
 70
     1
102
RTVSPropertyOp11
 70
     1
102
RTVSPropertyOp12
 70
     1
102
RTVSPropertyOp13
 70
     1
102
RTVSPropertyOp14
 70
     1
102
RTVSPropertyOp15
 70
     1
102
RTVSPropertyOp16
 70
     1
102
RTVSPropertyOp17
 70
     1
102
RTVSPropertyOp18
 70
     1
102
RTVSPropertyOp19
 70
     1
102
RTVSPropertyOp20
 70
     1
102
RTVSPropertyOp21
 70
     1
102
RTVSPropertyOp22
 70
     1
102
RTVSPropertyOp23
 70
     1
102
RTVSPropertyOp24
 70
     1
102
RTVSPropertyOp25
 70
     1
102
RTVSPropertyOp26
 70
     1
102
RTVSPropertyOp27
 70
     1
102
RTVSPropertyOp28
 70
     1
102
RTVSPropertyOp29
 70
     1
102
RTVSPropertyOp30
 70
     1
102
RTVSPropertyOp31
 70
     1
102
RTVSPropertyOp32
 70
     1
102
RTVSPropertyOp33
 70
     1
102
RTVSPropertyOp34
 70
     1
102
RTVSPropertyOp35
 70
     1
102
RTVSPropertyOp36
 70
     1
102
RTVSPropertyOp37
 70
     1
102
RTVSPropertyOp38
 70
     1
102
RTVSPropertyOp39
 70
     1
102
RTVSPropertyOp40
 70
     1
102
RTVSPropertyOp41
 70
     1
102
RTVSPropertyOp42
 70
     1
102
RTVSPropertyOp43
 70
     1
102
RTVSPropertyOp44
 70
     1
102
RTVSPropertyOp45
 70
     1
102
RTVSPropertyOp46
 70
     1
102
RTVSPropertyOp47
 70
     1
102
RTVSPropertyOp48
 70
     1
102
RTVSPropertyOp49
 70
     1
102
RTVSPropertyOp50
 70
     1
102
RTVSPropertyOp51
 70
     0
102
RTVSPropertyOp52
 70
     0
102
RTVSPropertyOp53
 70
     1
102
RTVSPropertyOp54
 70
     1
102
RTVSPropertyOp55
 70
     1
102
RTVSPropertyOp56
 70
     1
102
RTVSPropertyOp57
 70
     1
102
RTVSPost2010Prop28
280
     0
102
RTVSPost2010PropOp28
 70
     1
102
RTVSPost2010Prop29
280
     1
102
RTVSPost2010PropOp29
 70
     1
102
RTVSPost2010Prop30
280
     1
102
RTVSPost2010PropOp30
 70
     1
102
RTVSPost2010Prop31
280
     0
102
RTVSPost2010PropOp31
 70
     1
102
RTVSPost2010Prop32
280
     0
102
RTVSPost2010PropOp32
 70
     1
102
RTVSPost2010Prop33
280
     0
102
RTVSPost2010PropOp33
 70
     1
102
RTVSPost2010Prop34
280
     0
102
RTVSPost2010PropOp34
 70
     1
102
RTVSPost2010Prop35
280
     0
102
RTVSPost2010PropOp35
 70
     1
102
RTVSPost2010Prop36
280
     0
102
RTVSPost2010PropOp36
 70
     1
102
RTVSPost2010Prop37
 90
       50
102
RTVSPost2010PropOp37
 70
     1
102
RTVSPost2010Prop38
140
0.0
102
RTVSPost2010PropOp38
 70
     1
102
RTVSPost2010Prop39
140
1.0
102
RTVSPost2010PropOp39
 70
     1
102
RTVSPost2010Prop40
 90
        0
102
RTVSPost2010PropOp40
 70
     1
102
RTVSPost2010Prop41ColorIndex
 90
       18
102
RTVSPost2010Prop41ColorRGB
 90
        0
102
RTVSPost2010PropOp41
 70
     1
102
RTVSPost2010Prop42
 90
       50
102
RTVSPost2010PropOp42
 70
     1
102
RTVSPost2010Prop43
 90
        3
102
RTVSPost2010PropOp43
 70
     1
102
RTVSPost2010Prop44ColorIndex
 90
        5
102
RTVSPost2010Prop44ColorRGB
 90
      255
102
RTVSPost2010PropOp44
 70
     1
102
RTVSPost2010Prop45
280
     0
102
RTVSPost2010PropOp45
 70
     1
102
RTVSPost2010Prop46
 90
       50
102
RTVSPost2010PropOp46
 70
     1
102
RTVSPost2010Prop47
 90
       50
102
RTVSPost2010PropOp47
 70
     1
102
RTVSPost2010Prop48
 90
       50
102
RTVSPost2010PropOp48
 70
     1
102
RTVSPost2010Prop49
280
     0
102
RTVSPost2010PropOp49
 70
     1
102
RTVSPost2010Prop50
 90
       50
102
RTVSPost2010PropOp50
 70
     1
102
RTVSPost2010Prop51ColorIndex
 90
      256
102
RTVSPost2010Prop51ColorRGB
 90
-16777216
102
RTVSPost2010PropOp51
 70
     0
102
RTVSPost2010Prop52
140
1.0
102
RTVSPost2010PropOp52
 70
     0
102
RTVSPost2010Prop53
 90
        2
102
RTVSPost2010PropOp53
 70
     1
102
RTVSPost2010Prop54
  1
strokes_ogs.tif
102
RTVSPost2010PropOp54
 70
     1
102
RTVSPost2010Prop55
280
     0
102
RTVSPost2010PropOp55
 70
     1
102
RTVSPost2010Prop56
140
1.0
102
RTVSPost2010PropOp56
 70
     1
102
RTVSPost2010Prop57
140
1.0
102
RTVSPost2010PropOp57
 70
     1
  0
XRECORD
  5
12F
102
{ACAD_REACTORS
330
12E
102
}
330
12E
100
AcDbXrecord
280
     1
102
RTVSPropertyOp0
 70
     1
102
RTVSPropertyOp1
 70
     1
102
RTVSPropertyOp2
 70
     1
102
RTVSPropertyOp3
 70
     1
102
RTVSPropertyOp4
 70
     1
102
RTVSPropertyOp5
 70
     1
102
RTVSPropertyOp6
 70
     1
102
RTVSPropertyOp7
 70
     1
102
RTVSPropertyOp8
 70
     1
102
RTVSPropertyOp9
 70
     1
102
RTVSPropertyOp10
 70
     1
102
RTVSPropertyOp11
 70
     1
102
RTVSPropertyOp12
 70
     1
102
RTVSPropertyOp13
 70
     1
102
RTVSPropertyOp14
 70
     1
102
RTVSPropertyOp15
 70
     1
102
RTVSPropertyOp16
 70
     1
102
RTVSPropertyOp17
 70
     1
102
RTVSPropertyOp18
 70
     1
102
RTVSPropertyOp19
 70
     1
102
RTVSPropertyOp20
 70
     1
102
RTVSPropertyOp21
 70
     1
102
RTVSPropertyOp22
 70
     1
102
RTVSPropertyOp23
 70
     1
102
RTVSPropertyOp24
 70
     1
102
RTVSPropertyOp25
 70
     1
102
RTVSPropertyOp26
 70
     1
102
RTVSPropertyOp27
 70
     1
102
RTVSPropertyOp28
 70
     1
102
RTVSPropertyOp29
 70
     1
102
RTVSPropertyOp30
 70
     1
102
RTVSPropertyOp31
 70
     1
102
RTVSPropertyOp32
 70
     1
102
RTVSPropertyOp33
 70
     1
102
RTVSPropertyOp34
 70
     1
102
RTVSPropertyOp35
 70
     1
102
RTVSPropertyOp36
 70
     1
102
RTVSPropertyOp37
 70
     1
102
RTVSPropertyOp38
 70
     1
102
RTVSPropertyOp39
 70
     1
102
RTVSPropertyOp40
 70
     1
102
RTVSPropertyOp41
 70
     1
102
RTVSPropertyOp42
 70
     1
102
RTVSPropertyOp43
 70
     1
102
RTVSPropertyOp44
 70
     1
102
RTVSPropertyOp45
 70
     1
102
RTVSPropertyOp46
 70
     1
102
RTVSPropertyOp47
 70
     1
102
RTVSPropertyOp48
 70
     1
102
RTVSPropertyOp49
 70
     1
102
RTVSPropertyOp50
 70
     1
102
RTVSPropertyOp51
 70
     0
102
RTVSPropertyOp52
 70
     0
102
RTVSPropertyOp53
 70
     1
102
RTVSPropertyOp54
 70
     1
102
RTVSPropertyOp55
 70
     1
102
RTVSPropertyOp56
 70
     1
102
RTVSPropertyOp57
 70
     1
102
RTVSPost2010Prop28
280
     0
102
RTVSPost2010PropOp28
 70
     1
102
RTVSPost2010Prop29
280
     1
102
RTVSPost2010PropOp29
 70
     1
102
RTVSPost2010Prop30
280
     1
102
RTVSPost2010PropOp30
 70
     1
102
RTVSPost2010Prop31
280
     0
102
RTVSPost2010PropOp31
 70
     1
102
RTVSPost2010Prop32
280
     0
102
RTVSPost2010PropOp32
 70
     1
102
RTVSPost2010Prop33
280
     0
102
RTVSPost2010PropOp33
 70
     1
102
RTVSPost2010Prop34
280
     0
102
RTVSPost2010PropOp34
 70
     1
102
RTVSPost2010Prop35
280
     0
102
RTVSPost2010PropOp35
 70
     1
102
RTVSPost2010Prop36
280
     0
102
RTVSPost2010PropOp36
 70
     1
102
RTVSPost2010Prop37
 90
       50
102
RTVSPost2010PropOp37
 70
     1
102
RTVSPost2010Prop38
140
0.0
102
RTVSPost2010PropOp38
 70
     1
102
RTVSPost2010Prop39
140
1.0
102
RTVSPost2010PropOp39
 70
     1
102
RTVSPost2010Prop40
 90
        0
102
RTVSPost2010PropOp40
 70
     1
102
RTVSPost2010Prop41ColorIndex
 90
       18
102
RTVSPost2010Prop41ColorRGB
 90
        0
102
RTVSPost2010PropOp41
 70
     1
102
RTVSPost2010Prop42
 90
       50
102
RTVSPost2010PropOp42
 70
     1
102
RTVSPost2010Prop43
 90
        3
102
RTVSPost2010PropOp43
 70
     1
102
RTVSPost2010Prop44ColorIndex
 90
        5
102
RTVSPost2010Prop44ColorRGB
 90
      255
102
RTVSPost2010PropOp44
 70
     1
102
RTVSPost2010Prop45
280
     0
102
RTVSPost2010PropOp45
 70
     1
102
RTVSPost2010Prop46
 90
       50
102
RTVSPost2010PropOp46
 70
     1
102
RTVSPost2010Prop47
 90
       50
102
RTVSPost2010PropOp47
 70
     1
102
RTVSPost2010Prop48
 90
       50
102
RTVSPost2010PropOp48
 70
     1
102
RTVSPost2010Prop49
280
     0
102
RTVSPost2010PropOp49
 70
     1
102
RTVSPost2010Prop50
 90
       50
102
RTVSPost2010PropOp50
 70
     1
102
RTVSPost2010Prop51ColorIndex
 90
      256
102
RTVSPost2010Prop51ColorRGB
 90
-16777216
102
RTVSPost2010PropOp51
 70
     0
102
RTVSPost2010Prop52
140
1.0
102
RTVSPost2010PropOp52
 70
     0
102
RTVSPost2010Prop53
 90
        2
102
RTVSPost2010PropOp53
 70
     1
102
RTVSPost2010Prop54
  1
strokes_ogs.tif
102
RTVSPost2010PropOp54
 70
     1
102
RTVSPost2010Prop55
280
     0
102
RTVSPost2010PropOp55
 70
     1
102
RTVSPost2010Prop56
140
1.0
102
RTVSPost2010PropOp56
 70
     1
102
RTVSPost2010Prop57
140
1.0
102
RTVSPost2010PropOp57
 70
     1
  0
XRECORD
  5
131
102
{ACAD_REACTORS
330
130
102
}
330
130
100
AcDbXrecord
280
     1
102
RTVSPropertyOp0
 70
     1
102
RTVSPropertyOp1
 70
     1
102
RTVSPropertyOp2
 70
     1
102
RTVSPropertyOp3
 70
     1
102
RTVSPropertyOp4
 70
     1
102
RTVSPropertyOp5
 70
     1
102
RTVSPropertyOp6
 70
     1
102
RTVSPropertyOp7
 70
     1
102
RTVSPropertyOp8
 70
     1
102
RTVSPropertyOp9
 70
     1
102
RTVSPropertyOp10
 70
     1
102
RTVSPropertyOp11
 70
     1
102
RTVSPropertyOp12
 70
     1
102
RTVSPropertyOp13
 70
     1
102
RTVSPropertyOp14
 70
     1
102
RTVSPropertyOp15
 70
     1
102
RTVSPropertyOp16
 70
     1
102
RTVSPropertyOp17
 70
     1
102
RTVSPropertyOp18
 70
     1
102
RTVSPropertyOp19
 70
     1
102
RTVSPropertyOp20
 70
     1
102
RTVSPropertyOp21
 70
     1
102
RTVSPropertyOp22
 70
     1
102
RTVSPropertyOp23
 70
     1
102
RTVSPropertyOp24
 70
     1
102
RTVSPropertyOp25
 70
     1
102
RTVSPropertyOp26
 70
     1
102
RTVSPropertyOp27
 70
     1
102
RTVSPropertyOp28
 70
     1
102
RTVSPropertyOp29
 70
     1
102
RTVSPropertyOp30
 70
     1
102
RTVSPropertyOp31
 70
     1
102
RTVSPropertyOp32
 70
     1
102
RTVSPropertyOp33
 70
     1
102
RTVSPropertyOp34
 70
     1
102
RTVSPropertyOp35
 70
     1
102
RTVSPropertyOp36
 70
     1
102
RTVSPropertyOp37
 70
     1
102
RTVSPropertyOp38
 70
     1
102
RTVSPropertyOp39
 70
     1
102
RTVSPropertyOp40
 70
     1
102
RTVSPropertyOp41
 70
     1
102
RTVSPropertyOp42
 70
     1
102
RTVSPropertyOp43
 70
     1
102
RTVSPropertyOp44
 70
     1
102
RTVSPropertyOp45
 70
     1
102
RTVSPropertyOp46
 70
     1
102
RTVSPropertyOp47
 70
     1
102
RTVSPropertyOp48
 70
     1
102
RTVSPropertyOp49
 70
     1
102
RTVSPropertyOp50
 70
     1
102
RTVSPropertyOp51
 70
     0
102
RTVSPropertyOp52
 70
     0
102
RTVSPropertyOp53
 70
     1
102
RTVSPropertyOp54
 70
     1
102
RTVSPropertyOp55
 70
     1
102
RTVSPropertyOp56
 70
     1
102
RTVSPropertyOp57
 70
     1
102
RTVSPost2010Prop28
280
     0
102
RTVSPost2010PropOp28
 70
     1
102
RTVSPost2010Prop29
280
     1
102
RTVSPost2010PropOp29
 70
     1
102
RTVSPost2010Prop30
280
     1
102
RTVSPost2010PropOp30
 70
     1
102
RTVSPost2010Prop31
280
     0
102
RTVSPost2010PropOp31
 70
     1
102
RTVSPost2010Prop32
280
     0
102
RTVSPost2010PropOp32
 70
     1
102
RTVSPost2010Prop33
280
     0
102
RTVSPost2010PropOp33
 70
     1
102
RTVSPost2010Prop34
280
     0
102
RTVSPost2010PropOp34
 70
     1
102
RTVSPost2010Prop35
280
     0
102
RTVSPost2010PropOp35
 70
     1
102
RTVSPost2010Prop36
280
     0
102
RTVSPost2010PropOp36
 70
     1
102
RTVSPost2010Prop37
 90
       50
102
RTVSPost2010PropOp37
 70
     1
102
RTVSPost2010Prop38
140
0.0
102
RTVSPost2010PropOp38
 70
     1
102
RTVSPost2010Prop39
140
1.0
102
RTVSPost2010PropOp39
 70
     1
102
RTVSPost2010Prop40
 90
        0
102
RTVSPost2010PropOp40
 70
     1
102
RTVSPost2010Prop41ColorIndex
 90
       18
102
RTVSPost2010Prop41ColorRGB
 90
        0
102
RTVSPost2010PropOp41
 70
     1
102
RTVSPost2010Prop42
 90
       50
102
RTVSPost2010PropOp42
 70
     1
102
RTVSPost2010Prop43
 90
        3
102
RTVSPost2010PropOp43
 70
     1
102
RTVSPost2010Prop44ColorIndex
 90
        5
102
RTVSPost2010Prop44ColorRGB
 90
      255
102
RTVSPost2010PropOp44
 70
     1
102
RTVSPost2010Prop45
280
     0
102
RTVSPost2010PropOp45
 70
     1
102
RTVSPost2010Prop46
 90
       50
102
RTVSPost2010PropOp46
 70
     1
102
RTVSPost2010Prop47
 90
       50
102
RTVSPost2010PropOp47
 70
     1
102
RTVSPost2010Prop48
 90
       50
102
RTVSPost2010PropOp48
 70
     1
102
RTVSPost2010Prop49
280
     0
102
RTVSPost2010PropOp49
 70
     1
102
RTVSPost2010Prop50
 90
       50
102
RTVSPost2010PropOp50
 70
     1
102
RTVSPost2010Prop51ColorIndex
 90
      256
102
RTVSPost2010Prop51ColorRGB
 90
-16777216
102
RTVSPost2010PropOp51
 70
     0
102
RTVSPost2010Prop52
140
1.0
102
RTVSPost2010PropOp52
 70
     0
102
RTVSPost2010Prop53
 90
        2
102
RTVSPost2010PropOp53
 70
     1
102
RTVSPost2010Prop54
  1
strokes_ogs.tif
102
RTVSPost2010PropOp54
 70
     1
102
RTVSPost2010Prop55
280
     0
102
RTVSPost2010PropOp55
 70
     1
102
RTVSPost2010Prop56
140
1.0
102
RTVSPost2010PropOp56
 70
     1
102
RTVSPost2010Prop57
140
1.0
102
RTVSPost2010PropOp57
 70
     1
  0
XRECORD
  5
137
102
{ACAD_REACTORS
330
136
102
}
330
136
100
AcDbXrecord
280
     1
102
RTVSPropertyOp0
 70
     1
102
RTVSPropertyOp1
 70
     1
102
RTVSPropertyOp2
 70
     1
102
RTVSPropertyOp3
 70
     1
102
RTVSPropertyOp4
 70
     1
102
RTVSPropertyOp5
 70
     1
102
RTVSPropertyOp6
 70
     1
102
RTVSPropertyOp7
 70
     1
102
RTVSPropertyOp8
 70
     1
102
RTVSPropertyOp9
 70
     1
102
RTVSPropertyOp10
 70
     1
102
RTVSPropertyOp11
 70
     1
102
RTVSPropertyOp12
 70
     1
102
RTVSPropertyOp13
 70
     1
102
RTVSPropertyOp14
 70
     1
102
RTVSPropertyOp15
 70
     1
102
RTVSPropertyOp16
 70
     1
102
RTVSPropertyOp17
 70
     1
102
RTVSPropertyOp18
 70
     1
102
RTVSPropertyOp19
 70
     1
102
RTVSPropertyOp20
 70
     1
102
RTVSPropertyOp21
 70
     1
102
RTVSPropertyOp22
 70
     1
102
RTVSPropertyOp23
 70
     1
102
RTVSPropertyOp24
 70
     1
102
RTVSPropertyOp25
 70
     1
102
RTVSPropertyOp26
 70
     1
102
RTVSPropertyOp27
 70
     1
102
RTVSPropertyOp28
 70
     1
102
RTVSPropertyOp29
 70
     1
102
RTVSPropertyOp30
 70
     1
102
RTVSPropertyOp31
 70
     1
102
RTVSPropertyOp32
 70
     1
102
RTVSPropertyOp33
 70
     1
102
RTVSPropertyOp34
 70
     1
102
RTVSPropertyOp35
 70
     1
102
RTVSPropertyOp36
 70
     1
102
RTVSPropertyOp37
 70
     1
102
RTVSPropertyOp38
 70
     1
102
RTVSPropertyOp39
 70
     1
102
RTVSPropertyOp40
 70
     1
102
RTVSPropertyOp41
 70
     1
102
RTVSPropertyOp42
 70
     1
102
RTVSPropertyOp43
 70
     1
102
RTVSPropertyOp44
 70
     1
102
RTVSPropertyOp45
 70
     1
102
RTVSPropertyOp46
 70
     1
102
RTVSPropertyOp47
 70
     1
102
RTVSPropertyOp48
 70
     1
102
RTVSPropertyOp49
 70
     1
102
RTVSPropertyOp50
 70
     1
102
RTVSPropertyOp51
 70
     0
102
RTVSPropertyOp52
 70
     0
102
RTVSPropertyOp53
 70
     1
102
RTVSPropertyOp54
 70
     1
102
RTVSPropertyOp55
 70
     1
102
RTVSPropertyOp56
 70
     1
102
RTVSPropertyOp57
 70
     1
102
RTVSPost2010Prop28
280
     0
102
RTVSPost2010PropOp28
 70
     1
102
RTVSPost2010Prop29
280
     1
102
RTVSPost2010PropOp29
 70
     1
102
RTVSPost2010Prop30
280
     1
102
RTVSPost2010PropOp30
 70
     1
102
RTVSPost2010Prop31
280
     0
102
RTVSPost2010PropOp31
 70
     1
102
RTVSPost2010Prop32
280
     0
102
RTVSPost2010PropOp32
 70
     1
102
RTVSPost2010Prop33
280
     0
102
RTVSPost2010PropOp33
 70
     1
102
RTVSPost2010Prop34
280
     0
102
RTVSPost2010PropOp34
 70
     1
102
RTVSPost2010Prop35
280
     0
102
RTVSPost2010PropOp35
 70
     1
102
RTVSPost2010Prop36
280
     0
102
RTVSPost2010PropOp36
 70
     1
102
RTVSPost2010Prop37
 90
       50
102
RTVSPost2010PropOp37
 70
     1
102
RTVSPost2010Prop38
140
0.0
102
RTVSPost2010PropOp38
 70
     1
102
RTVSPost2010Prop39
140
1.0
102
RTVSPost2010PropOp39
 70
     1
102
RTVSPost2010Prop40
 90
        0
102
RTVSPost2010PropOp40
 70
     1
102
RTVSPost2010Prop41ColorIndex
 90
       18
102
RTVSPost2010Prop41ColorRGB
 90
        0
102
RTVSPost2010PropOp41
 70
     1
102
RTVSPost2010Prop42
 90
       50
102
RTVSPost2010PropOp42
 70
     1
102
RTVSPost2010Prop43
 90
        3
102
RTVSPost2010PropOp43
 70
     1
102
RTVSPost2010Prop44ColorIndex
 90
        5
102
RTVSPost2010Prop44ColorRGB
 90
      255
102
RTVSPost2010PropOp44
 70
     1
102
RTVSPost2010Prop45
280
     0
102
RTVSPost2010PropOp45
 70
     1
102
RTVSPost2010Prop46
 90
       50
102
RTVSPost2010PropOp46
 70
     1
102
RTVSPost2010Prop47
 90
       50
102
RTVSPost2010PropOp47
 70
     1
102
RTVSPost2010Prop48
 90
       50
102
RTVSPost2010PropOp48
 70
     1
102
RTVSPost2010Prop49
280
     0
102
RTVSPost2010PropOp49
 70
     1
102
RTVSPost2010Prop50
 90
       50
102
RTVSPost2010PropOp50
 70
     1
102
RTVSPost2010Prop51ColorIndex
 90
      256
102
RTVSPost2010Prop51ColorRGB
 90
-16777216
102
RTVSPost2010PropOp51
 70
     0
102
RTVSPost2010Prop52
140
1.0
102
RTVSPost2010PropOp52
 70
     0
102
RTVSPost2010Prop53
 90
        2
102
RTVSPost2010PropOp53
 70
     1
102
RTVSPost2010Prop54
  1
strokes_ogs.tif
102
RTVSPost2010PropOp54
 70
     1
102
RTVSPost2010Prop55
280
     0
102
RTVSPost2010PropOp55
 70
     1
102
RTVSPost2010Prop56
140
1.0
102
RTVSPost2010PropOp56
 70
     1
102
RTVSPost2010Prop57
140
1.0
102
RTVSPost2010PropOp57
 70
     1
  0
XRECORD
  5
14B
102
{ACAD_REACTORS
330
14A
102
}
330
14A
100
AcDbXrecord
280
     1
102
RTVSPropertyOp0
 70
     0
102
RTVSPropertyOp1
 70
     0
102
RTVSPropertyOp2
 70
     0
102
RTVSPropertyOp3
 70
     0
102
RTVSPropertyOp4
 70
     0
102
RTVSPropertyOp5
 70
     0
102
RTVSPropertyOp6
 70
     0
102
RTVSPropertyOp7
 70
     0
102
RTVSPropertyOp8
 70
     0
102
RTVSPropertyOp9
 70
     0
102
RTVSPropertyOp10
 70
     0
102
RTVSPropertyOp11
 70
     0
102
RTVSPropertyOp12
 70
     0
102
RTVSPropertyOp13
 70
     0
102
RTVSPropertyOp14
 70
     2
102
RTVSPropertyOp15
 70
     0
102
RTVSPropertyOp16
 70
     0
102
RTVSPropertyOp17
 70
     0
102
RTVSPropertyOp18
 70
     0
102
RTVSPropertyOp19
 70
     0
102
RTVSPropertyOp20
 70
     0
102
RTVSPropertyOp21
 70
     0
102
RTVSPropertyOp22
 70
     0
102
RTVSPropertyOp23
 70
     0
102
RTVSPropertyOp24
 70
     0
102
RTVSPropertyOp25
 70
     0
102
RTVSPropertyOp26
 70
     0
102
RTVSPropertyOp27
 70
     0
102
RTVSPropertyOp28
 70
     0
102
RTVSPropertyOp29
 70
     0
102
RTVSPropertyOp30
 70
     0
102
RTVSPropertyOp31
 70
     0
102
RTVSPropertyOp32
 70
     0
102
RTVSPropertyOp33
 70
     0
102
RTVSPropertyOp34
 70
     0
102
RTVSPropertyOp35
 70
     0
102
RTVSPropertyOp36
 70
     0
102
RTVSPropertyOp37
 70
     0
102
RTVSPropertyOp38
 70
     0
102
RTVSPropertyOp39
 70
     0
102
RTVSPropertyOp40
 70
     0
102
RTVSPropertyOp41
 70
     0
102
RTVSPropertyOp42
 70
     0
102
RTVSPropertyOp43
 70
     0
102
RTVSPropertyOp44
 70
     0
102
RTVSPropertyOp45
 70
     0
102
RTVSPropertyOp46
 70
     0
102
RTVSPropertyOp47
 70
     0
102
RTVSPropertyOp48
 70
     0
102
RTVSPropertyOp49
 70
     0
102
RTVSPropertyOp50
 70
     0
102
RTVSPropertyOp51
 70
     0
102
RTVSPropertyOp52
 70
     0
102
RTVSPropertyOp53
 70
     0
102
RTVSPropertyOp54
 70
     0
102
RTVSPropertyOp55
 70
     0
102
RTVSPropertyOp56
 70
     0
102
RTVSPropertyOp57
 70
     0
102
RTVSPost2010Prop28
280
     0
102
RTVSPost2010PropOp28
 70
     0
102
RTVSPost2010Prop29
280
     1
102
RTVSPost2010PropOp29
 70
     0
102
RTVSPost2010Prop30
280
     1
102
RTVSPost2010PropOp30
 70
     0
102
RTVSPost2010Prop31
280
     0
102
RTVSPost2010PropOp31
 70
     0
102
RTVSPost2010Prop32
280
     0
102
RTVSPost2010PropOp32
 70
     0
102
RTVSPost2010Prop33
280
     0
102
RTVSPost2010PropOp33
 70
     0
102
RTVSPost2010Prop34
280
     0
102
RTVSPost2010PropOp34
 70
     0
102
RTVSPost2010Prop35
280
     0
102
RTVSPost2010PropOp35
 70
     0
102
RTVSPost2010Prop36
280
     0
102
RTVSPost2010PropOp36
 70
     0
102
RTVSPost2010Prop37
 90
       50
102
RTVSPost2010PropOp37
 70
     0
102
RTVSPost2010Prop38
140
0.0
102
RTVSPost2010PropOp38
 70
     0
102
RTVSPost2010Prop39
140
1.0
102
RTVSPost2010PropOp39
 70
     0
102
RTVSPost2010Prop40
 90
        0
102
RTVSPost2010PropOp40
 70
     0
102
RTVSPost2010Prop41ColorIndex
 90
       18
102
RTVSPost2010Prop41ColorRGB
 90
        0
102
RTVSPost2010PropOp41
 70
     0
102
RTVSPost2010Prop42
 90
       50
102
RTVSPost2010PropOp42
 70
     0
102
RTVSPost2010Prop43
 90
        3
102
RTVSPost2010PropOp43
 70
     0
102
RTVSPost2010Prop44ColorIndex
 90
        5
102
RTVSPost2010Prop44ColorRGB
 90
      255
102
RTVSPost2010PropOp44
 70
     0
102
RTVSPost2010Prop45
280
     0
102
RTVSPost2010PropOp45
 70
     0
102
RTVSPost2010Prop46
 90
       50
102
RTVSPost2010PropOp46
 70
     0
102
RTVSPost2010Prop47
 90
       50
102
RTVSPost2010PropOp47
 70
     0
102
RTVSPost2010Prop48
 90
       50
102
RTVSPost2010PropOp48
 70
     0
102
RTVSPost2010Prop49
280
     0
102
RTVSPost2010PropOp49
 70
     0
102
RTVSPost2010Prop50
 90
       50
102
RTVSPost2010PropOp50
 70
     0
102
RTVSPost2010Prop51ColorIndex
 90
      256
102
RTVSPost2010Prop51ColorRGB
 90
-16777216
102
RTVSPost2010PropOp51
 70
     0
102
RTVSPost2010Prop52
140
1.0
102
RTVSPost2010PropOp52
 70
     0
102
RTVSPost2010Prop53
 90
        2
102
RTVSPost2010PropOp53
 70
     0
102
RTVSPost2010Prop54
  1
strokes_ogs.tif
102
RTVSPost2010PropOp54
 70
     0
102
RTVSPost2010Prop55
280
     0
102
RTVSPost2010PropOp55
 70
     0
102
RTVSPost2010Prop56
140
1.0
102
RTVSPost2010PropOp56
 70
     0
102
RTVSPost2010Prop57
140
1.0
102
RTVSPost2010PropOp57
 70
     0
  0
XRECORD
  5
145
102
{ACAD_REACTORS
330
144
102
}
330
144
100
AcDbXrecord
280
     1
102
RTVSPropertyOp0
 70
     1
102
RTVSPropertyOp1
 70
     1
102
RTVSPropertyOp2
 70
     1
102
RTVSPropertyOp3
 70
     1
102
RTVSPropertyOp4
 70
     1
102
RTVSPropertyOp5
 70
     1
102
RTVSPropertyOp6
 70
     1
102
RTVSPropertyOp7
 70
     1
102
RTVSPropertyOp8
 70
     1
102
RTVSPropertyOp9
 70
     1
102
RTVSPropertyOp10
 70
     1
102
RTVSPropertyOp11
 70
     1
102
RTVSPropertyOp12
 70
     1
102
RTVSPropertyOp13
 70
     1
102
RTVSPropertyOp14
 70
     1
102
RTVSPropertyOp15
 70
     1
102
RTVSPropertyOp16
 70
     1
102
RTVSPropertyOp17
 70
     1
102
RTVSPropertyOp18
 70
     1
102
RTVSPropertyOp19
 70
     1
102
RTVSPropertyOp20
 70
     1
102
RTVSPropertyOp21
 70
     1
102
RTVSPropertyOp22
 70
     1
102
RTVSPropertyOp23
 70
     1
102
RTVSPropertyOp24
 70
     1
102
RTVSPropertyOp25
 70
     1
102
RTVSPropertyOp26
 70
     1
102
RTVSPropertyOp27
 70
     1
102
RTVSPropertyOp28
 70
     1
102
RTVSPropertyOp29
 70
     1
102
RTVSPropertyOp30
 70
     1
102
RTVSPropertyOp31
 70
     1
102
RTVSPropertyOp32
 70
     1
102
RTVSPropertyOp33
 70
     1
102
RTVSPropertyOp34
 70
     1
102
RTVSPropertyOp35
 70
     1
102
RTVSPropertyOp36
 70
     1
102
RTVSPropertyOp37
 70
     1
102
RTVSPropertyOp38
 70
     1
102
RTVSPropertyOp39
 70
     1
102
RTVSPropertyOp40
 70
     1
102
RTVSPropertyOp41
 70
     1
102
RTVSPropertyOp42
 70
     1
102
RTVSPropertyOp43
 70
     1
102
RTVSPropertyOp44
 70
     1
102
RTVSPropertyOp45
 70
     1
102
RTVSPropertyOp46
 70
     1
102
RTVSPropertyOp47
 70
     1
102
RTVSPropertyOp48
 70
     1
102
RTVSPropertyOp49
 70
     1
102
RTVSPropertyOp50
 70
     1
102
RTVSPropertyOp51
 70
     0
102
RTVSPropertyOp52
 70
     0
102
RTVSPropertyOp53
 70
     1
102
RTVSPropertyOp54
 70
     1
102
RTVSPropertyOp55
 70
     1
102
RTVSPropertyOp56
 70
     1
102
RTVSPropertyOp57
 70
     1
102
RTVSPost2010Prop28
280
     0
102
RTVSPost2010PropOp28
 70
     1
102
RTVSPost2010Prop29
280
     1
102
RTVSPost2010PropOp29
 70
     1
102
RTVSPost2010Prop30
280
     1
102
RTVSPost2010PropOp30
 70
     1
102
RTVSPost2010Prop31
280
     0
102
RTVSPost2010PropOp31
 70
     1
102
RTVSPost2010Prop32
280
     0
102
RTVSPost2010PropOp32
 70
     1
102
RTVSPost2010Prop33
280
     0
102
RTVSPost2010PropOp33
 70
     1
102
RTVSPost2010Prop34
280
     0
102
RTVSPost2010PropOp34
 70
     1
102
RTVSPost2010Prop35
280
     0
102
RTVSPost2010PropOp35
 70
     1
102
RTVSPost2010Prop36
280
     0
102
RTVSPost2010PropOp36
 70
     1
102
RTVSPost2010Prop37
 90
       50
102
RTVSPost2010PropOp37
 70
     1
102
RTVSPost2010Prop38
140
0.0
102
RTVSPost2010PropOp38
 70
     1
102
RTVSPost2010Prop39
140
1.0
102
RTVSPost2010PropOp39
 70
     1
102
RTVSPost2010Prop40
 90
        0
102
RTVSPost2010PropOp40
 70
     1
102
RTVSPost2010Prop41ColorIndex
 90
       18
102
RTVSPost2010Prop41ColorRGB
 90
        0
102
RTVSPost2010PropOp41
 70
     1
102
RTVSPost2010Prop42
 90
       50
102
RTVSPost2010PropOp42
 70
     1
102
RTVSPost2010Prop43
 90
        3
102
RTVSPost2010PropOp43
 70
     1
102
RTVSPost2010Prop44ColorIndex
 90
        5
102
RTVSPost2010Prop44ColorRGB
 90
      255
102
RTVSPost2010PropOp44
 70
     1
102
RTVSPost2010Prop45
280
     0
102
RTVSPost2010PropOp45
 70
     1
102
RTVSPost2010Prop46
 90
       50
102
RTVSPost2010PropOp46
 70
     1
102
RTVSPost2010Prop47
 90
       50
102
RTVSPost2010PropOp47
 70
     1
102
RTVSPost2010Prop48
 90
       50
102
RTVSPost2010PropOp48
 70
     1
102
RTVSPost2010Prop49
280
     0
102
RTVSPost2010PropOp49
 70
     1
102
RTVSPost2010Prop50
 90
       50
102
RTVSPost2010PropOp50
 70
     1
102
RTVSPost2010Prop51ColorIndex
 90
      256
102
RTVSPost2010Prop51ColorRGB
 90
-16777216
102
RTVSPost2010PropOp51
 70
     0
102
RTVSPost2010Prop52
140
1.0
102
RTVSPost2010PropOp52
 70
     0
102
RTVSPost2010Prop53
 90
        2
102
RTVSPost2010PropOp53
 70
     1
102
RTVSPost2010Prop54
  1
strokes_ogs.tif
102
RTVSPost2010PropOp54
 70
     1
102
RTVSPost2010Prop55
280
     0
102
RTVSPost2010PropOp55
 70
     1
102
RTVSPost2010Prop56
140
1.0
102
RTVSPost2010PropOp56
 70
     1
102
RTVSPost2010Prop57
140
1.0
102
RTVSPost2010PropOp57
 70
     1
  0
XRECORD
  5
14D
102
{ACAD_REACTORS
330
14C
102
}
330
14C
100
AcDbXrecord
280
     1
102
RTVSPropertyOp0
 70
     0
102
RTVSPropertyOp1
 70
     0
102
RTVSPropertyOp2
 70
     0
102
RTVSPropertyOp3
 70
     0
102
RTVSPropertyOp4
 70
     0
102
RTVSPropertyOp5
 70
     0
102
RTVSPropertyOp6
 70
     0
102
RTVSPropertyOp7
 70
     0
102
RTVSPropertyOp8
 70
     0
102
RTVSPropertyOp9
 70
     0
102
RTVSPropertyOp10
 70
     0
102
RTVSPropertyOp11
 70
     0
102
RTVSPropertyOp12
 70
     0
102
RTVSPropertyOp13
 70
     0
102
RTVSPropertyOp14
 70
     2
102
RTVSPropertyOp15
 70
     0
102
RTVSPropertyOp16
 70
     0
102
RTVSPropertyOp17
 70
     0
102
RTVSPropertyOp18
 70
     0
102
RTVSPropertyOp19
 70
     0
102
RTVSPropertyOp20
 70
     0
102
RTVSPropertyOp21
 70
     0
102
RTVSPropertyOp22
 70
     0
102
RTVSPropertyOp23
 70
     0
102
RTVSPropertyOp24
 70
     0
102
RTVSPropertyOp25
 70
     0
102
RTVSPropertyOp26
 70
     0
102
RTVSPropertyOp27
 70
     0
102
RTVSPropertyOp28
 70
     0
102
RTVSPropertyOp29
 70
     0
102
RTVSPropertyOp30
 70
     0
102
RTVSPropertyOp31
 70
     0
102
RTVSPropertyOp32
 70
     0
102
RTVSPropertyOp33
 70
     0
102
RTVSPropertyOp34
 70
     0
102
RTVSPropertyOp35
 70
     0
102
RTVSPropertyOp36
 70
     0
102
RTVSPropertyOp37
 70
     0
102
RTVSPropertyOp38
 70
     0
102
RTVSPropertyOp39
 70
     0
102
RTVSPropertyOp40
 70
     0
102
RTVSPropertyOp41
 70
     0
102
RTVSPropertyOp42
 70
     0
102
RTVSPropertyOp43
 70
     0
102
RTVSPropertyOp44
 70
     0
102
RTVSPropertyOp45
 70
     0
102
RTVSPropertyOp46
 70
     0
102
RTVSPropertyOp47
 70
     0
102
RTVSPropertyOp48
 70
     0
102
RTVSPropertyOp49
 70
     0
102
RTVSPropertyOp50
 70
     0
102
RTVSPropertyOp51
 70
     0
102
RTVSPropertyOp52
 70
     0
102
RTVSPropertyOp53
 70
     0
102
RTVSPropertyOp54
 70
     0
102
RTVSPropertyOp55
 70
     0
102
RTVSPropertyOp56
 70
     0
102
RTVSPropertyOp57
 70
     0
102
RTVSPost2010Prop28
280
     0
102
RTVSPost2010PropOp28
 70
     0
102
RTVSPost2010Prop29
280
     1
102
RTVSPost2010PropOp29
 70
     0
102
RTVSPost2010Prop30
280
     1
102
RTVSPost2010PropOp30
 70
     0
102
RTVSPost2010Prop31
280
     0
102
RTVSPost2010PropOp31
 70
     0
102
RTVSPost2010Prop32
280
     0
102
RTVSPost2010PropOp32
 70
     0
102
RTVSPost2010Prop33
280
     0
102
RTVSPost2010PropOp33
 70
     0
102
RTVSPost2010Prop34
280
     0
102
RTVSPost2010PropOp34
 70
     0
102
RTVSPost2010Prop35
280
     0
102
RTVSPost2010PropOp35
 70
     0
102
RTVSPost2010Prop36
280
     0
102
RTVSPost2010PropOp36
 70
     0
102
RTVSPost2010Prop37
 90
       50
102
RTVSPost2010PropOp37
 70
     0
102
RTVSPost2010Prop38
140
0.0
102
RTVSPost2010PropOp38
 70
     0
102
RTVSPost2010Prop39
140
1.0
102
RTVSPost2010PropOp39
 70
     0
102
RTVSPost2010Prop40
 90
        0
102
RTVSPost2010PropOp40
 70
     0
102
RTVSPost2010Prop41ColorIndex
 90
       18
102
RTVSPost2010Prop41ColorRGB
 90
        0
102
RTVSPost2010PropOp41
 70
     0
102
RTVSPost2010Prop42
 90
       50
102
RTVSPost2010PropOp42
 70
     0
102
RTVSPost2010Prop43
 90
        3
102
RTVSPost2010PropOp43
 70
     0
102
RTVSPost2010Prop44ColorIndex
 90
        5
102
RTVSPost2010Prop44ColorRGB
 90
      255
102
RTVSPost2010PropOp44
 70
     0
102
RTVSPost2010Prop45
280
     0
102
RTVSPost2010PropOp45
 70
     0
102
RTVSPost2010Prop46
 90
       50
102
RTVSPost2010PropOp46
 70
     0
102
RTVSPost2010Prop47
 90
       50
102
RTVSPost2010PropOp47
 70
     0
102
RTVSPost2010Prop48
 90
       50
102
RTVSPost2010PropOp48
 70
     0
102
RTVSPost2010Prop49
280
     0
102
RTVSPost2010PropOp49
 70
     0
102
RTVSPost2010Prop50
 90
       50
102
RTVSPost2010PropOp50
 70
     0
102
RTVSPost2010Prop51ColorIndex
 90
      256
102
RTVSPost2010Prop51ColorRGB
 90
-16777216
102
RTVSPost2010PropOp51
 70
     0
102
RTVSPost2010Prop52
140
1.0
102
RTVSPost2010PropOp52
 70
     0
102
RTVSPost2010Prop53
 90
        2
102
RTVSPost2010PropOp53
 70
     0
102
RTVSPost2010Prop54
  1
strokes_ogs.tif
102
RTVSPost2010PropOp54
 70
     0
102
RTVSPost2010Prop55
280
     0
102
RTVSPost2010PropOp55
 70
     0
102
RTVSPost2010Prop56
140
1.0
102
RTVSPost2010PropOp56
 70
     0
102
RTVSPost2010Prop57
140
1.0
102
RTVSPost2010PropOp57
 70
     0
  0
XRECORD
  5
13B
102
{ACAD_REACTORS
330
13A
102
}
330
13A
100
AcDbXrecord
280
     1
102
RTVSPropertyOp0
 70
     1
102
RTVSPropertyOp1
 70
     1
102
RTVSPropertyOp2
 70
     1
102
RTVSPropertyOp3
 70
     1
102
RTVSPropertyOp4
 70
     1
102
RTVSPropertyOp5
 70
     1
102
RTVSPropertyOp6
 70
     1
102
RTVSPropertyOp7
 70
     1
102
RTVSPropertyOp8
 70
     1
102
RTVSPropertyOp9
 70
     1
102
RTVSPropertyOp10
 70
     1
102
RTVSPropertyOp11
 70
     1
102
RTVSPropertyOp12
 70
     1
102
RTVSPropertyOp13
 70
     1
102
RTVSPropertyOp14
 70
     1
102
RTVSPropertyOp15
 70
     1
102
RTVSPropertyOp16
 70
     1
102
RTVSPropertyOp17
 70
     1
102
RTVSPropertyOp18
 70
     1
102
RTVSPropertyOp19
 70
     1
102
RTVSPropertyOp20
 70
     1
102
RTVSPropertyOp21
 70
     1
102
RTVSPropertyOp22
 70
     1
102
RTVSPropertyOp23
 70
     1
102
RTVSPropertyOp24
 70
     1
102
RTVSPropertyOp25
 70
     1
102
RTVSPropertyOp26
 70
     1
102
RTVSPropertyOp27
 70
     1
102
RTVSPropertyOp28
 70
     1
102
RTVSPropertyOp29
 70
     1
102
RTVSPropertyOp30
 70
     1
102
RTVSPropertyOp31
 70
     1
102
RTVSPropertyOp32
 70
     1
102
RTVSPropertyOp33
 70
     1
102
RTVSPropertyOp34
 70
     1
102
RTVSPropertyOp35
 70
     1
102
RTVSPropertyOp36
 70
     1
102
RTVSPropertyOp37
 70
     1
102
RTVSPropertyOp38
 70
     1
102
RTVSPropertyOp39
 70
     1
102
RTVSPropertyOp40
 70
     1
102
RTVSPropertyOp41
 70
     1
102
RTVSPropertyOp42
 70
     1
102
RTVSPropertyOp43
 70
     1
102
RTVSPropertyOp44
 70
     1
102
RTVSPropertyOp45
 70
     1
102
RTVSPropertyOp46
 70
     1
102
RTVSPropertyOp47
 70
     1
102
RTVSPropertyOp48
 70
     1
102
RTVSPropertyOp49
 70
     1
102
RTVSPropertyOp50
 70
     1
102
RTVSPropertyOp51
 70
     0
102
RTVSPropertyOp52
 70
     0
102
RTVSPropertyOp53
 70
     1
102
RTVSPropertyOp54
 70
     1
102
RTVSPropertyOp55
 70
     1
102
RTVSPropertyOp56
 70
     1
102
RTVSPropertyOp57
 70
     1
102
RTVSPost2010Prop28
280
     0
102
RTVSPost2010PropOp28
 70
     1
102
RTVSPost2010Prop29
280
     1
102
RTVSPost2010PropOp29
 70
     1
102
RTVSPost2010Prop30
280
     1
102
RTVSPost2010PropOp30
 70
     1
102
RTVSPost2010Prop31
280
     0
102
RTVSPost2010PropOp31
 70
     1
102
RTVSPost2010Prop32
280
     0
102
RTVSPost2010PropOp32
 70
     1
102
RTVSPost2010Prop33
280
     0
102
RTVSPost2010PropOp33
 70
     1
102
RTVSPost2010Prop34
280
     0
102
RTVSPost2010PropOp34
 70
     1
102
RTVSPost2010Prop35
280
     0
102
RTVSPost2010PropOp35
 70
     1
102
RTVSPost2010Prop36
280
     0
102
RTVSPost2010PropOp36
 70
     1
102
RTVSPost2010Prop37
 90
       50
102
RTVSPost2010PropOp37
 70
     1
102
RTVSPost2010Prop38
140
0.0
102
RTVSPost2010PropOp38
 70
     1
102
RTVSPost2010Prop39
140
1.0
102
RTVSPost2010PropOp39
 70
     1
102
RTVSPost2010Prop40
 90
        0
102
RTVSPost2010PropOp40
 70
     1
102
RTVSPost2010Prop41ColorIndex
 90
       18
102
RTVSPost2010Prop41ColorRGB
 90
        0
102
RTVSPost2010PropOp41
 70
     1
102
RTVSPost2010Prop42
 90
       50
102
RTVSPost2010PropOp42
 70
     1
102
RTVSPost2010Prop43
 90
        3
102
RTVSPost2010PropOp43
 70
     1
102
RTVSPost2010Prop44ColorIndex
 90
        5
102
RTVSPost2010Prop44ColorRGB
 90
      255
102
RTVSPost2010PropOp44
 70
     1
102
RTVSPost2010Prop45
280
     0
102
RTVSPost2010PropOp45
 70
     1
102
RTVSPost2010Prop46
 90
       50
102
RTVSPost2010PropOp46
 70
     1
102
RTVSPost2010Prop47
 90
       50
102
RTVSPost2010PropOp47
 70
     1
102
RTVSPost2010Prop48
 90
       50
102
RTVSPost2010PropOp48
 70
     1
102
RTVSPost2010Prop49
280
     0
102
RTVSPost2010PropOp49
 70
     1
102
RTVSPost2010Prop50
 90
       50
102
RTVSPost2010PropOp50
 70
     1
102
RTVSPost2010Prop51ColorIndex
 90
      256
102
RTVSPost2010Prop51ColorRGB
 90
-16777216
102
RTVSPost2010PropOp51
 70
     0
102
RTVSPost2010Prop52
140
1.0
102
RTVSPost2010PropOp52
 70
     0
102
RTVSPost2010Prop53
 90
        2
102
RTVSPost2010PropOp53
 70
     1
102
RTVSPost2010Prop54
  1
strokes_ogs.tif
102
RTVSPost2010PropOp54
 70
     1
102
RTVSPost2010Prop55
280
     0
102
RTVSPost2010PropOp55
 70
     1
102
RTVSPost2010Prop56
140
1.0
102
RTVSPost2010PropOp56
 70
     1
102
RTVSPost2010Prop57
140
1.0
102
RTVSPost2010PropOp57
 70
     1
  0
XRECORD
  5
159
102
{ACAD_REACTORS
330
158
102
}
330
158
100
AcDbXrecord
280
     1
102
RTVSPropertyOp0
 70
     1
102
RTVSPropertyOp1
 70
     1
102
RTVSPropertyOp2
 70
     1
102
RTVSPropertyOp3
 70
     1
102
RTVSPropertyOp4
 70
     1
102
RTVSPropertyOp5
 70
     1
102
RTVSPropertyOp6
 70
     1
102
RTVSPropertyOp7
 70
     1
102
RTVSPropertyOp8
 70
     1
102
RTVSPropertyOp9
 70
     1
102
RTVSPropertyOp10
 70
     1
102
RTVSPropertyOp11
 70
     1
102
RTVSPropertyOp12
 70
     1
102
RTVSPropertyOp13
 70
     1
102
RTVSPropertyOp14
 70
     1
102
RTVSPropertyOp15
 70
     1
102
RTVSPropertyOp16
 70
     1
102
RTVSPropertyOp17
 70
     1
102
RTVSPropertyOp18
 70
     1
102
RTVSPropertyOp19
 70
     1
102
RTVSPropertyOp20
 70
     1
102
RTVSPropertyOp21
 70
     1
102
RTVSPropertyOp22
 70
     1
102
RTVSPropertyOp23
 70
     1
102
RTVSPropertyOp24
 70
     1
102
RTVSPropertyOp25
 70
     1
102
RTVSPropertyOp26
 70
     1
102
RTVSPropertyOp27
 70
     1
102
RTVSPropertyOp28
 70
     1
102
RTVSPropertyOp29
 70
     1
102
RTVSPropertyOp30
 70
     1
102
RTVSPropertyOp31
 70
     1
102
RTVSPropertyOp32
 70
     1
102
RTVSPropertyOp33
 70
     1
102
RTVSPropertyOp34
 70
     1
102
RTVSPropertyOp35
 70
     1
102
RTVSPropertyOp36
 70
     1
102
RTVSPropertyOp37
 70
     1
102
RTVSPropertyOp38
 70
     1
102
RTVSPropertyOp39
 70
     1
102
RTVSPropertyOp40
 70
     1
102
RTVSPropertyOp41
 70
     1
102
RTVSPropertyOp42
 70
     1
102
RTVSPropertyOp43
 70
     1
102
RTVSPropertyOp44
 70
     1
102
RTVSPropertyOp45
 70
     1
102
RTVSPropertyOp46
 70
     1
102
RTVSPropertyOp47
 70
     1
102
RTVSPropertyOp48
 70
     1
102
RTVSPropertyOp49
 70
     1
102
RTVSPropertyOp50
 70
     1
102
RTVSPropertyOp51
 70
     0
102
RTVSPropertyOp52
 70
     0
102
RTVSPropertyOp53
 70
     1
102
RTVSPropertyOp54
 70
     1
102
RTVSPropertyOp55
 70
     1
102
RTVSPropertyOp56
 70
     1
102
RTVSPropertyOp57
 70
     1
102
RTVSPost2010Prop28
280
     0
102
RTVSPost2010PropOp28
 70
     1
102
RTVSPost2010Prop29
280
     1
102
RTVSPost2010PropOp29
 70
     1
102
RTVSPost2010Prop30
280
     1
102
RTVSPost2010PropOp30
 70
     1
102
RTVSPost2010Prop31
280
     0
102
RTVSPost2010PropOp31
 70
     1
102
RTVSPost2010Prop32
280
     0
102
RTVSPost2010PropOp32
 70
     1
102
RTVSPost2010Prop33
280
     0
102
RTVSPost2010PropOp33
 70
     1
102
RTVSPost2010Prop34
280
     0
102
RTVSPost2010PropOp34
 70
     1
102
RTVSPost2010Prop35
280
     0
102
RTVSPost2010PropOp35
 70
     1
102
RTVSPost2010Prop36
280
     0
102
RTVSPost2010PropOp36
 70
     1
102
RTVSPost2010Prop37
 90
       50
102
RTVSPost2010PropOp37
 70
     1
102
RTVSPost2010Prop38
140
0.0
102
RTVSPost2010PropOp38
 70
     1
102
RTVSPost2010Prop39
140
1.0
102
RTVSPost2010PropOp39
 70
     1
102
RTVSPost2010Prop40
 90
        0
102
RTVSPost2010PropOp40
 70
     1
102
RTVSPost2010Prop41ColorIndex
 90
       18
102
RTVSPost2010Prop41ColorRGB
 90
        0
102
RTVSPost2010PropOp41
 70
     1
102
RTVSPost2010Prop42
 90
       50
102
RTVSPost2010PropOp42
 70
     1
102
RTVSPost2010Prop43
 90
        3
102
RTVSPost2010PropOp43
 70
     1
102
RTVSPost2010Prop44ColorIndex
 90
        5
102
RTVSPost2010Prop44ColorRGB
 90
      255
102
RTVSPost2010PropOp44
 70
     1
102
RTVSPost2010Prop45
280
     0
102
RTVSPost2010PropOp45
 70
     1
102
RTVSPost2010Prop46
 90
       50
102
RTVSPost2010PropOp46
 70
     1
102
RTVSPost2010Prop47
 90
       50
102
RTVSPost2010PropOp47
 70
     1
102
RTVSPost2010Prop48
 90
       50
102
RTVSPost2010PropOp48
 70
     1
102
RTVSPost2010Prop49
280
     0
102
RTVSPost2010PropOp49
 70
     1
102
RTVSPost2010Prop50
 90
       50
102
RTVSPost2010PropOp50
 70
     1
102
RTVSPost2010Prop51ColorIndex
 90
      256
102
RTVSPost2010Prop51ColorRGB
 90
-16777216
102
RTVSPost2010PropOp51
 70
     0
102
RTVSPost2010Prop52
140
1.0
102
RTVSPost2010PropOp52
 70
     0
102
RTVSPost2010Prop53
 90
        2
102
RTVSPost2010PropOp53
 70
     1
102
RTVSPost2010Prop54
  1
strokes_ogs.tif
102
RTVSPost2010PropOp54
 70
     1
102
RTVSPost2010Prop55
280
     0
102
RTVSPost2010PropOp55
 70
     1
102
RTVSPost2010Prop56
140
1.0
102
RTVSPost2010PropOp56
 70
     1
102
RTVSPost2010Prop57
140
1.0
102
RTVSPost2010PropOp57
 70
     1
  0
XRECORD
  5
157
102
{ACAD_REACTORS
330
156
102
}
330
156
100
AcDbXrecord
280
     1
102
RTVSPropertyOp0
 70
     1
102
RTVSPropertyOp1
 70
     1
102
RTVSPropertyOp2
 70
     1
102
RTVSPropertyOp3
 70
     1
102
RTVSPropertyOp4
 70
     1
102
RTVSPropertyOp5
 70
     1
102
RTVSPropertyOp6
 70
     1
102
RTVSPropertyOp7
 70
     1
102
RTVSPropertyOp8
 70
     1
102
RTVSPropertyOp9
 70
     1
102
RTVSPropertyOp10
 70
     1
102
RTVSPropertyOp11
 70
     1
102
RTVSPropertyOp12
 70
     1
102
RTVSPropertyOp13
 70
     1
102
RTVSPropertyOp14
 70
     1
102
RTVSPropertyOp15
 70
     1
102
RTVSPropertyOp16
 70
     1
102
RTVSPropertyOp17
 70
     1
102
RTVSPropertyOp18
 70
     1
102
RTVSPropertyOp19
 70
     1
102
RTVSPropertyOp20
 70
     1
102
RTVSPropertyOp21
 70
     1
102
RTVSPropertyOp22
 70
     1
102
RTVSPropertyOp23
 70
     1
102
RTVSPropertyOp24
 70
     1
102
RTVSPropertyOp25
 70
     1
102
RTVSPropertyOp26
 70
     1
102
RTVSPropertyOp27
 70
     1
102
RTVSPropertyOp28
 70
     1
102
RTVSPropertyOp29
 70
     1
102
RTVSPropertyOp30
 70
     1
102
RTVSPropertyOp31
 70
     1
102
RTVSPropertyOp32
 70
     1
102
RTVSPropertyOp33
 70
     1
102
RTVSPropertyOp34
 70
     1
102
RTVSPropertyOp35
 70
     1
102
RTVSPropertyOp36
 70
     1
102
RTVSPropertyOp37
 70
     1
102
RTVSPropertyOp38
 70
     1
102
RTVSPropertyOp39
 70
     1
102
RTVSPropertyOp40
 70
     1
102
RTVSPropertyOp41
 70
     1
102
RTVSPropertyOp42
 70
     1
102
RTVSPropertyOp43
 70
     1
102
RTVSPropertyOp44
 70
     1
102
RTVSPropertyOp45
 70
     1
102
RTVSPropertyOp46
 70
     1
102
RTVSPropertyOp47
 70
     1
102
RTVSPropertyOp48
 70
     1
102
RTVSPropertyOp49
 70
     1
102
RTVSPropertyOp50
 70
     1
102
RTVSPropertyOp51
 70
     0
102
RTVSPropertyOp52
 70
     0
102
RTVSPropertyOp53
 70
     1
102
RTVSPropertyOp54
 70
     1
102
RTVSPropertyOp55
 70
     1
102
RTVSPropertyOp56
 70
     1
102
RTVSPropertyOp57
 70
     1
102
RTVSPost2010Prop28
280
     0
102
RTVSPost2010PropOp28
 70
     1
102
RTVSPost2010Prop29
280
     1
102
RTVSPost2010PropOp29
 70
     1
102
RTVSPost2010Prop30
280
     1
102
RTVSPost2010PropOp30
 70
     1
102
RTVSPost2010Prop31
280
     0
102
RTVSPost2010PropOp31
 70
     1
102
RTVSPost2010Prop32
280
     0
102
RTVSPost2010PropOp32
 70
     1
102
RTVSPost2010Prop33
280
     0
102
RTVSPost2010PropOp33
 70
     1
102
RTVSPost2010Prop34
280
     0
102
RTVSPost2010PropOp34
 70
     1
102
RTVSPost2010Prop35
280
     0
102
RTVSPost2010PropOp35
 70
     1
102
RTVSPost2010Prop36
280
     0
102
RTVSPost2010PropOp36
 70
     1
102
RTVSPost2010Prop37
 90
       50
102
RTVSPost2010PropOp37
 70
     1
102
RTVSPost2010Prop38
140
0.0
102
RTVSPost2010PropOp38
 70
     1
102
RTVSPost2010Prop39
140
1.0
102
RTVSPost2010PropOp39
 70
     1
102
RTVSPost2010Prop40
 90
        0
102
RTVSPost2010PropOp40
 70
     1
102
RTVSPost2010Prop41ColorIndex
 90
       18
102
RTVSPost2010Prop41ColorRGB
 90
        0
102
RTVSPost2010PropOp41
 70
     1
102
RTVSPost2010Prop42
 90
       50
102
RTVSPost2010PropOp42
 70
     1
102
RTVSPost2010Prop43
 90
        3
102
RTVSPost2010PropOp43
 70
     1
102
RTVSPost2010Prop44ColorIndex
 90
        5
102
RTVSPost2010Prop44ColorRGB
 90
      255
102
RTVSPost2010PropOp44
 70
     1
102
RTVSPost2010Prop45
280
     0
102
RTVSPost2010PropOp45
 70
     1
102
RTVSPost2010Prop46
 90
       50
102
RTVSPost2010PropOp46
 70
     1
102
RTVSPost2010Prop47
 90
       50
102
RTVSPost2010PropOp47
 70
     1
102
RTVSPost2010Prop48
 90
       50
102
RTVSPost2010PropOp48
 70
     1
102
RTVSPost2010Prop49
280
     0
102
RTVSPost2010PropOp49
 70
     1
102
RTVSPost2010Prop50
 90
       50
102
RTVSPost2010PropOp50
 70
     1
102
RTVSPost2010Prop51ColorIndex
 90
      256
102
RTVSPost2010Prop51ColorRGB
 90
-16777216
102
RTVSPost2010PropOp51
 70
     0
102
RTVSPost2010Prop52
140
1.0
102
RTVSPost2010PropOp52
 70
     0
102
RTVSPost2010Prop53
 90
        2
102
RTVSPost2010PropOp53
 70
     1
102
RTVSPost2010Prop54
  1
strokes_ogs.tif
102
RTVSPost2010PropOp54
 70
     1
102
RTVSPost2010Prop55
280
     0
102
RTVSPost2010PropOp55
 70
     1
102
RTVSPost2010Prop56
140
1.0
102
RTVSPost2010PropOp56
 70
     1
102
RTVSPost2010Prop57
140
1.0
102
RTVSPost2010PropOp57
 70
     1
  0
XRECORD
  5
151
102
{ACAD_REACTORS
330
150
102
}
330
150
100
AcDbXrecord
280
     1
102
RTVSPropertyOp0
 70
     1
102
RTVSPropertyOp1
 70
     1
102
RTVSPropertyOp2
 70
     1
102
RTVSPropertyOp3
 70
     1
102
RTVSPropertyOp4
 70
     1
102
RTVSPropertyOp5
 70
     1
102
RTVSPropertyOp6
 70
     1
102
RTVSPropertyOp7
 70
     1
102
RTVSPropertyOp8
 70
     1
102
RTVSPropertyOp9
 70
     1
102
RTVSPropertyOp10
 70
     1
102
RTVSPropertyOp11
 70
     1
102
RTVSPropertyOp12
 70
     1
102
RTVSPropertyOp13
 70
     1
102
RTVSPropertyOp14
 70
     1
102
RTVSPropertyOp15
 70
     1
102
RTVSPropertyOp16
 70
     1
102
RTVSPropertyOp17
 70
     1
102
RTVSPropertyOp18
 70
     1
102
RTVSPropertyOp19
 70
     1
102
RTVSPropertyOp20
 70
     1
102
RTVSPropertyOp21
 70
     1
102
RTVSPropertyOp22
 70
     1
102
RTVSPropertyOp23
 70
     1
102
RTVSPropertyOp24
 70
     1
102
RTVSPropertyOp25
 70
     1
102
RTVSPropertyOp26
 70
     1
102
RTVSPropertyOp27
 70
     1
102
RTVSPropertyOp28
 70
     1
102
RTVSPropertyOp29
 70
     1
102
RTVSPropertyOp30
 70
     1
102
RTVSPropertyOp31
 70
     1
102
RTVSPropertyOp32
 70
     1
102
RTVSPropertyOp33
 70
     1
102
RTVSPropertyOp34
 70
     1
102
RTVSPropertyOp35
 70
     1
102
RTVSPropertyOp36
 70
     1
102
RTVSPropertyOp37
 70
     1
102
RTVSPropertyOp38
 70
     1
102
RTVSPropertyOp39
 70
     1
102
RTVSPropertyOp40
 70
     1
102
RTVSPropertyOp41
 70
     1
102
RTVSPropertyOp42
 70
     1
102
RTVSPropertyOp43
 70
     1
102
RTVSPropertyOp44
 70
     1
102
RTVSPropertyOp45
 70
     1
102
RTVSPropertyOp46
 70
     1
102
RTVSPropertyOp47
 70
     1
102
RTVSPropertyOp48
 70
     1
102
RTVSPropertyOp49
 70
     1
102
RTVSPropertyOp50
 70
     1
102
RTVSPropertyOp51
 70
     0
102
RTVSPropertyOp52
 70
     0
102
RTVSPropertyOp53
 70
     1
102
RTVSPropertyOp54
 70
     1
102
RTVSPropertyOp55
 70
     1
102
RTVSPropertyOp56
 70
     1
102
RTVSPropertyOp57
 70
     1
102
RTVSPost2010Prop28
280
     0
102
RTVSPost2010PropOp28
 70
     1
102
RTVSPost2010Prop29
280
     1
102
RTVSPost2010PropOp29
 70
     1
102
RTVSPost2010Prop30
280
     1
102
RTVSPost2010PropOp30
 70
     1
102
RTVSPost2010Prop31
280
     0
102
RTVSPost2010PropOp31
 70
     1
102
RTVSPost2010Prop32
280
     0
102
RTVSPost2010PropOp32
 70
     1
102
RTVSPost2010Prop33
280
     0
102
RTVSPost2010PropOp33
 70
     1
102
RTVSPost2010Prop34
280
     0
102
RTVSPost2010PropOp34
 70
     1
102
RTVSPost2010Prop35
280
     0
102
RTVSPost2010PropOp35
 70
     1
102
RTVSPost2010Prop36
280
     0
102
RTVSPost2010PropOp36
 70
     1
102
RTVSPost2010Prop37
 90
       50
102
RTVSPost2010PropOp37
 70
     1
102
RTVSPost2010Prop38
140
0.0
102
RTVSPost2010PropOp38
 70
     1
102
RTVSPost2010Prop39
140
1.0
102
RTVSPost2010PropOp39
 70
     1
102
RTVSPost2010Prop40
 90
        0
102
RTVSPost2010PropOp40
 70
     1
102
RTVSPost2010Prop41ColorIndex
 90
       18
102
RTVSPost2010Prop41ColorRGB
 90
        0
102
RTVSPost2010PropOp41
 70
     1
102
RTVSPost2010Prop42
 90
       50
102
RTVSPost2010PropOp42
 70
     1
102
RTVSPost2010Prop43
 90
        3
102
RTVSPost2010PropOp43
 70
     1
102
RTVSPost2010Prop44ColorIndex
 90
        5
102
RTVSPost2010Prop44ColorRGB
 90
      255
102
RTVSPost2010PropOp44
 70
     1
102
RTVSPost2010Prop45
280
     0
102
RTVSPost2010PropOp45
 70
     1
102
RTVSPost2010Prop46
 90
       50
102
RTVSPost2010PropOp46
 70
     1
102
RTVSPost2010Prop47
 90
       50
102
RTVSPost2010PropOp47
 70
     1
102
RTVSPost2010Prop48
 90
       50
102
RTVSPost2010PropOp48
 70
     1
102
RTVSPost2010Prop49
280
     0
102
RTVSPost2010PropOp49
 70
     1
102
RTVSPost2010Prop50
 90
       50
102
RTVSPost2010PropOp50
 70
     1
102
RTVSPost2010Prop51ColorIndex
 90
      256
102
RTVSPost2010Prop51ColorRGB
 90
-16777216
102
RTVSPost2010PropOp51
 70
     0
102
RTVSPost2010Prop52
140
1.0
102
RTVSPost2010PropOp52
 70
     0
102
RTVSPost2010Prop53
 90
        2
102
RTVSPost2010PropOp53
 70
     1
102
RTVSPost2010Prop54
  1
strokes_ogs.tif
102
RTVSPost2010PropOp54
 70
     1
102
RTVSPost2010Prop55
280
     0
102
RTVSPost2010PropOp55
 70
     1
102
RTVSPost2010Prop56
140
1.0
102
RTVSPost2010PropOp56
 70
     1
102
RTVSPost2010Prop57
140
1.0
102
RTVSPost2010PropOp57
 70
     1
  0
XRECORD
  5
153
102
{ACAD_REACTORS
330
152
102
}
330
152
100
AcDbXrecord
280
     1
102
RTVSPropertyOp0
 70
     1
102
RTVSPropertyOp1
 70
     1
102
RTVSPropertyOp2
 70
     1
102
RTVSPropertyOp3
 70
     1
102
RTVSPropertyOp4
 70
     1
102
RTVSPropertyOp5
 70
     1
102
RTVSPropertyOp6
 70
     1
102
RTVSPropertyOp7
 70
     1
102
RTVSPropertyOp8
 70
     1
102
RTVSPropertyOp9
 70
     1
102
RTVSPropertyOp10
 70
     1
102
RTVSPropertyOp11
 70
     1
102
RTVSPropertyOp12
 70
     1
102
RTVSPropertyOp13
 70
     1
102
RTVSPropertyOp14
 70
     1
102
RTVSPropertyOp15
 70
     1
102
RTVSPropertyOp16
 70
     1
102
RTVSPropertyOp17
 70
     1
102
RTVSPropertyOp18
 70
     1
102
RTVSPropertyOp19
 70
     1
102
RTVSPropertyOp20
 70
     1
102
RTVSPropertyOp21
 70
     1
102
RTVSPropertyOp22
 70
     1
102
RTVSPropertyOp23
 70
     1
102
RTVSPropertyOp24
 70
     1
102
RTVSPropertyOp25
 70
     1
102
RTVSPropertyOp26
 70
     1
102
RTVSPropertyOp27
 70
     1
102
RTVSPropertyOp28
 70
     1
102
RTVSPropertyOp29
 70
     1
102
RTVSPropertyOp30
 70
     1
102
RTVSPropertyOp31
 70
     1
102
RTVSPropertyOp32
 70
     1
102
RTVSPropertyOp33
 70
     1
102
RTVSPropertyOp34
 70
     1
102
RTVSPropertyOp35
 70
     1
102
RTVSPropertyOp36
 70
     1
102
RTVSPropertyOp37
 70
     1
102
RTVSPropertyOp38
 70
     1
102
RTVSPropertyOp39
 70
     1
102
RTVSPropertyOp40
 70
     1
102
RTVSPropertyOp41
 70
     1
102
RTVSPropertyOp42
 70
     1
102
RTVSPropertyOp43
 70
     1
102
RTVSPropertyOp44
 70
     1
102
RTVSPropertyOp45
 70
     1
102
RTVSPropertyOp46
 70
     1
102
RTVSPropertyOp47
 70
     1
102
RTVSPropertyOp48
 70
     1
102
RTVSPropertyOp49
 70
     1
102
RTVSPropertyOp50
 70
     1
102
RTVSPropertyOp51
 70
     0
102
RTVSPropertyOp52
 70
     0
102
RTVSPropertyOp53
 70
     1
102
RTVSPropertyOp54
 70
     1
102
RTVSPropertyOp55
 70
     1
102
RTVSPropertyOp56
 70
     1
102
RTVSPropertyOp57
 70
     1
102
RTVSPost2010Prop28
280
     0
102
RTVSPost2010PropOp28
 70
     1
102
RTVSPost2010Prop29
280
     1
102
RTVSPost2010PropOp29
 70
     1
102
RTVSPost2010Prop30
280
     1
102
RTVSPost2010PropOp30
 70
     1
102
RTVSPost2010Prop31
280
     0
102
RTVSPost2010PropOp31
 70
     1
102
RTVSPost2010Prop32
280
     0
102
RTVSPost2010PropOp32
 70
     1
102
RTVSPost2010Prop33
280
     0
102
RTVSPost2010PropOp33
 70
     1
102
RTVSPost2010Prop34
280
     0
102
RTVSPost2010PropOp34
 70
     1
102
RTVSPost2010Prop35
280
     0
102
RTVSPost2010PropOp35
 70
     1
102
RTVSPost2010Prop36
280
     0
102
RTVSPost2010PropOp36
 70
     1
102
RTVSPost2010Prop37
 90
       50
102
RTVSPost2010PropOp37
 70
     1
102
RTVSPost2010Prop38
140
0.0
102
RTVSPost2010PropOp38
 70
     1
102
RTVSPost2010Prop39
140
1.0
102
RTVSPost2010PropOp39
 70
     1
102
RTVSPost2010Prop40
 90
        0
102
RTVSPost2010PropOp40
 70
     1
102
RTVSPost2010Prop41ColorIndex
 90
       18
102
RTVSPost2010Prop41ColorRGB
 90
        0
102
RTVSPost2010PropOp41
 70
     1
102
RTVSPost2010Prop42
 90
       50
102
RTVSPost2010PropOp42
 70
     1
102
RTVSPost2010Prop43
 90
        3
102
RTVSPost2010PropOp43
 70
     1
102
RTVSPost2010Prop44ColorIndex
 90
        5
102
RTVSPost2010Prop44ColorRGB
 90
      255
102
RTVSPost2010PropOp44
 70
     1
102
RTVSPost2010Prop45
280
     0
102
RTVSPost2010PropOp45
 70
     1
102
RTVSPost2010Prop46
 90
       50
102
RTVSPost2010PropOp46
 70
     1
102
RTVSPost2010Prop47
 90
       50
102
RTVSPost2010PropOp47
 70
     1
102
RTVSPost2010Prop48
 90
       50
102
RTVSPost2010PropOp48
 70
     1
102
RTVSPost2010Prop49
280
     0
102
RTVSPost2010PropOp49
 70
     1
102
RTVSPost2010Prop50
 90
       50
102
RTVSPost2010PropOp50
 70
     1
102
RTVSPost2010Prop51ColorIndex
 90
      256
102
RTVSPost2010Prop51ColorRGB
 90
-16777216
102
RTVSPost2010PropOp51
 70
     0
102
RTVSPost2010Prop52
140
1.0
102
RTVSPost2010PropOp52
 70
     0
102
RTVSPost2010Prop53
 90
        2
102
RTVSPost2010PropOp53
 70
     1
102
RTVSPost2010Prop54
  1
strokes_ogs.tif
102
RTVSPost2010PropOp54
 70
     1
102
RTVSPost2010Prop55
280
     0
102
RTVSPost2010PropOp55
 70
     1
102
RTVSPost2010Prop56
140
1.0
102
RTVSPost2010PropOp56
 70
     1
102
RTVSPost2010Prop57
140
1.0
102
RTVSPost2010PropOp57
 70
     1
  0
XRECORD
  5
143
102
{ACAD_REACTORS
330
142
102
}
330
142
100
AcDbXrecord
280
     1
102
RTVSPropertyOp0
 70
     1
102
RTVSPropertyOp1
 70
     1
102
RTVSPropertyOp2
 70
     1
102
RTVSPropertyOp3
 70
     1
102
RTVSPropertyOp4
 70
     1
102
RTVSPropertyOp5
 70
     1
102
RTVSPropertyOp6
 70
     1
102
RTVSPropertyOp7
 70
     1
102
RTVSPropertyOp8
 70
     1
102
RTVSPropertyOp9
 70
     1
102
RTVSPropertyOp10
 70
     1
102
RTVSPropertyOp11
 70
     1
102
RTVSPropertyOp12
 70
     1
102
RTVSPropertyOp13
 70
     1
102
RTVSPropertyOp14
 70
     1
102
RTVSPropertyOp15
 70
     1
102
RTVSPropertyOp16
 70
     1
102
RTVSPropertyOp17
 70
     1
102
RTVSPropertyOp18
 70
     1
102
RTVSPropertyOp19
 70
     1
102
RTVSPropertyOp20
 70
     1
102
RTVSPropertyOp21
 70
     1
102
RTVSPropertyOp22
 70
     1
102
RTVSPropertyOp23
 70
     1
102
RTVSPropertyOp24
 70
     1
102
RTVSPropertyOp25
 70
     1
102
RTVSPropertyOp26
 70
     1
102
RTVSPropertyOp27
 70
     1
102
RTVSPropertyOp28
 70
     1
102
RTVSPropertyOp29
 70
     1
102
RTVSPropertyOp30
 70
     1
102
RTVSPropertyOp31
 70
     1
102
RTVSPropertyOp32
 70
     1
102
RTVSPropertyOp33
 70
     1
102
RTVSPropertyOp34
 70
     1
102
RTVSPropertyOp35
 70
     1
102
RTVSPropertyOp36
 70
     1
102
RTVSPropertyOp37
 70
     1
102
RTVSPropertyOp38
 70
     1
102
RTVSPropertyOp39
 70
     1
102
RTVSPropertyOp40
 70
     1
102
RTVSPropertyOp41
 70
     1
102
RTVSPropertyOp42
 70
     1
102
RTVSPropertyOp43
 70
     1
102
RTVSPropertyOp44
 70
     1
102
RTVSPropertyOp45
 70
     1
102
RTVSPropertyOp46
 70
     1
102
RTVSPropertyOp47
 70
     1
102
RTVSPropertyOp48
 70
     1
102
RTVSPropertyOp49
 70
     1
102
RTVSPropertyOp50
 70
     1
102
RTVSPropertyOp51
 70
     0
102
RTVSPropertyOp52
 70
     0
102
RTVSPropertyOp53
 70
     1
102
RTVSPropertyOp54
 70
     1
102
RTVSPropertyOp55
 70
     1
102
RTVSPropertyOp56
 70
     1
102
RTVSPropertyOp57
 70
     1
102
RTVSPost2010Prop28
280
     0
102
RTVSPost2010PropOp28
 70
     1
102
RTVSPost2010Prop29
280
     1
102
RTVSPost2010PropOp29
 70
     1
102
RTVSPost2010Prop30
280
     1
102
RTVSPost2010PropOp30
 70
     1
102
RTVSPost2010Prop31
280
     0
102
RTVSPost2010PropOp31
 70
     1
102
RTVSPost2010Prop32
280
     0
102
RTVSPost2010PropOp32
 70
     1
102
RTVSPost2010Prop33
280
     0
102
RTVSPost2010PropOp33
 70
     1
102
RTVSPost2010Prop34
280
     0
102
RTVSPost2010PropOp34
 70
     1
102
RTVSPost2010Prop35
280
     0
102
RTVSPost2010PropOp35
 70
     1
102
RTVSPost2010Prop36
280
     0
102
RTVSPost2010PropOp36
 70
     1
102
RTVSPost2010Prop37
 90
       50
102
RTVSPost2010PropOp37
 70
     1
102
RTVSPost2010Prop38
140
0.0
102
RTVSPost2010PropOp38
 70
     1
102
RTVSPost2010Prop39
140
1.0
102
RTVSPost2010PropOp39
 70
     1
102
RTVSPost2010Prop40
 90
        0
102
RTVSPost2010PropOp40
 70
     1
102
RTVSPost2010Prop41ColorIndex
 90
       18
102
RTVSPost2010Prop41ColorRGB
 90
        0
102
RTVSPost2010PropOp41
 70
     1
102
RTVSPost2010Prop42
 90
       50
102
RTVSPost2010PropOp42
 70
     1
102
RTVSPost2010Prop43
 90
        3
102
RTVSPost2010PropOp43
 70
     1
102
RTVSPost2010Prop44ColorIndex
 90
        5
102
RTVSPost2010Prop44ColorRGB
 90
      255
102
RTVSPost2010PropOp44
 70
     1
102
RTVSPost2010Prop45
280
     0
102
RTVSPost2010PropOp45
 70
     1
102
RTVSPost2010Prop46
 90
       50
102
RTVSPost2010PropOp46
 70
     1
102
RTVSPost2010Prop47
 90
       50
102
RTVSPost2010PropOp47
 70
     1
102
RTVSPost2010Prop48
 90
       50
102
RTVSPost2010PropOp48
 70
     1
102
RTVSPost2010Prop49
280
     0
102
RTVSPost2010PropOp49
 70
     1
102
RTVSPost2010Prop50
 90
       50
102
RTVSPost2010PropOp50
 70
     1
102
RTVSPost2010Prop51ColorIndex
 90
      256
102
RTVSPost2010Prop51ColorRGB
 90
-16777216
102
RTVSPost2010PropOp51
 70
     0
102
RTVSPost2010Prop52
140
1.0
102
RTVSPost2010PropOp52
 70
     0
102
RTVSPost2010Prop53
 90
        2
102
RTVSPost2010PropOp53
 70
     1
102
RTVSPost2010Prop54
  1
strokes_ogs.tif
102
RTVSPost2010PropOp54
 70
     1
102
RTVSPost2010Prop55
280
     0
102
RTVSPost2010PropOp55
 70
     1
102
RTVSPost2010Prop56
140
1.0
102
RTVSPost2010PropOp56
 70
     1
102
RTVSPost2010Prop57
140
1.0
102
RTVSPost2010PropOp57
 70
     1
  0
XRECORD
  5
135
102
{ACAD_REACTORS
330
134
102
}
330
134
100
AcDbXrecord
280
     1
102
RTVSPropertyOp0
 70
     1
102
RTVSPropertyOp1
 70
     1
102
RTVSPropertyOp2
 70
     1
102
RTVSPropertyOp3
 70
     1
102
RTVSPropertyOp4
 70
     1
102
RTVSPropertyOp5
 70
     1
102
RTVSPropertyOp6
 70
     1
102
RTVSPropertyOp7
 70
     1
102
RTVSPropertyOp8
 70
     1
102
RTVSPropertyOp9
 70
     1
102
RTVSPropertyOp10
 70
     1
102
RTVSPropertyOp11
 70
     1
102
RTVSPropertyOp12
 70
     1
102
RTVSPropertyOp13
 70
     1
102
RTVSPropertyOp14
 70
     1
102
RTVSPropertyOp15
 70
     1
102
RTVSPropertyOp16
 70
     1
102
RTVSPropertyOp17
 70
     1
102
RTVSPropertyOp18
 70
     1
102
RTVSPropertyOp19
 70
     1
102
RTVSPropertyOp20
 70
     1
102
RTVSPropertyOp21
 70
     1
102
RTVSPropertyOp22
 70
     1
102
RTVSPropertyOp23
 70
     1
102
RTVSPropertyOp24
 70
     1
102
RTVSPropertyOp25
 70
     1
102
RTVSPropertyOp26
 70
     1
102
RTVSPropertyOp27
 70
     1
102
RTVSPropertyOp28
 70
     1
102
RTVSPropertyOp29
 70
     1
102
RTVSPropertyOp30
 70
     1
102
RTVSPropertyOp31
 70
     1
102
RTVSPropertyOp32
 70
     1
102
RTVSPropertyOp33
 70
     1
102
RTVSPropertyOp34
 70
     1
102
RTVSPropertyOp35
 70
     1
102
RTVSPropertyOp36
 70
     1
102
RTVSPropertyOp37
 70
     1
102
RTVSPropertyOp38
 70
     1
102
RTVSPropertyOp39
 70
     1
102
RTVSPropertyOp40
 70
     1
102
RTVSPropertyOp41
 70
     1
102
RTVSPropertyOp42
 70
     1
102
RTVSPropertyOp43
 70
     1
102
RTVSPropertyOp44
 70
     1
102
RTVSPropertyOp45
 70
     1
102
RTVSPropertyOp46
 70
     1
102
RTVSPropertyOp47
 70
     1
102
RTVSPropertyOp48
 70
     1
102
RTVSPropertyOp49
 70
     1
102
RTVSPropertyOp50
 70
     1
102
RTVSPropertyOp51
 70
     0
102
RTVSPropertyOp52
 70
     0
102
RTVSPropertyOp53
 70
     1
102
RTVSPropertyOp54
 70
     1
102
RTVSPropertyOp55
 70
     1
102
RTVSPropertyOp56
 70
     1
102
RTVSPropertyOp57
 70
     1
102
RTVSPost2010Prop28
280
     0
102
RTVSPost2010PropOp28
 70
     1
102
RTVSPost2010Prop29
280
     1
102
RTVSPost2010PropOp29
 70
     1
102
RTVSPost2010Prop30
280
     1
102
RTVSPost2010PropOp30
 70
     1
102
RTVSPost2010Prop31
280
     0
102
RTVSPost2010PropOp31
 70
     1
102
RTVSPost2010Prop32
280
     0
102
RTVSPost2010PropOp32
 70
     1
102
RTVSPost2010Prop33
280
     0
102
RTVSPost2010PropOp33
 70
     1
102
RTVSPost2010Prop34
280
     0
102
RTVSPost2010PropOp34
 70
     1
102
RTVSPost2010Prop35
280
     0
102
RTVSPost2010PropOp35
 70
     1
102
RTVSPost2010Prop36
280
     0
102
RTVSPost2010PropOp36
 70
     1
102
RTVSPost2010Prop37
 90
       50
102
RTVSPost2010PropOp37
 70
     1
102
RTVSPost2010Prop38
140
0.0
102
RTVSPost2010PropOp38
 70
     1
102
RTVSPost2010Prop39
140
1.0
102
RTVSPost2010PropOp39
 70
     1
102
RTVSPost2010Prop40
 90
        0
102
RTVSPost2010PropOp40
 70
     1
102
RTVSPost2010Prop41ColorIndex
 90
       18
102
RTVSPost2010Prop41ColorRGB
 90
        0
102
RTVSPost2010PropOp41
 70
     1
102
RTVSPost2010Prop42
 90
       50
102
RTVSPost2010PropOp42
 70
     1
102
RTVSPost2010Prop43
 90
        3
102
RTVSPost2010PropOp43
 70
     1
102
RTVSPost2010Prop44ColorIndex
 90
        5
102
RTVSPost2010Prop44ColorRGB
 90
      255
102
RTVSPost2010PropOp44
 70
     1
102
RTVSPost2010Prop45
280
     0
102
RTVSPost2010PropOp45
 70
     1
102
RTVSPost2010Prop46
 90
       50
102
RTVSPost2010PropOp46
 70
     1
102
RTVSPost2010Prop47
 90
       50
102
RTVSPost2010PropOp47
 70
     1
102
RTVSPost2010Prop48
 90
       50
102
RTVSPost2010PropOp48
 70
     1
102
RTVSPost2010Prop49
280
     0
102
RTVSPost2010PropOp49
 70
     1
102
RTVSPost2010Prop50
 90
       50
102
RTVSPost2010PropOp50
 70
     1
102
RTVSPost2010Prop51ColorIndex
 90
      256
102
RTVSPost2010Prop51ColorRGB
 90
-16777216
102
RTVSPost2010PropOp51
 70
     0
102
RTVSPost2010Prop52
140
1.0
102
RTVSPost2010PropOp52
 70
     0
102
RTVSPost2010Prop53
 90
        2
102
RTVSPost2010PropOp53
 70
     1
102
RTVSPost2010Prop54
  1
strokes_ogs.tif
102
RTVSPost2010PropOp54
 70
     1
102
RTVSPost2010Prop55
280
     0
102
RTVSPost2010PropOp55
 70
     1
102
RTVSPost2010Prop56
140
1.0
102
RTVSPost2010PropOp56
 70
     1
102
RTVSPost2010Prop57
140
1.0
102
RTVSPost2010PropOp57
 70
     1
  0
XRECORD
  5
155
102
{ACAD_REACTORS
330
154
102
}
330
154
100
AcDbXrecord
280
     1
102
RTVSPropertyOp0
 70
     1
102
RTVSPropertyOp1
 70
     1
102
RTVSPropertyOp2
 70
     1
102
RTVSPropertyOp3
 70
     1
102
RTVSPropertyOp4
 70
     1
102
RTVSPropertyOp5
 70
     1
102
RTVSPropertyOp6
 70
     1
102
RTVSPropertyOp7
 70
     1
102
RTVSPropertyOp8
 70
     1
102
RTVSPropertyOp9
 70
     1
102
RTVSPropertyOp10
 70
     1
102
RTVSPropertyOp11
 70
     1
102
RTVSPropertyOp12
 70
     1
102
RTVSPropertyOp13
 70
     1
102
RTVSPropertyOp14
 70
     1
102
RTVSPropertyOp15
 70
     1
102
RTVSPropertyOp16
 70
     1
102
RTVSPropertyOp17
 70
     1
102
RTVSPropertyOp18
 70
     1
102
RTVSPropertyOp19
 70
     1
102
RTVSPropertyOp20
 70
     1
102
RTVSPropertyOp21
 70
     1
102
RTVSPropertyOp22
 70
     1
102
RTVSPropertyOp23
 70
     1
102
RTVSPropertyOp24
 70
     1
102
RTVSPropertyOp25
 70
     1
102
RTVSPropertyOp26
 70
     1
102
RTVSPropertyOp27
 70
     1
102
RTVSPropertyOp28
 70
     1
102
RTVSPropertyOp29
 70
     1
102
RTVSPropertyOp30
 70
     1
102
RTVSPropertyOp31
 70
     1
102
RTVSPropertyOp32
 70
     1
102
RTVSPropertyOp33
 70
     1
102
RTVSPropertyOp34
 70
     1
102
RTVSPropertyOp35
 70
     1
102
RTVSPropertyOp36
 70
     1
102
RTVSPropertyOp37
 70
     1
102
RTVSPropertyOp38
 70
     1
102
RTVSPropertyOp39
 70
     1
102
RTVSPropertyOp40
 70
     1
102
RTVSPropertyOp41
 70
     1
102
RTVSPropertyOp42
 70
     1
102
RTVSPropertyOp43
 70
     1
102
RTVSPropertyOp44
 70
     1
102
RTVSPropertyOp45
 70
     1
102
RTVSPropertyOp46
 70
     1
102
RTVSPropertyOp47
 70
     1
102
RTVSPropertyOp48
 70
     1
102
RTVSPropertyOp49
 70
     1
102
RTVSPropertyOp50
 70
     1
102
RTVSPropertyOp51
 70
     0
102
RTVSPropertyOp52
 70
     0
102
RTVSPropertyOp53
 70
     1
102
RTVSPropertyOp54
 70
     1
102
RTVSPropertyOp55
 70
     1
102
RTVSPropertyOp56
 70
     1
102
RTVSPropertyOp57
 70
     1
102
RTVSPost2010Prop28
280
     0
102
RTVSPost2010PropOp28
 70
     1
102
RTVSPost2010Prop29
280
     1
102
RTVSPost2010PropOp29
 70
     1
102
RTVSPost2010Prop30
280
     1
102
RTVSPost2010PropOp30
 70
     1
102
RTVSPost2010Prop31
280
     0
102
RTVSPost2010PropOp31
 70
     1
102
RTVSPost2010Prop32
280
     0
102
RTVSPost2010PropOp32
 70
     1
102
RTVSPost2010Prop33
280
     0
102
RTVSPost2010PropOp33
 70
     1
102
RTVSPost2010Prop34
280
     0
102
RTVSPost2010PropOp34
 70
     1
102
RTVSPost2010Prop35
280
     0
102
RTVSPost2010PropOp35
 70
     1
102
RTVSPost2010Prop36
280
     0
102
RTVSPost2010PropOp36
 70
     1
102
RTVSPost2010Prop37
 90
       50
102
RTVSPost2010PropOp37
 70
     1
102
RTVSPost2010Prop38
140
0.0
102
RTVSPost2010PropOp38
 70
     1
102
RTVSPost2010Prop39
140
1.0
102
RTVSPost2010PropOp39
 70
     1
102
RTVSPost2010Prop40
 90
        0
102
RTVSPost2010PropOp40
 70
     1
102
RTVSPost2010Prop41ColorIndex
 90
       18
102
RTVSPost2010Prop41ColorRGB
 90
        0
102
RTVSPost2010PropOp41
 70
     1
102
RTVSPost2010Prop42
 90
       50
102
RTVSPost2010PropOp42
 70
     1
102
RTVSPost2010Prop43
 90
        3
102
RTVSPost2010PropOp43
 70
     1
102
RTVSPost2010Prop44ColorIndex
 90
        5
102
RTVSPost2010Prop44ColorRGB
 90
      255
102
RTVSPost2010PropOp44
 70
     1
102
RTVSPost2010Prop45
280
     0
102
RTVSPost2010PropOp45
 70
     1
102
RTVSPost2010Prop46
 90
       50
102
RTVSPost2010PropOp46
 70
     1
102
RTVSPost2010Prop47
 90
       50
102
RTVSPost2010PropOp47
 70
     1
102
RTVSPost2010Prop48
 90
       50
102
RTVSPost2010PropOp48
 70
     1
102
RTVSPost2010Prop49
280
     0
102
RTVSPost2010PropOp49
 70
     1
102
RTVSPost2010Prop50
 90
       50
102
RTVSPost2010PropOp50
 70
     1
102
RTVSPost2010Prop51ColorIndex
 90
      256
102
RTVSPost2010Prop51ColorRGB
 90
-16777216
102
RTVSPost2010PropOp51
 70
     0
102
RTVSPost2010Prop52
140
1.0
102
RTVSPost2010PropOp52
 70
     0
102
RTVSPost2010Prop53
 90
        2
102
RTVSPost2010PropOp53
 70
     1
102
RTVSPost2010Prop54
  1
strokes_ogs.tif
102
RTVSPost2010PropOp54
 70
     1
102
RTVSPost2010Prop55
280
     0
102
RTVSPost2010PropOp55
 70
     1
102
RTVSPost2010Prop56
140
1.0
102
RTVSPost2010PropOp56
 70
     1
102
RTVSPost2010Prop57
140
1.0
102
RTVSPost2010PropOp57
 70
     1
  0
ENDSEC
  0
EOF
