  0
SECTION
  2
HEADER
  9
$ACADVER
  1
AC1021
  9
$ACADMAINTVER
 70
    25
  9
$DWGCODEPAGE
  3
ANSI_1252
  9
$INSBASE
 10
0.0
 20
0.0
 30
0.0
  9
$EXTMIN
 10
1.000000000000000E+20
 20
1.000000000000000E+20
 30
1.000000000000000E+20
  9
$EXTMAX
 10
-1.000000000000000E+20
 20
-1.000000000000000E+20
 30
-1.000000000000000E+20
  9
$LIMMIN
 10
0.0
 20
0.0
  9
$LIMMAX
 10
12.0
 20
9.0
  9
$ORTHOMODE
 70
     0
  9
$REGENMODE
 70
     1
  9
$FILLMODE
 70
     1
  9
$QTEXTMODE
 70
     0
  9
$MIRRTEXT
 70
     1
  9
$LTSCALE
 40
1.0
  9
$ATTMODE
 70
     1
  9
$TEXTSIZE
 40
0.2
  9
$TRACEWID
 40
0.05
  9
$TEXTSTYLE
  7
Standard
  9
$CLAYER
  8
0
  9
$CELTYPE
  6
ByLayer
  9
$CECOLOR
 62
   256
  9
$CELTSCALE
 40
1.0
  9
$DISPSILH
 70
     0
  9
$DIMSCALE
 40
1.0
  9
$DIMASZ
 40
0.18
  9
$DIMEXO
 40
0.0625
  9
$DIMDLI
 40
0.38
  9
$DIMRND
 40
0.0
  9
$DIMDLE
 40
0.0
  9
$DIMEXE
 40
0.18
  9
$DIMTP
 40
0.0
  9
$DIMTM
 40
0.0
  9
$DIMTXT
 40
0.18
  9
$DIMCEN
 40
0.09
  9
$DIMTSZ
 40
0.0
  9
$DIMTOL
 70
     0
  9
$DIMLIM
 70
     0
  9
$DIMTIH
 70
     1
  9
$DIMTOH
 70
     1
  9
$DIMSE1
 70
     0
  9
$DIMSE2
 70
     0
  9
$DIMTAD
 70
     0
  9
$DIMZIN
 70
     0
  9
$DIMBLK
  1

  9
$DIMASO
 70
     1
  9
$DIMSHO
 70
     1
  9
$DIMPOST
  1

  9
$DIMAPOST
  1

  9
$DIMALT
 70
     0
  9
$DIMALTD
 70
     2
  9
$DIMALTF
 40
25.4
  9
$DIMLFAC
 40
1.0
  9
$DIMTOFL
 70
     0
  9
$DIMTVP
 40
0.0
  9
$DIMTIX
 70
     0
  9
$DIMSOXD
 70
     0
  9
$DIMSAH
 70
     0
  9
$DIMBLK1
  1

  9
$DIMBLK2
  1

  9
$DIMSTYLE
  2
STANDARD_ACAD
  9
$DIMCLRD
 70
     0
  9
$DIMCLRE
 70
     0
  9
$DIMCLRT
 70
     0
  9
$DIMTFAC
 40
1.0
  9
$DIMGAP
 40
0.09
  9
$DIMJUST
 70
     0
  9
$DIMSD1
 70
     0
  9
$DIMSD2
 70
     0
  9
$DIMTOLJ
 70
     1
  9
$DIMTZIN
 70
     0
  9
$DIMALTZ
 70
     0
  9
$DIMALTTZ
 70
     0
  9
$DIMUPT
 70
     0
  9
$DIMDEC
 70
     4
  9
$DIMTDEC
 70
     4
  9
$DIMALTU
 70
     2
  9
$DIMALTTD
 70
     2
  9
$DIMTXSTY
  7
Standard
  9
$DIMAUNIT
 70
     0
  9
$DIMADEC
 70
     0
  9
$DIMALTRND
 40
0.0
  9
$DIMAZIN
 70
     0
  9
$DIMDSEP
 70
    46
  9
$DIMATFIT
 70
     3
  9
$DIMFRAC
 70
     0
  9
$DIMLDRBLK
  1

  9
$DIMLUNIT
 70
     2
  9
$DIMLWD
 70
    -2
  9
$DIMLWE
 70
    -2
  9
$DIMTMOVE
 70
     2
  9
$DIMFXL
 40
1.0
  9
$DIMFXLON
 70
     0
  9
$DIMJOGANG
 40
0.7853981633974483
  9
$DIMTFILL
 70
     0
  9
$DIMTFILLCLR
 70
     0
  9
$DIMARCSYM
 70
     0
  9
$DIMLTYPE
  6

  9
$DIMLTEX1
  6

  9
$DIMLTEX2
  6

  9
$LUNITS
 70
     2
  9
$LUPREC
 70
     3
  9
$SKETCHINC
 40
0.1
  9
$FILLETRAD
 40
0.5
  9
$AUNITS
 70
     0
  9
$AUPREC
 70
     0
  9
$MENU
  1
.
  9
$ELEVATION
 40
0.0
  9
$PELEVATION
 40
0.0
  9
$THICKNESS
 40
0.0
  9
$LIMCHECK
 70
     0
  9
$CHAMFERA
 40
0.0
  9
$CHAMFERB
 40
0.0
  9
$CHAMFERC
 40
0.0
  9
$CHAMFERD
 40
0.0
  9
$SKPOLY
 70
     0
  9
$TDCREATE
 40
2459174.69500103
  9
$TDUCREATE
 40
2459174.903334363
  9
$TDUPDATE
 40
2459174.695022662
  9
$TDUUPDATE
 40
2459174.903355995
  9
$TDINDWG
 40
0.0000000116
  9
$TDUSRTIMER
 40
0.0000000116
  9
$USRTIMER
 70
     1
  9
$ANGBASE
 50
0.0
  9
$ANGDIR
 70
     0
  9
$PDMODE
 70
     0
  9
$PDSIZE
 40
0.0
  9
$PLINEWID
 40
0.0
  9
$SPLFRAME
 70
     0
  9
$SPLINETYPE
 70
     6
  9
$SPLINESEGS
 70
     8
  9
$HANDSEED
  5
25C
  9
$SURFTAB1
 70
     6
  9
$SURFTAB2
 70
     6
  9
$SURFTYPE
 70
     6
  9
$SURFU
 70
     6
  9
$SURFV
 70
     6
  9
$UCSBASE
  2

  9
$UCSNAME
  2

  9
$UCSORG
 10
0.0
 20
0.0
 30
0.0
  9
$UCSXDIR
 10
1.0
 20
0.0
 30
0.0
  9
$UCSYDIR
 10
0.0
 20
1.0
 30
0.0
  9
$UCSORTHOREF
  2

  9
$UCSORTHOVIEW
 70
     0
  9
$UCSORGTOP
 10
0.0
 20
0.0
 30
0.0
  9
$UCSORGBOTTOM
 10
0.0
 20
0.0
 30
0.0
  9
$UCSORGLEFT
 10
0.0
 20
0.0
 30
0.0
  9
$UCSORGRIGHT
 10
0.0
 20
0.0
 30
0.0
  9
$UCSORGFRONT
 10
0.0
 20
0.0
 30
0.0
  9
$UCSORGBACK
 10
0.0
 20
0.0
 30
0.0
  9
$PUCSBASE
  2

  9
$PUCSNAME
  2

  9
$PUCSORG
 10
0.0
 20
0.0
 30
0.0
  9
$PUCSXDIR
 10
1.0
 20
0.0
 30
0.0
  9
$PUCSYDIR
 10
0.0
 20
1.0
 30
0.0
  9
$PUCSORTHOREF
  2

  9
$PUCSORTHOVIEW
 70
     0
  9
$PUCSORGTOP
 10
0.0
 20
0.0
 30
0.0
  9
$PUCSORGBOTTOM
 10
0.0
 20
0.0
 30
0.0
  9
$PUCSORGLEFT
 10
0.0
 20
0.0
 30
0.0
  9
$PUCSORGRIGHT
 10
0.0
 20
0.0
 30
0.0
  9
$PUCSORGFRONT
 10
0.0
 20
0.0
 30
0.0
  9
$PUCSORGBACK
 10
0.0
 20
0.0
 30
0.0
  9
$USERI1
 70
     0
  9
$USERI2
 70
     0
  9
$USERI3
 70
     0
  9
$USERI4
 70
     0
  9
$USERI5
 70
     0
  9
$USERR1
 40
0.0
  9
$USERR2
 40
0.0
  9
$USERR3
 40
0.0
  9
$USERR4
 40
0.0
  9
$USERR5
 40
0.0
  9
$WORLDVIEW
 70
     1
  9
$SHADEDGE
 70
     3
  9
$SHADEDIF
 70
    70
  9
$TILEMODE
 70
     1
  9
$MAXACTVP
 70
    64
  9
$PINSBASE
 10
0.0
 20
0.0
 30
0.0
  9
$PLIMCHECK
 70
     0
  9
$PEXTMIN
 10
1.000000000000000E+20
 20
1.000000000000000E+20
 30
1.000000000000000E+20
  9
$PEXTMAX
 10
-1.000000000000000E+20
 20
-1.000000000000000E+20
 30
-1.000000000000000E+20
  9
$PLIMMIN
 10
0.0
 20
0.0
  9
$PLIMMAX
 10
12.0
 20
9.0
  9
$UNITMODE
 70
     0
  9
$VISRETAIN
 70
     1
  9
$PLINEGEN
 70
     0
  9
$PSLTSCALE
 70
     1
  9
$TREEDEPTH
 70
  3020
  9
$CMLSTYLE
  2
Standard
  9
$CMLJUST
 70
     0
  9
$CMLSCALE
 40
1.0
  9
$PROXYGRAPHICS
 70
     1
  9
$MEASUREMENT
 70
     0
  9
$CELWEIGHT
370
    -1
  9
$ENDCAPS
280
     0
  9
$JOINSTYLE
280
     0
  9
$LWDISPLAY
290
     0
  9
$INSUNITS
 70
     1
  9
$HYPERLINKBASE
  1

  9
$STYLESHEET
  1

  9
$XEDIT
290
     1
  9
$CEPSNTYPE
380
     0
  9
$PSTYLEMODE
290
     1
  9
$FINGERPRINTGUID
  2
{a4714d2c-5df4-41c3-8a52-721787a67a4b}
  9
$VERSIONGUID
  2
{FAEB1C32-E019-11D5-929B-00C0DF256EC4}
  9
$EXTNAMES
290
     1
  9
$PSVPSCALE
 40
0.0
  9
$OLESTARTUP
290
     0
  9
$SORTENTS
280
   127
  9
$INDEXCTL
280
     0
  9
$HIDETEXT
280
     1
  9
$XCLIPFRAME
290
     0
  9
$HALOGAP
280
     0
  9
$OBSCOLOR
 70
   257
  9
$OBSLTYPE
280
     0
  9
$INTERSECTIONDISPLAY
280
     0
  9
$INTERSECTIONCOLOR
 70
   257
  9
$DIMASSOC
280
     2
  9
$PROJECTNAME
  1

  9
$CAMERADISPLAY
290
     0
  9
$LENSLENGTH
 40
50.0
  9
$CAMERAHEIGHT
 40
0.0
  9
$STEPSPERSEC
 40
2.0
  9
$STEPSIZE
 40
6.0
  9
$3DDWFPREC
 40
2.0
  9
$PSOLWIDTH
 40
0.25
  9
$PSOLHEIGHT
 40
4.0
  9
$LOFTANG1
 40
1.570796326794897
  9
$LOFTANG2
 40
1.570796326794897
  9
$LOFTMAG1
 40
0.0
  9
$LOFTMAG2
 40
0.0
  9
$LOFTPARAM
 70
     7
  9
$LOFTNORMALS
280
     1
  9
$LATITUDE
 40
37.795
  9
$LONGITUDE
 40
-122.394
  9
$NORTHDIRECTION
 40
0.0
  9
$TIMEZONE
 70
 -8000
  9
$LIGHTGLYPHDISPLAY
280
     1
  9
$TILEMODELIGHTSYNCH
280
     1
  9
$CMATERIAL
347
44
  9
$SOLIDHIST
280
     0
  9
$SHOWHIST
280
     1
  9
$DWFFRAME
280
     2
  9
$DGNFRAME
280
     2
  9
$REALWORLDSCALE
290
     1
  9
$INTERFERECOLOR
 62
   256
  9
$CSHADOW
280
     0
  9
$SHADOWPLANELOCATION
 40
0.0
  0
ENDSEC
  0
SECTION
  2
CLASSES
  0
CLASS
  1
ACDBDICTIONARYWDFLT
  2
AcDbDictionaryWithDefault
  3
ObjectDBX Classes
 90
        0
 91
        3
280
     0
281
     0
  0
CLASS
  1
VISUALSTYLE
  2
AcDbVisualStyle
  3
ObjectDBX Classes
 90
     4095
 91
        3
280
     0
281
     0
  0
CLASS
  1
MATERIAL
  2
AcDbMaterial
  3
ObjectDBX Classes
 90
     1153
 91
        3
280
     0
281
     0
  0
CLASS
  1
SCALE
  2
AcDbScale
  3
ObjectDBX Classes
 90
     1153
 91
        3
280
     0
281
     0
  0
CLASS
  1
TABLESTYLE
  2
AcDbTableStyle
  3
ObjectDBX Classes
 90
     4095
 91
        3
280
     0
281
     0
  0
CLASS
  1
MLEADERSTYLE
  2
AcDbMLeaderStyle
  3
ACDB_MLEADERSTYLE_CLASS
 90
     4095
 91
        3
280
     0
281
     0
  0
CLASS
  1
SUN
  2
AcDbSun
  3
SCENEOE
 90
     1153
 91
        3
280
     0
281
     0
  0
CLASS
  1
DICTIONARYVAR
  2
AcDbDictionaryVar
  3
ObjectDBX Classes
 90
        0
 91
        3
280
     0
281
     0
  0
CLASS
  1
CELLSTYLEMAP
  2
AcDbCellStyleMap
  3
ObjectDBX Classes
 90
     1152
 91
        3
280
     0
281
     0
  0
ENDSEC
  0
SECTION
  2
TABLES
  0
TABLE
  2
VPORT
  5
8
330
0
100
AcDbSymbolTable
 70
     1
  0
VPORT
  5
29
330
8
100
AcDbSymbolTableRecord
100
AcDbViewportTableRecord
  2
*Active
 70
     0
 10
0.0
 20
0.0
 11
1.0
 21
1.0
 12
10.42990654205607
 22
4.5
 13
0.0
 23
0.0
 14
0.5
 24
0.5
 15
0.5
 25
0.5
 16
0.0
 26
0.0
 36
1.0
 17
0.0
 27
0.0
 37
0.0
 40
9.0
 41
1.972972972850329
 42
50.0
 43
0.0
 44
0.0
 50
0.0
 51
0.0
 71
     0
 72
   100
 73
     1
 74
     3
 75
     0
 76
     0
 77
     0
 78
     0
281
     0
 65
     1
110
0.0
120
0.0
130
0.0
111
1.0
121
0.0
131
0.0
112
0.0
122
1.0
132
0.0
 79
     0
146
0.0
348
2F
 60
     3
 61
     5
292
     1
282
     1
141
0.0
142
0.0
 63
   250
361
6D
  0
ENDTAB
  0
TABLE
  2
LTYPE
  5
5
330
0
100
AcDbSymbolTable
 70
     1
  0
LTYPE
  5
14
330
5
100
AcDbSymbolTableRecord
100
AcDbLinetypeTableRecord
  2
ByBlock
 70
     0
  3

 72
    65
 73
     0
 40
0.0
  0
LTYPE
  5
15
330
5
100
AcDbSymbolTableRecord
100
AcDbLinetypeTableRecord
  2
ByLayer
 70
     0
  3

 72
    65
 73
     0
 40
0.0
  0
LTYPE
  5
16
330
5
100
AcDbSymbolTableRecord
100
AcDbLinetypeTableRecord
  2
Continuous
 70
     0
  3
Solid line
 72
    65
 73
     0
 40
0.0
  0
ENDTAB
  0
TABLE
  2
LAYER
  5
2
330
0
100
AcDbSymbolTable
 70
     1
  0
LAYER
  5
10
330
2
100
AcDbSymbolTableRecord
100
AcDbLayerTableRecord
  2
0
 70
     0
 62
    18
420
        0
  6
Continuous
370
    -3
390
F
347
46
  0
ENDTAB
  0
TABLE
  2
STYLE
  5
3
330
0
100
AcDbSymbolTable
 70
     1
  0
STYLE
  5
11
330
3
100
AcDbSymbolTableRecord
100
AcDbTextStyleTableRecord
  2
Standard
 70
     0
 40
0.0
 41
1.0
 50
0.0
 71
     0
 42
0.2
  3
txt
  4

  0
ENDTAB
  0
TABLE
  2
VIEW
  5
6
330
0
100
AcDbSymbolTable
 70
     0
  0
ENDTAB
  0
TABLE
  2
UCS
  5
7
330
0
100
AcDbSymbolTable
 70
     0
  0
ENDTAB
  0
TABLE
  2
APPID
  5
9
330
0
100
AcDbSymbolTable
 70
     2
  0
APPID
  5
12
330
9
100
AcDbSymbolTableRecord
100
AcDbRegAppTableRecord
  2
ACAD
 70
     0
  0
APPID
  5
254
330
9
100
AcDbSymbolTableRecord
100
AcDbRegAppTableRecord
  2
ACAD_MLEADERVER
 70
     0
  0
ENDTAB
  0
TABLE
  2
DIMSTYLE
  5
A
330
0
100
AcDbSymbolTable
 70
     1
100
AcDbDimStyleTable
  0
DIMSTYLE
105
27
330
A
100
AcDbSymbolTableRecord
100
AcDbDimStyleTableRecord
  2
STANDARD_ACAD
 70
     0
178
     0
340
11
  0
ENDTAB
  0
TABLE
  2
BLOCK_RECORD
  5
1
330
0
100
AcDbSymbolTable
 70
     1
  0
BLOCK_RECORD
  5
1F
330
1
100
AcDbSymbolTableRecord
100
AcDbBlockTableRecord
  2
*Model_Space
340
22
 70
     0
280
     1
281
     0
  0
BLOCK_RECORD
  5
1B
330
1
100
AcDbSymbolTableRecord
100
AcDbBlockTableRecord
  2
*Paper_Space
340
1E
 70
     0
280
     1
281
     0
  0
BLOCK_RECORD
  5
23
330
1
100
AcDbSymbolTableRecord
100
AcDbBlockTableRecord
  2
*Paper_Space0
340
26
 70
     0
280
     1
281
     0
  0
ENDTAB
  0
ENDSEC
  0
SECTION
  2
BLOCKS
  0
BLOCK
  5
20
330
1F
100
AcDbEntity
  8
0
100
AcDbBlockBegin
  2
*Model_Space
 70
     0
 10
0.0
 20
0.0
 30
0.0
  3
*Model_Space
  1

  0
ENDBLK
  5
21
330
1F
100
AcDbEntity
  8
0
100
AcDbBlockEnd
  0
BLOCK
  5
1C
330
1B
100
AcDbEntity
 67
     1
  8
0
100
AcDbBlockBegin
  2
*Paper_Space
 70
     0
 10
0.0
 20
0.0
 30
0.0
  3
*Paper_Space
  1

  0
ENDBLK
  5
1D
330
1B
100
AcDbEntity
 67
     1
  8
0
100
AcDbBlockEnd
  0
BLOCK
  5
24
330
23
100
AcDbEntity
  8
0
100
AcDbBlockBegin
  2
*Paper_Space0
 70
     0
 10
0.0
 20
0.0
 30
0.0
  3
*Paper_Space0
  1

  0
ENDBLK
  5
25
330
23
100
AcDbEntity
  8
0
100
AcDbBlockEnd
  0
ENDSEC
  0
SECTION
  2
ENTITIES
  0
SPLINE
  5
6E
330
1F
100
AcDbEntity
  8
0
 62
    18
420
        0
370
    -3
100
AcDbSpline
210
0.0
220
0.0
230
1.0
 70
    28
 71
     2
 72
     8
 73
     5
 74
     0
 42
0.000000001
 43
0.0000000001
 40
-4.71238898038469
 40
-4.71238898038469
 40
-4.71238898038469
 40
-3.141592653589793
 40
-3.141592653589793
 40
-1.570796326794897
 40
-1.570796326794897
 40
-1.570796326794897
 10
32.32981122224126
 20
2.685000000000002
 30
0.0
 41
1.0
 10
32.32981122224128
 20
2.684999999999992
 30
0.0
 41
0.7071067811865476
 10
31.99981122224128
 20
2.685000000000002
 30
0.0
 41
1.0
 10
31.66981122224128
 20
2.684999999999992
 30
0.0
 41
0.7071067811865476
 10
31.66981122224126
 20
2.685000000000002
 30
0.0
 41
1.0
  0
SPLINE
  5
6F
330
1F
100
AcDbEntity
  8
0
 62
    18
420
        0
370
    -3
100
AcDbSpline
210
0.0
220
0.0
230
1.0
 70
    28
 71
     2
 72
     6
 73
     3
 74
     0
 42
0.000000001
 43
0.0000000001
 40
-0.1433198847624326
 40
-0.1433198847624326
 40
-0.1433198847624326
 40
-0.0183198847624326
 40
-0.0183198847624326
 40
-0.0183198847624326
 10
32.32981122224126
 20
2.560000000000002
 30
0.0
 41
1.0
 10
32.32981122224126
 20
2.622500000000002
 30
0.0
 41
1.0
 10
32.32981122224126
 20
2.685000000000002
 30
0.0
 41
1.0
  0
SPLINE
  5
70
330
1F
100
AcDbEntity
  8
0
 62
    18
420
        0
370
    -3
100
AcDbSpline
210
0.0
220
0.0
230
1.0
 70
    28
 71
     2
 72
     6
 73
     3
 74
     0
 42
0.000000001
 43
0.0000000001
 40
0.0183198847624326
 40
0.0183198847624326
 40
0.0183198847624326
 40
0.1433198847624326
 40
0.1433198847624326
 40
0.1433198847624326
 10
31.66981122224126
 20
2.685000000000002
 30
0.0
 41
1.0
 10
31.66981122224126
 20
2.622500000000002
 30
0.0
 41
1.0
 10
31.66981122224126
 20
2.560000000000002
 30
0.0
 41
1.0
  0
SPLINE
  5
71
330
1F
100
AcDbEntity
  8
0
 62
     1
420
 16711680
370
    -3
100
AcDbSpline
210
0.0
220
0.0
230
1.0
 70
    12
 71
     3
 72
     8
 73
     4
 74
     0
 42
0.000000001
 43
0.0000000001
 40
0.0000000000002042
 40
0.0000000000002042
 40
0.0000000000002042
 40
0.0000000000002042
 40
0.1435171686539584
 40
0.1435171686539584
 40
0.1435171686539584
 40
0.1435171686539584
 10
33.38953103745801
 20
16.63986625456921
 30
0.0
 41
1.180116572515027
 10
33.39126115695176
 20
16.62600305091387
 30
0.0
 41
1.1280600829599
 10
33.39238848027976
 20
16.61897473254972
 30
0.0
 41
1.0872874444698
 10
33.39280722568837
 20
16.6197965666878
 30
0.0
 41
1.057798657044725
  0
SPLINE
  5
72
330
1F
100
AcDbEntity
  8
0
 62
     1
420
 16711680
370
    -3
100
AcDbSpline
210
0.0
220
0.0
230
1.0
 70
     8
 71
     3
 72
     8
 73
     4
 74
     0
 42
0.000000001
 43
0.0000000001
 40
0.4049462953261985
 40
0.4049462953261985
 40
0.4049462953261985
 40
0.4049462953261985
 40
0.4053890918415002
 40
0.4053890918415002
 40
0.4053890918415002
 40
0.4053890918415002
 10
32.3694852324814
 20
12.42458714183513
 30
0.0
 10
32.36960700964875
 20
12.42466076811641
 30
0.0
 10
32.36972876403129
 20
12.42473435986676
 30
0.0
 10
32.36985049507646
 20
12.42480791653142
 30
0.0
  0
SPLINE
  5
73
330
1F
100
AcDbEntity
  8
0
 62
     1
420
 16711680
370
    -3
100
AcDbSpline
210
0.0
220
0.0
230
1.0
 70
     8
 71
     5
 72
    12
 73
     6
 74
     0
 42
0.000000001
 43
0.0000000001
 40
-0.9247488191758686
 40
-0.9247488191758686
 40
-0.9247488191758686
 40
-0.9247488191758686
 40
-0.9247488191758686
 40
-0.9247488191758686
 40
-0.7789128261614873
 40
-0.7789128261614873
 40
-0.7789128261614873
 40
-0.7789128261614873
 40
-0.7789128261614873
 40
-0.7789128261614873
 10
32.93481122224128
 20
11.65213382749999
 30
0.0
 10
32.93481122224128
 20
11.65213382749997
 30
0.0
 10
32.93479535674294
 20
11.65276038515202
 30
0.0
 10
32.93477939570084
 20
11.65406326585223
 30
0.0
 10
32.93479759080677
 20
11.65619205048857
 30
0.0
 10
32.93489190656834
 20
11.65926414510309
 30
0.0
  0
SPLINE
  5
74
330
1F
100
AcDbEntity
  8
0
370
    -3
100
AcDbSpline
210
0.0
220
0.0
230
1.0
 70
     8
 71
     2
 72
    11
 73
     8
 74
     0
 42
0.000000001
 43
0.0000000001
 40
-6.0
 40
-6.0
 40
-6.0
 40
-5.0
 40
-4.0
 40
-3.0
 40
-2.0
 40
-1.0
 40
0.0
 40
0.0
 40
0.0
 10
8.053131903579754
 20
58.90490952755462
 30
0.0
 10
7.551608699446447
 20
59.42424225285095
 30
0.0
 10
6.310491277031403
 20
60.1569463000489
 30
0.0
 10
4.964932201392102
 20
60.66185623626637
 30
0.0
 10
3.569498425052402
 20
61.0013235859999
 30
0.0
 10
2.149442106068463
 20
61.21216437307993
 30
0.0
 10
0.7177056033068396
 20
61.31546502510793
 30
0.0
 10
-0.00000483456175
 20
61.31582064140065
 30
0.0
  0
SPLINE
  5
75
330
1F
100
AcDbEntity
  8
0
370
    -3
100
AcDbSpline
210
0.0
220
0.0
230
1.0
 70
     8
 71
     2
 72
    11
 73
     8
 74
     0
 42
0.000000001
 43
0.0000000001
 40
0.0
 40
0.0
 40
0.0
 40
1.0
 40
2.0
 40
3.0
 40
4.0
 40
5.0
 40
6.0
 40
6.0
 40
6.0
 10
-0.00000483456175
 20
61.31582064140065
 30
0.0
 10
-0.7177152724303397
 20
61.31546502510793
 30
0.0
 10
-2.149451775191963
 20
61.21216437307993
 30
0.0
 10
-3.569508094175902
 20
61.0013235859999
 30
0.0
 10
-4.964941870515602
 20
60.66185623626637
 30
0.0
 10
-6.310500946154903
 20
60.1569463000489
 30
0.0
 10
-7.551618368569947
 20
59.42424225285095
 30
0.0
 10
-8.053141572703268
 20
58.90490952755462
 30
0.0
  0
SPLINE
  5
76
330
1F
100
AcDbEntity
  8
0
100
AcDbSpline
210
0.0
220
0.0
230
1.0
 70
     8
 71
     2
 72
    11
 73
     8
 74
     0
 42
0.000000001
 43
0.0000000001
 40
-6.0
 40
-6.0
 40
-6.0
 40
-5.0
 40
-4.0
 40
-3.0
 40
-2.0
 40
-1.0
 40
0.0
 40
0.0
 40
0.0
 10
7.138128491169127
 20
63.94720398311145
 30
0.0
 10
7.262977018308376
 20
63.90556292134511
 30
0.0
 10
7.505703092513798
 20
63.80362107234936
 30
0.0
 10
7.7371590969219
 20
63.67787280184743
 30
0.0
 10
7.949463807518455
 20
63.52153292321597
 30
0.0
 10
8.128049128230316
 20
63.32640851174114
 30
0.0
 10
8.239577486114626
 20
63.08474217169572
 30
0.0
 10
8.239756332541958
 20
62.95097959681718
 30
0.0
  0
LINE
  5
77
330
1F
100
AcDbEntity
  8
0
100
AcDbLine
 10
8.239756332541958
 20
62.95097959681718
 30
0.0
 11
8.249353560099905
 21
44.94539041364905
 31
0.0
  0
SPLINE
  5
78
330
1F
100
AcDbEntity
  8
0
100
AcDbSpline
210
0.0
220
0.0
230
1.0
 70
     8
 71
     2
 72
    11
 73
     8
 74
     0
 42
0.000000001
 43
0.0000000001
 40
18.00559111365089
 40
18.00559111365089
 40
18.00559111365089
 40
19.00559111365089
 40
20.00559111365089
 40
21.00559111365089
 40
22.00559111365089
 40
23.00559111365089
 40
24.00559111365089
 40
24.00559111365089
 40
24.00559111365089
 10
8.249353560099905
 20
44.94539041364905
 30
0.0
 10
8.250475072446477
 20
44.73847406701037
 30
0.0
 10
8.165345794636153
 20
44.33244572533783
 30
0.0
 10
7.957830835093731
 20
43.9707416293632
 30
0.0
 10
7.633075185405843
 20
43.71129681713217
 30
0.0
 10
7.254371653555083
 20
43.54366193271042
 30
0.0
 10
6.850795593760083
 20
43.4538909897384
 30
0.0
 10
6.64533008070741
 20
43.43383319326958
 30
0.0
  0
SPLINE
  5
79
330
1F
100
AcDbEntity
  8
0
100
AcDbSpline
210
0.0
220
0.0
230
1.0
 70
     8
 71
     2
 72
    11
 73
     8
 74
     0
 42
0.000000001
 43
0.0000000001
 40
24.00559111365089
 40
24.00559111365089
 40
24.00559111365089
 40
25.00559111365089
 40
26.00559111365089
 40
27.00559111365089
 40
28.00559111365089
 40
29.00559111365089
 40
30.00559111365089
 40
30.00559111365089
 40
30.00559111365089
 10
6.64533008070741
 20
43.43383319326958
 30
0.0
 10
6.093746607491411
 20
43.37946802605609
 30
0.0
 10
4.986862511526184
 20
43.32053258443125
 30
0.0
 10
3.878989583050227
 20
43.28817569790931
 30
0.0
 10
2.770777911275488
 20
43.27177187556492
 30
0.0
 10
1.662475161309274
 20
43.26491398838871
 30
0.0
 10
0.5541553308655551
 20
43.26319701833896
 30
0.0
 10
-0.00000483456175
 20
43.26330502065997
 30
0.0
  0
SPLINE
  5
7A
330
1F
100
AcDbEntity
  8
0
100
AcDbSpline
210
0.0
220
0.0
230
1.0
 70
     8
 71
     2
 72
    11
 73
     8
 74
     0
 42
0.000000001
 43
0.0000000001
 40
30.00559111365089
 40
30.00559111365089
 40
30.00559111365089
 40
31.00559111365089
 40
32.00559111365089
 40
33.00559111365089
 40
34.00559111365089
 40
35.00559111365089
 40
36.00559111365089
 40
36.00559111365089
 40
36.00559111365089
 10
-0.00000483456175
 20
43.26330502065997
 30
0.0
 10
-0.5541649999890552
 20
43.26319701833896
 30
0.0
 10
-1.662484830432774
 20
43.26491398838871
 30
0.0
 10
-2.770787580398988
 20
43.27177187556492
 30
0.0
 10
-3.878999252173728
 20
43.28817569790931
 30
0.0
 10
-4.986872180649684
 20
43.32053258443125
 30
0.0
 10
-6.093756276614911
 20
43.37946802605609
 30
0.0
 10
-6.64533974983091
 20
43.43383319326958
 30
0.0
  0
SPLINE
  5
7B
330
1F
100
AcDbEntity
  8
0
100
AcDbSpline
210
0.0
220
0.0
230
1.0
 70
     8
 71
     2
 72
    11
 73
     8
 74
     0
 42
0.000000001
 43
0.0000000001
 40
36.00559111365089
 40
36.00559111365089
 40
36.00559111365089
 40
37.00559111365089
 40
38.00559111365089
 40
39.00559111365089
 40
40.00559111365089
 40
41.00559111365089
 40
42.00559111365089
 40
42.00559111365089
 40
42.00559111365089
 10
-6.64533974983091
 20
43.43383319326958
 30
0.0
 10
-6.850805262883583
 20
43.4538909897384
 30
0.0
 10
-7.254381322678583
 20
43.54366193271042
 30
0.0
 10
-7.633084854529343
 20
43.71129681713217
 30
0.0
 10
-7.957840504217231
 20
43.9707416293632
 30
0.0
 10
-8.165355463759639
 20
44.33244572533783
 30
0.0
 10
-8.250484741569991
 20
44.73847406701037
 30
0.0
 10
-8.24936322922342
 20
44.94539041364905
 30
0.0
  0
LINE
  5
7C
330
1F
100
AcDbEntity
  8
0
100
AcDbLine
 10
-8.24936322922342
 20
44.94539041364905
 30
0.0
 11
-8.239766001665473
 21
62.95097959681718
 31
0.0
  0
SPLINE
  5
7D
330
1F
100
AcDbEntity
  8
0
100
AcDbSpline
210
0.0
220
0.0
230
1.0
 70
     8
 71
     2
 72
    11
 73
     8
 74
     0
 42
0.000000001
 43
0.0000000001
 40
60.01118222730179
 40
60.01118222730179
 40
60.01118222730179
 40
61.01118222730179
 40
62.01118222730179
 40
63.01118222730179
 40
64.01118222730179
 40
65.01118222730179
 40
66.01118222730179
 40
66.01118222730179
 40
66.01118222730179
 10
-8.239766001665473
 20
62.95097959681718
 30
0.0
 10
-8.23958715523814
 20
63.08474217169572
 30
0.0
 10
-8.12805879735383
 20
63.32640851174114
 30
0.0
 10
-7.949473476641955
 20
63.52153292321597
 30
0.0
 10
-7.7371687660454
 20
63.67787280184743
 30
0.0
 10
-7.505712761637298
 20
63.80362107234936
 30
0.0
 10
-7.262986687431876
 20
63.90556292134511
 30
0.0
 10
-7.138138160292627
 20
63.94720398311145
 30
0.0
  0
SPLINE
  5
7E
330
1F
100
AcDbEntity
  8
0
100
AcDbSpline
210
0.0
220
0.0
230
1.0
 70
     8
 71
     2
 72
    11
 73
     8
 74
     0
 42
0.000000001
 43
0.0000000001
 40
66.01118222730179
 40
66.01118222730179
 40
66.01118222730179
 40
67.01118222730179
 40
68.01118222730179
 40
69.01118222730179
 40
70.01118222730179
 40
71.01118222730179
 40
72.01118222730179
 40
72.01118222730179
 40
72.01118222730179
 10
-7.138138160292627
 20
63.94720398311145
 30
0.0
 10
-6.566903787857953
 20
64.13465003320186
 30
0.0
 10
-5.389238393942676
 20
64.37531706258545
 30
0.0
 10
-4.198246975307811
 20
64.53257450541741
 30
0.0
 10
-3.001150950455312
 20
64.63185131020825
 30
0.0
 10
-1.801372330708134
 20
64.68864887127353
 30
0.0
 10
-0.6005388135588845
 20
64.71313676719649
 30
0.0
 10
-0.00000483456175
 20
64.71288088810806
 30
0.0
  0
SPLINE
  5
7F
330
1F
100
AcDbEntity
  8
0
100
AcDbSpline
210
0.0
220
0.0
230
1.0
 70
     8
 71
     2
 72
    11
 73
     8
 74
     0
 42
0.000000001
 43
0.0000000001
 40
72.01118222730179
 40
72.01118222730179
 40
72.01118222730179
 40
73.01118222730179
 40
74.01118222730179
 40
75.01118222730179
 40
76.01118222730179
 40
77.01118222730179
 40
78.01118222730179
 40
78.01118222730179
 40
78.01118222730179
 10
-0.00000483456175
 20
64.71288088810806
 30
0.0
 10
0.6005291444353844
 20
64.71313676719649
 30
0.0
 10
1.801362661584633
 20
64.68864887127353
 30
0.0
 10
3.001141281331812
 20
64.63185131020825
 30
0.0
 10
4.198237306184311
 20
64.53257450541741
 30
0.0
 10
5.389228724819176
 20
64.37531706258545
 30
0.0
 10
6.566894118734453
 20
64.13465003320186
 30
0.0
 10
7.138128491169127
 20
63.94720398311145
 30
0.0
  0
SPLINE
  5
80
330
1F
100
AcDbEntity
  8
0
 62
    18
420
        0
370
    -3
100
AcDbSpline
210
0.0
220
0.0
230
1.0
 70
     8
 71
     3
 72
    10
 73
     6
 74
     0
 42
0.000000001
 43
0.0000000001
 40
-2.99342203891766
 40
-2.99342203891766
 40
-2.99342203891766
 40
-2.99342203891766
 40
-2.0
 40
-1.0
 40
0.0
 40
0.0
 40
0.0
 40
0.0
 10
-8.244558881803215
 20
53.95894202728843
 30
0.0
 10
-8.667359901085504
 20
53.95910481305026
 30
0.0
 10
-9.515815953936198
 20
53.96097264580894
 30
0.0
 10
-10.78969182142455
 20
53.95788532039344
 30
0.0
 10
-11.6412549809814
 20
53.96846170597729
 30
0.0
 10
-12.06622146688444
 20
53.949048213895
 30
0.0
  0
SPLINE
  5
81
330
1F
100
AcDbEntity
  8
0
 62
    18
420
        0
370
    -3
100
AcDbSpline
210
0.0
220
0.0
230
1.0
 70
     8
 71
     3
 72
    10
 73
     6
 74
     0
 42
0.000000001
 43
0.0000000001
 40
0.0
 40
0.0
 40
0.0
 40
0.0
 40
1.0
 40
2.0
 40
3.0
 40
3.0
 40
3.0
 40
3.0
 10
-12.06622146688444
 20
53.949048213895
 30
0.0
 10
-12.12850766409866
 20
53.94620283046697
 30
0.0
 10
-12.24914195128569
 20
53.89920170630126
 30
0.0
 10
-12.38564864415186
 20
53.76219808166456
 30
0.0
 10
-12.4162808652527
 20
53.63631696855145
 30
0.0
 10
-12.41660623010995
 20
53.57405413051936
 30
0.0
  0
SPLINE
  5
82
330
1F
100
AcDbEntity
  8
0
 62
    18
420
        0
370
    -3
100
AcDbSpline
210
0.0
220
0.0
230
1.0
 70
     8
 71
     3
 72
    10
 73
     6
 74
     0
 42
0.000000001
 43
0.0000000001
 40
3.0
 40
3.0
 40
3.0
 40
3.0
 40
4.0
 40
5.0
 40
6.0
 40
6.0
 40
6.0
 40
6.0
 10
-12.41660623010995
 20
53.57405413051936
 30
0.0
 10
-12.41693159496722
 20
53.51179129248729
 30
0.0
 10
-12.38761663643405
 20
53.38559691537657
 30
0.0
 10
-12.25254923024042
 20
53.2471741349357
 30
0.0
 10
-12.13241274237019
 20
53.19891482287917
 30
0.0
 10
-12.07015968407607
 20
53.19541863877498
 30
0.0
  0
SPLINE
  5
83
330
1F
100
AcDbEntity
  8
0
 62
    18
420
        0
370
    -3
100
AcDbSpline
210
0.0
220
0.0
230
1.0
 70
     8
 71
     3
 72
    10
 73
     6
 74
     0
 42
0.000000001
 43
0.0000000001
 40
6.0
 40
6.0
 40
6.0
 40
6.0
 40
7.0
 40
8.0
 40
8.99641152096071
 40
8.99641152096071
 40
8.99641152096071
 40
8.99641152096071
 10
-12.07015968407607
 20
53.19541863877498
 30
0.0
 10
-11.64541929851393
 20
53.17156486154525
 30
0.0
 10
-10.79379211165207
 20
53.17324094156209
 30
0.0
 10
-9.518745983559171
 20
53.1568240672691
 30
0.0
 10
-8.66904411073807
 20
53.1498199363177
 30
0.0
 10
-8.244992432824048
 20
53.14554654159247
 30
0.0
  0
SPLINE
  5
84
330
1F
100
AcDbEntity
  8
0
 62
    18
420
        0
370
    -3
100
AcDbSpline
210
0.0
220
0.0
230
1.0
 70
    28
 71
     2
 72
     8
 73
     5
 74
     0
 42
0.000000001
 43
0.0000000001
 40
4.529051116535429
 40
4.529051116535429
 40
4.529051116535429
 40
5.089380098815465
 40
5.089380098815465
 40
6.785840131753954
 40
6.785840131753954
 40
6.785840131753954
 10
-11.00007328654828
 20
53.97603257158321
 30
0.0
 41
0.870424300154677
 10
-11.00007328654829
 20
54.22028456071514
 30
0.0
 41
0.903259401325126
 10
-11.00007328654829
 20
54.49953619342571
 30
0.0
 41
1.0
 10
-11.0000732865483
 20
55.57953619342571
 30
0.0
 41
0.7071067811865476
 10
-11.00007328654829
 20
55.57953619342572
 30
0.0
 41
1.0
  0
SPLINE
  5
85
330
1F
100
AcDbEntity
  8
0
 62
    18
420
        0
370
    -3
100
AcDbSpline
210
0.0
220
0.0
230
1.0
 70
    12
 71
     2
 72
     6
 73
     3
 74
     0
 42
0.000000001
 43
0.0000000001
 40
6.785840131753954
 40
6.785840131753954
 40
6.785840131753954
 40
7.099999397112933
 40
7.099999397112933
 40
7.099999397112933
 10
-11.00007328654829
 20
55.57953619342572
 30
0.0
 41
1.0
 10
-11.00007328654828
 20
55.77953619342572
 30
0.0
 41
0.7071067811865476
 10
-11.20007328654829
 20
55.77953619342571
 30
0.0
 41
1.0
  0
SPLINE
  5
86
330
1F
100
AcDbEntity
  8
0
 62
    18
420
        0
370
    -3
100
AcDbSpline
210
0.0
220
0.0
230
1.0
 70
    28
 71
     2
 72
     6
 73
     3
 74
     0
 42
0.000000001
 43
0.0000000001
 40
7.099999397112933
 40
7.099999397112933
 40
7.099999397112933
 40
7.480499397112933
 40
7.480499397112933
 40
7.480499397112933
 10
-11.20007328654829
 20
55.77953619342571
 30
0.0
 41
1.0
 10
-11.39032328654829
 20
55.77953619342571
 30
0.0
 41
1.0
 10
-11.58057328654829
 20
55.77953619342571
 30
0.0
 41
1.0
  0
SPLINE
  5
87
330
1F
100
AcDbEntity
  8
0
 62
    18
420
        0
370
    -3
100
AcDbSpline
210
0.0
220
0.0
230
1.0
 70
    28
 71
     2
 72
     8
 73
     5
 74
     0
 42
0.000000001
 43
0.0000000001
 40
7.480499397112933
 40
7.480499397112933
 40
7.480499397112933
 40
9.05129572390783
 40
9.05129572390783
 40
9.492626411642402
 40
9.492626411642402
 40
9.492626411642402
 10
-11.58057328654829
 20
55.77953619342571
 30
0.0
 41
1.0
 10
-11.58057328654828
 20
55.77953619342572
 30
0.0
 41
0.7071067811865476
 10
-11.58057328654829
 20
54.49953619342571
 30
0.0
 41
1.0
 10
-11.58057328654829
 20
54.22243758747361
 30
0.0
 41
0.9177087675297246
 10
-11.58057328654831
 20
53.97014873183046
 30
0.0
 41
0.8816585983992596
  0
SPLINE
  5
88
330
1F
100
AcDbEntity
  8
0
 62
    18
420
        0
370
    -3
100
AcDbSpline
210
0.0
220
0.0
230
1.0
 70
    28
 71
     2
 72
     8
 73
     5
 74
     0
 42
0.000000001
 43
0.0000000001
 40
0.3141592653589793
 40
0.3141592653589793
 40
0.3141592653589793
 40
2.010619298297468
 40
2.010619298297468
 40
3.707079331235956
 40
3.707079331235956
 40
3.707079331235956
 10
-13.00007328654829
 20
55.57953619342572
 30
0.0
 41
1.0
 10
-13.00007328654828
 20
55.57953619342571
 30
0.0
 41
0.7071067811865476
 10
-13.00007328654829
 20
54.49953619342571
 30
0.0
 41
1.0
 10
-13.00007328654828
 20
53.41953619342572
 30
0.0
 41
0.7071067811865476
 10
-13.00007328654829
 20
53.4195361934257
 30
0.0
 41
1.0
  0
SPLINE
  5
89
330
1F
100
AcDbEntity
  8
0
 62
    18
420
        0
370
    -3
100
AcDbSpline
210
0.0
220
0.0
230
1.0
 70
    12
 71
     2
 72
     6
 73
     3
 74
     0
 42
0.000000001
 43
0.0000000001
 40
3.707079331235956
 40
3.707079331235956
 40
3.707079331235956
 40
4.021238596594936
 40
4.021238596594936
 40
4.021238596594936
 10
-13.00007328654829
 20
53.4195361934257
 30
0.0
 41
1.0
 10
-13.00007328654828
 20
53.21953619342571
 30
0.0
 41
0.7071067811865476
 10
-12.80007328654828
 20
53.21953619342571
 30
0.0
 41
1.0
  0
SPLINE
  5
8A
330
1F
100
AcDbEntity
  8
0
 62
    18
420
        0
370
    -3
100
AcDbSpline
210
0.0
220
0.0
230
1.0
 70
    28
 71
     2
 72
     6
 73
     3
 74
     0
 42
0.000000001
 43
0.0000000001
 40
4.021238596594936
 40
4.021238596594936
 40
4.021238596594936
 40
4.401738596594935
 40
4.401738596594935
 40
4.401738596594935
 10
-12.80007328654828
 20
53.21953619342571
 30
0.0
 41
1.0
 10
-12.60982328654828
 20
53.21953619342571
 30
0.0
 41
1.0
 10
-12.41957328654829
 20
53.21953619342571
 30
0.0
 41
1.0
  0
SPLINE
  5
8B
330
1F
100
AcDbEntity
  8
0
 62
    18
420
        0
370
    -3
100
AcDbSpline
210
0.0
220
0.0
230
1.0
 70
    28
 71
     2
 72
     8
 73
     5
 74
     0
 42
0.000000001
 43
0.0000000001
 40
4.401738596594935
 40
4.401738596594935
 40
4.401738596594935
 40
5.972534923389832
 40
5.972534923389832
 40
7.543331250184728
 40
7.543331250184728
 40
7.543331250184728
 10
-12.41957328654829
 20
53.21953619342571
 30
0.0
 41
1.0
 10
-12.41957328654828
 20
53.21953619342571
 30
0.0
 41
0.7071067811865476
 10
-12.41957328654829
 20
54.49953619342571
 30
0.0
 41
1.0
 10
-12.41957328654828
 20
55.77953619342572
 30
0.0
 41
0.7071067811865476
 10
-12.41957328654829
 20
55.77953619342571
 30
0.0
 41
1.0
  0
SPLINE
  5
8C
330
1F
100
AcDbEntity
  8
0
 62
    18
420
        0
370
    -3
100
AcDbSpline
210
0.0
220
0.0
230
1.0
 70
    28
 71
     2
 72
     6
 73
     3
 74
     0
 42
0.000000001
 43
0.0000000001
 40
7.543331250184728
 40
7.543331250184728
 40
7.543331250184728
 40
7.923831250184728
 40
7.923831250184728
 40
7.923831250184728
 10
-12.41957328654829
 20
55.77953619342571
 30
0.0
 41
1.0
 10
-12.60982328654828
 20
55.77953619342571
 30
0.0
 41
1.0
 10
-12.80007328654828
 20
55.77953619342571
 30
0.0
 41
1.0
  0
SPLINE
  5
8D
330
1F
100
AcDbEntity
  8
0
 62
    18
420
        0
370
    -3
100
AcDbSpline
210
0.0
220
0.0
230
1.0
 70
    12
 71
     2
 72
     6
 73
     3
 74
     0
 42
0.000000001
 43
0.0000000001
 40
7.923831250184728
 40
7.923831250184728
 40
7.923831250184728
 40
8.237990515543707
 40
8.237990515543707
 40
8.237990515543707
 10
-12.80007328654828
 20
55.77953619342571
 30
0.0
 41
1.0
 10
-13.00007328654828
 20
55.77953619342572
 30
0.0
 41
0.7071067811865476
 10
-13.00007328654829
 20
55.57953619342572
 30
0.0
 41
1.0
  0
LINE
  5
8E
330
1F
100
AcDbEntity
  8
0
 62
    18
420
        0
370
    -3
100
AcDbLine
 10
-12.35457328654829
 20
53.77933328315044
 30
0.0
 11
-12.35457328654829
 21
55.77953619342571
 31
0.0
  0
SPLINE
  5
8F
330
1F
100
AcDbEntity
  8
0
 62
    18
420
        0
370
    -3
100
AcDbSpline
210
0.0
220
0.0
230
1.0
 70
    28
 71
     2
 72
     6
 73
     3
 74
     0
 42
0.000000001
 43
0.0000000001
 40
-3.141592653589793
 40
-3.141592653589793
 40
-3.141592653589793
 40
-2.432592653589798
 40
-2.432592653589798
 40
-2.432592653589798
 10
-12.35457328654829
 20
55.77953619342571
 30
0.0
 41
1.0
 10
-12.00007328654829
 20
55.77953619342571
 30
0.0
 41
1.0
 10
-11.64557328654828
 20
55.77953619342571
 30
0.0
 41
1.0
  0
LINE
  5
90
330
1F
100
AcDbEntity
  8
0
 62
    18
420
        0
370
    -3
100
AcDbLine
 10
-11.64557328654828
 20
55.77953619342571
 30
0.0
 11
-11.64557328654828
 21
53.96119442880786
 31
0.0
  0
SPLINE
  5
91
330
1F
100
AcDbEntity
  8
0
 62
    18
420
        0
370
    -3
100
AcDbSpline
210
0.0
220
0.0
230
1.0
 70
     8
 71
     3
 72
    10
 73
     6
 74
     0
 42
0.000000001
 43
0.0000000001
 40
-2.99342203891766
 40
-2.99342203891766
 40
-2.99342203891766
 40
-2.99342203891766
 40
-2.0
 40
-1.0
 40
0.0
 40
0.0
 40
0.0
 40
0.0
 10
8.242371111381544
 20
53.95894202728843
 30
0.0
 10
8.665172130663848
 20
53.95910481305026
 30
0.0
 10
9.513628183514527
 20
53.96097264580894
 30
0.0
 10
10.78750405100288
 20
53.95788532039344
 30
0.0
 10
11.63906721055974
 20
53.96846170597729
 30
0.0
 10
12.06403369646279
 20
53.949048213895
 30
0.0
  0
SPLINE
  5
92
330
1F
100
AcDbEntity
  8
0
 62
    18
420
        0
370
    -3
100
AcDbSpline
210
0.0
220
0.0
230
1.0
 70
     8
 71
     3
 72
    10
 73
     6
 74
     0
 42
0.000000001
 43
0.0000000001
 40
0.0
 40
0.0
 40
0.0
 40
0.0
 40
1.0
 40
2.0
 40
3.0
 40
3.0
 40
3.0
 40
3.0
 10
12.06403369646279
 20
53.949048213895
 30
0.0
 10
12.12631989367699
 20
53.94620283046697
 30
0.0
 10
12.24695418086401
 20
53.89920170630126
 30
0.0
 10
12.3834608737302
 20
53.76219808166456
 30
0.0
 10
12.41409309483103
 20
53.63631696855145
 30
0.0
 10
12.41441845968828
 20
53.57405413051936
 30
0.0
  0
SPLINE
  5
93
330
1F
100
AcDbEntity
  8
0
 62
    18
420
        0
370
    -3
100
AcDbSpline
210
0.0
220
0.0
230
1.0
 70
     8
 71
     3
 72
    10
 73
     6
 74
     0
 42
0.000000001
 43
0.0000000001
 40
3.0
 40
3.0
 40
3.0
 40
3.0
 40
4.0
 40
5.0
 40
6.0
 40
6.0
 40
6.0
 40
6.0
 10
12.41441845968828
 20
53.57405413051936
 30
0.0
 10
12.41474382454555
 20
53.51179129248729
 30
0.0
 10
12.38542886601238
 20
53.38559691537657
 30
0.0
 10
12.25036145981875
 20
53.2471741349357
 30
0.0
 10
12.13022497194851
 20
53.19891482287917
 30
0.0
 10
12.06797191365439
 20
53.19541863877498
 30
0.0
  0
SPLINE
  5
94
330
1F
100
AcDbEntity
  8
0
 62
    18
420
        0
370
    -3
100
AcDbSpline
210
0.0
220
0.0
230
1.0
 70
     8
 71
     3
 72
    10
 73
     6
 74
     0
 42
0.000000001
 43
0.0000000001
 40
6.0
 40
6.0
 40
6.0
 40
6.0
 40
7.0
 40
8.0
 40
8.99641152096071
 40
8.99641152096071
 40
8.99641152096071
 40
8.99641152096071
 10
12.06797191365439
 20
53.19541863877498
 30
0.0
 10
11.64323152809226
 20
53.17156486154525
 30
0.0
 10
10.7916043412304
 20
53.17324094156209
 30
0.0
 10
9.5165582131375
 20
53.1568240672691
 30
0.0
 10
8.6668563403164
 20
53.1498199363177
 30
0.0
 10
8.242804662402364
 20
53.14554654159247
 30
0.0
  0
SPLINE
  5
95
330
1F
100
AcDbEntity
  8
0
 62
    18
420
        0
370
    -3
100
AcDbSpline
210
0.0
220
0.0
230
1.0
 70
    28
 71
     2
 72
     8
 73
     5
 74
     0
 42
0.000000001
 43
0.0000000001
 40
4.529051116535429
 40
4.529051116535429
 40
4.529051116535429
 40
5.089380098815465
 40
5.089380098815465
 40
6.785840131753954
 40
6.785840131753954
 40
6.785840131753954
 10
10.99788551612663
 20
53.97603257158321
 30
0.0
 41
0.870424300154677
 10
10.99788551612662
 20
54.22028456071514
 30
0.0
 41
0.903259401325126
 10
10.99788551612662
 20
54.49953619342571
 30
0.0
 41
1.0
 10
10.99788551612661
 20
55.57953619342571
 30
0.0
 41
0.7071067811865476
 10
10.99788551612662
 20
55.57953619342572
 30
0.0
 41
1.0
  0
SPLINE
  5
96
330
1F
100
AcDbEntity
  8
0
 62
    18
420
        0
370
    -3
100
AcDbSpline
210
0.0
220
0.0
230
1.0
 70
    12
 71
     2
 72
     6
 73
     3
 74
     0
 42
0.000000001
 43
0.0000000001
 40
6.785840131753954
 40
6.785840131753954
 40
6.785840131753954
 40
7.099999397112933
 40
7.099999397112933
 40
7.099999397112933
 10
10.99788551612662
 20
55.57953619342572
 30
0.0
 41
1.0
 10
10.99788551612661
 20
55.77953619342572
 30
0.0
 41
0.7071067811865476
 10
11.19788551612663
 20
55.77953619342571
 30
0.0
 41
1.0
  0
SPLINE
  5
97
330
1F
100
AcDbEntity
  8
0
 62
    18
420
        0
370
    -3
100
AcDbSpline
210
0.0
220
0.0
230
1.0
 70
    28
 71
     2
 72
     6
 73
     3
 74
     0
 42
0.000000001
 43
0.0000000001
 40
7.099999397112933
 40
7.099999397112933
 40
7.099999397112933
 40
7.480499397112933
 40
7.480499397112933
 40
7.480499397112933
 10
11.19788551612663
 20
55.77953619342571
 30
0.0
 41
1.0
 10
11.38813551612662
 20
55.77953619342571
 30
0.0
 41
1.0
 10
11.57838551612662
 20
55.77953619342571
 30
0.0
 41
1.0
  0
SPLINE
  5
98
330
1F
100
AcDbEntity
  8
0
 62
    18
420
        0
370
    -3
100
AcDbSpline
210
0.0
220
0.0
230
1.0
 70
    28
 71
     2
 72
     8
 73
     5
 74
     0
 42
0.000000001
 43
0.0000000001
 40
7.480499397112933
 40
7.480499397112933
 40
7.480499397112933
 40
9.05129572390783
 40
9.05129572390783
 40
9.492626411642402
 40
9.492626411642402
 40
9.492626411642402
 10
11.57838551612662
 20
55.77953619342571
 30
0.0
 41
1.0
 10
11.57838551612661
 20
55.77953619342572
 30
0.0
 41
0.7071067811865476
 10
11.57838551612662
 20
54.49953619342571
 30
0.0
 41
1.0
 10
11.57838551612658
 20
54.22243758747361
 30
0.0
 41
0.9177087675297246
 10
11.57838551612659
 20
53.97014873183046
 30
0.0
 41
0.8816585983992596
  0
SPLINE
  5
99
330
1F
100
AcDbEntity
  8
0
 62
    18
420
        0
370
    -3
100
AcDbSpline
210
0.0
220
0.0
230
1.0
 70
    28
 71
     2
 72
     8
 73
     5
 74
     0
 42
0.000000001
 43
0.0000000001
 40
0.3141592653589793
 40
0.3141592653589793
 40
0.3141592653589793
 40
2.010619298297468
 40
2.010619298297468
 40
3.707079331235956
 40
3.707079331235956
 40
3.707079331235956
 10
12.99788551612662
 20
55.57953619342572
 30
0.0
 41
1.0
 10
12.99788551612663
 20
55.57953619342571
 30
0.0
 41
0.7071067811865476
 10
12.99788551612662
 20
54.49953619342571
 30
0.0
 41
1.0
 10
12.99788551612663
 20
53.41953619342572
 30
0.0
 41
0.7071067811865476
 10
12.99788551612662
 20
53.4195361934257
 30
0.0
 41
1.0
  0
SPLINE
  5
9A
330
1F
100
AcDbEntity
  8
0
 62
    18
420
        0
370
    -3
100
AcDbSpline
210
0.0
220
0.0
230
1.0
 70
    12
 71
     2
 72
     6
 73
     3
 74
     0
 42
0.000000001
 43
0.0000000001
 40
3.707079331235956
 40
3.707079331235956
 40
3.707079331235956
 40
4.021238596594936
 40
4.021238596594936
 40
4.021238596594936
 10
12.99788551612662
 20
53.4195361934257
 30
0.0
 41
1.0
 10
12.99788551612663
 20
53.21953619342571
 30
0.0
 41
0.7071067811865476
 10
12.7978855161266
 20
53.21953619342571
 30
0.0
 41
1.0
  0
SPLINE
  5
9B
330
1F
100
AcDbEntity
  8
0
 62
    18
420
        0
370
    -3
100
AcDbSpline
210
0.0
220
0.0
230
1.0
 70
    28
 71
     2
 72
     6
 73
     3
 74
     0
 42
0.000000001
 43
0.0000000001
 40
4.021238596594936
 40
4.021238596594936
 40
4.021238596594936
 40
4.401738596594935
 40
4.401738596594935
 40
4.401738596594935
 10
12.7978855161266
 20
53.21953619342571
 30
0.0
 41
1.0
 10
12.60763551612661
 20
53.21953619342571
 30
0.0
 41
1.0
 10
12.41738551612661
 20
53.21953619342571
 30
0.0
 41
1.0
  0
SPLINE
  5
9C
330
1F
100
AcDbEntity
  8
0
 62
    18
420
        0
370
    -3
100
AcDbSpline
210
0.0
220
0.0
230
1.0
 70
    28
 71
     2
 72
     8
 73
     5
 74
     0
 42
0.000000001
 43
0.0000000001
 40
4.401738596594935
 40
4.401738596594935
 40
4.401738596594935
 40
5.972534923389832
 40
5.972534923389832
 40
7.543331250184728
 40
7.543331250184728
 40
7.543331250184728
 10
12.41738551612661
 20
53.21953619342571
 30
0.0
 41
1.0
 10
12.41738551612661
 20
53.21953619342571
 30
0.0
 41
0.7071067811865476
 10
12.41738551612661
 20
54.49953619342571
 30
0.0
 41
1.0
 10
12.41738551612661
 20
55.77953619342572
 30
0.0
 41
0.7071067811865476
 10
12.41738551612661
 20
55.77953619342571
 30
0.0
 41
1.0
  0
SPLINE
  5
9D
330
1F
100
AcDbEntity
  8
0
 62
    18
420
        0
370
    -3
100
AcDbSpline
210
0.0
220
0.0
230
1.0
 70
    28
 71
     2
 72
     6
 73
     3
 74
     0
 42
0.000000001
 43
0.0000000001
 40
7.543331250184728
 40
7.543331250184728
 40
7.543331250184728
 40
7.923831250184728
 40
7.923831250184728
 40
7.923831250184728
 10
12.41738551612661
 20
55.77953619342571
 30
0.0
 41
1.0
 10
12.60763551612661
 20
55.77953619342571
 30
0.0
 41
1.0
 10
12.7978855161266
 20
55.77953619342571
 30
0.0
 41
1.0
  0
SPLINE
  5
9E
330
1F
100
AcDbEntity
  8
0
 62
    18
420
        0
370
    -3
100
AcDbSpline
210
0.0
220
0.0
230
1.0
 70
    12
 71
     2
 72
     6
 73
     3
 74
     0
 42
0.000000001
 43
0.0000000001
 40
7.923831250184728
 40
7.923831250184728
 40
7.923831250184728
 40
8.237990515543707
 40
8.237990515543707
 40
8.237990515543707
 10
12.7978855161266
 20
55.77953619342571
 30
0.0
 41
1.0
 10
12.99788551612663
 20
55.77953619342572
 30
0.0
 41
0.7071067811865476
 10
12.99788551612662
 20
55.57953619342572
 30
0.0
 41
1.0
  0
LINE
  5
9F
330
1F
100
AcDbEntity
  8
0
 62
    18
420
        0
370
    -3
100
AcDbLine
 10
12.35238551612662
 20
53.77933328315044
 30
0.0
 11
12.35238551612662
 21
55.77953619342571
 31
0.0
  0
SPLINE
  5
A0
330
1F
100
AcDbEntity
  8
0
 62
    18
420
        0
370
    -3
100
AcDbSpline
210
0.0
220
0.0
230
1.0
 70
    28
 71
     2
 72
     6
 73
     3
 74
     0
 42
0.000000001
 43
0.0000000001
 40
-3.141592653589793
 40
-3.141592653589793
 40
-3.141592653589793
 40
-2.432592653589798
 40
-2.432592653589798
 40
-2.432592653589798
 10
12.35238551612662
 20
55.77953619342571
 30
0.0
 41
1.0
 10
11.99788551612662
 20
55.77953619342571
 30
0.0
 41
1.0
 10
11.64338551612661
 20
55.77953619342571
 30
0.0
 41
1.0
  0
LINE
  5
A1
330
1F
100
AcDbEntity
  8
0
 62
    18
420
        0
370
    -3
100
AcDbLine
 10
11.64338551612661
 20
55.77953619342571
 30
0.0
 11
11.64338551612661
 21
53.96119442880786
 31
0.0
  0
SPLINE
  5
A2
330
1F
100
AcDbEntity
  8
0
 62
    18
420
        0
370
    -3
100
AcDbSpline
210
0.0
220
0.0
230
1.0
 70
    28
 71
     2
 72
     8
 73
     5
 74
     0
 42
0.000000001
 43
0.0000000001
 40
0.3141592653589793
 40
0.3141592653589793
 40
0.3141592653589793
 40
2.010619298297468
 40
2.010619298297468
 40
3.707079331235956
 40
3.707079331235956
 40
3.707079331235956
 10
0.999926713451714
 20
67.57953619342572
 30
0.0
 41
1.0
 10
0.999926713451713
 20
67.57953619342571
 30
0.0
 41
0.7071067811865476
 10
0.999926713451714
 20
66.49953619342571
 30
0.0
 41
1.0
 10
0.999926713451713
 20
65.41953619342571
 30
0.0
 41
0.7071067811865476
 10
0.999926713451714
 20
65.4195361934257
 30
0.0
 41
1.0
  0
SPLINE
  5
A3
330
1F
100
AcDbEntity
  8
0
 62
    18
420
        0
370
    -3
100
AcDbSpline
210
0.0
220
0.0
230
1.0
 70
    12
 71
     2
 72
     6
 73
     3
 74
     0
 42
0.000000001
 43
0.0000000001
 40
3.707079331235956
 40
3.707079331235956
 40
3.707079331235956
 40
4.021238596594936
 40
4.021238596594936
 40
4.021238596594936
 10
0.999926713451714
 20
65.4195361934257
 30
0.0
 41
1.0
 10
0.999926713451713
 20
65.21953619342571
 30
0.0
 41
0.7071067811865476
 10
0.7999267134517112
 20
65.21953619342571
 30
0.0
 41
1.0
  0
SPLINE
  5
A4
330
1F
100
AcDbEntity
  8
0
 62
    18
420
        0
370
    -3
100
AcDbSpline
210
0.0
220
0.0
230
1.0
 70
    28
 71
     2
 72
     6
 73
     3
 74
     0
 42
0.000000001
 43
0.0000000001
 40
4.021238596594936
 40
4.021238596594936
 40
4.021238596594936
 40
4.401738596594935
 40
4.401738596594935
 40
4.401738596594935
 10
0.7999267134517112
 20
65.21953619342571
 30
0.0
 41
1.0
 10
0.6096767134517123
 20
65.21953619342571
 30
0.0
 41
1.0
 10
0.4194267134517133
 20
65.21953619342571
 30
0.0
 41
1.0
  0
SPLINE
  5
A5
330
1F
100
AcDbEntity
  8
0
 62
    18
420
        0
370
    -3
100
AcDbSpline
210
0.0
220
0.0
230
1.0
 70
    28
 71
     2
 72
     8
 73
     5
 74
     0
 42
0.000000001
 43
0.0000000001
 40
4.401738596594935
 40
4.401738596594935
 40
4.401738596594935
 40
5.972534923389832
 40
5.972534923389832
 40
7.543331250184728
 40
7.543331250184728
 40
7.543331250184728
 10
0.4194267134517133
 20
65.21953619342571
 30
0.0
 41
1.0
 10
0.4194267134517173
 20
65.21953619342571
 30
0.0
 41
0.7071067811865476
 10
0.4194267134517133
 20
66.49953619342571
 30
0.0
 41
1.0
 10
0.4194267134517173
 20
67.77953619342571
 30
0.0
 41
0.7071067811865476
 10
0.4194267134517133
 20
67.77953619342571
 30
0.0
 41
1.0
  0
SPLINE
  5
A6
330
1F
100
AcDbEntity
  8
0
 62
    18
420
        0
370
    -3
100
AcDbSpline
210
0.0
220
0.0
230
1.0
 70
    28
 71
     2
 72
     6
 73
     3
 74
     0
 42
0.000000001
 43
0.0000000001
 40
7.543331250184728
 40
7.543331250184728
 40
7.543331250184728
 40
7.923831250184728
 40
7.923831250184728
 40
7.923831250184728
 10
0.4194267134517133
 20
67.77953619342571
 30
0.0
 41
1.0
 10
0.6096767134517123
 20
67.77953619342571
 30
0.0
 41
1.0
 10
0.7999267134517112
 20
67.77953619342571
 30
0.0
 41
1.0
  0
SPLINE
  5
A7
330
1F
100
AcDbEntity
  8
0
 62
    18
420
        0
370
    -3
100
AcDbSpline
210
0.0
220
0.0
230
1.0
 70
    12
 71
     2
 72
     6
 73
     3
 74
     0
 42
0.000000001
 43
0.0000000001
 40
7.923831250184728
 40
7.923831250184728
 40
7.923831250184728
 40
8.237990515543707
 40
8.237990515543707
 40
8.237990515543707
 10
0.7999267134517112
 20
67.77953619342571
 30
0.0
 41
1.0
 10
0.999926713451713
 20
67.77953619342571
 30
0.0
 41
0.7071067811865476
 10
0.999926713451714
 20
67.57953619342572
 30
0.0
 41
1.0
  0
SPLINE
  5
A8
330
1F
100
AcDbEntity
  8
0
 62
    18
420
        0
370
    -3
100
AcDbSpline
210
0.0
220
0.0
230
1.0
 70
    28
 71
     2
 72
     8
 73
     5
 74
     0
 42
0.000000001
 43
0.0000000001
 40
0.3141592653589793
 40
0.3141592653589793
 40
0.3141592653589793
 40
2.010619298297468
 40
2.010619298297468
 40
3.707079331235956
 40
3.707079331235956
 40
3.707079331235956
 10
-1.000037412361237
 20
67.57953619342572
 30
0.0
 41
1.0
 10
-1.000037412361231
 20
67.57953619342571
 30
0.0
 41
0.7071067811865476
 10
-1.000037412361237
 20
66.49953619342571
 30
0.0
 41
1.0
 10
-1.000037412361231
 20
65.41953619342571
 30
0.0
 41
0.7071067811865476
 10
-1.000037412361237
 20
65.4195361934257
 30
0.0
 41
1.0
  0
SPLINE
  5
A9
330
1F
100
AcDbEntity
  8
0
 62
    18
420
        0
370
    -3
100
AcDbSpline
210
0.0
220
0.0
230
1.0
 70
    12
 71
     2
 72
     6
 73
     3
 74
     0
 42
0.000000001
 43
0.0000000001
 40
3.707079331235956
 40
3.707079331235956
 40
3.707079331235956
 40
4.021238596594936
 40
4.021238596594936
 40
4.021238596594936
 10
-1.000037412361237
 20
65.4195361934257
 30
0.0
 41
1.0
 10
-1.000037412361231
 20
65.21953619342571
 30
0.0
 41
0.7071067811865476
 10
-0.8000374123612346
 20
65.21953619342571
 30
0.0
 41
1.0
  0
SPLINE
  5
AA
330
1F
100
AcDbEntity
  8
0
 62
    18
420
        0
370
    -3
100
AcDbSpline
210
0.0
220
0.0
230
1.0
 70
    28
 71
     2
 72
     6
 73
     3
 74
     0
 42
0.000000001
 43
0.0000000001
 40
4.021238596594936
 40
4.021238596594936
 40
4.021238596594936
 40
4.401738596594935
 40
4.401738596594935
 40
4.401738596594935
 10
-0.8000374123612346
 20
65.21953619342571
 30
0.0
 41
1.0
 10
-0.6097874123612357
 20
65.21953619342571
 30
0.0
 41
1.0
 10
-0.4195374123612368
 20
65.21953619342571
 30
0.0
 41
1.0
  0
SPLINE
  5
AB
330
1F
100
AcDbEntity
  8
0
 62
    18
420
        0
370
    -3
100
AcDbSpline
210
0.0
220
0.0
230
1.0
 70
    28
 71
     2
 72
     8
 73
     5
 74
     0
 42
0.000000001
 43
0.0000000001
 40
4.401738596594935
 40
4.401738596594935
 40
4.401738596594935
 40
5.972534923389832
 40
5.972534923389832
 40
7.543331250184728
 40
7.543331250184728
 40
7.543331250184728
 10
-0.4195374123612368
 20
65.21953619342571
 30
0.0
 41
1.0
 10
-0.4195374123612358
 20
65.21953619342571
 30
0.0
 41
0.7071067811865476
 10
-0.4195374123612368
 20
66.49953619342571
 30
0.0
 41
1.0
 10
-0.4195374123612358
 20
67.77953619342571
 30
0.0
 41
0.7071067811865476
 10
-0.4195374123612368
 20
67.77953619342571
 30
0.0
 41
1.0
  0
SPLINE
  5
AC
330
1F
100
AcDbEntity
  8
0
 62
    18
420
        0
370
    -3
100
AcDbSpline
210
0.0
220
0.0
230
1.0
 70
    28
 71
     2
 72
     6
 73
     3
 74
     0
 42
0.000000001
 43
0.0000000001
 40
7.543331250184728
 40
7.543331250184728
 40
7.543331250184728
 40
7.923831250184728
 40
7.923831250184728
 40
7.923831250184728
 10
-0.4195374123612368
 20
67.77953619342571
 30
0.0
 41
1.0
 10
-0.6097874123612357
 20
67.77953619342571
 30
0.0
 41
1.0
 10
-0.8000374123612346
 20
67.77953619342571
 30
0.0
 41
1.0
  0
SPLINE
  5
AD
330
1F
100
AcDbEntity
  8
0
 62
    18
420
        0
370
    -3
100
AcDbSpline
210
0.0
220
0.0
230
1.0
 70
    12
 71
     2
 72
     6
 73
     3
 74
     0
 42
0.000000001
 43
0.0000000001
 40
7.923831250184728
 40
7.923831250184728
 40
7.923831250184728
 40
8.237990515543707
 40
8.237990515543707
 40
8.237990515543707
 10
-0.8000374123612346
 20
67.77953619342571
 30
0.0
 41
1.0
 10
-1.000037412361231
 20
67.77953619342571
 30
0.0
 41
0.7071067811865476
 10
-1.000037412361237
 20
67.57953619342572
 30
0.0
 41
1.0
  0
LINE
  5
AE
330
1F
100
AcDbEntity
  8
0
 62
    18
420
        0
370
    -3
100
AcDbLine
 10
0.3544267134517156
 20
65.77933328315044
 30
0.0
 11
0.3544267134517156
 21
67.77953619342571
 31
0.0
  0
LINE
  5
AF
330
1F
100
AcDbEntity
  8
0
 62
    18
420
        0
370
    -3
100
AcDbLine
 10
0.3544267134517156
 20
67.77953619342571
 30
0.0
 11
-0.3545553494547562
 21
67.77953619342571
 31
0.0
  0
LINE
  5
B0
330
1F
100
AcDbEntity
  8
0
 62
    18
420
        0
370
    -3
100
AcDbLine
 10
-0.3545553494547562
 20
67.77953619342571
 30
0.0
 11
-0.354537412361239
 21
65.77933328315044
 31
0.0
  0
SPLINE
  5
B1
330
1F
100
AcDbEntity
  8
0
 62
    18
420
        0
370
    -3
100
AcDbSpline
210
0.0
220
0.0
230
1.0
 70
     8
 71
     3
 72
     8
 73
     4
 74
     0
 42
0.000000001
 43
0.0000000001
 40
-0.7275170618268776
 40
-0.7275170618268776
 40
-0.7275170618268776
 40
-0.7275170618268776
 40
0.0
 40
0.0
 40
0.0
 40
0.0
 10
-0.3889263343978655
 20
64.71173585633215
 30
0.0
 10
-0.3902225919387092
 20
65.02141222160091
 30
0.0
 10
-0.3891730795499058
 20
65.33101400456277
 30
0.0
 10
-0.375049432830366
 20
65.64018437376185
 30
0.0
  0
SPLINE
  5
B2
330
1F
100
AcDbEntity
  8
0
 62
    18
420
        0
370
    -3
100
AcDbSpline
210
0.0
220
0.0
230
1.0
 70
     8
 71
     3
 72
    10
 73
     6
 74
     0
 42
0.000000001
 43
0.0000000001
 40
0.0
 40
0.0
 40
0.0
 40
0.0
 40
1.0
 40
2.0
 40
3.0
 40
3.0
 40
3.0
 40
3.0
 10
-0.375049432830366
 20
65.64018437376185
 30
0.0
 10
-0.3722040494023418
 20
65.70247057097609
 30
0.0
 10
-0.3252029252366242
 20
65.8231048581631
 30
0.0
 10
-0.1881993005999334
 20
65.95961155102927
 30
0.0
 10
-0.0623181874868521
 20
65.99024377213013
 30
0.0
 10
-0.0000553494547546
 20
65.99056913698738
 30
0.0
  0
SPLINE
  5
B3
330
1F
100
AcDbEntity
  8
0
 62
    18
420
        0
370
    -3
100
AcDbSpline
210
0.0
220
0.0
230
1.0
 70
     8
 71
     3
 72
    10
 73
     6
 74
     0
 42
0.000000001
 43
0.0000000001
 40
3.0
 40
3.0
 40
3.0
 40
3.0
 40
4.0
 40
5.0
 40
6.0
 40
6.0
 40
6.0
 40
6.0
 10
-0.0000553494547546
 20
65.99056913698738
 30
0.0
 10
0.0622074885773429
 20
65.99089450184465
 30
0.0
 10
0.1884018656880642
 20
65.96157954331147
 30
0.0
 10
0.3268246461288982
 20
65.82651213711785
 30
0.0
 10
0.3750839581854279
 20
65.7063756492476
 30
0.0
 10
0.3785801422896498
 20
65.64412259095349
 30
0.0
  0
SPLINE
  5
B4
330
1F
100
AcDbEntity
  8
0
 62
    18
420
        0
370
    -3
100
AcDbSpline
210
0.0
220
0.0
230
1.0
 70
     8
 71
     3
 72
     8
 73
     4
 74
     0
 42
0.000000001
 43
0.0000000001
 40
6.0
 40
6.0
 40
6.0
 40
6.0
 40
6.730821174663316
 40
6.730821174663316
 40
6.730821174663316
 40
6.730821174663316
 10
0.3785801422896498
 20
65.64412259095349
 30
0.0
 10
0.3960129877848431
 20
65.33371332345001
 30
0.0
 10
0.4002579438331537
 20
65.02273085606456
 30
0.0
 10
0.4021858382271262
 20
64.71165054166565
 30
0.0
  0
SPLINE
  5
B5
330
1F
100
AcDbEntity
  8
0
 62
    18
420
        0
370
    -3
100
AcDbSpline
210
0.0
220
0.0
230
1.0
 70
    28
 71
     2
 72
     8
 73
     5
 74
     0
 42
0.000000001
 43
0.0000000001
 40
-3.789987596484494
 40
-3.789987596484494
 40
-3.789987596484494
 40
-3.141592653589793
 40
-3.141592653589793
 40
-1.570796326794897
 40
-1.570796326794897
 40
-1.570796326794897
 10
-0.4195732865482895
 20
43.26511602940926
 30
0.0
 41
0.8580095540281661
 10
-0.4195732865483054
 20
42.92452433582294
 30
0.0
 41
0.8790992322510118
 10
-0.4195732865482853
 20
42.49953619342571
 30
0.0
 41
1.0
 10
-0.4195732865482872
 20
41.2195361934257
 30
0.0
 41
0.7071067811865476
 10
-0.4195732865482853
 20
41.21953619342571
 30
0.0
 41
1.0
  0
SPLINE
  5
B6
330
1F
100
AcDbEntity
  8
0
 62
    18
420
        0
370
    -3
100
AcDbSpline
210
0.0
220
0.0
230
1.0
 70
    28
 71
     2
 72
     6
 73
     3
 74
     0
 42
0.000000001
 43
0.0000000001
 40
-1.570796326794897
 40
-1.570796326794897
 40
-1.570796326794897
 40
-1.190296326794896
 40
-1.190296326794896
 40
-1.190296326794896
 10
-0.4195732865482853
 20
41.21953619342571
 30
0.0
 41
1.0
 10
-0.6098232865482842
 20
41.21953619342571
 30
0.0
 41
1.0
 10
-0.8000732865482831
 20
41.21953619342571
 30
0.0
 41
1.0
  0
SPLINE
  5
B7
330
1F
100
AcDbEntity
  8
0
 62
    18
420
        0
370
    -3
100
AcDbSpline
210
0.0
220
0.0
230
1.0
 70
    12
 71
     2
 72
     6
 73
     3
 74
     0
 42
0.000000001
 43
0.0000000001
 40
-1.190296326794896
 40
-1.190296326794896
 40
-1.190296326794896
 40
-0.8761370614359172
 40
-0.8761370614359172
 40
-0.8761370614359172
 10
-0.8000732865482831
 20
41.21953619342571
 30
0.0
 41
1.0
 10
-1.000073286548283
 20
41.2195361934257
 30
0.0
 41
0.7071067811865476
 10
-1.000073286548286
 20
41.4195361934257
 30
0.0
 41
1.0
  0
SPLINE
  5
B8
330
1F
100
AcDbEntity
  8
0
 62
    18
420
        0
370
    -3
100
AcDbSpline
210
0.0
220
0.0
230
1.0
 70
    28
 71
     2
 72
     8
 73
     5
 74
     0
 42
0.000000001
 43
0.0000000001
 40
-0.8761370614359172
 40
-0.8761370614359172
 40
-0.8761370614359172
 40
0.8203229715025713
 40
0.8203229715025713
 40
1.671792319596326
 40
1.671792319596326
 40
1.671792319596326
 10
-1.000073286548286
 20
41.4195361934257
 30
0.0
 41
1.0
 10
-1.000073286548283
 20
41.41953619342571
 30
0.0
 41
0.7071067811865476
 10
-1.000073286548286
 20
42.49953619342571
 30
0.0
 41
1.0
 10
-1.000073286548289
 20
42.94888966948911
 30
0.0
 41
0.8529941211451963
 10
-1.000073286548279
 20
43.26562373326072
 30
0.0
 41
0.8535555264045215
  0
SPLINE
  5
B9
330
1F
100
AcDbEntity
  8
0
 62
    18
420
        0
370
    -3
100
AcDbSpline
210
0.0
220
0.0
230
1.0
 70
    28
 71
     2
 72
     8
 73
     5
 74
     0
 42
0.000000001
 43
0.0000000001
 40
-3.789987596484494
 40
-3.789987596484494
 40
-3.789987596484494
 40
-3.141592653589793
 40
-3.141592653589793
 40
-1.570796326794897
 40
-1.570796326794897
 40
-1.570796326794897
 10
0.419544662114447
 20
43.26511602940926
 30
0.0
 41
0.8580095540281661
 10
0.4195446621144379
 20
42.92452433582294
 30
0.0
 41
0.8790992322510118
 10
0.419544662114447
 20
42.49953619342571
 30
0.0
 41
1.0
 10
0.4195446621144547
 20
41.2195361934257
 30
0.0
 41
0.7071067811865476
 10
0.419544662114447
 20
41.21953619342571
 30
0.0
 41
1.0
  0
SPLINE
  5
BA
330
1F
100
AcDbEntity
  8
0
 62
    18
420
        0
370
    -3
100
AcDbSpline
210
0.0
220
0.0
230
1.0
 70
    28
 71
     2
 72
     6
 73
     3
 74
     0
 42
0.000000001
 43
0.0000000001
 40
-1.570796326794897
 40
-1.570796326794897
 40
-1.570796326794897
 40
-1.190296326794896
 40
-1.190296326794896
 40
-1.190296326794896
 10
0.419544662114447
 20
41.21953619342571
 30
0.0
 41
1.0
 10
0.6097946621144459
 20
41.21953619342571
 30
0.0
 41
1.0
 10
0.8000446621144448
 20
41.21953619342571
 30
0.0
 41
1.0
  0
SPLINE
  5
BB
330
1F
100
AcDbEntity
  8
0
 62
    18
420
        0
370
    -3
100
AcDbSpline
210
0.0
220
0.0
230
1.0
 70
    12
 71
     2
 72
     6
 73
     3
 74
     0
 42
0.000000001
 43
0.0000000001
 40
-1.190296326794896
 40
-1.190296326794896
 40
-1.190296326794896
 40
-0.8761370614359172
 40
-0.8761370614359172
 40
-0.8761370614359172
 10
0.8000446621144448
 20
41.21953619342571
 30
0.0
 41
1.0
 10
1.00004466211445
 20
41.2195361934257
 30
0.0
 41
0.7071067811865476
 10
1.000044662114448
 20
41.4195361934257
 30
0.0
 41
1.0
  0
SPLINE
  5
BC
330
1F
100
AcDbEntity
  8
0
 62
    18
420
        0
370
    -3
100
AcDbSpline
210
0.0
220
0.0
230
1.0
 70
    28
 71
     2
 72
     8
 73
     5
 74
     0
 42
0.000000001
 43
0.0000000001
 40
-0.8761370614359172
 40
-0.8761370614359172
 40
-0.8761370614359172
 40
0.8203229715025713
 40
0.8203229715025713
 40
1.671792319596326
 40
1.671792319596326
 40
1.671792319596326
 10
1.000044662114448
 20
41.4195361934257
 30
0.0
 41
1.0
 10
1.00004466211445
 20
41.41953619342571
 30
0.0
 41
0.7071067811865476
 10
1.000044662114448
 20
42.49953619342571
 30
0.0
 41
1.0
 10
1.000044662114443
 20
42.94888966948911
 30
0.0
 41
0.8529941211451963
 10
1.000044662114453
 20
43.26562373326072
 30
0.0
 41
0.8535555264045215
  0
SPLINE
  5
BD
330
1F
100
AcDbEntity
  8
0
 62
    18
420
        0
370
    -3
100
AcDbSpline
210
0.0
220
0.0
230
1.0
 70
     8
 71
     3
 72
     9
 73
     5
 74
     0
 42
0.000000001
 43
0.0000000001
 40
-1.3767624982174
 40
-1.3767624982174
 40
-1.3767624982174
 40
-1.3767624982174
 40
-1.0
 40
0.0
 40
0.0
 40
0.0
 40
0.0
 10
0.3966275525897629
 20
43.26335149708387
 30
0.0
 10
0.3959162555021578
 20
43.10300038580993
 30
0.0
 10
0.3941453975030527
 20
42.51701305138693
 30
0.0
 10
0.3983626388708785
 20
41.93078289821412
 30
0.0
 10
0.3767287088357136
 20
41.50592366165824
 30
0.0
  0
SPLINE
  5
BE
330
1F
100
AcDbEntity
  8
0
 62
    18
420
        0
370
    -3
100
AcDbSpline
210
0.0
220
0.0
230
1.0
 70
     8
 71
     3
 72
    10
 73
     6
 74
     0
 42
0.000000001
 43
0.0000000001
 40
0.0
 40
0.0
 40
0.0
 40
0.0
 40
1.0
 40
2.0
 40
3.0
 40
3.0
 40
3.0
 40
3.0
 10
0.3767287088357136
 20
41.50592366165824
 30
0.0
 10
0.3735578817766907
 20
41.44365318369296
 30
0.0
 10
0.325927013336667
 20
41.32326615245782
 30
0.0
 10
0.1882119305025753
 20
41.18747724893163
 30
0.0
 10
0.0621724645085351
 20
41.15750324986402
 30
0.0
 10
-0.000091223641931
 20
41.15750324986402
 30
0.0
  0
SPLINE
  5
BF
330
1F
100
AcDbEntity
  8
0
 62
    18
420
        0
370
    -3
100
AcDbSpline
210
0.0
220
0.0
230
1.0
 70
     8
 71
     3
 72
    10
 73
     6
 74
     0
 42
0.000000001
 43
0.0000000001
 40
3.0
 40
3.0
 40
3.0
 40
3.0
 40
4.0
 40
5.0
 40
6.0
 40
6.0
 40
6.0
 40
6.0
 10
-0.000091223641931
 20
41.15750324986402
 30
0.0
 10
-0.0623549117924256
 20
41.15750324986399
 30
0.0
 10
-0.1883943777864658
 20
41.18747724893151
 30
0.0
 10
-0.3261094606206711
 20
41.32326615245762
 30
0.0
 10
-0.3737403290607517
 20
41.44365318369273
 30
0.0
 10
-0.3769111561198315
 20
41.50592366165802
 30
0.0
  0
SPLINE
  5
C0
330
1F
100
AcDbEntity
  8
0
 62
    18
420
        0
370
    -3
100
AcDbSpline
210
0.0
220
0.0
230
1.0
 70
     8
 71
     3
 72
     9
 73
     5
 74
     0
 42
0.000000001
 43
0.0000000001
 40
6.0
 40
6.0
 40
6.0
 40
6.0
 40
7.0
 40
7.37676255632223
 40
7.37676255632223
 40
7.37676255632223
 40
7.37676255632223
 10
-0.3769111561198315
 20
41.50592366165802
 30
0.0
 10
-0.3985450861552522
 20
41.93078289821386
 30
0.0
 10
-0.3943278446098333
 20
42.51701307612791
 30
0.0
 10
-0.3960987029367686
 20
43.10300043527167
 30
0.0
 10
-0.3968100002040842
 20
43.26335157127235
 30
0.0
  0
SPLINE
  5
C1
330
1F
100
AcDbEntity
  8
0
370
    -3
100
AcDbSpline
210
0.0
220
0.0
230
1.0
 70
     8
 71
     2
 72
    11
 73
     8
 74
     0
 42
0.000000001
 43
0.0000000001
 40
0.0
 40
0.0
 40
0.0
 40
1.0
 40
2.0
 40
3.0
 40
4.0
 40
5.0
 40
6.0
 40
6.0
 40
6.0
 10
-0.0000049645915396
 20
17.37351704547785
 30
0.0
 10
-0.6863545178568131
 20
17.3731560524493
 30
0.0
 10
-2.059037468778257
 20
17.37237860165442
 30
0.0
 10
-3.43179203950541
 20
17.38459578633288
 30
0.0
 10
-4.80333474301807
 20
17.4332884309304
 30
0.0
 10
-6.173831068718357
 20
17.55623769072358
 30
0.0
 10
-7.507003958431028
 20
17.82799391987953
 30
0.0
 10
-8.190512541964978
 20
18.07756785742012
 30
0.0
  0
SPLINE
  5
C2
330
1F
100
AcDbEntity
  8
0
370
    -3
100
AcDbSpline
210
0.0
220
0.0
230
1.0
 70
    12
 71
     3
 72
     8
 73
     4
 74
     0
 42
0.000000001
 43
0.0000000001
 40
6.0
 40
6.0
 40
6.0
 40
6.0
 40
6.1095531143
 40
6.1095531143
 40
6.1095531143
 40
6.1095531143
 10
-8.190512541964939
 20
18.07756785742012
 30
0.0
 41
1.173246788037126
 10
-8.228714162092789
 20
18.08803884234505
 30
0.0
 41
0.9727685695181932
 10
-8.252359721136648
 20
18.12051475193427
 30
0.0
 41
0.9462828239155063
 10
-8.249107693020724
 20
18.16109598280118
 30
0.0
 41
1.093789551229066
  0
LINE
  5
C3
330
1F
100
AcDbEntity
  8
0
370
    -3
100
AcDbLine
 10
-8.249107693020761
 20
18.16109598280119
 30
0.0
 11
-8.229844317437852
 21
18.23544302500967
 31
0.0
  0
SPLINE
  5
C4
330
1F
100
AcDbEntity
  8
0
370
    -3
100
AcDbSpline
210
0.0
220
0.0
230
1.0
 70
     8
 71
     2
 72
     9
 73
     6
 74
     0
 42
0.000000001
 43
0.0000000001
 40
6.186355199714383
 40
6.186355199714383
 40
6.186355199714383
 40
7.186355199714383
 40
8.186355199714383
 40
9.186355199714383
 40
10.18635519971438
 40
10.18635519971438
 40
10.18635519971438
 10
-8.229844317437852
 20
18.23544302500967
 30
0.0
 10
-8.224144592303361
 20
18.25435932789148
 30
0.0
 10
-8.196683870307737
 20
18.28276789961052
 30
0.0
 10
-8.159361776378006
 20
18.29551474732902
 30
0.0
 10
-8.120486856603776
 20
18.29078305652534
 30
0.0
 10
-8.101941476540077
 20
18.28510687668575
 30
0.0
  0
SPLINE
  5
C5
330
1F
100
AcDbEntity
  8
0
370
    -3
100
AcDbSpline
210
0.0
220
0.0
230
1.0
 70
     8
 71
     2
 72
    11
 73
     8
 74
     0
 42
0.000000001
 43
0.0000000001
 40
10.18635519971438
 40
10.18635519971438
 40
10.18635519971438
 40
11.18635519971438
 40
12.18635519971438
 40
13.18635519971438
 40
14.18635519971438
 40
15.18635519971438
 40
16.18635519971438
 40
16.18635519971438
 40
16.18635519971438
 10
-8.101941476540077
 20
18.28510687668575
 30
0.0
 10
-7.437418712489489
 20
18.09808735814494
 30
0.0
 10
-6.102064752230149
 20
17.87278990824373
 30
0.0
 10
-4.748708145655598
 20
17.75939639329962
 30
0.0
 10
-3.392363500200986
 20
17.71713133066729
 30
0.0
 10
-2.035418429715406
 20
17.70688875900709
 30
0.0
 10
-0.6784769395452486
 20
17.70715857977402
 30
0.0
 10
-0.0000049645915396
 20
17.70761043372494
 30
0.0
  0
SPLINE
  5
C6
330
1F
100
AcDbEntity
  8
0
370
    -3
100
AcDbSpline
210
0.0
220
0.0
230
1.0
 70
     8
 71
     2
 72
    11
 73
     8
 74
     0
 42
0.000000001
 43
0.0000000001
 40
16.18635519971438
 40
16.18635519971438
 40
16.18635519971438
 40
17.18635519971438
 40
18.18635519971438
 40
19.18635519971438
 40
20.18635519971438
 40
21.18635519971438
 40
22.18635519971438
 40
22.18635519971438
 40
22.18635519971438
 10
-0.0000049645915396
 20
17.70761043372494
 30
0.0
 10
0.6784670103621693
 20
17.70715857977402
 30
0.0
 10
2.035408500532327
 20
17.70688875900709
 30
0.0
 10
3.392353571017907
 20
17.71713133066729
 30
0.0
 10
4.748698216472519
 20
17.75939639329962
 30
0.0
 10
6.102054823047069
 20
17.87278990824373
 30
0.0
 10
7.43740878330641
 20
18.09808735814494
 30
0.0
 10
8.101931547356969
 20
18.28510687668575
 30
0.0
  0
SPLINE
  5
C7
330
1F
100
AcDbEntity
  8
0
370
    -3
100
AcDbSpline
210
0.0
220
0.0
230
1.0
 70
     8
 71
     2
 72
     9
 73
     6
 74
     0
 42
0.000000001
 43
0.0000000001
 40
22.18635519971438
 40
22.18635519971438
 40
22.18635519971438
 40
23.18635519971438
 40
24.18635519971438
 40
25.18635519971438
 40
26.18635519971438
 40
26.18635519971438
 40
26.18635519971438
 10
8.101931547356969
 20
18.28510687668575
 30
0.0
 10
8.120476927420668
 20
18.29078305652534
 30
0.0
 10
8.159351847194898
 20
18.29551474732902
 30
0.0
 10
8.19667394112463
 20
18.28276789961052
 30
0.0
 10
8.224134663120282
 20
18.25435932789148
 30
0.0
 10
8.229834388254744
 20
18.23544302500967
 30
0.0
  0
LINE
  5
C8
330
1F
100
AcDbEntity
  8
0
370
    -3
100
AcDbLine
 10
8.229834388254744
 20
18.23544302500967
 30
0.0
 11
8.249097763837653
 21
18.16109598280119
 31
0.0
  0
SPLINE
  5
C9
330
1F
100
AcDbEntity
  8
0
370
    -3
100
AcDbSpline
210
0.0
220
0.0
230
1.0
 70
    12
 71
     3
 72
     8
 73
     4
 74
     0
 42
0.000000001
 43
0.0000000001
 40
26.26315728512877
 40
26.26315728512877
 40
26.26315728512877
 40
26.26315728512877
 40
26.37271039942877
 40
26.37271039942877
 40
26.37271039942877
 40
26.37271039942877
 10
8.249097763837646
 20
18.16109598280118
 30
0.0
 41
1.093789551229066
 10
8.252349791953515
 20
18.12051475193427
 30
0.0
 41
0.9462828239155063
 10
8.22870423290966
 20
18.08803884234505
 30
0.0
 41
0.9727685695181932
 10
8.190502612781868
 20
18.07756785742012
 30
0.0
 41
1.173246788037126
  0
SPLINE
  5
CA
330
1F
100
AcDbEntity
  8
0
370
    -3
100
AcDbSpline
210
0.0
220
0.0
230
1.0
 70
     8
 71
     2
 72
    11
 73
     8
 74
     0
 42
0.000000001
 43
0.0000000001
 40
26.37271039942877
 40
26.37271039942877
 40
26.37271039942877
 40
27.37271039942877
 40
28.37271039942877
 40
29.37271039942877
 40
30.37271039942877
 40
31.37271039942877
 40
32.37271039942877
 40
32.37271039942877
 40
32.37271039942877
 10
8.19050261278187
 20
18.07756785742012
 30
0.0
 10
7.506994029247949
 20
17.82799391987953
 30
0.0
 10
6.173821139535278
 20
17.55623769072358
 30
0.0
 10
4.80332481383499
 20
17.4332884309304
 30
0.0
 10
3.431782110322331
 20
17.38459578633288
 30
0.0
 10
2.059027539595178
 20
17.37237860165442
 30
0.0
 10
0.6863445886737338
 20
17.3731560524493
 30
0.0
 10
-0.0000049645915396
 20
17.37351704547785
 30
0.0
  0
SPLINE
  5
CB
330
1F
100
AcDbEntity
  8
0
370
    -3
100
AcDbSpline
210
0.0
220
0.0
230
1.0
 70
     8
 71
     2
 72
     7
 73
     4
 74
     0
 42
0.000000001
 43
0.0000000001
 40
0.0
 40
0.0
 40
0.0
 40
1.0
 40
2.0
 40
2.0
 40
2.0
 10
-8.234543918150251
 20
18.21869034520697
 30
0.0
 10
-8.233376991235929
 20
21.40919006865613
 30
0.0
 10
-8.2406838476671
 20
27.79018585227101
 30
0.0
 10
-8.239766054387275
 20
30.98068576893525
 30
0.0
  0
SPLINE
  5
CC
330
1F
100
AcDbEntity
  8
0
370
    -3
100
AcDbSpline
210
0.0
220
0.0
230
1.0
 70
     8
 71
     2
 72
    11
 73
     8
 74
     0
 42
0.000000001
 43
0.0000000001
 40
2.0
 40
2.0
 40
2.0
 40
3.000000039736431
 40
4.000000079472863
 40
5.000000119209294
 40
6.000000158945726
 40
7.000000198682157
 40
8.0
 40
8.0
 40
8.0
 10
-8.239766054387275
 20
30.98068576893525
 30
0.0
 10
-8.24322745881355
 20
31.11124605800191
 30
0.0
 10
-8.16238244649
 20
31.35962124090767
 30
0.0
 10
-7.981307603570855
 20
31.55091546350326
 30
0.0
 10
-7.739982343337203
 20
31.65027154122464
 30
0.0
 10
-7.484688203475002
 20
31.69413361175594
 30
0.0
 10
-7.22645547916747
 20
31.70959223569602
 30
0.0
 10
-7.097145283534928
 20
31.70887882312235
 30
0.0
  0
SPLINE
  5
CD
330
1F
100
AcDbEntity
  8
0
370
    -3
100
AcDbSpline
210
0.0
220
0.0
230
1.0
 70
     8
 71
     2
 72
    11
 73
     8
 74
     0
 42
0.000000001
 43
0.0000000001
 40
8.0
 40
8.0
 40
8.0
 40
9.0
 40
10.0
 40
11.0
 40
12.0
 40
13.0
 40
14.0
 40
14.0
 40
14.0
 10
-7.097145283534928
 20
31.70887882312235
 30
0.0
 10
-6.505717402393628
 20
31.70668072236731
 30
0.0
 10
-5.322868412288017
 20
31.7007122765433
 30
0.0
 10
-4.140016714583282
 20
31.69533542531966
 30
0.0
 10
-2.957160223923381
 20
31.69110646505894
 30
0.0
 10
-1.774299881511553
 20
31.68815319433395
 30
0.0
 10
-0.591436834454214
 20
31.6865992706723
 30
0.0
 10
-0.0000047961654559
 20
31.68658842973969
 30
0.0
  0
SPLINE
  5
CE
330
1F
100
AcDbEntity
  8
0
370
    -3
100
AcDbSpline
210
0.0
220
0.0
230
1.0
 70
     8
 71
     2
 72
    11
 73
     8
 74
     0
 42
0.000000001
 43
0.0000000001
 40
14.0
 40
14.0
 40
14.0
 40
15.0
 40
16.0
 40
17.0
 40
18.0
 40
19.0
 40
20.0
 40
20.0
 40
20.0
 10
-0.0000047961654559
 20
31.68658842973969
 30
0.0
 10
0.5914272421233022
 20
31.6865992706723
 30
0.0
 10
1.774290289180641
 20
31.68815319433395
 30
0.0
 10
2.957150631592469
 20
31.69110646505894
 30
0.0
 10
4.140007122252371
 20
31.69533542531966
 30
0.0
 10
5.322858819957105
 20
31.7007122765433
 30
0.0
 10
6.505707810062717
 20
31.70668072236731
 30
0.0
 10
7.097135691204016
 20
31.70887882312235
 30
0.0
  0
SPLINE
  5
CF
330
1F
100
AcDbEntity
  8
0
370
    -3
100
AcDbSpline
210
0.0
220
0.0
230
1.0
 70
     8
 71
     2
 72
    11
 73
     8
 74
     0
 42
0.000000001
 43
0.0000000001
 40
20.0
 40
20.0
 40
20.0
 40
20.99999980131784
 40
21.99999984105428
 40
22.99999988079071
 40
23.99999992052714
 40
24.99999996026357
 40
26.0
 40
26.0
 40
26.0
 10
7.097135691204016
 20
31.70887882312235
 30
0.0
 10
7.226445886836558
 20
31.70959223569602
 30
0.0
 10
7.484678611144091
 20
31.69413361175594
 30
0.0
 10
7.739972751006292
 20
31.65027154122464
 30
0.0
 10
7.981298011239943
 20
31.55091546350326
 30
0.0
 10
8.162372854159088
 20
31.35962124090767
 30
0.0
 10
8.24321786648261
 20
31.11124605800191
 30
0.0
 10
8.239756462056334
 20
30.98068576893525
 30
0.0
  0
SPLINE
  5
D0
330
1F
100
AcDbEntity
  8
0
370
    -3
100
AcDbSpline
210
0.0
220
0.0
230
1.0
 70
     8
 71
     2
 72
     7
 73
     4
 74
     0
 42
0.000000001
 43
0.0000000001
 40
26.0
 40
26.0
 40
26.0
 40
27.0
 40
28.0
 40
28.0
 40
28.0
 10
8.239756462056334
 20
30.98068576893525
 30
0.0
 10
8.24067425533616
 20
27.79018585227101
 30
0.0
 10
8.233367398905017
 20
21.40919006865613
 30
0.0
 10
8.234534325819311
 20
18.21869034520697
 30
0.0
  0
SPLINE
  5
D1
330
1F
100
AcDbEntity
  8
0
370
    -3
100
AcDbSpline
210
0.0
220
0.0
230
1.0
 70
     8
 71
     3
 72
     8
 73
     4
 74
     0
 42
0.000000001
 43
0.0000000001
 40
9.330468838648232
 40
9.330468838648232
 40
9.330468838648232
 40
9.330468838648232
 40
9.45235323737369
 40
9.45235323737369
 40
9.45235323737369
 40
9.45235323737369
 10
-8.149531428383995
 20
17.62034378008985
 30
0.0
 10
-8.16574143369715
 20
17.62880428969797
 30
0.0
 10
-8.181408194223906
 20
17.63699030183741
 30
0.0
 10
-8.19654688382613
 20
17.64492732215001
 30
0.0
  0
SPLINE
  5
D2
330
1F
100
AcDbEntity
  8
0
370
    -3
100
AcDbSpline
210
0.0
220
0.0
230
1.0
 70
     8
 71
     2
 72
     9
 73
     6
 74
     0
 42
0.000000001
 43
0.0000000001
 40
9.45235323737369
 40
9.45235323737369
 40
9.45235323737369
 40
10.4523191115005
 40
11.45233048679156
 40
12.45234186208263
 40
13.45235323737369
 40
13.45235323737369
 40
13.45235323737369
 10
-8.19654688382613
 20
17.64492732215001
 30
0.0
 10
-8.206796978841084
 20
17.65009714807317
 30
0.0
 10
-8.223999730621443
 20
17.66540696164861
 30
0.0
 10
-8.234535999002247
 20
17.68593162520821
 30
0.0
 10
-8.240290617195825
 20
17.70806556417801
 30
0.0
 10
-8.241194329157537
 20
17.71948744547055
 30
0.0
  0
SPLINE
  5
D3
330
1F
100
AcDbEntity
  8
0
370
    -3
100
AcDbSpline
210
0.0
220
0.0
230
1.0
 70
     8
 71
     2
 72
     9
 73
     6
 74
     0
 42
0.000000001
 43
0.0000000001
 40
13.45235323737369
 40
13.45235323737369
 40
13.45235323737369
 40
14.45235323737369
 40
15.45235323737369
 40
16.45235323737369
 40
17.45235323737369
 40
17.45235323737369
 40
17.45235323737369
 10
-8.241194329157537
 20
17.71948744547055
 30
0.0
 10
-8.245967083693728
 20
17.77459444028997
 30
0.0
 10
-8.249608959685162
 20
17.88516572128179
 30
0.0
 10
-8.2513001773751
 20
17.99575929207445
 30
0.0
 10
-8.251534662342152
 20
18.10638745429532
 30
0.0
 10
-8.24906236514633
 20
18.16163842532265
 30
0.0
  0
SPLINE
  5
D4
330
1F
100
AcDbEntity
  8
0
370
    -3
100
AcDbSpline
210
0.0
220
0.0
230
1.0
 70
     8
 71
     3
 72
    10
 73
     6
 74
     0
 42
0.000000001
 43
0.0000000001
 40
-3.0
 40
-3.0
 40
-3.0
 40
-3.0
 40
-2.0
 40
-1.0
 40
0.0
 40
0.0
 40
0.0
 40
0.0
 10
6.031634854102606
 20
16.69276590481888
 30
0.0
 10
5.386882685621259
 20
16.46700587545837
 30
0.0
 10
4.0699803910002
 20
16.09594149854021
 30
0.0
 10
2.048128809627883
 20
15.74722868794328
 30
0.0
 10
0.683192353497418
 20
15.65278710868267
 30
0.0
 10
-0.0000048409038982
 20
15.65212389122942
 30
0.0
  0
SPLINE
  5
D5
330
1F
100
AcDbEntity
  8
0
370
    -3
100
AcDbSpline
210
0.0
220
0.0
230
1.0
 70
     8
 71
     3
 72
    10
 73
     6
 74
     0
 42
0.000000001
 43
0.0000000001
 40
0.0
 40
0.0
 40
0.0
 40
0.0
 40
1.0
 40
2.0
 40
3.0
 40
3.0
 40
3.0
 40
3.0
 10
-0.0000048409038982
 20
15.65212389122942
 30
0.0
 10
-0.6832020353052144
 20
15.65278710868267
 30
0.0
 10
-2.048138491435679
 20
15.74722868794328
 30
0.0
 10
-4.069990072807997
 20
16.09594149854021
 30
0.0
 10
-5.386892367429056
 20
16.46700587545837
 30
0.0
 10
-6.031644535910402
 20
16.69276590481888
 30
0.0
  0
SPLINE
  5
D6
330
1F
100
AcDbEntity
  8
0
370
    -3
100
AcDbSpline
210
0.0
220
0.0
230
1.0
 70
     8
 71
     3
 72
     8
 73
     4
 74
     0
 42
0.000000001
 43
0.0000000001
 40
0.0
 40
0.0
 40
0.0
 40
0.0
 40
1.0
 40
1.0
 40
1.0
 40
1.0
 10
-7.669261970218543
 20
16.98735090869657
 30
0.0
 10
-7.60737842806094
 20
17.00206360929663
 30
0.0
 10
-7.543475195972633
 20
17.00578852360819
 30
0.0
 10
-7.48005030088882
 20
17.00570444592043
 30
0.0
  0
SPLINE
  5
D7
330
1F
100
AcDbEntity
  8
0
370
    -3
100
AcDbSpline
210
0.0
220
0.0
230
1.0
 70
     8
 71
     3
 72
     8
 73
     4
 74
     0
 42
0.000000001
 43
0.0000000001
 40
1.0
 40
1.0
 40
1.0
 40
1.0
 40
2.0
 40
2.0
 40
2.0
 40
2.0
 10
-7.48005030088882
 20
17.00570444592043
 30
0.0
 10
-7.358989352206521
 20
17.0054736388992
 30
0.0
 10
-7.14915798204558
 20
16.98839789320547
 30
0.0
 10
-7.028724221624373
 20
16.97417932590554
 30
0.0
  0
SPLINE
  5
D8
330
1F
100
AcDbEntity
  8
0
370
    -3
100
AcDbSpline
210
0.0
220
0.0
230
1.0
 70
     8
 71
     3
 72
    14
 73
    10
 74
     0
 42
0.000000001
 43
0.0000000001
 40
2.0
 40
2.0
 40
2.0
 40
2.0
 40
3.0
 40
4.0
 40
5.0
 40
6.0
 40
7.0
 40
8.0
 40
9.0
 40
9.0
 40
9.0
 40
9.0
 10
-7.028724221624373
 20
16.97417932590554
 30
0.0
 10
-6.695335110876243
 20
16.93481897136992
 30
0.0
 10
-6.03318279543987
 20
16.82271358160358
 30
0.0
 10
-5.031875325576095
 20
16.71282913741815
 30
0.0
 10
-4.027147831744287
 20
16.64385314836321
 30
0.0
 10
-3.020749892898237
 20
16.60748717160138
 30
0.0
 10
-2.013910564670397
 20
16.59081680211295
 30
0.0
 10
-1.006962131769171
 20
16.58501770469518
 30
0.0
 10
-0.3356572171426251
 20
16.58455108052553
 30
0.0
 10
-0.0000048405734674
 20
16.58454341079411
 30
0.0
  0
SPLINE
  5
D9
330
1F
100
AcDbEntity
  8
0
370
    -3
100
AcDbSpline
210
0.0
220
0.0
230
1.0
 70
     8
 71
     3
 72
    14
 73
    10
 74
     0
 42
0.000000001
 43
0.0000000001
 40
9.0
 40
9.0
 40
9.0
 40
9.0
 40
10.0
 40
11.0
 40
12.0
 40
13.0
 40
14.0
 40
15.0
 40
16.0
 40
16.0
 40
16.0
 40
16.0
 10
-0.0000048405734674
 20
16.58454341079411
 30
0.0
 10
0.3356475359956903
 20
16.58455108052553
 30
0.0
 10
1.006952450622236
 20
16.58501770469518
 30
0.0
 10
2.013900883523462
 20
16.59081680211295
 30
0.0
 10
3.020740211751303
 20
16.60748717160138
 30
0.0
 10
4.027138150597352
 20
16.64385314836321
 30
0.0
 10
5.031865644429161
 20
16.71282913741815
 30
0.0
 10
6.033173114292936
 20
16.82271358160358
 30
0.0
 10
6.695325429729309
 20
16.93481897136992
 30
0.0
 10
7.028714540477438
 20
16.97417932590554
 30
0.0
  0
SPLINE
  5
DA
330
1F
100
AcDbEntity
  8
0
370
    -3
100
AcDbSpline
210
0.0
220
0.0
230
1.0
 70
     8
 71
     3
 72
     8
 73
     4
 74
     0
 42
0.000000001
 43
0.0000000001
 40
16.0
 40
16.0
 40
16.0
 40
16.0
 40
17.0
 40
17.0
 40
17.0
 40
17.0
 10
7.028714540477438
 20
16.97417932590554
 30
0.0
 10
7.149148300898645
 20
16.98839789320547
 30
0.0
 10
7.358979671059586
 20
17.0054736388992
 30
0.0
 10
7.480040619741885
 20
17.00570444592043
 30
0.0
  0
SPLINE
  5
DB
330
1F
100
AcDbEntity
  8
0
370
    -3
100
AcDbSpline
210
0.0
220
0.0
230
1.0
 70
     8
 71
     3
 72
     8
 73
     4
 74
     0
 42
0.000000001
 43
0.0000000001
 40
17.0
 40
17.0
 40
17.0
 40
17.0
 40
18.0
 40
18.0
 40
18.0
 40
18.0
 10
7.480040619741885
 20
17.00570444592043
 30
0.0
 10
7.543465514825698
 20
17.00578852360819
 30
0.0
 10
7.607368746914005
 20
17.00206360929663
 30
0.0
 10
7.669252289071608
 20
16.98735090869657
 30
0.0
  0
SPLINE
  5
DC
330
1F
100
AcDbEntity
  8
0
370
    -3
100
AcDbSpline
210
0.0
220
0.0
230
1.0
 70
     8
 71
     3
 72
     8
 73
     4
 74
     0
 42
0.000000001
 43
0.0000000001
 40
9.330468838648232
 40
9.330468838648232
 40
9.330468838648232
 40
9.330468838648232
 40
9.45235323737369
 40
9.45235323737369
 40
9.45235323737369
 40
9.45235323737369
 10
8.149521836053054
 20
17.62034378008985
 30
0.0
 10
8.165731841366238
 20
17.62880428969797
 30
0.0
 10
8.181398601892994
 20
17.63699030183741
 30
0.0
 10
8.196537291495218
 20
17.64492732215001
 30
0.0
  0
SPLINE
  5
DD
330
1F
100
AcDbEntity
  8
0
370
    -3
100
AcDbSpline
210
0.0
220
0.0
230
1.0
 70
     8
 71
     2
 72
     9
 73
     6
 74
     0
 42
0.000000001
 43
0.0000000001
 40
9.45235323737369
 40
9.45235323737369
 40
9.45235323737369
 40
10.4523191115005
 40
11.45233048679156
 40
12.45234186208263
 40
13.45235323737369
 40
13.45235323737369
 40
13.45235323737369
 10
8.196537291495218
 20
17.64492732215001
 30
0.0
 10
8.206787386510143
 20
17.65009714807317
 30
0.0
 10
8.223990138290532
 20
17.66540696164861
 30
0.0
 10
8.234526406671307
 20
17.68593162520821
 30
0.0
 10
8.240281024864885
 20
17.70806556417801
 30
0.0
 10
8.241184736826597
 20
17.71948744547055
 30
0.0
  0
SPLINE
  5
DE
330
1F
100
AcDbEntity
  8
0
370
    -3
100
AcDbSpline
210
0.0
220
0.0
230
1.0
 70
     8
 71
     2
 72
     9
 73
     6
 74
     0
 42
0.000000001
 43
0.0000000001
 40
13.45235323737369
 40
13.45235323737369
 40
13.45235323737369
 40
14.45235323737369
 40
15.45235323737369
 40
16.45235323737369
 40
17.45235323737369
 40
17.45235323737369
 40
17.45235323737369
 10
8.241184736826597
 20
17.71948744547055
 30
0.0
 10
8.245957491362816
 20
17.77459444028997
 30
0.0
 10
8.249599367354222
 20
17.88516572128179
 30
0.0
 10
8.25129058504416
 20
17.99575929207445
 30
0.0
 10
8.251525070011212
 20
18.10638745429532
 30
0.0
 10
8.24905277281539
 20
18.16163842532265
 30
0.0
  0
SPLINE
  5
DF
330
1F
100
AcDbEntity
  8
0
370
    -3
100
AcDbSpline
210
0.0
220
0.0
230
1.0
 70
     8
 71
     3
 72
     8
 73
     4
 74
     0
 42
0.000000001
 43
0.0000000001
 40
-0.9906832861245477
 40
-0.9906832861245477
 40
-0.9906832861245477
 40
-0.9906832861245477
 40
0.0
 40
0.0
 40
0.0
 40
0.0
 10
6.23946753266722
 20
16.70554857750349
 30
0.0
 10
4.163430124613086
 20
16.5540490514844
 30
0.0
 10
2.081444687473947
 20
16.4900515716148
 30
0.0
 10
-0.0000048388660616
 20
16.50435114258795
 30
0.0
  0
SPLINE
  5
E0
330
1F
100
AcDbEntity
  8
0
370
    -3
100
AcDbSpline
210
0.0
220
0.0
230
1.0
 70
     8
 71
     3
 72
     8
 73
     4
 74
     0
 42
0.000000001
 43
0.0000000001
 40
0.0
 40
0.0
 40
0.0
 40
0.0
 40
0.990683286796483
 40
0.990683286796483
 40
0.990683286796483
 40
0.990683286796483
 10
-0.0000048388660616
 20
16.50435114258795
 30
0.0
 10
-2.081454366617834
 20
16.49005157160509
 30
0.0
 10
-4.163439805169446
 20
16.55404905157121
 30
0.0
 10
-6.239477214623605
 20
16.70554857781175
 30
0.0
  0
SPLINE
  5
E1
330
1F
100
AcDbEntity
  8
0
370
    -3
100
AcDbSpline
210
0.0
220
0.0
230
1.0
 70
    12
 71
     2
 72
     8
 73
     5
 74
     0
 42
0.000000001
 43
0.0000000001
 40
0.3804999999999907
 40
0.3804999999999907
 40
0.3804999999999907
 40
0.5461854249492291
 40
0.5461854249492291
 40
0.7118708498984669
 40
0.7118708498984669
 40
0.7118708498984669
 10
-11.2000732865483
 20
2.560000000000002
 30
0.0
 41
1.0
 10
-11.11723057407367
 20
2.560000000000006
 30
0.0
 41
0.8535533905932737
 10
-11.05865193031098
 20
2.501421356237302
 30
0.0
 41
0.8535533905932737
 10
-11.00007328654829
 20
2.442842712474615
 30
0.0
 41
0.8535533905932737
 10
-11.00007328654829
 20
2.359999999999999
 30
0.0
 41
1.0
  0
LINE
  5
E2
330
1F
100
AcDbEntity
  8
0
370
    -3
100
AcDbLine
 10
-11.00007328654829
 20
2.359999999999999
 30
0.0
 11
-11.00007328654829
 21
0.2000000000000028
 31
0.0
  0
SPLINE
  5
E3
330
1F
100
AcDbEntity
  8
0
370
    -3
100
AcDbSpline
210
0.0
220
0.0
230
1.0
 70
    12
 71
     2
 72
     8
 73
     5
 74
     0
 42
0.000000001
 43
0.0000000001
 40
2.871870849898464
 40
2.871870849898464
 40
2.871870849898464
 40
3.037556274847701
 40
3.037556274847701
 40
3.20324169979694
 40
3.20324169979694
 40
3.20324169979694
 10
-11.00007328654829
 20
0.2000000000000028
 30
0.0
 41
1.0
 10
-11.00007328654829
 20
0.117157287525391
 30
0.0
 41
0.8535533905932737
 10
-11.05865193031098
 20
0.0585786437626872
 30
0.0
 41
0.8535533905932737
 10
-11.11723057407367
 20
0.0
 30
0.0
 41
0.8535533905932737
 10
-11.2000732865483
 20
0.0
 30
0.0
 41
1.0
  0
LINE
  5
E4
330
1F
100
AcDbEntity
  8
0
370
    -3
100
AcDbLine
 10
-11.2000732865483
 20
0.0
 30
0.0
 11
-11.58057328654829
 21
0.0
 31
0.0
  0
LINE
  5
E5
330
1F
100
AcDbEntity
  8
0
370
    -3
100
AcDbLine
 10
-11.58057328654829
 20
0.0
 30
0.0
 11
-11.58057328654829
 21
2.560000000000002
 31
0.0
  0
LINE
  5
E6
330
1F
100
AcDbEntity
  8
0
370
    -3
100
AcDbLine
 10
-11.58057328654829
 20
2.560000000000002
 30
0.0
 11
-11.2000732865483
 21
2.560000000000002
 31
0.0
  0
LINE
  5
E7
330
1F
100
AcDbEntity
  8
0
370
    -3
100
AcDbLine
 10
-12.80007328654828
 20
2.560000000000002
 30
0.0
 11
-12.41957328654829
 21
2.560000000000002
 31
0.0
  0
LINE
  5
E8
330
1F
100
AcDbEntity
  8
0
370
    -3
100
AcDbLine
 10
-12.41957328654829
 20
2.560000000000002
 30
0.0
 11
-12.41957328654829
 21
0.0
 31
0.0
  0
LINE
  5
E9
330
1F
100
AcDbEntity
  8
0
370
    -3
100
AcDbLine
 10
-12.41957328654829
 20
0.0
 30
0.0
 11
-12.80007328654828
 21
0.0
 31
0.0
  0
SPLINE
  5
EA
330
1F
100
AcDbEntity
  8
0
370
    -3
100
AcDbSpline
210
0.0
220
0.0
230
1.0
 70
    12
 71
     2
 72
     8
 73
     5
 74
     0
 42
0.000000001
 43
0.0000000001
 40
3.320999999999989
 40
3.320999999999989
 40
3.320999999999989
 40
3.486685424949227
 40
3.486685424949227
 40
3.652370849898466
 40
3.652370849898466
 40
3.652370849898466
 10
-12.80007328654828
 20
0.0
 30
0.0
 41
1.0
 10
-12.88291599902291
 20
0.0
 30
0.0
 41
0.8535533905932737
 10
-12.9414946427856
 20
0.0585786437626872
 30
0.0
 41
0.8535533905932737
 10
-13.00007328654828
 20
0.117157287525391
 30
0.0
 41
0.8535533905932737
 10
-13.00007328654829
 20
0.2000000000000028
 30
0.0
 41
1.0
  0
LINE
  5
EB
330
1F
100
AcDbEntity
  8
0
370
    -3
100
AcDbLine
 10
-13.00007328654829
 20
0.2000000000000028
 30
0.0
 11
-13.00007328654829
 21
2.359999999999999
 31
0.0
  0
SPLINE
  5
EC
330
1F
100
AcDbEntity
  8
0
370
    -3
100
AcDbSpline
210
0.0
220
0.0
230
1.0
 70
    12
 71
     2
 72
     8
 73
     5
 74
     0
 42
0.000000001
 43
0.0000000001
 40
5.812370849898462
 40
5.812370849898462
 40
5.812370849898462
 40
5.978056274847702
 40
5.978056274847702
 40
6.143741699796939
 40
6.143741699796939
 40
6.143741699796939
 10
-13.00007328654829
 20
2.359999999999999
 30
0.0
 41
1.0
 10
-13.00007328654828
 20
2.442842712474615
 30
0.0
 41
0.8535533905932737
 10
-12.9414946427856
 20
2.501421356237302
 30
0.0
 41
0.8535533905932737
 10
-12.88291599902291
 20
2.560000000000006
 30
0.0
 41
0.8535533905932737
 10
-12.80007328654828
 20
2.560000000000002
 30
0.0
 41
1.0
  0
LINE
  5
ED
330
1F
100
AcDbEntity
  8
0
100
AcDbLine
 10
-12.33007328654828
 20
2.560000000000002
 30
0.0
 11
-11.67007328654829
 21
2.560000000000002
 31
0.0
  0
LINE
  5
EE
330
1F
100
AcDbEntity
  8
0
100
AcDbLine
 10
-11.67007328654829
 20
2.560000000000002
 30
0.0
 11
-11.67007328654829
 21
2.685000000000002
 31
0.0
  0
LINE
  5
EF
330
1F
100
AcDbEntity
  8
0
100
AcDbLine
 10
-11.67007328654829
 20
2.685000000000002
 30
0.0
 11
-12.33007328654828
 21
2.685000000000002
 31
0.0
  0
LINE
  5
F0
330
1F
100
AcDbEntity
  8
0
100
AcDbLine
 10
-12.33007328654828
 20
2.685000000000002
 30
0.0
 11
-12.33007328654828
 21
2.560000000000002
 31
0.0
  0
LINE
  5
F1
330
1F
100
AcDbEntity
  8
0
370
    -3
100
AcDbLine
 10
-12.35457328654829
 20
1.280000000000001
 30
0.0
 11
-11.64557328654828
 21
1.280000000000001
 31
0.0
  0
LINE
  5
F2
330
1F
100
AcDbEntity
  8
0
370
    -3
100
AcDbLine
 10
-11.64557328654828
 20
1.280000000000001
 30
0.0
 11
-11.64557328654828
 21
2.560000000000002
 31
0.0
  0
LINE
  5
F3
330
1F
100
AcDbEntity
  8
0
370
    -3
100
AcDbLine
 10
-11.64557328654828
 20
2.560000000000002
 30
0.0
 11
-12.35457328654829
 21
2.560000000000002
 31
0.0
  0
LINE
  5
F4
330
1F
100
AcDbEntity
  8
0
370
    -3
100
AcDbLine
 10
-12.35457328654829
 20
2.560000000000002
 30
0.0
 11
-12.35457328654829
 21
1.280000000000001
 31
0.0
  0
SPLINE
  5
F5
330
1F
100
AcDbEntity
  8
0
370
    -3
100
AcDbSpline
210
0.0
220
0.0
230
1.0
 70
    12
 71
     2
 72
     8
 73
     5
 74
     0
 42
0.000000001
 43
0.0000000001
 40
0.3804999999999907
 40
0.3804999999999907
 40
0.3804999999999907
 40
0.5461854249492291
 40
0.5461854249492291
 40
0.7118708498984669
 40
0.7118708498984669
 40
0.7118708498984669
 10
0.799926713451697
 20
2.560000000000002
 30
0.0
 41
1.0
 10
0.8827694259263227
 20
2.560000000000006
 30
0.0
 41
0.8535533905932737
 10
0.9413480696890265
 20
2.501421356237302
 30
0.0
 41
0.8535533905932737
 10
0.999926713451697
 20
2.442842712474615
 30
0.0
 41
0.8535533905932737
 10
0.999926713451714
 20
2.359999999999999
 30
0.0
 41
1.0
  0
LINE
  5
F6
330
1F
100
AcDbEntity
  8
0
370
    -3
100
AcDbLine
 10
0.999926713451714
 20
2.359999999999999
 30
0.0
 11
0.999926713451714
 21
0.2000000000000028
 31
0.0
  0
SPLINE
  5
F7
330
1F
100
AcDbEntity
  8
0
370
    -3
100
AcDbSpline
210
0.0
220
0.0
230
1.0
 70
    12
 71
     2
 72
     8
 73
     5
 74
     0
 42
0.000000001
 43
0.0000000001
 40
2.871870849898464
 40
2.871870849898464
 40
2.871870849898464
 40
3.037556274847701
 40
3.037556274847701
 40
3.20324169979694
 40
3.20324169979694
 40
3.20324169979694
 10
0.999926713451714
 20
0.2000000000000028
 30
0.0
 41
1.0
 10
0.999926713451697
 20
0.117157287525391
 30
0.0
 41
0.8535533905932737
 10
0.9413480696890265
 20
0.0585786437626872
 30
0.0
 41
0.8535533905932737
 10
0.8827694259263227
 20
0.0
 30
0.0
 41
0.8535533905932737
 10
0.799926713451697
 20
0.0
 30
0.0
 41
1.0
  0
LINE
  5
F8
330
1F
100
AcDbEntity
  8
0
370
    -3
100
AcDbLine
 10
0.799926713451697
 20
0.0
 30
0.0
 11
0.4194267134517133
 21
0.0
 31
0.0
  0
LINE
  5
F9
330
1F
100
AcDbEntity
  8
0
370
    -3
100
AcDbLine
 10
0.4194267134517133
 20
0.0
 30
0.0
 11
0.4194267134517133
 21
2.560000000000002
 31
0.0
  0
LINE
  5
FA
330
1F
100
AcDbEntity
  8
0
370
    -3
100
AcDbLine
 10
0.4194267134517133
 20
2.560000000000002
 30
0.0
 11
0.799926713451697
 21
2.560000000000002
 31
0.0
  0
LINE
  5
FB
330
1F
100
AcDbEntity
  8
0
370
    -3
100
AcDbLine
 10
-0.8000732865482831
 20
2.560000000000002
 30
0.0
 11
-0.4195732865482853
 21
2.560000000000002
 31
0.0
  0
LINE
  5
FC
330
1F
100
AcDbEntity
  8
0
370
    -3
100
AcDbLine
 10
-0.4195732865482853
 20
2.560000000000002
 30
0.0
 11
-0.4195732865482853
 21
0.0
 31
0.0
  0
LINE
  5
FD
330
1F
100
AcDbEntity
  8
0
370
    -3
100
AcDbLine
 10
-0.4195732865482853
 20
0.0
 30
0.0
 11
-0.8000732865482831
 21
0.0
 31
0.0
  0
SPLINE
  5
FE
330
1F
100
AcDbEntity
  8
0
370
    -3
100
AcDbSpline
210
0.0
220
0.0
230
1.0
 70
    12
 71
     2
 72
     8
 73
     5
 74
     0
 42
0.000000001
 43
0.0000000001
 40
3.320999999999989
 40
3.320999999999989
 40
3.320999999999989
 40
3.486685424949227
 40
3.486685424949227
 40
3.652370849898466
 40
3.652370849898466
 40
3.652370849898466
 10
-0.8000732865482831
 20
0.0
 30
0.0
 41
1.0
 10
-0.8829159990229021
 20
0.0
 30
0.0
 41
0.8535533905932737
 10
-0.9414946427856059
 20
0.0585786437626872
 30
0.0
 41
0.8535533905932737
 10
-1.000073286548276
 20
0.117157287525391
 30
0.0
 41
0.8535533905932737
 10
-1.000073286548286
 20
0.2000000000000028
 30
0.0
 41
1.0
  0
LINE
  5
FF
330
1F
100
AcDbEntity
  8
0
370
    -3
100
AcDbLine
 10
-1.000073286548286
 20
0.2000000000000028
 30
0.0
 11
-1.000073286548286
 21
2.359999999999999
 31
0.0
  0
SPLINE
  5
100
330
1F
100
AcDbEntity
  8
0
370
    -3
100
AcDbSpline
210
0.0
220
0.0
230
1.0
 70
    12
 71
     2
 72
     8
 73
     5
 74
     0
 42
0.000000001
 43
0.0000000001
 40
5.812370849898462
 40
5.812370849898462
 40
5.812370849898462
 40
5.978056274847702
 40
5.978056274847702
 40
6.143741699796939
 40
6.143741699796939
 40
6.143741699796939
 10
-1.000073286548286
 20
2.359999999999999
 30
0.0
 41
1.0
 10
-1.000073286548276
 20
2.442842712474615
 30
0.0
 41
0.8535533905932737
 10
-0.9414946427856059
 20
2.501421356237302
 30
0.0
 41
0.8535533905932737
 10
-0.8829159990229021
 20
2.560000000000006
 30
0.0
 41
0.8535533905932737
 10
-0.8000732865482831
 20
2.560000000000002
 30
0.0
 41
1.0
  0
LINE
  5
101
330
1F
100
AcDbEntity
  8
0
100
AcDbLine
 10
-0.3300732865482843
 20
2.560000000000002
 30
0.0
 11
0.3299267134517123
 21
2.560000000000002
 31
0.0
  0
LINE
  5
102
330
1F
100
AcDbEntity
  8
0
100
AcDbLine
 10
0.3299267134517123
 20
2.560000000000002
 30
0.0
 11
0.3299267134517123
 21
2.685000000000002
 31
0.0
  0
LINE
  5
103
330
1F
100
AcDbEntity
  8
0
100
AcDbLine
 10
0.3299267134517123
 20
2.685000000000002
 30
0.0
 11
-0.3300732865482843
 21
2.685000000000002
 31
0.0
  0
LINE
  5
104
330
1F
100
AcDbEntity
  8
0
100
AcDbLine
 10
-0.3300732865482843
 20
2.685000000000002
 30
0.0
 11
-0.3300732865482843
 21
2.560000000000002
 31
0.0
  0
LINE
  5
105
330
1F
100
AcDbEntity
  8
0
370
    -3
100
AcDbLine
 10
-0.3545732865482876
 20
1.280000000000001
 30
0.0
 11
0.3544267134517156
 21
1.280000000000001
 31
0.0
  0
LINE
  5
106
330
1F
100
AcDbEntity
  8
0
370
    -3
100
AcDbLine
 10
0.3544267134517156
 20
1.280000000000001
 30
0.0
 11
0.3544267134517156
 21
2.560000000000002
 31
0.0
  0
LINE
  5
107
330
1F
100
AcDbEntity
  8
0
370
    -3
100
AcDbLine
 10
0.3544267134517156
 20
2.560000000000002
 30
0.0
 11
-0.3545732865482876
 21
2.560000000000002
 31
0.0
  0
LINE
  5
108
330
1F
100
AcDbEntity
  8
0
370
    -3
100
AcDbLine
 10
-0.3545732865482876
 20
2.560000000000002
 30
0.0
 11
-0.3545732865482876
 21
1.280000000000001
 31
0.0
  0
SPLINE
  5
109
330
1F
100
AcDbEntity
  8
0
370
    -3
100
AcDbSpline
210
0.0
220
0.0
230
1.0
 70
     8
 71
     3
 72
    10
 73
     6
 74
     0
 42
0.000000001
 43
0.0000000001
 40
0.0
 40
0.0
 40
0.0
 40
0.0
 40
1.0
 40
2.0
 40
3.0
 40
3.0
 40
3.0
 40
3.0
 10
-6.187695384711049
 20
16.32167828693403
 30
0.0
 10
-6.119288260380927
 20
16.32314532916087
 30
0.0
 10
-5.982533061653243
 20
16.33859410723404
 30
0.0
 10
-5.788330153532996
 20
16.41241565398926
 30
0.0
 10
-5.684200452504143
 20
16.50580858829426
 30
0.0
 10
-5.646410606829988
 20
16.56310309545682
 30
0.0
  0
SPLINE
  5
10A
330
1F
100
AcDbEntity
  8
0
370
    -3
100
AcDbSpline
210
0.0
220
0.0
230
1.0
 70
     8
 71
     3
 72
    10
 73
     6
 74
     0
 42
0.000000001
 43
0.0000000001
 40
0.0
 40
0.0
 40
0.0
 40
0.0
 40
1.0
 40
2.0
 40
3.0
 40
3.0
 40
3.0
 40
3.0
 10
6.187663665944385
 20
16.32167828693403
 30
0.0
 10
6.119256541614263
 20
16.32314532916087
 30
0.0
 10
5.982501342886579
 20
16.33859410723404
 30
0.0
 10
5.788298434766332
 20
16.41241565398926
 30
0.0
 10
5.684168733737479
 20
16.50580858829426
 30
0.0
 10
5.646378888063325
 20
16.56310309545682
 30
0.0
  0
SPLINE
  5
10B
330
1F
100
AcDbEntity
  8
0
370
    -3
100
AcDbSpline
210
0.0
220
0.0
230
1.0
 70
    12
 71
     2
 72
     8
 73
     5
 74
     0
 42
0.000000001
 43
0.0000000001
 40
0.3804999999999907
 40
0.3804999999999907
 40
0.3804999999999907
 40
0.5461854249492291
 40
0.5461854249492291
 40
0.7118708498984669
 40
0.7118708498984669
 40
0.7118708498984669
 10
11.20004156778162
 20
2.560000000000002
 30
0.0
 41
1.0
 10
11.117198855307
 20
2.560000000000006
 30
0.0
 41
0.8535533905932737
 10
11.05862021154432
 20
2.501421356237302
 30
0.0
 41
0.8535533905932737
 10
11.00004156778163
 20
2.442842712474615
 30
0.0
 41
0.8535533905932737
 10
11.00004156778164
 20
2.359999999999999
 30
0.0
 41
1.0
  0
LINE
  5
10C
330
1F
100
AcDbEntity
  8
0
370
    -3
100
AcDbLine
 10
11.00004156778164
 20
2.359999999999999
 30
0.0
 11
11.00004156778164
 21
0.2000000000000028
 31
0.0
  0
SPLINE
  5
10D
330
1F
100
AcDbEntity
  8
0
370
    -3
100
AcDbSpline
210
0.0
220
0.0
230
1.0
 70
    12
 71
     2
 72
     8
 73
     5
 74
     0
 42
0.000000001
 43
0.0000000001
 40
2.871870849898464
 40
2.871870849898464
 40
2.871870849898464
 40
3.037556274847701
 40
3.037556274847701
 40
3.20324169979694
 40
3.20324169979694
 40
3.20324169979694
 10
11.00004156778164
 20
0.2000000000000028
 30
0.0
 41
1.0
 10
11.00004156778163
 20
0.117157287525391
 30
0.0
 41
0.8535533905932737
 10
11.05862021154432
 20
0.0585786437626872
 30
0.0
 41
0.8535533905932737
 10
11.117198855307
 20
0.0
 30
0.0
 41
0.8535533905932737
 10
11.20004156778162
 20
0.0
 30
0.0
 41
1.0
  0
LINE
  5
10E
330
1F
100
AcDbEntity
  8
0
370
    -3
100
AcDbLine
 10
11.20004156778162
 20
0.0
 30
0.0
 11
11.58054156778161
 21
0.0
 31
0.0
  0
LINE
  5
10F
330
1F
100
AcDbEntity
  8
0
370
    -3
100
AcDbLine
 10
11.58054156778161
 20
0.0
 30
0.0
 11
11.58054156778161
 21
2.560000000000002
 31
0.0
  0
LINE
  5
110
330
1F
100
AcDbEntity
  8
0
370
    -3
100
AcDbLine
 10
11.58054156778161
 20
2.560000000000002
 30
0.0
 11
11.20004156778162
 21
2.560000000000002
 31
0.0
  0
LINE
  5
111
330
1F
100
AcDbEntity
  8
0
370
    -3
100
AcDbLine
 10
12.80004156778162
 20
2.560000000000002
 30
0.0
 11
12.41954156778161
 21
2.560000000000002
 31
0.0
  0
LINE
  5
112
330
1F
100
AcDbEntity
  8
0
370
    -3
100
AcDbLine
 10
12.41954156778161
 20
2.560000000000002
 30
0.0
 11
12.41954156778161
 21
0.0
 31
0.0
  0
LINE
  5
113
330
1F
100
AcDbEntity
  8
0
370
    -3
100
AcDbLine
 10
12.41954156778161
 20
0.0
 30
0.0
 11
12.80004156778162
 21
0.0
 31
0.0
  0
SPLINE
  5
114
330
1F
100
AcDbEntity
  8
0
370
    -3
100
AcDbSpline
210
0.0
220
0.0
230
1.0
 70
    12
 71
     2
 72
     8
 73
     5
 74
     0
 42
0.000000001
 43
0.0000000001
 40
3.320999999999989
 40
3.320999999999989
 40
3.320999999999989
 40
3.486685424949227
 40
3.486685424949227
 40
3.652370849898466
 40
3.652370849898466
 40
3.652370849898466
 10
12.80004156778162
 20
0.0
 30
0.0
 41
1.0
 10
12.88288428025623
 20
0.0
 30
0.0
 41
0.8535533905932737
 10
12.94146292401893
 20
0.0585786437626872
 30
0.0
 41
0.8535533905932737
 10
13.00004156778162
 20
0.117157287525391
 30
0.0
 41
0.8535533905932737
 10
13.00004156778164
 20
0.2000000000000028
 30
0.0
 41
1.0
  0
LINE
  5
115
330
1F
100
AcDbEntity
  8
0
370
    -3
100
AcDbLine
 10
13.00004156778164
 20
0.2000000000000028
 30
0.0
 11
13.00004156778164
 21
2.359999999999999
 31
0.0
  0
SPLINE
  5
116
330
1F
100
AcDbEntity
  8
0
370
    -3
100
AcDbSpline
210
0.0
220
0.0
230
1.0
 70
    12
 71
     2
 72
     8
 73
     5
 74
     0
 42
0.000000001
 43
0.0000000001
 40
5.812370849898462
 40
5.812370849898462
 40
5.812370849898462
 40
5.978056274847702
 40
5.978056274847702
 40
6.143741699796939
 40
6.143741699796939
 40
6.143741699796939
 10
13.00004156778164
 20
2.359999999999999
 30
0.0
 41
1.0
 10
13.00004156778162
 20
2.442842712474615
 30
0.0
 41
0.8535533905932737
 10
12.94146292401893
 20
2.501421356237302
 30
0.0
 41
0.8535533905932737
 10
12.88288428025623
 20
2.560000000000006
 30
0.0
 41
0.8535533905932737
 10
12.80004156778162
 20
2.560000000000002
 30
0.0
 41
1.0
  0
LINE
  5
117
330
1F
100
AcDbEntity
  8
0
100
AcDbLine
 10
12.33004156778162
 20
2.560000000000002
 30
0.0
 11
11.67004156778162
 21
2.560000000000002
 31
0.0
  0
LINE
  5
118
330
1F
100
AcDbEntity
  8
0
100
AcDbLine
 10
11.67004156778162
 20
2.560000000000002
 30
0.0
 11
11.67004156778162
 21
2.685000000000002
 31
0.0
  0
LINE
  5
119
330
1F
100
AcDbEntity
  8
0
100
AcDbLine
 10
11.67004156778162
 20
2.685000000000002
 30
0.0
 11
12.33004156778162
 21
2.685000000000002
 31
0.0
  0
LINE
  5
11A
330
1F
100
AcDbEntity
  8
0
100
AcDbLine
 10
12.33004156778162
 20
2.685000000000002
 30
0.0
 11
12.33004156778162
 21
2.560000000000002
 31
0.0
  0
LINE
  5
11B
330
1F
100
AcDbEntity
  8
0
370
    -3
100
AcDbLine
 10
12.35454156778161
 20
1.280000000000001
 30
0.0
 11
11.64554156778161
 21
1.280000000000001
 31
0.0
  0
LINE
  5
11C
330
1F
100
AcDbEntity
  8
0
370
    -3
100
AcDbLine
 10
11.64554156778161
 20
1.280000000000001
 30
0.0
 11
11.64554156778161
 21
2.560000000000002
 31
0.0
  0
LINE
  5
11D
330
1F
100
AcDbEntity
  8
0
370
    -3
100
AcDbLine
 10
11.64554156778161
 20
2.560000000000002
 30
0.0
 11
12.35454156778161
 21
2.560000000000002
 31
0.0
  0
LINE
  5
11E
330
1F
100
AcDbEntity
  8
0
370
    -3
100
AcDbLine
 10
12.35454156778161
 20
2.560000000000002
 30
0.0
 11
12.35454156778161
 21
1.280000000000001
 31
0.0
  0
ARC
  5
11F
330
1F
100
AcDbEntity
  8
0
370
    -3
100
AcDbCircle
 10
7.374510019244681
 20
13.91467305615947
 30
0.0
 40
3.053229339437164
210
0.0
220
0.0
230
-1.0
100
AcDbArc
 50
87.70138554021682
 51
110.8060799582873
  0
ARC
  5
120
330
1F
100
AcDbEntity
  8
0
370
    -3
100
AcDbCircle
 10
7.238859730851743
 20
16.66895796818267
 30
0.0
 40
0.9541133753972832
210
0.0
220
0.0
230
-1.0
100
AcDbArc
 50
173.9936479588106
 51
191.7378134599073
  0
SPLINE
  5
121
330
1F
100
AcDbEntity
  8
0
370
    -3
100
AcDbSpline
210
0.0
220
0.0
230
1.0
 70
     8
 71
     3
 72
    12
 73
     8
 74
     0
 42
0.000000001
 43
0.0000000001
 40
1.526707154684391
 40
1.526707154684391
 40
1.526707154684391
 40
1.526707154684391
 40
2.526707154684392
 40
3.526707154684392
 40
4.526707154684392
 40
5.526707154684392
 40
6.526707154684392
 40
6.526707154684392
 40
6.526707154684392
 40
6.526707154684392
 10
-6.304698045445264
 20
16.47485933699089
 30
0.0
 10
-5.972101328654091
 20
16.16786166442664
 30
0.0
 10
-5.25669527689854
 20
15.61095393596128
 30
0.0
 10
-4.174857361744884
 20
14.78943129697532
 30
0.0
 10
-3.058107624453925
 20
14.01505462427754
 30
0.0
 10
-1.937814369654419
 20
13.24699972363918
 30
0.0
 10
-1.203782996312214
 20
12.71493703574137
 30
0.0
 10
-0.8124537385012047
 20
12.4865595104994
 30
0.0
  0
SPLINE
  5
122
330
1F
100
AcDbEntity
  8
0
370
    -3
100
AcDbSpline
210
0.0
220
0.0
230
1.0
 70
     8
 71
     3
 72
    10
 73
     6
 74
     0
 42
0.000000001
 43
0.0000000001
 40
6.526707154684392
 40
6.526707154684392
 40
6.526707154684392
 40
6.526707154684392
 40
7.526707154684392
 40
8.526707154684392
 40
9.526707154684392
 40
9.526707154684392
 40
9.526707154684392
 40
9.526707154684392
 10
-0.8124537385012047
 20
12.4865595104994
 30
0.0
 10
-0.7678386587308239
 20
12.47898501056788
 30
0.0
 10
-0.6746704626839204
 20
12.48464475535988
 30
0.0
 10
-0.556877372656686
 20
12.56474139007067
 30
0.0
 10
-0.5280974926323694
 20
12.65604669194167
 30
0.0
 10
-0.5264174453914876
 20
12.70104850638255
 30
0.0
  0
ARC
  5
123
330
1F
100
AcDbEntity
  8
0
370
    -3
100
AcDbCircle
 10
7.374500337436871
 20
13.91467305615947
 30
0.0
 40
3.053229339437164
100
AcDbArc
 50
87.70138554021682
 51
110.8060799582873
  0
ARC
  5
124
330
1F
100
AcDbEntity
  8
0
370
    -3
100
AcDbCircle
 10
7.238850049043933
 20
16.66895796818267
 30
0.0
 40
0.9541133753972832
100
AcDbArc
 50
173.9936479588106
 51
191.7378134599073
  0
SPLINE
  5
125
330
1F
100
AcDbEntity
  8
0
370
    -3
100
AcDbSpline
210
0.0
220
0.0
230
1.0
 70
     8
 71
     3
 72
    12
 73
     8
 74
     0
 42
0.000000001
 43
0.0000000001
 40
1.526707154684391
 40
1.526707154684391
 40
1.526707154684391
 40
1.526707154684391
 40
2.526707154684392
 40
3.526707154684392
 40
4.526707154684392
 40
5.526707154684392
 40
6.526707154684392
 40
6.526707154684392
 40
6.526707154684392
 40
6.526707154684392
 10
6.304688363637453
 20
16.47485933699089
 30
0.0
 10
5.97209164684628
 20
16.16786166442664
 30
0.0
 10
5.25668559509073
 20
15.61095393596128
 30
0.0
 10
4.174847679937074
 20
14.78943129697532
 30
0.0
 10
3.0580979426461
 20
14.01505462427754
 30
0.0
 10
1.937804687846608
 20
13.24699972363918
 30
0.0
 10
1.203773314504389
 20
12.71493703574137
 30
0.0
 10
0.8124440566933799
 20
12.4865595104994
 30
0.0
  0
SPLINE
  5
126
330
1F
100
AcDbEntity
  8
0
370
    -3
100
AcDbSpline
210
0.0
220
0.0
230
1.0
 70
     8
 71
     3
 72
    10
 73
     6
 74
     0
 42
0.000000001
 43
0.0000000001
 40
6.526707154684392
 40
6.526707154684392
 40
6.526707154684392
 40
6.526707154684392
 40
7.526707154684392
 40
8.526707154684392
 40
9.526707154684392
 40
9.526707154684392
 40
9.526707154684392
 40
9.526707154684392
 10
0.8124440566933799
 20
12.4865595104994
 30
0.0
 10
0.7678289769229991
 20
12.47898501056788
 30
0.0
 10
0.6746607808761098
 20
12.48464475535988
 30
0.0
 10
0.5568676908488754
 20
12.56474139007067
 30
0.0
 10
0.5280878108245588
 20
12.65604669194167
 30
0.0
 10
0.526407763583677
 20
12.70104850638255
 30
0.0
  0
LINE
  5
127
330
1F
100
AcDbEntity
  8
0
370
    -3
100
AcDbLine
 10
-0.7575901123904174
 20
12.48257937316785
 30
0.0
 11
-0.7490167396474874
 21
12.72776222223722
 31
0.0
  0
SPLINE
  5
128
330
1F
100
AcDbEntity
  8
0
370
    -3
100
AcDbSpline
210
0.0
220
0.0
230
1.0
 70
    12
 71
     2
 72
     6
 73
     3
 74
     0
 42
0.000000001
 43
0.0000000001
 40
0.2074355297673092
 40
0.2074355297673092
 40
0.2074355297673092
 40
0.2482820705685076
 40
0.2482820705685076
 40
0.2482820705685076
 10
-0.7490167396474997
 20
12.72776222223722
 30
0.0
 41
0.8985954153303242
 10
-0.748788740899854
 20
12.7486790073674
 30
0.0
 41
0.8291658840929218
 10
-0.7337378961753798
 20
12.76320608310891
 30
0.0
 41
0.8990129715008346
  0
SPLINE
  5
129
330
1F
100
AcDbEntity
  8
0
370
    -3
100
AcDbSpline
210
0.0
220
0.0
230
1.0
 70
    28
 71
     2
 72
     6
 73
     3
 74
     0
 42
0.000000001
 43
0.0000000001
 40
0.2482820705685076
 40
0.2482820705685076
 40
0.2482820705685076
 40
0.2798007783142725
 40
0.2798007783142725
 40
0.2798007783142725
 10
-0.7337378961753842
 20
12.76320608310891
 30
0.0
 41
1.0
 10
-0.7224015659575826
 20
12.77415345050393
 30
0.0
 41
1.0
 10
-0.7110652357397811
 20
12.78510081789895
 30
0.0
 41
1.0
  0
SPLINE
  5
12A
330
1F
100
AcDbEntity
  8
0
370
    -3
100
AcDbSpline
210
0.0
220
0.0
230
1.0
 70
    12
 71
     2
 72
     6
 73
     3
 74
     0
 42
0.000000001
 43
0.0000000001
 40
0.2798007783142725
 40
0.2798007783142725
 40
0.2798007783142725
 40
0.3202033990499833
 40
0.3202033990499833
 40
0.3202033990499833
 10
-0.7110652357397811
 20
12.78510081789895
 30
0.0
 41
1.0
 10
-0.6965336290188705
 20
12.79913382708042
 30
0.0
 41
0.9271838605174207
 10
-0.6763323186510064
 20
12.7991338275
 30
0.0
 41
1.0
  0
LINE
  5
12B
330
1F
100
AcDbEntity
  8
0
370
    -3
100
AcDbLine
 10
-0.6763323186510064
 20
12.7991338275
 30
0.0
 11
0.6761857455544344
 21
12.7991338275
 31
0.0
  0
SPLINE
  5
12C
330
1F
100
AcDbEntity
  8
0
370
    -3
100
AcDbSpline
210
0.0
220
0.0
230
1.0
 70
    12
 71
     2
 72
     6
 73
     3
 74
     0
 42
0.000000001
 43
0.0000000001
 40
1.672721463255424
 40
1.672721463255424
 40
1.672721463255424
 40
1.713124083991135
 40
1.713124083991135
 40
1.713124083991135
 10
0.6761857455544344
 20
12.7991338275
 30
0.0
 41
1.0
 10
0.6963870559222669
 20
12.79913382708042
 30
0.0
 41
0.9271838605174207
 10
0.7109186626432091
 20
12.78510081789895
 30
0.0
 41
1.0
  0
SPLINE
  5
12D
330
1F
100
AcDbEntity
  8
0
370
    -3
100
AcDbSpline
210
0.0
220
0.0
230
1.0
 70
    28
 71
     2
 72
     6
 73
     3
 74
     0
 42
0.000000001
 43
0.0000000001
 40
1.713124083991135
 40
1.713124083991135
 40
1.713124083991135
 40
1.7446427917369
 40
1.7446427917369
 40
1.7446427917369
 10
0.7109186626432091
 20
12.78510081789895
 30
0.0
 41
1.0
 10
0.7222549928610107
 20
12.77415345050393
 30
0.0
 41
1.0
 10
0.7335913230788123
 20
12.76320608310891
 30
0.0
 41
1.0
  0
SPLINE
  5
12E
330
1F
100
AcDbEntity
  8
0
370
    -3
100
AcDbSpline
210
0.0
220
0.0
230
1.0
 70
    12
 71
     2
 72
     6
 73
     3
 74
     0
 42
0.000000001
 43
0.0000000001
 40
1.7446427917369
 40
1.7446427917369
 40
1.7446427917369
 40
1.785489332538098
 40
1.785489332538098
 40
1.785489332538098
 10
0.7335913230788056
 20
12.76320608310891
 30
0.0
 41
0.8990129715008346
 10
0.748642167803248
 20
12.7486790073674
 30
0.0
 41
0.8291658840929218
 10
0.7488701665509077
 20
12.72776222223722
 30
0.0
 41
0.8985954153303242
  0
LINE
  5
12F
330
1F
100
AcDbEntity
  8
0
370
    -3
100
AcDbLine
 10
0.7488701665509296
 20
12.72776222223722
 30
0.0
 11
0.7574434202688138
 21
12.4825827770669
 31
0.0
  0
ARC
  5
130
330
1F
100
AcDbEntity
  8
0
370
    -3
100
AcDbCircle
 10
-5.97802663494177
 20
16.85788638847859
 30
0.0
 40
1.522735000559103
210
0.0
220
0.0
230
-1.0
100
AcDbArc
 50
175.9495062542415
 51
187.1929090195059
  0
SPLINE
  5
131
330
1F
100
AcDbEntity
  8
0
370
    -3
100
AcDbSpline
210
0.0
220
0.0
230
1.0
 70
     8
 71
     3
 72
    12
 73
     8
 74
     0
 42
0.000000001
 43
0.0000000001
 40
-11.12849001002052
 40
-11.12849001002052
 40
-11.12849001002052
 40
-11.12849001002052
 40
-10.12849001002052
 40
-9.12849001002052
 40
-8.12849001002052
 40
-7.128490010020522
 40
-6.128490010020522
 40
-6.128490010020522
 40
-6.128490010020522
 40
-6.128490010020522
 10
7.488778023324926
 20
16.66722405757366
 30
0.0
 10
7.476922158011874
 20
16.57328172036861
 30
0.0
 10
7.394571345882355
 20
16.39663904080643
 30
0.0
 10
7.17081509270939
 20
16.21803146782324
 30
0.0
 10
6.944473771465965
 20
16.05017482054214
 30
0.0
 10
6.718039884366561
 20
15.88044107738096
 30
0.0
 10
6.567468882795694
 20
15.76718760968839
 30
0.0
 10
6.49249933485001
 20
15.71006055953036
 30
0.0
  0
SPLINE
  5
132
330
1F
100
AcDbEntity
  8
0
370
    -3
100
AcDbSpline
210
0.0
220
0.0
230
1.0
 70
     8
 71
     3
 72
     8
 73
     4
 74
     0
 42
0.000000001
 43
0.0000000001
 40
-6.128490010020522
 40
-6.128490010020522
 40
-6.128490010020522
 40
-6.128490010020522
 40
-5.128490010020522
 40
-5.128490010020522
 40
-5.128490010020522
 40
-5.128490010020522
 10
6.49249933485001
 20
15.71006055953036
 30
0.0
 10
4.774304015888717
 20
14.40078989087559
 30
0.0
 10
3.054147192500523
 20
13.09056475553622
 30
0.0
 10
1.336677623731219
 20
11.78034219252203
 30
0.0
  0
SPLINE
  5
133
330
1F
100
AcDbEntity
  8
0
370
    -3
100
AcDbSpline
210
0.0
220
0.0
230
1.0
 70
     8
 71
     3
 72
    12
 73
     8
 74
     0
 42
0.000000001
 43
0.0000000001
 40
-5.128490010020522
 40
-5.128490010020522
 40
-5.128490010020522
 40
-5.128490010020522
 40
-4.128490010020522
 40
-3.128490010020522
 40
-2.128490010020521
 40
-1.128490010020521
 40
-0.1284900100205212
 40
-0.1284900100205212
 40
-0.1284900100205212
 40
-0.1284900100205212
 10
1.336677623731219
 20
11.78034219252203
 30
0.0
 10
1.295863286887609
 20
11.7492057660028
 30
0.0
 10
1.214625359455155
 20
11.6816095004599
 30
0.0
 10
1.102686294938437
 20
11.576128582607
 30
0.0
 10
1.006633306684932
 20
11.4527583897663
 30
0.0
 10
0.8644633930976653
 20
11.38627718565442
 30
0.0
 10
0.7759249889173248
 20
11.33572360249049
 30
0.0
 10
0.73013848817574
 20
11.3121048376719
 30
0.0
  0
SPLINE
  5
134
330
1F
100
AcDbEntity
  8
0
370
    -3
100
AcDbSpline
210
0.0
220
0.0
230
1.0
 70
     8
 71
     3
 72
     8
 73
     4
 74
     0
 42
0.000000001
 43
0.0000000001
 40
-0.1284900100205212
 40
-0.1284900100205212
 40
-0.1284900100205212
 40
-0.1284900100205212
 40
-0.0627915002665406
 40
-0.0627915002665406
 40
-0.0627915002665406
 40
-0.0627915002665406
 10
0.73013848817574
 20
11.3121048376719
 30
0.0
 10
0.7224838975206751
 20
11.30806157863933
 30
0.0
 10
0.7092108927747063
 20
11.29822624765394
 30
0.0
 10
0.7056619572612277
 20
11.27755064787388
 30
0.0
  0
SPLINE
  5
135
330
1F
100
AcDbEntity
  8
0
370
    -3
100
AcDbSpline
210
0.0
220
0.0
230
1.0
 70
    28
 71
     2
 72
     6
 73
     3
 74
     0
 42
0.000000001
 43
0.0000000001
 40
-0.0627915002665406
 40
-0.0627915002665406
 40
-0.0627915002665406
 40
0.0
 40
0.0
 40
0.0
 10
0.7056619572612277
 20
11.27755064787388
 30
0.0
 41
1.0
 10
0.7001870383951143
 20
11.24650103320435
 30
0.0
 41
1.0
 10
0.6947121195290009
 20
11.21545141853481
 30
0.0
 41
1.0
  0
SPLINE
  5
136
330
1F
100
AcDbEntity
  8
0
370
    -3
100
AcDbSpline
210
0.0
220
0.0
230
1.0
 70
    12
 71
     2
 72
     6
 73
     3
 74
     0
 42
0.000000001
 43
0.0000000001
 40
0.0
 40
0.0
 40
0.0
 40
0.0839099630026046
 40
0.0839099630026046
 40
0.0839099630026046
 10
0.6947121195290009
 20
11.21545141853481
 30
0.0
 41
1.0
 10
0.6874267133941249
 20
11.1741338275
 30
0.0
 41
0.7660444435532209
 10
0.6454717318928118
 20
11.1741338275
 30
0.0
 41
1.0
  0
LINE
  5
137
330
1F
100
AcDbEntity
  8
0
370
    -3
100
AcDbLine
 10
0.6454717318928118
 20
11.1741338275
 30
0.0
 11
-0.6456183049893838
 21
11.1741338275
 31
0.0
  0
SPLINE
  5
138
330
1F
100
AcDbEntity
  8
0
370
    -3
100
AcDbSpline
210
0.0
220
0.0
230
1.0
 70
    12
 71
     2
 72
     6
 73
     3
 74
     0
 42
0.000000001
 43
0.0000000001
 40
1.3749999998848
 40
1.3749999998848
 40
1.3749999998848
 40
1.458909962887405
 40
1.458909962887405
 40
1.458909962887405
 10
-0.6456183049893838
 20
11.1741338275
 30
0.0
 41
1.0
 10
-0.6875732864906986
 20
11.1741338275
 30
0.0
 41
0.7660444435532209
 10
-0.6948586926255729
 20
11.21545141853481
 30
0.0
 41
1.0
  0
SPLINE
  5
139
330
1F
100
AcDbEntity
  8
0
370
    -3
100
AcDbSpline
210
0.0
220
0.0
230
1.0
 70
    28
 71
     2
 72
     6
 73
     3
 74
     0
 42
0.000000001
 43
0.0000000001
 40
1.458909962887405
 40
1.458909962887405
 40
1.458909962887405
 40
1.521701463153945
 40
1.521701463153945
 40
1.521701463153945
 10
-0.6948586926255729
 20
11.21545141853481
 30
0.0
 41
1.0
 10
-0.7003336114916863
 20
11.24650103320435
 30
0.0
 41
1.0
 10
-0.7058085303577997
 20
11.27755064787388
 30
0.0
 41
1.0
  0
SPLINE
  5
13A
330
1F
100
AcDbEntity
  8
0
370
    -3
100
AcDbSpline
210
0.0
220
0.0
230
1.0
 70
     8
 71
     3
 72
     8
 73
     4
 74
     0
 42
0.000000001
 43
0.0000000001
 40
1.521701463153945
 40
1.521701463153945
 40
1.521701463153945
 40
1.521701463153945
 40
1.587399972907926
 40
1.587399972907926
 40
1.587399972907926
 40
1.587399972907926
 10
-0.7058085303577997
 20
11.27755064787388
 30
0.0
 10
-0.7093551466097665
 20
11.29821273596218
 30
0.0
 10
-0.72261312671246
 20
11.30804871905393
 30
0.0
 10
-0.7302166156279384
 20
11.3121048376719
 30
0.0
  0
SPLINE
  5
13B
330
1F
100
AcDbEntity
  8
0
370
    -3
100
AcDbSpline
210
0.0
220
0.0
230
1.0
 70
     8
 71
     3
 72
    12
 73
     8
 74
     0
 42
0.000000001
 43
0.0000000001
 40
1.587399972907926
 40
1.587399972907926
 40
1.587399972907926
 40
1.587399972907926
 40
2.587312436176899
 40
3.587334320359656
 40
4.587356204542413
 40
5.58737808872517
 40
6.587399972907926
 40
6.587399972907926
 40
6.587399972907926
 40
6.587399972907926
 10
-0.7302166156279384
 20
11.3121048376719
 30
0.0
 10
-0.7759443584849066
 20
11.33572913397003
 30
0.0
 10
-0.86447826024596
 20
11.38627961041273
 30
0.0
 10
-1.006642988492729
 20
11.4527583897663
 30
0.0
 10
-1.102695976746247
 20
11.576128582607
 30
0.0
 10
-1.214635041262966
 20
11.6816095004599
 30
0.0
 10
-1.29587296869542
 20
11.7492057660028
 30
0.0
 10
-1.336687305539044
 20
11.78034219252203
 30
0.0
  0
SPLINE
  5
13C
330
1F
100
AcDbEntity
  8
0
370
    -3
100
AcDbSpline
210
0.0
220
0.0
230
1.0
 70
     8
 71
     3
 72
     8
 73
     4
 74
     0
 42
0.000000001
 43
0.0000000001
 40
6.587399972907926
 40
6.587399972907926
 40
6.587399972907926
 40
6.587399972907926
 40
7.587399972907926
 40
7.587399972907926
 40
7.587399972907926
 40
7.587399972907926
 10
-1.336687305539044
 20
11.78034219252203
 30
0.0
 10
-3.054156874308347
 20
13.09056475553622
 30
0.0
 10
-4.774313697696527
 20
14.40078989087559
 30
0.0
 10
-6.49250901665782
 20
15.71006055953036
 30
0.0
  0
SPLINE
  5
13D
330
1F
100
AcDbEntity
  8
0
370
    -3
100
AcDbSpline
210
0.0
220
0.0
230
1.0
 70
     8
 71
     3
 72
    12
 73
     8
 74
     0
 42
0.000000001
 43
0.0000000001
 40
7.587399972907926
 40
7.587399972907926
 40
7.587399972907926
 40
7.587399972907926
 40
8.587399972907926
 40
9.587399972907924
 40
10.58739997290792
 40
11.58739997290792
 40
12.58739997290792
 40
12.58739997290792
 40
12.58739997290792
 40
12.58739997290792
 10
-6.49250901665782
 20
15.71006055953036
 30
0.0
 10
-6.567478564603505
 20
15.76718760968839
 30
0.0
 10
-6.718049566174372
 20
15.88044107738096
 30
0.0
 10
-6.944483453273776
 20
16.05017482054214
 30
0.0
 10
-7.1708247745172
 20
16.21803146782324
 30
0.0
 10
-7.394581027690165
 20
16.39663904080643
 30
0.0
 10
-7.476931839819684
 20
16.57328172036861
 30
0.0
 10
-7.488787705132737
 20
16.66722405757366
 30
0.0
  0
ARC
  5
13E
330
1F
100
AcDbEntity
  8
0
370
    -3
100
AcDbCircle
 10
5.978036316749581
 20
16.85788638847859
 30
0.0
 40
1.522735000559103
210
0.0
220
0.0
230
-1.0
100
AcDbArc
 50
352.8070909804941
 51
4.050493745758506
  0
LINE
  5
13F
330
1F
100
AcDbEntity
  8
0
370
    -3
100
AcDbLine
 10
-7.457995118655859
 20
16.54925573343918
 30
0.0
 11
-7.66647987769926
 21
16.64456020980606
 31
0.0
  0
SPLINE
  5
140
330
1F
100
AcDbEntity
  8
0
370
    -3
100
AcDbSpline
210
0.0
220
0.0
230
1.0
 70
     8
 71
     3
 72
    12
 73
     8
 74
     0
 42
0.000000001
 43
0.0000000001
 40
-5.0
 40
-5.0
 40
-5.0
 40
-5.0
 40
-4.0
 40
-3.0
 40
-2.0
 40
-1.0
 40
0.0
 40
0.0
 40
0.0
 40
0.0
 10
-7.66647987769926
 20
16.64456020980606
 30
0.0
 10
-7.695614472378423
 20
16.65787848449816
 30
0.0
 10
-7.753068103642221
 20
16.68593710958039
 30
0.0
 10
-7.841516062182052
 20
16.72438371421259
 30
0.0
 10
-7.917668001568671
 20
16.78442229352177
 30
0.0
 10
-7.975097405242224
 20
16.86205449195832
 30
0.0
 10
-8.00519670196249
 20
16.91868890214906
 30
0.0
 10
-8.018623112497579
 20
16.94775130585396
 30
0.0
  0
SPLINE
  5
141
330
1F
100
AcDbEntity
  8
0
370
    -3
100
AcDbSpline
210
0.0
220
0.0
230
1.0
 70
     8
 71
     3
 72
    11
 73
     7
 74
     0
 42
0.000000001
 43
0.0000000001
 40
0.0
 40
0.0
 40
0.0
 40
0.0
 40
1.0
 40
2.0
 40
3.0
 40
4.0
 40
4.0
 40
4.0
 40
4.0
 10
-8.018623112497579
 20
16.94775130585396
 30
0.0
 10
-8.04142331288105
 20
16.99884685740676
 30
0.0
 10
-8.077543216853456
 20
17.10565433112524
 30
0.0
 10
-8.111757467980823
 20
17.26860582186454
 30
0.0
 10
-8.132582340442895
 20
17.44175275032035
 30
0.0
 10
-8.154781035927414
 20
17.53582829672999
 30
0.0
 10
-8.152658671575608
 20
17.62197609561724
 30
0.0
  0
SPLINE
  5
142
330
1F
100
AcDbEntity
  8
0
370
    -3
100
AcDbSpline
210
0.0
220
0.0
230
1.0
 70
     8
 71
     3
 72
    14
 73
    10
 74
     0
 42
0.000000001
 43
0.0000000001
 40
4.0
 40
4.0
 40
4.0
 40
4.0
 40
5.0
 40
6.0
 40
7.0
 40
8.0
 40
9.0
 40
10.0
 40
11.0
 40
11.0
 40
11.0
 40
11.0
 10
-8.152658671575608
 20
17.62197609561724
 30
0.0
 10
-8.137237084250586
 20
17.69825926273653
 30
0.0
 10
-7.988762300807309
 20
17.73933674348216
 30
0.0
 10
-7.785901071667354
 20
17.75326654625906
 30
0.0
 10
-7.576156417959396
 20
17.74405229173908
 30
0.0
 10
-7.369294902364175
 20
17.72268640503891
 30
0.0
 10
-7.162567669052692
 20
17.69612395964518
 30
0.0
 10
-6.956361336743043
 20
17.66673584364192
 30
0.0
 10
-6.819001905078778
 20
17.64620027364501
 30
0.0
 10
-6.749956343887419
 20
17.63577110367058
 30
0.0
  0
SPLINE
  5
143
330
1F
100
AcDbEntity
  8
0
370
    -3
100
AcDbSpline
210
0.0
220
0.0
230
1.0
 70
     8
 71
     3
 72
    14
 73
    10
 74
     0
 42
0.000000001
 43
0.0000000001
 40
11.0
 40
11.0
 40
11.0
 40
11.0
 40
12.0
 40
13.0
 40
14.0
 40
15.0
 40
16.0
 40
17.0
 40
18.0
 40
18.0
 40
18.0
 40
18.0
 10
-6.749956343887419
 20
17.63577110367058
 30
0.0
 10
-6.431047902308705
 20
17.58706309426626
 30
0.0
 10
-5.793969290090786
 20
17.48853881208038
 30
0.0
 10
-4.831586624138282
 20
17.39358847370241
 30
0.0
 10
-3.866437134085402
 20
17.33659146695206
 30
0.0
 10
-2.900089157315108
 20
17.30738070823855
 30
0.0
 10
-1.933440922364071
 20
17.29448321350819
 30
0.0
 10
-0.9667248695257058
 20
17.29030975792125
 30
0.0
 10
-0.3222448384828454
 20
17.29004468168941
 30
0.0
 10
-0.0000048409038982
 20
17.29004012639781
 30
0.0
  0
SPLINE
  5
144
330
1F
100
AcDbEntity
  8
0
370
    -3
100
AcDbSpline
210
0.0
220
0.0
230
1.0
 70
     8
 71
     3
 72
    14
 73
    10
 74
     0
 42
0.000000001
 43
0.0000000001
 40
18.0
 40
18.0
 40
18.0
 40
18.0
 40
19.0
 40
20.0
 40
21.0
 40
22.0
 40
23.0
 40
24.0
 40
25.0
 40
25.0
 40
25.0
 40
25.0
 10
-0.0000048409038982
 20
17.29004012639781
 30
0.0
 10
0.322235156675049
 20
17.29004468168941
 30
0.0
 10
0.9667151877179094
 20
17.29030975792125
 30
0.0
 10
1.933431240556274
 20
17.29448321350819
 30
0.0
 10
2.900079475507312
 20
17.30738070823855
 30
0.0
 10
3.866427452277605
 20
17.33659146695206
 30
0.0
 10
4.831576942330472
 20
17.39358847370241
 30
0.0
 10
5.793959608282975
 20
17.48853881208038
 30
0.0
 10
6.431038220500895
 20
17.58706309426626
 30
0.0
 10
6.749946662079608
 20
17.63577110367058
 30
0.0
  0
SPLINE
  5
145
330
1F
100
AcDbEntity
  8
0
370
    -3
100
AcDbSpline
210
0.0
220
0.0
230
1.0
 70
     8
 71
     3
 72
    14
 73
    10
 74
     0
 42
0.000000001
 43
0.0000000001
 40
25.0
 40
25.0
 40
25.0
 40
25.0
 40
26.0
 40
27.0
 40
28.0
 40
29.0
 40
30.0
 40
31.0
 40
32.0
 40
32.0
 40
32.0
 40
32.0
 10
6.749946662079608
 20
17.63577110367058
 30
0.0
 10
6.818992223270968
 20
17.64620027364501
 30
0.0
 10
6.956351654935233
 20
17.66673584364192
 30
0.0
 10
7.162557987244881
 20
17.69612395964518
 30
0.0
 10
7.369285220556364
 20
17.72268640503891
 30
0.0
 10
7.576146736151586
 20
17.74405229173908
 30
0.0
 10
7.785891389859543
 20
17.75326654625906
 30
0.0
 10
7.988752618999499
 20
17.73933674348216
 30
0.0
 10
8.137227402442761
 20
17.69825926273653
 30
0.0
 10
8.152648989767783
 20
17.62197609561724
 30
0.0
  0
SPLINE
  5
146
330
1F
100
AcDbEntity
  8
0
370
    -3
100
AcDbSpline
210
0.0
220
0.0
230
1.0
 70
     8
 71
     3
 72
    11
 73
     7
 74
     0
 42
0.000000001
 43
0.0000000001
 40
32.0
 40
32.0
 40
32.0
 40
32.0
 40
33.0
 40
34.0
 40
35.0
 40
36.0
 40
36.0
 40
36.0
 40
36.0
 10
8.152648989767783
 20
17.62197609561724
 30
0.0
 10
8.154771354119589
 20
17.53582829672999
 30
0.0
 10
8.13257265863507
 20
17.44175275032035
 30
0.0
 10
8.111747786172998
 20
17.26860582186454
 30
0.0
 10
8.077533535045632
 20
17.10565433112524
 30
0.0
 10
8.041413631073226
 20
16.99884685740676
 30
0.0
 10
8.018613430689754
 20
16.94775130585396
 30
0.0
  0
SPLINE
  5
147
330
1F
100
AcDbEntity
  8
0
370
    -3
100
AcDbSpline
210
0.0
220
0.0
230
1.0
 70
     8
 71
     3
 72
    12
 73
     8
 74
     0
 42
0.000000001
 43
0.0000000001
 40
36.0
 40
36.0
 40
36.0
 40
36.0
 40
37.0
 40
38.0
 40
39.0
 40
40.0
 40
41.0
 40
41.0
 40
41.0
 40
41.0
 10
8.018613430689754
 20
16.94775130585396
 30
0.0
 10
8.005187020154665
 20
16.91868890214906
 30
0.0
 10
7.975087723434413
 20
16.86205449195832
 30
0.0
 10
7.917658319760861
 20
16.78442229352177
 30
0.0
 10
7.841506380374241
 20
16.72438371421259
 30
0.0
 10
7.75305842183441
 20
16.68593710958039
 30
0.0
 10
7.695604790570613
 20
16.65787848449816
 30
0.0
 10
7.666470195891449
 20
16.64456020980606
 30
0.0
  0
LINE
  5
148
330
1F
100
AcDbEntity
  8
0
370
    -3
100
AcDbLine
 10
7.666470195891449
 20
16.64456020980606
 30
0.0
 11
7.457985436848048
 21
16.54925573343918
 31
0.0
  0
SPLINE
  5
149
330
1F
100
AcDbEntity
  8
0
370
    -3
100
AcDbSpline
210
0.0
220
0.0
230
1.0
 70
     8
 71
     3
 72
    10
 73
     6
 74
     0
 42
0.000000001
 43
0.0000000001
 40
-3.0
 40
-3.0
 40
-3.0
 40
-3.0
 40
-2.0
 40
-1.0
 40
0.0
 40
0.0
 40
0.0
 40
0.0
 10
7.782371819005064
 20
16.69896151423005
 30
0.0
 10
7.752144574929133
 20
16.62299276540681
 30
0.0
 10
7.672776086960042
 20
16.47934828289399
 30
0.0
 10
7.522034182918176
 20
16.28552503128577
 30
0.0
 10
7.25052899516055
 20
16.01352218759716
 30
0.0
 10
7.189138774285055
 20
15.95963199912742
 30
0.0
  0
SPLINE
  5
14A
330
1F
100
AcDbEntity
  8
0
370
    -3
100
AcDbSpline
210
0.0
220
0.0
230
1.0
 70
     8
 71
     3
 72
    14
 73
    10
 74
     0
 42
0.000000001
 43
0.0000000001
 40
-7.0
 40
-7.0
 40
-7.0
 40
-7.0
 40
-6.0
 40
-5.0
 40
-4.0
 40
-3.0
 40
-2.0
 40
-1.0
 40
0.0
 40
0.0
 40
0.0
 40
0.0
 10
7.189138774285055
 20
15.95963199912742
 30
0.0
 10
6.931400515106375
 20
15.73338157740029
 30
0.0
 10
6.367332738949457
 20
15.34356193656609
 30
0.0
 10
5.530207871273021
 20
14.74819270186414
 30
0.0
 10
4.690889672161219
 20
14.15537458543926
 30
0.0
 10
3.852358303382928
 20
13.5615914688737
 30
0.0
 10
3.013802083115991
 20
12.9678041464154
 30
0.0
 10
2.17542626153562
 20
12.37377283458554
 30
0.0
 10
1.616582225355657
 20
11.9776464624921
 30
0.0
 10
1.33718110910641
 20
11.77955424710001
 30
0.0
  0
ARC
  5
14B
330
1F
100
AcDbEntity
  8
0
370
    -3
100
AcDbCircle
 10
-3.407334173827593
 20
15.411564345221
 30
0.0
 40
3.977895748300555
100
AcDbArc
 50
166.9340418748857
 51
175.1467169977023
  0
SPLINE
  5
14C
330
1F
100
AcDbEntity
  8
0
370
    -3
100
AcDbSpline
210
0.0
220
0.0
230
1.0
 70
    12
 71
     3
 72
    14
 73
    10
 74
     0
 42
0.000000001
 43
0.0000000001
 40
0.570184501037579
 40
0.570184501037579
 40
0.570184501037579
 40
0.570184501037579
 40
1.570184501037579
 40
1.570184501037579
 40
1.570184501037579
 40
1.629422132409788
 40
1.629422132409788
 40
1.629422132409788
 40
2.629422132409788
 40
2.629422132409788
 40
2.629422132409788
 40
2.629422132409788
 10
-7.370967618443773
 20
15.74811226315791
 30
0.0
 41
0.9999999999999998
 10
-7.372226651009656
 20
15.73693029271685
 30
0.0
 41
0.9999999999999998
 10
-7.362622773706549
 20
15.72776124222023
 30
0.0
 41
0.9999999999999998
 10
-7.352387149535888
 20
15.7257443628447
 30
0.0
 41
0.9999999999999998
 10
-7.332949821216646
 20
15.72222327729803
 30
0.0
 41
0.9999999999999998
 10
-7.313512492897361
 20
15.71870219175137
 30
0.0
 41
0.9999999999999998
 10
-7.294075164578118
 20
15.71518110620468
 30
0.0
 41
1.0
 10
-7.279938965771862
 20
15.71225243381363
 30
0.0
 41
1.0
 10
-7.271311693253452
 20
15.7258114137838
 30
0.0
 41
1.0
 10
-7.267384717802969
 20
15.73833440378442
 30
0.0
 41
1.0
  0
LINE
  5
14D
330
1F
100
AcDbEntity
  8
0
370
    -3
100
AcDbLine
 10
-7.267384717802969
 20
15.73833440378442
 30
0.0
 11
-7.156722762916374
 21
16.09123158177049
 31
0.0
  0
SPLINE
  5
14E
330
1F
100
AcDbEntity
  8
0
370
    -3
100
AcDbSpline
210
0.0
220
0.0
230
1.0
 70
     8
 71
     3
 72
    12
 73
     8
 74
     0
 42
0.000000001
 43
0.0000000001
 40
2.999263296275908
 40
2.999263296275908
 40
2.999263296275908
 40
2.999263296275908
 40
3.999263296275908
 40
4.999263296275908
 40
5.999263296275908
 40
6.999263296275908
 40
7.999263296275908
 40
7.999263296275908
 40
7.999263296275908
 40
7.999263296275908
 10
-7.156722762916374
 20
16.09123158177049
 30
0.0
 10
-7.150566738244521
 20
16.09539334803128
 30
0.0
 10
-7.136100632774827
 20
16.09925491729183
 30
0.0
 10
-7.114139772776724
 20
16.10202142551377
 30
0.0
 10
-7.092647593669838
 20
16.10737034878014
 30
0.0
 10
-7.072127144978552
 20
16.11690164667034
 30
0.0
 10
-7.063727791260135
 20
16.12983475308118
 30
0.0
 10
-7.061135012601184
 20
16.1367010156455
 30
0.0
  0
SPLINE
  5
14F
330
1F
100
AcDbEntity
  8
0
370
    -3
100
AcDbSpline
210
0.0
220
0.0
230
1.0
 70
     8
 71
     3
 72
    10
 73
     6
 74
     0
 42
0.000000001
 43
0.0000000001
 40
-0.1345875693698292
 40
-0.1345875693698292
 40
-0.1345875693698292
 40
-0.1345875693698292
 40
1.0
 40
2.0
 40
3.0
 40
3.0
 40
3.0
 40
3.0
 10
-7.327516577528229
 20
16.08671211154899
 30
0.0
 10
-7.394113093125043
 20
16.15115325345938
 30
0.0
 10
-7.515281202570264
 20
16.27682963117867
 30
0.0
 10
-7.672785768767852
 20
16.47934828289399
 30
0.0
 10
-7.752154256736944
 20
16.62299276540681
 30
0.0
 10
-7.782381500812875
 20
16.69896151423005
 30
0.0
  0
SPLINE
  5
150
330
1F
100
AcDbEntity
  8
0
370
    -3
100
AcDbSpline
210
0.0
220
0.0
230
1.0
 70
     8
 71
     3
 72
    14
 73
    10
 74
     0
 42
0.000000001
 43
0.0000000001
 40
0.0
 40
0.0
 40
0.0
 40
0.0
 40
1.0
 40
2.0
 40
3.0
 40
4.0
 40
5.0
 40
6.0
 40
7.008970033975164
 40
7.008970033975164
 40
7.008970033975164
 40
7.008970033975164
 10
-1.337190790914235
 20
11.77955424710001
 30
0.0
 10
-1.616591907163468
 20
11.9776464624921
 30
0.0
 10
-2.175435943343416
 20
12.37377283458554
 30
0.0
 10
-3.013811764923787
 20
12.9678041464154
 30
0.0
 10
-3.852367985190739
 20
13.5615914688737
 30
0.0
 10
-4.69089935396903
 20
14.15537458543926
 30
0.0
 10
-5.530217553080831
 20
14.74819270186414
 30
0.0
 10
-6.369845433592104
 20
15.34534209732044
 30
0.0
 10
-6.936470024411705
 20
15.73687813014072
 30
0.0
 10
-7.196078335713523
 20
15.96572801007275
 30
0.0
  0
LINE
  5
151
330
1F
100
AcDbEntity
  8
0
370
    -3
100
AcDbLine
 10
-0.9843252550521981
 20
8.766473876440216
 30
0.0
 11
-0.9843240363846348
 21
8.79342704640949
 31
0.0
  0
LINE
  5
152
330
1F
100
AcDbEntity
  8
0
370
    -3
100
AcDbLine
 10
-0.9843240363846348
 20
8.79342704640949
 30
0.0
 11
-0.8593222029518017
 21
8.918427805676231
 31
0.0
  0
LINE
  5
153
330
1F
100
AcDbEntity
  8
0
370
    -3
100
AcDbLine
 10
-0.8593222029518017
 20
8.918427805676231
 30
0.0
 11
0.8593125211439769
 21
8.918427805676231
 31
0.0
  0
LINE
  5
154
330
1F
100
AcDbEntity
  8
0
370
    -3
100
AcDbLine
 10
0.8593125211439769
 20
8.918427805676231
 30
0.0
 11
0.9843143545768243
 21
8.79342704640949
 31
0.0
  0
LINE
  5
155
330
1F
100
AcDbEntity
  8
0
370
    -3
100
AcDbLine
 10
0.9843143545768243
 20
8.79342704640949
 30
0.0
 11
0.9843155732444018
 21
8.766473876440216
 31
0.0
  0
LINE
  5
156
330
1F
100
AcDbEntity
  8
0
370
    -3
100
AcDbLine
 10
-0.5512543889104791
 20
8.919020668987102
 30
0.0
 11
-0.5512543889104791
 21
11.1741338275
 31
0.0
  0
LINE
  5
157
330
1F
100
AcDbEntity
  8
0
370
    -3
100
AcDbLine
 10
0.5643160501751083
 20
8.920103615157814
 30
0.0
 11
0.5599398214728808
 21
11.1741338275
 31
0.0
  0
SPLINE
  5
158
330
1F
100
AcDbEntity
  8
0
370
    -3
100
AcDbSpline
210
0.0
220
0.0
230
1.0
 70
    12
 71
     2
 72
     6
 73
     3
 74
     0
 42
0.000000001
 43
0.0000000001
 40
-12.63668818246522
 40
-12.63668818246522
 40
-12.63668818246522
 40
-12.56077101712937
 40
-12.56077101712937
 40
-12.56077101712937
 10
-1.132114703879747
 20
6.431000000000007
 30
0.0
 41
1.000000000000003
 10
-1.170073286547641
 20
6.431000000000419
 30
0.0
 41
0.7178369594848825
 10
-1.172070131699397
 20
6.469102075273192
 30
0.0
 41
0.9793258461557549
  0
SPLINE
  5
159
330
1F
100
AcDbEntity
  8
0
370
    -3
100
AcDbSpline
210
0.0
220
0.0
230
1.0
 70
    28
 71
     2
 72
     6
 73
     3
 74
     0
 42
0.000000001
 43
0.0000000001
 40
-12.56077101712937
 40
-12.56077101712937
 40
-12.56077101712937
 40
-12.1366219595079
 40
-12.1366219595079
 40
-12.1366219595079
 10
-1.172070131699385
 20
6.469102075273187
 30
0.0
 41
0.9999998224659405
 10
-1.183174266299797
 20
6.680983725982658
 30
0.0
 41
0.9999998224659405
 10
-1.19427840090021
 20
6.89286537669213
 30
0.0
 41
0.9999998224659405
  0
SPLINE
  5
15A
330
1F
100
AcDbEntity
  8
0
370
    -3
100
AcDbSpline
210
0.0
220
0.0
230
1.0
 70
     8
 71
     3
 72
     9
 73
     5
 74
     0
 42
0.000000001
 43
0.0000000001
 40
-12.1366219595079
 40
-12.1366219595079
 40
-12.1366219595079
 40
-12.1366219595079
 40
-11.1366219595079
 40
-10.1366219595079
 40
-10.1366219595079
 40
-10.1366219595079
 40
-10.1366219595079
 10
-1.194278400900231
 20
6.892865376692129
 30
0.0
 10
-1.196281893412504
 20
6.935187549712609
 30
0.0
 10
-1.232604992025344
 20
7.017620295907278
 30
0.0
 10
-1.31367131172621
 20
7.05689842211693
 30
0.0
 10
-1.355893429903887
 20
7.060430197661944
 30
0.0
  0
ARC
  5
15B
330
1F
100
AcDbEntity
  8
0
370
    -3
100
AcDbCircle
 10
10.26535836540052
 20
-34.35308815798362
 30
0.0
 40
43.01317235316709
100
AcDbArc
 50
105.6749129988882
 51
107.0900000000102
  0
LINE
  5
15C
330
1F
100
AcDbEntity
  8
0
370
    -3
100
AcDbLine
 10
-2.375073286547916
 20
6.760808319189124
 30
0.0
 11
-11.04867778094834
 21
4.094116174154564
 31
0.0
  0
SPLINE
  5
15D
330
1F
100
AcDbEntity
  8
0
370
    -3
100
AcDbSpline
210
0.0
220
0.0
230
1.0
 70
     8
 71
     3
 72
    12
 73
     8
 74
     0
 42
0.000000001
 43
0.0000000001
 40
-0.0000000000000304
 40
-0.0000000000000304
 40
-0.0000000000000304
 40
-0.0000000000000304
 40
0.9999999999999696
 40
1.99999999999997
 40
2.99999999999997
 40
3.99999999999997
 40
4.99999999999997
 40
4.99999999999997
 40
4.99999999999997
 40
4.99999999999997
 10
-11.04867778094834
 20
4.094116174154564
 30
0.0
 10
-11.11102744739483
 20
4.075046011165895
 30
0.0
 10
-11.23384543480645
 20
4.037068159196608
 30
0.0
 10
-11.42062075669513
 20
3.96548556117969
 30
0.0
 10
-11.5373361501785
 20
3.799412025319498
 30
0.0
 10
-11.55878437405275
 20
3.602719649415306
 30
0.0
 10
-11.5686898032431
 20
3.473986367235881
 30
0.0
 10
-11.57464132960081
 20
3.409150946368086
 30
0.0
  0
SPLINE
  5
15E
330
1F
100
AcDbEntity
  8
0
370
    -3
100
AcDbSpline
210
0.0
220
0.0
230
1.0
 70
     8
 71
     3
 72
     8
 73
     4
 74
     0
 42
0.000000001
 43
0.0000000001
 40
4.99999999999997
 40
4.99999999999997
 40
4.99999999999997
 40
4.99999999999997
 40
5.99999999999997
 40
5.99999999999997
 40
5.99999999999997
 40
5.99999999999997
 10
-11.57464132960081
 20
3.409150946368086
 30
0.0
 10
-11.5804963246913
 20
3.342720755878815
 30
0.0
 10
-11.58926728941483
 20
3.276547634346713
 30
0.0
 10
-11.60092050597295
 20
3.210885973808587
 30
0.0
  0
LINE
  5
15F
330
1F
100
AcDbEntity
  8
0
370
    -3
100
AcDbLine
 10
-11.60092050597295
 20
3.210885973808587
 30
0.0
 11
-11.67207328861525
 21
2.80999999999996
 31
0.0
  0
LINE
  5
160
330
1F
100
AcDbEntity
  8
0
370
    -3
100
AcDbLine
 10
-11.67207328861525
 20
2.80999999999996
 30
0.0
 11
-12.34207325099379
 21
2.810000000000002
 31
0.0
  0
LINE
  5
161
330
1F
100
AcDbEntity
  8
0
370
    -3
100
AcDbLine
 10
-12.34207325099379
 20
2.810000000000002
 30
0.0
 11
-12.4031621944184
 21
3.210799108550958
 31
0.0
  0
SPLINE
  5
162
330
1F
100
AcDbEntity
  8
0
370
    -3
100
AcDbSpline
210
0.0
220
0.0
230
1.0
 70
     8
 71
     3
 72
     8
 73
     4
 74
     0
 42
0.000000001
 43
0.0000000001
 40
7.48258566920344
 40
7.48258566920344
 40
7.48258566920344
 40
7.48258566920344
 40
8.482585669203441
 40
8.482585669203441
 40
8.482585669203441
 40
8.482585669203441
 10
-12.4031621944184
 20
3.210799108550958
 30
0.0
 10
-12.41321014013637
 20
3.27678226020619
 30
0.0
 10
-12.41770314894538
 20
3.343612277085683
 30
0.0
 10
-12.4165519280301
 20
3.410346159261849
 30
0.0
  0
SPLINE
  5
163
330
1F
100
AcDbEntity
  8
0
370
    -3
100
AcDbSpline
210
0.0
220
0.0
230
1.0
 70
     8
 71
     3
 72
    12
 73
     8
 74
     0
 42
0.000000001
 43
0.0000000001
 40
8.482585669203441
 40
8.482585669203441
 40
8.482585669203441
 40
8.482585669203441
 40
9.482585669203441
 40
10.48258566920344
 40
11.48258566920344
 40
12.48258566920344
 40
13.48258566920344
 40
13.48258566920344
 40
13.48258566920344
 40
13.48258566920344
 10
-12.4165519280301
 20
3.410346159261849
 30
0.0
 10
-12.41402273806713
 20
3.55632409360669
 30
0.0
 10
-12.40889141672484
 20
3.846159826462852
 30
0.0
 10
-12.40151627320252
 20
4.288864396577793
 30
0.0
 10
-12.16540174214309
 20
4.680765451566771
 30
0.0
 10
-11.776382336903
 20
4.894453002485506
 30
0.0
 10
-11.49649530916219
 20
4.976465794489343
 30
0.0
 10
-11.36057428741023
 20
5.029327428909596
 30
0.0
  0
LINE
  5
164
330
1F
100
AcDbEntity
  8
0
370
    -3
100
AcDbLine
 10
-11.36057428741023
 20
5.029327428909596
 30
0.0
 11
-2.375065705517329
 21
8.312283232022367
 31
0.0
  0
ARC
  5
165
330
1F
100
AcDbEntity
  8
0
370
    -3
100
AcDbCircle
 10
-7.345098874372979
 20
-18.29198334153534
 30
0.0
 40
28.32434640688244
210
0.0
220
0.0
230
-1.0
100
AcDbArc
 50
69.9296618742988
 51
72.81173134510618
  0
LINE
  5
166
330
1F
100
AcDbEntity
  8
0
370
    -3
100
AcDbLine
 10
-1.025098127858868
 20
8.767366272247003
 30
0.0
 11
1.025088446051058
 21
8.767366272247003
 31
0.0
  0
ARC
  5
167
330
1F
100
AcDbEntity
  8
0
370
    -3
100
AcDbCircle
 10
7.34510855618079
 20
-18.29198334153534
 30
0.0
 40
28.32434640688244
210
0.0
220
0.0
230
-1.0
100
AcDbArc
 50
107.1882686548938
 51
110.0703381257012
  0
LINE
  5
168
330
1F
100
AcDbEntity
  8
0
370
    -3
100
AcDbLine
 10
2.375056023709504
 20
8.312283232022367
 30
0.0
 11
11.36056460560241
 21
5.029327428909596
 31
0.0
  0
SPLINE
  5
169
330
1F
100
AcDbEntity
  8
0
370
    -3
100
AcDbSpline
210
0.0
220
0.0
230
1.0
 70
     8
 71
     3
 72
    12
 73
     8
 74
     0
 42
0.000000001
 43
0.0000000001
 40
37.51521629283301
 40
37.51521629283301
 40
37.51521629283301
 40
37.51521629283301
 40
38.51521629283301
 40
39.51521629283301
 40
40.51521629283301
 40
41.51521629283301
 40
42.51521629283301
 40
42.51521629283301
 40
42.51521629283301
 40
42.51521629283301
 10
11.36056460560241
 20
5.029327428909596
 30
0.0
 10
11.49648562735439
 20
4.976465794489343
 30
0.0
 10
11.7763726550952
 20
4.894453002485506
 30
0.0
 10
12.16539206033528
 20
4.680765451566771
 30
0.0
 10
12.40150659139471
 20
4.288864396577793
 30
0.0
 10
12.40888173491703
 20
3.846159826462852
 30
0.0
 10
12.41401305625931
 20
3.55632409360669
 30
0.0
 10
12.41654224622229
 20
3.410346159261849
 30
0.0
  0
SPLINE
  5
16A
330
1F
100
AcDbEntity
  8
0
370
    -3
100
AcDbSpline
210
0.0
220
0.0
230
1.0
 70
     8
 71
     3
 72
     8
 73
     4
 74
     0
 42
0.000000001
 43
0.0000000001
 40
42.51521629283301
 40
42.51521629283301
 40
42.51521629283301
 40
42.51521629283301
 40
43.51521629283301
 40
43.51521629283301
 40
43.51521629283301
 40
43.51521629283301
 10
12.41654224622229
 20
3.410346159261849
 30
0.0
 10
12.41769346713755
 20
3.343612277085683
 30
0.0
 10
12.41320045832856
 20
3.27678226020619
 30
0.0
 10
12.40315251261057
 20
3.210799108550958
 30
0.0
  0
LINE
  5
16B
330
1F
100
AcDbEntity
  8
0
370
    -3
100
AcDbLine
 10
12.40315251261057
 20
3.210799108550958
 30
0.0
 11
12.342063569186
 21
2.810000000000002
 31
0.0
  0
LINE
  5
16C
330
1F
100
AcDbEntity
  8
0
370
    -3
100
AcDbLine
 10
12.342063569186
 20
2.810000000000002
 30
0.0
 11
11.67206360680746
 21
2.80999999999996
 31
0.0
  0
LINE
  5
16D
330
1F
100
AcDbEntity
  8
0
370
    -3
100
AcDbLine
 10
11.67206360680746
 20
2.80999999999996
 30
0.0
 11
11.60091082416514
 21
3.210885973808587
 31
0.0
  0
SPLINE
  5
16E
330
1F
100
AcDbEntity
  8
0
370
    -3
100
AcDbSpline
210
0.0
220
0.0
230
1.0
 70
     8
 71
     3
 72
     8
 73
     4
 74
     0
 42
0.000000001
 43
0.0000000001
 40
44.99780196203648
 40
44.99780196203648
 40
44.99780196203648
 40
44.99780196203648
 40
45.99780196203648
 40
45.99780196203648
 40
45.99780196203648
 40
45.99780196203648
 10
11.60091082416514
 20
3.210885973808587
 30
0.0
 10
11.58925760760701
 20
3.276547634346713
 30
0.0
 10
11.5804866428835
 20
3.342720755878815
 30
0.0
 10
11.57463164779301
 20
3.409150946368086
 30
0.0
  0
SPLINE
  5
16F
330
1F
100
AcDbEntity
  8
0
370
    -3
100
AcDbSpline
210
0.0
220
0.0
230
1.0
 70
     8
 71
     3
 72
    12
 73
     8
 74
     0
 42
0.000000001
 43
0.0000000001
 40
45.99780196203648
 40
45.99780196203648
 40
45.99780196203648
 40
45.99780196203648
 40
46.99780196203648
 40
47.99780196203648
 40
48.99780196203648
 40
49.99780196203648
 40
50.99780196203648
 40
50.99780196203648
 40
50.99780196203648
 40
50.99780196203648
 10
11.57463164779301
 20
3.409150946368086
 30
0.0
 10
11.56868012143531
 20
3.473986367235881
 30
0.0
 10
11.55877469224492
 20
3.602719649415306
 30
0.0
 10
11.53732646837068
 20
3.799412025319498
 30
0.0
 10
11.42061107488732
 20
3.96548556117969
 30
0.0
 10
11.23383575299863
 20
4.037068159196608
 30
0.0
 10
11.11101776558701
 20
4.075046011165895
 30
0.0
 10
11.04866809914051
 20
4.094116174154564
 30
0.0
  0
LINE
  5
170
330
1F
100
AcDbEntity
  8
0
370
    -3
100
AcDbLine
 10
11.04866809914051
 20
4.094116174154564
 30
0.0
 11
2.375063604740106
 21
6.760808319189124
 31
0.0
  0
ARC
  5
171
330
1F
100
AcDbEntity
  8
0
370
    -3
100
AcDbCircle
 10
-10.26536804720833
 20
-34.35308815798362
 30
0.0
 40
43.01317235316709
100
AcDbArc
 50
72.9099999999898
 51
74.32508700111181
  0
SPLINE
  5
172
330
1F
100
AcDbEntity
  8
0
370
    -3
100
AcDbSpline
210
0.0
220
0.0
230
1.0
 70
     8
 71
     3
 72
     9
 73
     5
 74
     0
 42
0.000000001
 43
0.0000000001
 40
61.13442392154434
 40
61.13442392154434
 40
61.13442392154434
 40
61.13442392154434
 40
62.13442392154434
 40
63.13442392154434
 40
63.13442392154434
 40
63.13442392154434
 40
63.13442392154434
 10
1.355883748096076
 20
7.060430197661944
 30
0.0
 10
1.3136616299184
 20
7.05689842211693
 30
0.0
 10
1.232595310217533
 20
7.017620295907278
 30
0.0
 10
1.196272211604679
 20
6.935187549712609
 30
0.0
 10
1.194268719092406
 20
6.892865376692129
 30
0.0
  0
SPLINE
  5
173
330
1F
100
AcDbEntity
  8
0
370
    -3
100
AcDbSpline
210
0.0
220
0.0
230
1.0
 70
    28
 71
     2
 72
     6
 73
     3
 74
     0
 42
0.000000001
 43
0.0000000001
 40
63.13442392154434
 40
63.13442392154434
 40
63.13442392154434
 40
63.55857297916582
 40
63.55857297916582
 40
63.55857297916582
 10
1.194268719092414
 20
6.89286537669213
 30
0.0
 41
0.9999998224659405
 10
1.183164584491994
 20
6.680983725982658
 30
0.0
 41
0.9999998224659405
 10
1.172060449891575
 20
6.469102075273187
 30
0.0
 41
0.9999998224659405
  0
SPLINE
  5
174
330
1F
100
AcDbEntity
  8
0
370
    -3
100
AcDbSpline
210
0.0
220
0.0
230
1.0
 70
    12
 71
     2
 72
     6
 73
     3
 74
     0
 42
0.000000001
 43
0.0000000001
 40
63.55857297916582
 40
63.55857297916582
 40
63.55857297916582
 40
63.63449014450167
 40
63.63449014450167
 40
63.63449014450167
 10
1.172060449891559
 20
6.469102075273192
 30
0.0
 41
0.9793258461557549
 10
1.170063604739866
 20
6.431000000000419
 30
0.0
 41
0.7178369594848825
 10
1.132105022071922
 20
6.431000000000007
 30
0.0
 41
1.000000000000003
  0
LINE
  5
175
330
1F
100
AcDbEntity
  8
0
100
AcDbLine
 10
-0.9480732865483219
 20
6.430999999999997
 30
0.0
 11
-0.9072369777322535
 21
4.804256707035009
 31
0.0
  0
LINE
  5
176
330
1F
100
AcDbEntity
  8
0
100
AcDbLine
 10
-0.9072369777322535
 20
4.804256707035009
 30
0.0
 11
-0.8760575385168039
 21
4.424729147980003
 31
0.0
  0
LINE
  5
177
330
1F
100
AcDbEntity
  8
0
100
AcDbLine
 10
-0.8760575385168039
 20
4.424729147980003
 30
0.0
 11
-0.8760575385168039
 21
2.545003766050272
 31
0.0
  0
SPLINE
  5
178
330
1F
100
AcDbEntity
  8
0
370
    -3
100
AcDbSpline
210
0.0
220
0.0
230
1.0
 70
    24
 71
     5
 72
    12
 73
     6
 74
     0
 42
0.000000001
 43
0.0000000001
 40
-9.317523315759814
 40
-9.317523315759814
 40
-9.317523315759814
 40
-9.317523315759814
 40
-9.317523315759814
 40
-9.317523315759814
 40
0.0
 40
0.0
 40
0.0
 40
0.0
 40
0.0
 40
0.0
 10
-0.4000732865461742
 20
4.561749976091974
 30
0.0
 10
-0.4170732865466675
 20
5.156656627125912
 30
0.0
 10
-0.4340732865468624
 20
5.751563278089961
 30
0.0
 10
-0.4510732865470573
 20
6.346469929054521
 30
0.0
 10
-0.4680732865472237
 20
6.941376580018542
 30
0.0
 10
-0.4850732865469496
 20
7.536283230876677
 30
0.0
  0
SPLINE
  5
179
330
1F
100
AcDbEntity
  8
0
370
    -3
100
AcDbSpline
210
0.0
220
0.0
230
1.0
 70
     8
 71
     3
 72
    12
 73
     8
 74
     0
 42
0.000000001
 43
0.0000000001
 40
0.0
 40
0.0
 40
0.0
 40
0.0
 40
1.0
 40
2.0
 40
3.0
 40
4.0
 40
5.0
 40
5.0
 40
5.0
 40
5.0
 10
-0.4850732865469496
 20
7.536283230876677
 30
0.0
 10
-0.4847670942188529
 20
7.605499916615969
 30
0.0
 10
-0.4808815073091921
 20
7.743313627246621
 30
0.0
 10
-0.4700489716861398
 20
7.95197725811218
 30
0.0
 10
-0.3822642517252461
 20
8.145079686160727
 30
0.0
 10
-0.221278712126221
 20
8.28504910930728
 30
0.0
 10
-0.0809341697673744
 20
8.312530747182365
 30
0.0
 10
-0.0120737181317168
 20
8.312283231997881
 30
0.0
  0
LINE
  5
17A
330
1F
100
AcDbEntity
  8
0
370
    -3
100
AcDbLine
 10
-0.0120737181317168
 20
8.312283231997881
 30
0.0
 11
0.0120640363239062
 21
8.312283231997881
 31
0.0
  0
SPLINE
  5
17B
330
1F
100
AcDbEntity
  8
0
370
    -3
100
AcDbSpline
210
0.0
220
0.0
230
1.0
 70
     8
 71
     3
 72
    12
 73
     8
 74
     0
 42
0.000000001
 43
0.0000000001
 40
5.024137754455623
 40
5.024137754455623
 40
5.024137754455623
 40
5.024137754455623
 40
6.024137754455623
 40
7.024137754455623
 40
8.024137754455623
 40
9.024137754455623
 40
10.02413775445562
 40
10.02413775445562
 40
10.02413775445562
 40
10.02413775445562
 10
0.0120640363239062
 20
8.312283231997881
 30
0.0
 10
0.0809244879595781
 20
8.312530747182365
 30
0.0
 10
0.2212690303184104
 20
8.28504910930728
 30
0.0
 10
0.3822545699174356
 20
8.145079686160727
 30
0.0
 10
0.4700392898783434
 20
7.95197725811218
 30
0.0
 10
0.4808718255013673
 20
7.743313627246621
 30
0.0
 10
0.4847574124110565
 20
7.605499916615969
 30
0.0
 10
0.485063604739139
 20
7.536283230876677
 30
0.0
  0
SPLINE
  5
17C
330
1F
100
AcDbEntity
  8
0
370
    -3
100
AcDbSpline
210
0.0
220
0.0
230
1.0
 70
    24
 71
     5
 72
    12
 73
     6
 74
     0
 42
0.000000001
 43
0.0000000001
 40
10.02413775445562
 40
10.02413775445562
 40
10.02413775445562
 40
10.02413775445562
 40
10.02413775445562
 40
10.02413775445562
 40
19.34166107021544
 40
19.34166107021544
 40
19.34166107021544
 40
19.34166107021544
 40
19.34166107021544
 40
19.34166107021544
 10
0.485063604739139
 20
7.536283230876677
 30
0.0
 10
0.4680636047394131
 20
6.941376580018542
 30
0.0
 10
0.4510636047392467
 20
6.346469929054521
 30
0.0
 10
0.4340636047390518
 20
5.751563278089961
 30
0.0
 10
0.4170636047388712
 20
5.156656627125912
 30
0.0
 10
0.4000636047383637
 20
4.561749976091974
 30
0.0
  0
SPLINE
  5
17D
330
1F
100
AcDbEntity
  8
0
370
    -3
100
AcDbSpline
210
0.0
220
0.0
230
1.0
 70
     8
 71
     3
 72
     8
 73
     4
 74
     0
 42
0.000000001
 43
0.0000000001
 40
0.0
 40
0.0
 40
0.0
 40
0.0
 40
0.2000142821926441
 40
0.2000142821926441
 40
0.2000142821926441
 40
0.2000142821926441
 10
-0.373537117874406
 20
3.210664945030146
 30
0.0
 10
-0.3799104041036685
 20
3.276979963836496
 30
0.0
 10
-0.3833834655006712
 20
3.343639839810621
 30
0.0
 10
-0.3839123635492285
 20
3.410260555327255
 30
0.0
  0
SPLINE
  5
17E
330
1F
100
AcDbEntity
  8
0
370
    -3
100
AcDbSpline
210
0.0
220
0.0
230
1.0
 70
     8
 71
     2
 72
     6
 73
     3
 74
     0
 42
0.000000001
 43
0.0000000001
 40
0.2000142821926441
 40
0.2000142821926441
 40
0.2000142821926441
 40
1.200014282192644
 40
1.200014282192644
 40
1.200014282192644
 10
-0.3839123635492285
 20
3.410260555327255
 30
0.0
 10
-0.3860936231315435
 20
3.986094386872509
 30
0.0
 10
-0.4001637461568635
 20
4.561878854202092
 30
0.0
  0
SPLINE
  5
17F
330
1F
100
AcDbEntity
  8
0
370
    -3
100
AcDbSpline
210
0.0
220
0.0
230
1.0
 70
     8
 71
     2
 72
    10
 73
     7
 74
     0
 42
0.000000001
 43
0.0000000001
 40
1.200014282192644
 40
1.200014282192644
 40
1.200014282192644
 40
2.200014282192644
 40
3.200014282192644
 40
4.200014282192644
 40
5.200014282192644
 40
6.200014282192644
 40
6.200014282192644
 40
6.200014282192644
 10
-0.4001637461568635
 20
4.561878854202092
 30
0.0
 10
-0.399443854720829
 20
4.629170092152663
 30
0.0
 10
-0.366630478804467
 20
4.761420643609867
 30
0.0
 10
-0.299621538132925
 20
4.879949038410842
 30
0.0
 10
-0.2005488457565008
 20
4.97386060335289
 30
0.0
 10
-0.0748636328606551
 20
5.027948162777861
 30
0.0
 10
-0.0063599636125105
 20
5.029327428910108
 30
0.0
  0
LINE
  5
180
330
1F
100
AcDbEntity
  8
0
370
    -3
100
AcDbLine
 10
-0.0063599636125105
 20
5.029327428910108
 30
0.0
 11
0.0063502818046857
 21
5.029327428910108
 31
0.0
  0
SPLINE
  5
181
330
1F
100
AcDbEntity
  8
0
370
    -3
100
AcDbSpline
210
0.0
220
0.0
230
1.0
 70
     8
 71
     2
 72
    10
 73
     7
 74
     0
 42
0.000000001
 43
0.0000000001
 40
6.21272452760984
 40
6.21272452760984
 40
6.21272452760984
 40
7.21272452760984
 40
8.21272452760984
 40
9.21272452760984
 40
10.21272452760984
 40
11.21272452760984
 40
11.21272452760984
 40
11.21272452760984
 10
0.0063502818046857
 20
5.029327428910108
 30
0.0
 10
0.0748539510528303
 20
5.027948162777861
 30
0.0
 10
0.2005391639486902
 20
4.97386060335289
 30
0.0
 10
0.2996118563251002
 20
4.879949038410842
 30
0.0
 10
0.3666207969966564
 20
4.761420643609867
 30
0.0
 10
0.3994341729130184
 20
4.629170092152663
 30
0.0
 10
0.4001540643490529
 20
4.561878854202092
 30
0.0
  0
SPLINE
  5
182
330
1F
100
AcDbEntity
  8
0
370
    -3
100
AcDbSpline
210
0.0
220
0.0
230
1.0
 70
     8
 71
     2
 72
     6
 73
     3
 74
     0
 42
0.000000001
 43
0.0000000001
 40
11.21272452760984
 40
11.21272452760984
 40
11.21272452760984
 40
12.21272452760984
 40
12.21272452760984
 40
12.21272452760984
 10
0.4001540643490529
 20
4.561878854202092
 30
0.0
 10
0.3860839413237329
 20
3.986094386872509
 30
0.0
 10
0.3839026817414322
 20
3.410260555327255
 30
0.0
  0
SPLINE
  5
183
330
1F
100
AcDbEntity
  8
0
370
    -3
100
AcDbSpline
210
0.0
220
0.0
230
1.0
 70
     8
 71
     3
 72
     8
 73
     4
 74
     0
 42
0.000000001
 43
0.0000000001
 40
12.21272452760984
 40
12.21272452760984
 40
12.21272452760984
 40
12.21272452760984
 40
12.41273880980248
 40
12.41273880980248
 40
12.41273880980248
 40
12.41273880980248
 10
0.3839026817414322
 20
3.410260555327255
 30
0.0
 10
0.3833737836928606
 20
3.343639839810621
 30
0.0
 10
0.3799007222958721
 20
3.276979963836496
 30
0.0
 10
0.3735274360665954
 20
3.210664945030146
 30
0.0
  0
LINE
  5
184
330
1F
100
AcDbEntity
  8
0
370
    -3
100
AcDbLine
 10
0.3735274360665954
 20
3.210664945030146
 30
0.0
 11
0.335063604653584
 21
2.809999999999988
 31
0.0
  0
LINE
  5
185
330
1F
100
AcDbEntity
  8
0
370
    -3
100
AcDbLine
 10
0.335063604653584
 20
2.809999999999988
 30
0.0
 11
-0.3350732864614088
 21
2.809999999999988
 31
0.0
  0
LINE
  5
186
330
1F
100
AcDbEntity
  8
0
370
    -3
100
AcDbLine
 10
-0.3350732864614088
 20
2.809999999999988
 30
0.0
 11
-0.373537117874406
 21
3.210664945030146
 31
0.0
  0
LINE
  5
187
330
1F
100
AcDbEntity
  8
0
100
AcDbLine
 10
-1.132114703879736
 20
6.430999999999997
 30
0.0
 11
-0.4534888104029164
 21
6.430999999999997
 31
0.0
  0
LINE
  5
188
330
1F
100
AcDbEntity
  8
0
100
AcDbLine
 10
0.4534791285951059
 20
6.430999999999997
 30
0.0
 11
1.132105022071926
 21
6.430999999999997
 31
0.0
  0
LINE
  5
189
330
1F
100
AcDbEntity
  8
0
100
AcDbLine
 10
0.9480636047405113
 20
6.430999999999997
 30
0.0
 11
0.9072272959244572
 21
4.804256707035009
 31
0.0
  0
LINE
  5
18A
330
1F
100
AcDbEntity
  8
0
100
AcDbLine
 10
0.9072272959244572
 20
4.804256707035009
 30
0.0
 11
0.8760478567089933
 21
4.424729147980003
 31
0.0
  0
LINE
  5
18B
330
1F
100
AcDbEntity
  8
0
100
AcDbLine
 10
0.8760478567089933
 20
4.424729147980003
 30
0.0
 11
0.8760478567089933
 21
2.545003766050272
 31
0.0
  0
LINE
  5
18C
330
1F
100
AcDbEntity
  8
0
370
    -3
100
AcDbLine
 10
31.01555925373739
 20
8.766473876440216
 30
0.0
 11
31.01556047240496
 21
8.79342704640949
 31
0.0
  0
LINE
  5
18D
330
1F
100
AcDbEntity
  8
0
370
    -3
100
AcDbLine
 10
31.01556047240496
 20
8.79342704640949
 30
0.0
 11
31.14056230583779
 21
8.918427805676231
 31
0.0
  0
LINE
  5
18E
330
1F
100
AcDbEntity
  8
0
370
    -3
100
AcDbLine
 10
31.14056230583779
 20
8.918427805676231
 30
0.0
 11
32.85919702993357
 21
8.918427805676231
 31
0.0
  0
LINE
  5
18F
330
1F
100
AcDbEntity
  8
0
370
    -3
100
AcDbLine
 10
32.85919702993357
 20
8.918427805676231
 30
0.0
 11
32.98419886336643
 21
8.79342704640949
 31
0.0
  0
LINE
  5
190
330
1F
100
AcDbEntity
  8
0
370
    -3
100
AcDbLine
 10
32.98419886336643
 20
8.79342704640949
 30
0.0
 11
32.98420008203399
 21
8.766473876440216
 31
0.0
  0
LINE
  5
191
330
1F
100
AcDbEntity
  8
0
370
    -3
100
AcDbLine
 10
31.44863011987911
 20
8.919020668987102
 30
0.0
 11
31.44863011987911
 21
11.1741338275
 31
0.0
  0
LINE
  5
192
330
1F
100
AcDbEntity
  8
0
370
    -3
100
AcDbLine
 10
32.5642005589647
 20
8.920103615157814
 30
0.0
 11
32.55982433026247
 21
11.1741338275
 31
0.0
  0
SPLINE
  5
193
330
1F
100
AcDbEntity
  8
0
370
    -3
100
AcDbSpline
210
0.0
220
0.0
230
1.0
 70
    12
 71
     2
 72
     6
 73
     3
 74
     0
 42
0.000000001
 43
0.0000000001
 40
-12.63668818246522
 40
-12.63668818246522
 40
-12.63668818246522
 40
-12.56077101712937
 40
-12.56077101712937
 40
-12.56077101712937
 10
30.86776980490984
 20
6.431000000000007
 30
0.0
 41
1.000000000000003
 10
30.82981122224196
 20
6.431000000000419
 30
0.0
 41
0.7178369594848825
 10
30.8278143770902
 20
6.469102075273192
 30
0.0
 41
0.9793258461557549
  0
SPLINE
  5
194
330
1F
100
AcDbEntity
  8
0
370
    -3
100
AcDbSpline
210
0.0
220
0.0
230
1.0
 70
    28
 71
     2
 72
     6
 73
     3
 74
     0
 42
0.000000001
 43
0.0000000001
 40
-12.56077101712937
 40
-12.56077101712937
 40
-12.56077101712937
 40
-12.1366219595079
 40
-12.1366219595079
 40
-12.1366219595079
 10
30.82781437709022
 20
6.469102075273187
 30
0.0
 41
0.9999998224659405
 10
30.8167102424898
 20
6.680983725982658
 30
0.0
 41
0.9999998224659405
 10
30.80560610788939
 20
6.89286537669213
 30
0.0
 41
0.9999998224659405
  0
SPLINE
  5
195
330
1F
100
AcDbEntity
  8
0
370
    -3
100
AcDbSpline
210
0.0
220
0.0
230
1.0
 70
     8
 71
     3
 72
     9
 73
     5
 74
     0
 42
0.000000001
 43
0.0000000001
 40
-12.1366219595079
 40
-12.1366219595079
 40
-12.1366219595079
 40
-12.1366219595079
 40
-11.1366219595079
 40
-10.1366219595079
 40
-10.1366219595079
 40
-10.1366219595079
 40
-10.1366219595079
 10
30.80560610788936
 20
6.892865376692129
 30
0.0
 10
30.80360261537709
 20
6.935187549712609
 30
0.0
 10
30.76727951676423
 20
7.017620295907278
 30
0.0
 10
30.68621319706338
 20
7.05689842211693
 30
0.0
 10
30.6439910788857
 20
7.060430197661944
 30
0.0
  0
ARC
  5
196
330
1F
100
AcDbEntity
  8
0
370
    -3
100
AcDbCircle
 10
42.26524287419011
 20
-34.35308815798362
 30
0.0
 40
43.01317235316709
100
AcDbArc
 50
105.6749129988882
 51
107.0900000000102
  0
LINE
  5
197
330
1F
100
AcDbEntity
  8
0
370
    -3
100
AcDbLine
 10
29.62481122224168
 20
6.760808319189124
 30
0.0
 11
20.95120672784125
 21
4.094116174154564
 31
0.0
  0
SPLINE
  5
198
330
1F
100
AcDbEntity
  8
0
370
    -3
100
AcDbSpline
210
0.0
220
0.0
230
1.0
 70
     8
 71
     3
 72
    12
 73
     8
 74
     0
 42
0.000000001
 43
0.0000000001
 40
-0.0000000000000304
 40
-0.0000000000000304
 40
-0.0000000000000304
 40
-0.0000000000000304
 40
0.9999999999999696
 40
1.99999999999997
 40
2.99999999999997
 40
3.99999999999997
 40
4.99999999999997
 40
4.99999999999997
 40
4.99999999999997
 40
4.99999999999997
 10
20.95120672784125
 20
4.094116174154564
 30
0.0
 10
20.88885706139476
 20
4.075046011165895
 30
0.0
 10
20.76603907398314
 20
4.037068159196608
 30
0.0
 10
20.57926375209445
 20
3.96548556117969
 30
0.0
 10
20.46254835861109
 20
3.799412025319498
 30
0.0
 10
20.44110013473684
 20
3.602719649415306
 30
0.0
 10
20.43119470554649
 20
3.473986367235881
 30
0.0
 10
20.42524317918878
 20
3.409150946368086
 30
0.0
  0
SPLINE
  5
199
330
1F
100
AcDbEntity
  8
0
370
    -3
100
AcDbSpline
210
0.0
220
0.0
230
1.0
 70
     8
 71
     3
 72
     8
 73
     4
 74
     0
 42
0.000000001
 43
0.0000000001
 40
4.99999999999997
 40
4.99999999999997
 40
4.99999999999997
 40
4.99999999999997
 40
5.99999999999997
 40
5.99999999999997
 40
5.99999999999997
 40
5.99999999999997
 10
20.42524317918878
 20
3.409150946368086
 30
0.0
 10
20.4193881840983
 20
3.342720755878815
 30
0.0
 10
20.41061721937476
 20
3.276547634346713
 30
0.0
 10
20.39896400281663
 20
3.210885973808587
 30
0.0
  0
LINE
  5
19A
330
1F
100
AcDbEntity
  8
0
370
    -3
100
AcDbLine
 10
20.39896400281663
 20
3.210885973808587
 30
0.0
 11
20.32781122017434
 21
2.80999999999996
 31
0.0
  0
LINE
  5
19B
330
1F
100
AcDbEntity
  8
0
370
    -3
100
AcDbLine
 10
20.32781122017434
 20
2.80999999999996
 30
0.0
 11
19.6578112577958
 21
2.810000000000002
 31
0.0
  0
LINE
  5
19C
330
1F
100
AcDbEntity
  8
0
370
    -3
100
AcDbLine
 10
19.6578112577958
 20
2.810000000000002
 30
0.0
 11
19.59672231437119
 21
3.210799108550958
 31
0.0
  0
SPLINE
  5
19D
330
1F
100
AcDbEntity
  8
0
370
    -3
100
AcDbSpline
210
0.0
220
0.0
230
1.0
 70
     8
 71
     3
 72
     8
 73
     4
 74
     0
 42
0.000000001
 43
0.0000000001
 40
7.48258566920344
 40
7.48258566920344
 40
7.48258566920344
 40
7.48258566920344
 40
8.482585669203441
 40
8.482585669203441
 40
8.482585669203441
 40
8.482585669203441
 10
19.59672231437119
 20
3.210799108550958
 30
0.0
 10
19.58667436865323
 20
3.27678226020619
 30
0.0
 10
19.58218135984421
 20
3.343612277085683
 30
0.0
 10
19.58333258075947
 20
3.410346159261849
 30
0.0
  0
SPLINE
  5
19E
330
1F
100
AcDbEntity
  8
0
370
    -3
100
AcDbSpline
210
0.0
220
0.0
230
1.0
 70
     8
 71
     3
 72
    12
 73
     8
 74
     0
 42
0.000000001
 43
0.0000000001
 40
8.482585669203441
 40
8.482585669203441
 40
8.482585669203441
 40
8.482585669203441
 40
9.482585669203441
 40
10.48258566920344
 40
11.48258566920344
 40
12.48258566920344
 40
13.48258566920344
 40
13.48258566920344
 40
13.48258566920344
 40
13.48258566920344
 10
19.58333258075947
 20
3.410346159261849
 30
0.0
 10
19.58586177072246
 20
3.55632409360669
 30
0.0
 10
19.59099309206476
 20
3.846159826462852
 30
0.0
 10
19.59836823558709
 20
4.288864396577793
 30
0.0
 10
19.83448276664649
 20
4.680765451566771
 30
0.0
 10
20.22350217188659
 20
4.894453002485506
 30
0.0
 10
20.50338919962741
 20
4.976465794489343
 30
0.0
 10
20.63931022137936
 20
5.029327428909596
 30
0.0
  0
LINE
  5
19F
330
1F
100
AcDbEntity
  8
0
370
    -3
100
AcDbLine
 10
20.63931022137936
 20
5.029327428909596
 30
0.0
 11
29.62481880327226
 21
8.312283232022367
 31
0.0
  0
ARC
  5
1A0
330
1F
100
AcDbEntity
  8
0
370
    -3
100
AcDbCircle
 10
-39.34498338316257
 20
-18.29198334153534
 30
0.0
 40
28.32434640688244
210
0.0
220
0.0
230
-1.0
100
AcDbArc
 50
69.9296618742988
 51
72.81173134510618
  0
LINE
  5
1A1
330
1F
100
AcDbEntity
  8
0
370
    -3
100
AcDbLine
 10
30.97478638093071
 20
8.767366272247003
 30
0.0
 11
33.02497295484065
 21
8.767366272247003
 31
0.0
  0
ARC
  5
1A2
330
1F
100
AcDbEntity
  8
0
370
    -3
100
AcDbCircle
 10
-24.65477595260882
 20
-18.29198334153534
 30
0.0
 40
28.32434640688244
210
0.0
220
0.0
230
-1.0
100
AcDbArc
 50
107.1882686548938
 51
110.0703381257012
  0
LINE
  5
1A3
330
1F
100
AcDbEntity
  8
0
370
    -3
100
AcDbLine
 10
34.3749405324991
 20
8.312283232022367
 30
0.0
 11
43.360449114392
 21
5.029327428909596
 31
0.0
  0
SPLINE
  5
1A4
330
1F
100
AcDbEntity
  8
0
370
    -3
100
AcDbSpline
210
0.0
220
0.0
230
1.0
 70
     8
 71
     3
 72
    12
 73
     8
 74
     0
 42
0.000000001
 43
0.0000000001
 40
37.51521629283301
 40
37.51521629283301
 40
37.51521629283301
 40
37.51521629283301
 40
38.51521629283301
 40
39.51521629283301
 40
40.51521629283301
 40
41.51521629283301
 40
42.51521629283301
 40
42.51521629283301
 40
42.51521629283301
 40
42.51521629283301
 10
43.360449114392
 20
5.029327428909596
 30
0.0
 10
43.49637013614398
 20
4.976465794489343
 30
0.0
 10
43.77625716388479
 20
4.894453002485506
 30
0.0
 10
44.16527656912487
 20
4.680765451566771
 30
0.0
 10
44.4013911001843
 20
4.288864396577793
 30
0.0
 10
44.40876624370662
 20
3.846159826462852
 30
0.0
 10
44.4138975650489
 20
3.55632409360669
 30
0.0
 10
44.41642675501188
 20
3.410346159261849
 30
0.0
  0
SPLINE
  5
1A5
330
1F
100
AcDbEntity
  8
0
370
    -3
100
AcDbSpline
210
0.0
220
0.0
230
1.0
 70
     8
 71
     3
 72
     8
 73
     4
 74
     0
 42
0.000000001
 43
0.0000000001
 40
42.51521629283301
 40
42.51521629283301
 40
42.51521629283301
 40
42.51521629283301
 40
43.51521629283301
 40
43.51521629283301
 40
43.51521629283301
 40
43.51521629283301
 10
44.41642675501188
 20
3.410346159261849
 30
0.0
 10
44.41757797592714
 20
3.343612277085683
 30
0.0
 10
44.41308496711815
 20
3.27678226020619
 30
0.0
 10
44.40303702140017
 20
3.210799108550958
 30
0.0
  0
LINE
  5
1A6
330
1F
100
AcDbEntity
  8
0
370
    -3
100
AcDbLine
 10
44.40303702140017
 20
3.210799108550958
 30
0.0
 11
44.34194807797559
 21
2.810000000000002
 31
0.0
  0
LINE
  5
1A7
330
1F
100
AcDbEntity
  8
0
370
    -3
100
AcDbLine
 10
44.34194807797559
 20
2.810000000000002
 30
0.0
 11
43.67194811559705
 21
2.80999999999996
 31
0.0
  0
LINE
  5
1A8
330
1F
100
AcDbEntity
  8
0
370
    -3
100
AcDbLine
 10
43.67194811559705
 20
2.80999999999996
 30
0.0
 11
43.60079533295473
 21
3.210885973808587
 31
0.0
  0
SPLINE
  5
1A9
330
1F
100
AcDbEntity
  8
0
370
    -3
100
AcDbSpline
210
0.0
220
0.0
230
1.0
 70
     8
 71
     3
 72
     8
 73
     4
 74
     0
 42
0.000000001
 43
0.0000000001
 40
44.99780196203648
 40
44.99780196203648
 40
44.99780196203648
 40
44.99780196203648
 40
45.99780196203648
 40
45.99780196203648
 40
45.99780196203648
 40
45.99780196203648
 10
43.60079533295473
 20
3.210885973808587
 30
0.0
 10
43.5891421163966
 20
3.276547634346713
 30
0.0
 10
43.58037115167309
 20
3.342720755878815
 30
0.0
 10
43.5745161565826
 20
3.409150946368086
 30
0.0
  0
SPLINE
  5
1AA
330
1F
100
AcDbEntity
  8
0
370
    -3
100
AcDbSpline
210
0.0
220
0.0
230
1.0
 70
     8
 71
     3
 72
    12
 73
     8
 74
     0
 42
0.000000001
 43
0.0000000001
 40
45.99780196203648
 40
45.99780196203648
 40
45.99780196203648
 40
45.99780196203648
 40
46.99780196203648
 40
47.99780196203648
 40
48.99780196203648
 40
49.99780196203648
 40
50.99780196203648
 40
50.99780196203648
 40
50.99780196203648
 40
50.99780196203648
 10
43.5745161565826
 20
3.409150946368086
 30
0.0
 10
43.5685646302249
 20
3.473986367235881
 30
0.0
 10
43.55865920103452
 20
3.602719649415306
 30
0.0
 10
43.53721097716027
 20
3.799412025319498
 30
0.0
 10
43.42049558367691
 20
3.96548556117969
 30
0.0
 10
43.23372026178822
 20
4.037068159196608
 30
0.0
 10
43.1109022743766
 20
4.075046011165895
 30
0.0
 10
43.04855260793011
 20
4.094116174154564
 30
0.0
  0
LINE
  5
1AB
330
1F
100
AcDbEntity
  8
0
370
    -3
100
AcDbLine
 10
43.04855260793011
 20
4.094116174154564
 30
0.0
 11
34.37494811352968
 21
6.760808319189124
 31
0.0
  0
ARC
  5
1AC
330
1F
100
AcDbEntity
  8
0
370
    -3
100
AcDbCircle
 10
21.73451646158128
 20
-34.35308815798362
 30
0.0
 40
43.01317235316709
100
AcDbArc
 50
72.9099999999898
 51
74.32508700111181
  0
SPLINE
  5
1AD
330
1F
100
AcDbEntity
  8
0
370
    -3
100
AcDbSpline
210
0.0
220
0.0
230
1.0
 70
     8
 71
     3
 72
     9
 73
     5
 74
     0
 42
0.000000001
 43
0.0000000001
 40
61.13442392154434
 40
61.13442392154434
 40
61.13442392154434
 40
61.13442392154434
 40
62.13442392154434
 40
63.13442392154434
 40
63.13442392154434
 40
63.13442392154434
 40
63.13442392154434
 10
33.35576825688565
 20
7.060430197661944
 30
0.0
 10
33.31354613870798
 20
7.05689842211693
 30
0.0
 10
33.23247981900712
 20
7.017620295907278
 30
0.0
 10
33.19615672039427
 20
6.935187549712609
 30
0.0
 10
33.194153227882
 20
6.892865376692129
 30
0.0
  0
SPLINE
  5
1AE
330
1F
100
AcDbEntity
  8
0
370
    -3
100
AcDbSpline
210
0.0
220
0.0
230
1.0
 70
    28
 71
     2
 72
     6
 73
     3
 74
     0
 42
0.000000001
 43
0.0000000001
 40
63.13442392154434
 40
63.13442392154434
 40
63.13442392154434
 40
63.55857297916582
 40
63.55857297916582
 40
63.55857297916582
 10
33.194153227882
 20
6.89286537669213
 30
0.0
 41
0.9999998224659405
 10
33.18304909328159
 20
6.680983725982658
 30
0.0
 41
0.9999998224659405
 10
33.17194495868118
 20
6.469102075273187
 30
0.0
 41
0.9999998224659405
  0
SPLINE
  5
1AF
330
1F
100
AcDbEntity
  8
0
370
    -3
100
AcDbSpline
210
0.0
220
0.0
230
1.0
 70
    12
 71
     2
 72
     6
 73
     3
 74
     0
 42
0.000000001
 43
0.0000000001
 40
63.55857297916582
 40
63.55857297916582
 40
63.55857297916582
 40
63.63449014450167
 40
63.63449014450167
 40
63.63449014450167
 10
33.17194495868115
 20
6.469102075273192
 30
0.0
 41
0.9793258461557549
 10
33.16994811352946
 20
6.431000000000419
 30
0.0
 41
0.7178369594848825
 10
33.13198953086154
 20
6.431000000000007
 30
0.0
 41
1.000000000000003
  0
LINE
  5
1B0
330
1F
100
AcDbEntity
  8
0
100
AcDbLine
 10
31.05181122224127
 20
6.430999999999997
 30
0.0
 11
31.09264753105734
 21
4.804256707035009
 31
0.0
  0
LINE
  5
1B1
330
1F
100
AcDbEntity
  8
0
100
AcDbLine
 10
31.09264753105734
 20
4.804256707035009
 30
0.0
 11
31.12382697027277
 21
4.424729147980003
 31
0.0
  0
LINE
  5
1B2
330
1F
100
AcDbEntity
  8
0
100
AcDbLine
 10
31.12382697027277
 20
4.424729147980003
 30
0.0
 11
31.12382697027277
 21
2.545003766050272
 31
0.0
  0
SPLINE
  5
1B3
330
1F
100
AcDbEntity
  8
0
370
    -3
100
AcDbSpline
210
0.0
220
0.0
230
1.0
 70
    24
 71
     5
 72
    12
 73
     6
 74
     0
 42
0.000000001
 43
0.0000000001
 40
-9.317523315759814
 40
-9.317523315759814
 40
-9.317523315759814
 40
-9.317523315759814
 40
-9.317523315759814
 40
-9.317523315759814
 40
0.0
 40
0.0
 40
0.0
 40
0.0
 40
0.0
 40
0.0
 10
31.59981122224343
 20
4.561749976091974
 30
0.0
 10
31.58281122224292
 20
5.156656627125912
 30
0.0
 10
31.56581122224273
 20
5.751563278089961
 30
0.0
 10
31.54881122224253
 20
6.346469929054521
 30
0.0
 10
31.53181122224237
 20
6.941376580018542
 30
0.0
 10
31.51481122224266
 20
7.536283230876677
 30
0.0
  0
SPLINE
  5
1B4
330
1F
100
AcDbEntity
  8
0
370
    -3
100
AcDbSpline
210
0.0
220
0.0
230
1.0
 70
     8
 71
     3
 72
    12
 73
     8
 74
     0
 42
0.000000001
 43
0.0000000001
 40
0.0
 40
0.0
 40
0.0
 40
0.0
 40
1.0
 40
2.0
 40
3.0
 40
4.0
 40
5.0
 40
5.0
 40
5.0
 40
5.0
 10
31.51481122224266
 20
7.536283230876677
 30
0.0
 10
31.51511741457074
 20
7.605499916615969
 30
0.0
 10
31.5190030014804
 20
7.743313627246621
 30
0.0
 10
31.52983553710345
 20
7.95197725811218
 30
0.0
 10
31.61762025706435
 20
8.145079686160727
 30
0.0
 10
31.77860579666338
 20
8.28504910930728
 30
0.0
 10
31.91895033902222
 20
8.312530747182365
 30
0.0
 10
31.98781079065787
 20
8.312283231997881
 30
0.0
  0
LINE
  5
1B5
330
1F
100
AcDbEntity
  8
0
370
    -3
100
AcDbLine
 10
31.98781079065787
 20
8.312283231997881
 30
0.0
 11
32.01194854511351
 21
8.312283231997881
 31
0.0
  0
SPLINE
  5
1B6
330
1F
100
AcDbEntity
  8
0
370
    -3
100
AcDbSpline
210
0.0
220
0.0
230
1.0
 70
     8
 71
     3
 72
    12
 73
     8
 74
     0
 42
0.000000001
 43
0.0000000001
 40
5.024137754455623
 40
5.024137754455623
 40
5.024137754455623
 40
5.024137754455623
 40
6.024137754455623
 40
7.024137754455623
 40
8.024137754455623
 40
9.024137754455623
 40
10.02413775445562
 40
10.02413775445562
 40
10.02413775445562
 40
10.02413775445562
 10
32.01194854511351
 20
8.312283231997881
 30
0.0
 10
32.08080899674917
 20
8.312530747182365
 30
0.0
 10
32.221153539108
 20
8.28504910930728
 30
0.0
 10
32.38213907870704
 20
8.145079686160727
 30
0.0
 10
32.46992379866793
 20
7.95197725811218
 30
0.0
 10
32.48075633429096
 20
7.743313627246621
 30
0.0
 10
32.48464192120065
 20
7.605499916615969
 30
0.0
 10
32.48494811352873
 20
7.536283230876677
 30
0.0
  0
SPLINE
  5
1B7
330
1F
100
AcDbEntity
  8
0
370
    -3
100
AcDbSpline
210
0.0
220
0.0
230
1.0
 70
    24
 71
     5
 72
    12
 73
     6
 74
     0
 42
0.000000001
 43
0.0000000001
 40
10.02413775445562
 40
10.02413775445562
 40
10.02413775445562
 40
10.02413775445562
 40
10.02413775445562
 40
10.02413775445562
 40
19.34166107021544
 40
19.34166107021544
 40
19.34166107021544
 40
19.34166107021544
 40
19.34166107021544
 40
19.34166107021544
 10
32.48494811352873
 20
7.536283230876677
 30
0.0
 10
32.46794811352902
 20
6.941376580018542
 30
0.0
 10
32.45094811352885
 20
6.346469929054521
 30
0.0
 10
32.43394811352863
 20
5.751563278089961
 30
0.0
 10
32.41694811352846
 20
5.156656627125912
 30
0.0
 10
32.39994811352796
 20
4.561749976091974
 30
0.0
  0
SPLINE
  5
1B8
330
1F
100
AcDbEntity
  8
0
370
    -3
100
AcDbSpline
210
0.0
220
0.0
230
1.0
 70
     8
 71
     3
 72
     8
 73
     4
 74
     0
 42
0.000000001
 43
0.0000000001
 40
0.0
 40
0.0
 40
0.0
 40
0.0
 40
0.2000142821926441
 40
0.2000142821926441
 40
0.2000142821926441
 40
0.2000142821926441
 10
31.62634739091519
 20
3.210664945030146
 30
0.0
 10
31.61997410468592
 20
3.276979963836496
 30
0.0
 10
31.61650104328891
 20
3.343639839810621
 30
0.0
 10
31.61597214524036
 20
3.410260555327255
 30
0.0
  0
SPLINE
  5
1B9
330
1F
100
AcDbEntity
  8
0
370
    -3
100
AcDbSpline
210
0.0
220
0.0
230
1.0
 70
     8
 71
     2
 72
     6
 73
     3
 74
     0
 42
0.000000001
 43
0.0000000001
 40
0.2000142821926441
 40
0.2000142821926441
 40
0.2000142821926441
 40
1.200014282192644
 40
1.200014282192644
 40
1.200014282192644
 10
31.61597214524036
 20
3.410260555327255
 30
0.0
 10
31.61379088565803
 20
3.986094386872509
 30
0.0
 10
31.59972076263273
 20
4.561878854202092
 30
0.0
  0
SPLINE
  5
1BA
330
1F
100
AcDbEntity
  8
0
370
    -3
100
AcDbSpline
210
0.0
220
0.0
230
1.0
 70
     8
 71
     2
 72
    10
 73
     7
 74
     0
 42
0.000000001
 43
0.0000000001
 40
1.200014282192644
 40
1.200014282192644
 40
1.200014282192644
 40
2.200014282192644
 40
3.200014282192644
 40
4.200014282192644
 40
5.200014282192644
 40
6.200014282192644
 40
6.200014282192644
 40
6.200014282192644
 10
31.59972076263273
 20
4.561878854202092
 30
0.0
 10
31.60044065406876
 20
4.629170092152663
 30
0.0
 10
31.63325402998512
 20
4.761420643609867
 30
0.0
 10
31.70026297065667
 20
4.879949038410842
 30
0.0
 10
31.7993356630331
 20
4.97386060335289
 30
0.0
 10
31.92502087592894
 20
5.027948162777861
 30
0.0
 10
31.99352454517708
 20
5.029327428910108
 30
0.0
  0
LINE
  5
1BB
330
1F
100
AcDbEntity
  8
0
370
    -3
100
AcDbLine
 10
31.99352454517708
 20
5.029327428910108
 30
0.0
 11
32.00623479059428
 21
5.029327428910108
 31
0.0
  0
SPLINE
  5
1BC
330
1F
100
AcDbEntity
  8
0
370
    -3
100
AcDbSpline
210
0.0
220
0.0
230
1.0
 70
     8
 71
     2
 72
    10
 73
     7
 74
     0
 42
0.000000001
 43
0.0000000001
 40
6.21272452760984
 40
6.21272452760984
 40
6.21272452760984
 40
7.21272452760984
 40
8.21272452760984
 40
9.21272452760984
 40
10.21272452760984
 40
11.21272452760984
 40
11.21272452760984
 40
11.21272452760984
 10
32.00623479059428
 20
5.029327428910108
 30
0.0
 10
32.07473845984242
 20
5.027948162777861
 30
0.0
 10
32.20042367273828
 20
4.97386060335289
 30
0.0
 10
32.29949636511469
 20
4.879949038410842
 30
0.0
 10
32.36650530578623
 20
4.761420643609867
 30
0.0
 10
32.3993186817026
 20
4.629170092152663
 30
0.0
 10
32.40003857313866
 20
4.561878854202092
 30
0.0
  0
SPLINE
  5
1BD
330
1F
100
AcDbEntity
  8
0
370
    -3
100
AcDbSpline
210
0.0
220
0.0
230
1.0
 70
     8
 71
     2
 72
     6
 73
     3
 74
     0
 42
0.000000001
 43
0.0000000001
 40
11.21272452760984
 40
11.21272452760984
 40
11.21272452760984
 40
12.21272452760984
 40
12.21272452760984
 40
12.21272452760984
 10
32.40003857313866
 20
4.561878854202092
 30
0.0
 10
32.38596845011332
 20
3.986094386872509
 30
0.0
 10
32.38378719053102
 20
3.410260555327255
 30
0.0
  0
SPLINE
  5
1BE
330
1F
100
AcDbEntity
  8
0
370
    -3
100
AcDbSpline
210
0.0
220
0.0
230
1.0
 70
     8
 71
     3
 72
     8
 73
     4
 74
     0
 42
0.000000001
 43
0.0000000001
 40
12.21272452760984
 40
12.21272452760984
 40
12.21272452760984
 40
12.21272452760984
 40
12.41273880980248
 40
12.41273880980248
 40
12.41273880980248
 40
12.41273880980248
 10
32.38378719053102
 20
3.410260555327255
 30
0.0
 10
32.38325829248245
 20
3.343639839810621
 30
0.0
 10
32.37978523108546
 20
3.276979963836496
 30
0.0
 10
32.37341194485617
 20
3.210664945030146
 30
0.0
  0
LINE
  5
1BF
330
1F
100
AcDbEntity
  8
0
370
    -3
100
AcDbLine
 10
32.37341194485617
 20
3.210664945030146
 30
0.0
 11
32.33494811344318
 21
2.809999999999988
 31
0.0
  0
LINE
  5
1C0
330
1F
100
AcDbEntity
  8
0
370
    -3
100
AcDbLine
 10
32.33494811344318
 20
2.809999999999988
 30
0.0
 11
31.66481122232818
 21
2.809999999999988
 31
0.0
  0
LINE
  5
1C1
330
1F
100
AcDbEntity
  8
0
370
    -3
100
AcDbLine
 10
31.66481122232818
 20
2.809999999999988
 30
0.0
 11
31.62634739091519
 21
3.210664945030146
 31
0.0
  0
LINE
  5
1C2
330
1F
100
AcDbEntity
  8
0
100
AcDbLine
 10
30.86776980490987
 20
6.430999999999997
 30
0.0
 11
31.54639569838668
 21
6.430999999999997
 31
0.0
  0
LINE
  5
1C3
330
1F
100
AcDbEntity
  8
0
100
AcDbLine
 10
32.45336363738471
 20
6.430999999999997
 30
0.0
 11
33.13198953086152
 21
6.430999999999997
 31
0.0
  0
LINE
  5
1C4
330
1F
100
AcDbEntity
  8
0
 62
    18
420
        0
370
    -3
100
AcDbLine
 10
31.07431122224128
 20
2.560000000000002
 30
0.0
 11
32.35431122224128
 21
2.560000000000002
 31
0.0
  0
SPLINE
  5
1C5
330
1F
100
AcDbEntity
  8
0
 62
    18
420
        0
370
    -3
100
AcDbSpline
210
0.0
220
0.0
230
1.0
 70
    28
 71
     2
 72
     6
 73
     3
 74
     0
 42
0.000000001
 43
0.0000000001
 40
-1.28
 40
-1.28
 40
-1.28
 40
0.0
 40
0.0
 40
0.0
 10
32.35431122224128
 20
2.560000000000002
 30
0.0
 41
1.0
 10
32.35431122224128
 20
1.920000000000002
 30
0.0
 41
1.0
 10
32.35431122224128
 20
1.280000000000001
 30
0.0
 41
1.0
  0
CIRCLE
  5
1C6
330
1F
100
AcDbEntity
  8
0
100
AcDbCircle
 10
31.07431122224128
 20
1.280000000000001
 30
0.0
 40
1.279999999999995
  0
SPLINE
  5
1C7
330
1F
100
AcDbEntity
  8
0
 62
    18
420
        0
370
    -3
100
AcDbSpline
210
0.0
220
0.0
230
1.0
 70
    28
 71
     2
 72
     8
 73
     5
 74
     0
 42
0.000000001
 43
0.0000000001
 40
-4.71238898038469
 40
-4.71238898038469
 40
-4.71238898038469
 40
-3.141592653589793
 40
-3.141592653589793
 40
-1.570796326794897
 40
-1.570796326794897
 40
-1.570796326794897
 10
20.32281123898508
 20
2.685000000000002
 30
0.0
 41
1.0
 10
20.32281123898507
 20
2.684999999999992
 30
0.0
 41
0.7071067811865476
 10
19.99281123898507
 20
2.685000000000002
 30
0.0
 41
1.0
 10
19.66281123898507
 20
2.684999999999992
 30
0.0
 41
0.7071067811865476
 10
19.66281123898506
 20
2.685000000000002
 30
0.0
 41
1.0
  0
SPLINE
  5
1C8
330
1F
100
AcDbEntity
  8
0
 62
    18
420
        0
370
    -3
100
AcDbSpline
210
0.0
220
0.0
230
1.0
 70
    28
 71
     2
 72
     6
 73
     3
 74
     0
 42
0.000000001
 43
0.0000000001
 40
-0.1433198847624326
 40
-0.1433198847624326
 40
-0.1433198847624326
 40
-0.0183198847624326
 40
-0.0183198847624326
 40
-0.0183198847624326
 10
20.32281123898508
 20
2.560000000000002
 30
0.0
 41
1.0
 10
20.32281123898508
 20
2.622500000000002
 30
0.0
 41
1.0
 10
20.32281123898508
 20
2.685000000000002
 30
0.0
 41
1.0
  0
SPLINE
  5
1C9
330
1F
100
AcDbEntity
  8
0
 62
    18
420
        0
370
    -3
100
AcDbSpline
210
0.0
220
0.0
230
1.0
 70
    28
 71
     2
 72
     6
 73
     3
 74
     0
 42
0.000000001
 43
0.0000000001
 40
0.0183198847624326
 40
0.0183198847624326
 40
0.0183198847624326
 40
0.1433198847624326
 40
0.1433198847624326
 40
0.1433198847624326
 10
19.66281123898506
 20
2.685000000000002
 30
0.0
 41
1.0
 10
19.66281123898506
 20
2.622500000000002
 30
0.0
 41
1.0
 10
19.66281123898506
 20
2.560000000000002
 30
0.0
 41
1.0
  0
LINE
  5
1CA
330
1F
100
AcDbEntity
  8
0
 62
    18
420
        0
370
    -3
100
AcDbLine
 10
19.06731123898507
 20
2.560000000000002
 30
0.0
 11
20.34731123898507
 21
2.560000000000002
 31
0.0
  0
SPLINE
  5
1CB
330
1F
100
AcDbEntity
  8
0
 62
    18
420
        0
370
    -3
100
AcDbSpline
210
0.0
220
0.0
230
1.0
 70
    28
 71
     2
 72
     6
 73
     3
 74
     0
 42
0.000000001
 43
0.0000000001
 40
-1.28
 40
-1.28
 40
-1.28
 40
0.0
 40
0.0
 40
0.0
 10
20.34731123898507
 20
2.560000000000002
 30
0.0
 41
1.0
 10
20.34731123898507
 20
1.920000000000002
 30
0.0
 41
1.0
 10
20.34731123898507
 20
1.280000000000001
 30
0.0
 41
1.0
  0
CIRCLE
  5
1CC
330
1F
100
AcDbEntity
  8
0
100
AcDbCircle
 10
19.06731123898507
 20
1.280000000000001
 30
0.0
 40
1.279999999999995
  0
SPLINE
  5
1CD
330
1F
100
AcDbEntity
  8
0
 62
    18
420
        0
370
    -3
100
AcDbSpline
210
0.0
220
0.0
230
1.0
 70
    28
 71
     2
 72
     8
 73
     5
 74
     0
 42
0.000000001
 43
0.0000000001
 40
-4.71238898038469
 40
-4.71238898038469
 40
-4.71238898038469
 40
-3.141592653589793
 40
-3.141592653589793
 40
-1.570796326794897
 40
-1.570796326794897
 40
-1.570796326794897
 10
44.3369480967863
 20
2.685000000000002
 30
0.0
 41
1.0
 10
44.3369480967863
 20
2.684999999999992
 30
0.0
 41
0.7071067811865476
 10
44.00694809678629
 20
2.685000000000002
 30
0.0
 41
1.0
 10
43.6769480967863
 20
2.684999999999992
 30
0.0
 41
0.7071067811865476
 10
43.6769480967863
 20
2.685000000000002
 30
0.0
 41
1.0
  0
SPLINE
  5
1CE
330
1F
100
AcDbEntity
  8
0
 62
    18
420
        0
370
    -3
100
AcDbSpline
210
0.0
220
0.0
230
1.0
 70
    28
 71
     2
 72
     6
 73
     3
 74
     0
 42
0.000000001
 43
0.0000000001
 40
-0.1433198847624326
 40
-0.1433198847624326
 40
-0.1433198847624326
 40
-0.0183198847624326
 40
-0.0183198847624326
 40
-0.0183198847624326
 10
44.3369480967863
 20
2.560000000000002
 30
0.0
 41
1.0
 10
44.3369480967863
 20
2.622500000000002
 30
0.0
 41
1.0
 10
44.3369480967863
 20
2.685000000000002
 30
0.0
 41
1.0
  0
SPLINE
  5
1CF
330
1F
100
AcDbEntity
  8
0
 62
    18
420
        0
370
    -3
100
AcDbSpline
210
0.0
220
0.0
230
1.0
 70
    28
 71
     2
 72
     6
 73
     3
 74
     0
 42
0.000000001
 43
0.0000000001
 40
0.0183198847624326
 40
0.0183198847624326
 40
0.0183198847624326
 40
0.1433198847624326
 40
0.1433198847624326
 40
0.1433198847624326
 10
43.6769480967863
 20
2.685000000000002
 30
0.0
 41
1.0
 10
43.6769480967863
 20
2.622500000000002
 30
0.0
 41
1.0
 10
43.6769480967863
 20
2.560000000000002
 30
0.0
 41
1.0
  0
LINE
  5
1D0
330
1F
100
AcDbEntity
  8
0
 62
    18
420
        0
370
    -3
100
AcDbLine
 10
43.08144809678629
 20
2.560000000000002
 30
0.0
 11
44.36144809678632
 21
2.560000000000002
 31
0.0
  0
SPLINE
  5
1D1
330
1F
100
AcDbEntity
  8
0
 62
    18
420
        0
370
    -3
100
AcDbSpline
210
0.0
220
0.0
230
1.0
 70
    28
 71
     2
 72
     6
 73
     3
 74
     0
 42
0.000000001
 43
0.0000000001
 40
-1.28
 40
-1.28
 40
-1.28
 40
0.0
 40
0.0
 40
0.0
 10
44.36144809678632
 20
2.560000000000002
 30
0.0
 41
1.0
 10
44.36144809678632
 20
1.920000000000002
 30
0.0
 41
1.0
 10
44.36144809678632
 20
1.280000000000001
 30
0.0
 41
1.0
  0
CIRCLE
  5
1D2
330
1F
100
AcDbEntity
  8
0
100
AcDbCircle
 10
43.08144809678629
 20
1.280000000000001
 30
0.0
 40
1.279999999999995
  0
LINE
  5
1D3
330
1F
100
AcDbEntity
  8
0
 62
    18
420
        0
370
    -3
100
AcDbLine
 10
32.94794811353012
 20
6.430999999999997
 30
0.0
 11
32.90711180471405
 21
4.804256707035009
 31
0.0
  0
LINE
  5
1D4
330
1F
100
AcDbEntity
  8
0
 62
    18
420
        0
370
    -3
100
AcDbLine
 10
32.90711180471405
 20
4.804256707035009
 30
0.0
 11
32.87593236549858
 21
4.424729147980003
 31
0.0
  0
LINE
  5
1D5
330
1F
100
AcDbEntity
  8
0
 62
    18
420
        0
370
    -3
100
AcDbLine
 10
32.87593236549858
 20
4.424729147980003
 30
0.0
 11
32.87586391985417
 21
1.149729147979997
 31
0.0
  0
SPLINE
  5
1D6
330
1F
100
AcDbEntity
  8
0
 62
    18
420
        0
370
    -3
100
AcDbSpline
210
0.0
220
0.0
230
1.0
 70
     8
 71
     2
 72
     7
 73
     4
 74
     0
 42
0.000000001
 43
0.0000000001
 40
5.283061923474973
 40
5.283061923474973
 40
5.283061923474973
 40
6.283061923474973
 40
7.283061923474973
 40
7.283061923474973
 40
7.283061923474973
 10
32.87586391985417
 20
1.149729147979997
 30
0.0
 10
32.87523623012993
 20
1.09810465413544
 30
0.0
 10
32.80253183266541
 20
1.025314532348986
 30
0.0
 10
32.75079541454608
 20
1.024729147980011
 30
0.0
  0
LINE
  5
1D7
330
1F
100
AcDbEntity
  8
0
 62
    18
420
        0
370
    -3
100
AcDbLine
 10
32.75079541454608
 20
1.024729147980011
 30
0.0
 11
32.32859858648624
 21
1.024729147980011
 31
0.0
  0
SPLINE
  5
1D8
330
1F
100
AcDbEntity
  8
0
370
    -3
100
AcDbSpline
210
0.0
220
0.0
230
1.0
 70
     8
 71
     5
 72
    16
 73
    10
 74
     0
 42
0.000000001
 43
0.0000000001
 40
-37.79274481442121
 40
-37.79274481442121
 40
-37.79274481442121
 40
-37.79274481442121
 40
-37.79274481442121
 40
-37.79274481442121
 40
-37.19390305355908
 40
-34.79715286859543
 40
-33.60228520264785
 40
-32.40741751985176
 40
-30.096572061219
 40
-30.096572061219
 40
-30.096572061219
 40
-30.096572061219
 40
-30.096572061219
 40
-30.096572061219
 10
23.20682082389436
 20
24.36059132590248
 30
0.0
 10
23.19069939071625
 20
24.47221234581045
 30
0.0
 10
23.10756411774736
 20
25.02908240117294
 30
0.0
 10
22.97313298971471
 20
25.79931127337123
 30
0.0
 10
22.76131051124349
 20
26.78739498613811
 30
0.0
 10
22.33880675014007
 20
28.26597987945939
 30
0.0
 10
21.81328351501566
 20
29.61220889171872
 30
0.0
 10
21.41094026873515
 20
30.48930982239179
 30
0.0
 10
21.08949010645938
 20
31.12782368282336
 30
0.0
 10
20.87030273201333
 20
31.54079862044384
 30
0.0
  0
SPLINE
  5
1D9
330
1F
100
AcDbEntity
  8
0
370
    -3
100
AcDbSpline
210
0.0
220
0.0
230
1.0
 70
     8
 71
     3
 72
     8
 73
     4
 74
     0
 42
0.000000001
 43
0.0000000001
 40
-30.096572061219
 40
-30.096572061219
 40
-30.096572061219
 40
-30.096572061219
 40
-29.096572061219
 40
-29.096572061219
 40
-29.096572061219
 40
-29.096572061219
 10
20.87030273201333
 20
31.54079862044384
 30
0.0
 10
20.82182953661146
 20
31.6321278536989
 30
0.0
 10
20.8804540369602
 20
31.67982084614212
 30
0.0
 10
20.98840604009263
 20
31.68640329450994
 30
0.0
  0
SPLINE
  5
1DA
330
1F
100
AcDbEntity
  8
0
370
    -3
100
AcDbSpline
210
0.0
220
0.0
230
1.0
 70
     8
 71
     3
 72
     9
 73
     5
 74
     0
 42
0.000000001
 43
0.0000000001
 40
-29.096572061219
 40
-29.096572061219
 40
-29.096572061219
 40
-29.096572061219
 40
-28.09657066896912
 40
-27.096572061219
 40
-27.096572061219
 40
-27.096572061219
 40
-27.096572061219
 10
20.98840604009263
 20
31.68640329450994
 30
0.0
 10
21.11479221599791
 20
31.69410977936585
 30
0.0
 10
21.36790018623128
 20
31.70290748102042
 30
0.0
 10
21.62108903278045
 20
31.7076375860637
 30
0.0
 10
21.74770105745466
 20
31.70887540567614
 30
0.0
  0
SPLINE
  5
1DB
330
1F
100
AcDbEntity
  8
0
370
    -3
100
AcDbSpline
210
0.0
220
0.0
230
1.0
 70
     8
 71
     3
 72
    10
 73
     6
 74
     0
 42
0.000000001
 43
0.0000000001
 40
-27.096572061219
 40
-27.096572061219
 40
-27.096572061219
 40
-27.096572061219
 40
-26.09657377324559
 40
-25.09657291723229
 40
-24.096572061219
 40
-24.096572061219
 40
-24.096572061219
 40
-24.096572061219
 10
21.74770105745466
 20
31.70887540567614
 30
0.0
 10
21.88498734678438
 20
31.70916682327575
 30
0.0
 10
22.15263499177831
 20
31.6297346007151
 30
0.0
 10
22.48647558423795
 20
31.38450634957493
 30
0.0
 10
22.65712756023282
 20
31.16865455913089
 30
0.0
 10
22.73317937656219
 20
31.05534491486659
 30
0.0
  0
SPLINE
  5
1DC
330
1F
100
AcDbEntity
  8
0
370
    -3
100
AcDbSpline
210
0.0
220
0.0
230
1.0
 70
     8
 71
     3
 72
    24
 73
    20
 74
     0
 42
0.000000001
 43
0.0000000001
 40
-24.096572061219
 40
-24.096572061219
 40
-24.096572061219
 40
-24.096572061219
 40
-23.096572061219
 40
-22.096572061219
 40
-21.096572061219
 40
-20.096572061219
 40
-19.096572061219
 40
-18.096572061219
 40
-17.096572061219
 40
-16.096572061219
 40
-15.096572061219
 40
-14.096572061219
 40
-13.096572061219
 40
-12.096572061219
 40
-11.096572061219
 40
-10.096572061219
 40
-9.096572061218996
 40
-8.096572061218996
 40
-7.096572061218996
 40
-7.096572061218996
 40
-7.096572061218996
 40
-7.096572061218996
 10
22.73317937656219
 20
31.05534491486659
 30
0.0
 10
23.02685787596766
 20
30.61799316205153
 30
0.0
 10
23.53406901240544
 20
29.69129588888089
 30
0.0
 10
24.09790595190611
 20
28.21261774614058
 30
0.0
 10
24.52379344696487
 20
26.69004536060331
 30
0.0
 10
24.85931770366187
 20
25.14578850814061
 30
0.0
 10
25.15809027616393
 20
23.59439066456007
 30
0.0
 10
25.42142901884853
 20
22.03580943154114
 30
0.0
 10
25.82346515219137
 20
20.50575304590373
 30
0.0
 10
26.63318408380457
 20
19.10479747730382
 30
0.0
 10
28.02635388138759
 20
18.2761719461665
 30
0.0
 10
29.58024694516655
 20
17.94580424019674
 30
0.0
 10
31.15790891899837
 20
17.83703814616426
 30
0.0
 10
32.73845025060865
 20
17.85310869090696
 30
0.0
 10
34.3174813816849
 20
17.90632641851414
 30
0.0
 10
35.89516234974519
 20
17.99341503489558
 30
0.0
 10
37.471214731565
 20
18.10480389931578
 30
0.0
 10
39.04681097064451
 20
18.22203795303129
 30
0.0
 10
40.0986089374145
 20
18.28150249409634
 30
0.0
 10
40.62521183811231
 20
18.29249931633612
 30
0.0
  0
SPLINE
  5
1DD
330
1F
100
AcDbEntity
  8
0
370
    -3
100
AcDbSpline
210
0.0
220
0.0
230
1.0
 70
     8
 71
     3
 72
    14
 73
    10
 74
     0
 42
0.000000001
 43
0.0000000001
 40
-7.096572061218996
 40
-7.096572061218996
 40
-7.096572061218996
 40
-7.096572061218996
 40
-6.096474197351765
 40
-5.096376333484534
 40
-4.096278469617303
 40
-3.096180605750073
 40
-2.096082741882842
 40
-1.095984878015611
 40
-0.0965720612189963
 40
-0.0965720612189963
 40
-0.0965720612189963
 40
-0.0965720612189963
 10
40.62521183811231
 20
18.29249931633612
 30
0.0
 10
40.71684841588842
 20
18.29434629181431
 30
0.0
 10
40.90025682076015
 20
18.29402362184612
 30
0.0
 10
41.17477462547998
 20
18.2758304825042
 30
0.0
 10
41.44698935907087
 20
18.23303142259095
 30
0.0
 10
41.710733350157
 20
18.15430944285221
 30
0.0
 10
41.95974276539948
 20
18.03034572933319
 30
0.0
 10
42.15106474087975
 20
17.82801412744607
 30
0.0
 10
42.22042138473842
 20
17.65512238603998
 30
0.0
 10
42.27298476876831
 20
17.58003114676872
 30
0.0
  0
SPLINE
  5
1DE
330
1F
100
AcDbEntity
  8
0
370
    -3
100
AcDbSpline
210
0.0
220
0.0
230
1.0
 70
    12
 71
     3
 72
     8
 73
     4
 74
     0
 42
0.000000001
 43
0.0000000001
 40
-0.0965720612189963
 40
-0.0965720612189963
 40
-0.0965720612189963
 40
-0.0965720612189963
 40
0.0
 40
0.0
 40
0.0
 40
0.0
 10
42.27298476876834
 20
17.58003114676871
 30
0.0
 41
1.047463827611573
 10
42.30308662027998
 20
17.56119148899789
 30
0.0
 41
0.955098980548187
 10
42.31586325983507
 20
17.52884274360586
 30
0.0
 41
0.9975409759113065
 10
42.30879419973747
 20
17.49558528165898
 30
0.0
 41
1.174789813700933
  0
LINE
  5
1DF
330
1F
100
AcDbEntity
  8
0
370
    -3
100
AcDbLine
 10
42.30879419973746
 20
17.49558528165898
 30
0.0
 11
42.29613669190468
 21
17.43623427075241
 31
0.0
  0
SPLINE
  5
1E0
330
1F
100
AcDbEntity
  8
0
370
    -3
100
AcDbSpline
210
0.0
220
0.0
230
1.0
 70
     8
 71
     3
 72
     9
 73
     5
 74
     0
 42
0.000000001
 43
0.0000000001
 40
0.0606857067205103
 40
0.0606857067205103
 40
0.0606857067205103
 40
0.0606857067205103
 40
1.06068570672051
 40
2.06068570672051
 40
2.06068570672051
 40
2.06068570672051
 40
2.06068570672051
 10
42.29613669190468
 20
17.43623427075241
 30
0.0
 10
42.29177813924161
 20
17.41575968343503
 30
0.0
 10
42.26583150445316
 20
17.37876011167114
 30
0.0
 10
42.22235809091114
 20
17.37113326007271
 30
0.0
 10
42.2018128315774
 20
17.37518158492763
 30
0.0
  0
SPLINE
  5
1E1
330
1F
100
AcDbEntity
  8
0
370
    -3
100
AcDbSpline
210
0.0
220
0.0
230
1.0
 70
     8
 71
     3
 72
    12
 73
     8
 74
     0
 42
0.000000001
 43
0.0000000001
 40
2.06068570672051
 40
2.06068570672051
 40
2.06068570672051
 40
2.06068570672051
 40
3.06068570672051
 40
4.060685706720511
 40
5.060685706720511
 40
6.060685706720511
 40
7.060685706720511
 40
7.060685706720511
 40
7.060685706720511
 40
7.060685706720511
 10
42.2018128315774
 20
17.37518158492763
 30
0.0
 10
41.96559975576577
 20
17.42172600913418
 30
0.0
 10
41.48717984540212
 20
17.48476205899404
 30
0.0
 10
40.76413590977324
 20
17.49334521718419
 30
0.0
 10
40.04270069643809
 20
17.45482133676313
 30
0.0
 10
39.32321422132054
 20
17.38967625834974
 30
0.0
 10
38.84581211981651
 20
17.32591905865232
 30
0.0
 10
38.60763722824476
 20
17.29074240530602
 30
0.0
  0
ARC
  5
1E2
330
1F
100
AcDbEntity
  8
0
370
    -3
100
AcDbCircle
 10
-27.58895333546474
 20
18.80509144163105
 30
0.0
 40
2.427235313676162
210
0.0
220
0.0
230
-1.0
100
AcDbArc
 50
297.0490536211794
 51
303.4805528934377
  0
SPLINE
  5
1E3
330
1F
100
AcDbEntity
  8
0
370
    -3
100
AcDbSpline
210
0.0
220
0.0
230
1.0
 70
     8
 71
     3
 72
     9
 73
     5
 74
     0
 42
0.000000001
 43
0.0000000001
 40
-2.0
 40
-2.0
 40
-2.0
 40
-2.0
 40
-1.0
 40
0.0
 40
0.0
 40
0.0
 40
0.0
 10
26.24995946160729
 20
16.78059973413288
 30
0.0
 10
26.14588981683903
 20
16.84943114316417
 30
0.0
 10
25.95623905091526
 20
17.0137682906375
 30
0.0
 10
25.69686157992146
 20
17.35927137678173
 30
0.0
 10
25.62584353686589
 20
17.46158542624656
 30
0.0
  0
SPLINE
  5
1E4
330
1F
100
AcDbEntity
  8
0
370
    -3
100
AcDbSpline
210
0.0
220
0.0
230
1.0
 70
     8
 71
     3
 72
    12
 73
     8
 74
     0
 42
0.000000001
 43
0.0000000001
 40
0.0
 40
0.0
 40
0.0
 40
0.0
 40
1.0
 40
2.0
 40
3.0
 40
4.0
 40
4.976469524593298
 40
4.976469524593298
 40
4.976469524593298
 40
4.976469524593298
 10
25.62584353686589
 20
17.46158542624656
 30
0.0
 10
25.40301446744917
 20
17.78261010461823
 30
0.0
 10
25.00977656451965
 20
18.45956724071976
 30
0.0
 10
24.5460200627744
 20
19.53811045909869
 30
0.0
 10
24.20695327401552
 20
20.6615509179473
 30
0.0
 10
23.93254860722834
 20
21.78962876103108
 30
0.0
 10
23.71666087319528
 20
22.53600329224575
 30
0.0
 10
23.5236613602878
 20
22.86654739722856
 30
0.0
  0
SPLINE
  5
1E5
330
1F
100
AcDbEntity
  8
0
370
    -3
100
AcDbSpline
210
0.0
220
0.0
230
1.0
 70
     8
 71
     3
 72
     8
 73
     4
 74
     0
 42
0.000000001
 43
0.0000000001
 40
4.976469524593298
 40
4.976469524593298
 40
4.976469524593298
 40
4.976469524593298
 40
5.970409187098653
 40
5.970409187098653
 40
5.970409187098653
 40
5.970409187098653
 10
23.5236613602878
 20
22.86654739722856
 30
0.0
 10
23.39124489506588
 20
22.90109363609547
 30
0.0
 10
23.28050523355137
 20
22.93401817716264
 30
0.0
 10
23.12413569176556
 20
22.96456462284996
 30
0.0
  0
SPLINE
  5
1E6
330
1F
100
AcDbEntity
  8
0
370
    -3
100
AcDbSpline
210
0.0
220
0.0
230
1.0
 70
     8
 71
     3
 72
    10
 73
     6
 74
     0
 42
0.000000001
 43
0.0000000001
 40
5.970409187098653
 40
5.970409187098653
 40
5.970409187098653
 40
5.970409187098653
 40
6.970409187098653
 40
7.970409187098657
 40
8.970409187098657
 40
8.970409187098657
 40
8.970409187098657
 40
8.970409187098657
 10
23.12413569176556
 20
22.96456462284996
 30
0.0
 10
23.04233253155945
 20
22.9862223069351
 30
0.0
 10
22.88764263385684
 20
23.06269500361753
 30
0.0
 10
22.71769780639579
 20
23.25795136607206
 30
0.0
 10
22.66368569912584
 20
23.4219031003409
 30
0.0
 10
22.65367203466315
 20
23.50591755739092
 30
0.0
  0
SPLINE
  5
1E7
330
1F
100
AcDbEntity
  8
0
370
    -3
100
AcDbSpline
210
0.0
220
0.0
230
1.0
 70
     8
 71
     3
 72
     8
 73
     4
 74
     0
 42
0.000000001
 43
0.0000000001
 40
8.970409187098657
 40
8.970409187098657
 40
8.970409187098657
 40
8.970409187098657
 40
9.354498396894783
 40
9.354498396894783
 40
9.354498396894783
 40
9.354498396894783
 10
22.65367203466315
 20
23.50591755739092
 30
0.0
 10
22.63832802235402
 20
23.63391351529752
 30
0.0
 10
22.6224169449082
 20
23.76085556120039
 30
0.0
 10
22.60584006183808
 20
23.88701263856689
 30
0.0
  0
SPLINE
  5
1E8
330
1F
100
AcDbEntity
  8
0
370
    -3
100
AcDbSpline
210
0.0
220
0.0
230
1.0
 70
     8
 71
     3
 72
     8
 73
     4
 74
     0
 42
0.000000001
 43
0.0000000001
 40
9.354498396894783
 40
9.354498396894783
 40
9.354498396894783
 40
9.354498396894783
 40
10.35449839689478
 40
10.35449839689478
 40
10.35449839689478
 40
10.35449839689478
 10
22.60584006183808
 20
23.88701263856689
 30
0.0
 10
22.5644409428574
 20
24.20207740882898
 30
0.0
 10
22.98907699437461
 20
24.41674123849405
 30
0.0
 10
23.16093243624954
 20
24.38135245230156
 30
0.0
  0
SPLINE
  5
1E9
330
1F
100
AcDbEntity
  8
0
370
    -3
100
AcDbSpline
210
0.0
220
0.0
230
1.0
 70
     8
 71
     3
 72
     8
 73
     4
 74
     0
 42
0.000000001
 43
0.0000000001
 40
10.35449839689478
 40
10.35449839689478
 40
10.35449839689478
 40
10.35449839689478
 40
11.35449839689479
 40
11.35449839689479
 40
11.35449839689479
 40
11.35449839689479
 10
23.16093243624954
 20
24.38135245230156
 30
0.0
 10
23.42702146330492
 20
24.32655891429134
 30
0.0
 10
23.68764873897169
 20
24.24877366162522
 30
0.0
 10
23.95181145849045
 20
24.18564053484428
 30
0.0
  0
SPLINE
  5
1EA
330
1F
100
AcDbEntity
  8
0
370
    -3
100
AcDbSpline
210
0.0
220
0.0
230
1.0
 70
     8
 71
     3
 72
    12
 73
     8
 74
     0
 42
0.000000001
 43
0.0000000001
 40
11.35449839689479
 40
11.35449839689479
 40
11.35449839689479
 40
11.35449839689479
 40
12.35436045201132
 40
13.35439493823218
 40
14.35442942445305
 40
15.35446391067392
 40
16.35449839689478
 40
16.35449839689478
 40
16.35449839689478
 40
16.35449839689478
 10
23.95181145849045
 20
24.18564053484428
 30
0.0
 10
24.09304610083956
 20
24.14542661061408
 30
0.0
 10
24.30737438799605
 20
23.94228223257306
 30
0.0
 10
24.55561752863076
 20
23.59036067156455
 30
0.0
 10
24.77339489630975
 20
23.21640732313695
 30
0.0
 10
24.94220799402797
 20
22.81797706787353
 30
0.0
 10
25.01690477641807
 20
22.53921843014535
 30
0.0
 10
25.04407824157545
 20
22.39774271506519
 30
0.0
  0
SPLINE
  5
1EB
330
1F
100
AcDbEntity
  8
0
370
    -3
100
AcDbSpline
210
0.0
220
0.0
230
1.0
 70
     8
 71
     3
 72
    24
 73
    20
 74
     0
 42
0.000000001
 43
0.0000000001
 40
16.35449839689478
 40
16.35449839689478
 40
16.35449839689478
 40
16.35449839689478
 40
17.35449839689478
 40
18.35449839689478
 40
19.35449839689478
 40
20.35449839689478
 40
21.35449839689478
 40
22.35449839689478
 40
23.35449839689478
 40
24.35449839689478
 40
25.35449839689478
 40
26.35449839689478
 40
27.35449839689478
 40
28.35449839689478
 40
29.35449839689478
 40
30.35449839689478
 40
31.35449839689478
 40
32.35449839689478
 40
33.35449839689478
 40
33.35449839689478
 40
33.35449839689478
 40
33.35449839689478
 10
25.04407824157545
 20
22.39774271506519
 30
0.0
 10
25.1027466658569
 20
22.08925375112591
 30
0.0
 10
25.23707996197794
 20
21.47564044299455
 30
0.0
 10
25.51713080822412
 20
20.57506991398911
 30
0.0
 10
25.91530462001236
 20
19.71868179405854
 30
0.0
 10
26.47557965143415
 20
18.95257334265416
 30
0.0
 10
27.22975793589302
 20
18.37245496875187
 30
0.0
 10
28.10386692856281
 20
18.0085947185341
 30
0.0
 10
29.01875499498681
 20
17.77920874425575
 30
0.0
 10
29.95325434673089
 20
17.65439223077777
 30
0.0
 10
30.89350402745799
 20
17.59614304737156
 30
0.0
 10
31.83537093395557
 20
17.58788337723492
 30
0.0
 10
32.77692131837398
 20
17.60649192312263
 30
0.0
 10
33.71805098790139
 20
17.63801460100535
 30
0.0
 10
34.65891386627976
 20
17.68241208370294
 30
0.0
 10
35.59912948259165
 20
17.71888622220921
 30
0.0
 10
36.5431982589393
 20
17.74976873682701
 30
0.0
 10
37.4746727788397
 20
17.74472661909687
 30
0.0
 10
38.12758777400882
 20
17.73093917063926
 30
0.0
 10
38.38160666265617
 20
17.54124572957987
 30
0.0
  0
SPLINE
  5
1EC
330
1F
100
AcDbEntity
  8
0
370
    -3
100
AcDbSpline
210
0.0
220
0.0
230
1.0
 70
     8
 71
     3
 72
     9
 73
     5
 74
     0
 42
0.000000001
 43
0.0000000001
 40
33.35449839689478
 40
33.35449839689478
 40
33.35449839689478
 40
33.35449839689478
 40
34.35467420477084
 40
35.35449839689478
 40
35.35449839689478
 40
35.35449839689478
 40
35.35449839689478
 10
38.38160666265617
 20
17.54124572957987
 30
0.0
 10
38.4111828812911
 20
17.4902612434733
 30
0.0
 10
38.47288639360238
 20
17.3931325106072
 30
0.0
 10
38.55516158879902
 20
17.30563547128187
 30
0.0
 10
38.61242196482448
 20
17.28978172686132
 30
0.0
  0
SPLINE
  5
1ED
330
1F
100
AcDbEntity
  8
0
370
    -3
100
AcDbSpline
210
0.0
220
0.0
230
1.0
 70
     8
 71
     3
 72
     9
 73
     5
 74
     0
 42
0.000000001
 43
0.0000000001
 40
35.35449839689478
 40
35.35449839689478
 40
35.35449839689478
 40
35.35449839689478
 40
36.35365884756742
 40
37.35449839689478
 40
37.35449839689478
 40
37.35449839689478
 40
37.35449839689478
 10
38.61242196482448
 20
17.28978172686132
 30
0.0
 10
38.62490430371133
 20
17.28864346016113
 30
0.0
 10
38.64893644759024
 20
17.27756963993869
 30
0.0
 10
38.66120154084865
 20
17.25411786334541
 30
0.0
 10
38.66296071615591
 20
17.24168626957996
 30
0.0
  0
SPLINE
  5
1EE
330
1F
100
AcDbEntity
  8
0
370
    -3
100
AcDbSpline
210
0.0
220
0.0
230
1.0
 70
     8
 71
     3
 72
     9
 73
     5
 74
     0
 42
0.000000001
 43
0.0000000001
 40
37.35449839689478
 40
37.35449839689478
 40
37.35449839689478
 40
37.35449839689478
 40
38.35449839689478
 40
39.35449839689478
 40
39.35449839689478
 40
39.35449839689478
 40
39.35449839689478
 10
38.66296071615591
 20
17.24168626957996
 30
0.0
 10
38.6695963582099
 20
17.20121170625941
 30
0.0
 10
38.67927594735602
 20
17.11925389985552
 30
0.0
 10
38.66900969760212
 20
17.03718526569597
 30
0.0
 10
38.6616430564452
 20
16.99686895772611
 30
0.0
  0
SPLINE
  5
1EF
330
1F
100
AcDbEntity
  8
0
370
    -3
100
AcDbSpline
210
0.0
220
0.0
230
1.0
 70
     8
 71
     3
 72
     9
 73
     5
 74
     0
 42
0.000000001
 43
0.0000000001
 40
39.35449839689478
 40
39.35449839689478
 40
39.35449839689478
 40
39.35449839689478
 40
40.35449839689478
 40
41.35449839689478
 40
41.35449839689478
 40
41.35449839689478
 40
41.35449839689478
 10
38.6616430564452
 20
16.99686895772611
 30
0.0
 10
38.64429665264004
 20
16.90833739214358
 30
0.0
 10
38.58604518414967
 20
16.73596048780996
 30
0.0
 10
38.451455047829
 20
16.60013536164945
 30
0.0
 10
38.35954587825773
 20
16.58454341202662
 30
0.0
  0
ARC
  5
1F0
330
1F
100
AcDbEntity
  8
0
370
    -3
100
AcDbCircle
 10
43.41802902485472
 20
-14.63489071581137
 30
0.0
 40
31.62659196003927
100
AcDbArc
 50
99.20364492028011
 51
100.0402630916747
  0
ARC
  5
1F1
330
1F
100
AcDbEntity
  8
0
370
    -3
100
AcDbCircle
 10
-37.79516145785493
 20
17.12345694396825
 30
0.0
 40
0.6256837078178322
210
0.0
220
0.0
230
-1.0
100
AcDbArc
 50
259.9597417989339
 51
295.1787869277208
  0
SPLINE
  5
1F2
330
1F
100
AcDbEntity
  8
0
370
    -3
100
AcDbSpline
210
0.0
220
0.0
230
1.0
 70
     8
 71
     3
 72
    13
 73
     9
 74
     0
 42
0.000000001
 43
0.0000000001
 40
0.0
 40
0.0
 40
0.0
 40
0.0
 40
1.0
 40
2.0
 40
3.0
 40
4.0
 40
5.0
 40
6.0
 40
6.0
 40
6.0
 40
6.0
 10
23.38433622486787
 20
22.90358055799763
 30
0.0
 10
23.42176984386521
 20
22.54208714204584
 30
0.0
 10
23.48407964789789
 20
21.81796023124298
 30
0.0
 10
23.56994938995439
 20
20.7310049618403
 30
0.0
 10
23.70138698165835
 20
19.64851477746193
 30
0.0
 10
23.90413399659201
 20
18.57576253919689
 30
0.0
 10
24.29544847333733
 20
17.54935514022755
 30
0.0
 10
24.74960191632266
 20
16.96901935934571
 30
0.0
 10
25.02334455465842
 20
16.72946400673948
 30
0.0
  0
ARC
  5
1F3
330
1F
100
AcDbEntity
  8
0
370
    -3
100
AcDbCircle
 10
27.29651043782445
 20
19.32703663228439
 30
0.0
 40
3.451762836199813
100
AcDbArc
 50
228.8104542013491
 51
249.3997690872157
  0
SPLINE
  5
1F4
330
1F
100
AcDbEntity
  8
0
370
    -3
100
AcDbSpline
210
0.0
220
0.0
230
1.0
 70
     8
 71
     3
 72
     8
 73
     4
 74
     0
 42
0.000000001
 43
0.0000000001
 40
7.240395584977126
 40
7.240395584977126
 40
7.240395584977126
 40
7.240395584977126
 40
7.943976961875453
 40
7.943976961875453
 40
7.943976961875453
 40
7.943976961875453
 10
26.08202348988129
 20
16.09598600893509
 30
0.0
 10
26.34985330789198
 20
15.99531416681248
 30
0.0
 10
26.76210600929426
 20
15.88513643350777
 30
0.0
 10
27.12363165688032
 20
15.8110541934666
 30
0.0
  0
ARC
  5
1F5
330
1F
100
AcDbEntity
  8
0
370
    -3
100
AcDbCircle
 10
-31.30087043080673
 20
12.72723030611608
 30
0.0
 40
0.0500000000024505
210
0.0
220
0.0
230
-1.0
100
AcDbArc
 50
355.2508376267361
 51
35.10019268388317
  0
SPLINE
  5
1F6
330
1F
100
AcDbEntity
  8
0
370
    -3
100
AcDbSpline
210
0.0
220
0.0
230
1.0
 70
    12
 71
     2
 72
     6
 73
     3
 74
     0
 42
0.000000001
 43
0.0000000001
 40
-0.2834262881256811
 40
-0.2834262881256811
 40
-0.2834262881256811
 40
-0.2740209194241565
 40
-0.2740209194241565
 40
-0.2740209194241565
 10
31.2599630416199
 20
12.75598070629007
 30
0.0
 41
0.9710378411007935
 10
31.26270617648031
 20
12.75988376449608
 30
0.0
 41
0.980957584679293
 10
31.26613789642648
 20
12.76319766709462
 30
0.0
 41
0.9999999999999843
  0
SPLINE
  5
1F7
330
1F
100
AcDbEntity
  8
0
370
    -3
100
AcDbSpline
210
0.0
220
0.0
230
1.0
 70
    28
 71
     2
 72
     6
 73
     3
 74
     0
 42
0.000000001
 43
0.0000000001
 40
-0.2740209194241565
 40
-0.2740209194241565
 40
-0.2740209194241565
 40
-0.2424903208515837
 40
-0.2424903208515837
 40
-0.2424903208515837
 10
31.26613789642648
 20
12.76319766709462
 30
0.0
 41
0.9999999999999997
 10
31.27747858473814
 20
12.77414924249679
 30
0.0
 41
0.9999999999999997
 10
31.2888192730498
 20
12.78510081789896
 30
0.0
 41
0.9999999999999997
  0
SPLINE
  5
1F8
330
1F
100
AcDbEntity
  8
0
370
    -3
100
AcDbSpline
210
0.0
220
0.0
230
1.0
 70
    12
 71
     2
 72
     6
 73
     3
 74
     0
 42
0.000000001
 43
0.0000000001
 40
-0.2424903208515837
 40
-0.2424903208515837
 40
-0.2424903208515837
 40
-0.2040930788962105
 40
-0.2040930788962105
 40
-0.2040930788962105
 10
31.28881927304977
 20
12.78510081789895
 30
0.0
 41
1.0
 10
31.3033508797707
 20
12.79913382708039
 30
0.0
 41
0.9271838605174207
 10
31.32355219013854
 20
12.7991338275
 30
0.0
 41
1.0
  0
SPLINE
  5
1F9
330
1F
100
AcDbEntity
  8
0
370
    -3
100
AcDbSpline
210
0.0
220
0.0
230
1.0
 70
    28
 71
     2
 72
     8
 73
     5
 74
     0
 42
0.000000001
 43
0.0000000001
 40
-0.2040930788962105
 40
-0.2040930788962105
 40
-0.2040930788962105
 40
0.8581721230613135
 40
0.8581721230613135
 40
1.920437325018838
 40
1.920437325018838
 40
1.920437325018838
 10
31.32355219013854
 20
12.7991338275
 30
0.0
 41
1.0
 10
31.32355219013855
 20
12.79913382750001
 30
0.0
 41
0.7071067811865459
 10
31.99981122224128
 20
12.7991338275
 30
0.0
 41
1.0
 10
32.67607025434401
 20
12.79913382750001
 30
0.0
 41
0.7071067811865459
 10
32.67607025434398
 20
12.7991338275
 30
0.0
 41
1.0
  0
SPLINE
  5
1FA
330
1F
100
AcDbEntity
  8
0
370
    -3
100
AcDbSpline
210
0.0
220
0.0
230
1.0
 70
    12
 71
     2
 72
     6
 73
     3
 74
     0
 42
0.000000001
 43
0.0000000001
 40
1.920437325018838
 40
1.920437325018838
 40
1.920437325018838
 40
1.958834566974211
 40
1.958834566974211
 40
1.958834566974211
 10
32.67607025434398
 20
12.7991338275
 30
0.0
 41
1.0
 10
32.69627156471181
 20
12.79913382708039
 30
0.0
 41
0.9271838605174207
 10
32.71080317143276
 20
12.78510081789895
 30
0.0
 41
1.0
  0
SPLINE
  5
1FB
330
1F
100
AcDbEntity
  8
0
370
    -3
100
AcDbSpline
210
0.0
220
0.0
230
1.0
 70
    28
 71
     2
 72
     6
 73
     3
 74
     0
 42
0.000000001
 43
0.0000000001
 40
1.958834566974211
 40
1.958834566974211
 40
1.958834566974211
 40
1.990539834479728
 40
1.990539834479728
 40
1.990539834479728
 10
32.71080317143277
 20
12.78510081789896
 30
0.0
 41
0.9999999999465966
 10
32.72214819815082
 20
12.77414505248549
 30
0.0
 41
0.9999999999465966
 10
32.73349322486886
 20
12.76318928707201
 30
0.0
 41
0.9999999999465966
  0
SPLINE
  5
1FC
330
1F
100
AcDbEntity
  8
0
370
    -3
100
AcDbSpline
210
0.0
220
0.0
230
1.0
 70
    12
 71
     2
 72
     6
 73
     3
 74
     0
 42
0.000000001
 43
0.0000000001
 40
1.990539834479728
 40
1.990539834479728
 40
1.990539834479728
 40
2.025229103368198
 40
2.025229103368198
 40
2.025229103368198
 10
32.73349322486886
 20
12.76318928707201
 30
0.0
 41
0.9999999999380336
 10
32.74677154299869
 20
12.75036727173996
 30
0.0
 41
0.930173904281862
 10
32.7485377422599
 20
12.73199762486887
 30
0.0
 41
0.9830835450152129
  0
SPLINE
  5
1FD
330
1F
100
AcDbEntity
  8
0
370
    -3
100
AcDbSpline
210
0.0
220
0.0
230
1.0
 70
    12
 71
     2
 72
     6
 73
     3
 74
     0
 42
0.000000001
 43
0.0000000001
 40
-0.026458339207558
 40
-0.026458339207558
 40
-0.026458339207558
 40
-0.0257750384491904
 40
-0.0257750384491904
 40
-0.0257750384491904
 10
37.78284556198015
 20
14.13473979268055
 30
0.0
 41
0.9324741921243174
 10
37.78290607007958
 20
14.134708962264
 30
0.0
 41
0.928135760186523
 10
37.78297444146789
 20
14.13468570223717
 30
0.0
 41
0.9240664497924684
  0
LINE
  5
1FE
330
1F
100
AcDbEntity
  8
0
370
    -3
100
AcDbLine
 10
36.66696009052461
 20
16.86526252760829
 30
0.0
 11
36.59729201973525
 21
16.85270059082271
 31
0.0
  0
SPLINE
  5
1FF
330
1F
100
AcDbEntity
  8
0
370
    -3
100
AcDbSpline
210
0.0
220
0.0
230
1.0
 70
     8
 71
     2
 72
     8
 73
     5
 74
     0
 42
0.000000001
 43
0.0000000001
 40
0.0
 40
0.0
 40
0.0
 40
1.0
 40
2.0
 40
3.0
 40
3.0
 40
3.0
 10
36.59729201973525
 20
16.85270059082271
 30
0.0
 10
36.54639472016731
 20
16.84352323522084
 30
0.0
 10
36.44563100359068
 20
16.8200137552719
 30
0.0
 10
36.34715852364741
 20
16.78827858745225
 30
0.0
 10
36.29781702318033
 20
16.77282447039653
 30
0.0
  0
SPLINE
  5
200
330
1F
100
AcDbEntity
  8
0
370
    -3
100
AcDbSpline
210
0.0
220
0.0
230
1.0
 70
     8
 71
     3
 72
     8
 73
     4
 74
     0
 42
0.000000001
 43
0.0000000001
 40
3.0
 40
3.0
 40
3.0
 40
3.0
 40
3.299754613839793
 40
3.299754613839793
 40
3.299754613839793
 40
3.299754613839793
 10
36.29781702318033
 20
16.77282447039653
 30
0.0
 10
36.20416066980138
 20
16.74327818281616
 30
0.0
 10
36.10841210966606
 20
16.72308654747361
 30
0.0
 10
36.01195332185489
 20
16.71216665756432
 30
0.0
  0
SPLINE
  5
201
330
1F
100
AcDbEntity
  8
0
370
    -3
100
AcDbSpline
210
0.0
220
0.0
230
1.0
 70
     8
 71
     2
 72
     6
 73
     3
 74
     0
 42
0.000000001
 43
0.0000000001
 40
3.299754613839793
 40
3.299754613839793
 40
3.299754613839793
 40
4.299754613839793
 40
4.299754613839793
 40
4.299754613839793
 10
36.01195332185489
 20
16.71216665756432
 30
0.0
 10
35.0087591746848
 20
16.61644291411832
 30
0.0
 10
34.00510796969016
 20
16.52014175834734
 30
0.0
  0
SPLINE
  5
202
330
1F
100
AcDbEntity
  8
0
370
    -3
100
AcDbSpline
210
0.0
220
0.0
230
1.0
 70
     8
 71
     2
 72
    11
 73
     8
 74
     0
 42
0.000000001
 43
0.0000000001
 40
4.299754613839793
 40
4.299754613839793
 40
4.299754613839793
 40
5.299754613839793
 40
6.299754613839793
 40
7.299754613839793
 40
8.299754613839793
 40
9.299754613839793
 40
10.29975461383979
 40
10.29975461383979
 40
10.29975461383979
 10
34.00510796969016
 20
16.52014175834734
 30
0.0
 10
33.88540265456518
 20
16.50835171669797
 30
0.0
 10
33.69190642766475
 20
16.36599763418891
 30
0.0
 10
33.605355047155
 20
16.14335388683915
 30
0.0
 10
33.63285695662273
 20
15.90542040211389
 30
0.0
 10
33.79429283114598
 20
15.72583567230288
 30
0.0
 10
34.02079592937812
 20
15.65012861831067
 30
0.0
 10
34.13817354052506
 20
15.67438044461834
 30
0.0
  0
SPLINE
  5
203
330
1F
100
AcDbEntity
  8
0
370
    -3
100
AcDbSpline
210
0.0
220
0.0
230
1.0
 70
    24
 71
     2
 72
     6
 73
     3
 74
     0
 42
0.000000001
 43
0.0000000001
 40
10.29975461383979
 40
10.29975461383979
 40
10.29975461383979
 40
12.03113246076136
 40
12.03113246076136
 40
12.03113246076136
 10
34.13817354052506
 20
15.67438044461834
 30
0.0
 10
34.98360852535639
 20
15.85195179751356
 30
0.0
 10
35.82904351018772
 20
16.02952315040878
 30
0.0
  0
SPLINE
  5
204
330
1F
100
AcDbEntity
  8
0
370
    -3
100
AcDbSpline
210
0.0
220
0.0
230
1.0
 70
     8
 71
     2
 72
    12
 73
     9
 74
     0
 42
0.000000001
 43
0.0000000001
 40
12.03113246076136
 40
12.03113246076136
 40
12.03113246076136
 40
13.03113246076136
 40
14.03113246076136
 40
15.03113246076136
 40
16.03113246076136
 40
17.03113246076136
 40
18.03113246076136
 40
19.03113246076136
 40
19.03113246076136
 40
19.03113246076136
 10
35.82904351018772
 20
16.02952315040878
 30
0.0
 10
35.87657100425463
 20
16.03973636698879
 30
0.0
 10
35.97282072411173
 20
16.05192795849192
 30
0.0
 10
36.06972287161125
 20
16.06398157639944
 30
0.0
 10
36.15734835588526
 20
16.10793343085847
 30
0.0
 10
36.22695170801939
 20
16.1767950585153
 30
0.0
 10
36.2714286837242
 20
16.26405686493544
 30
0.0
 10
36.28731689275307
 20
16.36029130582071
 30
0.0
 10
36.29585278262968
 20
16.40826552688468
 30
0.0
  0
SPLINE
  5
205
330
1F
100
AcDbEntity
  8
0
370
    -3
100
AcDbSpline
210
0.0
220
0.0
230
1.0
 70
     8
 71
     2
 72
     8
 73
     5
 74
     0
 42
0.000000001
 43
0.0000000001
 40
19.03113246076136
 40
19.03113246076136
 40
19.03113246076136
 40
20.03113246076136
 40
21.03113246076136
 40
22.03113246076136
 40
22.03113246076136
 40
22.03113246076136
 10
36.29585278262968
 20
16.40826552688468
 30
0.0
 10
36.30399186667319
 20
16.45420780708021
 30
0.0
 10
36.35232937768731
 20
16.53372511897274
 30
0.0
 10
36.42689905502127
 20
16.58844153617665
 30
0.0
 10
36.46978132409745
 20
16.60556183022318
 30
0.0
  0
ARC
  5
206
330
1F
100
AcDbEntity
  8
0
370
    -3
100
AcDbCircle
 10
-37.06429663895082
 20
15.11644221392578
 30
0.0
 40
1.603410643358994
210
0.0
220
0.0
230
-1.0
100
AcDbArc
 50
68.23616553712196
 51
76.98538795228583
  0
LINE
  5
207
330
1F
100
AcDbEntity
  8
0
100
AcDbLine
 10
36.66696009052461
 20
16.86526252760829
 30
0.0
 11
36.67040330435802
 21
16.82141434895513
 31
0.0
  0
LINE
  5
208
330
1F
100
AcDbEntity
  8
0
100
AcDbLine
 10
36.67040330435802
 20
16.82141434895513
 30
0.0
 11
36.70320930122426
 21
16.67866550967145
 31
0.0
  0
SPLINE
  5
209
330
1F
100
AcDbEntity
  8
0
370
    -3
100
AcDbSpline
210
0.0
220
0.0
230
1.0
 70
    12
 71
     2
 72
    18
 73
    15
 74
     0
 42
0.000000001
 43
0.0000000001
 40
12.07279426814068
 40
12.07279426814068
 40
12.07279426814068
 40
13.30466009795672
 40
13.30466009795672
 40
13.35927907639661
 40
13.35927907639661
 40
14.35927907639661
 40
15.35927907639661
 40
16.35927907639661
 40
17.35927907639661
 40
18.35927907639661
 40
19.35927907639661
 40
19.35927907639661
 40
20.35927907639661
 40
21.35927907639661
 40
21.35927907639661
 40
21.35927907639661
 10
36.44306230588271
 20
16.81819023367335
 30
0.0
 41
0.9990002322364084
 10
37.03010459106245
 20
17.06417659117169
 30
0.0
 41
0.9519928457183131
 10
37.65093740128535
 20
16.92383930312937
 30
0.0
 41
1.0
 10
37.65721982232375
 20
16.89714493541224
 30
0.0
 41
0.9937659066343913
 10
37.65743103394274
 20
16.86972207138288
 30
0.0
 41
1.0
 10
37.65854014960141
 20
16.72571897132846
 30
0.0
 41
1.0
 10
37.48829432090352
 20
16.50091405676979
 30
0.0
 41
1.0
 10
37.26415800410231
 20
16.33811446627264
 30
0.0
 41
1.0
 10
37.03206236050343
 20
16.18813171586289
 30
0.0
 41
1.0
 10
36.80462156294101
 20
16.03093704068804
 30
0.0
 41
1.0
 10
36.58986590077564
 20
15.85319250888146
 30
0.0
 41
1.0
 10
36.49799454962908
 20
15.74961405233445
 30
0.0
 41
1.0
 10
35.62864477639215
 20
14.76948361354602
 30
0.0
 41
1.0
 10
33.89086831692862
 20
12.8084044875781
 30
0.0
 41
1.0
 10
33.02235809760913
 20
11.82753006798967
 30
0.0
 41
1.0
  0
SPLINE
  5
20A
330
1F
100
AcDbEntity
  8
0
370
    -3
100
AcDbSpline
210
0.0
220
0.0
230
1.0
 70
     8
 71
     3
 72
     8
 73
     4
 74
     0
 42
0.000000001
 43
0.0000000001
 40
21.35927907639661
 40
21.35927907639661
 40
21.35927907639661
 40
21.35927907639661
 40
22.35927907639661
 40
22.35927907639661
 40
22.35927907639661
 40
22.35927907639661
 10
33.02235809760913
 20
11.82753006798967
 30
0.0
 10
32.98087142712311
 20
11.78067602651907
 30
0.0
 10
32.93638725447624
 20
11.71052622878095
 30
0.0
 10
32.93481122224125
 20
11.65213382750001
 30
0.0
  0
SPLINE
  5
20B
330
1F
100
AcDbEntity
  8
0
370
    -3
100
AcDbSpline
210
0.0
220
0.0
230
1.0
 70
     8
 71
     2
 72
     8
 73
     5
 74
     0
 42
0.000000001
 43
0.0000000001
 40
22.35927907639661
 40
22.35927907639661
 40
22.35927907639661
 40
23.35927907639661
 40
24.35927907639661
 40
25.35927907639661
 40
25.35927907639661
 40
25.35927907639661
 10
32.93481122224125
 20
11.65213382750001
 30
0.0
 10
32.93289014619279
 20
11.58095746382985
 30
0.0
 10
32.88199189284688
 20
11.44799627694825
 30
0.0
 10
32.78972559794119
 20
11.33956464119187
 30
0.0
 10
32.72820651103385
 20
11.30374035997663
 30
0.0
  0
SPLINE
  5
20C
330
1F
100
AcDbEntity
  8
0
370
    -3
100
AcDbSpline
210
0.0
220
0.0
230
1.0
 70
     8
 71
     2
 72
     6
 73
     3
 74
     0
 42
0.000000001
 43
0.0000000001
 40
25.35927907639661
 40
25.35927907639661
 40
25.35927907639661
 40
26.35927907639661
 40
26.35927907639661
 40
26.35927907639661
 10
32.72820651103385
 20
11.30374035997663
 30
0.0
 10
32.70885499693273
 20
11.2915482860425
 30
0.0
 10
32.70407066264789
 20
11.26918153579047
 30
0.0
  0
SPLINE
  5
20D
330
1F
100
AcDbEntity
  8
0
370
    -3
100
AcDbSpline
210
0.0
220
0.0
230
1.0
 70
    28
 71
     2
 72
     6
 73
     3
 74
     0
 42
0.000000001
 43
0.0000000001
 40
26.35927907639661
 40
26.35927907639661
 40
26.35927907639661
 40
26.41383806122119
 40
26.41383806122119
 40
26.41383806122119
 10
32.70407066264789
 20
11.26918153579046
 30
0.0
 41
1.0
 10
32.69933364548321
 20
11.24231647716264
 30
0.0
 41
1.0
 10
32.69459662831854
 20
11.21545141853481
 30
0.0
 41
1.0
  0
SPLINE
  5
20E
330
1F
100
AcDbEntity
  8
0
370
    -3
100
AcDbSpline
210
0.0
220
0.0
230
1.0
 70
    12
 71
     2
 72
     6
 73
     3
 74
     0
 42
0.000000001
 43
0.0000000001
 40
26.41383806122119
 40
26.41383806122119
 40
26.41383806122119
 40
26.48365123123341
 40
26.48365123123341
 40
26.48365123123341
 10
32.69459662831855
 20
11.21545141853481
 30
0.0
 41
1.0
 10
32.68731122218233
 20
11.17413382749235
 30
0.0
 41
0.7660444435532209
 10
32.64535624068236
 20
11.1741338275
 30
0.0
 41
1.0
  0
LINE
  5
20F
330
1F
100
AcDbEntity
  8
0
370
    -3
100
AcDbLine
 10
32.64535624068236
 20
11.1741338275
 30
0.0
 11
31.35426620380017
 21
11.1741338275
 31
0.0
  0
SPLINE
  5
210
330
1F
100
AcDbEntity
  8
0
370
    -3
100
AcDbSpline
210
0.0
220
0.0
230
1.0
 70
    12
 71
     2
 72
     6
 73
     3
 74
     0
 42
0.000000001
 43
0.0000000001
 40
27.7747412681156
 40
27.7747412681156
 40
27.7747412681156
 40
27.84455443812782
 40
27.84455443812782
 40
27.84455443812782
 10
31.35426620380017
 20
11.1741338275
 30
0.0
 41
1.0
 10
31.31231122230022
 20
11.17413382749235
 30
0.0
 41
0.7660444435532209
 10
31.30502581616398
 20
11.21545141853481
 30
0.0
 41
1.0
  0
SPLINE
  5
211
330
1F
100
AcDbEntity
  8
0
370
    -3
100
AcDbSpline
210
0.0
220
0.0
230
1.0
 70
    28
 71
     2
 72
     6
 73
     3
 74
     0
 42
0.000000001
 43
0.0000000001
 40
27.84455443812782
 40
27.84455443812782
 40
27.84455443812782
 40
27.91726026590144
 40
27.91726026590144
 40
27.91726026590144
 10
31.305025816164
 20
11.2154514185348
 30
0.0
 41
0.9999999999867013
 10
31.29871320123184
 20
11.25125205037577
 30
0.0
 41
0.9999999999867013
 10
31.2924005862997
 20
11.28705268221674
 30
0.0
 41
0.9999999999867012
  0
SPLINE
  5
212
330
1F
100
AcDbEntity
  8
0
370
    -3
100
AcDbSpline
210
0.0
220
0.0
230
1.0
 70
     8
 71
     2
 72
     6
 73
     3
 74
     0
 42
0.000000001
 43
0.0000000001
 40
27.91726026590144
 40
27.91726026590144
 40
27.91726026590144
 40
28.91726026590144
 40
28.91726026590144
 40
28.91726026590144
 10
31.29240058629972
 20
11.28705268221674
 30
0.0
 10
31.28776624625445
 20
11.31049351875268
 30
0.0
 10
31.2670034519887
 20
11.32231965691125
 30
0.0
  0
SPLINE
  5
213
330
1F
100
AcDbEntity
  8
0
370
    -3
100
AcDbSpline
210
0.0
220
0.0
230
1.0
 70
     8
 71
     2
 72
     8
 73
     5
 74
     0
 42
0.000000001
 43
0.0000000001
 40
28.91726026590144
 40
28.91726026590144
 40
28.91726026590144
 40
29.91726026590144
 40
30.91726026590144
 40
31.91726026590144
 40
31.91726026590144
 40
31.91726026590144
 10
31.2670034519887
 20
11.32231965691125
 30
0.0
 10
31.20958994930709
 20
11.35365142892915
 30
0.0
 10
31.12129492420999
 20
11.45031332367633
 30
0.0
 10
31.07064501815086
 20
11.57092487141048
 30
0.0
 10
31.06600750851473
 20
11.63618995153062
 30
0.0
  0
SPLINE
  5
214
330
1F
100
AcDbEntity
  8
0
370
    -3
100
AcDbSpline
210
0.0
220
0.0
230
1.0
 70
     8
 71
     3
 72
     8
 73
     4
 74
     0
 42
0.000000001
 43
0.0000000001
 40
31.91726026590144
 40
31.91726026590144
 40
31.91726026590144
 40
31.91726026590144
 40
32.91726026590143
 40
32.91726026590143
 40
32.91726026590143
 40
32.91726026590143
 10
31.06600750851473
 20
11.63618995153062
 30
0.0
 10
31.06153882133637
 20
11.699079141982
 30
0.0
 10
31.0121706213869
 20
11.7737530188481
 30
0.0
 10
30.96574393610939
 20
11.82203055156056
 30
0.0
  0
SPLINE
  5
215
330
1F
100
AcDbEntity
  8
0
370
    -3
100
AcDbSpline
210
0.0
220
0.0
230
1.0
 70
     8
 71
     2
 72
     7
 73
     4
 74
     0
 42
0.000000001
 43
0.0000000001
 40
-21.04419558881974
 40
-21.04419558881974
 40
-21.04419558881974
 40
-20.04419558881974
 40
-19.04419558881974
 40
-19.04419558881974
 40
-19.04419558881974
 10
30.96574393610939
 20
11.82203055156056
 30
0.0
 10
30.00771476933159
 20
12.81825253385662
 30
0.0
 10
28.09146892409413
 20
14.81052269133683
 30
0.0
 10
27.13049786301377
 20
15.80390000637919
 30
0.0
  0
SPLINE
  5
216
330
1F
100
AcDbEntity
  8
0
370
    -3
100
AcDbSpline
210
0.0
220
0.0
230
1.0
 70
     8
 71
     2
 72
    15
 73
    12
 74
     0
 42
0.000000001
 43
0.0000000001
 40
-19.04419558881974
 40
-19.04419558881974
 40
-19.04419558881974
 40
-18.04419558881974
 40
-17.04419558881974
 40
-16.04419558881974
 40
-15.04419558881974
 40
-14.04419558881974
 40
-13.04419558881974
 40
-12.04419558881974
 40
-11.04419558881974
 40
-10.04419558881974
 40
-9.044195588819736
 40
-9.044195588819736
 40
-9.044195588819736
 10
27.13049786301377
 20
15.80390000637919
 30
0.0
 10
27.06206995828137
 20
15.87506492137987
 30
0.0
 10
26.92791627448818
 20
16.01995564129292
 30
0.0
 10
26.79863233542295
 20
16.16921842083006
 30
0.0
 10
26.67583491582877
 20
16.32390685000792
 30
0.0
 10
26.56416232903254
 20
16.48688306590029
 30
0.0
 10
26.47158798621317
 20
16.66175122735142
 30
0.0
 10
26.41920288630931
 20
16.85393272422829
 30
0.0
 10
26.43603041432698
 20
17.05081007350198
 30
0.0
 10
26.48284962193722
 20
17.2492572578567
 30
0.0
 10
26.64856049995879
 20
17.36597743610812
 30
0.0
 10
26.75021733748753
 20
17.37008069013079
 30
0.0
  0
ARC
  5
217
330
1F
100
AcDbEntity
  8
0
370
    -3
100
AcDbCircle
 10
-26.06462143219355
 20
15.13580209629114
 30
0.0
 40
2.337101320064228
210
0.0
220
0.0
230
-1.0
100
AcDbArc
 50
107.0588079767487
 51
132.6580405439976
  0
SPLINE
  5
218
330
1F
100
AcDbEntity
  8
0
370
    -3
100
AcDbSpline
210
0.0
220
0.0
230
1.0
 70
     8
 71
     2
 72
     8
 73
     5
 74
     0
 42
0.000000001
 43
0.0000000001
 40
-8.0
 40
-8.0
 40
-8.0
 40
-7.0
 40
-6.0
 40
-5.0
 40
-5.0
 40
-5.0
 10
27.64829103788796
 20
16.85453219733832
 30
0.0
 10
27.66377612452717
 20
16.76524801132047
 30
0.0
 10
27.66052894236026
 20
16.58479955605986
 30
0.0
 10
27.65494359849765
 20
16.40440007367035
 30
0.0
 10
27.65468178057679
 20
16.31415188571816
 30
0.0
  0
SPLINE
  5
219
330
1F
100
AcDbEntity
  8
0
370
    -3
100
AcDbSpline
210
0.0
220
0.0
230
1.0
 70
     8
 71
     2
 72
    10
 73
     7
 74
     0
 42
0.000000001
 43
0.0000000001
 40
-5.0
 40
-5.0
 40
-5.0
 40
-4.0
 40
-3.0
 40
-2.0
 40
-1.0
 40
0.0
 40
0.0
 40
0.0
 10
27.65468178057679
 20
16.31415188571816
 30
0.0
 10
27.65469230632931
 20
16.2733736249341
 30
0.0
 10
27.65748936180972
 20
16.19181083928211
 30
0.0
 10
27.66530596935857
 20
16.11076668299143
 30
0.0
 10
27.68036977427698
 20
16.02951309690212
 30
0.0
 10
27.73552500186324
 20
15.96122185528684
 30
0.0
 10
27.76553347154686
 20
15.93357442991775
 30
0.0
  0
SPLINE
  5
21A
330
1F
100
AcDbEntity
  8
0
370
    -3
100
AcDbSpline
210
0.0
220
0.0
230
1.0
 70
     8
 71
     2
 72
     7
 73
     4
 74
     0
 42
0.000000001
 43
0.0000000001
 40
0.0
 40
0.0
 40
0.0
 40
1.0
 40
2.0
 40
2.0
 40
2.0
 10
27.76553347154686
 20
15.93357442991775
 30
0.0
 10
28.64506820882963
 20
15.12324083860449
 30
0.0
 10
30.40436075563531
 20
13.50281581686326
 30
0.0
 10
31.28407142748941
 20
12.69267322702549
 30
0.0
  0
SPLINE
  5
21B
330
1F
100
AcDbEntity
  8
0
370
    -3
100
AcDbSpline
210
0.0
220
0.0
230
1.0
 70
    12
 71
     2
 72
    16
 73
    13
 74
     0
 42
0.000000001
 43
0.0000000001
 40
2.0
 40
2.0
 40
2.0
 40
3.0
 40
4.0
 40
5.0
 40
6.0
 40
7.0
 40
8.0
 40
9.0
 40
10.0
 40
10.0
 40
11.0
 40
11.66753475087313
 40
11.66753475087313
 40
11.66753475087313
 10
31.28407142748941
 20
12.69267322702549
 30
0.0
 41
1.0
 10
31.35957897379191
 20
12.62313686572969
 30
0.0
 41
1.0
 10
31.52522974505987
 20
12.48964625566761
 30
0.0
 41
1.0
 10
31.70147860919437
 20
12.38453749820388
 30
0.0
 41
1.0
 10
31.88978962786297
 20
12.30016806944559
 30
0.0
 41
1.0
 10
32.09774105123898
 20
12.29302386397994
 30
0.0
 41
1.0
 10
32.28875408190348
 20
12.37247552853127
 30
0.0
 41
1.0
 10
32.46182169279734
 20
12.48282524037504
 30
0.0
 41
1.0
 10
32.62930556323204
 20
12.61095211192115
 30
0.0
 41
1.0
 10
32.70128508583571
 20
12.68385464980466
 30
0.0
 41
1.0
 10
33.67094449547756
 20
13.66594829655943
 30
0.0
 41
1.0
 10
35.27019823315794
 20
15.32450298110025
 30
0.0
 41
1.0
 10
35.85510377397148
 20
16.03480522479916
 30
0.0
 41
1.0
  0
SPLINE
  5
21C
330
1F
100
AcDbEntity
  8
0
370
    -3
100
AcDbSpline
210
0.0
220
0.0
230
1.0
 70
     8
 71
     3
 72
    10
 73
     6
 74
     0
 42
0.000000001
 43
0.0000000001
 40
0.2392363727945936
 40
0.2392363727945936
 40
0.2392363727945936
 40
0.2392363727945936
 40
1.0
 40
2.0
 40
2.989929866947545
 40
2.989929866947545
 40
2.989929866947545
 40
2.989929866947545
 10
28.03063758267211
 20
15.68958596260683
 30
0.0
 10
28.55288909536489
 20
15.64753193517987
 30
0.0
 10
29.76839134842965
 20
15.63319752342333
 30
0.0
 10
31.65142706534809
 20
15.86972810048891
 30
0.0
 10
32.99496512672351
 20
16.14130135932771
 30
0.0
 10
33.66155637990997
 20
16.28455925889131
 30
0.0
  0
SPLINE
  5
21D
330
1F
100
AcDbEntity
  8
0
370
    -3
100
AcDbSpline
210
0.0
220
0.0
230
1.0
 70
     8
 71
     3
 72
     8
 73
     4
 74
     0
 42
0.000000001
 43
0.0000000001
 40
3.793812367549991
 40
3.793812367549991
 40
3.793812367549991
 40
3.793812367549991
 40
3.968971103283455
 40
3.968971103283455
 40
3.968971103283455
 40
3.968971103283455
 10
35.28351613073048
 20
16.64258958791646
 30
0.0
 10
35.40128801596435
 20
16.66873771140732
 30
0.0
 10
35.51907742293878
 20
16.69480584018004
 30
0.0
 10
35.63690030227832
 20
16.72072113627902
 30
0.0
  0
SPLINE
  5
21E
330
1F
100
AcDbEntity
  8
0
370
    -3
100
AcDbSpline
210
0.0
220
0.0
230
1.0
 70
     8
 71
     3
 72
    19
 73
    15
 74
     0
 42
0.000000001
 43
0.0000000001
 40
0.5689106675884098
 40
0.5689106675884098
 40
0.5689106675884098
 40
0.5689106675884098
 40
1.0
 40
2.0
 40
3.0
 40
4.0
 40
5.0
 40
6.0
 40
7.0
 40
8.0
 40
9.0
 40
10.0
 40
11.0
 40
11.83341560366924
 40
11.83341560366924
 40
11.83341560366924
 40
11.83341560366924
 10
36.04186833622055
 20
16.71585386136047
 30
0.0
 10
35.93483950987732
 20
16.71838136675602
 30
0.0
 10
35.57944780172062
 20
16.72329012145508
 30
0.0
 10
34.9756734444835
 20
16.71489036644101
 30
0.0
 10
34.23128130580375
 20
16.68208419451015
 30
0.0
 10
33.48806696636052
 20
16.62946130064952
 30
0.0
 10
32.74578161703022
 20
16.56540875347828
 30
0.0
 10
32.00263572709753
 20
16.51193770251282
 30
0.0
 10
31.25873391062891
 20
16.4706645027769
 30
0.0
 10
30.51374657311425
 20
16.45065578110136
 30
0.0
 10
29.76890264151069
 20
16.46478121773421
 30
0.0
 10
29.02320490238537
 20
16.45822699253182
 30
0.0
 10
28.32299111310357
 20
16.39350496403654
 30
0.0
 10
27.87228370714467
 20
16.31223681336336
 30
0.0
 10
27.66570298325303
 20
16.32142781599534
 30
0.0
  0
ENDSEC
  0
SECTION
  2
OBJECTS
  0
DICTIONARY
  5
C
330
0
100
AcDbDictionary
281
     1
  3
ACAD_DETAILVIEWSTYLE
350
25A
  3
ACAD_GROUP
350
D
  3
ACAD_LAYOUT
350
1A
  3
ACAD_MATERIAL
350
43
  3
ACAD_MLEADERSTYLE
350
6B
  3
ACAD_MLINESTYLE
350
17
  3
ACAD_PLOTSETTINGS
350
19
  3
ACAD_PLOTSTYLENAME
350
E
  3
ACAD_SCALELIST
350
47
  3
ACAD_SECTIONVIEWSTYLE
350
25B
  3
ACAD_TABLESTYLE
350
69
  3
ACAD_VISUALSTYLE
350
2A
  3
ACDB_RECOMPOSE_DATA
350
257
  3
AcDbVariableDictionary
350
21F
  0
SUN
  5
6D
330
29
100
AcDbSun
 90
        1
290
     0
 63
     7
421
 16777215
 40
1.0
291
     1
 91
  2455826
 92
 54000000
292
     0
 70
     2
 71
   256
280
     1
  0
DICTIONARY
  5
25A
102
{ACAD_REACTORS
330
C
102
}
330
C
100
AcDbDictionary
281
     1
  0
DICTIONARY
  5
D
102
{ACAD_REACTORS
330
C
102
}
330
C
100
AcDbDictionary
281
     1
  0
DICTIONARY
  5
1A
102
{ACAD_REACTORS
330
C
102
}
330
C
100
AcDbDictionary
281
     1
  3
Layout1
350
1E
  3
Layout2
350
26
  3
Model
350
22
  0
DICTIONARY
  5
43
102
{ACAD_REACTORS
330
C
102
}
330
C
100
AcDbDictionary
281
     1
  3
ByBlock
350
45
  3
ByLayer
350
44
  3
Global
350
46
  0
DICTIONARY
  5
6B
102
{ACAD_REACTORS
330
C
102
}
330
C
100
AcDbDictionary
281
     1
  3
Standard
350
6C
  0
DICTIONARY
  5
17
102
{ACAD_REACTORS
330
C
102
}
330
C
100
AcDbDictionary
281
     1
  3
Standard
350
18
  0
DICTIONARY
  5
19
102
{ACAD_REACTORS
330
C
102
}
330
C
100
AcDbDictionary
281
     1
  0
ACDBDICTIONARYWDFLT
  5
E
102
{ACAD_REACTORS
330
C
102
}
330
C
100
AcDbDictionary
281
     1
  3
Normal
350
F
100
AcDbDictionaryWithDefault
340
F
  0
DICTIONARY
  5
47
102
{ACAD_REACTORS
330
C
102
}
330
C
100
AcDbDictionary
281
     1
  3
A0
350
48
  3
A1
350
49
  3
A2
350
4A
  3
A3
350
4B
  3
A4
350
4C
  3
A5
350
4D
  3
A6
350
4E
  3
A7
350
4F
  3
A8
350
50
  3
A9
350
51
  3
B0
350
52
  3
B1
350
53
  3
B2
350
54
  3
B3
350
55
  3
B4
350
56
  3
B5
350
57
  3
B6
350
58
  3
B7
350
59
  3
B8
350
5A
  3
B9
350
5B
  3
C0
350
5C
  3
C1
350
5D
  3
C2
350
5E
  3
C3
350
5F
  3
C4
350
60
  3
C5
350
61
  3
C6
350
62
  3
C7
350
63
  3
C8
350
64
  3
C9
350
65
  3
D0
350
66
  3
D1
350
67
  3
D2
350
68
  0
DICTIONARY
  5
25B
102
{ACAD_REACTORS
330
C
102
}
330
C
100
AcDbDictionary
281
     1
  0
DICTIONARY
  5
69
102
{ACAD_REACTORS
330
C
102
}
330
C
100
AcDbDictionary
281
     1
  3
Standard
350
6A
  0
DICTIONARY
  5
2A
102
{ACAD_REACTORS
330
C
102
}
330
C
100
AcDbDictionary
281
     1
  3
2dWireframe
350
2F
  3
Basic
350
32
  3
Brighten
350
36
  3
ColorChange
350
3A
  3
Conceptual
350
34
  3
Dim
350
35
  3
EdgeColorOff
350
3D
  3
Facepattern
350
39
  3
Flat
350
2B
  3
FlatWithEdges
350
2C
  3
Gouraud
350
2D
  3
GouraudWithEdges
350
2E
  3
Hidden
350
31
  3
JitterOff
350
3B
  3
Linepattern
350
38
  3
OverhangOff
350
3C
  3
Realistic
350
33
  3
Shaded
350
42
  3
Shaded with edges
350
41
  3
Shades of Gray
350
3E
  3
Sketchy
350
3F
  3
Thicken
350
37
  3
Wireframe
350
30
  3
X-Ray
350
40
  0
XRECORD
  5
257
102
{ACAD_REACTORS
330
C
102
}
330
C
100
AcDbXrecord
280
     1
 90
        1
330
6A
  0
DICTIONARY
  5
21F
102
{ACAD_REACTORS
330
C
102
}
330
C
100
AcDbDictionary
281
     1
  3
CANNOSCALE
350
220
  3
CMLEADERSTYLE
350
259
  3
CTABLESTYLE
350
258
  3
XCLIPFRAME
350
221
  0
LAYOUT
  5
1E
102
{ACAD_REACTORS
330
1A
102
}
330
1A
100
AcDbPlotSettings
  1

  2
none_device
  4

  6

 40
0.0
 41
0.0
 42
0.0
 43
0.0
 44
0.0
 45
0.0
 46
0.0
 47
0.0
 48
0.0
 49
0.0
140
0.0
141
0.0
142
1.0
143
1.0
 70
   688
 72
     0
 73
     0
 74
     5
  7

 75
    16
 76
     0
 77
     2
 78
   300
147
1.0
148
0.0
149
0.0
100
AcDbLayout
  1
Layout1
 70
     1
 71
     1
 10
0.0
 20
0.0
 11
12.0
 21
9.0
 12
0.0
 22
0.0
 32
0.0
 14
1.000000000000000E+20
 24
1.000000000000000E+20
 34
1.000000000000000E+20
 15
-1.000000000000000E+20
 25
-1.000000000000000E+20
 35
-1.000000000000000E+20
146
0.0
 13
0.0
 23
0.0
 33
0.0
 16
1.0
 26
0.0
 36
0.0
 17
0.0
 27
1.0
 37
0.0
 76
     0
330
1B
  0
LAYOUT
  5
26
102
{ACAD_REACTORS
330
1A
102
}
330
1A
100
AcDbPlotSettings
  1

  2
none_device
  4

  6

 40
0.0
 41
0.0
 42
0.0
 43
0.0
 44
0.0
 45
0.0
 46
0.0
 47
0.0
 48
0.0
 49
0.0
140
0.0
141
0.0
142
1.0
143
1.0
 70
   688
 72
     0
 73
     0
 74
     5
  7

 75
    16
 76
     0
 77
     2
 78
   300
147
1.0
148
0.0
149
0.0
100
AcDbLayout
  1
Layout2
 70
     1
 71
     2
 10
0.0
 20
0.0
 11
0.0
 21
0.0
 12
0.0
 22
0.0
 32
0.0
 14
0.0
 24
0.0
 34
0.0
 15
0.0
 25
0.0
 35
0.0
146
0.0
 13
0.0
 23
0.0
 33
0.0
 16
1.0
 26
0.0
 36
0.0
 17
0.0
 27
1.0
 37
0.0
 76
     0
330
23
  0
LAYOUT
  5
22
102
{ACAD_REACTORS
330
1A
102
}
330
1A
100
AcDbPlotSettings
  1

  2
none_device
  4
Letter_(8.50_x_11.00_Inches)
  6

 40
6.35
 41
6.35
 42
6.35000508
 43
6.35000508
 44
215.9
 45
279.4
 46
0.0
 47
0.0
 48
0.0
 49
0.0
140
0.0
141
0.0
142
1.0
143
1.0
 70
  1712
 72
     0
 73
     0
 74
     0
  7

 75
     0
 76
     0
 77
     2
 78
   300
147
1.0
148
0.0
149
0.0
100
AcDbLayout
  1
Model
 70
     1
 71
     0
 10
0.0
 20
0.0
 11
12.0
 21
9.0
 12
0.0
 22
0.0
 32
0.0
 14
1.000000000000000E+20
 24
1.000000000000000E+20
 34
1.000000000000000E+20
 15
-1.000000000000000E+20
 25
-1.000000000000000E+20
 35
-1.000000000000000E+20
146
0.0
 13
0.0
 23
0.0
 33
0.0
 16
1.0
 26
0.0
 36
0.0
 17
0.0
 27
1.0
 37
0.0
 76
     0
330
1F
331
29
  0
MATERIAL
  5
45
102
{ACAD_REACTORS
330
43
102
}
330
43
100
AcDbMaterial
  1
ByBlock
 72
     1
 94
      127
  0
MATERIAL
  5
44
102
{ACAD_REACTORS
330
43
102
}
330
43
100
AcDbMaterial
  1
ByLayer
 72
     1
 94
      127
  0
MATERIAL
  5
46
102
{ACAD_REACTORS
330
43
102
}
330
43
100
AcDbMaterial
  1
Global
 72
     1
 94
      127
  0
MLEADERSTYLE
  5
6C
102
{ACAD_REACTORS
330
6B
102
}
102
{ACAD_XDICTIONARY
360
255
102
}
330
6B
100
AcDbMLeaderStyle
170
     2
171
     1
172
     0
 90
        2
 40
0.0
 41
0.0
173
     1
 91
-1056964608
340
14
 92
       -2
290
     1
 42
0.09
291
     1
 43
0.36
  3
Standard
341
0
 44
0.18
300

342
11
174
     1
178
     6
175
     1
176
     0
 93
-1056964608
 45
0.18
292
     0
297
     0
 46
0.18
343
0
 94
-1056964608
 47
1.0
 49
1.0
140
1.0
293
     1
141
0.0
294
     1
177
     0
142
1.0
295
     0
296
     0
143
0.125
1001
ACAD_MLEADERVER
1070
     2
  0
MLINESTYLE
  5
18
102
{ACAD_REACTORS
330
17
102
}
330
17
100
AcDbMlineStyle
  2
Standard
 70
     0
  3

 62
   256
 51
90.0
 52
90.0
 71
     2
 49
0.5
 62
   256
  6
BYLAYER
 49
-0.5
 62
   256
  6
BYLAYER
  0
ACDBPLACEHOLDER
  5
F
102
{ACAD_REACTORS
330
E
102
}
330
E
  0
SCALE
  5
48
102
{ACAD_REACTORS
330
47
102
}
330
47
100
AcDbScale
 70
     0
300
1:1
140
1.0
141
1.0
290
     1
  0
SCALE
  5
49
102
{ACAD_REACTORS
330
47
102
}
330
47
100
AcDbScale
 70
     0
300
1:2
140
1.0
141
2.0
290
     0
  0
SCALE
  5
4A
102
{ACAD_REACTORS
330
47
102
}
330
47
100
AcDbScale
 70
     0
300
1:4
140
1.0
141
4.0
290
     0
  0
SCALE
  5
4B
102
{ACAD_REACTORS
330
47
102
}
330
47
100
AcDbScale
 70
     0
300
1:5
140
1.0
141
5.0
290
     0
  0
SCALE
  5
4C
102
{ACAD_REACTORS
330
47
102
}
330
47
100
AcDbScale
 70
     0
300
1:8
140
1.0
141
8.0
290
     0
  0
SCALE
  5
4D
102
{ACAD_REACTORS
330
47
102
}
330
47
100
AcDbScale
 70
     0
300
1:10
140
1.0
141
10.0
290
     0
  0
SCALE
  5
4E
102
{ACAD_REACTORS
330
47
102
}
330
47
100
AcDbScale
 70
     0
300
1:16
140
1.0
141
16.0
290
     0
  0
SCALE
  5
4F
102
{ACAD_REACTORS
330
47
102
}
330
47
100
AcDbScale
 70
     0
300
1:20
140
1.0
141
20.0
290
     0
  0
SCALE
  5
50
102
{ACAD_REACTORS
330
47
102
}
330
47
100
AcDbScale
 70
     0
300
1:30
140
1.0
141
30.0
290
     0
  0
SCALE
  5
51
102
{ACAD_REACTORS
330
47
102
}
330
47
100
AcDbScale
 70
     0
300
1:40
140
1.0
141
40.0
290
     0
  0
SCALE
  5
52
102
{ACAD_REACTORS
330
47
102
}
330
47
100
AcDbScale
 70
     0
300
1:50
140
1.0
141
50.0
290
     0
  0
SCALE
  5
53
102
{ACAD_REACTORS
330
47
102
}
330
47
100
AcDbScale
 70
     0
300
1:100
140
1.0
141
100.0
290
     0
  0
SCALE
  5
54
102
{ACAD_REACTORS
330
47
102
}
330
47
100
AcDbScale
 70
     0
300
2:1
140
2.0
141
1.0
290
     0
  0
SCALE
  5
55
102
{ACAD_REACTORS
330
47
102
}
330
47
100
AcDbScale
 70
     0
300
4:1
140
4.0
141
1.0
290
     0
  0
SCALE
  5
56
102
{ACAD_REACTORS
330
47
102
}
330
47
100
AcDbScale
 70
     0
300
8:1
140
8.0
141
1.0
290
     0
  0
SCALE
  5
57
102
{ACAD_REACTORS
330
47
102
}
330
47
100
AcDbScale
 70
     0
300
10:1
140
10.0
141
1.0
290
     0
  0
SCALE
  5
58
102
{ACAD_REACTORS
330
47
102
}
330
47
100
AcDbScale
 70
     0
300
100:1
140
100.0
141
1.0
290
     0
  0
SCALE
  5
59
102
{ACAD_REACTORS
330
47
102
}
330
47
100
AcDbScale
 70
     0
300
1/128" = 1'-0"
140
0.0078125
141
12.0
290
     0
  0
SCALE
  5
5A
102
{ACAD_REACTORS
330
47
102
}
330
47
100
AcDbScale
 70
     0
300
1/64" = 1'-0"
140
0.015625
141
12.0
290
     0
  0
SCALE
  5
5B
102
{ACAD_REACTORS
330
47
102
}
330
47
100
AcDbScale
 70
     0
300
1/32" = 1'-0"
140
0.03125
141
12.0
290
     0
  0
SCALE
  5
5C
102
{ACAD_REACTORS
330
47
102
}
330
47
100
AcDbScale
 70
     0
300
1/16" = 1'-0"
140
0.0625
141
12.0
290
     0
  0
SCALE
  5
5D
102
{ACAD_REACTORS
330
47
102
}
330
47
100
AcDbScale
 70
     0
300
3/32" = 1'-0"
140
0.09375
141
12.0
290
     0
  0
SCALE
  5
5E
102
{ACAD_REACTORS
330
47
102
}
330
47
100
AcDbScale
 70
     0
300
1/8" = 1'-0"
140
0.125
141
12.0
290
     0
  0
SCALE
  5
5F
102
{ACAD_REACTORS
330
47
102
}
330
47
100
AcDbScale
 70
     0
300
3/16" = 1'-0"
140
0.1875
141
12.0
290
     0
  0
SCALE
  5
60
102
{ACAD_REACTORS
330
47
102
}
330
47
100
AcDbScale
 70
     0
300
1/4" = 1'-0"
140
0.25
141
12.0
290
     0
  0
SCALE
  5
61
102
{ACAD_REACTORS
330
47
102
}
330
47
100
AcDbScale
 70
     0
300
3/8" = 1'-0"
140
0.375
141
12.0
290
     0
  0
SCALE
  5
62
102
{ACAD_REACTORS
330
47
102
}
330
47
100
AcDbScale
 70
     0
300
1/2" = 1'-0"
140
0.5
141
12.0
290
     0
  0
SCALE
  5
63
102
{ACAD_REACTORS
330
47
102
}
330
47
100
AcDbScale
 70
     0
300
3/4" = 1'-0"
140
0.75
141
12.0
290
     0
  0
SCALE
  5
64
102
{ACAD_REACTORS
330
47
102
}
330
47
100
AcDbScale
 70
     0
300
1" = 1'-0"
140
1.0
141
12.0
290
     0
  0
SCALE
  5
65
102
{ACAD_REACTORS
330
47
102
}
330
47
100
AcDbScale
 70
     0
300
1-1/2" = 1'-0"
140
1.5
141
12.0
290
     0
  0
SCALE
  5
66
102
{ACAD_REACTORS
330
47
102
}
330
47
100
AcDbScale
 70
     0
300
3" = 1'-0"
140
3.0
141
12.0
290
     0
  0
SCALE
  5
67
102
{ACAD_REACTORS
330
47
102
}
330
47
100
AcDbScale
 70
     0
300
6" = 1'-0"
140
6.0
141
12.0
290
     0
  0
SCALE
  5
68
102
{ACAD_REACTORS
330
47
102
}
330
47
100
AcDbScale
 70
     0
300
1'-0" = 1'-0"
140
12.0
141
12.0
290
     0
  0
TABLESTYLE
  5
6A
102
{ACAD_REACTORS
330
69
102
}
102
{ACAD_XDICTIONARY
360
252
102
}
330
69
100
AcDbTableStyle
  3
Standard
 70
     0
 71
     0
 40
0.06
 41
0.06
280
     0
281
     0
  7
Standard
140
0.18
170
     2
 62
     0
 63
   257
283
     0
 90
        4
 91
        0
  1

274
    -2
284
     1
 64
     0
275
    -2
285
     1
 65
     0
276
    -2
286
     1
 66
     0
277
    -2
287
     1
 67
     0
278
    -2
288
     1
 68
     0
279
    -2
289
     1
 69
     0
  7
Standard
140
0.25
170
     5
 62
     0
 63
   257
283
     0
 90
        4
 91
        0
  1

274
    -2
284
     1
 64
     0
275
    -2
285
     1
 65
     0
276
    -2
286
     1
 66
     0
277
    -2
287
     1
 67
     0
278
    -2
288
     1
 68
     0
279
    -2
289
     1
 69
     0
  7
Standard
140
0.18
170
     5
 62
     0
 63
   257
283
     0
 90
        4
 91
        0
  1

274
    -2
284
     1
 64
     0
275
    -2
285
     1
 65
     0
276
    -2
286
     1
 66
     0
277
    -2
287
     1
 67
     0
278
    -2
288
     1
 68
     0
279
    -2
289
     1
 69
     0
  0
VISUALSTYLE
  5
2F
102
{ACAD_REACTORS
330
2A
102
}
102
{ACAD_XDICTIONARY
360
22A
102
}
330
2A
100
AcDbVisualStyle
  2
2dWireframe
 70
     4
 71
     0
 72
     2
 73
     0
 90
        0
 40
0.6
 41
30.0
 62
     5
 63
     7
421
 16777215
 74
     1
 91
        4
 64
     7
 65
   257
 75
     1
175
     1
 42
1.0
 92
        0
 66
   257
 43
1.0
 76
     1
 77
     6
 78
     2
 67
     7
 79
     5
170
     0
171
     0
290
     0
174
     0
 93
        1
 44
0.0
173
     0
291
     0
 45
0.0
  0
VISUALSTYLE
  5
32
102
{ACAD_REACTORS
330
2A
102
}
102
{ACAD_XDICTIONARY
360
230
102
}
330
2A
100
AcDbVisualStyle
  2
Basic
 70
     7
 71
     1
 72
     0
 73
     1
 90
        0
 40
0.6
 41
30.0
 62
     5
 63
     7
421
 16777215
 74
     0
 91
        4
 64
     7
 65
   257
 75
     1
175
     1
 42
1.0
 92
        8
 66
     7
 43
1.0
 76
     1
 77
     6
 78
     2
 67
     7
 79
     5
170
     0
171
     0
290
     0
174
     0
 93
        1
 44
0.0
173
     0
291
     1
 45
0.0
  0
VISUALSTYLE
  5
36
102
{ACAD_REACTORS
330
2A
102
}
102
{ACAD_XDICTIONARY
360
238
102
}
330
2A
100
AcDbVisualStyle
  2
Brighten
 70
    12
 71
     2
 72
     2
 73
     0
 90
        0
 40
0.6
 41
30.0
 62
     5
 63
     7
421
 16777215
 74
     1
 91
        4
 64
     7
 65
   257
 75
     1
175
     1
 42
1.0
 92
        8
 66
     7
 43
1.0
 76
     1
 77
     6
 78
     2
 67
     7
 79
     5
170
     0
171
     0
290
     0
174
     0
 93
        1
 44
50.0
173
     0
291
     1
 45
0.0
  0
VISUALSTYLE
  5
3A
102
{ACAD_REACTORS
330
2A
102
}
102
{ACAD_XDICTIONARY
360
240
102
}
330
2A
100
AcDbVisualStyle
  2
ColorChange
 70
    16
 71
     2
 72
     2
 73
     3
 90
        0
 40
0.6
 41
30.0
 62
     5
 63
     8
421
  8421504
 74
     1
 91
        4
 64
     7
 65
   257
 75
     1
175
     1
 42
1.0
 92
        8
 66
     8
424
  8421504
 43
1.0
 76
     1
 77
     6
 78
     2
 67
     7
 79
     5
170
     0
171
     0
290
     0
174
     0
 93
        1
 44
0.0
173
     0
291
     1
 45
0.0
  0
VISUALSTYLE
  5
34
102
{ACAD_REACTORS
330
2A
102
}
102
{ACAD_XDICTIONARY
360
234
102
}
330
2A
100
AcDbVisualStyle
  2
Conceptual
 70
     9
 71
     3
 72
     2
 73
     0
 90
        0
 40
0.6
 41
30.0
 62
     5
 63
     7
421
 16777215
 74
     2
 91
        2
 64
     7
 65
   257
 75
     1
175
     1
 42
179.0
 92
        8
 66
     7
 43
1.0
 76
     1
 77
     6
 78
     2
 67
     7
 79
     3
170
     0
171
     0
290
     0
174
     0
 93
        1
 44
0.0
173
     0
291
     0
 45
0.0
  0
VISUALSTYLE
  5
35
102
{ACAD_REACTORS
330
2A
102
}
102
{ACAD_XDICTIONARY
360
236
102
}
330
2A
100
AcDbVisualStyle
  2
Dim
 70
    11
 71
     2
 72
     2
 73
     0
 90
        0
 40
0.6
 41
30.0
 62
     5
 63
     7
421
 16777215
 74
     1
 91
        4
 64
     7
 65
   257
 75
     1
175
     1
 42
1.0
 92
        8
 66
     7
 43
1.0
 76
     1
 77
     6
 78
     2
 67
     7
 79
     5
170
     0
171
     0
290
     0
174
     0
 93
        1
 44
-50.0
173
     0
291
     1
 45
0.0
  0
VISUALSTYLE
  5
3D
102
{ACAD_REACTORS
330
2A
102
}
102
{ACAD_XDICTIONARY
360
246
102
}
330
2A
100
AcDbVisualStyle
  2
EdgeColorOff
 70
    22
 71
     2
 72
     2
 73
     0
 90
        0
 40
0.6
 41
30.0
 62
     5
 63
     7
421
 16777215
 74
     1
 91
        4
 64
     7
 65
   257
 75
     1
175
     1
 42
1.0
 92
        8
 66
     7
 43
1.0
 76
     1
 77
     6
 78
     2
 67
     7
 79
     5
170
     0
171
     0
290
     0
174
     0
 93
        1
 44
0.0
173
     0
291
     1
 45
0.0
  0
VISUALSTYLE
  5
39
102
{ACAD_REACTORS
330
2A
102
}
102
{ACAD_XDICTIONARY
360
23E
102
}
330
2A
100
AcDbVisualStyle
  2
Facepattern
 70
    15
 71
     2
 72
     2
 73
     0
 90
        0
 40
0.6
 41
30.0
 62
     5
 63
     7
421
 16777215
 74
     1
 91
        4
 64
     7
 65
   257
 75
     1
175
     1
 42
1.0
 92
        8
 66
     7
 43
1.0
 76
     1
 77
     6
 78
     2
 67
     7
 79
     5
170
     0
171
     0
290
     0
174
     0
 93
        1
 44
0.0
173
     0
291
     1
 45
0.0
  0
VISUALSTYLE
  5
2B
102
{ACAD_REACTORS
330
2A
102
}
102
{ACAD_XDICTIONARY
360
222
102
}
330
2A
100
AcDbVisualStyle
  2
Flat
 70
     0
 71
     2
 72
     1
 73
     1
 90
        2
 40
0.6
 41
30.0
 62
     5
 63
     7
421
 16777215
 74
     0
 91
        0
 64
     7
 65
   257
 75
     1
175
     1
 42
1.0
 92
        8
 66
     7
 43
1.0
 76
     1
 77
     6
 78
     2
 67
     7
 79
     5
170
     0
171
     0
290
     0
174
     0
 93
       13
 44
0.0
173
     0
291
     1
 45
0.0
  0
VISUALSTYLE
  5
2C
102
{ACAD_REACTORS
330
2A
102
}
102
{ACAD_XDICTIONARY
360
224
102
}
330
2A
100
AcDbVisualStyle
  2
FlatWithEdges
 70
     1
 71
     2
 72
     1
 73
     1
 90
        2
 40
0.6
 41
30.0
 62
     5
 63
     7
421
 16777215
 74
     1
 91
        0
 64
     7
 65
   257
 75
     1
175
     1
 42
1.0
 92
        0
 66
   257
 43
1.0
 76
     1
 77
     6
 78
     2
 67
     7
 79
     5
170
     0
171
     0
290
     0
174
     0
 93
       13
 44
0.0
173
     0
291
     1
 45
0.0
  0
VISUALSTYLE
  5
2D
102
{ACAD_REACTORS
330
2A
102
}
102
{ACAD_XDICTIONARY
360
226
102
}
330
2A
100
AcDbVisualStyle
  2
Gouraud
 70
     2
 71
     2
 72
     2
 73
     1
 90
        2
 40
0.6
 41
30.0
 62
     5
 63
     7
421
 16777215
 74
     0
 91
        0
 64
     7
 65
   257
 75
     1
175
     1
 42
1.0
 92
        0
 66
     7
 43
1.0
 76
     1
 77
     6
 78
     2
 67
     7
 79
     5
170
     0
171
     0
290
     0
174
     0
 93
       13
 44
0.0
173
     0
291
     1
 45
0.0
  0
VISUALSTYLE
  5
2E
102
{ACAD_REACTORS
330
2A
102
}
102
{ACAD_XDICTIONARY
360
228
102
}
330
2A
100
AcDbVisualStyle
  2
GouraudWithEdges
 70
     3
 71
     2
 72
     2
 73
     1
 90
        2
 40
0.6
 41
30.0
 62
     5
 63
     7
421
 16777215
 74
     1
 91
        0
 64
     7
 65
   257
 75
     1
175
     1
 42
1.0
 92
        0
 66
   257
 43
1.0
 76
     1
 77
     6
 78
     2
 67
     7
 79
     5
170
     0
171
     0
290
     0
174
     0
 93
       13
 44
0.0
173
     0
291
     1
 45
0.0
  0
VISUALSTYLE
  5
31
102
{ACAD_REACTORS
330
2A
102
}
102
{ACAD_XDICTIONARY
360
22E
102
}
330
2A
100
AcDbVisualStyle
  2
Hidden
 70
     6
 71
     1
 72
     2
 73
     2
 90
        0
 40
0.6
 41
30.0
 62
     5
 63
     7
421
 16777215
 74
     2
 91
        2
 64
     7
 65
   257
 75
     2
175
     1
 42
40.0
 92
        0
 66
   257
 43
1.0
 76
     1
 77
     6
 78
     2
 67
     7
 79
     3
170
     0
171
     0
290
     0
174
     0
 93
        1
 44
0.0
173
     0
291
     0
 45
0.0
  0
VISUALSTYLE
  5
3B
102
{ACAD_REACTORS
330
2A
102
}
102
{ACAD_XDICTIONARY
360
242
102
}
330
2A
100
AcDbVisualStyle
  2
JitterOff
 70
    20
 71
     2
 72
     2
 73
     0
 90
        0
 40
0.6
 41
30.0
 62
     5
 63
     7
421
 16777215
 74
     1
 91
        4
 64
     7
 65
   257
 75
     1
175
     1
 42
1.0
 92
       10
 66
     7
 43
1.0
 76
     1
 77
     6
 78
     2
 67
     7
 79
     5
170
     0
171
     0
290
     0
174
     0
 93
        1
 44
0.0
173
     0
291
     1
 45
0.0
  0
VISUALSTYLE
  5
38
102
{ACAD_REACTORS
330
2A
102
}
102
{ACAD_XDICTIONARY
360
23C
102
}
330
2A
100
AcDbVisualStyle
  2
Linepattern
 70
    14
 71
     2
 72
     2
 73
     0
 90
        0
 40
0.6
 41
30.0
 62
     5
 63
     7
421
 16777215
 74
     1
 91
        4
 64
     7
 65
   257
 75
     7
175
     7
 42
1.0
 92
        8
 66
     7
 43
1.0
 76
     1
 77
     6
 78
     2
 67
     7
 79
     5
170
     0
171
     0
290
     0
174
     0
 93
        1
 44
0.0
173
     0
291
     1
 45
0.0
  0
VISUALSTYLE
  5
3C
102
{ACAD_REACTORS
330
2A
102
}
102
{ACAD_XDICTIONARY
360
244
102
}
330
2A
100
AcDbVisualStyle
  2
OverhangOff
 70
    21
 71
     2
 72
     2
 73
     0
 90
        0
 40
0.6
 41
30.0
 62
     5
 63
     7
421
 16777215
 74
     1
 91
        4
 64
     7
 65
   257
 75
     1
175
     1
 42
1.0
 92
        9
 66
     7
 43
1.0
 76
     1
 77
     6
 78
     2
 67
     7
 79
     5
170
     0
171
     0
290
     0
174
     0
 93
        1
 44
0.0
173
     0
291
     1
 45
0.0
  0
VISUALSTYLE
  5
33
102
{ACAD_REACTORS
330
2A
102
}
102
{ACAD_XDICTIONARY
360
232
102
}
330
2A
100
AcDbVisualStyle
  2
Realistic
 70
     8
 71
     2
 72
     3
 73
     0
 90
        2
 40
0.6
 41
30.0
 62
     5
 63
     7
421
 16777215
 74
     0
 91
        0
 64
     7
 65
   257
 75
     1
175
     1
 42
1.0
 92
        8
 66
   257
 43
1.0
 76
     1
 77
     6
 78
     2
 67
     7
 79
     3
170
     0
171
     0
290
     0
174
     0
 93
       13
 44
0.0
173
     0
291
     0
 45
0.0
  0
VISUALSTYLE
  5
42
102
{ACAD_REACTORS
330
2A
102
}
102
{ACAD_XDICTIONARY
360
250
102
}
330
2A
100
AcDbVisualStyle
  2
Shaded
 70
    27
 71
     2
 72
     2
 73
     1
 90
        2
 40
0.6
 41
30.0
 62
     5
 63
     7
421
 16777215
 74
     0
 91
        4
 64
     7
 65
   257
 75
     1
175
     1
 42
1.0
 92
        8
 66
   257
 43
1.0
 76
     1
 77
     6
 78
     2
 67
     8
425
  7895160
 79
     3
170
     0
171
     0
290
     0
174
     0
 93
        5
 44
0.0
173
     0
291
     0
 45
0.0
  0
VISUALSTYLE
  5
41
102
{ACAD_REACTORS
330
2A
102
}
102
{ACAD_XDICTIONARY
360
24E
102
}
330
2A
100
AcDbVisualStyle
  2
Shaded with edges
 70
    26
 71
     2
 72
     2
 73
     1
 90
        2
 40
0.6
 41
30.0
 62
     5
 63
     7
421
 16777215
 74
     1
 91
       10
 64
     7
 65
   257
 75
     2
175
     1
 42
1.0
 92
        8
 66
   257
 43
1.0
 76
     1
 77
     6
 78
     2
 67
     7
 79
     3
170
     0
171
     0
290
     0
174
     0
 93
        5
 44
0.0
173
     0
291
     0
 45
0.0
  0
VISUALSTYLE
  5
3E
102
{ACAD_REACTORS
330
2A
102
}
102
{ACAD_XDICTIONARY
360
248
102
}
330
2A
100
AcDbVisualStyle
  2
Shades of Gray
 70
    23
 71
     2
 72
     2
 73
     3
 90
        0
 40
0.6
 41
30.0
 62
     5
 63
     7
421
 16777215
 74
     2
 91
        2
 64
     7
 65
     7
 75
     1
175
     1
 42
40.0
 92
        8
 66
     7
 43
1.0
 76
     1
 77
     6
 78
     2
 67
     7
 79
     3
170
     0
171
     0
290
     0
174
     0
 93
        1
 44
0.0
173
     0
291
     0
 45
0.0
  0
VISUALSTYLE
  5
3F
102
{ACAD_REACTORS
330
2A
102
}
102
{ACAD_XDICTIONARY
360
24A
102
}
330
2A
100
AcDbVisualStyle
  2
Sketchy
 70
    24
 71
     1
 72
     2
 73
     2
 90
        0
 40
0.6
 41
30.0
 62
     5
 63
     7
421
 16777215
 74
     2
 91
        2
 64
     7
 65
     7
 75
     1
175
     1
 42
40.0
 92
       11
 66
     7
 43
1.0
 76
     1
 77
     6
 78
     2
 67
     7
 79
     6
170
     0
171
     0
290
     0
174
     0
 93
        1
 44
0.0
173
     0
291
     0
 45
0.0
  0
VISUALSTYLE
  5
37
102
{ACAD_REACTORS
330
2A
102
}
102
{ACAD_XDICTIONARY
360
23A
102
}
330
2A
100
AcDbVisualStyle
  2
Thicken
 70
    13
 71
     2
 72
     2
 73
     0
 90
        0
 40
0.6
 41
30.0
 62
     5
 63
     7
421
 16777215
 74
     1
 91
        4
 64
     7
 65
   257
 75
     1
175
     1
 42
1.0
 92
       12
 66
     7
 43
1.0
 76
     1
 77
     6
 78
     2
 67
     7
 79
     5
170
     0
171
     0
290
     0
174
     0
 93
        1
 44
0.0
173
     0
291
     1
 45
0.0
  0
VISUALSTYLE
  5
30
102
{ACAD_REACTORS
330
2A
102
}
102
{ACAD_XDICTIONARY
360
22C
102
}
330
2A
100
AcDbVisualStyle
  2
Wireframe
 70
     5
 71
     0
 72
     2
 73
     0
 90
        0
 40
0.6
 41
30.0
 62
     5
 63
     7
421
 16777215
 74
     1
 91
        4
 64
     7
 65
   257
 75
     1
175
     1
 42
1.0
 92
        0
 66
   257
 43
1.0
 76
     1
 77
     6
 78
     2
 67
     7
 79
     3
170
     0
171
     0
290
     0
174
     0
 93
        1
 44
0.0
173
     0
291
     0
 45
0.0
  0
VISUALSTYLE
  5
40
102
{ACAD_REACTORS
330
2A
102
}
102
{ACAD_XDICTIONARY
360
24C
102
}
330
2A
100
AcDbVisualStyle
  2
X-Ray
 70
    25
 71
     2
 72
     2
 73
     1
 90
        1
 40
0.5
 41
30.0
 62
     5
 63
     7
421
 16777215
 74
     1
 91
        0
 64
     7
 65
   257
 75
     1
175
     1
 42
1.0
 92
        8
 66
     7
 43
1.0
 76
     1
 77
     6
 78
     2
 67
     7
 79
     3
170
     0
171
     0
290
     0
174
     0
 93
       13
 44
0.0
173
     0
291
     0
 45
0.0
  0
DICTIONARYVAR
  5
220
102
{ACAD_REACTORS
330
21F
102
}
330
21F
100
DictionaryVariables
280
     0
  1
1:1
  0
DICTIONARYVAR
  5
259
102
{ACAD_REACTORS
330
21F
102
}
330
21F
100
DictionaryVariables
280
     0
  1
Standard
  0
DICTIONARYVAR
  5
258
102
{ACAD_REACTORS
330
21F
102
}
330
21F
100
DictionaryVariables
280
     0
  1
Standard
  0
DICTIONARYVAR
  5
221
102
{ACAD_REACTORS
330
21F
102
}
330
21F
100
DictionaryVariables
280
     0
  1
2
  0
DICTIONARY
  5
255
330
6C
100
AcDbDictionary
280
     1
281
     1
  3
ACAD_XREC_ROUNDTRIP
360
256
  0
DICTIONARY
  5
252
330
6A
100
AcDbDictionary
280
     1
281
     1
  3
ACAD_ROUNDTRIP_2008_TABLESTYLE_CELLSTYLEMAP
360
253
  0
DICTIONARY
  5
22A
330
2F
100
AcDbDictionary
280
     1
281
     1
  3
ACAD_XREC_ROUNDTRIP
360
22B
  0
DICTIONARY
  5
230
330
32
100
AcDbDictionary
280
     1
281
     1
  3
ACAD_XREC_ROUNDTRIP
360
231
  0
DICTIONARY
  5
238
330
36
100
AcDbDictionary
280
     1
281
     1
  3
ACAD_XREC_ROUNDTRIP
360
239
  0
DICTIONARY
  5
240
330
3A
100
AcDbDictionary
280
     1
281
     1
  3
ACAD_XREC_ROUNDTRIP
360
241
  0
DICTIONARY
  5
234
330
34
100
AcDbDictionary
280
     1
281
     1
  3
ACAD_XREC_ROUNDTRIP
360
235
  0
DICTIONARY
  5
236
330
35
100
AcDbDictionary
280
     1
281
     1
  3
ACAD_XREC_ROUNDTRIP
360
237
  0
DICTIONARY
  5
246
330
3D
100
AcDbDictionary
280
     1
281
     1
  3
ACAD_XREC_ROUNDTRIP
360
247
  0
DICTIONARY
  5
23E
330
39
100
AcDbDictionary
280
     1
281
     1
  3
ACAD_XREC_ROUNDTRIP
360
23F
  0
DICTIONARY
  5
222
330
2B
100
AcDbDictionary
280
     1
281
     1
  3
ACAD_XREC_ROUNDTRIP
360
223
  0
DICTIONARY
  5
224
330
2C
100
AcDbDictionary
280
     1
281
     1
  3
ACAD_XREC_ROUNDTRIP
360
225
  0
DICTIONARY
  5
226
330
2D
100
AcDbDictionary
280
     1
281
     1
  3
ACAD_XREC_ROUNDTRIP
360
227
  0
DICTIONARY
  5
228
330
2E
100
AcDbDictionary
280
     1
281
     1
  3
ACAD_XREC_ROUNDTRIP
360
229
  0
DICTIONARY
  5
22E
330
31
100
AcDbDictionary
280
     1
281
     1
  3
ACAD_XREC_ROUNDTRIP
360
22F
  0
DICTIONARY
  5
242
330
3B
100
AcDbDictionary
280
     1
281
     1
  3
ACAD_XREC_ROUNDTRIP
360
243
  0
DICTIONARY
  5
23C
330
38
100
AcDbDictionary
280
     1
281
     1
  3
ACAD_XREC_ROUNDTRIP
360
23D
  0
DICTIONARY
  5
244
330
3C
100
AcDbDictionary
280
     1
281
     1
  3
ACAD_XREC_ROUNDTRIP
360
245
  0
DICTIONARY
  5
232
330
33
100
AcDbDictionary
280
     1
281
     1
  3
ACAD_XREC_ROUNDTRIP
360
233
  0
DICTIONARY
  5
250
330
42
100
AcDbDictionary
280
     1
281
     1
  3
ACAD_XREC_ROUNDTRIP
360
251
  0
DICTIONARY
  5
24E
330
41
100
AcDbDictionary
280
     1
281
     1
  3
ACAD_XREC_ROUNDTRIP
360
24F
  0
DICTIONARY
  5
248
330
3E
100
AcDbDictionary
280
     1
281
     1
  3
ACAD_XREC_ROUNDTRIP
360
249
  0
DICTIONARY
  5
24A
330
3F
100
AcDbDictionary
280
     1
281
     1
  3
ACAD_XREC_ROUNDTRIP
360
24B
  0
DICTIONARY
  5
23A
330
37
100
AcDbDictionary
280
     1
281
     1
  3
ACAD_XREC_ROUNDTRIP
360
23B
  0
DICTIONARY
  5
22C
330
30
100
AcDbDictionary
280
     1
281
     1
  3
ACAD_XREC_ROUNDTRIP
360
22D
  0
DICTIONARY
  5
24C
330
40
100
AcDbDictionary
280
     1
281
     1
  3
ACAD_XREC_ROUNDTRIP
360
24D
  0
XRECORD
  5
256
102
{ACAD_REACTORS
330
255
102
}
330
255
100
AcDbXrecord
280
     1
102
ACAD_ROUNDTRIP_2010_MLEADER_STYLE
  0
CELLSTYLEMAP
  5
253
102
{ACAD_REACTORS
330
252
102
}
330
252
100
AcDbCellStyleMap
 90
        3
300
CELLSTYLE
  1
TABLEFORMAT_BEGIN
 90
        5
170
     1
 91
        0
 92
    32768
 62
   257
 93
        1
300
CONTENTFORMAT
  1
CONTENTFORMAT_BEGIN
 90
        0
 91
        0
 92
        4
 93
        0
300

 40
0.0
140
1.0
 94
        5
 62
     0
340
11
144
0.25
309
CONTENTFORMAT_END
171
     1
301
MARGIN
  1
CELLMARGIN_BEGIN
 40
0.06
 40
0.06
 40
0.06
 40
0.06
 40
0.06
 40
0.06
309
CELLMARGIN_END
 94
        6
 95
        1
302
GRIDFORMAT
  1
GRIDFORMAT_BEGIN
 90
        0
 91
        1
 62
     0
 92
       -2
340
14
 93
        0
 40
0.045
309
GRIDFORMAT_END
 95
        2
302
GRIDFORMAT
  1
GRIDFORMAT_BEGIN
 90
        0
 91
        1
 62
     0
 92
       -2
340
14
 93
        0
 40
0.045
309
GRIDFORMAT_END
 95
        4
302
GRIDFORMAT
  1
GRIDFORMAT_BEGIN
 90
        0
 91
        1
 62
     0
 92
       -2
340
14
 93
        0
 40
0.045
309
GRIDFORMAT_END
 95
        8
302
GRIDFORMAT
  1
GRIDFORMAT_BEGIN
 90
        0
 91
        1
 62
     0
 92
       -2
340
14
 93
        0
 40
0.045
309
GRIDFORMAT_END
 95
       16
302
GRIDFORMAT
  1
GRIDFORMAT_BEGIN
 90
        0
 91
        1
 62
     0
 92
       -2
340
14
 93
        0
 40
0.045
309
GRIDFORMAT_END
 95
       32
302
GRIDFORMAT
  1
GRIDFORMAT_BEGIN
 90
        0
 91
        1
 62
     0
 92
       -2
340
14
 93
        0
 40
0.045
309
GRIDFORMAT_END
309
TABLEFORMAT_END
  1
CELLSTYLE_BEGIN
 90
        1
 91
        1
300
_TITLE
309
CELLSTYLE_END
300
CELLSTYLE
  1
TABLEFORMAT_BEGIN
 90
        5
170
     1
 91
        0
 92
        0
 62
   257
 93
        1
300
CONTENTFORMAT
  1
CONTENTFORMAT_BEGIN
 90
        0
 91
        0
 92
        4
 93
        0
300

 40
0.0
140
1.0
 94
        5
 62
     0
340
11
144
0.18
309
CONTENTFORMAT_END
171
     1
301
MARGIN
  1
CELLMARGIN_BEGIN
 40
0.06
 40
0.06
 40
0.06
 40
0.06
 40
0.06
 40
0.06
309
CELLMARGIN_END
 94
        6
 95
        1
302
GRIDFORMAT
  1
GRIDFORMAT_BEGIN
 90
        0
 91
        1
 62
     0
 92
       -2
340
14
 93
        0
 40
0.045
309
GRIDFORMAT_END
 95
        2
302
GRIDFORMAT
  1
GRIDFORMAT_BEGIN
 90
        0
 91
        1
 62
     0
 92
       -2
340
14
 93
        0
 40
0.045
309
GRIDFORMAT_END
 95
        4
302
GRIDFORMAT
  1
GRIDFORMAT_BEGIN
 90
        0
 91
        1
 62
     0
 92
       -2
340
14
 93
        0
 40
0.045
309
GRIDFORMAT_END
 95
        8
302
GRIDFORMAT
  1
GRIDFORMAT_BEGIN
 90
        0
 91
        1
 62
     0
 92
       -2
340
14
 93
        0
 40
0.045
309
GRIDFORMAT_END
 95
       16
302
GRIDFORMAT
  1
GRIDFORMAT_BEGIN
 90
        0
 91
        1
 62
     0
 92
       -2
340
14
 93
        0
 40
0.045
309
GRIDFORMAT_END
 95
       32
302
GRIDFORMAT
  1
GRIDFORMAT_BEGIN
 90
        0
 91
        1
 62
     0
 92
       -2
340
14
 93
        0
 40
0.045
309
GRIDFORMAT_END
309
TABLEFORMAT_END
  1
CELLSTYLE_BEGIN
 90
        2
 91
        1
300
_HEADER
309
CELLSTYLE_END
300
CELLSTYLE
  1
TABLEFORMAT_BEGIN
 90
        5
170
     1
 91
        0
 92
        0
 62
   257
 93
        1
300
CONTENTFORMAT
  1
CONTENTFORMAT_BEGIN
 90
        0
 91
        0
 92
        4
 93
        0
300

 40
0.0
140
1.0
 94
        2
 62
     0
340
11
144
0.18
309
CONTENTFORMAT_END
171
     1
301
MARGIN
  1
CELLMARGIN_BEGIN
 40
0.06
 40
0.06
 40
0.06
 40
0.06
 40
0.06
 40
0.06
309
CELLMARGIN_END
 94
        6
 95
        1
302
GRIDFORMAT
  1
GRIDFORMAT_BEGIN
 90
        0
 91
        1
 62
     0
 92
       -2
340
14
 93
        0
 40
0.045
309
GRIDFORMAT_END
 95
        2
302
GRIDFORMAT
  1
GRIDFORMAT_BEGIN
 90
        0
 91
        1
 62
     0
 92
       -2
340
14
 93
        0
 40
0.045
309
GRIDFORMAT_END
 95
        4
302
GRIDFORMAT
  1
GRIDFORMAT_BEGIN
 90
        0
 91
        1
 62
     0
 92
       -2
340
14
 93
        0
 40
0.045
309
GRIDFORMAT_END
 95
        8
302
GRIDFORMAT
  1
GRIDFORMAT_BEGIN
 90
        0
 91
        1
 62
     0
 92
       -2
340
14
 93
        0
 40
0.045
309
GRIDFORMAT_END
 95
       16
302
GRIDFORMAT
  1
GRIDFORMAT_BEGIN
 90
        0
 91
        1
 62
     0
 92
       -2
340
14
 93
        0
 40
0.045
309
GRIDFORMAT_END
 95
       32
302
GRIDFORMAT
  1
GRIDFORMAT_BEGIN
 90
        0
 91
        1
 62
     0
 92
       -2
340
14
 93
        0
 40
0.045
309
GRIDFORMAT_END
309
TABLEFORMAT_END
  1
CELLSTYLE_BEGIN
 90
        3
 91
        2
300
_DATA
309
CELLSTYLE_END
  0
XRECORD
  5
22B
102
{ACAD_REACTORS
330
22A
102
}
330
22A
100
AcDbXrecord
280
     1
102
RTVSPropertyOp0
 70
     1
102
RTVSPropertyOp1
 70
     1
102
RTVSPropertyOp2
 70
     1
102
RTVSPropertyOp3
 70
     1
102
RTVSPropertyOp4
 70
     1
102
RTVSPropertyOp5
 70
     1
102
RTVSPropertyOp6
 70
     1
102
RTVSPropertyOp7
 70
     1
102
RTVSPropertyOp8
 70
     1
102
RTVSPropertyOp9
 70
     1
102
RTVSPropertyOp10
 70
     1
102
RTVSPropertyOp11
 70
     1
102
RTVSPropertyOp12
 70
     1
102
RTVSPropertyOp13
 70
     1
102
RTVSPropertyOp14
 70
     1
102
RTVSPropertyOp15
 70
     1
102
RTVSPropertyOp16
 70
     1
102
RTVSPropertyOp17
 70
     1
102
RTVSPropertyOp18
 70
     1
102
RTVSPropertyOp19
 70
     1
102
RTVSPropertyOp20
 70
     1
102
RTVSPropertyOp21
 70
     1
102
RTVSPropertyOp22
 70
     1
102
RTVSPropertyOp23
 70
     1
102
RTVSPropertyOp24
 70
     1
102
RTVSPropertyOp25
 70
     1
102
RTVSPropertyOp26
 70
     1
102
RTVSPropertyOp27
 70
     1
102
RTVSPropertyOp28
 70
     1
102
RTVSPropertyOp29
 70
     1
102
RTVSPropertyOp30
 70
     1
102
RTVSPropertyOp31
 70
     1
102
RTVSPropertyOp32
 70
     1
102
RTVSPropertyOp33
 70
     1
102
RTVSPropertyOp34
 70
     1
102
RTVSPropertyOp35
 70
     1
102
RTVSPropertyOp36
 70
     1
102
RTVSPropertyOp37
 70
     1
102
RTVSPropertyOp38
 70
     1
102
RTVSPropertyOp39
 70
     1
102
RTVSPropertyOp40
 70
     1
102
RTVSPropertyOp41
 70
     1
102
RTVSPropertyOp42
 70
     1
102
RTVSPropertyOp43
 70
     1
102
RTVSPropertyOp44
 70
     1
102
RTVSPropertyOp45
 70
     1
102
RTVSPropertyOp46
 70
     1
102
RTVSPropertyOp47
 70
     1
102
RTVSPropertyOp48
 70
     1
102
RTVSPropertyOp49
 70
     1
102
RTVSPropertyOp50
 70
     1
102
RTVSPropertyOp51
 70
     0
102
RTVSPropertyOp52
 70
     0
102
RTVSPropertyOp53
 70
     1
102
RTVSPropertyOp54
 70
     1
102
RTVSPropertyOp55
 70
     1
102
RTVSPropertyOp56
 70
     1
102
RTVSPropertyOp57
 70
     1
102
RTVSPost2010Prop28
280
     1
102
RTVSPost2010PropOp28
 70
     1
102
RTVSPost2010Prop29
280
     1
102
RTVSPost2010PropOp29
 70
     1
102
RTVSPost2010Prop30
280
     0
102
RTVSPost2010PropOp30
 70
     1
102
RTVSPost2010Prop31
280
     0
102
RTVSPost2010PropOp31
 70
     1
102
RTVSPost2010Prop32
280
     0
102
RTVSPost2010PropOp32
 70
     1
102
RTVSPost2010Prop33
280
     0
102
RTVSPost2010PropOp33
 70
     1
102
RTVSPost2010Prop34
280
     0
102
RTVSPost2010PropOp34
 70
     1
102
RTVSPost2010Prop35
280
     0
102
RTVSPost2010PropOp35
 70
     1
102
RTVSPost2010Prop36
280
     0
102
RTVSPost2010PropOp36
 70
     1
102
RTVSPost2010Prop37
 90
       50
102
RTVSPost2010PropOp37
 70
     1
102
RTVSPost2010Prop38
140
0.0
102
RTVSPost2010PropOp38
 70
     1
102
RTVSPost2010Prop39
140
1.0
102
RTVSPost2010PropOp39
 70
     1
102
RTVSPost2010Prop40
 90
        0
102
RTVSPost2010PropOp40
 70
     1
102
RTVSPost2010Prop41ColorIndex
 90
       18
102
RTVSPost2010Prop41ColorRGB
 90
        0
102
RTVSPost2010PropOp41
 70
     1
102
RTVSPost2010Prop42
 90
       50
102
RTVSPost2010PropOp42
 70
     1
102
RTVSPost2010Prop43
 90
        3
102
RTVSPost2010PropOp43
 70
     1
102
RTVSPost2010Prop44ColorIndex
 90
        5
102
RTVSPost2010Prop44ColorRGB
 90
      255
102
RTVSPost2010PropOp44
 70
     1
102
RTVSPost2010Prop45
280
     0
102
RTVSPost2010PropOp45
 70
     1
102
RTVSPost2010Prop46
 90
       50
102
RTVSPost2010PropOp46
 70
     1
102
RTVSPost2010Prop47
 90
       50
102
RTVSPost2010PropOp47
 70
     1
102
RTVSPost2010Prop48
 90
       50
102
RTVSPost2010PropOp48
 70
     1
102
RTVSPost2010Prop49
280
     0
102
RTVSPost2010PropOp49
 70
     1
102
RTVSPost2010Prop50
 90
       50
102
RTVSPost2010PropOp50
 70
     1
102
RTVSPost2010Prop51ColorIndex
 90
      256
102
RTVSPost2010Prop51ColorRGB
 90
-16777216
102
RTVSPost2010PropOp51
 70
     0
102
RTVSPost2010Prop52
140
1.0
102
RTVSPost2010PropOp52
 70
     0
102
RTVSPost2010Prop53
 90
        2
102
RTVSPost2010PropOp53
 70
     1
102
RTVSPost2010Prop54
  1
strokes_ogs.tif
102
RTVSPost2010PropOp54
 70
     1
102
RTVSPost2010Prop55
280
     0
102
RTVSPost2010PropOp55
 70
     1
102
RTVSPost2010Prop56
140
1.0
102
RTVSPost2010PropOp56
 70
     1
102
RTVSPost2010Prop57
140
1.0
102
RTVSPost2010PropOp57
 70
     1
  0
XRECORD
  5
231
102
{ACAD_REACTORS
330
230
102
}
330
230
100
AcDbXrecord
280
     1
102
RTVSPropertyOp0
 70
     1
102
RTVSPropertyOp1
 70
     1
102
RTVSPropertyOp2
 70
     1
102
RTVSPropertyOp3
 70
     1
102
RTVSPropertyOp4
 70
     1
102
RTVSPropertyOp5
 70
     1
102
RTVSPropertyOp6
 70
     1
102
RTVSPropertyOp7
 70
     1
102
RTVSPropertyOp8
 70
     1
102
RTVSPropertyOp9
 70
     1
102
RTVSPropertyOp10
 70
     1
102
RTVSPropertyOp11
 70
     1
102
RTVSPropertyOp12
 70
     1
102
RTVSPropertyOp13
 70
     1
102
RTVSPropertyOp14
 70
     1
102
RTVSPropertyOp15
 70
     1
102
RTVSPropertyOp16
 70
     1
102
RTVSPropertyOp17
 70
     1
102
RTVSPropertyOp18
 70
     1
102
RTVSPropertyOp19
 70
     1
102
RTVSPropertyOp20
 70
     1
102
RTVSPropertyOp21
 70
     1
102
RTVSPropertyOp22
 70
     1
102
RTVSPropertyOp23
 70
     1
102
RTVSPropertyOp24
 70
     1
102
RTVSPropertyOp25
 70
     1
102
RTVSPropertyOp26
 70
     1
102
RTVSPropertyOp27
 70
     1
102
RTVSPropertyOp28
 70
     1
102
RTVSPropertyOp29
 70
     1
102
RTVSPropertyOp30
 70
     1
102
RTVSPropertyOp31
 70
     1
102
RTVSPropertyOp32
 70
     1
102
RTVSPropertyOp33
 70
     1
102
RTVSPropertyOp34
 70
     1
102
RTVSPropertyOp35
 70
     1
102
RTVSPropertyOp36
 70
     1
102
RTVSPropertyOp37
 70
     1
102
RTVSPropertyOp38
 70
     1
102
RTVSPropertyOp39
 70
     1
102
RTVSPropertyOp40
 70
     1
102
RTVSPropertyOp41
 70
     1
102
RTVSPropertyOp42
 70
     1
102
RTVSPropertyOp43
 70
     1
102
RTVSPropertyOp44
 70
     1
102
RTVSPropertyOp45
 70
     1
102
RTVSPropertyOp46
 70
     1
102
RTVSPropertyOp47
 70
     1
102
RTVSPropertyOp48
 70
     1
102
RTVSPropertyOp49
 70
     1
102
RTVSPropertyOp50
 70
     1
102
RTVSPropertyOp51
 70
     0
102
RTVSPropertyOp52
 70
     0
102
RTVSPropertyOp53
 70
     1
102
RTVSPropertyOp54
 70
     1
102
RTVSPropertyOp55
 70
     1
102
RTVSPropertyOp56
 70
     1
102
RTVSPropertyOp57
 70
     1
102
RTVSPost2010Prop28
280
     0
102
RTVSPost2010PropOp28
 70
     1
102
RTVSPost2010Prop29
280
     1
102
RTVSPost2010PropOp29
 70
     1
102
RTVSPost2010Prop30
280
     1
102
RTVSPost2010PropOp30
 70
     1
102
RTVSPost2010Prop31
280
     0
102
RTVSPost2010PropOp31
 70
     1
102
RTVSPost2010Prop32
280
     0
102
RTVSPost2010PropOp32
 70
     1
102
RTVSPost2010Prop33
280
     0
102
RTVSPost2010PropOp33
 70
     1
102
RTVSPost2010Prop34
280
     0
102
RTVSPost2010PropOp34
 70
     1
102
RTVSPost2010Prop35
280
     0
102
RTVSPost2010PropOp35
 70
     1
102
RTVSPost2010Prop36
280
     0
102
RTVSPost2010PropOp36
 70
     1
102
RTVSPost2010Prop37
 90
       50
102
RTVSPost2010PropOp37
 70
     1
102
RTVSPost2010Prop38
140
0.0
102
RTVSPost2010PropOp38
 70
     1
102
RTVSPost2010Prop39
140
1.0
102
RTVSPost2010PropOp39
 70
     1
102
RTVSPost2010Prop40
 90
        0
102
RTVSPost2010PropOp40
 70
     1
102
RTVSPost2010Prop41ColorIndex
 90
       18
102
RTVSPost2010Prop41ColorRGB
 90
        0
102
RTVSPost2010PropOp41
 70
     1
102
RTVSPost2010Prop42
 90
       50
102
RTVSPost2010PropOp42
 70
     1
102
RTVSPost2010Prop43
 90
        3
102
RTVSPost2010PropOp43
 70
     1
102
RTVSPost2010Prop44ColorIndex
 90
        5
102
RTVSPost2010Prop44ColorRGB
 90
      255
102
RTVSPost2010PropOp44
 70
     1
102
RTVSPost2010Prop45
280
     0
102
RTVSPost2010PropOp45
 70
     1
102
RTVSPost2010Prop46
 90
       50
102
RTVSPost2010PropOp46
 70
     1
102
RTVSPost2010Prop47
 90
       50
102
RTVSPost2010PropOp47
 70
     1
102
RTVSPost2010Prop48
 90
       50
102
RTVSPost2010PropOp48
 70
     1
102
RTVSPost2010Prop49
280
     0
102
RTVSPost2010PropOp49
 70
     1
102
RTVSPost2010Prop50
 90
       50
102
RTVSPost2010PropOp50
 70
     1
102
RTVSPost2010Prop51ColorIndex
 90
      256
102
RTVSPost2010Prop51ColorRGB
 90
-16777216
102
RTVSPost2010PropOp51
 70
     0
102
RTVSPost2010Prop52
140
1.0
102
RTVSPost2010PropOp52
 70
     0
102
RTVSPost2010Prop53
 90
        2
102
RTVSPost2010PropOp53
 70
     1
102
RTVSPost2010Prop54
  1
strokes_ogs.tif
102
RTVSPost2010PropOp54
 70
     1
102
RTVSPost2010Prop55
280
     0
102
RTVSPost2010PropOp55
 70
     1
102
RTVSPost2010Prop56
140
1.0
102
RTVSPost2010PropOp56
 70
     1
102
RTVSPost2010Prop57
140
1.0
102
RTVSPost2010PropOp57
 70
     1
  0
XRECORD
  5
239
102
{ACAD_REACTORS
330
238
102
}
330
238
100
AcDbXrecord
280
     1
102
RTVSPropertyOp0
 70
     1
102
RTVSPropertyOp1
 70
     1
102
RTVSPropertyOp2
 70
     1
102
RTVSPropertyOp3
 70
     1
102
RTVSPropertyOp4
 70
     1
102
RTVSPropertyOp5
 70
     1
102
RTVSPropertyOp6
 70
     1
102
RTVSPropertyOp7
 70
     1
102
RTVSPropertyOp8
 70
     1
102
RTVSPropertyOp9
 70
     1
102
RTVSPropertyOp10
 70
     1
102
RTVSPropertyOp11
 70
     1
102
RTVSPropertyOp12
 70
     1
102
RTVSPropertyOp13
 70
     1
102
RTVSPropertyOp14
 70
     1
102
RTVSPropertyOp15
 70
     1
102
RTVSPropertyOp16
 70
     1
102
RTVSPropertyOp17
 70
     1
102
RTVSPropertyOp18
 70
     1
102
RTVSPropertyOp19
 70
     1
102
RTVSPropertyOp20
 70
     1
102
RTVSPropertyOp21
 70
     1
102
RTVSPropertyOp22
 70
     1
102
RTVSPropertyOp23
 70
     1
102
RTVSPropertyOp24
 70
     1
102
RTVSPropertyOp25
 70
     1
102
RTVSPropertyOp26
 70
     1
102
RTVSPropertyOp27
 70
     1
102
RTVSPropertyOp28
 70
     1
102
RTVSPropertyOp29
 70
     1
102
RTVSPropertyOp30
 70
     1
102
RTVSPropertyOp31
 70
     1
102
RTVSPropertyOp32
 70
     1
102
RTVSPropertyOp33
 70
     1
102
RTVSPropertyOp34
 70
     1
102
RTVSPropertyOp35
 70
     1
102
RTVSPropertyOp36
 70
     1
102
RTVSPropertyOp37
 70
     1
102
RTVSPropertyOp38
 70
     1
102
RTVSPropertyOp39
 70
     1
102
RTVSPropertyOp40
 70
     1
102
RTVSPropertyOp41
 70
     1
102
RTVSPropertyOp42
 70
     1
102
RTVSPropertyOp43
 70
     1
102
RTVSPropertyOp44
 70
     1
102
RTVSPropertyOp45
 70
     1
102
RTVSPropertyOp46
 70
     1
102
RTVSPropertyOp47
 70
     1
102
RTVSPropertyOp48
 70
     1
102
RTVSPropertyOp49
 70
     1
102
RTVSPropertyOp50
 70
     1
102
RTVSPropertyOp51
 70
     0
102
RTVSPropertyOp52
 70
     0
102
RTVSPropertyOp53
 70
     1
102
RTVSPropertyOp54
 70
     1
102
RTVSPropertyOp55
 70
     1
102
RTVSPropertyOp56
 70
     1
102
RTVSPropertyOp57
 70
     1
102
RTVSPost2010Prop28
280
     0
102
RTVSPost2010PropOp28
 70
     1
102
RTVSPost2010Prop29
280
     1
102
RTVSPost2010PropOp29
 70
     1
102
RTVSPost2010Prop30
280
     1
102
RTVSPost2010PropOp30
 70
     1
102
RTVSPost2010Prop31
280
     0
102
RTVSPost2010PropOp31
 70
     1
102
RTVSPost2010Prop32
280
     0
102
RTVSPost2010PropOp32
 70
     1
102
RTVSPost2010Prop33
280
     0
102
RTVSPost2010PropOp33
 70
     1
102
RTVSPost2010Prop34
280
     0
102
RTVSPost2010PropOp34
 70
     1
102
RTVSPost2010Prop35
280
     0
102
RTVSPost2010PropOp35
 70
     1
102
RTVSPost2010Prop36
280
     0
102
RTVSPost2010PropOp36
 70
     1
102
RTVSPost2010Prop37
 90
       50
102
RTVSPost2010PropOp37
 70
     1
102
RTVSPost2010Prop38
140
0.0
102
RTVSPost2010PropOp38
 70
     1
102
RTVSPost2010Prop39
140
1.0
102
RTVSPost2010PropOp39
 70
     1
102
RTVSPost2010Prop40
 90
        0
102
RTVSPost2010PropOp40
 70
     1
102
RTVSPost2010Prop41ColorIndex
 90
       18
102
RTVSPost2010Prop41ColorRGB
 90
        0
102
RTVSPost2010PropOp41
 70
     1
102
RTVSPost2010Prop42
 90
       50
102
RTVSPost2010PropOp42
 70
     1
102
RTVSPost2010Prop43
 90
        3
102
RTVSPost2010PropOp43
 70
     1
102
RTVSPost2010Prop44ColorIndex
 90
        5
102
RTVSPost2010Prop44ColorRGB
 90
      255
102
RTVSPost2010PropOp44
 70
     1
102
RTVSPost2010Prop45
280
     0
102
RTVSPost2010PropOp45
 70
     1
102
RTVSPost2010Prop46
 90
       50
102
RTVSPost2010PropOp46
 70
     1
102
RTVSPost2010Prop47
 90
       50
102
RTVSPost2010PropOp47
 70
     1
102
RTVSPost2010Prop48
 90
       50
102
RTVSPost2010PropOp48
 70
     1
102
RTVSPost2010Prop49
280
     0
102
RTVSPost2010PropOp49
 70
     1
102
RTVSPost2010Prop50
 90
       50
102
RTVSPost2010PropOp50
 70
     1
102
RTVSPost2010Prop51ColorIndex
 90
      256
102
RTVSPost2010Prop51ColorRGB
 90
-16777216
102
RTVSPost2010PropOp51
 70
     0
102
RTVSPost2010Prop52
140
1.0
102
RTVSPost2010PropOp52
 70
     0
102
RTVSPost2010Prop53
 90
        2
102
RTVSPost2010PropOp53
 70
     1
102
RTVSPost2010Prop54
  1
strokes_ogs.tif
102
RTVSPost2010PropOp54
 70
     1
102
RTVSPost2010Prop55
280
     0
102
RTVSPost2010PropOp55
 70
     1
102
RTVSPost2010Prop56
140
1.0
102
RTVSPost2010PropOp56
 70
     1
102
RTVSPost2010Prop57
140
1.0
102
RTVSPost2010PropOp57
 70
     1
  0
XRECORD
  5
241
102
{ACAD_REACTORS
330
240
102
}
330
240
100
AcDbXrecord
280
     1
102
RTVSPropertyOp0
 70
     1
102
RTVSPropertyOp1
 70
     1
102
RTVSPropertyOp2
 70
     1
102
RTVSPropertyOp3
 70
     1
102
RTVSPropertyOp4
 70
     1
102
RTVSPropertyOp5
 70
     1
102
RTVSPropertyOp6
 70
     1
102
RTVSPropertyOp7
 70
     1
102
RTVSPropertyOp8
 70
     1
102
RTVSPropertyOp9
 70
     1
102
RTVSPropertyOp10
 70
     1
102
RTVSPropertyOp11
 70
     1
102
RTVSPropertyOp12
 70
     1
102
RTVSPropertyOp13
 70
     1
102
RTVSPropertyOp14
 70
     1
102
RTVSPropertyOp15
 70
     1
102
RTVSPropertyOp16
 70
     1
102
RTVSPropertyOp17
 70
     1
102
RTVSPropertyOp18
 70
     1
102
RTVSPropertyOp19
 70
     1
102
RTVSPropertyOp20
 70
     1
102
RTVSPropertyOp21
 70
     1
102
RTVSPropertyOp22
 70
     1
102
RTVSPropertyOp23
 70
     1
102
RTVSPropertyOp24
 70
     1
102
RTVSPropertyOp25
 70
     1
102
RTVSPropertyOp26
 70
     1
102
RTVSPropertyOp27
 70
     1
102
RTVSPropertyOp28
 70
     1
102
RTVSPropertyOp29
 70
     1
102
RTVSPropertyOp30
 70
     1
102
RTVSPropertyOp31
 70
     1
102
RTVSPropertyOp32
 70
     1
102
RTVSPropertyOp33
 70
     1
102
RTVSPropertyOp34
 70
     1
102
RTVSPropertyOp35
 70
     1
102
RTVSPropertyOp36
 70
     1
102
RTVSPropertyOp37
 70
     1
102
RTVSPropertyOp38
 70
     1
102
RTVSPropertyOp39
 70
     1
102
RTVSPropertyOp40
 70
     1
102
RTVSPropertyOp41
 70
     1
102
RTVSPropertyOp42
 70
     1
102
RTVSPropertyOp43
 70
     1
102
RTVSPropertyOp44
 70
     1
102
RTVSPropertyOp45
 70
     1
102
RTVSPropertyOp46
 70
     1
102
RTVSPropertyOp47
 70
     1
102
RTVSPropertyOp48
 70
     1
102
RTVSPropertyOp49
 70
     1
102
RTVSPropertyOp50
 70
     1
102
RTVSPropertyOp51
 70
     0
102
RTVSPropertyOp52
 70
     0
102
RTVSPropertyOp53
 70
     1
102
RTVSPropertyOp54
 70
     1
102
RTVSPropertyOp55
 70
     1
102
RTVSPropertyOp56
 70
     1
102
RTVSPropertyOp57
 70
     1
102
RTVSPost2010Prop28
280
     0
102
RTVSPost2010PropOp28
 70
     1
102
RTVSPost2010Prop29
280
     1
102
RTVSPost2010PropOp29
 70
     1
102
RTVSPost2010Prop30
280
     1
102
RTVSPost2010PropOp30
 70
     1
102
RTVSPost2010Prop31
280
     0
102
RTVSPost2010PropOp31
 70
     1
102
RTVSPost2010Prop32
280
     0
102
RTVSPost2010PropOp32
 70
     1
102
RTVSPost2010Prop33
280
     0
102
RTVSPost2010PropOp33
 70
     1
102
RTVSPost2010Prop34
280
     0
102
RTVSPost2010PropOp34
 70
     1
102
RTVSPost2010Prop35
280
     0
102
RTVSPost2010PropOp35
 70
     1
102
RTVSPost2010Prop36
280
     0
102
RTVSPost2010PropOp36
 70
     1
102
RTVSPost2010Prop37
 90
       50
102
RTVSPost2010PropOp37
 70
     1
102
RTVSPost2010Prop38
140
0.0
102
RTVSPost2010PropOp38
 70
     1
102
RTVSPost2010Prop39
140
1.0
102
RTVSPost2010PropOp39
 70
     1
102
RTVSPost2010Prop40
 90
        0
102
RTVSPost2010PropOp40
 70
     1
102
RTVSPost2010Prop41ColorIndex
 90
       18
102
RTVSPost2010Prop41ColorRGB
 90
        0
102
RTVSPost2010PropOp41
 70
     1
102
RTVSPost2010Prop42
 90
       50
102
RTVSPost2010PropOp42
 70
     1
102
RTVSPost2010Prop43
 90
        3
102
RTVSPost2010PropOp43
 70
     1
102
RTVSPost2010Prop44ColorIndex
 90
        5
102
RTVSPost2010Prop44ColorRGB
 90
      255
102
RTVSPost2010PropOp44
 70
     1
102
RTVSPost2010Prop45
280
     0
102
RTVSPost2010PropOp45
 70
     1
102
RTVSPost2010Prop46
 90
       50
102
RTVSPost2010PropOp46
 70
     1
102
RTVSPost2010Prop47
 90
       50
102
RTVSPost2010PropOp47
 70
     1
102
RTVSPost2010Prop48
 90
       50
102
RTVSPost2010PropOp48
 70
     1
102
RTVSPost2010Prop49
280
     0
102
RTVSPost2010PropOp49
 70
     1
102
RTVSPost2010Prop50
 90
       50
102
RTVSPost2010PropOp50
 70
     1
102
RTVSPost2010Prop51ColorIndex
 90
      256
102
RTVSPost2010Prop51ColorRGB
 90
-16777216
102
RTVSPost2010PropOp51
 70
     0
102
RTVSPost2010Prop52
140
1.0
102
RTVSPost2010PropOp52
 70
     0
102
RTVSPost2010Prop53
 90
        2
102
RTVSPost2010PropOp53
 70
     1
102
RTVSPost2010Prop54
  1
strokes_ogs.tif
102
RTVSPost2010PropOp54
 70
     1
102
RTVSPost2010Prop55
280
     0
102
RTVSPost2010PropOp55
 70
     1
102
RTVSPost2010Prop56
140
1.0
102
RTVSPost2010PropOp56
 70
     1
102
RTVSPost2010Prop57
140
1.0
102
RTVSPost2010PropOp57
 70
     1
  0
XRECORD
  5
235
102
{ACAD_REACTORS
330
234
102
}
330
234
100
AcDbXrecord
280
     1
102
RTVSPropertyOp0
 70
     1
102
RTVSPropertyOp1
 70
     1
102
RTVSPropertyOp2
 70
     1
102
RTVSPropertyOp3
 70
     1
102
RTVSPropertyOp4
 70
     1
102
RTVSPropertyOp5
 70
     1
102
RTVSPropertyOp6
 70
     1
102
RTVSPropertyOp7
 70
     1
102
RTVSPropertyOp8
 70
     1
102
RTVSPropertyOp9
 70
     1
102
RTVSPropertyOp10
 70
     1
102
RTVSPropertyOp11
 70
     1
102
RTVSPropertyOp12
 70
     1
102
RTVSPropertyOp13
 70
     1
102
RTVSPropertyOp14
 70
     1
102
RTVSPropertyOp15
 70
     1
102
RTVSPropertyOp16
 70
     1
102
RTVSPropertyOp17
 70
     1
102
RTVSPropertyOp18
 70
     1
102
RTVSPropertyOp19
 70
     1
102
RTVSPropertyOp20
 70
     1
102
RTVSPropertyOp21
 70
     1
102
RTVSPropertyOp22
 70
     1
102
RTVSPropertyOp23
 70
     1
102
RTVSPropertyOp24
 70
     1
102
RTVSPropertyOp25
 70
     1
102
RTVSPropertyOp26
 70
     1
102
RTVSPropertyOp27
 70
     1
102
RTVSPropertyOp28
 70
     1
102
RTVSPropertyOp29
 70
     1
102
RTVSPropertyOp30
 70
     1
102
RTVSPropertyOp31
 70
     1
102
RTVSPropertyOp32
 70
     1
102
RTVSPropertyOp33
 70
     1
102
RTVSPropertyOp34
 70
     1
102
RTVSPropertyOp35
 70
     1
102
RTVSPropertyOp36
 70
     1
102
RTVSPropertyOp37
 70
     1
102
RTVSPropertyOp38
 70
     1
102
RTVSPropertyOp39
 70
     1
102
RTVSPropertyOp40
 70
     1
102
RTVSPropertyOp41
 70
     1
102
RTVSPropertyOp42
 70
     1
102
RTVSPropertyOp43
 70
     1
102
RTVSPropertyOp44
 70
     1
102
RTVSPropertyOp45
 70
     1
102
RTVSPropertyOp46
 70
     1
102
RTVSPropertyOp47
 70
     1
102
RTVSPropertyOp48
 70
     1
102
RTVSPropertyOp49
 70
     1
102
RTVSPropertyOp50
 70
     1
102
RTVSPropertyOp51
 70
     0
102
RTVSPropertyOp52
 70
     0
102
RTVSPropertyOp53
 70
     1
102
RTVSPropertyOp54
 70
     1
102
RTVSPropertyOp55
 70
     1
102
RTVSPropertyOp56
 70
     1
102
RTVSPropertyOp57
 70
     1
102
RTVSPost2010Prop28
280
     0
102
RTVSPost2010PropOp28
 70
     1
102
RTVSPost2010Prop29
280
     1
102
RTVSPost2010PropOp29
 70
     1
102
RTVSPost2010Prop30
280
     1
102
RTVSPost2010PropOp30
 70
     1
102
RTVSPost2010Prop31
280
     0
102
RTVSPost2010PropOp31
 70
     1
102
RTVSPost2010Prop32
280
     0
102
RTVSPost2010PropOp32
 70
     1
102
RTVSPost2010Prop33
280
     0
102
RTVSPost2010PropOp33
 70
     1
102
RTVSPost2010Prop34
280
     0
102
RTVSPost2010PropOp34
 70
     1
102
RTVSPost2010Prop35
280
     0
102
RTVSPost2010PropOp35
 70
     1
102
RTVSPost2010Prop36
280
     0
102
RTVSPost2010PropOp36
 70
     1
102
RTVSPost2010Prop37
 90
       50
102
RTVSPost2010PropOp37
 70
     1
102
RTVSPost2010Prop38
140
0.0
102
RTVSPost2010PropOp38
 70
     1
102
RTVSPost2010Prop39
140
1.0
102
RTVSPost2010PropOp39
 70
     1
102
RTVSPost2010Prop40
 90
        0
102
RTVSPost2010PropOp40
 70
     1
102
RTVSPost2010Prop41ColorIndex
 90
       18
102
RTVSPost2010Prop41ColorRGB
 90
        0
102
RTVSPost2010PropOp41
 70
     1
102
RTVSPost2010Prop42
 90
       50
102
RTVSPost2010PropOp42
 70
     1
102
RTVSPost2010Prop43
 90
        3
102
RTVSPost2010PropOp43
 70
     1
102
RTVSPost2010Prop44ColorIndex
 90
        5
102
RTVSPost2010Prop44ColorRGB
 90
      255
102
RTVSPost2010PropOp44
 70
     1
102
RTVSPost2010Prop45
280
     0
102
RTVSPost2010PropOp45
 70
     1
102
RTVSPost2010Prop46
 90
       50
102
RTVSPost2010PropOp46
 70
     1
102
RTVSPost2010Prop47
 90
       50
102
RTVSPost2010PropOp47
 70
     1
102
RTVSPost2010Prop48
 90
       50
102
RTVSPost2010PropOp48
 70
     1
102
RTVSPost2010Prop49
280
     0
102
RTVSPost2010PropOp49
 70
     1
102
RTVSPost2010Prop50
 90
       50
102
RTVSPost2010PropOp50
 70
     1
102
RTVSPost2010Prop51ColorIndex
 90
      256
102
RTVSPost2010Prop51ColorRGB
 90
-16777216
102
RTVSPost2010PropOp51
 70
     0
102
RTVSPost2010Prop52
140
1.0
102
RTVSPost2010PropOp52
 70
     0
102
RTVSPost2010Prop53
 90
        2
102
RTVSPost2010PropOp53
 70
     1
102
RTVSPost2010Prop54
  1
strokes_ogs.tif
102
RTVSPost2010PropOp54
 70
     1
102
RTVSPost2010Prop55
280
     0
102
RTVSPost2010PropOp55
 70
     1
102
RTVSPost2010Prop56
140
1.0
102
RTVSPost2010PropOp56
 70
     1
102
RTVSPost2010Prop57
140
1.0
102
RTVSPost2010PropOp57
 70
     1
  0
XRECORD
  5
237
102
{ACAD_REACTORS
330
236
102
}
330
236
100
AcDbXrecord
280
     1
102
RTVSPropertyOp0
 70
     1
102
RTVSPropertyOp1
 70
     1
102
RTVSPropertyOp2
 70
     1
102
RTVSPropertyOp3
 70
     1
102
RTVSPropertyOp4
 70
     1
102
RTVSPropertyOp5
 70
     1
102
RTVSPropertyOp6
 70
     1
102
RTVSPropertyOp7
 70
     1
102
RTVSPropertyOp8
 70
     1
102
RTVSPropertyOp9
 70
     1
102
RTVSPropertyOp10
 70
     1
102
RTVSPropertyOp11
 70
     1
102
RTVSPropertyOp12
 70
     1
102
RTVSPropertyOp13
 70
     1
102
RTVSPropertyOp14
 70
     1
102
RTVSPropertyOp15
 70
     1
102
RTVSPropertyOp16
 70
     1
102
RTVSPropertyOp17
 70
     1
102
RTVSPropertyOp18
 70
     1
102
RTVSPropertyOp19
 70
     1
102
RTVSPropertyOp20
 70
     1
102
RTVSPropertyOp21
 70
     1
102
RTVSPropertyOp22
 70
     1
102
RTVSPropertyOp23
 70
     1
102
RTVSPropertyOp24
 70
     1
102
RTVSPropertyOp25
 70
     1
102
RTVSPropertyOp26
 70
     1
102
RTVSPropertyOp27
 70
     1
102
RTVSPropertyOp28
 70
     1
102
RTVSPropertyOp29
 70
     1
102
RTVSPropertyOp30
 70
     1
102
RTVSPropertyOp31
 70
     1
102
RTVSPropertyOp32
 70
     1
102
RTVSPropertyOp33
 70
     1
102
RTVSPropertyOp34
 70
     1
102
RTVSPropertyOp35
 70
     1
102
RTVSPropertyOp36
 70
     1
102
RTVSPropertyOp37
 70
     1
102
RTVSPropertyOp38
 70
     1
102
RTVSPropertyOp39
 70
     1
102
RTVSPropertyOp40
 70
     1
102
RTVSPropertyOp41
 70
     1
102
RTVSPropertyOp42
 70
     1
102
RTVSPropertyOp43
 70
     1
102
RTVSPropertyOp44
 70
     1
102
RTVSPropertyOp45
 70
     1
102
RTVSPropertyOp46
 70
     1
102
RTVSPropertyOp47
 70
     1
102
RTVSPropertyOp48
 70
     1
102
RTVSPropertyOp49
 70
     1
102
RTVSPropertyOp50
 70
     1
102
RTVSPropertyOp51
 70
     0
102
RTVSPropertyOp52
 70
     0
102
RTVSPropertyOp53
 70
     1
102
RTVSPropertyOp54
 70
     1
102
RTVSPropertyOp55
 70
     1
102
RTVSPropertyOp56
 70
     1
102
RTVSPropertyOp57
 70
     1
102
RTVSPost2010Prop28
280
     0
102
RTVSPost2010PropOp28
 70
     1
102
RTVSPost2010Prop29
280
     1
102
RTVSPost2010PropOp29
 70
     1
102
RTVSPost2010Prop30
280
     1
102
RTVSPost2010PropOp30
 70
     1
102
RTVSPost2010Prop31
280
     0
102
RTVSPost2010PropOp31
 70
     1
102
RTVSPost2010Prop32
280
     0
102
RTVSPost2010PropOp32
 70
     1
102
RTVSPost2010Prop33
280
     0
102
RTVSPost2010PropOp33
 70
     1
102
RTVSPost2010Prop34
280
     0
102
RTVSPost2010PropOp34
 70
     1
102
RTVSPost2010Prop35
280
     0
102
RTVSPost2010PropOp35
 70
     1
102
RTVSPost2010Prop36
280
     0
102
RTVSPost2010PropOp36
 70
     1
102
RTVSPost2010Prop37
 90
       50
102
RTVSPost2010PropOp37
 70
     1
102
RTVSPost2010Prop38
140
0.0
102
RTVSPost2010PropOp38
 70
     1
102
RTVSPost2010Prop39
140
1.0
102
RTVSPost2010PropOp39
 70
     1
102
RTVSPost2010Prop40
 90
        0
102
RTVSPost2010PropOp40
 70
     1
102
RTVSPost2010Prop41ColorIndex
 90
       18
102
RTVSPost2010Prop41ColorRGB
 90
        0
102
RTVSPost2010PropOp41
 70
     1
102
RTVSPost2010Prop42
 90
       50
102
RTVSPost2010PropOp42
 70
     1
102
RTVSPost2010Prop43
 90
        3
102
RTVSPost2010PropOp43
 70
     1
102
RTVSPost2010Prop44ColorIndex
 90
        5
102
RTVSPost2010Prop44ColorRGB
 90
      255
102
RTVSPost2010PropOp44
 70
     1
102
RTVSPost2010Prop45
280
     0
102
RTVSPost2010PropOp45
 70
     1
102
RTVSPost2010Prop46
 90
       50
102
RTVSPost2010PropOp46
 70
     1
102
RTVSPost2010Prop47
 90
       50
102
RTVSPost2010PropOp47
 70
     1
102
RTVSPost2010Prop48
 90
       50
102
RTVSPost2010PropOp48
 70
     1
102
RTVSPost2010Prop49
280
     0
102
RTVSPost2010PropOp49
 70
     1
102
RTVSPost2010Prop50
 90
       50
102
RTVSPost2010PropOp50
 70
     1
102
RTVSPost2010Prop51ColorIndex
 90
      256
102
RTVSPost2010Prop51ColorRGB
 90
-16777216
102
RTVSPost2010PropOp51
 70
     0
102
RTVSPost2010Prop52
140
1.0
102
RTVSPost2010PropOp52
 70
     0
102
RTVSPost2010Prop53
 90
        2
102
RTVSPost2010PropOp53
 70
     1
102
RTVSPost2010Prop54
  1
strokes_ogs.tif
102
RTVSPost2010PropOp54
 70
     1
102
RTVSPost2010Prop55
280
     0
102
RTVSPost2010PropOp55
 70
     1
102
RTVSPost2010Prop56
140
1.0
102
RTVSPost2010PropOp56
 70
     1
102
RTVSPost2010Prop57
140
1.0
102
RTVSPost2010PropOp57
 70
     1
  0
XRECORD
  5
247
102
{ACAD_REACTORS
330
246
102
}
330
246
100
AcDbXrecord
280
     1
102
RTVSPropertyOp0
 70
     0
102
RTVSPropertyOp1
 70
     0
102
RTVSPropertyOp2
 70
     0
102
RTVSPropertyOp3
 70
     0
102
RTVSPropertyOp4
 70
     0
102
RTVSPropertyOp5
 70
     0
102
RTVSPropertyOp6
 70
     0
102
RTVSPropertyOp7
 70
     0
102
RTVSPropertyOp8
 70
     0
102
RTVSPropertyOp9
 70
     0
102
RTVSPropertyOp10
 70
     0
102
RTVSPropertyOp11
 70
     0
102
RTVSPropertyOp12
 70
     0
102
RTVSPropertyOp13
 70
     0
102
RTVSPropertyOp14
 70
     2
102
RTVSPropertyOp15
 70
     0
102
RTVSPropertyOp16
 70
     0
102
RTVSPropertyOp17
 70
     0
102
RTVSPropertyOp18
 70
     0
102
RTVSPropertyOp19
 70
     0
102
RTVSPropertyOp20
 70
     0
102
RTVSPropertyOp21
 70
     0
102
RTVSPropertyOp22
 70
     0
102
RTVSPropertyOp23
 70
     0
102
RTVSPropertyOp24
 70
     0
102
RTVSPropertyOp25
 70
     0
102
RTVSPropertyOp26
 70
     0
102
RTVSPropertyOp27
 70
     0
102
RTVSPropertyOp28
 70
     0
102
RTVSPropertyOp29
 70
     0
102
RTVSPropertyOp30
 70
     0
102
RTVSPropertyOp31
 70
     0
102
RTVSPropertyOp32
 70
     0
102
RTVSPropertyOp33
 70
     0
102
RTVSPropertyOp34
 70
     0
102
RTVSPropertyOp35
 70
     0
102
RTVSPropertyOp36
 70
     0
102
RTVSPropertyOp37
 70
     0
102
RTVSPropertyOp38
 70
     0
102
RTVSPropertyOp39
 70
     0
102
RTVSPropertyOp40
 70
     0
102
RTVSPropertyOp41
 70
     0
102
RTVSPropertyOp42
 70
     0
102
RTVSPropertyOp43
 70
     0
102
RTVSPropertyOp44
 70
     0
102
RTVSPropertyOp45
 70
     0
102
RTVSPropertyOp46
 70
     0
102
RTVSPropertyOp47
 70
     0
102
RTVSPropertyOp48
 70
     0
102
RTVSPropertyOp49
 70
     0
102
RTVSPropertyOp50
 70
     0
102
RTVSPropertyOp51
 70
     0
102
RTVSPropertyOp52
 70
     0
102
RTVSPropertyOp53
 70
     0
102
RTVSPropertyOp54
 70
     0
102
RTVSPropertyOp55
 70
     0
102
RTVSPropertyOp56
 70
     0
102
RTVSPropertyOp57
 70
     0
102
RTVSPost2010Prop28
280
     0
102
RTVSPost2010PropOp28
 70
     0
102
RTVSPost2010Prop29
280
     1
102
RTVSPost2010PropOp29
 70
     0
102
RTVSPost2010Prop30
280
     1
102
RTVSPost2010PropOp30
 70
     0
102
RTVSPost2010Prop31
280
     0
102
RTVSPost2010PropOp31
 70
     0
102
RTVSPost2010Prop32
280
     0
102
RTVSPost2010PropOp32
 70
     0
102
RTVSPost2010Prop33
280
     0
102
RTVSPost2010PropOp33
 70
     0
102
RTVSPost2010Prop34
280
     0
102
RTVSPost2010PropOp34
 70
     0
102
RTVSPost2010Prop35
280
     0
102
RTVSPost2010PropOp35
 70
     0
102
RTVSPost2010Prop36
280
     0
102
RTVSPost2010PropOp36
 70
     0
102
RTVSPost2010Prop37
 90
       50
102
RTVSPost2010PropOp37
 70
     0
102
RTVSPost2010Prop38
140
0.0
102
RTVSPost2010PropOp38
 70
     0
102
RTVSPost2010Prop39
140
1.0
102
RTVSPost2010PropOp39
 70
     0
102
RTVSPost2010Prop40
 90
        0
102
RTVSPost2010PropOp40
 70
     0
102
RTVSPost2010Prop41ColorIndex
 90
       18
102
RTVSPost2010Prop41ColorRGB
 90
        0
102
RTVSPost2010PropOp41
 70
     0
102
RTVSPost2010Prop42
 90
       50
102
RTVSPost2010PropOp42
 70
     0
102
RTVSPost2010Prop43
 90
        3
102
RTVSPost2010PropOp43
 70
     0
102
RTVSPost2010Prop44ColorIndex
 90
        5
102
RTVSPost2010Prop44ColorRGB
 90
      255
102
RTVSPost2010PropOp44
 70
     0
102
RTVSPost2010Prop45
280
     0
102
RTVSPost2010PropOp45
 70
     0
102
RTVSPost2010Prop46
 90
       50
102
RTVSPost2010PropOp46
 70
     0
102
RTVSPost2010Prop47
 90
       50
102
RTVSPost2010PropOp47
 70
     0
102
RTVSPost2010Prop48
 90
       50
102
RTVSPost2010PropOp48
 70
     0
102
RTVSPost2010Prop49
280
     0
102
RTVSPost2010PropOp49
 70
     0
102
RTVSPost2010Prop50
 90
       50
102
RTVSPost2010PropOp50
 70
     0
102
RTVSPost2010Prop51ColorIndex
 90
      256
102
RTVSPost2010Prop51ColorRGB
 90
-16777216
102
RTVSPost2010PropOp51
 70
     0
102
RTVSPost2010Prop52
140
1.0
102
RTVSPost2010PropOp52
 70
     0
102
RTVSPost2010Prop53
 90
        2
102
RTVSPost2010PropOp53
 70
     0
102
RTVSPost2010Prop54
  1
strokes_ogs.tif
102
RTVSPost2010PropOp54
 70
     0
102
RTVSPost2010Prop55
280
     0
102
RTVSPost2010PropOp55
 70
     0
102
RTVSPost2010Prop56
140
1.0
102
RTVSPost2010PropOp56
 70
     0
102
RTVSPost2010Prop57
140
1.0
102
RTVSPost2010PropOp57
 70
     0
  0
XRECORD
  5
23F
102
{ACAD_REACTORS
330
23E
102
}
330
23E
100
AcDbXrecord
280
     1
102
RTVSPropertyOp0
 70
     1
102
RTVSPropertyOp1
 70
     1
102
RTVSPropertyOp2
 70
     1
102
RTVSPropertyOp3
 70
     1
102
RTVSPropertyOp4
 70
     1
102
RTVSPropertyOp5
 70
     1
102
RTVSPropertyOp6
 70
     1
102
RTVSPropertyOp7
 70
     1
102
RTVSPropertyOp8
 70
     1
102
RTVSPropertyOp9
 70
     1
102
RTVSPropertyOp10
 70
     1
102
RTVSPropertyOp11
 70
     1
102
RTVSPropertyOp12
 70
     1
102
RTVSPropertyOp13
 70
     1
102
RTVSPropertyOp14
 70
     1
102
RTVSPropertyOp15
 70
     1
102
RTVSPropertyOp16
 70
     1
102
RTVSPropertyOp17
 70
     1
102
RTVSPropertyOp18
 70
     1
102
RTVSPropertyOp19
 70
     1
102
RTVSPropertyOp20
 70
     1
102
RTVSPropertyOp21
 70
     1
102
RTVSPropertyOp22
 70
     1
102
RTVSPropertyOp23
 70
     1
102
RTVSPropertyOp24
 70
     1
102
RTVSPropertyOp25
 70
     1
102
RTVSPropertyOp26
 70
     1
102
RTVSPropertyOp27
 70
     1
102
RTVSPropertyOp28
 70
     1
102
RTVSPropertyOp29
 70
     1
102
RTVSPropertyOp30
 70
     1
102
RTVSPropertyOp31
 70
     1
102
RTVSPropertyOp32
 70
     1
102
RTVSPropertyOp33
 70
     1
102
RTVSPropertyOp34
 70
     1
102
RTVSPropertyOp35
 70
     1
102
RTVSPropertyOp36
 70
     1
102
RTVSPropertyOp37
 70
     1
102
RTVSPropertyOp38
 70
     1
102
RTVSPropertyOp39
 70
     1
102
RTVSPropertyOp40
 70
     1
102
RTVSPropertyOp41
 70
     1
102
RTVSPropertyOp42
 70
     1
102
RTVSPropertyOp43
 70
     1
102
RTVSPropertyOp44
 70
     1
102
RTVSPropertyOp45
 70
     1
102
RTVSPropertyOp46
 70
     1
102
RTVSPropertyOp47
 70
     1
102
RTVSPropertyOp48
 70
     1
102
RTVSPropertyOp49
 70
     1
102
RTVSPropertyOp50
 70
     1
102
RTVSPropertyOp51
 70
     0
102
RTVSPropertyOp52
 70
     0
102
RTVSPropertyOp53
 70
     1
102
RTVSPropertyOp54
 70
     1
102
RTVSPropertyOp55
 70
     1
102
RTVSPropertyOp56
 70
     1
102
RTVSPropertyOp57
 70
     1
102
RTVSPost2010Prop28
280
     0
102
RTVSPost2010PropOp28
 70
     1
102
RTVSPost2010Prop29
280
     1
102
RTVSPost2010PropOp29
 70
     1
102
RTVSPost2010Prop30
280
     1
102
RTVSPost2010PropOp30
 70
     1
102
RTVSPost2010Prop31
280
     0
102
RTVSPost2010PropOp31
 70
     1
102
RTVSPost2010Prop32
280
     0
102
RTVSPost2010PropOp32
 70
     1
102
RTVSPost2010Prop33
280
     0
102
RTVSPost2010PropOp33
 70
     1
102
RTVSPost2010Prop34
280
     0
102
RTVSPost2010PropOp34
 70
     1
102
RTVSPost2010Prop35
280
     0
102
RTVSPost2010PropOp35
 70
     1
102
RTVSPost2010Prop36
280
     0
102
RTVSPost2010PropOp36
 70
     1
102
RTVSPost2010Prop37
 90
       50
102
RTVSPost2010PropOp37
 70
     1
102
RTVSPost2010Prop38
140
0.0
102
RTVSPost2010PropOp38
 70
     1
102
RTVSPost2010Prop39
140
1.0
102
RTVSPost2010PropOp39
 70
     1
102
RTVSPost2010Prop40
 90
        0
102
RTVSPost2010PropOp40
 70
     1
102
RTVSPost2010Prop41ColorIndex
 90
       18
102
RTVSPost2010Prop41ColorRGB
 90
        0
102
RTVSPost2010PropOp41
 70
     1
102
RTVSPost2010Prop42
 90
       50
102
RTVSPost2010PropOp42
 70
     1
102
RTVSPost2010Prop43
 90
        3
102
RTVSPost2010PropOp43
 70
     1
102
RTVSPost2010Prop44ColorIndex
 90
        5
102
RTVSPost2010Prop44ColorRGB
 90
      255
102
RTVSPost2010PropOp44
 70
     1
102
RTVSPost2010Prop45
280
     0
102
RTVSPost2010PropOp45
 70
     1
102
RTVSPost2010Prop46
 90
       50
102
RTVSPost2010PropOp46
 70
     1
102
RTVSPost2010Prop47
 90
       50
102
RTVSPost2010PropOp47
 70
     1
102
RTVSPost2010Prop48
 90
       50
102
RTVSPost2010PropOp48
 70
     1
102
RTVSPost2010Prop49
280
     0
102
RTVSPost2010PropOp49
 70
     1
102
RTVSPost2010Prop50
 90
       50
102
RTVSPost2010PropOp50
 70
     1
102
RTVSPost2010Prop51ColorIndex
 90
      256
102
RTVSPost2010Prop51ColorRGB
 90
-16777216
102
RTVSPost2010PropOp51
 70
     0
102
RTVSPost2010Prop52
140
1.0
102
RTVSPost2010PropOp52
 70
     0
102
RTVSPost2010Prop53
 90
        2
102
RTVSPost2010PropOp53
 70
     1
102
RTVSPost2010Prop54
  1
strokes_ogs.tif
102
RTVSPost2010PropOp54
 70
     1
102
RTVSPost2010Prop55
280
     0
102
RTVSPost2010PropOp55
 70
     1
102
RTVSPost2010Prop56
140
1.0
102
RTVSPost2010PropOp56
 70
     1
102
RTVSPost2010Prop57
140
1.0
102
RTVSPost2010PropOp57
 70
     1
  0
XRECORD
  5
223
102
{ACAD_REACTORS
330
222
102
}
330
222
100
AcDbXrecord
280
     1
102
RTVSPropertyOp0
 70
     1
102
RTVSPropertyOp1
 70
     1
102
RTVSPropertyOp2
 70
     1
102
RTVSPropertyOp3
 70
     1
102
RTVSPropertyOp4
 70
     1
102
RTVSPropertyOp5
 70
     1
102
RTVSPropertyOp6
 70
     1
102
RTVSPropertyOp7
 70
     1
102
RTVSPropertyOp8
 70
     1
102
RTVSPropertyOp9
 70
     1
102
RTVSPropertyOp10
 70
     1
102
RTVSPropertyOp11
 70
     1
102
RTVSPropertyOp12
 70
     1
102
RTVSPropertyOp13
 70
     1
102
RTVSPropertyOp14
 70
     1
102
RTVSPropertyOp15
 70
     1
102
RTVSPropertyOp16
 70
     1
102
RTVSPropertyOp17
 70
     1
102
RTVSPropertyOp18
 70
     1
102
RTVSPropertyOp19
 70
     1
102
RTVSPropertyOp20
 70
     1
102
RTVSPropertyOp21
 70
     1
102
RTVSPropertyOp22
 70
     1
102
RTVSPropertyOp23
 70
     1
102
RTVSPropertyOp24
 70
     1
102
RTVSPropertyOp25
 70
     1
102
RTVSPropertyOp26
 70
     1
102
RTVSPropertyOp27
 70
     1
102
RTVSPropertyOp28
 70
     1
102
RTVSPropertyOp29
 70
     1
102
RTVSPropertyOp30
 70
     1
102
RTVSPropertyOp31
 70
     1
102
RTVSPropertyOp32
 70
     1
102
RTVSPropertyOp33
 70
     1
102
RTVSPropertyOp34
 70
     1
102
RTVSPropertyOp35
 70
     1
102
RTVSPropertyOp36
 70
     1
102
RTVSPropertyOp37
 70
     1
102
RTVSPropertyOp38
 70
     1
102
RTVSPropertyOp39
 70
     1
102
RTVSPropertyOp40
 70
     1
102
RTVSPropertyOp41
 70
     1
102
RTVSPropertyOp42
 70
     1
102
RTVSPropertyOp43
 70
     1
102
RTVSPropertyOp44
 70
     1
102
RTVSPropertyOp45
 70
     1
102
RTVSPropertyOp46
 70
     1
102
RTVSPropertyOp47
 70
     1
102
RTVSPropertyOp48
 70
     1
102
RTVSPropertyOp49
 70
     1
102
RTVSPropertyOp50
 70
     1
102
RTVSPropertyOp51
 70
     0
102
RTVSPropertyOp52
 70
     0
102
RTVSPropertyOp53
 70
     1
102
RTVSPropertyOp54
 70
     1
102
RTVSPropertyOp55
 70
     1
102
RTVSPropertyOp56
 70
     1
102
RTVSPropertyOp57
 70
     1
102
RTVSPost2010Prop28
280
     0
102
RTVSPost2010PropOp28
 70
     1
102
RTVSPost2010Prop29
280
     1
102
RTVSPost2010PropOp29
 70
     1
102
RTVSPost2010Prop30
280
     1
102
RTVSPost2010PropOp30
 70
     1
102
RTVSPost2010Prop31
280
     0
102
RTVSPost2010PropOp31
 70
     1
102
RTVSPost2010Prop32
280
     0
102
RTVSPost2010PropOp32
 70
     1
102
RTVSPost2010Prop33
280
     0
102
RTVSPost2010PropOp33
 70
     1
102
RTVSPost2010Prop34
280
     0
102
RTVSPost2010PropOp34
 70
     1
102
RTVSPost2010Prop35
280
     0
102
RTVSPost2010PropOp35
 70
     1
102
RTVSPost2010Prop36
280
     0
102
RTVSPost2010PropOp36
 70
     1
102
RTVSPost2010Prop37
 90
       50
102
RTVSPost2010PropOp37
 70
     1
102
RTVSPost2010Prop38
140
0.0
102
RTVSPost2010PropOp38
 70
     1
102
RTVSPost2010Prop39
140
1.0
102
RTVSPost2010PropOp39
 70
     1
102
RTVSPost2010Prop40
 90
        0
102
RTVSPost2010PropOp40
 70
     1
102
RTVSPost2010Prop41ColorIndex
 90
       18
102
RTVSPost2010Prop41ColorRGB
 90
        0
102
RTVSPost2010PropOp41
 70
     1
102
RTVSPost2010Prop42
 90
       50
102
RTVSPost2010PropOp42
 70
     1
102
RTVSPost2010Prop43
 90
        3
102
RTVSPost2010PropOp43
 70
     1
102
RTVSPost2010Prop44ColorIndex
 90
        5
102
RTVSPost2010Prop44ColorRGB
 90
      255
102
RTVSPost2010PropOp44
 70
     1
102
RTVSPost2010Prop45
280
     0
102
RTVSPost2010PropOp45
 70
     1
102
RTVSPost2010Prop46
 90
       50
102
RTVSPost2010PropOp46
 70
     1
102
RTVSPost2010Prop47
 90
       50
102
RTVSPost2010PropOp47
 70
     1
102
RTVSPost2010Prop48
 90
       50
102
RTVSPost2010PropOp48
 70
     1
102
RTVSPost2010Prop49
280
     0
102
RTVSPost2010PropOp49
 70
     1
102
RTVSPost2010Prop50
 90
       50
102
RTVSPost2010PropOp50
 70
     1
102
RTVSPost2010Prop51ColorIndex
 90
      256
102
RTVSPost2010Prop51ColorRGB
 90
-16777216
102
RTVSPost2010PropOp51
 70
     0
102
RTVSPost2010Prop52
140
1.0
102
RTVSPost2010PropOp52
 70
     0
102
RTVSPost2010Prop53
 90
        2
102
RTVSPost2010PropOp53
 70
     1
102
RTVSPost2010Prop54
  1
strokes_ogs.tif
102
RTVSPost2010PropOp54
 70
     1
102
RTVSPost2010Prop55
280
     0
102
RTVSPost2010PropOp55
 70
     1
102
RTVSPost2010Prop56
140
1.0
102
RTVSPost2010PropOp56
 70
     1
102
RTVSPost2010Prop57
140
1.0
102
RTVSPost2010PropOp57
 70
     1
  0
XRECORD
  5
225
102
{ACAD_REACTORS
330
224
102
}
330
224
100
AcDbXrecord
280
     1
102
RTVSPropertyOp0
 70
     1
102
RTVSPropertyOp1
 70
     1
102
RTVSPropertyOp2
 70
     1
102
RTVSPropertyOp3
 70
     1
102
RTVSPropertyOp4
 70
     1
102
RTVSPropertyOp5
 70
     1
102
RTVSPropertyOp6
 70
     1
102
RTVSPropertyOp7
 70
     1
102
RTVSPropertyOp8
 70
     1
102
RTVSPropertyOp9
 70
     1
102
RTVSPropertyOp10
 70
     1
102
RTVSPropertyOp11
 70
     1
102
RTVSPropertyOp12
 70
     1
102
RTVSPropertyOp13
 70
     1
102
RTVSPropertyOp14
 70
     1
102
RTVSPropertyOp15
 70
     1
102
RTVSPropertyOp16
 70
     1
102
RTVSPropertyOp17
 70
     1
102
RTVSPropertyOp18
 70
     1
102
RTVSPropertyOp19
 70
     1
102
RTVSPropertyOp20
 70
     1
102
RTVSPropertyOp21
 70
     1
102
RTVSPropertyOp22
 70
     1
102
RTVSPropertyOp23
 70
     1
102
RTVSPropertyOp24
 70
     1
102
RTVSPropertyOp25
 70
     1
102
RTVSPropertyOp26
 70
     1
102
RTVSPropertyOp27
 70
     1
102
RTVSPropertyOp28
 70
     1
102
RTVSPropertyOp29
 70
     1
102
RTVSPropertyOp30
 70
     1
102
RTVSPropertyOp31
 70
     1
102
RTVSPropertyOp32
 70
     1
102
RTVSPropertyOp33
 70
     1
102
RTVSPropertyOp34
 70
     1
102
RTVSPropertyOp35
 70
     1
102
RTVSPropertyOp36
 70
     1
102
RTVSPropertyOp37
 70
     1
102
RTVSPropertyOp38
 70
     1
102
RTVSPropertyOp39
 70
     1
102
RTVSPropertyOp40
 70
     1
102
RTVSPropertyOp41
 70
     1
102
RTVSPropertyOp42
 70
     1
102
RTVSPropertyOp43
 70
     1
102
RTVSPropertyOp44
 70
     1
102
RTVSPropertyOp45
 70
     1
102
RTVSPropertyOp46
 70
     1
102
RTVSPropertyOp47
 70
     1
102
RTVSPropertyOp48
 70
     1
102
RTVSPropertyOp49
 70
     1
102
RTVSPropertyOp50
 70
     1
102
RTVSPropertyOp51
 70
     0
102
RTVSPropertyOp52
 70
     0
102
RTVSPropertyOp53
 70
     1
102
RTVSPropertyOp54
 70
     1
102
RTVSPropertyOp55
 70
     1
102
RTVSPropertyOp56
 70
     1
102
RTVSPropertyOp57
 70
     1
102
RTVSPost2010Prop28
280
     0
102
RTVSPost2010PropOp28
 70
     1
102
RTVSPost2010Prop29
280
     1
102
RTVSPost2010PropOp29
 70
     1
102
RTVSPost2010Prop30
280
     1
102
RTVSPost2010PropOp30
 70
     1
102
RTVSPost2010Prop31
280
     0
102
RTVSPost2010PropOp31
 70
     1
102
RTVSPost2010Prop32
280
     0
102
RTVSPost2010PropOp32
 70
     1
102
RTVSPost2010Prop33
280
     0
102
RTVSPost2010PropOp33
 70
     1
102
RTVSPost2010Prop34
280
     0
102
RTVSPost2010PropOp34
 70
     1
102
RTVSPost2010Prop35
280
     0
102
RTVSPost2010PropOp35
 70
     1
102
RTVSPost2010Prop36
280
     0
102
RTVSPost2010PropOp36
 70
     1
102
RTVSPost2010Prop37
 90
       50
102
RTVSPost2010PropOp37
 70
     1
102
RTVSPost2010Prop38
140
0.0
102
RTVSPost2010PropOp38
 70
     1
102
RTVSPost2010Prop39
140
1.0
102
RTVSPost2010PropOp39
 70
     1
102
RTVSPost2010Prop40
 90
        0
102
RTVSPost2010PropOp40
 70
     1
102
RTVSPost2010Prop41ColorIndex
 90
       18
102
RTVSPost2010Prop41ColorRGB
 90
        0
102
RTVSPost2010PropOp41
 70
     1
102
RTVSPost2010Prop42
 90
       50
102
RTVSPost2010PropOp42
 70
     1
102
RTVSPost2010Prop43
 90
        3
102
RTVSPost2010PropOp43
 70
     1
102
RTVSPost2010Prop44ColorIndex
 90
        5
102
RTVSPost2010Prop44ColorRGB
 90
      255
102
RTVSPost2010PropOp44
 70
     1
102
RTVSPost2010Prop45
280
     0
102
RTVSPost2010PropOp45
 70
     1
102
RTVSPost2010Prop46
 90
       50
102
RTVSPost2010PropOp46
 70
     1
102
RTVSPost2010Prop47
 90
       50
102
RTVSPost2010PropOp47
 70
     1
102
RTVSPost2010Prop48
 90
       50
102
RTVSPost2010PropOp48
 70
     1
102
RTVSPost2010Prop49
280
     0
102
RTVSPost2010PropOp49
 70
     1
102
RTVSPost2010Prop50
 90
       50
102
RTVSPost2010PropOp50
 70
     1
102
RTVSPost2010Prop51ColorIndex
 90
      256
102
RTVSPost2010Prop51ColorRGB
 90
-16777216
102
RTVSPost2010PropOp51
 70
     0
102
RTVSPost2010Prop52
140
1.0
102
RTVSPost2010PropOp52
 70
     0
102
RTVSPost2010Prop53
 90
        2
102
RTVSPost2010PropOp53
 70
     1
102
RTVSPost2010Prop54
  1
strokes_ogs.tif
102
RTVSPost2010PropOp54
 70
     1
102
RTVSPost2010Prop55
280
     0
102
RTVSPost2010PropOp55
 70
     1
102
RTVSPost2010Prop56
140
1.0
102
RTVSPost2010PropOp56
 70
     1
102
RTVSPost2010Prop57
140
1.0
102
RTVSPost2010PropOp57
 70
     1
  0
XRECORD
  5
227
102
{ACAD_REACTORS
330
226
102
}
330
226
100
AcDbXrecord
280
     1
102
RTVSPropertyOp0
 70
     1
102
RTVSPropertyOp1
 70
     1
102
RTVSPropertyOp2
 70
     1
102
RTVSPropertyOp3
 70
     1
102
RTVSPropertyOp4
 70
     1
102
RTVSPropertyOp5
 70
     1
102
RTVSPropertyOp6
 70
     1
102
RTVSPropertyOp7
 70
     1
102
RTVSPropertyOp8
 70
     1
102
RTVSPropertyOp9
 70
     1
102
RTVSPropertyOp10
 70
     1
102
RTVSPropertyOp11
 70
     1
102
RTVSPropertyOp12
 70
     1
102
RTVSPropertyOp13
 70
     1
102
RTVSPropertyOp14
 70
     1
102
RTVSPropertyOp15
 70
     1
102
RTVSPropertyOp16
 70
     1
102
RTVSPropertyOp17
 70
     1
102
RTVSPropertyOp18
 70
     1
102
RTVSPropertyOp19
 70
     1
102
RTVSPropertyOp20
 70
     1
102
RTVSPropertyOp21
 70
     1
102
RTVSPropertyOp22
 70
     1
102
RTVSPropertyOp23
 70
     1
102
RTVSPropertyOp24
 70
     1
102
RTVSPropertyOp25
 70
     1
102
RTVSPropertyOp26
 70
     1
102
RTVSPropertyOp27
 70
     1
102
RTVSPropertyOp28
 70
     1
102
RTVSPropertyOp29
 70
     1
102
RTVSPropertyOp30
 70
     1
102
RTVSPropertyOp31
 70
     1
102
RTVSPropertyOp32
 70
     1
102
RTVSPropertyOp33
 70
     1
102
RTVSPropertyOp34
 70
     1
102
RTVSPropertyOp35
 70
     1
102
RTVSPropertyOp36
 70
     1
102
RTVSPropertyOp37
 70
     1
102
RTVSPropertyOp38
 70
     1
102
RTVSPropertyOp39
 70
     1
102
RTVSPropertyOp40
 70
     1
102
RTVSPropertyOp41
 70
     1
102
RTVSPropertyOp42
 70
     1
102
RTVSPropertyOp43
 70
     1
102
RTVSPropertyOp44
 70
     1
102
RTVSPropertyOp45
 70
     1
102
RTVSPropertyOp46
 70
     1
102
RTVSPropertyOp47
 70
     1
102
RTVSPropertyOp48
 70
     1
102
RTVSPropertyOp49
 70
     1
102
RTVSPropertyOp50
 70
     1
102
RTVSPropertyOp51
 70
     0
102
RTVSPropertyOp52
 70
     0
102
RTVSPropertyOp53
 70
     1
102
RTVSPropertyOp54
 70
     1
102
RTVSPropertyOp55
 70
     1
102
RTVSPropertyOp56
 70
     1
102
RTVSPropertyOp57
 70
     1
102
RTVSPost2010Prop28
280
     0
102
RTVSPost2010PropOp28
 70
     1
102
RTVSPost2010Prop29
280
     1
102
RTVSPost2010PropOp29
 70
     1
102
RTVSPost2010Prop30
280
     1
102
RTVSPost2010PropOp30
 70
     1
102
RTVSPost2010Prop31
280
     0
102
RTVSPost2010PropOp31
 70
     1
102
RTVSPost2010Prop32
280
     0
102
RTVSPost2010PropOp32
 70
     1
102
RTVSPost2010Prop33
280
     0
102
RTVSPost2010PropOp33
 70
     1
102
RTVSPost2010Prop34
280
     0
102
RTVSPost2010PropOp34
 70
     1
102
RTVSPost2010Prop35
280
     0
102
RTVSPost2010PropOp35
 70
     1
102
RTVSPost2010Prop36
280
     0
102
RTVSPost2010PropOp36
 70
     1
102
RTVSPost2010Prop37
 90
       50
102
RTVSPost2010PropOp37
 70
     1
102
RTVSPost2010Prop38
140
0.0
102
RTVSPost2010PropOp38
 70
     1
102
RTVSPost2010Prop39
140
1.0
102
RTVSPost2010PropOp39
 70
     1
102
RTVSPost2010Prop40
 90
        0
102
RTVSPost2010PropOp40
 70
     1
102
RTVSPost2010Prop41ColorIndex
 90
       18
102
RTVSPost2010Prop41ColorRGB
 90
        0
102
RTVSPost2010PropOp41
 70
     1
102
RTVSPost2010Prop42
 90
       50
102
RTVSPost2010PropOp42
 70
     1
102
RTVSPost2010Prop43
 90
        3
102
RTVSPost2010PropOp43
 70
     1
102
RTVSPost2010Prop44ColorIndex
 90
        5
102
RTVSPost2010Prop44ColorRGB
 90
      255
102
RTVSPost2010PropOp44
 70
     1
102
RTVSPost2010Prop45
280
     0
102
RTVSPost2010PropOp45
 70
     1
102
RTVSPost2010Prop46
 90
       50
102
RTVSPost2010PropOp46
 70
     1
102
RTVSPost2010Prop47
 90
       50
102
RTVSPost2010PropOp47
 70
     1
102
RTVSPost2010Prop48
 90
       50
102
RTVSPost2010PropOp48
 70
     1
102
RTVSPost2010Prop49
280
     0
102
RTVSPost2010PropOp49
 70
     1
102
RTVSPost2010Prop50
 90
       50
102
RTVSPost2010PropOp50
 70
     1
102
RTVSPost2010Prop51ColorIndex
 90
      256
102
RTVSPost2010Prop51ColorRGB
 90
-16777216
102
RTVSPost2010PropOp51
 70
     0
102
RTVSPost2010Prop52
140
1.0
102
RTVSPost2010PropOp52
 70
     0
102
RTVSPost2010Prop53
 90
        2
102
RTVSPost2010PropOp53
 70
     1
102
RTVSPost2010Prop54
  1
strokes_ogs.tif
102
RTVSPost2010PropOp54
 70
     1
102
RTVSPost2010Prop55
280
     0
102
RTVSPost2010PropOp55
 70
     1
102
RTVSPost2010Prop56
140
1.0
102
RTVSPost2010PropOp56
 70
     1
102
RTVSPost2010Prop57
140
1.0
102
RTVSPost2010PropOp57
 70
     1
  0
XRECORD
  5
229
102
{ACAD_REACTORS
330
228
102
}
330
228
100
AcDbXrecord
280
     1
102
RTVSPropertyOp0
 70
     1
102
RTVSPropertyOp1
 70
     1
102
RTVSPropertyOp2
 70
     1
102
RTVSPropertyOp3
 70
     1
102
RTVSPropertyOp4
 70
     1
102
RTVSPropertyOp5
 70
     1
102
RTVSPropertyOp6
 70
     1
102
RTVSPropertyOp7
 70
     1
102
RTVSPropertyOp8
 70
     1
102
RTVSPropertyOp9
 70
     1
102
RTVSPropertyOp10
 70
     1
102
RTVSPropertyOp11
 70
     1
102
RTVSPropertyOp12
 70
     1
102
RTVSPropertyOp13
 70
     1
102
RTVSPropertyOp14
 70
     1
102
RTVSPropertyOp15
 70
     1
102
RTVSPropertyOp16
 70
     1
102
RTVSPropertyOp17
 70
     1
102
RTVSPropertyOp18
 70
     1
102
RTVSPropertyOp19
 70
     1
102
RTVSPropertyOp20
 70
     1
102
RTVSPropertyOp21
 70
     1
102
RTVSPropertyOp22
 70
     1
102
RTVSPropertyOp23
 70
     1
102
RTVSPropertyOp24
 70
     1
102
RTVSPropertyOp25
 70
     1
102
RTVSPropertyOp26
 70
     1
102
RTVSPropertyOp27
 70
     1
102
RTVSPropertyOp28
 70
     1
102
RTVSPropertyOp29
 70
     1
102
RTVSPropertyOp30
 70
     1
102
RTVSPropertyOp31
 70
     1
102
RTVSPropertyOp32
 70
     1
102
RTVSPropertyOp33
 70
     1
102
RTVSPropertyOp34
 70
     1
102
RTVSPropertyOp35
 70
     1
102
RTVSPropertyOp36
 70
     1
102
RTVSPropertyOp37
 70
     1
102
RTVSPropertyOp38
 70
     1
102
RTVSPropertyOp39
 70
     1
102
RTVSPropertyOp40
 70
     1
102
RTVSPropertyOp41
 70
     1
102
RTVSPropertyOp42
 70
     1
102
RTVSPropertyOp43
 70
     1
102
RTVSPropertyOp44
 70
     1
102
RTVSPropertyOp45
 70
     1
102
RTVSPropertyOp46
 70
     1
102
RTVSPropertyOp47
 70
     1
102
RTVSPropertyOp48
 70
     1
102
RTVSPropertyOp49
 70
     1
102
RTVSPropertyOp50
 70
     1
102
RTVSPropertyOp51
 70
     0
102
RTVSPropertyOp52
 70
     0
102
RTVSPropertyOp53
 70
     1
102
RTVSPropertyOp54
 70
     1
102
RTVSPropertyOp55
 70
     1
102
RTVSPropertyOp56
 70
     1
102
RTVSPropertyOp57
 70
     1
102
RTVSPost2010Prop28
280
     0
102
RTVSPost2010PropOp28
 70
     1
102
RTVSPost2010Prop29
280
     1
102
RTVSPost2010PropOp29
 70
     1
102
RTVSPost2010Prop30
280
     1
102
RTVSPost2010PropOp30
 70
     1
102
RTVSPost2010Prop31
280
     0
102
RTVSPost2010PropOp31
 70
     1
102
RTVSPost2010Prop32
280
     0
102
RTVSPost2010PropOp32
 70
     1
102
RTVSPost2010Prop33
280
     0
102
RTVSPost2010PropOp33
 70
     1
102
RTVSPost2010Prop34
280
     0
102
RTVSPost2010PropOp34
 70
     1
102
RTVSPost2010Prop35
280
     0
102
RTVSPost2010PropOp35
 70
     1
102
RTVSPost2010Prop36
280
     0
102
RTVSPost2010PropOp36
 70
     1
102
RTVSPost2010Prop37
 90
       50
102
RTVSPost2010PropOp37
 70
     1
102
RTVSPost2010Prop38
140
0.0
102
RTVSPost2010PropOp38
 70
     1
102
RTVSPost2010Prop39
140
1.0
102
RTVSPost2010PropOp39
 70
     1
102
RTVSPost2010Prop40
 90
        0
102
RTVSPost2010PropOp40
 70
     1
102
RTVSPost2010Prop41ColorIndex
 90
       18
102
RTVSPost2010Prop41ColorRGB
 90
        0
102
RTVSPost2010PropOp41
 70
     1
102
RTVSPost2010Prop42
 90
       50
102
RTVSPost2010PropOp42
 70
     1
102
RTVSPost2010Prop43
 90
        3
102
RTVSPost2010PropOp43
 70
     1
102
RTVSPost2010Prop44ColorIndex
 90
        5
102
RTVSPost2010Prop44ColorRGB
 90
      255
102
RTVSPost2010PropOp44
 70
     1
102
RTVSPost2010Prop45
280
     0
102
RTVSPost2010PropOp45
 70
     1
102
RTVSPost2010Prop46
 90
       50
102
RTVSPost2010PropOp46
 70
     1
102
RTVSPost2010Prop47
 90
       50
102
RTVSPost2010PropOp47
 70
     1
102
RTVSPost2010Prop48
 90
       50
102
RTVSPost2010PropOp48
 70
     1
102
RTVSPost2010Prop49
280
     0
102
RTVSPost2010PropOp49
 70
     1
102
RTVSPost2010Prop50
 90
       50
102
RTVSPost2010PropOp50
 70
     1
102
RTVSPost2010Prop51ColorIndex
 90
      256
102
RTVSPost2010Prop51ColorRGB
 90
-16777216
102
RTVSPost2010PropOp51
 70
     0
102
RTVSPost2010Prop52
140
1.0
102
RTVSPost2010PropOp52
 70
     0
102
RTVSPost2010Prop53
 90
        2
102
RTVSPost2010PropOp53
 70
     1
102
RTVSPost2010Prop54
  1
strokes_ogs.tif
102
RTVSPost2010PropOp54
 70
     1
102
RTVSPost2010Prop55
280
     0
102
RTVSPost2010PropOp55
 70
     1
102
RTVSPost2010Prop56
140
1.0
102
RTVSPost2010PropOp56
 70
     1
102
RTVSPost2010Prop57
140
1.0
102
RTVSPost2010PropOp57
 70
     1
  0
XRECORD
  5
22F
102
{ACAD_REACTORS
330
22E
102
}
330
22E
100
AcDbXrecord
280
     1
102
RTVSPropertyOp0
 70
     1
102
RTVSPropertyOp1
 70
     1
102
RTVSPropertyOp2
 70
     1
102
RTVSPropertyOp3
 70
     1
102
RTVSPropertyOp4
 70
     1
102
RTVSPropertyOp5
 70
     1
102
RTVSPropertyOp6
 70
     1
102
RTVSPropertyOp7
 70
     1
102
RTVSPropertyOp8
 70
     1
102
RTVSPropertyOp9
 70
     1
102
RTVSPropertyOp10
 70
     1
102
RTVSPropertyOp11
 70
     1
102
RTVSPropertyOp12
 70
     1
102
RTVSPropertyOp13
 70
     1
102
RTVSPropertyOp14
 70
     1
102
RTVSPropertyOp15
 70
     1
102
RTVSPropertyOp16
 70
     1
102
RTVSPropertyOp17
 70
     1
102
RTVSPropertyOp18
 70
     1
102
RTVSPropertyOp19
 70
     1
102
RTVSPropertyOp20
 70
     1
102
RTVSPropertyOp21
 70
     1
102
RTVSPropertyOp22
 70
     1
102
RTVSPropertyOp23
 70
     1
102
RTVSPropertyOp24
 70
     1
102
RTVSPropertyOp25
 70
     1
102
RTVSPropertyOp26
 70
     1
102
RTVSPropertyOp27
 70
     1
102
RTVSPropertyOp28
 70
     1
102
RTVSPropertyOp29
 70
     1
102
RTVSPropertyOp30
 70
     1
102
RTVSPropertyOp31
 70
     1
102
RTVSPropertyOp32
 70
     1
102
RTVSPropertyOp33
 70
     1
102
RTVSPropertyOp34
 70
     1
102
RTVSPropertyOp35
 70
     1
102
RTVSPropertyOp36
 70
     1
102
RTVSPropertyOp37
 70
     1
102
RTVSPropertyOp38
 70
     1
102
RTVSPropertyOp39
 70
     1
102
RTVSPropertyOp40
 70
     1
102
RTVSPropertyOp41
 70
     1
102
RTVSPropertyOp42
 70
     1
102
RTVSPropertyOp43
 70
     1
102
RTVSPropertyOp44
 70
     1
102
RTVSPropertyOp45
 70
     1
102
RTVSPropertyOp46
 70
     1
102
RTVSPropertyOp47
 70
     1
102
RTVSPropertyOp48
 70
     1
102
RTVSPropertyOp49
 70
     1
102
RTVSPropertyOp50
 70
     1
102
RTVSPropertyOp51
 70
     0
102
RTVSPropertyOp52
 70
     0
102
RTVSPropertyOp53
 70
     1
102
RTVSPropertyOp54
 70
     1
102
RTVSPropertyOp55
 70
     1
102
RTVSPropertyOp56
 70
     1
102
RTVSPropertyOp57
 70
     1
102
RTVSPost2010Prop28
280
     0
102
RTVSPost2010PropOp28
 70
     1
102
RTVSPost2010Prop29
280
     1
102
RTVSPost2010PropOp29
 70
     1
102
RTVSPost2010Prop30
280
     1
102
RTVSPost2010PropOp30
 70
     1
102
RTVSPost2010Prop31
280
     0
102
RTVSPost2010PropOp31
 70
     1
102
RTVSPost2010Prop32
280
     0
102
RTVSPost2010PropOp32
 70
     1
102
RTVSPost2010Prop33
280
     0
102
RTVSPost2010PropOp33
 70
     1
102
RTVSPost2010Prop34
280
     0
102
RTVSPost2010PropOp34
 70
     1
102
RTVSPost2010Prop35
280
     0
102
RTVSPost2010PropOp35
 70
     1
102
RTVSPost2010Prop36
280
     0
102
RTVSPost2010PropOp36
 70
     1
102
RTVSPost2010Prop37
 90
       50
102
RTVSPost2010PropOp37
 70
     1
102
RTVSPost2010Prop38
140
0.0
102
RTVSPost2010PropOp38
 70
     1
102
RTVSPost2010Prop39
140
1.0
102
RTVSPost2010PropOp39
 70
     1
102
RTVSPost2010Prop40
 90
        0
102
RTVSPost2010PropOp40
 70
     1
102
RTVSPost2010Prop41ColorIndex
 90
       18
102
RTVSPost2010Prop41ColorRGB
 90
        0
102
RTVSPost2010PropOp41
 70
     1
102
RTVSPost2010Prop42
 90
       50
102
RTVSPost2010PropOp42
 70
     1
102
RTVSPost2010Prop43
 90
        3
102
RTVSPost2010PropOp43
 70
     1
102
RTVSPost2010Prop44ColorIndex
 90
        5
102
RTVSPost2010Prop44ColorRGB
 90
      255
102
RTVSPost2010PropOp44
 70
     1
102
RTVSPost2010Prop45
280
     0
102
RTVSPost2010PropOp45
 70
     1
102
RTVSPost2010Prop46
 90
       50
102
RTVSPost2010PropOp46
 70
     1
102
RTVSPost2010Prop47
 90
       50
102
RTVSPost2010PropOp47
 70
     1
102
RTVSPost2010Prop48
 90
       50
102
RTVSPost2010PropOp48
 70
     1
102
RTVSPost2010Prop49
280
     0
102
RTVSPost2010PropOp49
 70
     1
102
RTVSPost2010Prop50
 90
       50
102
RTVSPost2010PropOp50
 70
     1
102
RTVSPost2010Prop51ColorIndex
 90
      256
102
RTVSPost2010Prop51ColorRGB
 90
-16777216
102
RTVSPost2010PropOp51
 70
     0
102
RTVSPost2010Prop52
140
1.0
102
RTVSPost2010PropOp52
 70
     0
102
RTVSPost2010Prop53
 90
        2
102
RTVSPost2010PropOp53
 70
     1
102
RTVSPost2010Prop54
  1
strokes_ogs.tif
102
RTVSPost2010PropOp54
 70
     1
102
RTVSPost2010Prop55
280
     0
102
RTVSPost2010PropOp55
 70
     1
102
RTVSPost2010Prop56
140
1.0
102
RTVSPost2010PropOp56
 70
     1
102
RTVSPost2010Prop57
140
1.0
102
RTVSPost2010PropOp57
 70
     1
  0
XRECORD
  5
243
102
{ACAD_REACTORS
330
242
102
}
330
242
100
AcDbXrecord
280
     1
102
RTVSPropertyOp0
 70
     0
102
RTVSPropertyOp1
 70
     0
102
RTVSPropertyOp2
 70
     0
102
RTVSPropertyOp3
 70
     0
102
RTVSPropertyOp4
 70
     0
102
RTVSPropertyOp5
 70
     0
102
RTVSPropertyOp6
 70
     0
102
RTVSPropertyOp7
 70
     0
102
RTVSPropertyOp8
 70
     0
102
RTVSPropertyOp9
 70
     0
102
RTVSPropertyOp10
 70
     0
102
RTVSPropertyOp11
 70
     0
102
RTVSPropertyOp12
 70
     0
102
RTVSPropertyOp13
 70
     0
102
RTVSPropertyOp14
 70
     2
102
RTVSPropertyOp15
 70
     0
102
RTVSPropertyOp16
 70
     0
102
RTVSPropertyOp17
 70
     0
102
RTVSPropertyOp18
 70
     0
102
RTVSPropertyOp19
 70
     0
102
RTVSPropertyOp20
 70
     0
102
RTVSPropertyOp21
 70
     0
102
RTVSPropertyOp22
 70
     0
102
RTVSPropertyOp23
 70
     0
102
RTVSPropertyOp24
 70
     0
102
RTVSPropertyOp25
 70
     0
102
RTVSPropertyOp26
 70
     0
102
RTVSPropertyOp27
 70
     0
102
RTVSPropertyOp28
 70
     0
102
RTVSPropertyOp29
 70
     0
102
RTVSPropertyOp30
 70
     0
102
RTVSPropertyOp31
 70
     0
102
RTVSPropertyOp32
 70
     0
102
RTVSPropertyOp33
 70
     0
102
RTVSPropertyOp34
 70
     0
102
RTVSPropertyOp35
 70
     0
102
RTVSPropertyOp36
 70
     0
102
RTVSPropertyOp37
 70
     0
102
RTVSPropertyOp38
 70
     0
102
RTVSPropertyOp39
 70
     0
102
RTVSPropertyOp40
 70
     0
102
RTVSPropertyOp41
 70
     0
102
RTVSPropertyOp42
 70
     0
102
RTVSPropertyOp43
 70
     0
102
RTVSPropertyOp44
 70
     0
102
RTVSPropertyOp45
 70
     0
102
RTVSPropertyOp46
 70
     0
102
RTVSPropertyOp47
 70
     0
102
RTVSPropertyOp48
 70
     0
102
RTVSPropertyOp49
 70
     0
102
RTVSPropertyOp50
 70
     0
102
RTVSPropertyOp51
 70
     0
102
RTVSPropertyOp52
 70
     0
102
RTVSPropertyOp53
 70
     0
102
RTVSPropertyOp54
 70
     0
102
RTVSPropertyOp55
 70
     0
102
RTVSPropertyOp56
 70
     0
102
RTVSPropertyOp57
 70
     0
102
RTVSPost2010Prop28
280
     0
102
RTVSPost2010PropOp28
 70
     0
102
RTVSPost2010Prop29
280
     1
102
RTVSPost2010PropOp29
 70
     0
102
RTVSPost2010Prop30
280
     1
102
RTVSPost2010PropOp30
 70
     0
102
RTVSPost2010Prop31
280
     0
102
RTVSPost2010PropOp31
 70
     0
102
RTVSPost2010Prop32
280
     0
102
RTVSPost2010PropOp32
 70
     0
102
RTVSPost2010Prop33
280
     0
102
RTVSPost2010PropOp33
 70
     0
102
RTVSPost2010Prop34
280
     0
102
RTVSPost2010PropOp34
 70
     0
102
RTVSPost2010Prop35
280
     0
102
RTVSPost2010PropOp35
 70
     0
102
RTVSPost2010Prop36
280
     0
102
RTVSPost2010PropOp36
 70
     0
102
RTVSPost2010Prop37
 90
       50
102
RTVSPost2010PropOp37
 70
     0
102
RTVSPost2010Prop38
140
0.0
102
RTVSPost2010PropOp38
 70
     0
102
RTVSPost2010Prop39
140
1.0
102
RTVSPost2010PropOp39
 70
     0
102
RTVSPost2010Prop40
 90
        0
102
RTVSPost2010PropOp40
 70
     0
102
RTVSPost2010Prop41ColorIndex
 90
       18
102
RTVSPost2010Prop41ColorRGB
 90
        0
102
RTVSPost2010PropOp41
 70
     0
102
RTVSPost2010Prop42
 90
       50
102
RTVSPost2010PropOp42
 70
     0
102
RTVSPost2010Prop43
 90
        3
102
RTVSPost2010PropOp43
 70
     0
102
RTVSPost2010Prop44ColorIndex
 90
        5
102
RTVSPost2010Prop44ColorRGB
 90
      255
102
RTVSPost2010PropOp44
 70
     0
102
RTVSPost2010Prop45
280
     0
102
RTVSPost2010PropOp45
 70
     0
102
RTVSPost2010Prop46
 90
       50
102
RTVSPost2010PropOp46
 70
     0
102
RTVSPost2010Prop47
 90
       50
102
RTVSPost2010PropOp47
 70
     0
102
RTVSPost2010Prop48
 90
       50
102
RTVSPost2010PropOp48
 70
     0
102
RTVSPost2010Prop49
280
     0
102
RTVSPost2010PropOp49
 70
     0
102
RTVSPost2010Prop50
 90
       50
102
RTVSPost2010PropOp50
 70
     0
102
RTVSPost2010Prop51ColorIndex
 90
      256
102
RTVSPost2010Prop51ColorRGB
 90
-16777216
102
RTVSPost2010PropOp51
 70
     0
102
RTVSPost2010Prop52
140
1.0
102
RTVSPost2010PropOp52
 70
     0
102
RTVSPost2010Prop53
 90
        2
102
RTVSPost2010PropOp53
 70
     0
102
RTVSPost2010Prop54
  1
strokes_ogs.tif
102
RTVSPost2010PropOp54
 70
     0
102
RTVSPost2010Prop55
280
     0
102
RTVSPost2010PropOp55
 70
     0
102
RTVSPost2010Prop56
140
1.0
102
RTVSPost2010PropOp56
 70
     0
102
RTVSPost2010Prop57
140
1.0
102
RTVSPost2010PropOp57
 70
     0
  0
XRECORD
  5
23D
102
{ACAD_REACTORS
330
23C
102
}
330
23C
100
AcDbXrecord
280
     1
102
RTVSPropertyOp0
 70
     1
102
RTVSPropertyOp1
 70
     1
102
RTVSPropertyOp2
 70
     1
102
RTVSPropertyOp3
 70
     1
102
RTVSPropertyOp4
 70
     1
102
RTVSPropertyOp5
 70
     1
102
RTVSPropertyOp6
 70
     1
102
RTVSPropertyOp7
 70
     1
102
RTVSPropertyOp8
 70
     1
102
RTVSPropertyOp9
 70
     1
102
RTVSPropertyOp10
 70
     1
102
RTVSPropertyOp11
 70
     1
102
RTVSPropertyOp12
 70
     1
102
RTVSPropertyOp13
 70
     1
102
RTVSPropertyOp14
 70
     1
102
RTVSPropertyOp15
 70
     1
102
RTVSPropertyOp16
 70
     1
102
RTVSPropertyOp17
 70
     1
102
RTVSPropertyOp18
 70
     1
102
RTVSPropertyOp19
 70
     1
102
RTVSPropertyOp20
 70
     1
102
RTVSPropertyOp21
 70
     1
102
RTVSPropertyOp22
 70
     1
102
RTVSPropertyOp23
 70
     1
102
RTVSPropertyOp24
 70
     1
102
RTVSPropertyOp25
 70
     1
102
RTVSPropertyOp26
 70
     1
102
RTVSPropertyOp27
 70
     1
102
RTVSPropertyOp28
 70
     1
102
RTVSPropertyOp29
 70
     1
102
RTVSPropertyOp30
 70
     1
102
RTVSPropertyOp31
 70
     1
102
RTVSPropertyOp32
 70
     1
102
RTVSPropertyOp33
 70
     1
102
RTVSPropertyOp34
 70
     1
102
RTVSPropertyOp35
 70
     1
102
RTVSPropertyOp36
 70
     1
102
RTVSPropertyOp37
 70
     1
102
RTVSPropertyOp38
 70
     1
102
RTVSPropertyOp39
 70
     1
102
RTVSPropertyOp40
 70
     1
102
RTVSPropertyOp41
 70
     1
102
RTVSPropertyOp42
 70
     1
102
RTVSPropertyOp43
 70
     1
102
RTVSPropertyOp44
 70
     1
102
RTVSPropertyOp45
 70
     1
102
RTVSPropertyOp46
 70
     1
102
RTVSPropertyOp47
 70
     1
102
RTVSPropertyOp48
 70
     1
102
RTVSPropertyOp49
 70
     1
102
RTVSPropertyOp50
 70
     1
102
RTVSPropertyOp51
 70
     0
102
RTVSPropertyOp52
 70
     0
102
RTVSPropertyOp53
 70
     1
102
RTVSPropertyOp54
 70
     1
102
RTVSPropertyOp55
 70
     1
102
RTVSPropertyOp56
 70
     1
102
RTVSPropertyOp57
 70
     1
102
RTVSPost2010Prop28
280
     0
102
RTVSPost2010PropOp28
 70
     1
102
RTVSPost2010Prop29
280
     1
102
RTVSPost2010PropOp29
 70
     1
102
RTVSPost2010Prop30
280
     1
102
RTVSPost2010PropOp30
 70
     1
102
RTVSPost2010Prop31
280
     0
102
RTVSPost2010PropOp31
 70
     1
102
RTVSPost2010Prop32
280
     0
102
RTVSPost2010PropOp32
 70
     1
102
RTVSPost2010Prop33
280
     0
102
RTVSPost2010PropOp33
 70
     1
102
RTVSPost2010Prop34
280
     0
102
RTVSPost2010PropOp34
 70
     1
102
RTVSPost2010Prop35
280
     0
102
RTVSPost2010PropOp35
 70
     1
102
RTVSPost2010Prop36
280
     0
102
RTVSPost2010PropOp36
 70
     1
102
RTVSPost2010Prop37
 90
       50
102
RTVSPost2010PropOp37
 70
     1
102
RTVSPost2010Prop38
140
0.0
102
RTVSPost2010PropOp38
 70
     1
102
RTVSPost2010Prop39
140
1.0
102
RTVSPost2010PropOp39
 70
     1
102
RTVSPost2010Prop40
 90
        0
102
RTVSPost2010PropOp40
 70
     1
102
RTVSPost2010Prop41ColorIndex
 90
       18
102
RTVSPost2010Prop41ColorRGB
 90
        0
102
RTVSPost2010PropOp41
 70
     1
102
RTVSPost2010Prop42
 90
       50
102
RTVSPost2010PropOp42
 70
     1
102
RTVSPost2010Prop43
 90
        3
102
RTVSPost2010PropOp43
 70
     1
102
RTVSPost2010Prop44ColorIndex
 90
        5
102
RTVSPost2010Prop44ColorRGB
 90
      255
102
RTVSPost2010PropOp44
 70
     1
102
RTVSPost2010Prop45
280
     0
102
RTVSPost2010PropOp45
 70
     1
102
RTVSPost2010Prop46
 90
       50
102
RTVSPost2010PropOp46
 70
     1
102
RTVSPost2010Prop47
 90
       50
102
RTVSPost2010PropOp47
 70
     1
102
RTVSPost2010Prop48
 90
       50
102
RTVSPost2010PropOp48
 70
     1
102
RTVSPost2010Prop49
280
     0
102
RTVSPost2010PropOp49
 70
     1
102
RTVSPost2010Prop50
 90
       50
102
RTVSPost2010PropOp50
 70
     1
102
RTVSPost2010Prop51ColorIndex
 90
      256
102
RTVSPost2010Prop51ColorRGB
 90
-16777216
102
RTVSPost2010PropOp51
 70
     0
102
RTVSPost2010Prop52
140
1.0
102
RTVSPost2010PropOp52
 70
     0
102
RTVSPost2010Prop53
 90
        2
102
RTVSPost2010PropOp53
 70
     1
102
RTVSPost2010Prop54
  1
strokes_ogs.tif
102
RTVSPost2010PropOp54
 70
     1
102
RTVSPost2010Prop55
280
     0
102
RTVSPost2010PropOp55
 70
     1
102
RTVSPost2010Prop56
140
1.0
102
RTVSPost2010PropOp56
 70
     1
102
RTVSPost2010Prop57
140
1.0
102
RTVSPost2010PropOp57
 70
     1
  0
XRECORD
  5
245
102
{ACAD_REACTORS
330
244
102
}
330
244
100
AcDbXrecord
280
     1
102
RTVSPropertyOp0
 70
     0
102
RTVSPropertyOp1
 70
     0
102
RTVSPropertyOp2
 70
     0
102
RTVSPropertyOp3
 70
     0
102
RTVSPropertyOp4
 70
     0
102
RTVSPropertyOp5
 70
     0
102
RTVSPropertyOp6
 70
     0
102
RTVSPropertyOp7
 70
     0
102
RTVSPropertyOp8
 70
     0
102
RTVSPropertyOp9
 70
     0
102
RTVSPropertyOp10
 70
     0
102
RTVSPropertyOp11
 70
     0
102
RTVSPropertyOp12
 70
     0
102
RTVSPropertyOp13
 70
     0
102
RTVSPropertyOp14
 70
     2
102
RTVSPropertyOp15
 70
     0
102
RTVSPropertyOp16
 70
     0
102
RTVSPropertyOp17
 70
     0
102
RTVSPropertyOp18
 70
     0
102
RTVSPropertyOp19
 70
     0
102
RTVSPropertyOp20
 70
     0
102
RTVSPropertyOp21
 70
     0
102
RTVSPropertyOp22
 70
     0
102
RTVSPropertyOp23
 70
     0
102
RTVSPropertyOp24
 70
     0
102
RTVSPropertyOp25
 70
     0
102
RTVSPropertyOp26
 70
     0
102
RTVSPropertyOp27
 70
     0
102
RTVSPropertyOp28
 70
     0
102
RTVSPropertyOp29
 70
     0
102
RTVSPropertyOp30
 70
     0
102
RTVSPropertyOp31
 70
     0
102
RTVSPropertyOp32
 70
     0
102
RTVSPropertyOp33
 70
     0
102
RTVSPropertyOp34
 70
     0
102
RTVSPropertyOp35
 70
     0
102
RTVSPropertyOp36
 70
     0
102
RTVSPropertyOp37
 70
     0
102
RTVSPropertyOp38
 70
     0
102
RTVSPropertyOp39
 70
     0
102
RTVSPropertyOp40
 70
     0
102
RTVSPropertyOp41
 70
     0
102
RTVSPropertyOp42
 70
     0
102
RTVSPropertyOp43
 70
     0
102
RTVSPropertyOp44
 70
     0
102
RTVSPropertyOp45
 70
     0
102
RTVSPropertyOp46
 70
     0
102
RTVSPropertyOp47
 70
     0
102
RTVSPropertyOp48
 70
     0
102
RTVSPropertyOp49
 70
     0
102
RTVSPropertyOp50
 70
     0
102
RTVSPropertyOp51
 70
     0
102
RTVSPropertyOp52
 70
     0
102
RTVSPropertyOp53
 70
     0
102
RTVSPropertyOp54
 70
     0
102
RTVSPropertyOp55
 70
     0
102
RTVSPropertyOp56
 70
     0
102
RTVSPropertyOp57
 70
     0
102
RTVSPost2010Prop28
280
     0
102
RTVSPost2010PropOp28
 70
     0
102
RTVSPost2010Prop29
280
     1
102
RTVSPost2010PropOp29
 70
     0
102
RTVSPost2010Prop30
280
     1
102
RTVSPost2010PropOp30
 70
     0
102
RTVSPost2010Prop31
280
     0
102
RTVSPost2010PropOp31
 70
     0
102
RTVSPost2010Prop32
280
     0
102
RTVSPost2010PropOp32
 70
     0
102
RTVSPost2010Prop33
280
     0
102
RTVSPost2010PropOp33
 70
     0
102
RTVSPost2010Prop34
280
     0
102
RTVSPost2010PropOp34
 70
     0
102
RTVSPost2010Prop35
280
     0
102
RTVSPost2010PropOp35
 70
     0
102
RTVSPost2010Prop36
280
     0
102
RTVSPost2010PropOp36
 70
     0
102
RTVSPost2010Prop37
 90
       50
102
RTVSPost2010PropOp37
 70
     0
102
RTVSPost2010Prop38
140
0.0
102
RTVSPost2010PropOp38
 70
     0
102
RTVSPost2010Prop39
140
1.0
102
RTVSPost2010PropOp39
 70
     0
102
RTVSPost2010Prop40
 90
        0
102
RTVSPost2010PropOp40
 70
     0
102
RTVSPost2010Prop41ColorIndex
 90
       18
102
RTVSPost2010Prop41ColorRGB
 90
        0
102
RTVSPost2010PropOp41
 70
     0
102
RTVSPost2010Prop42
 90
       50
102
RTVSPost2010PropOp42
 70
     0
102
RTVSPost2010Prop43
 90
        3
102
RTVSPost2010PropOp43
 70
     0
102
RTVSPost2010Prop44ColorIndex
 90
        5
102
RTVSPost2010Prop44ColorRGB
 90
      255
102
RTVSPost2010PropOp44
 70
     0
102
RTVSPost2010Prop45
280
     0
102
RTVSPost2010PropOp45
 70
     0
102
RTVSPost2010Prop46
 90
       50
102
RTVSPost2010PropOp46
 70
     0
102
RTVSPost2010Prop47
 90
       50
102
RTVSPost2010PropOp47
 70
     0
102
RTVSPost2010Prop48
 90
       50
102
RTVSPost2010PropOp48
 70
     0
102
RTVSPost2010Prop49
280
     0
102
RTVSPost2010PropOp49
 70
     0
102
RTVSPost2010Prop50
 90
       50
102
RTVSPost2010PropOp50
 70
     0
102
RTVSPost2010Prop51ColorIndex
 90
      256
102
RTVSPost2010Prop51ColorRGB
 90
-16777216
102
RTVSPost2010PropOp51
 70
     0
102
RTVSPost2010Prop52
140
1.0
102
RTVSPost2010PropOp52
 70
     0
102
RTVSPost2010Prop53
 90
        2
102
RTVSPost2010PropOp53
 70
     0
102
RTVSPost2010Prop54
  1
strokes_ogs.tif
102
RTVSPost2010PropOp54
 70
     0
102
RTVSPost2010Prop55
280
     0
102
RTVSPost2010PropOp55
 70
     0
102
RTVSPost2010Prop56
140
1.0
102
RTVSPost2010PropOp56
 70
     0
102
RTVSPost2010Prop57
140
1.0
102
RTVSPost2010PropOp57
 70
     0
  0
XRECORD
  5
233
102
{ACAD_REACTORS
330
232
102
}
330
232
100
AcDbXrecord
280
     1
102
RTVSPropertyOp0
 70
     1
102
RTVSPropertyOp1
 70
     1
102
RTVSPropertyOp2
 70
     1
102
RTVSPropertyOp3
 70
     1
102
RTVSPropertyOp4
 70
     1
102
RTVSPropertyOp5
 70
     1
102
RTVSPropertyOp6
 70
     1
102
RTVSPropertyOp7
 70
     1
102
RTVSPropertyOp8
 70
     1
102
RTVSPropertyOp9
 70
     1
102
RTVSPropertyOp10
 70
     1
102
RTVSPropertyOp11
 70
     1
102
RTVSPropertyOp12
 70
     1
102
RTVSPropertyOp13
 70
     1
102
RTVSPropertyOp14
 70
     1
102
RTVSPropertyOp15
 70
     1
102
RTVSPropertyOp16
 70
     1
102
RTVSPropertyOp17
 70
     1
102
RTVSPropertyOp18
 70
     1
102
RTVSPropertyOp19
 70
     1
102
RTVSPropertyOp20
 70
     1
102
RTVSPropertyOp21
 70
     1
102
RTVSPropertyOp22
 70
     1
102
RTVSPropertyOp23
 70
     1
102
RTVSPropertyOp24
 70
     1
102
RTVSPropertyOp25
 70
     1
102
RTVSPropertyOp26
 70
     1
102
RTVSPropertyOp27
 70
     1
102
RTVSPropertyOp28
 70
     1
102
RTVSPropertyOp29
 70
     1
102
RTVSPropertyOp30
 70
     1
102
RTVSPropertyOp31
 70
     1
102
RTVSPropertyOp32
 70
     1
102
RTVSPropertyOp33
 70
     1
102
RTVSPropertyOp34
 70
     1
102
RTVSPropertyOp35
 70
     1
102
RTVSPropertyOp36
 70
     1
102
RTVSPropertyOp37
 70
     1
102
RTVSPropertyOp38
 70
     1
102
RTVSPropertyOp39
 70
     1
102
RTVSPropertyOp40
 70
     1
102
RTVSPropertyOp41
 70
     1
102
RTVSPropertyOp42
 70
     1
102
RTVSPropertyOp43
 70
     1
102
RTVSPropertyOp44
 70
     1
102
RTVSPropertyOp45
 70
     1
102
RTVSPropertyOp46
 70
     1
102
RTVSPropertyOp47
 70
     1
102
RTVSPropertyOp48
 70
     1
102
RTVSPropertyOp49
 70
     1
102
RTVSPropertyOp50
 70
     1
102
RTVSPropertyOp51
 70
     0
102
RTVSPropertyOp52
 70
     0
102
RTVSPropertyOp53
 70
     1
102
RTVSPropertyOp54
 70
     1
102
RTVSPropertyOp55
 70
     1
102
RTVSPropertyOp56
 70
     1
102
RTVSPropertyOp57
 70
     1
102
RTVSPost2010Prop28
280
     0
102
RTVSPost2010PropOp28
 70
     1
102
RTVSPost2010Prop29
280
     1
102
RTVSPost2010PropOp29
 70
     1
102
RTVSPost2010Prop30
280
     1
102
RTVSPost2010PropOp30
 70
     1
102
RTVSPost2010Prop31
280
     0
102
RTVSPost2010PropOp31
 70
     1
102
RTVSPost2010Prop32
280
     0
102
RTVSPost2010PropOp32
 70
     1
102
RTVSPost2010Prop33
280
     0
102
RTVSPost2010PropOp33
 70
     1
102
RTVSPost2010Prop34
280
     0
102
RTVSPost2010PropOp34
 70
     1
102
RTVSPost2010Prop35
280
     0
102
RTVSPost2010PropOp35
 70
     1
102
RTVSPost2010Prop36
280
     0
102
RTVSPost2010PropOp36
 70
     1
102
RTVSPost2010Prop37
 90
       50
102
RTVSPost2010PropOp37
 70
     1
102
RTVSPost2010Prop38
140
0.0
102
RTVSPost2010PropOp38
 70
     1
102
RTVSPost2010Prop39
140
1.0
102
RTVSPost2010PropOp39
 70
     1
102
RTVSPost2010Prop40
 90
        0
102
RTVSPost2010PropOp40
 70
     1
102
RTVSPost2010Prop41ColorIndex
 90
       18
102
RTVSPost2010Prop41ColorRGB
 90
        0
102
RTVSPost2010PropOp41
 70
     1
102
RTVSPost2010Prop42
 90
       50
102
RTVSPost2010PropOp42
 70
     1
102
RTVSPost2010Prop43
 90
        3
102
RTVSPost2010PropOp43
 70
     1
102
RTVSPost2010Prop44ColorIndex
 90
        5
102
RTVSPost2010Prop44ColorRGB
 90
      255
102
RTVSPost2010PropOp44
 70
     1
102
RTVSPost2010Prop45
280
     0
102
RTVSPost2010PropOp45
 70
     1
102
RTVSPost2010Prop46
 90
       50
102
RTVSPost2010PropOp46
 70
     1
102
RTVSPost2010Prop47
 90
       50
102
RTVSPost2010PropOp47
 70
     1
102
RTVSPost2010Prop48
 90
       50
102
RTVSPost2010PropOp48
 70
     1
102
RTVSPost2010Prop49
280
     0
102
RTVSPost2010PropOp49
 70
     1
102
RTVSPost2010Prop50
 90
       50
102
RTVSPost2010PropOp50
 70
     1
102
RTVSPost2010Prop51ColorIndex
 90
      256
102
RTVSPost2010Prop51ColorRGB
 90
-16777216
102
RTVSPost2010PropOp51
 70
     0
102
RTVSPost2010Prop52
140
1.0
102
RTVSPost2010PropOp52
 70
     0
102
RTVSPost2010Prop53
 90
        2
102
RTVSPost2010PropOp53
 70
     1
102
RTVSPost2010Prop54
  1
strokes_ogs.tif
102
RTVSPost2010PropOp54
 70
     1
102
RTVSPost2010Prop55
280
     0
102
RTVSPost2010PropOp55
 70
     1
102
RTVSPost2010Prop56
140
1.0
102
RTVSPost2010PropOp56
 70
     1
102
RTVSPost2010Prop57
140
1.0
102
RTVSPost2010PropOp57
 70
     1
  0
XRECORD
  5
251
102
{ACAD_REACTORS
330
250
102
}
330
250
100
AcDbXrecord
280
     1
102
RTVSPropertyOp0
 70
     1
102
RTVSPropertyOp1
 70
     1
102
RTVSPropertyOp2
 70
     1
102
RTVSPropertyOp3
 70
     1
102
RTVSPropertyOp4
 70
     1
102
RTVSPropertyOp5
 70
     1
102
RTVSPropertyOp6
 70
     1
102
RTVSPropertyOp7
 70
     1
102
RTVSPropertyOp8
 70
     1
102
RTVSPropertyOp9
 70
     1
102
RTVSPropertyOp10
 70
     1
102
RTVSPropertyOp11
 70
     1
102
RTVSPropertyOp12
 70
     1
102
RTVSPropertyOp13
 70
     1
102
RTVSPropertyOp14
 70
     1
102
RTVSPropertyOp15
 70
     1
102
RTVSPropertyOp16
 70
     1
102
RTVSPropertyOp17
 70
     1
102
RTVSPropertyOp18
 70
     1
102
RTVSPropertyOp19
 70
     1
102
RTVSPropertyOp20
 70
     1
102
RTVSPropertyOp21
 70
     1
102
RTVSPropertyOp22
 70
     1
102
RTVSPropertyOp23
 70
     1
102
RTVSPropertyOp24
 70
     1
102
RTVSPropertyOp25
 70
     1
102
RTVSPropertyOp26
 70
     1
102
RTVSPropertyOp27
 70
     1
102
RTVSPropertyOp28
 70
     1
102
RTVSPropertyOp29
 70
     1
102
RTVSPropertyOp30
 70
     1
102
RTVSPropertyOp31
 70
     1
102
RTVSPropertyOp32
 70
     1
102
RTVSPropertyOp33
 70
     1
102
RTVSPropertyOp34
 70
     1
102
RTVSPropertyOp35
 70
     1
102
RTVSPropertyOp36
 70
     1
102
RTVSPropertyOp37
 70
     1
102
RTVSPropertyOp38
 70
     1
102
RTVSPropertyOp39
 70
     1
102
RTVSPropertyOp40
 70
     1
102
RTVSPropertyOp41
 70
     1
102
RTVSPropertyOp42
 70
     1
102
RTVSPropertyOp43
 70
     1
102
RTVSPropertyOp44
 70
     1
102
RTVSPropertyOp45
 70
     1
102
RTVSPropertyOp46
 70
     1
102
RTVSPropertyOp47
 70
     1
102
RTVSPropertyOp48
 70
     1
102
RTVSPropertyOp49
 70
     1
102
RTVSPropertyOp50
 70
     1
102
RTVSPropertyOp51
 70
     0
102
RTVSPropertyOp52
 70
     0
102
RTVSPropertyOp53
 70
     1
102
RTVSPropertyOp54
 70
     1
102
RTVSPropertyOp55
 70
     1
102
RTVSPropertyOp56
 70
     1
102
RTVSPropertyOp57
 70
     1
102
RTVSPost2010Prop28
280
     0
102
RTVSPost2010PropOp28
 70
     1
102
RTVSPost2010Prop29
280
     1
102
RTVSPost2010PropOp29
 70
     1
102
RTVSPost2010Prop30
280
     1
102
RTVSPost2010PropOp30
 70
     1
102
RTVSPost2010Prop31
280
     0
102
RTVSPost2010PropOp31
 70
     1
102
RTVSPost2010Prop32
280
     0
102
RTVSPost2010PropOp32
 70
     1
102
RTVSPost2010Prop33
280
     0
102
RTVSPost2010PropOp33
 70
     1
102
RTVSPost2010Prop34
280
     0
102
RTVSPost2010PropOp34
 70
     1
102
RTVSPost2010Prop35
280
     0
102
RTVSPost2010PropOp35
 70
     1
102
RTVSPost2010Prop36
280
     0
102
RTVSPost2010PropOp36
 70
     1
102
RTVSPost2010Prop37
 90
       50
102
RTVSPost2010PropOp37
 70
     1
102
RTVSPost2010Prop38
140
0.0
102
RTVSPost2010PropOp38
 70
     1
102
RTVSPost2010Prop39
140
1.0
102
RTVSPost2010PropOp39
 70
     1
102
RTVSPost2010Prop40
 90
        0
102
RTVSPost2010PropOp40
 70
     1
102
RTVSPost2010Prop41ColorIndex
 90
       18
102
RTVSPost2010Prop41ColorRGB
 90
        0
102
RTVSPost2010PropOp41
 70
     1
102
RTVSPost2010Prop42
 90
       50
102
RTVSPost2010PropOp42
 70
     1
102
RTVSPost2010Prop43
 90
        3
102
RTVSPost2010PropOp43
 70
     1
102
RTVSPost2010Prop44ColorIndex
 90
        5
102
RTVSPost2010Prop44ColorRGB
 90
      255
102
RTVSPost2010PropOp44
 70
     1
102
RTVSPost2010Prop45
280
     0
102
RTVSPost2010PropOp45
 70
     1
102
RTVSPost2010Prop46
 90
       50
102
RTVSPost2010PropOp46
 70
     1
102
RTVSPost2010Prop47
 90
       50
102
RTVSPost2010PropOp47
 70
     1
102
RTVSPost2010Prop48
 90
       50
102
RTVSPost2010PropOp48
 70
     1
102
RTVSPost2010Prop49
280
     0
102
RTVSPost2010PropOp49
 70
     1
102
RTVSPost2010Prop50
 90
       50
102
RTVSPost2010PropOp50
 70
     1
102
RTVSPost2010Prop51ColorIndex
 90
      256
102
RTVSPost2010Prop51ColorRGB
 90
-16777216
102
RTVSPost2010PropOp51
 70
     0
102
RTVSPost2010Prop52
140
1.0
102
RTVSPost2010PropOp52
 70
     0
102
RTVSPost2010Prop53
 90
        2
102
RTVSPost2010PropOp53
 70
     1
102
RTVSPost2010Prop54
  1
strokes_ogs.tif
102
RTVSPost2010PropOp54
 70
     1
102
RTVSPost2010Prop55
280
     0
102
RTVSPost2010PropOp55
 70
     1
102
RTVSPost2010Prop56
140
1.0
102
RTVSPost2010PropOp56
 70
     1
102
RTVSPost2010Prop57
140
1.0
102
RTVSPost2010PropOp57
 70
     1
  0
XRECORD
  5
24F
102
{ACAD_REACTORS
330
24E
102
}
330
24E
100
AcDbXrecord
280
     1
102
RTVSPropertyOp0
 70
     1
102
RTVSPropertyOp1
 70
     1
102
RTVSPropertyOp2
 70
     1
102
RTVSPropertyOp3
 70
     1
102
RTVSPropertyOp4
 70
     1
102
RTVSPropertyOp5
 70
     1
102
RTVSPropertyOp6
 70
     1
102
RTVSPropertyOp7
 70
     1
102
RTVSPropertyOp8
 70
     1
102
RTVSPropertyOp9
 70
     1
102
RTVSPropertyOp10
 70
     1
102
RTVSPropertyOp11
 70
     1
102
RTVSPropertyOp12
 70
     1
102
RTVSPropertyOp13
 70
     1
102
RTVSPropertyOp14
 70
     1
102
RTVSPropertyOp15
 70
     1
102
RTVSPropertyOp16
 70
     1
102
RTVSPropertyOp17
 70
     1
102
RTVSPropertyOp18
 70
     1
102
RTVSPropertyOp19
 70
     1
102
RTVSPropertyOp20
 70
     1
102
RTVSPropertyOp21
 70
     1
102
RTVSPropertyOp22
 70
     1
102
RTVSPropertyOp23
 70
     1
102
RTVSPropertyOp24
 70
     1
102
RTVSPropertyOp25
 70
     1
102
RTVSPropertyOp26
 70
     1
102
RTVSPropertyOp27
 70
     1
102
RTVSPropertyOp28
 70
     1
102
RTVSPropertyOp29
 70
     1
102
RTVSPropertyOp30
 70
     1
102
RTVSPropertyOp31
 70
     1
102
RTVSPropertyOp32
 70
     1
102
RTVSPropertyOp33
 70
     1
102
RTVSPropertyOp34
 70
     1
102
RTVSPropertyOp35
 70
     1
102
RTVSPropertyOp36
 70
     1
102
RTVSPropertyOp37
 70
     1
102
RTVSPropertyOp38
 70
     1
102
RTVSPropertyOp39
 70
     1
102
RTVSPropertyOp40
 70
     1
102
RTVSPropertyOp41
 70
     1
102
RTVSPropertyOp42
 70
     1
102
RTVSPropertyOp43
 70
     1
102
RTVSPropertyOp44
 70
     1
102
RTVSPropertyOp45
 70
     1
102
RTVSPropertyOp46
 70
     1
102
RTVSPropertyOp47
 70
     1
102
RTVSPropertyOp48
 70
     1
102
RTVSPropertyOp49
 70
     1
102
RTVSPropertyOp50
 70
     1
102
RTVSPropertyOp51
 70
     0
102
RTVSPropertyOp52
 70
     0
102
RTVSPropertyOp53
 70
     1
102
RTVSPropertyOp54
 70
     1
102
RTVSPropertyOp55
 70
     1
102
RTVSPropertyOp56
 70
     1
102
RTVSPropertyOp57
 70
     1
102
RTVSPost2010Prop28
280
     0
102
RTVSPost2010PropOp28
 70
     1
102
RTVSPost2010Prop29
280
     1
102
RTVSPost2010PropOp29
 70
     1
102
RTVSPost2010Prop30
280
     1
102
RTVSPost2010PropOp30
 70
     1
102
RTVSPost2010Prop31
280
     0
102
RTVSPost2010PropOp31
 70
     1
102
RTVSPost2010Prop32
280
     0
102
RTVSPost2010PropOp32
 70
     1
102
RTVSPost2010Prop33
280
     0
102
RTVSPost2010PropOp33
 70
     1
102
RTVSPost2010Prop34
280
     0
102
RTVSPost2010PropOp34
 70
     1
102
RTVSPost2010Prop35
280
     0
102
RTVSPost2010PropOp35
 70
     1
102
RTVSPost2010Prop36
280
     0
102
RTVSPost2010PropOp36
 70
     1
102
RTVSPost2010Prop37
 90
       50
102
RTVSPost2010PropOp37
 70
     1
102
RTVSPost2010Prop38
140
0.0
102
RTVSPost2010PropOp38
 70
     1
102
RTVSPost2010Prop39
140
1.0
102
RTVSPost2010PropOp39
 70
     1
102
RTVSPost2010Prop40
 90
        0
102
RTVSPost2010PropOp40
 70
     1
102
RTVSPost2010Prop41ColorIndex
 90
       18
102
RTVSPost2010Prop41ColorRGB
 90
        0
102
RTVSPost2010PropOp41
 70
     1
102
RTVSPost2010Prop42
 90
       50
102
RTVSPost2010PropOp42
 70
     1
102
RTVSPost2010Prop43
 90
        3
102
RTVSPost2010PropOp43
 70
     1
102
RTVSPost2010Prop44ColorIndex
 90
        5
102
RTVSPost2010Prop44ColorRGB
 90
      255
102
RTVSPost2010PropOp44
 70
     1
102
RTVSPost2010Prop45
280
     0
102
RTVSPost2010PropOp45
 70
     1
102
RTVSPost2010Prop46
 90
       50
102
RTVSPost2010PropOp46
 70
     1
102
RTVSPost2010Prop47
 90
       50
102
RTVSPost2010PropOp47
 70
     1
102
RTVSPost2010Prop48
 90
       50
102
RTVSPost2010PropOp48
 70
     1
102
RTVSPost2010Prop49
280
     0
102
RTVSPost2010PropOp49
 70
     1
102
RTVSPost2010Prop50
 90
       50
102
RTVSPost2010PropOp50
 70
     1
102
RTVSPost2010Prop51ColorIndex
 90
      256
102
RTVSPost2010Prop51ColorRGB
 90
-16777216
102
RTVSPost2010PropOp51
 70
     0
102
RTVSPost2010Prop52
140
1.0
102
RTVSPost2010PropOp52
 70
     0
102
RTVSPost2010Prop53
 90
        2
102
RTVSPost2010PropOp53
 70
     1
102
RTVSPost2010Prop54
  1
strokes_ogs.tif
102
RTVSPost2010PropOp54
 70
     1
102
RTVSPost2010Prop55
280
     0
102
RTVSPost2010PropOp55
 70
     1
102
RTVSPost2010Prop56
140
1.0
102
RTVSPost2010PropOp56
 70
     1
102
RTVSPost2010Prop57
140
1.0
102
RTVSPost2010PropOp57
 70
     1
  0
XRECORD
  5
249
102
{ACAD_REACTORS
330
248
102
}
330
248
100
AcDbXrecord
280
     1
102
RTVSPropertyOp0
 70
     1
102
RTVSPropertyOp1
 70
     1
102
RTVSPropertyOp2
 70
     1
102
RTVSPropertyOp3
 70
     1
102
RTVSPropertyOp4
 70
     1
102
RTVSPropertyOp5
 70
     1
102
RTVSPropertyOp6
 70
     1
102
RTVSPropertyOp7
 70
     1
102
RTVSPropertyOp8
 70
     1
102
RTVSPropertyOp9
 70
     1
102
RTVSPropertyOp10
 70
     1
102
RTVSPropertyOp11
 70
     1
102
RTVSPropertyOp12
 70
     1
102
RTVSPropertyOp13
 70
     1
102
RTVSPropertyOp14
 70
     1
102
RTVSPropertyOp15
 70
     1
102
RTVSPropertyOp16
 70
     1
102
RTVSPropertyOp17
 70
     1
102
RTVSPropertyOp18
 70
     1
102
RTVSPropertyOp19
 70
     1
102
RTVSPropertyOp20
 70
     1
102
RTVSPropertyOp21
 70
     1
102
RTVSPropertyOp22
 70
     1
102
RTVSPropertyOp23
 70
     1
102
RTVSPropertyOp24
 70
     1
102
RTVSPropertyOp25
 70
     1
102
RTVSPropertyOp26
 70
     1
102
RTVSPropertyOp27
 70
     1
102
RTVSPropertyOp28
 70
     1
102
RTVSPropertyOp29
 70
     1
102
RTVSPropertyOp30
 70
     1
102
RTVSPropertyOp31
 70
     1
102
RTVSPropertyOp32
 70
     1
102
RTVSPropertyOp33
 70
     1
102
RTVSPropertyOp34
 70
     1
102
RTVSPropertyOp35
 70
     1
102
RTVSPropertyOp36
 70
     1
102
RTVSPropertyOp37
 70
     1
102
RTVSPropertyOp38
 70
     1
102
RTVSPropertyOp39
 70
     1
102
RTVSPropertyOp40
 70
     1
102
RTVSPropertyOp41
 70
     1
102
RTVSPropertyOp42
 70
     1
102
RTVSPropertyOp43
 70
     1
102
RTVSPropertyOp44
 70
     1
102
RTVSPropertyOp45
 70
     1
102
RTVSPropertyOp46
 70
     1
102
RTVSPropertyOp47
 70
     1
102
RTVSPropertyOp48
 70
     1
102
RTVSPropertyOp49
 70
     1
102
RTVSPropertyOp50
 70
     1
102
RTVSPropertyOp51
 70
     0
102
RTVSPropertyOp52
 70
     0
102
RTVSPropertyOp53
 70
     1
102
RTVSPropertyOp54
 70
     1
102
RTVSPropertyOp55
 70
     1
102
RTVSPropertyOp56
 70
     1
102
RTVSPropertyOp57
 70
     1
102
RTVSPost2010Prop28
280
     0
102
RTVSPost2010PropOp28
 70
     1
102
RTVSPost2010Prop29
280
     1
102
RTVSPost2010PropOp29
 70
     1
102
RTVSPost2010Prop30
280
     1
102
RTVSPost2010PropOp30
 70
     1
102
RTVSPost2010Prop31
280
     0
102
RTVSPost2010PropOp31
 70
     1
102
RTVSPost2010Prop32
280
     0
102
RTVSPost2010PropOp32
 70
     1
102
RTVSPost2010Prop33
280
     0
102
RTVSPost2010PropOp33
 70
     1
102
RTVSPost2010Prop34
280
     0
102
RTVSPost2010PropOp34
 70
     1
102
RTVSPost2010Prop35
280
     0
102
RTVSPost2010PropOp35
 70
     1
102
RTVSPost2010Prop36
280
     0
102
RTVSPost2010PropOp36
 70
     1
102
RTVSPost2010Prop37
 90
       50
102
RTVSPost2010PropOp37
 70
     1
102
RTVSPost2010Prop38
140
0.0
102
RTVSPost2010PropOp38
 70
     1
102
RTVSPost2010Prop39
140
1.0
102
RTVSPost2010PropOp39
 70
     1
102
RTVSPost2010Prop40
 90
        0
102
RTVSPost2010PropOp40
 70
     1
102
RTVSPost2010Prop41ColorIndex
 90
       18
102
RTVSPost2010Prop41ColorRGB
 90
        0
102
RTVSPost2010PropOp41
 70
     1
102
RTVSPost2010Prop42
 90
       50
102
RTVSPost2010PropOp42
 70
     1
102
RTVSPost2010Prop43
 90
        3
102
RTVSPost2010PropOp43
 70
     1
102
RTVSPost2010Prop44ColorIndex
 90
        5
102
RTVSPost2010Prop44ColorRGB
 90
      255
102
RTVSPost2010PropOp44
 70
     1
102
RTVSPost2010Prop45
280
     0
102
RTVSPost2010PropOp45
 70
     1
102
RTVSPost2010Prop46
 90
       50
102
RTVSPost2010PropOp46
 70
     1
102
RTVSPost2010Prop47
 90
       50
102
RTVSPost2010PropOp47
 70
     1
102
RTVSPost2010Prop48
 90
       50
102
RTVSPost2010PropOp48
 70
     1
102
RTVSPost2010Prop49
280
     0
102
RTVSPost2010PropOp49
 70
     1
102
RTVSPost2010Prop50
 90
       50
102
RTVSPost2010PropOp50
 70
     1
102
RTVSPost2010Prop51ColorIndex
 90
      256
102
RTVSPost2010Prop51ColorRGB
 90
-16777216
102
RTVSPost2010PropOp51
 70
     0
102
RTVSPost2010Prop52
140
1.0
102
RTVSPost2010PropOp52
 70
     0
102
RTVSPost2010Prop53
 90
        2
102
RTVSPost2010PropOp53
 70
     1
102
RTVSPost2010Prop54
  1
strokes_ogs.tif
102
RTVSPost2010PropOp54
 70
     1
102
RTVSPost2010Prop55
280
     0
102
RTVSPost2010PropOp55
 70
     1
102
RTVSPost2010Prop56
140
1.0
102
RTVSPost2010PropOp56
 70
     1
102
RTVSPost2010Prop57
140
1.0
102
RTVSPost2010PropOp57
 70
     1
  0
XRECORD
  5
24B
102
{ACAD_REACTORS
330
24A
102
}
330
24A
100
AcDbXrecord
280
     1
102
RTVSPropertyOp0
 70
     1
102
RTVSPropertyOp1
 70
     1
102
RTVSPropertyOp2
 70
     1
102
RTVSPropertyOp3
 70
     1
102
RTVSPropertyOp4
 70
     1
102
RTVSPropertyOp5
 70
     1
102
RTVSPropertyOp6
 70
     1
102
RTVSPropertyOp7
 70
     1
102
RTVSPropertyOp8
 70
     1
102
RTVSPropertyOp9
 70
     1
102
RTVSPropertyOp10
 70
     1
102
RTVSPropertyOp11
 70
     1
102
RTVSPropertyOp12
 70
     1
102
RTVSPropertyOp13
 70
     1
102
RTVSPropertyOp14
 70
     1
102
RTVSPropertyOp15
 70
     1
102
RTVSPropertyOp16
 70
     1
102
RTVSPropertyOp17
 70
     1
102
RTVSPropertyOp18
 70
     1
102
RTVSPropertyOp19
 70
     1
102
RTVSPropertyOp20
 70
     1
102
RTVSPropertyOp21
 70
     1
102
RTVSPropertyOp22
 70
     1
102
RTVSPropertyOp23
 70
     1
102
RTVSPropertyOp24
 70
     1
102
RTVSPropertyOp25
 70
     1
102
RTVSPropertyOp26
 70
     1
102
RTVSPropertyOp27
 70
     1
102
RTVSPropertyOp28
 70
     1
102
RTVSPropertyOp29
 70
     1
102
RTVSPropertyOp30
 70
     1
102
RTVSPropertyOp31
 70
     1
102
RTVSPropertyOp32
 70
     1
102
RTVSPropertyOp33
 70
     1
102
RTVSPropertyOp34
 70
     1
102
RTVSPropertyOp35
 70
     1
102
RTVSPropertyOp36
 70
     1
102
RTVSPropertyOp37
 70
     1
102
RTVSPropertyOp38
 70
     1
102
RTVSPropertyOp39
 70
     1
102
RTVSPropertyOp40
 70
     1
102
RTVSPropertyOp41
 70
     1
102
RTVSPropertyOp42
 70
     1
102
RTVSPropertyOp43
 70
     1
102
RTVSPropertyOp44
 70
     1
102
RTVSPropertyOp45
 70
     1
102
RTVSPropertyOp46
 70
     1
102
RTVSPropertyOp47
 70
     1
102
RTVSPropertyOp48
 70
     1
102
RTVSPropertyOp49
 70
     1
102
RTVSPropertyOp50
 70
     1
102
RTVSPropertyOp51
 70
     0
102
RTVSPropertyOp52
 70
     0
102
RTVSPropertyOp53
 70
     1
102
RTVSPropertyOp54
 70
     1
102
RTVSPropertyOp55
 70
     1
102
RTVSPropertyOp56
 70
     1
102
RTVSPropertyOp57
 70
     1
102
RTVSPost2010Prop28
280
     0
102
RTVSPost2010PropOp28
 70
     1
102
RTVSPost2010Prop29
280
     1
102
RTVSPost2010PropOp29
 70
     1
102
RTVSPost2010Prop30
280
     1
102
RTVSPost2010PropOp30
 70
     1
102
RTVSPost2010Prop31
280
     0
102
RTVSPost2010PropOp31
 70
     1
102
RTVSPost2010Prop32
280
     0
102
RTVSPost2010PropOp32
 70
     1
102
RTVSPost2010Prop33
280
     0
102
RTVSPost2010PropOp33
 70
     1
102
RTVSPost2010Prop34
280
     0
102
RTVSPost2010PropOp34
 70
     1
102
RTVSPost2010Prop35
280
     0
102
RTVSPost2010PropOp35
 70
     1
102
RTVSPost2010Prop36
280
     0
102
RTVSPost2010PropOp36
 70
     1
102
RTVSPost2010Prop37
 90
       50
102
RTVSPost2010PropOp37
 70
     1
102
RTVSPost2010Prop38
140
0.0
102
RTVSPost2010PropOp38
 70
     1
102
RTVSPost2010Prop39
140
1.0
102
RTVSPost2010PropOp39
 70
     1
102
RTVSPost2010Prop40
 90
        0
102
RTVSPost2010PropOp40
 70
     1
102
RTVSPost2010Prop41ColorIndex
 90
       18
102
RTVSPost2010Prop41ColorRGB
 90
        0
102
RTVSPost2010PropOp41
 70
     1
102
RTVSPost2010Prop42
 90
       50
102
RTVSPost2010PropOp42
 70
     1
102
RTVSPost2010Prop43
 90
        3
102
RTVSPost2010PropOp43
 70
     1
102
RTVSPost2010Prop44ColorIndex
 90
        5
102
RTVSPost2010Prop44ColorRGB
 90
      255
102
RTVSPost2010PropOp44
 70
     1
102
RTVSPost2010Prop45
280
     0
102
RTVSPost2010PropOp45
 70
     1
102
RTVSPost2010Prop46
 90
       50
102
RTVSPost2010PropOp46
 70
     1
102
RTVSPost2010Prop47
 90
       50
102
RTVSPost2010PropOp47
 70
     1
102
RTVSPost2010Prop48
 90
       50
102
RTVSPost2010PropOp48
 70
     1
102
RTVSPost2010Prop49
280
     0
102
RTVSPost2010PropOp49
 70
     1
102
RTVSPost2010Prop50
 90
       50
102
RTVSPost2010PropOp50
 70
     1
102
RTVSPost2010Prop51ColorIndex
 90
      256
102
RTVSPost2010Prop51ColorRGB
 90
-16777216
102
RTVSPost2010PropOp51
 70
     0
102
RTVSPost2010Prop52
140
1.0
102
RTVSPost2010PropOp52
 70
     0
102
RTVSPost2010Prop53
 90
        2
102
RTVSPost2010PropOp53
 70
     1
102
RTVSPost2010Prop54
  1
strokes_ogs.tif
102
RTVSPost2010PropOp54
 70
     1
102
RTVSPost2010Prop55
280
     0
102
RTVSPost2010PropOp55
 70
     1
102
RTVSPost2010Prop56
140
1.0
102
RTVSPost2010PropOp56
 70
     1
102
RTVSPost2010Prop57
140
1.0
102
RTVSPost2010PropOp57
 70
     1
  0
XRECORD
  5
23B
102
{ACAD_REACTORS
330
23A
102
}
330
23A
100
AcDbXrecord
280
     1
102
RTVSPropertyOp0
 70
     1
102
RTVSPropertyOp1
 70
     1
102
RTVSPropertyOp2
 70
     1
102
RTVSPropertyOp3
 70
     1
102
RTVSPropertyOp4
 70
     1
102
RTVSPropertyOp5
 70
     1
102
RTVSPropertyOp6
 70
     1
102
RTVSPropertyOp7
 70
     1
102
RTVSPropertyOp8
 70
     1
102
RTVSPropertyOp9
 70
     1
102
RTVSPropertyOp10
 70
     1
102
RTVSPropertyOp11
 70
     1
102
RTVSPropertyOp12
 70
     1
102
RTVSPropertyOp13
 70
     1
102
RTVSPropertyOp14
 70
     1
102
RTVSPropertyOp15
 70
     1
102
RTVSPropertyOp16
 70
     1
102
RTVSPropertyOp17
 70
     1
102
RTVSPropertyOp18
 70
     1
102
RTVSPropertyOp19
 70
     1
102
RTVSPropertyOp20
 70
     1
102
RTVSPropertyOp21
 70
     1
102
RTVSPropertyOp22
 70
     1
102
RTVSPropertyOp23
 70
     1
102
RTVSPropertyOp24
 70
     1
102
RTVSPropertyOp25
 70
     1
102
RTVSPropertyOp26
 70
     1
102
RTVSPropertyOp27
 70
     1
102
RTVSPropertyOp28
 70
     1
102
RTVSPropertyOp29
 70
     1
102
RTVSPropertyOp30
 70
     1
102
RTVSPropertyOp31
 70
     1
102
RTVSPropertyOp32
 70
     1
102
RTVSPropertyOp33
 70
     1
102
RTVSPropertyOp34
 70
     1
102
RTVSPropertyOp35
 70
     1
102
RTVSPropertyOp36
 70
     1
102
RTVSPropertyOp37
 70
     1
102
RTVSPropertyOp38
 70
     1
102
RTVSPropertyOp39
 70
     1
102
RTVSPropertyOp40
 70
     1
102
RTVSPropertyOp41
 70
     1
102
RTVSPropertyOp42
 70
     1
102
RTVSPropertyOp43
 70
     1
102
RTVSPropertyOp44
 70
     1
102
RTVSPropertyOp45
 70
     1
102
RTVSPropertyOp46
 70
     1
102
RTVSPropertyOp47
 70
     1
102
RTVSPropertyOp48
 70
     1
102
RTVSPropertyOp49
 70
     1
102
RTVSPropertyOp50
 70
     1
102
RTVSPropertyOp51
 70
     0
102
RTVSPropertyOp52
 70
     0
102
RTVSPropertyOp53
 70
     1
102
RTVSPropertyOp54
 70
     1
102
RTVSPropertyOp55
 70
     1
102
RTVSPropertyOp56
 70
     1
102
RTVSPropertyOp57
 70
     1
102
RTVSPost2010Prop28
280
     0
102
RTVSPost2010PropOp28
 70
     1
102
RTVSPost2010Prop29
280
     1
102
RTVSPost2010PropOp29
 70
     1
102
RTVSPost2010Prop30
280
     1
102
RTVSPost2010PropOp30
 70
     1
102
RTVSPost2010Prop31
280
     0
102
RTVSPost2010PropOp31
 70
     1
102
RTVSPost2010Prop32
280
     0
102
RTVSPost2010PropOp32
 70
     1
102
RTVSPost2010Prop33
280
     0
102
RTVSPost2010PropOp33
 70
     1
102
RTVSPost2010Prop34
280
     0
102
RTVSPost2010PropOp34
 70
     1
102
RTVSPost2010Prop35
280
     0
102
RTVSPost2010PropOp35
 70
     1
102
RTVSPost2010Prop36
280
     0
102
RTVSPost2010PropOp36
 70
     1
102
RTVSPost2010Prop37
 90
       50
102
RTVSPost2010PropOp37
 70
     1
102
RTVSPost2010Prop38
140
0.0
102
RTVSPost2010PropOp38
 70
     1
102
RTVSPost2010Prop39
140
1.0
102
RTVSPost2010PropOp39
 70
     1
102
RTVSPost2010Prop40
 90
        0
102
RTVSPost2010PropOp40
 70
     1
102
RTVSPost2010Prop41ColorIndex
 90
       18
102
RTVSPost2010Prop41ColorRGB
 90
        0
102
RTVSPost2010PropOp41
 70
     1
102
RTVSPost2010Prop42
 90
       50
102
RTVSPost2010PropOp42
 70
     1
102
RTVSPost2010Prop43
 90
        3
102
RTVSPost2010PropOp43
 70
     1
102
RTVSPost2010Prop44ColorIndex
 90
        5
102
RTVSPost2010Prop44ColorRGB
 90
      255
102
RTVSPost2010PropOp44
 70
     1
102
RTVSPost2010Prop45
280
     0
102
RTVSPost2010PropOp45
 70
     1
102
RTVSPost2010Prop46
 90
       50
102
RTVSPost2010PropOp46
 70
     1
102
RTVSPost2010Prop47
 90
       50
102
RTVSPost2010PropOp47
 70
     1
102
RTVSPost2010Prop48
 90
       50
102
RTVSPost2010PropOp48
 70
     1
102
RTVSPost2010Prop49
280
     0
102
RTVSPost2010PropOp49
 70
     1
102
RTVSPost2010Prop50
 90
       50
102
RTVSPost2010PropOp50
 70
     1
102
RTVSPost2010Prop51ColorIndex
 90
      256
102
RTVSPost2010Prop51ColorRGB
 90
-16777216
102
RTVSPost2010PropOp51
 70
     0
102
RTVSPost2010Prop52
140
1.0
102
RTVSPost2010PropOp52
 70
     0
102
RTVSPost2010Prop53
 90
        2
102
RTVSPost2010PropOp53
 70
     1
102
RTVSPost2010Prop54
  1
strokes_ogs.tif
102
RTVSPost2010PropOp54
 70
     1
102
RTVSPost2010Prop55
280
     0
102
RTVSPost2010PropOp55
 70
     1
102
RTVSPost2010Prop56
140
1.0
102
RTVSPost2010PropOp56
 70
     1
102
RTVSPost2010Prop57
140
1.0
102
RTVSPost2010PropOp57
 70
     1
  0
XRECORD
  5
22D
102
{ACAD_REACTORS
330
22C
102
}
330
22C
100
AcDbXrecord
280
     1
102
RTVSPropertyOp0
 70
     1
102
RTVSPropertyOp1
 70
     1
102
RTVSPropertyOp2
 70
     1
102
RTVSPropertyOp3
 70
     1
102
RTVSPropertyOp4
 70
     1
102
RTVSPropertyOp5
 70
     1
102
RTVSPropertyOp6
 70
     1
102
RTVSPropertyOp7
 70
     1
102
RTVSPropertyOp8
 70
     1
102
RTVSPropertyOp9
 70
     1
102
RTVSPropertyOp10
 70
     1
102
RTVSPropertyOp11
 70
     1
102
RTVSPropertyOp12
 70
     1
102
RTVSPropertyOp13
 70
     1
102
RTVSPropertyOp14
 70
     1
102
RTVSPropertyOp15
 70
     1
102
RTVSPropertyOp16
 70
     1
102
RTVSPropertyOp17
 70
     1
102
RTVSPropertyOp18
 70
     1
102
RTVSPropertyOp19
 70
     1
102
RTVSPropertyOp20
 70
     1
102
RTVSPropertyOp21
 70
     1
102
RTVSPropertyOp22
 70
     1
102
RTVSPropertyOp23
 70
     1
102
RTVSPropertyOp24
 70
     1
102
RTVSPropertyOp25
 70
     1
102
RTVSPropertyOp26
 70
     1
102
RTVSPropertyOp27
 70
     1
102
RTVSPropertyOp28
 70
     1
102
RTVSPropertyOp29
 70
     1
102
RTVSPropertyOp30
 70
     1
102
RTVSPropertyOp31
 70
     1
102
RTVSPropertyOp32
 70
     1
102
RTVSPropertyOp33
 70
     1
102
RTVSPropertyOp34
 70
     1
102
RTVSPropertyOp35
 70
     1
102
RTVSPropertyOp36
 70
     1
102
RTVSPropertyOp37
 70
     1
102
RTVSPropertyOp38
 70
     1
102
RTVSPropertyOp39
 70
     1
102
RTVSPropertyOp40
 70
     1
102
RTVSPropertyOp41
 70
     1
102
RTVSPropertyOp42
 70
     1
102
RTVSPropertyOp43
 70
     1
102
RTVSPropertyOp44
 70
     1
102
RTVSPropertyOp45
 70
     1
102
RTVSPropertyOp46
 70
     1
102
RTVSPropertyOp47
 70
     1
102
RTVSPropertyOp48
 70
     1
102
RTVSPropertyOp49
 70
     1
102
RTVSPropertyOp50
 70
     1
102
RTVSPropertyOp51
 70
     0
102
RTVSPropertyOp52
 70
     0
102
RTVSPropertyOp53
 70
     1
102
RTVSPropertyOp54
 70
     1
102
RTVSPropertyOp55
 70
     1
102
RTVSPropertyOp56
 70
     1
102
RTVSPropertyOp57
 70
     1
102
RTVSPost2010Prop28
280
     0
102
RTVSPost2010PropOp28
 70
     1
102
RTVSPost2010Prop29
280
     1
102
RTVSPost2010PropOp29
 70
     1
102
RTVSPost2010Prop30
280
     1
102
RTVSPost2010PropOp30
 70
     1
102
RTVSPost2010Prop31
280
     0
102
RTVSPost2010PropOp31
 70
     1
102
RTVSPost2010Prop32
280
     0
102
RTVSPost2010PropOp32
 70
     1
102
RTVSPost2010Prop33
280
     0
102
RTVSPost2010PropOp33
 70
     1
102
RTVSPost2010Prop34
280
     0
102
RTVSPost2010PropOp34
 70
     1
102
RTVSPost2010Prop35
280
     0
102
RTVSPost2010PropOp35
 70
     1
102
RTVSPost2010Prop36
280
     0
102
RTVSPost2010PropOp36
 70
     1
102
RTVSPost2010Prop37
 90
       50
102
RTVSPost2010PropOp37
 70
     1
102
RTVSPost2010Prop38
140
0.0
102
RTVSPost2010PropOp38
 70
     1
102
RTVSPost2010Prop39
140
1.0
102
RTVSPost2010PropOp39
 70
     1
102
RTVSPost2010Prop40
 90
        0
102
RTVSPost2010PropOp40
 70
     1
102
RTVSPost2010Prop41ColorIndex
 90
       18
102
RTVSPost2010Prop41ColorRGB
 90
        0
102
RTVSPost2010PropOp41
 70
     1
102
RTVSPost2010Prop42
 90
       50
102
RTVSPost2010PropOp42
 70
     1
102
RTVSPost2010Prop43
 90
        3
102
RTVSPost2010PropOp43
 70
     1
102
RTVSPost2010Prop44ColorIndex
 90
        5
102
RTVSPost2010Prop44ColorRGB
 90
      255
102
RTVSPost2010PropOp44
 70
     1
102
RTVSPost2010Prop45
280
     0
102
RTVSPost2010PropOp45
 70
     1
102
RTVSPost2010Prop46
 90
       50
102
RTVSPost2010PropOp46
 70
     1
102
RTVSPost2010Prop47
 90
       50
102
RTVSPost2010PropOp47
 70
     1
102
RTVSPost2010Prop48
 90
       50
102
RTVSPost2010PropOp48
 70
     1
102
RTVSPost2010Prop49
280
     0
102
RTVSPost2010PropOp49
 70
     1
102
RTVSPost2010Prop50
 90
       50
102
RTVSPost2010PropOp50
 70
     1
102
RTVSPost2010Prop51ColorIndex
 90
      256
102
RTVSPost2010Prop51ColorRGB
 90
-16777216
102
RTVSPost2010PropOp51
 70
     0
102
RTVSPost2010Prop52
140
1.0
102
RTVSPost2010PropOp52
 70
     0
102
RTVSPost2010Prop53
 90
        2
102
RTVSPost2010PropOp53
 70
     1
102
RTVSPost2010Prop54
  1
strokes_ogs.tif
102
RTVSPost2010PropOp54
 70
     1
102
RTVSPost2010Prop55
280
     0
102
RTVSPost2010PropOp55
 70
     1
102
RTVSPost2010Prop56
140
1.0
102
RTVSPost2010PropOp56
 70
     1
102
RTVSPost2010Prop57
140
1.0
102
RTVSPost2010PropOp57
 70
     1
  0
XRECORD
  5
24D
102
{ACAD_REACTORS
330
24C
102
}
330
24C
100
AcDbXrecord
280
     1
102
RTVSPropertyOp0
 70
     1
102
RTVSPropertyOp1
 70
     1
102
RTVSPropertyOp2
 70
     1
102
RTVSPropertyOp3
 70
     1
102
RTVSPropertyOp4
 70
     1
102
RTVSPropertyOp5
 70
     1
102
RTVSPropertyOp6
 70
     1
102
RTVSPropertyOp7
 70
     1
102
RTVSPropertyOp8
 70
     1
102
RTVSPropertyOp9
 70
     1
102
RTVSPropertyOp10
 70
     1
102
RTVSPropertyOp11
 70
     1
102
RTVSPropertyOp12
 70
     1
102
RTVSPropertyOp13
 70
     1
102
RTVSPropertyOp14
 70
     1
102
RTVSPropertyOp15
 70
     1
102
RTVSPropertyOp16
 70
     1
102
RTVSPropertyOp17
 70
     1
102
RTVSPropertyOp18
 70
     1
102
RTVSPropertyOp19
 70
     1
102
RTVSPropertyOp20
 70
     1
102
RTVSPropertyOp21
 70
     1
102
RTVSPropertyOp22
 70
     1
102
RTVSPropertyOp23
 70
     1
102
RTVSPropertyOp24
 70
     1
102
RTVSPropertyOp25
 70
     1
102
RTVSPropertyOp26
 70
     1
102
RTVSPropertyOp27
 70
     1
102
RTVSPropertyOp28
 70
     1
102
RTVSPropertyOp29
 70
     1
102
RTVSPropertyOp30
 70
     1
102
RTVSPropertyOp31
 70
     1
102
RTVSPropertyOp32
 70
     1
102
RTVSPropertyOp33
 70
     1
102
RTVSPropertyOp34
 70
     1
102
RTVSPropertyOp35
 70
     1
102
RTVSPropertyOp36
 70
     1
102
RTVSPropertyOp37
 70
     1
102
RTVSPropertyOp38
 70
     1
102
RTVSPropertyOp39
 70
     1
102
RTVSPropertyOp40
 70
     1
102
RTVSPropertyOp41
 70
     1
102
RTVSPropertyOp42
 70
     1
102
RTVSPropertyOp43
 70
     1
102
RTVSPropertyOp44
 70
     1
102
RTVSPropertyOp45
 70
     1
102
RTVSPropertyOp46
 70
     1
102
RTVSPropertyOp47
 70
     1
102
RTVSPropertyOp48
 70
     1
102
RTVSPropertyOp49
 70
     1
102
RTVSPropertyOp50
 70
     1
102
RTVSPropertyOp51
 70
     0
102
RTVSPropertyOp52
 70
     0
102
RTVSPropertyOp53
 70
     1
102
RTVSPropertyOp54
 70
     1
102
RTVSPropertyOp55
 70
     1
102
RTVSPropertyOp56
 70
     1
102
RTVSPropertyOp57
 70
     1
102
RTVSPost2010Prop28
280
     0
102
RTVSPost2010PropOp28
 70
     1
102
RTVSPost2010Prop29
280
     1
102
RTVSPost2010PropOp29
 70
     1
102
RTVSPost2010Prop30
280
     1
102
RTVSPost2010PropOp30
 70
     1
102
RTVSPost2010Prop31
280
     0
102
RTVSPost2010PropOp31
 70
     1
102
RTVSPost2010Prop32
280
     0
102
RTVSPost2010PropOp32
 70
     1
102
RTVSPost2010Prop33
280
     0
102
RTVSPost2010PropOp33
 70
     1
102
RTVSPost2010Prop34
280
     0
102
RTVSPost2010PropOp34
 70
     1
102
RTVSPost2010Prop35
280
     0
102
RTVSPost2010PropOp35
 70
     1
102
RTVSPost2010Prop36
280
     0
102
RTVSPost2010PropOp36
 70
     1
102
RTVSPost2010Prop37
 90
       50
102
RTVSPost2010PropOp37
 70
     1
102
RTVSPost2010Prop38
140
0.0
102
RTVSPost2010PropOp38
 70
     1
102
RTVSPost2010Prop39
140
1.0
102
RTVSPost2010PropOp39
 70
     1
102
RTVSPost2010Prop40
 90
        0
102
RTVSPost2010PropOp40
 70
     1
102
RTVSPost2010Prop41ColorIndex
 90
       18
102
RTVSPost2010Prop41ColorRGB
 90
        0
102
RTVSPost2010PropOp41
 70
     1
102
RTVSPost2010Prop42
 90
       50
102
RTVSPost2010PropOp42
 70
     1
102
RTVSPost2010Prop43
 90
        3
102
RTVSPost2010PropOp43
 70
     1
102
RTVSPost2010Prop44ColorIndex
 90
        5
102
RTVSPost2010Prop44ColorRGB
 90
      255
102
RTVSPost2010PropOp44
 70
     1
102
RTVSPost2010Prop45
280
     0
102
RTVSPost2010PropOp45
 70
     1
102
RTVSPost2010Prop46
 90
       50
102
RTVSPost2010PropOp46
 70
     1
102
RTVSPost2010Prop47
 90
       50
102
RTVSPost2010PropOp47
 70
     1
102
RTVSPost2010Prop48
 90
       50
102
RTVSPost2010PropOp48
 70
     1
102
RTVSPost2010Prop49
280
     0
102
RTVSPost2010PropOp49
 70
     1
102
RTVSPost2010Prop50
 90
       50
102
RTVSPost2010PropOp50
 70
     1
102
RTVSPost2010Prop51ColorIndex
 90
      256
102
RTVSPost2010Prop51ColorRGB
 90
-16777216
102
RTVSPost2010PropOp51
 70
     0
102
RTVSPost2010Prop52
140
1.0
102
RTVSPost2010PropOp52
 70
     0
102
RTVSPost2010Prop53
 90
        2
102
RTVSPost2010PropOp53
 70
     1
102
RTVSPost2010Prop54
  1
strokes_ogs.tif
102
RTVSPost2010PropOp54
 70
     1
102
RTVSPost2010Prop55
280
     0
102
RTVSPost2010PropOp55
 70
     1
102
RTVSPost2010Prop56
140
1.0
102
RTVSPost2010PropOp56
 70
     1
102
RTVSPost2010Prop57
140
1.0
102
RTVSPost2010PropOp57
 70
     1
  0
ENDSEC
  0
EOF
