  0
SECTION
  2
HEADER
  9
$ACADVER
  1
AC1021
  9
$ACADMAINTVER
 70
    25
  9
$DWGCODEPAGE
  3
ANSI_1252
  9
$LASTSAVEDBY
  1
User
  9
$INSBASE
 10
0.0
 20
0.0
 30
0.0
  9
$EXTMIN
 10
1.000000000000000E+20
 20
1.000000000000000E+20
 30
1.000000000000000E+20
  9
$EXTMAX
 10
-1.000000000000000E+20
 20
-1.000000000000000E+20
 30
-1.000000000000000E+20
  9
$LIMMIN
 10
0.0
 20
0.0
  9
$LIMMAX
 10
12.0
 20
9.0
  9
$ORTHOMODE
 70
     0
  9
$REGENMODE
 70
     1
  9
$FILLMODE
 70
     1
  9
$QTEXTMODE
 70
     0
  9
$MIRRTEXT
 70
     1
  9
$LTSCALE
 40
1.0
  9
$ATTMODE
 70
     1
  9
$TEXTSIZE
 40
0.2
  9
$TRACEWID
 40
0.05
  9
$TEXTSTYLE
  7
Standard
  9
$CLAYER
  8
Layer 01
  9
$CELTYPE
  6
ByLayer
  9
$CECOLOR
 62
   256
  9
$CELTSCALE
 40
1.0
  9
$DISPSILH
 70
     0
  9
$DIMSCALE
 40
1.0
  9
$DIMASZ
 40
0.18
  9
$DIMEXO
 40
0.0625
  9
$DIMDLI
 40
0.38
  9
$DIMRND
 40
0.0
  9
$DIMDLE
 40
0.0
  9
$DIMEXE
 40
0.18
  9
$DIMTP
 40
0.0
  9
$DIMTM
 40
0.0
  9
$DIMTXT
 40
0.18
  9
$DIMCEN
 40
0.09
  9
$DIMTSZ
 40
0.0
  9
$DIMTOL
 70
     0
  9
$DIMLIM
 70
     0
  9
$DIMTIH
 70
     1
  9
$DIMTOH
 70
     1
  9
$DIMSE1
 70
     0
  9
$DIMSE2
 70
     0
  9
$DIMTAD
 70
     0
  9
$DIMZIN
 70
     0
  9
$DIMBLK
  1

  9
$DIMASO
 70
     1
  9
$DIMSHO
 70
     1
  9
$DIMPOST
  1

  9
$DIMAPOST
  1

  9
$DIMALT
 70
     0
  9
$DIMALTD
 70
     2
  9
$DIMALTF
 40
25.4
  9
$DIMLFAC
 40
1.0
  9
$DIMTOFL
 70
     0
  9
$DIMTVP
 40
0.0
  9
$DIMTIX
 70
     0
  9
$DIMSOXD
 70
     0
  9
$DIMSAH
 70
     0
  9
$DIMBLK1
  1

  9
$DIMBLK2
  1

  9
$DIMSTYLE
  2
STANDARD_ACAD
  9
$DIMCLRD
 70
     0
  9
$DIMCLRE
 70
     0
  9
$DIMCLRT
 70
     0
  9
$DIMTFAC
 40
1.0
  9
$DIMGAP
 40
0.09
  9
$DIMJUST
 70
     0
  9
$DIMSD1
 70
     0
  9
$DIMSD2
 70
     0
  9
$DIMTOLJ
 70
     1
  9
$DIMTZIN
 70
     0
  9
$DIMALTZ
 70
     0
  9
$DIMALTTZ
 70
     0
  9
$DIMUPT
 70
     0
  9
$DIMDEC
 70
     4
  9
$DIMTDEC
 70
     4
  9
$DIMALTU
 70
     2
  9
$DIMALTTD
 70
     2
  9
$DIMTXSTY
  7
Standard
  9
$DIMAUNIT
 70
     0
  9
$DIMADEC
 70
     0
  9
$DIMALTRND
 40
0.0
  9
$DIMAZIN
 70
     0
  9
$DIMDSEP
 70
    46
  9
$DIMATFIT
 70
     3
  9
$DIMFRAC
 70
     0
  9
$DIMLDRBLK
  1

  9
$DIMLUNIT
 70
     2
  9
$DIMLWD
 70
    -2
  9
$DIMLWE
 70
    -2
  9
$DIMTMOVE
 70
     2
  9
$DIMFXL
 40
1.0
  9
$DIMFXLON
 70
     0
  9
$DIMJOGANG
 40
0.7853981633974483
  9
$DIMTFILL
 70
     0
  9
$DIMTFILLCLR
 70
     0
  9
$DIMARCSYM
 70
     0
  9
$DIMLTYPE
  6

  9
$DIMLTEX1
  6

  9
$DIMLTEX2
  6

  9
$LUNITS
 70
     2
  9
$LUPREC
 70
     3
  9
$SKETCHINC
 40
0.1
  9
$FILLETRAD
 40
0.0
  9
$AUNITS
 70
     0
  9
$AUPREC
 70
     0
  9
$MENU
  1
.
  9
$ELEVATION
 40
0.0
  9
$PELEVATION
 40
0.0
  9
$THICKNESS
 40
0.0
  9
$LIMCHECK
 70
     0
  9
$CHAMFERA
 40
0.0
  9
$CHAMFERB
 40
0.0
  9
$CHAMFERC
 40
0.0
  9
$CHAMFERD
 40
0.0
  9
$SKPOLY
 70
     0
  9
$TDCREATE
 40
2459359.838908866
  9
$TDUCREATE
 40
2459360.005575533
  9
$TDUPDATE
 40
2459359.838920336
  9
$TDUUPDATE
 40
2459360.005587002
  9
$TDINDWG
 40
0.0000000116
  9
$TDUSRTIMER
 40
0.0000000116
  9
$USRTIMER
 70
     1
  9
$ANGBASE
 50
0.0
  9
$ANGDIR
 70
     0
  9
$PDMODE
 70
     0
  9
$PDSIZE
 40
0.0
  9
$PLINEWID
 40
0.0
  9
$SPLFRAME
 70
     0
  9
$SPLINETYPE
 70
     6
  9
$SPLINESEGS
 70
     8
  9
$HANDSEED
  5
1E4
  9
$SURFTAB1
 70
     6
  9
$SURFTAB2
 70
     6
  9
$SURFTYPE
 70
     6
  9
$SURFU
 70
     6
  9
$SURFV
 70
     6
  9
$UCSBASE
  2

  9
$UCSNAME
  2

  9
$UCSORG
 10
0.0
 20
0.0
 30
0.0
  9
$UCSXDIR
 10
1.0
 20
0.0
 30
0.0
  9
$UCSYDIR
 10
0.0
 20
1.0
 30
0.0
  9
$UCSORTHOREF
  2

  9
$UCSORTHOVIEW
 70
     0
  9
$UCSORGTOP
 10
0.0
 20
0.0
 30
0.0
  9
$UCSORGBOTTOM
 10
0.0
 20
0.0
 30
0.0
  9
$UCSORGLEFT
 10
0.0
 20
0.0
 30
0.0
  9
$UCSORGRIGHT
 10
0.0
 20
0.0
 30
0.0
  9
$UCSORGFRONT
 10
0.0
 20
0.0
 30
0.0
  9
$UCSORGBACK
 10
0.0
 20
0.0
 30
0.0
  9
$PUCSBASE
  2

  9
$PUCSNAME
  2

  9
$PUCSORG
 10
0.0
 20
0.0
 30
0.0
  9
$PUCSXDIR
 10
1.0
 20
0.0
 30
0.0
  9
$PUCSYDIR
 10
0.0
 20
1.0
 30
0.0
  9
$PUCSORTHOREF
  2

  9
$PUCSORTHOVIEW
 70
     0
  9
$PUCSORGTOP
 10
0.0
 20
0.0
 30
0.0
  9
$PUCSORGBOTTOM
 10
0.0
 20
0.0
 30
0.0
  9
$PUCSORGLEFT
 10
0.0
 20
0.0
 30
0.0
  9
$PUCSORGRIGHT
 10
0.0
 20
0.0
 30
0.0
  9
$PUCSORGFRONT
 10
0.0
 20
0.0
 30
0.0
  9
$PUCSORGBACK
 10
0.0
 20
0.0
 30
0.0
  9
$USERI1
 70
     0
  9
$USERI2
 70
     0
  9
$USERI3
 70
     0
  9
$USERI4
 70
     0
  9
$USERI5
 70
     0
  9
$USERR1
 40
0.0
  9
$USERR2
 40
0.0
  9
$USERR3
 40
0.0
  9
$USERR4
 40
0.0
  9
$USERR5
 40
0.0
  9
$WORLDVIEW
 70
     1
  9
$SHADEDGE
 70
     3
  9
$SHADEDIF
 70
    70
  9
$TILEMODE
 70
     1
  9
$MAXACTVP
 70
    64
  9
$PINSBASE
 10
0.0
 20
0.0
 30
0.0
  9
$PLIMCHECK
 70
     0
  9
$PEXTMIN
 10
1.000000000000000E+20
 20
1.000000000000000E+20
 30
1.000000000000000E+20
  9
$PEXTMAX
 10
-1.000000000000000E+20
 20
-1.000000000000000E+20
 30
-1.000000000000000E+20
  9
$PLIMMIN
 10
0.0
 20
0.0
  9
$PLIMMAX
 10
12.0
 20
9.0
  9
$UNITMODE
 70
     0
  9
$VISRETAIN
 70
     1
  9
$PLINEGEN
 70
     0
  9
$PSLTSCALE
 70
     1
  9
$TREEDEPTH
 70
  3020
  9
$CMLSTYLE
  2
Standard
  9
$CMLJUST
 70
     0
  9
$CMLSCALE
 40
1.0
  9
$PROXYGRAPHICS
 70
     1
  9
$MEASUREMENT
 70
     0
  9
$CELWEIGHT
370
    -1
  9
$ENDCAPS
280
     0
  9
$JOINSTYLE
280
     0
  9
$LWDISPLAY
290
     0
  9
$INSUNITS
 70
     1
  9
$HYPERLINKBASE
  1

  9
$STYLESHEET
  1

  9
$XEDIT
290
     1
  9
$CEPSNTYPE
380
     0
  9
$PSTYLEMODE
290
     1
  9
$FINGERPRINTGUID
  2
{830b36b9-dee0-4d90-b2ec-cc6d53a268a9}
  9
$VERSIONGUID
  2
{FAEB1C32-E019-11D5-929B-00C0DF256EC4}
  9
$EXTNAMES
290
     1
  9
$PSVPSCALE
 40
0.0
  9
$OLESTARTUP
290
     0
  9
$SORTENTS
280
   127
  9
$INDEXCTL
280
     0
  9
$HIDETEXT
280
     1
  9
$XCLIPFRAME
290
     0
  9
$HALOGAP
280
     0
  9
$OBSCOLOR
 70
   257
  9
$OBSLTYPE
280
     0
  9
$INTERSECTIONDISPLAY
280
     0
  9
$INTERSECTIONCOLOR
 70
   257
  9
$DIMASSOC
280
     2
  9
$PROJECTNAME
  1

  9
$CAMERADISPLAY
290
     0
  9
$LENSLENGTH
 40
50.0
  9
$CAMERAHEIGHT
 40
0.0
  9
$STEPSPERSEC
 40
2.0
  9
$STEPSIZE
 40
6.0
  9
$3DDWFPREC
 40
2.0
  9
$PSOLWIDTH
 40
0.25
  9
$PSOLHEIGHT
 40
4.0
  9
$LOFTANG1
 40
1.570796326794897
  9
$LOFTANG2
 40
1.570796326794897
  9
$LOFTMAG1
 40
0.0
  9
$LOFTMAG2
 40
0.0
  9
$LOFTPARAM
 70
     7
  9
$LOFTNORMALS
280
     1
  9
$LATITUDE
 40
37.795
  9
$LONGITUDE
 40
-122.394
  9
$NORTHDIRECTION
 40
0.0
  9
$TIMEZONE
 70
 -8000
  9
$LIGHTGLYPHDISPLAY
280
     1
  9
$TILEMODELIGHTSYNCH
280
     1
  9
$CMATERIAL
347
44
  9
$SOLIDHIST
280
     0
  9
$SHOWHIST
280
     1
  9
$DWFFRAME
280
     2
  9
$DGNFRAME
280
     2
  9
$REALWORLDSCALE
290
     1
  9
$INTERFERECOLOR
 62
   256
  9
$CSHADOW
280
     0
  9
$SHADOWPLANELOCATION
 40
0.0
  0
ENDSEC
  0
SECTION
  2
CLASSES
  0
CLASS
  1
ACDBDICTIONARYWDFLT
  2
AcDbDictionaryWithDefault
  3
ObjectDBX Classes
 90
        0
 91
        3
280
     0
281
     0
  0
CLASS
  1
VISUALSTYLE
  2
AcDbVisualStyle
  3
ObjectDBX Classes
 90
     4095
 91
        3
280
     0
281
     0
  0
CLASS
  1
MATERIAL
  2
AcDbMaterial
  3
ObjectDBX Classes
 90
     1153
 91
        3
280
     0
281
     0
  0
CLASS
  1
SCALE
  2
AcDbScale
  3
ObjectDBX Classes
 90
     1153
 91
        3
280
     0
281
     0
  0
CLASS
  1
TABLESTYLE
  2
AcDbTableStyle
  3
ObjectDBX Classes
 90
     4095
 91
        3
280
     0
281
     0
  0
CLASS
  1
MLEADERSTYLE
  2
AcDbMLeaderStyle
  3
ACDB_MLEADERSTYLE_CLASS
 90
     4095
 91
        3
280
     0
281
     0
  0
CLASS
  1
SUN
  2
AcDbSun
  3
SCENEOE
 90
     1153
 91
        3
280
     0
281
     0
  0
CLASS
  1
DICTIONARYVAR
  2
AcDbDictionaryVar
  3
ObjectDBX Classes
 90
        0
 91
        3
280
     0
281
     0
  0
CLASS
  1
CELLSTYLEMAP
  2
AcDbCellStyleMap
  3
ObjectDBX Classes
 90
     1152
 91
        3
280
     0
281
     0
  0
ENDSEC
  0
SECTION
  2
TABLES
  0
TABLE
  2
VPORT
  5
8
330
0
100
AcDbSymbolTable
 70
     1
  0
VPORT
  5
29
330
8
100
AcDbSymbolTableRecord
100
AcDbViewportTableRecord
  2
*Active
 70
     0
 10
0.0
 20
0.0
 11
1.0
 21
1.0
 12
10.42990654205607
 22
4.5
 13
0.0
 23
0.0
 14
0.5
 24
0.5
 15
0.5
 25
0.5
 16
0.0
 26
0.0
 36
1.0
 17
0.0
 27
0.0
 37
0.0
 40
9.0
 41
1.972972972850329
 42
50.0
 43
0.0
 44
0.0
 50
0.0
 51
0.0
 71
     0
 72
   100
 73
     1
 74
     3
 75
     0
 76
     0
 77
     0
 78
     0
281
     0
 65
     1
110
0.0
120
0.0
130
0.0
111
1.0
121
0.0
131
0.0
112
0.0
122
1.0
132
0.0
 79
     0
146
0.0
348
2F
 60
     3
 61
     5
292
     1
282
     1
141
0.0
142
0.0
 63
   250
361
5D
  0
ENDTAB
  0
TABLE
  2
LTYPE
  5
5
330
0
100
AcDbSymbolTable
 70
     1
  0
LTYPE
  5
14
330
5
100
AcDbSymbolTableRecord
100
AcDbLinetypeTableRecord
  2
ByBlock
 70
     0
  3

 72
    65
 73
     0
 40
0.0
  0
LTYPE
  5
15
330
5
100
AcDbSymbolTableRecord
100
AcDbLinetypeTableRecord
  2
ByLayer
 70
     0
  3

 72
    65
 73
     0
 40
0.0
  0
LTYPE
  5
16
330
5
100
AcDbSymbolTableRecord
100
AcDbLinetypeTableRecord
  2
Continuous
 70
     0
  3
Solid line
 72
    65
 73
     0
 40
0.0
  0
ENDTAB
  0
TABLE
  2
LAYER
  5
2
330
0
100
AcDbSymbolTable
 70
     4
  0
LAYER
  5
10
330
2
100
AcDbSymbolTableRecord
100
AcDbLayerTableRecord
  2
0
 70
     0
 62
    18
420
        0
  6
Continuous
370
    -3
390
F
347
46
  0
LAYER
  5
60
330
2
100
AcDbSymbolTableRecord
100
AcDbLayerTableRecord
  2
Make2D$Visible$Curves
 70
     0
 62
    18
420
        0
  6
Continuous
370
    -3
390
F
347
46
  0
LAYER
  5
63
330
2
100
AcDbSymbolTableRecord
100
AcDbLayerTableRecord
  2
Layer 01
 70
     0
 62
    18
420
        0
  6
Continuous
370
    -3
390
F
347
46
  0
LAYER
  5
86
330
2
100
AcDbSymbolTableRecord
100
AcDbLayerTableRecord
  2
Make2D$Visible$Tangents
 70
     0
 62
    18
420
        0
  6
Continuous
370
    -3
390
F
347
46
  0
ENDTAB
  0
TABLE
  2
STYLE
  5
3
330
0
100
AcDbSymbolTable
 70
     1
  0
STYLE
  5
11
330
3
100
AcDbSymbolTableRecord
100
AcDbTextStyleTableRecord
  2
Standard
 70
     0
 40
0.0
 41
1.0
 50
0.0
 71
     0
 42
0.2
  3
txt
  4

  0
ENDTAB
  0
TABLE
  2
VIEW
  5
6
330
0
100
AcDbSymbolTable
 70
     0
  0
ENDTAB
  0
TABLE
  2
UCS
  5
7
330
0
100
AcDbSymbolTable
 70
     0
  0
ENDTAB
  0
TABLE
  2
APPID
  5
9
330
0
100
AcDbSymbolTable
 70
     3
  0
APPID
  5
12
330
9
100
AcDbSymbolTableRecord
100
AcDbRegAppTableRecord
  2
ACAD
 70
     0
  0
APPID
  5
5E
330
9
100
AcDbSymbolTableRecord
100
AcDbRegAppTableRecord
  2
Rhino
 70
     0
  0
APPID
  5
1DC
330
9
100
AcDbSymbolTableRecord
100
AcDbRegAppTableRecord
  2
ACAD_MLEADERVER
 70
     0
  0
ENDTAB
  0
TABLE
  2
DIMSTYLE
  5
A
330
0
100
AcDbSymbolTable
 70
     1
100
AcDbDimStyleTable
  0
DIMSTYLE
105
27
330
A
100
AcDbSymbolTableRecord
100
AcDbDimStyleTableRecord
  2
STANDARD_ACAD
 70
     0
178
     0
340
11
  0
ENDTAB
  0
TABLE
  2
BLOCK_RECORD
  5
1
330
0
100
AcDbSymbolTable
 70
     1
  0
BLOCK_RECORD
  5
1F
330
1
100
AcDbSymbolTableRecord
100
AcDbBlockTableRecord
  2
*Model_Space
340
22
 70
     0
280
     1
281
     0
  0
BLOCK_RECORD
  5
1B
330
1
100
AcDbSymbolTableRecord
100
AcDbBlockTableRecord
  2
*Paper_Space
340
1E
 70
     0
280
     1
281
     0
  0
BLOCK_RECORD
  5
23
330
1
100
AcDbSymbolTableRecord
100
AcDbBlockTableRecord
  2
*Paper_Space0
340
26
 70
     0
280
     1
281
     0
  0
ENDTAB
  0
ENDSEC
  0
SECTION
  2
BLOCKS
  0
BLOCK
  5
20
330
1F
100
AcDbEntity
  8
0
100
AcDbBlockBegin
  2
*Model_Space
 70
     0
 10
0.0
 20
0.0
 30
0.0
  3
*Model_Space
  1

  0
ENDBLK
  5
21
330
1F
100
AcDbEntity
  8
0
100
AcDbBlockEnd
  0
BLOCK
  5
1C
330
1B
100
AcDbEntity
 67
     1
  8
0
100
AcDbBlockBegin
  2
*Paper_Space
 70
     0
 10
0.0
 20
0.0
 30
0.0
  3
*Paper_Space
  1

  0
ENDBLK
  5
1D
330
1B
100
AcDbEntity
 67
     1
  8
0
100
AcDbBlockEnd
  0
BLOCK
  5
24
330
23
100
AcDbEntity
  8
0
100
AcDbBlockBegin
  2
*Paper_Space0
 70
     0
 10
0.0
 20
0.0
 30
0.0
  3
*Paper_Space0
  1

  0
ENDBLK
  5
25
330
23
100
AcDbEntity
  8
0
100
AcDbBlockEnd
  0
ENDSEC
  0
SECTION
  2
ENTITIES
  0
SPLINE
  5
5F
330
1F
100
AcDbEntity
  8
0
370
    -3
100
AcDbSpline
210
0.0
220
0.0
230
1.0
 70
     8
 71
     2
 72
     6
 73
     3
 74
     0
 42
0.0000000001
 43
0.0000000001
 40
39.98551103494228
 40
39.98551103494228
 40
39.98551103494228
 40
40.47018579450346
 40
40.47018579450346
 40
40.47018579450346
 10
-8.679114671754444
 20
68.39085836360019
 30
0.0
 10
-8.464049676739702
 20
68.21449335520825
 30
0.0
 10
-8.234308794890126
 20
68.05563118266505
 30
0.0
  0
SPLINE
  5
61
330
1F
100
AcDbEntity
  8
Make2D$Visible$Curves
 62
    18
420
        0
370
    -3
100
AcDbSpline
210
0.0
220
0.0
230
1.0
 70
     8
 71
     2
 72
    14
 73
    11
 74
     0
 42
0.0000000001
 43
0.0000000001
 40
0.0
 40
0.0
 40
0.0
 40
1.0
 40
1.0
 40
2.000080470484487
 40
3.000160940968974
 40
4.000241411453461
 40
5.000321881937949
 40
6.0
 40
6.0
 40
30.78563764371928
 40
30.78563764371928
 40
30.78563764371928
 10
-9.987457067802595
 20
70.85689002604349
 30
0.0
 10
-9.988981526189392
 20
71.34435666714062
 30
0.0
 10
-9.978059842739256
 20
71.83166997033776
 30
0.0
 10
-9.979632839361855
 20
71.93353355920375
 30
0.0
 10
-9.873512620756955
 20
72.109149717553
 30
0.0
 10
-9.682178179033457
 20
72.18483092631747
 30
0.0
 10
-9.484141398081363
 20
72.1323500545447
 30
0.0
 10
-9.352392773988015
 20
71.97435356809119
 30
0.0
 10
-9.349060789711828
 20
71.87127407975292
 30
0.0
 10
-9.230859552779602
 20
70.44392951668252
 30
0.0
 10
-9.112658315847376
 20
69.01658495361212
 30
0.0
  0
SPLINE
  5
62
330
1F
100
AcDbEntity
  8
Make2D$Visible$Curves
 62
    18
420
        0
370
    -3
100
AcDbSpline
210
0.0
220
0.0
230
1.0
 70
    24
 71
     2
 72
     6
 73
     3
 74
     0
 42
0.0000000001
 43
0.0000000001
 40
6.256045384342064
 40
6.256045384342064
 40
6.256045384342064
 40
14.65050435659224
 40
14.65050435659224
 40
14.65050435659224
 10
-9.372027569037385
 20
65.54166450788082
 30
0.0
 10
-9.372027569037341
 20
61.40296357836779
 30
0.0
 10
-9.372027569037297
 20
57.26426264885475
 30
0.0
  0
SPLINE
  5
64
330
1F
100
AcDbEntity
  8
Layer 01
100
AcDbSpline
210
0.0
220
0.0
230
1.0
 70
    12
 71
     2
 72
     6
 73
     3
 74
     0
 42
0.0000000001
 43
0.0000000001
 40
12.7507195492091
 40
12.7507195492091
 40
12.7507195492091
 40
12.81930741855074
 40
12.81930741855074
 40
12.81930741855074
 10
-9.97078235594867
 20
56.05881119261792
 30
0.0
 41
1.0
 10
-9.963962750994915
 20
56.02519419717305
 30
0.0
 41
0.9996586938545237
 10
-9.955396591733232
 20
55.99197928621473
 30
0.0
 41
1.0
  0
SPLINE
  5
65
330
1F
100
AcDbEntity
  8
Layer 01
100
AcDbSpline
210
0.0
220
0.0
230
1.0
 70
    24
 71
     2
 72
     6
 73
     3
 74
     0
 42
0.0000000001
 43
0.0000000001
 40
9.739083242076621
 40
9.739083242076621
 40
9.739083242076621
 40
11.43438919348644
 40
11.43438919348644
 40
11.43438919348644
 10
-9.996984123932762
 20
59.06869710439987
 30
0.0
 10
-9.996984123932762
 20
58.22104412869496
 30
0.0
 10
-9.996984123932762
 20
57.37339115299005
 30
0.0
  0
SPLINE
  5
66
330
1F
100
AcDbEntity
  8
Layer 01
100
AcDbSpline
210
0.0
220
0.0
230
1.0
 70
    24
 71
     2
 72
     6
 73
     3
 74
     0
 42
0.0000000001
 43
0.0000000001
 40
0.0
 40
0.0
 40
0.0
 40
1.912526865838575
 40
1.912526865838575
 40
1.912526865838575
 10
-9.996984123932762
 20
68.80778034647649
 30
0.0
 10
-9.996984123932762
 20
67.85151691355719
 30
0.0
 10
-9.996984123932762
 20
66.8952534806379
 30
0.0
  0
POLYLINE
  5
67
330
1F
100
AcDbEntity
  8
Layer 01
100
AcDb2dPolyline
 66
     1
 10
0.0
 20
0.0
 30
0.0
  0
VERTEX
  5
68
330
67
100
AcDbEntity
  8
Layer 01
100
AcDbVertex
100
AcDb2dVertex
 10
-9.182135612808821
 20
55.87449372561095
 30
0.0
  0
VERTEX
  5
69
330
67
100
AcDbEntity
  8
Layer 01
100
AcDbVertex
100
AcDb2dVertex
 10
-8.759330443981227
 20
54.25196522032876
 30
0.0
  0
VERTEX
  5
6A
330
67
100
AcDbEntity
  8
Layer 01
100
AcDbVertex
100
AcDb2dVertex
 10
-8.891047379300389
 20
54.21764187815403
 30
0.0
  0
VERTEX
  5
6B
330
67
100
AcDbEntity
  8
Layer 01
100
AcDbVertex
100
AcDb2dVertex
 10
-9.33063351651227
 20
55.90456789216401
 30
0.0
  0
SEQEND
  5
6C
330
67
100
AcDbEntity
  8
Layer 01
  0
SPLINE
  5
6D
330
1F
100
AcDbEntity
  8
0
370
    -3
100
AcDbSpline
210
0.0
220
0.0
230
1.0
 70
     8
 71
     2
 72
     7
 73
     4
 74
     0
 42
0.0000000001
 43
0.0000000001
 40
6.709107560739392
 40
6.709107560739392
 40
6.709107560739392
 40
7.0
 40
8.0
 40
8.0
 40
8.0
 10
-9.561691920262952
 20
68.34238819801291
 30
0.0
 10
-9.586996483817313
 20
68.36933572482789
 30
0.0
 10
-9.696486091417313
 20
68.49263171384217
 30
0.0
 10
-9.724738775135535
 20
68.6182587766358
 30
0.0
  0
SPLINE
  5
6E
330
1F
100
AcDbEntity
  8
0
370
    -3
100
AcDbSpline
210
0.0
220
0.0
230
1.0
 70
     8
 71
     2
 72
     9
 73
     6
 74
     0
 42
0.0000000001
 43
0.0000000001
 40
0.0
 40
0.0
 40
0.0
 40
1.0
 40
2.0
 40
3.0
 40
3.495953071207467
 40
3.495953071207467
 40
3.495953071207467
 10
-8.234072337979825
 20
67.29805492586866
 30
0.0
 10
-8.34009976339945
 20
67.36631523772036
 30
0.0
 10
-8.54846329517352
 20
67.50840624255571
 30
0.0
 10
-8.752987727667175
 20
67.6559686082017
 30
0.0
 10
-8.902994148408979
 20
67.77035404563773
 30
0.0
 10
-8.952213943194202
 20
67.80892530627314
 30
0.0
  0
SPLINE
  5
6F
330
1F
100
AcDbEntity
  8
0
370
    -3
100
AcDbSpline
210
0.0
220
0.0
230
1.0
 70
     8
 71
     2
 72
     7
 73
     4
 74
     0
 42
0.0000000001
 43
0.0000000001
 40
6.709107560739358
 40
6.709107560739358
 40
6.709107560739358
 40
7.0
 40
8.0
 40
8.0
 40
8.0
 10
9.561701755479334
 20
68.34238819801291
 30
0.0
 10
9.587006319033698
 20
68.36933572482789
 30
0.0
 10
9.696495926633702
 20
68.49263171384217
 30
0.0
 10
9.724748610351924
 20
68.6182587766358
 30
0.0
  0
SPLINE
  5
70
330
1F
100
AcDbEntity
  8
0
370
    -3
100
AcDbSpline
210
0.0
220
0.0
230
1.0
 70
     8
 71
     2
 72
     9
 73
     6
 74
     0
 42
0.0000000001
 43
0.0000000001
 40
0.0
 40
0.0
 40
0.0
 40
1.0
 40
2.0
 40
3.0
 40
3.495953071207516
 40
3.495953071207516
 40
3.495953071207516
 10
8.234082173196214
 20
67.29805492586866
 30
0.0
 10
8.34010959861584
 20
67.36631523772036
 30
0.0
 10
8.548473130389908
 20
67.50840624255571
 30
0.0
 10
8.752997562883564
 20
67.6559686082017
 30
0.0
 10
8.903003983625371
 20
67.77035404563773
 30
0.0
 10
8.952223778410598
 20
67.80892530627315
 30
0.0
  0
POLYLINE
  5
71
330
1F
100
AcDbEntity
  8
Layer 01
100
AcDb2dPolyline
 66
     1
 10
0.0
 20
0.0
 30
0.0
  0
VERTEX
  5
72
330
71
100
AcDbEntity
  8
Layer 01
100
AcDbVertex
100
AcDb2dVertex
 10
9.182145448025208
 20
55.87449372561095
 30
0.0
  0
VERTEX
  5
73
330
71
100
AcDbEntity
  8
Layer 01
100
AcDbVertex
100
AcDb2dVertex
 10
8.759340279197616
 20
54.25196522032876
 30
0.0
  0
VERTEX
  5
74
330
71
100
AcDbEntity
  8
Layer 01
100
AcDbVertex
100
AcDb2dVertex
 10
8.891057214516778
 20
54.21764187815403
 30
0.0
  0
VERTEX
  5
75
330
71
100
AcDbEntity
  8
Layer 01
100
AcDbVertex
100
AcDb2dVertex
 10
9.33064335172866
 20
55.904567892164
 30
0.0
  0
SEQEND
  5
76
330
71
100
AcDbEntity
  8
Layer 01
  0
SPLINE
  5
77
330
1F
100
AcDbEntity
  8
Layer 01
100
AcDbSpline
210
0.0
220
0.0
230
1.0
 70
    12
 71
     2
 72
     6
 73
     3
 74
     0
 42
0.0000000001
 43
0.0000000001
 40
12.75071954920907
 40
12.75071954920907
 40
12.75071954920907
 40
12.81930741855074
 40
12.81930741855074
 40
12.81930741855074
 10
9.970792191165064
 20
56.05881119261795
 30
0.0
 41
1.0
 10
9.963972586211309
 20
56.02519419717307
 30
0.0
 41
0.9996586938545233
 10
9.95540642694962
 20
55.99197928621473
 30
0.0
 41
1.0
  0
SPLINE
  5
78
330
1F
100
AcDbEntity
  8
Layer 01
100
AcDbSpline
210
0.0
220
0.0
230
1.0
 70
    24
 71
     2
 72
     6
 73
     3
 74
     0
 42
0.0000000001
 43
0.0000000001
 40
9.739083242076571
 40
9.739083242076571
 40
9.739083242076571
 40
11.43438919348644
 40
11.43438919348644
 40
11.43438919348644
 10
9.996993959149151
 20
59.06869710439992
 30
0.0
 10
9.996993959149151
 20
58.22104412869499
 30
0.0
 10
9.996993959149151
 20
57.37339115299006
 30
0.0
  0
SPLINE
  5
79
330
1F
100
AcDbEntity
  8
Layer 01
100
AcDbSpline
210
0.0
220
0.0
230
1.0
 70
    24
 71
     2
 72
     6
 73
     3
 74
     0
 42
0.0000000001
 43
0.0000000001
 40
0.0
 40
0.0
 40
0.0
 40
1.912526865838598
 40
1.912526865838598
 40
1.912526865838598
 10
9.996993959149151
 20
68.80778034647649
 30
0.0
 10
9.996993959149151
 20
67.85151691355719
 30
0.0
 10
9.996993959149151
 20
66.89525348063789
 30
0.0
  0
SPLINE
  5
7A
330
1F
100
AcDbEntity
  8
Make2D$Visible$Curves
 62
    18
420
        0
370
    -3
100
AcDbSpline
210
0.0
220
0.0
230
1.0
 70
    24
 71
     2
 72
     6
 73
     3
 74
     0
 42
0.0000000001
 43
0.0000000001
 40
6.256045384342078
 40
6.256045384342078
 40
6.256045384342078
 40
14.65050435659224
 40
14.65050435659224
 40
14.65050435659224
 10
9.372037404253774
 20
65.54166450788081
 30
0.0
 10
9.37203740425373
 20
61.40296357836778
 30
0.0
 10
9.372037404253685
 20
57.26426264885475
 30
0.0
  0
SPLINE
  5
7B
330
1F
100
AcDbEntity
  8
Make2D$Visible$Curves
 62
    18
420
        0
370
    -3
100
AcDbSpline
210
0.0
220
0.0
230
1.0
 70
     8
 71
     2
 72
    14
 73
    11
 74
     0
 42
0.0000000001
 43
0.0000000001
 40
0.0
 40
0.0
 40
0.0
 40
1.0
 40
1.0
 40
2.000080470484487
 40
3.000160940968974
 40
4.000241411453461
 40
5.000321881937949
 40
6.0
 40
6.0
 40
30.78563764371927
 40
30.78563764371927
 40
30.78563764371927
 10
9.987466903018984
 20
70.85689002604349
 30
0.0
 10
9.98899136140578
 20
71.34435666714062
 30
0.0
 10
9.978069677955645
 20
71.83166997033776
 30
0.0
 10
9.979642674578244
 20
71.93353355920375
 30
0.0
 10
9.873522455973344
 20
72.109149717553
 30
0.0
 10
9.682188014249846
 20
72.18483092631747
 30
0.0
 10
9.484151233297752
 20
72.1323500545447
 30
0.0
 10
9.352402609204404
 20
71.97435356809119
 30
0.0
 10
9.349070624928217
 20
71.87127407975292
 30
0.0
 10
9.230869387995991
 20
70.44392951668253
 30
0.0
 10
9.112668151063765
 20
69.01658495361214
 30
0.0
  0
SPLINE
  5
7C
330
1F
100
AcDbEntity
  8
0
370
    -3
100
AcDbSpline
210
0.0
220
0.0
230
1.0
 70
     8
 71
     2
 72
     6
 73
     3
 74
     0
 42
0.0000000001
 43
0.0000000001
 40
39.98551103494229
 40
39.98551103494229
 40
39.98551103494229
 40
40.47018579450346
 40
40.47018579450346
 40
40.47018579450346
 10
8.67912450697082
 20
68.39085836360016
 30
0.0
 10
8.464059511956084
 20
68.21449335520825
 30
0.0
 10
8.234318630106515
 20
68.05563118266505
 30
0.0
  0
SPLINE
  5
7D
330
1F
100
AcDbEntity
  8
0
370
    -3
100
AcDbSpline
210
0.0
220
0.0
230
1.0
 70
    12
 71
     2
 72
    14
 73
    11
 74
     0
 42
0.0000000001
 43
0.0000000001
 40
24.52130949556685
 40
24.52130949556685
 40
24.52130949556685
 40
26.19901305795608
 40
26.19901305795608
 40
27.19901305795608
 40
28.19901305795608
 40
29.19901305795608
 40
30.19901305795608
 40
31.19901305795608
 40
32.19901305795608
 40
32.87272968863069
 40
32.87272968863069
 40
32.87272968863069
 10
-8.60200722342777
 20
53.2928653811191
 30
0.0
 41
0.9446682392080946
 10
-8.628720659648293
 20
53.24728377022878
 30
0.0
 41
0.9446682392080946
 10
-8.655434095868756
 20
53.2017021593385
 30
0.0
 41
0.9446682392080945
 10
-8.72552419516228
 20
53.10676415852412
 30
0.0
 41
1.0
 10
-8.956060623109451
 20
53.05365132518276
 30
0.0
 41
1.0
 10
-9.164205920119514
 20
53.16711682929469
 30
0.0
 41
1.0
 10
-9.259010722319502
 20
53.37857481203572
 30
0.0
 41
1.0
 10
-9.324899259779912
 20
53.59517305893286
 30
0.0
 41
1.0
 10
-9.388014331080853
 20
53.81328604407629
 30
0.0
 41
1.0
 10
-9.43803735829394
 20
53.99650321579676
 30
0.0
 41
1.0
 10
-9.457674387328012
 20
54.07039136437353
 30
0.0
 41
1.0
  0
POLYLINE
  5
7E
330
1F
100
AcDbEntity
  8
Layer 01
100
AcDb2dPolyline
 66
     1
 10
0.0
 20
0.0
 30
0.0
  0
VERTEX
  5
7F
330
7E
100
AcDbEntity
  8
Layer 01
100
AcDbVertex
100
AcDb2dVertex
 10
-8.853974684970794
 20
54.22730243372139
 30
0.0
  0
VERTEX
  5
80
330
7E
100
AcDbEntity
  8
Layer 01
100
AcDbVertex
100
AcDb2dVertex
 10
-8.830146533015352
 20
54.13933169104507
 30
0.0
  0
SEQEND
  5
81
330
7E
100
AcDbEntity
  8
Layer 01
  0
POLYLINE
  5
82
330
1F
100
AcDbEntity
  8
0
100
AcDb2dPolyline
 66
     1
 10
0.0
 20
0.0
 30
0.0
  0
VERTEX
  5
83
330
82
100
AcDbEntity
  8
0
100
AcDbVertex
100
AcDb2dVertex
 10
-9.199186502090441
 20
53.50681629142804
 30
0.0
  0
VERTEX
  5
84
330
82
100
AcDbEntity
  8
0
100
AcDbVertex
100
AcDb2dVertex
 10
-8.248900792385427
 20
55.13555679596163
 30
0.0
  0
SEQEND
  5
85
330
82
100
AcDbEntity
  8
0
  0
SPLINE
  5
87
330
1F
100
AcDbEntity
  8
Make2D$Visible$Tangents
 62
    18
420
        0
370
    -3
100
AcDbSpline
210
0.0
220
0.0
230
1.0
 70
    12
 71
     2
 72
     6
 73
     3
 74
     0
 42
0.0000000001
 43
0.0000000001
 40
2.205491535103798
 40
2.205491535103798
 40
2.205491535103798
 40
2.209493989490358
 40
2.209493989490358
 40
2.209493989490358
 10
-9.199186502090432
 20
53.50681629142803
 30
0.0
 41
0.8535821724121411
 10
-9.198137254410398
 20
53.50864309551536
 30
0.0
 41
0.8535486924262248
 10
-9.197063375574096
 20
53.51045552956681
 30
0.0
 41
0.8535541574931605
  0
POLYLINE
  5
88
330
1F
100
AcDbEntity
  8
Layer 01
100
AcDb2dPolyline
 66
     1
 10
0.0
 20
0.0
 30
0.0
 70
     1
  0
VERTEX
  5
89
330
88
100
AcDbEntity
  8
Layer 01
100
AcDbVertex
100
AcDb2dVertex
 10
-10.04865167575799
 20
55.96774489772884
 30
0.0
  0
VERTEX
  5
8A
330
88
100
AcDbEntity
  8
Layer 01
100
AcDbVertex
100
AcDb2dVertex
 10
-9.549388761188851
 20
54.04655736338039
 30
0.0
  0
VERTEX
  5
8B
330
88
100
AcDbEntity
  8
Layer 01
100
AcDbVertex
100
AcDb2dVertex
 10
-9.418930223432966
 20
54.0804598890974
 30
0.0
  0
VERTEX
  5
8C
330
88
100
AcDbEntity
  8
Layer 01
100
AcDbVertex
100
AcDb2dVertex
 10
-9.91819313800211
 20
56.00164742344585
 30
0.0
  0
SEQEND
  5
8D
330
88
100
AcDbEntity
  8
Layer 01
  0
LINE
  5
8E
330
1F
100
AcDbEntity
  8
0
100
AcDbLine
 10
-8.783651056646619
 20
53.2928653811191
 30
0.0
 11
-8.24919917018778
 21
53.2928653811191
 31
0.0
  0
SPLINE
  5
8F
330
1F
100
AcDbEntity
  8
0
370
    -3
100
AcDbSpline
210
0.0
220
0.0
230
1.0
 70
     8
 71
     2
 72
     7
 73
     4
 74
     0
 42
0.0000000001
 43
0.0000000001
 40
15.5214087760171
 40
15.5214087760171
 40
15.5214087760171
 40
16.5214087760171
 40
17.5214087760171
 40
17.5214087760171
 40
17.5214087760171
 10
-8.511090793405458
 20
53.45192929846183
 30
0.0
 10
-8.556087499647248
 20
53.38162190132931
 30
0.0
 10
-8.700383626454965
 20
53.29776647436989
 30
0.0
 10
-8.783651056646619
 20
53.2928653811191
 30
0.0
  0
SPLINE
  5
90
330
1F
100
AcDbEntity
  8
0
370
    -3
100
AcDbSpline
210
0.0
220
0.0
230
1.0
 70
    28
 71
     2
 72
     6
 73
     3
 74
     0
 42
0.0000000001
 43
0.0000000001
 40
7.246203453588252
 40
7.246203453588252
 40
7.246203453588252
 40
15.5214087760171
 40
15.5214087760171
 40
15.5214087760171
 10
-8.24758645598835
 20
53.90160084905062
 30
0.0
 41
0.9446682392080945
 10
-8.379338624696889
 20
53.67676507375623
 30
0.0
 41
0.9446682392080945
 10
-8.51109079340546
 20
53.45192929846183
 30
0.0
 41
0.9446682392080945
  0
POLYLINE
  5
91
330
1F
100
AcDbEntity
  8
Make2D$Visible$Curves
 62
    18
420
        0
370
    -3
100
AcDb2dPolyline
 66
     1
 10
0.0
 20
0.0
 30
0.0
  0
VERTEX
  5
92
330
91
100
AcDbEntity
  8
Make2D$Visible$Curves
 62
    18
420
        0
370
    -3
100
AcDbVertex
100
AcDb2dVertex
 10
-9.724738775135535
 20
68.61825877663581
 30
0.0
  0
VERTEX
  5
93
330
91
100
AcDbEntity
  8
Make2D$Visible$Curves
 62
    18
420
        0
370
    -3
100
AcDbVertex
100
AcDb2dVertex
 10
-9.968086570577853
 20
71.5434406729315
 30
0.0
  0
SEQEND
  5
94
330
91
100
AcDbEntity
  8
Make2D$Visible$Curves
 62
    18
420
        0
370
    -3
  0
POLYLINE
  5
95
330
1F
100
AcDbEntity
  8
Layer 01
100
AcDb2dPolyline
 66
     1
 10
0.0
 20
0.0
 30
0.0
 70
     1
  0
VERTEX
  5
96
330
95
100
AcDbEntity
  8
Layer 01
100
AcDbVertex
100
AcDb2dVertex
 10
-10.09004979046297
 20
68.75613619612349
 30
0.0
  0
VERTEX
  5
97
330
95
100
AcDbEntity
  8
Layer 01
100
AcDbVertex
100
AcDb2dVertex
 10
-9.955258057321089
 20
68.75613619612349
 30
0.0
  0
VERTEX
  5
98
330
95
100
AcDbEntity
  8
Layer 01
100
AcDbVertex
100
AcDb2dVertex
 10
-9.955258057321089
 20
70.74113619612349
 30
0.0
  0
VERTEX
  5
99
330
95
100
AcDbEntity
  8
Layer 01
100
AcDbVertex
100
AcDb2dVertex
 10
-10.09004979046297
 20
70.74113619612349
 30
0.0
  0
SEQEND
  5
9A
330
95
100
AcDbEntity
  8
Layer 01
  0
POLYLINE
  5
9B
330
1F
100
AcDbEntity
  8
Layer 01
100
AcDb2dPolyline
 66
     1
 10
0.0
 20
0.0
 30
0.0
 70
     1
  0
VERTEX
  5
9C
330
9B
100
AcDbEntity
  8
Layer 01
100
AcDbVertex
100
AcDb2dVertex
 10
10.09005962567936
 20
68.75613619612349
 30
0.0
  0
VERTEX
  5
9D
330
9B
100
AcDbEntity
  8
Layer 01
100
AcDbVertex
100
AcDb2dVertex
 10
9.955267892537478
 20
68.75613619612349
 30
0.0
  0
VERTEX
  5
9E
330
9B
100
AcDbEntity
  8
Layer 01
100
AcDbVertex
100
AcDb2dVertex
 10
9.955267892537478
 20
70.74113619612349
 30
0.0
  0
VERTEX
  5
9F
330
9B
100
AcDbEntity
  8
Layer 01
100
AcDbVertex
100
AcDb2dVertex
 10
10.09005962567936
 20
70.74113619612349
 30
0.0
  0
SEQEND
  5
A0
330
9B
100
AcDbEntity
  8
Layer 01
  0
POLYLINE
  5
A1
330
1F
100
AcDbEntity
  8
Make2D$Visible$Curves
 62
    18
420
        0
370
    -3
100
AcDb2dPolyline
 66
     1
 10
0.0
 20
0.0
 30
0.0
  0
VERTEX
  5
A2
330
A1
100
AcDbEntity
  8
Make2D$Visible$Curves
 62
    18
420
        0
370
    -3
100
AcDbVertex
100
AcDb2dVertex
 10
9.724748610351924
 20
68.61825877663581
 30
0.0
  0
VERTEX
  5
A3
330
A1
100
AcDbEntity
  8
Make2D$Visible$Curves
 62
    18
420
        0
370
    -3
100
AcDbVertex
100
AcDb2dVertex
 10
9.968096405794242
 20
71.5434406729315
 30
0.0
  0
SEQEND
  5
A4
330
A1
100
AcDbEntity
  8
Make2D$Visible$Curves
 62
    18
420
        0
370
    -3
  0
SPLINE
  5
A5
330
1F
100
AcDbEntity
  8
0
370
    -3
100
AcDbSpline
210
0.0
220
0.0
230
1.0
 70
    28
 71
     2
 72
     6
 73
     3
 74
     0
 42
0.0000000001
 43
0.0000000001
 40
7.246203453588252
 40
7.246203453588252
 40
7.246203453588252
 40
15.5214087760171
 40
15.5214087760171
 40
15.5214087760171
 10
8.24759629120475
 20
53.90160084905062
 30
0.0
 41
0.9446682392080945
 10
8.379348459913306
 20
53.67676507375623
 30
0.0
 41
0.9446682392080945
 10
8.511100628621861
 20
53.45192929846183
 30
0.0
 41
0.9446682392080945
  0
SPLINE
  5
A6
330
1F
100
AcDbEntity
  8
0
370
    -3
100
AcDbSpline
210
0.0
220
0.0
230
1.0
 70
     8
 71
     2
 72
     7
 73
     4
 74
     0
 42
0.0000000001
 43
0.0000000001
 40
15.5214087760171
 40
15.5214087760171
 40
15.5214087760171
 40
16.5214087760171
 40
17.5214087760171
 40
17.5214087760171
 40
17.5214087760171
 10
8.511100628621847
 20
53.45192929846183
 30
0.0
 10
8.556097334863637
 20
53.38162190132931
 30
0.0
 10
8.700393461671354
 20
53.29776647436989
 30
0.0
 10
8.783660891863008
 20
53.2928653811191
 30
0.0
  0
LINE
  5
A7
330
1F
100
AcDbEntity
  8
0
100
AcDbLine
 10
8.783660891863008
 20
53.2928653811191
 30
0.0
 11
8.249209005404168
 21
53.2928653811191
 31
0.0
  0
POLYLINE
  5
A8
330
1F
100
AcDbEntity
  8
Layer 01
100
AcDb2dPolyline
 66
     1
 10
0.0
 20
0.0
 30
0.0
 70
     1
  0
VERTEX
  5
A9
330
A8
100
AcDbEntity
  8
Layer 01
100
AcDbVertex
100
AcDb2dVertex
 10
10.04866151097438
 20
55.96774489772884
 30
0.0
  0
VERTEX
  5
AA
330
A8
100
AcDbEntity
  8
Layer 01
100
AcDbVertex
100
AcDb2dVertex
 10
9.54939859640524
 20
54.04655736338039
 30
0.0
  0
VERTEX
  5
AB
330
A8
100
AcDbEntity
  8
Layer 01
100
AcDbVertex
100
AcDb2dVertex
 10
9.418940058649355
 20
54.0804598890974
 30
0.0
  0
VERTEX
  5
AC
330
A8
100
AcDbEntity
  8
Layer 01
100
AcDbVertex
100
AcDb2dVertex
 10
9.918202973218499
 20
56.00164742344585
 30
0.0
  0
SEQEND
  5
AD
330
A8
100
AcDbEntity
  8
Layer 01
  0
SPLINE
  5
AE
330
1F
100
AcDbEntity
  8
Make2D$Visible$Tangents
 62
    18
420
        0
370
    -3
100
AcDbSpline
210
0.0
220
0.0
230
1.0
 70
    12
 71
     2
 72
     6
 73
     3
 74
     0
 42
0.0000000001
 43
0.0000000001
 40
2.205491535103798
 40
2.205491535103798
 40
2.205491535103798
 40
2.209493989490358
 40
2.209493989490358
 40
2.209493989490358
 10
9.199196337306816
 20
53.50681629142803
 30
0.0
 41
0.8535821724121411
 10
9.19814708962681
 20
53.50864309551536
 30
0.0
 41
0.8535486924262248
 10
9.197073210790494
 20
53.51045552956681
 30
0.0
 41
0.8535541574931605
  0
POLYLINE
  5
AF
330
1F
100
AcDbEntity
  8
0
100
AcDb2dPolyline
 66
     1
 10
0.0
 20
0.0
 30
0.0
  0
VERTEX
  5
B0
330
AF
100
AcDbEntity
  8
0
100
AcDbVertex
100
AcDb2dVertex
 10
9.19919633730683
 20
53.50681629142804
 30
0.0
  0
VERTEX
  5
B1
330
AF
100
AcDbEntity
  8
0
100
AcDbVertex
100
AcDb2dVertex
 10
8.248910627601816
 20
55.13555679596163
 30
0.0
  0
SEQEND
  5
B2
330
AF
100
AcDbEntity
  8
0
  0
POLYLINE
  5
B3
330
1F
100
AcDbEntity
  8
Layer 01
100
AcDb2dPolyline
 66
     1
 10
0.0
 20
0.0
 30
0.0
  0
VERTEX
  5
B4
330
B3
100
AcDbEntity
  8
Layer 01
100
AcDbVertex
100
AcDb2dVertex
 10
8.853984520187183
 20
54.22730243372139
 30
0.0
  0
VERTEX
  5
B5
330
B3
100
AcDbEntity
  8
Layer 01
100
AcDbVertex
100
AcDb2dVertex
 10
8.83015636823174
 20
54.13933169104507
 30
0.0
  0
SEQEND
  5
B6
330
B3
100
AcDbEntity
  8
Layer 01
  0
SPLINE
  5
B7
330
1F
100
AcDbEntity
  8
0
370
    -3
100
AcDbSpline
210
0.0
220
0.0
230
1.0
 70
    12
 71
     2
 72
    14
 73
    11
 74
     0
 42
0.0000000001
 43
0.0000000001
 40
24.52130949556685
 40
24.52130949556685
 40
24.52130949556685
 40
26.19901305795608
 40
26.19901305795608
 40
27.19901305795608
 40
28.19901305795608
 40
29.19901305795608
 40
30.19901305795608
 40
31.19901305795608
 40
32.19901305795608
 40
32.87272968863069
 40
32.87272968863069
 40
32.87272968863069
 10
8.60201705864415
 20
53.2928653811191
 30
0.0
 41
0.9446682392080946
 10
8.628730494864664
 20
53.24728377022878
 30
0.0
 41
0.9446682392080946
 10
8.655443931085166
 20
53.2017021593385
 30
0.0
 41
0.9446682392080945
 10
8.725534030378668
 20
53.10676415852412
 30
0.0
 41
1.0
 10
8.95607045832584
 20
53.05365132518276
 30
0.0
 41
1.0
 10
9.164215755335903
 20
53.16711682929469
 30
0.0
 41
1.0
 10
9.25902055753589
 20
53.37857481203572
 30
0.0
 41
1.0
 10
9.3249090949963
 20
53.59517305893286
 30
0.0
 41
1.0
 10
9.388024166297242
 20
53.81328604407629
 30
0.0
 41
1.0
 10
9.438047193510329
 20
53.99650321579676
 30
0.0
 41
1.0
 10
9.457684222544401
 20
54.07039136437353
 30
0.0
 41
1.0
  0
SPLINE
  5
B8
330
1F
100
AcDbEntity
  8
Make2D$Visible$Curves
 62
    18
420
        0
370
    -3
100
AcDbSpline
210
0.0
220
0.0
230
1.0
 70
    12
 71
     2
 72
     8
 73
     5
 74
     0
 42
0.0000000001
 43
0.0000000001
 40
4.953085196239078
 40
4.953085196239078
 40
4.953085196239078
 40
5.947584652910923
 40
5.947584652910923
 40
26.40127434762802
 40
26.40127434762802
 40
26.40127434762802
 10
9.942829492569636
 20
0.5154854792007737
 30
0.0
 41
1.0
 10
9.98985747009156
 20
1.01098520235962
 30
0.0
 41
0.998563959641614
 10
9.983601374189865
 20
1.508672320521587
 30
0.0
 41
1.0
 10
9.856512206006371
 20
11.6189140522228
 30
0.0
 41
1.0
 10
9.729423037822876
 20
21.72915578392402
 30
0.0
 41
1.0
  0
LINE
  5
B9
330
1F
100
AcDbEntity
  8
Make2D$Visible$Curves
 62
    18
420
        0
370
    -3
100
AcDbLine
 10
9.104405290638647
 20
21.72663953825816
 30
0.0
 11
9.367642153148111
 21
0.7855290509928197
 31
0.0
  0
SPLINE
  5
BA
330
1F
100
AcDbEntity
  8
0
370
    -3
100
AcDbSpline
210
0.0
220
0.0
230
1.0
 70
    24
 71
     2
 72
     6
 73
     3
 74
     0
 42
0.0000000001
 43
0.0000000001
 40
31.11658722461463
 40
31.11658722461463
 40
31.11658722461463
 40
53.36153819624442
 40
53.36153819624442
 40
53.36153819624442
 10
9.224819071314744
 20
1.528603244906068
 30
0.0
 10
8.91181258117521
 20
11.33868549882511
 30
0.0
 10
8.598806091035677
 20
21.14876775274416
 30
0.0
  0
SPLINE
  5
BB
330
1F
100
AcDbEntity
  8
0
370
    -3
100
AcDbSpline
210
0.0
220
0.0
230
1.0
 70
     8
 71
     3
 72
    11
 73
     7
 74
     0
 42
0.0000000001
 43
0.0000000001
 40
20.3161414216136
 40
20.3161414216136
 40
20.3161414216136
 40
20.3161414216136
 40
21.3161414216136
 40
22.3161414216136
 40
23.3161414216136
 40
24.3161414216136
 40
24.3161414216136
 40
24.3161414216136
 40
24.3161414216136
 10
9.402343782958365
 20
0.5872518589972904
 30
0.0
 10
9.37442599704207
 20
0.6515664139075561
 30
0.0
 10
9.28996163321681
 20
0.9023876262013237
 30
0.0
 10
9.256404950264207
 20
1.109808855626578
 30
0.0
 10
9.234747272087867
 20
1.31878707311273
 30
0.0
 10
9.227052041048921
 20
1.458630227492561
 30
0.0
 10
9.224814540539567
 20
1.528603100344382
 30
0.0
  0
ARC
  5
BC
330
1F
100
AcDbEntity
  8
0
370
    -3
100
AcDbCircle
 10
9.12956155482515
 20
0.4688420238142879
 30
0.0
 40
0.2973735580938334
100
AcDbArc
 50
317.2275149292411
 51
23.46479344157776
  0
SPLINE
  5
BD
330
1F
100
AcDbEntity
  8
0
370
    -3
100
AcDbSpline
210
0.0
220
0.0
230
1.0
 70
     8
 71
     3
 72
     8
 73
     4
 74
     0
 42
0.0000000001
 43
0.0000000001
 40
18.15191635251583
 40
18.15191635251583
 40
18.15191635251583
 40
18.15191635251583
 40
19.15191635251583
 40
19.15191635251583
 40
19.15191635251583
 40
19.15191635251583
 10
9.134427262184053
 20
0.1730105227372203
 30
0.0
 10
9.209545737110014
 20
0.1730105227372203
 30
0.0
 10
9.296737912418122
 20
0.2116492665530672
 30
0.0
 10
9.347850418815263
 20
0.2668989503720613
 30
0.0
  0
SPLINE
  5
BE
330
1F
100
AcDbEntity
  8
0
370
    -3
100
AcDbSpline
210
0.0
220
0.0
230
1.0
 70
     8
 71
     3
 72
    12
 73
     8
 74
     0
 42
0.0000000001
 43
0.0000000001
 40
13.15191635251583
 40
13.15191635251583
 40
13.15191635251583
 40
13.15191635251583
 40
14.15191635251583
 40
15.15191635251583
 40
16.15191635251583
 40
17.15191635251583
 40
18.15191635251583
 40
18.15191635251583
 40
18.15191635251583
 40
18.15191635251583
 10
8.600132410186715
 20
1.508672320521589
 30
0.0
 10
8.603526807683162
 20
1.402836503268456
 30
0.0
 10
8.616617207929632
 20
1.191498994508452
 30
0.0
 10
8.65746763879757
 20
0.8759190786732489
 30
0.0
 10
8.725030784650375
 20
0.5665573447686487
 30
0.0
 10
8.854355778234831
 20
0.2669231219080261
 30
0.0
 10
9.026914489844872
 20
0.1730105227372194
 30
0.0
 10
9.134427262184053
 20
0.1730105227372203
 30
0.0
  0
SPLINE
  5
BF
330
1F
100
AcDbEntity
  8
Make2D$Visible$Curves
 62
    18
420
        0
370
    -3
100
AcDbSpline
210
0.0
220
0.0
230
1.0
 70
    12
 71
     2
 72
    18
 73
    15
 74
     0
 42
0.0000000001
 43
0.0000000001
 40
2.962865955620454
 40
2.962865955620454
 40
2.962865955620454
 40
3.629244380755661
 40
3.629244380755661
 40
3.913309182324358
 40
3.913309182324358
 40
5.054202768582291
 40
5.054202768582291
 40
5.338267570150991
 40
5.338267570150991
 40
6.221299417476746
 40
6.221299417476746
 40
7.381217430103137
 40
7.381217430103137
 40
9.366217430103136
 40
9.366217430103136
 40
9.366217430103136
 10
8.742530528676587
 20
0.5465706786202986
 30
0.0
 41
0.964489236225003
 10
8.71752158042056
 20
0.4072391302231787
 30
0.0
 41
0.927632956315351
 10
8.782451996728737
 20
0.282093852561669
 30
0.0
 41
1.0
 10
8.782451996728737
 20
0.1400614517773198
 30
0.0
 41
1.0
 10
8.782451996728737
 20
-0.0019709490070294
 30
0.0
 41
1.0
 10
9.340492045603126
 20
-0.0019709490070294
 30
0.0
 41
1.0
 10
9.898532094477515
 20
-0.0019709490070294
 30
0.0
 41
1.0
 10
9.898532094477515
 20
0.1400614517773207
 30
0.0
 41
1.0
 10
9.898532094477515
 20
0.2820938525616707
 30
0.0
 41
1.0
 10
9.986811816667167
 20
0.4522420045905872
 30
0.0
 41
0.9041049321826506
 10
9.914244237330747
 20
0.6299813478127447
 30
0.0
 41
1.0
 10
9.900751491273878
 20
0.6630290509929725
 30
0.0
 41
0.7837198149227513
 10
9.865719866190343
 20
0.6630290509929653
 30
0.0
 41
0.8868537743350495
 10
9.659850116131818
 20
0.6630290509929644
 30
0.0
 41
0.8868537743350495
 10
9.453980366073294
 20
0.6630290509929634
 30
0.0
 41
0.8868537743350495
  0
SPLINE
  5
C0
330
1F
100
AcDbEntity
  8
Make2D$Visible$Curves
 62
    18
420
        0
370
    -3
100
AcDbSpline
210
0.0
220
0.0
230
1.0
 70
    12
 71
     2
 72
    16
 73
    13
 74
     0
 42
0.0000000001
 43
0.0000000001
 40
-0.2840648015687
 40
-0.2840648015687
 40
-0.2840648015687
 40
-0.0000000000000021
 40
-0.0000000000000021
 40
0.8830318473257527
 40
0.8830318473257527
 40
0.924701500071026
 40
0.924701500071026
 40
0.9663711528162993
 40
0.9663711528162993
 40
1.008040805561573
 40
1.008040805561573
 40
1.049710458306846
 40
1.049710458306846
 40
1.049710458306846
 10
9.486792594360464
 20
-0.0019709490070294
 30
0.0
 41
1.0
 10
9.486792594360464
 20
0.1400614517773207
 30
0.0
 41
1.0
 10
9.486792594360464
 20
0.2820938525616707
 30
0.0
 41
1.0
 10
9.575072316550107
 20
0.4522420045905872
 30
0.0
 41
0.9041049321826506
 10
9.50250473721371
 20
0.6299813478127447
 30
0.0
 41
1.0
 10
9.494192597431034
 20
0.650340222660901
 30
0.0
 41
0.9230118201422308
 10
9.473880811522738
 20
0.6587667762900593
 30
0.0
 41
1.0
 10
9.453569025614438
 20
0.6671933299192174
 30
0.0
 41
0.9230118201422308
 10
9.433286166562821
 20
0.6586973849134075
 30
0.0
 41
1.0
 10
9.413003307511199
 20
0.6502014399075974
 30
0.0
 41
0.9230118201422308
 10
9.404760817908931
 20
0.6298142670284048
 30
0.0
 41
1.0
 10
9.396518328306659
 20
0.6094270941492123
 30
0.0
 41
0.9230118201422308
 10
9.405197383456807
 20
0.5892219102957967
 30
0.0
 41
1.0
  0
LINE
  5
C1
330
1F
100
AcDbEntity
  8
Make2D$Visible$Curves
 62
    18
420
        0
370
    -3
100
AcDbLine
 10
9.56811096561742
 20
0.7855290509929489
 30
0.0
 11
9.322424091657012
 21
0.7855290509927908
 31
0.0
  0
SPLINE
  5
C2
330
1F
100
AcDbEntity
  8
Make2D$Visible$Curves
 62
    18
420
        0
370
    -3
100
AcDbSpline
210
0.0
220
0.0
230
1.0
 70
    12
 71
     2
 72
     6
 73
     3
 74
     0
 42
0.0000000001
 43
0.0000000001
 40
1.680749949437323
 40
1.680749949437323
 40
1.680749949437323
 40
1.963495408493621
 40
1.963495408493621
 40
1.963495408493621
 10
9.815053244118852
 20
0.6645382181067765
 30
0.0
 41
0.8569372776567381
 10
9.721222192688238
 20
0.7855290509932322
 30
0.0
 41
0.8312922408687053
 10
9.56811096561742
 20
0.7855290509932349
 30
0.0
 41
1.0
  0
SPLINE
  5
C3
330
1F
100
AcDbEntity
  8
0
370
    -3
100
AcDbSpline
210
0.0
220
0.0
230
1.0
 70
    24
 71
     2
 72
     6
 73
     3
 74
     0
 42
0.0000000001
 43
0.0000000001
 40
-0.4054508529649213
 40
-0.4054508529649213
 40
-0.4054508529649213
 40
5.04678736349172
 40
5.04678736349172
 40
5.04678736349172
 10
8.471392132182439
 20
5.543485740459346
 30
0.0
 10
8.535762271184577
 20
3.526079030490467
 30
0.0
 10
8.600132410186715
 20
1.508672320521588
 30
0.0
  0
SPLINE
  5
C4
330
1F
100
AcDbEntity
  8
0
370
    -3
100
AcDbSpline
210
0.0
220
0.0
230
1.0
 70
    24
 71
     2
 72
     6
 73
     3
 74
     0
 42
0.0000000001
 43
0.0000000001
 40
-0.4054508529649213
 40
-0.4054508529649213
 40
-0.4054508529649213
 40
5.04678736349172
 40
5.04678736349172
 40
5.04678736349172
 10
-8.471392132182439
 20
5.543485740459346
 30
0.0
 10
-8.535762271184577
 20
3.526079030490467
 30
0.0
 10
-8.600132410186715
 20
1.508672320521588
 30
0.0
  0
SPLINE
  5
C5
330
1F
100
AcDbEntity
  8
Make2D$Visible$Curves
 62
    18
420
        0
370
    -3
100
AcDbSpline
210
0.0
220
0.0
230
1.0
 70
    12
 71
     2
 72
     6
 73
     3
 74
     0
 42
0.0000000001
 43
0.0000000001
 40
1.680749949437323
 40
1.680749949437323
 40
1.680749949437323
 40
1.963495408493621
 40
1.963495408493621
 40
1.963495408493621
 10
-9.815053244118852
 20
0.6645382181067765
 30
0.0
 41
0.8569372776567381
 10
-9.721222192688238
 20
0.7855290509932322
 30
0.0
 41
0.8312922408687053
 10
-9.56811096561742
 20
0.7855290509932349
 30
0.0
 41
1.0
  0
LINE
  5
C6
330
1F
100
AcDbEntity
  8
Make2D$Visible$Curves
 62
    18
420
        0
370
    -3
100
AcDbLine
 10
-9.56811096561742
 20
0.7855290509929489
 30
0.0
 11
-9.322424091657012
 21
0.7855290509927908
 31
0.0
  0
SPLINE
  5
C7
330
1F
100
AcDbEntity
  8
Make2D$Visible$Curves
 62
    18
420
        0
370
    -3
100
AcDbSpline
210
0.0
220
0.0
230
1.0
 70
    12
 71
     2
 72
    16
 73
    13
 74
     0
 42
0.0000000001
 43
0.0000000001
 40
-0.2840648015687
 40
-0.2840648015687
 40
-0.2840648015687
 40
-0.0000000000000021
 40
-0.0000000000000021
 40
0.8830318473257527
 40
0.8830318473257527
 40
0.924701500071026
 40
0.924701500071026
 40
0.9663711528162993
 40
0.9663711528162993
 40
1.008040805561573
 40
1.008040805561573
 40
1.049710458306846
 40
1.049710458306846
 40
1.049710458306846
 10
-9.486792594360464
 20
-0.0019709490070294
 30
0.0
 41
1.0
 10
-9.486792594360464
 20
0.1400614517773207
 30
0.0
 41
1.0
 10
-9.486792594360464
 20
0.2820938525616707
 30
0.0
 41
1.0
 10
-9.575072316550107
 20
0.4522420045905872
 30
0.0
 41
0.9041049321826506
 10
-9.50250473721371
 20
0.6299813478127447
 30
0.0
 41
1.0
 10
-9.494192597431034
 20
0.650340222660901
 30
0.0
 41
0.9230118201422308
 10
-9.473880811522738
 20
0.6587667762900593
 30
0.0
 41
1.0
 10
-9.453569025614438
 20
0.6671933299192174
 30
0.0
 41
0.9230118201422308
 10
-9.433286166562821
 20
0.6586973849134075
 30
0.0
 41
1.0
 10
-9.413003307511199
 20
0.6502014399075974
 30
0.0
 41
0.9230118201422308
 10
-9.404760817908931
 20
0.6298142670284048
 30
0.0
 41
1.0
 10
-9.396518328306659
 20
0.6094270941492123
 30
0.0
 41
0.9230118201422308
 10
-9.405197383456807
 20
0.5892219102957967
 30
0.0
 41
1.0
  0
SPLINE
  5
C8
330
1F
100
AcDbEntity
  8
Make2D$Visible$Curves
 62
    18
420
        0
370
    -3
100
AcDbSpline
210
0.0
220
0.0
230
1.0
 70
    12
 71
     2
 72
    18
 73
    15
 74
     0
 42
0.0000000001
 43
0.0000000001
 40
2.962865955620454
 40
2.962865955620454
 40
2.962865955620454
 40
3.629244380755661
 40
3.629244380755661
 40
3.913309182324358
 40
3.913309182324358
 40
5.054202768582291
 40
5.054202768582291
 40
5.338267570150991
 40
5.338267570150991
 40
6.221299417476746
 40
6.221299417476746
 40
7.381217430103137
 40
7.381217430103137
 40
9.366217430103136
 40
9.366217430103136
 40
9.366217430103136
 10
-8.742530528676587
 20
0.5465706786202986
 30
0.0
 41
0.964489236225003
 10
-8.71752158042056
 20
0.4072391302231787
 30
0.0
 41
0.927632956315351
 10
-8.782451996728737
 20
0.282093852561669
 30
0.0
 41
1.0
 10
-8.782451996728737
 20
0.1400614517773198
 30
0.0
 41
1.0
 10
-8.782451996728737
 20
-0.0019709490070294
 30
0.0
 41
1.0
 10
-9.340492045603126
 20
-0.0019709490070294
 30
0.0
 41
1.0
 10
-9.898532094477515
 20
-0.0019709490070294
 30
0.0
 41
1.0
 10
-9.898532094477515
 20
0.1400614517773207
 30
0.0
 41
1.0
 10
-9.898532094477515
 20
0.2820938525616707
 30
0.0
 41
1.0
 10
-9.986811816667167
 20
0.4522420045905872
 30
0.0
 41
0.9041049321826506
 10
-9.914244237330747
 20
0.6299813478127447
 30
0.0
 41
1.0
 10
-9.900751491273878
 20
0.6630290509929725
 30
0.0
 41
0.7837198149227513
 10
-9.865719866190343
 20
0.6630290509929653
 30
0.0
 41
0.8868537743350495
 10
-9.659850116131818
 20
0.6630290509929644
 30
0.0
 41
0.8868537743350495
 10
-9.453980366073294
 20
0.6630290509929634
 30
0.0
 41
0.8868537743350495
  0
SPLINE
  5
C9
330
1F
100
AcDbEntity
  8
0
370
    -3
100
AcDbSpline
210
0.0
220
0.0
230
1.0
 70
     8
 71
     3
 72
    12
 73
     8
 74
     0
 42
0.0000000001
 43
0.0000000001
 40
13.15191635251583
 40
13.15191635251583
 40
13.15191635251583
 40
13.15191635251583
 40
14.15191635251583
 40
15.15191635251583
 40
16.15191635251583
 40
17.15191635251583
 40
18.15191635251583
 40
18.15191635251583
 40
18.15191635251583
 40
18.15191635251583
 10
-8.600132410186715
 20
1.508672320521589
 30
0.0
 10
-8.603526807683162
 20
1.402836503268456
 30
0.0
 10
-8.616617207929632
 20
1.191498994508452
 30
0.0
 10
-8.65746763879757
 20
0.8759190786732489
 30
0.0
 10
-8.725030784650375
 20
0.5665573447686487
 30
0.0
 10
-8.854355778234831
 20
0.2669231219080261
 30
0.0
 10
-9.026914489844872
 20
0.1730105227372194
 30
0.0
 10
-9.134427262184053
 20
0.1730105227372203
 30
0.0
  0
SPLINE
  5
CA
330
1F
100
AcDbEntity
  8
0
370
    -3
100
AcDbSpline
210
0.0
220
0.0
230
1.0
 70
     8
 71
     3
 72
     8
 73
     4
 74
     0
 42
0.0000000001
 43
0.0000000001
 40
18.15191635251583
 40
18.15191635251583
 40
18.15191635251583
 40
18.15191635251583
 40
19.15191635251583
 40
19.15191635251583
 40
19.15191635251583
 40
19.15191635251583
 10
-9.134427262184053
 20
0.1730105227372203
 30
0.0
 10
-9.209545737110014
 20
0.1730105227372203
 30
0.0
 10
-9.296737912418122
 20
0.2116492665530672
 30
0.0
 10
-9.347850418815263
 20
0.2668989503720613
 30
0.0
  0
ARC
  5
CB
330
1F
100
AcDbEntity
  8
0
370
    -3
100
AcDbCircle
 10
9.12956155482515
 20
0.4688420238142879
 30
0.0
 40
0.2973735580938334
210
0.0
220
0.0
230
-1.0
100
AcDbArc
 50
317.2275149292411
 51
23.46479344157776
  0
SPLINE
  5
CC
330
1F
100
AcDbEntity
  8
0
370
    -3
100
AcDbSpline
210
0.0
220
0.0
230
1.0
 70
     8
 71
     3
 72
    11
 73
     7
 74
     0
 42
0.0000000001
 43
0.0000000001
 40
20.3161414216136
 40
20.3161414216136
 40
20.3161414216136
 40
20.3161414216136
 40
21.3161414216136
 40
22.3161414216136
 40
23.3161414216136
 40
24.3161414216136
 40
24.3161414216136
 40
24.3161414216136
 40
24.3161414216136
 10
-9.402343782958365
 20
0.5872518589972904
 30
0.0
 10
-9.37442599704207
 20
0.6515664139075561
 30
0.0
 10
-9.28996163321681
 20
0.9023876262013237
 30
0.0
 10
-9.256404950264207
 20
1.109808855626578
 30
0.0
 10
-9.234747272087867
 20
1.31878707311273
 30
0.0
 10
-9.227052041048921
 20
1.458630227492561
 30
0.0
 10
-9.224814540539567
 20
1.528603100344382
 30
0.0
  0
SPLINE
  5
CD
330
1F
100
AcDbEntity
  8
0
370
    -3
100
AcDbSpline
210
0.0
220
0.0
230
1.0
 70
    24
 71
     2
 72
     6
 73
     3
 74
     0
 42
0.0000000001
 43
0.0000000001
 40
31.11658722461463
 40
31.11658722461463
 40
31.11658722461463
 40
53.36153819624442
 40
53.36153819624442
 40
53.36153819624442
 10
-9.224819071314744
 20
1.528603244906068
 30
0.0
 10
-8.91181258117521
 20
11.33868549882511
 30
0.0
 10
-8.598806091035677
 20
21.14876775274416
 30
0.0
  0
LINE
  5
CE
330
1F
100
AcDbEntity
  8
Make2D$Visible$Curves
 62
    18
420
        0
370
    -3
100
AcDbLine
 10
-9.104405290638647
 20
21.72663953825816
 30
0.0
 11
-9.367642153148111
 21
0.7855290509928197
 31
0.0
  0
SPLINE
  5
CF
330
1F
100
AcDbEntity
  8
Make2D$Visible$Curves
 62
    18
420
        0
370
    -3
100
AcDbSpline
210
0.0
220
0.0
230
1.0
 70
    12
 71
     2
 72
     8
 73
     5
 74
     0
 42
0.0000000001
 43
0.0000000001
 40
4.953085196239078
 40
4.953085196239078
 40
4.953085196239078
 40
5.947584652910923
 40
5.947584652910923
 40
26.40127434762802
 40
26.40127434762802
 40
26.40127434762802
 10
-9.942829492569636
 20
0.5154854792007737
 30
0.0
 41
1.0
 10
-9.98985747009156
 20
1.01098520235962
 30
0.0
 41
0.998563959641614
 10
-9.983601374189865
 20
1.508672320521587
 30
0.0
 41
1.0
 10
-9.856512206006371
 20
11.6189140522228
 30
0.0
 41
1.0
 10
-9.729423037822876
 20
21.72915578392402
 30
0.0
 41
1.0
  0
LINE
  5
D0
330
1F
100
AcDbEntity
  8
Make2D$Visible$Curves
 62
    18
420
        0
370
    -3
100
AcDbLine
 10
25.16597424116701
 20
0.1625006271185185
 30
0.0
 11
37.84345105644855
 21
0.1625006271185185
 31
0.0
  0
SPLINE
  5
D1
330
1F
100
AcDbEntity
  8
Make2D$Visible$Curves
 62
    18
420
        0
370
    -3
100
AcDbSpline
210
0.0
220
0.0
230
1.0
 70
     8
 71
     2
 72
    11
 73
     8
 74
     0
 42
0.0000000001
 43
0.0000000001
 40
0.5989417720576173
 40
0.5989417720576173
 40
0.5989417720576173
 40
1.0
 40
2.0
 40
3.0
 40
4.0
 40
5.0
 40
6.0
 40
6.0
 40
6.0
 10
39.78527895408609
 20
0.1800585673187043
 30
0.0
 10
39.85398684332048
 20
0.191729594358873
 30
0.0
 10
40.09017831990872
 20
0.259600559537276
 30
0.0
 10
40.38767131575961
 20
0.4454752724503499
 30
0.0
 10
40.62368726958401
 20
0.7048165184960352
 30
0.0
 10
40.7823835064483
 20
1.017470596895167
 30
0.0
 10
40.8539040488839
 20
1.360636444870517
 30
0.0
 10
40.84441347978671
 20
1.535627875922001
 30
0.0
  0
POLYLINE
  5
D2
330
1F
100
AcDbEntity
  8
Layer 01
100
AcDb2dPolyline
 66
     1
 10
0.0
 20
0.0
 30
0.0
 70
     1
  0
VERTEX
  5
D3
330
D2
100
AcDbEntity
  8
Layer 01
100
AcDbVertex
100
AcDb2dVertex
 10
37.84345105644855
 20
-0.0000495120713255
 30
0.0
  0
VERTEX
  5
D4
330
D2
100
AcDbEntity
  8
Layer 01
100
AcDbVertex
100
AcDb2dVertex
 10
39.78527895408609
 20
-0.0000495120713255
 30
0.0
  0
VERTEX
  5
D5
330
D2
100
AcDbEntity
  8
Layer 01
100
AcDbVertex
100
AcDb2dVertex
 10
39.78527895408609
 20
0.6649504879286674
 30
0.0
  0
VERTEX
  5
D6
330
D2
100
AcDbEntity
  8
Layer 01
100
AcDbVertex
100
AcDb2dVertex
 10
37.84345105644855
 20
0.6649504879286674
 30
0.0
  0
SEQEND
  5
D7
330
D2
100
AcDbEntity
  8
Layer 01
  0
POLYLINE
  5
D8
330
1F
100
AcDbEntity
  8
Layer 01
100
AcDb2dPolyline
 66
     1
 10
0.0
 20
0.0
 30
0.0
 70
     1
  0
VERTEX
  5
D9
330
D8
100
AcDbEntity
  8
Layer 01
100
AcDbVertex
100
AcDb2dVertex
 10
23.18097424116701
 20
-0.0000156987814428
 30
0.0
  0
VERTEX
  5
DA
330
D8
100
AcDbEntity
  8
Layer 01
100
AcDbVertex
100
AcDb2dVertex
 10
25.16597424116701
 20
-0.0000156987814428
 30
0.0
  0
VERTEX
  5
DB
330
D8
100
AcDbEntity
  8
Layer 01
100
AcDbVertex
100
AcDb2dVertex
 10
25.16597424116701
 20
0.6649843012185501
 30
0.0
  0
VERTEX
  5
DC
330
D8
100
AcDbEntity
  8
Layer 01
100
AcDbVertex
100
AcDb2dVertex
 10
23.18097424116701
 20
0.6649843012185501
 30
0.0
  0
SEQEND
  5
DD
330
D8
100
AcDbEntity
  8
Layer 01
  0
SPLINE
  5
DE
330
1F
100
AcDbEntity
  8
Make2D$Visible$Curves
 62
    18
420
        0
370
    -3
100
AcDbSpline
210
0.0
220
0.0
230
1.0
 70
     8
 71
     2
 72
    11
 73
     8
 74
     0
 42
0.0000000001
 43
0.0000000001
 40
0.0
 40
0.0
 40
0.0
 40
1.0
 40
2.0
 40
3.0
 40
4.0
 40
5.0
 40
6.0
 40
6.0
 40
6.0
 10
40.22033787575327
 20
1.501647878825036
 30
0.0
 10
40.22523090266542
 20
1.411601261180185
 30
0.0
 10
40.19008277352548
 20
1.234663064489007
 30
0.0
 10
40.11095314587257
 20
1.072476106943987
 30
0.0
 10
39.99190212583734
 20
0.936777981653528
 30
0.0
 10
39.84016778217174
 20
0.8387735590481815
 30
0.0
 10
39.666928266152
 20
0.7875528001523845
 30
0.0
 10
39.57659716851497
 20
0.7874504879289387
 30
0.0
  0
SPLINE
  5
DF
330
1F
100
AcDbEntity
  8
Make2D$Visible$Curves
 62
    18
420
        0
370
    -3
100
AcDbSpline
210
0.0
220
0.0
230
1.0
 70
     8
 71
     2
 72
    11
 73
     8
 74
     0
 42
0.0000000001
 43
0.0000000001
 40
0.0
 40
0.0
 40
0.0
 40
1.0
 40
2.0
 40
3.0
 40
4.0
 40
5.0
 40
6.0
 40
6.0
 40
6.0
 10
21.88334241674784
 20
1.671906976992275
 30
0.0
 10
21.8549904548291
 20
1.484481796664275
 30
0.0
 10
21.90642980667631
 20
1.108855250015768
 30
0.0
 10
22.06227712483274
 20
0.763211054519241
 30
0.0
 10
22.30940988395382
 20
0.4757578567358468
 30
0.0
 10
22.62776282383798
 20
0.269822656062662
 30
0.0
 10
22.99141726371237
 20
0.1626027225828888
 30
0.0
 10
23.18097424116705
 20
0.1625006271185185
 30
0.0
  0
SPLINE
  5
E0
330
1F
100
AcDbEntity
  8
Make2D$Visible$Curves
 62
    18
420
        0
370
    -3
100
AcDbSpline
210
0.0
220
0.0
230
1.0
 70
     8
 71
     2
 72
    11
 73
     8
 74
     0
 42
0.0000000001
 43
0.0000000001
 40
0.0
 40
0.0
 40
0.0
 40
1.0
 40
2.0
 40
3.0
 40
4.0
 40
5.0
 40
6.0
 40
6.0
 40
6.0
 10
23.18097424116694
 20
0.7875006271185185
 30
0.0
 10
23.08168606093491
 20
0.7875540877464078
 30
0.0
 10
22.89120578859267
 20
0.8437101232766746
 30
0.0
 10
22.72445081000977
 20
0.9515700810954728
 30
0.0
 10
22.59499751720504
 20
1.102129322601509
 30
0.0
 10
22.51335877730882
 20
1.28317164137478
 30
0.0
 10
22.48641096424179
 20
1.479921169169644
 30
0.0
 10
22.5012614496882
 20
1.578092967446258
 30
0.0
  0
LINE
  5
E1
330
1F
100
AcDbEntity
  8
0
370
    -3
100
AcDbLine
 10
40.21968513445381
 20
1.498483192061286
 30
0.0
 11
40.22140030218684
 21
1.466982255879273
 31
0.0
  0
LINE
  5
E2
330
1F
100
AcDbEntity
  8
0
370
    -3
100
AcDbLine
 10
40.2195152618329
 20
1.501603089018002
 30
0.0
 11
40.21968513445381
 21
1.498483192061286
 31
0.0
  0
LINE
  5
E3
330
1F
100
AcDbEntity
  8
0
370
    -3
100
AcDbLine
 10
39.15123025080651
 20
21.12182874303441
 30
0.0
 11
40.2195152618329
 21
1.501603089018002
 31
0.0
  0
LINE
  5
E4
330
1F
100
AcDbEntity
  8
0
370
    -3
100
AcDbLine
 10
24.93319984628311
 20
21.76036551329489
 30
0.0
 11
21.88334241674783
 21
1.671906976992278
 31
0.0
  0
LINE
  5
E5
330
1F
100
AcDbEntity
  8
0
370
    -3
100
AcDbLine
 10
22.50126144993613
 20
1.578092967408618
 30
0.0
 11
25.55116295384291
 21
21.66684180669345
 31
0.0
  0
LINE
  5
E6
330
1F
100
AcDbEntity
  8
0
370
    -3
100
AcDbLine
 10
40.84359086599945
 20
1.535583086122215
 30
0.0
 11
39.77530589507824
 21
21.15580800312456
 31
0.0
  0
SPLINE
  5
E7
330
1F
100
AcDbEntity
  8
Make2D$Visible$Curves
 62
    18
420
        0
370
    -3
100
AcDbSpline
210
0.0
220
0.0
230
1.0
 70
    28
 71
     3
 72
     8
 73
     4
 74
     0
 42
0.0000000001
 43
0.0000000001
 40
0.0
 40
0.0
 40
0.0
 40
0.0
 40
0.2529893215821377
 40
0.2529893215821377
 40
0.2529893215821377
 40
0.2529893215821377
 10
37.84864553814963
 20
0.7875006271185203
 30
0.0
 41
1.0
 10
37.76720415009834
 20
0.7875006271185647
 30
0.0
 41
1.0
 10
37.68310364984132
 20
0.7875006271185467
 30
0.0
 41
1.0
 10
37.59899621442786
 20
0.7875006271185185
 30
0.0
 41
1.0
  0
SPLINE
  5
E8
330
1F
100
AcDbEntity
  8
Make2D$Visible$Curves
 62
    18
420
        0
370
    -3
100
AcDbSpline
210
0.0
220
0.0
230
1.0
 70
    28
 71
     2
 72
     6
 73
     3
 74
     0
 42
0.0000000001
 43
0.0000000001
 40
0.0
 40
0.0
 40
0.0
 40
1.784453991468742
 40
1.784453991468742
 40
1.784453991468742
 10
39.57659713705047
 20
0.7875006271183409
 30
0.0
 41
1.0
 10
38.71262133759998
 20
0.7875006271183995
 30
0.0
 41
1.0
 10
37.8486455381495
 20
0.7875006271184581
 30
0.0
 41
1.0
  0
SPLINE
  5
E9
330
1F
100
AcDbEntity
  8
Make2D$Visible$Tangents
 62
    18
420
        0
370
    -3
100
AcDbSpline
210
0.0
220
0.0
230
1.0
 70
    12
 71
     2
 72
     6
 73
     3
 74
     0
 42
0.0000000001
 43
0.0000000001
 40
0.0
 40
0.0
 40
0.0
 40
0.0839583010166707
 40
0.0839583010166707
 40
0.0839583010166707
 10
40.23015753543331
 20
1.504679952290378
 30
0.0
 41
0.9169446822091587
 10
40.22026898173743
 20
1.502913201114003
 30
0.0
 41
0.9499039989102888
 10
40.22033786202689
 20
1.501648129099864
 30
0.0
 41
0.9999999999999913
  0
SPLINE
  5
EA
330
1F
100
AcDbEntity
  8
Make2D$Visible$Curves
 62
    18
420
        0
370
    -3
100
AcDbSpline
210
0.0
220
0.0
230
1.0
 70
    28
 71
     2
 72
     6
 73
     3
 74
     0
 42
0.0000000001
 43
0.0000000001
 40
0.0
 40
0.0
 40
0.0
 40
14.418021973261
 40
14.418021973261
 40
14.418021973261
 10
37.59899621442798
 20
0.7875006271185185
 30
0.0
 41
1.0
 10
30.38998522779749
 20
0.7875006271185185
 30
0.0
 41
1.0
 10
23.18097424116699
 20
0.7875006271185185
 30
0.0
 41
1.0
  0
SPLINE
  5
EB
330
1F
100
AcDbEntity
  8
0
370
    -3
100
AcDbSpline
210
0.0
220
0.0
230
1.0
 70
     8
 71
     3
 72
     9
 73
     5
 74
     0
 42
0.0000000001
 43
0.0000000001
 40
-8.732355162413203
 40
-8.732355162413203
 40
-8.732355162413203
 40
-8.732355162413203
 40
-8.096572061218996
 40
-7.096572061218996
 40
-7.096572061218996
 40
-7.096572061218996
 40
-7.096572061218996
 10
38.04512356366174
 20
23.53729831338936
 30
0.0
 10
38.37908511789564
 20
23.56149898527924
 30
0.0
 10
39.23840494551373
 20
23.62263814262103
 30
0.0
 10
40.09866161547011
 20
23.67127368831829
 30
0.0
 10
40.62526451616792
 20
23.68227051055804
 30
0.0
  0
SPLINE
  5
EC
330
1F
100
AcDbEntity
  8
0
370
    -3
100
AcDbSpline
210
0.0
220
0.0
230
1.0
 70
     8
 71
     3
 72
    17
 73
    13
 74
     0
 42
0.0000000001
 43
0.0000000001
 40
-18.56992794498782
 40
-18.56992794498782
 40
-18.56992794498782
 40
-18.56992794498782
 40
-18.096572061219
 40
-17.096572061219
 40
-16.096572061219
 40
-15.096572061219
 40
-14.096572061219
 40
-13.096572061219
 40
-12.096572061219
 40
-11.096572061219
 40
-10.096572061219
 40
-9.666593041362034
 40
-9.666593041362034
 40
-9.666593041362034
 40
-9.666593041362034
 10
25.29957890025067
 20
28.1639116634454
 30
0.0
 10
25.34479111465119
 20
27.9187416039569
 30
0.0
 10
25.4920583516166
 20
27.1569822280971
 30
0.0
 10
25.82351783024702
 20
25.89552424012568
 30
0.0
 10
26.63323676186018
 20
24.49456867152575
 30
0.0
 10
28.02640655944324
 20
23.66594314038844
 30
0.0
 10
29.58029962322217
 20
23.33557543441868
 30
0.0
 10
31.15796159705399
 20
23.22680934038619
 30
0.0
 10
32.7385029286643
 20
23.24287988512888
 30
0.0
 10
34.31753405974052
 20
23.29609761273609
 30
0.0
 10
35.59544461054523
 20
23.36663878296117
 30
0.0
 10
36.3469064722826
 20
23.41643210091449
 30
0.0
 10
36.57282816996076
 20
23.43190867023417
 30
0.0
  0
SPLINE
  5
ED
330
1F
100
AcDbEntity
  8
0
370
    -3
100
AcDbSpline
210
0.0
220
0.0
230
1.0
 70
     8
 71
     3
 72
    12
 73
     8
 74
     0
 42
0.0000000001
 43
0.0000000001
 40
-24.096572061219
 40
-24.096572061219
 40
-24.096572061219
 40
-24.096572061219
 40
-23.096572061219
 40
-22.096572061219
 40
-21.096572061219
 40
-20.096572061219
 40
-19.36798764571859
 40
-19.36798764571859
 40
-19.36798764571859
 40
-19.36798764571859
 10
22.73323205461781
 20
36.44511610908854
 30
0.0
 10
23.02691055402328
 20
36.00776435627345
 30
0.0
 10
23.53412169046106
 20
35.08106708310283
 30
0.0
 10
24.09795862996176
 20
33.60238894036252
 30
0.0
 10
24.52384612502052
 20
32.07981655482525
 30
0.0
 10
24.82901487763579
 20
30.67527149443878
 30
0.0
 10
25.00403984762255
 20
29.78192249977216
 30
0.0
 10
25.07464489707083
 20
29.40474857563422
 30
0.0
  0
SPLINE
  5
EE
330
1F
100
AcDbEntity
  8
Make2D$Visible$Curves
 62
    18
420
        0
370
    -3
100
AcDbSpline
210
0.0
220
0.0
230
1.0
 70
     8
 71
     3
 72
   103
 73
    99
 74
     0
 42
0.0000000001
 43
0.0000000001
 40
0.0000021196836461
 40
0.0000021196836461
 40
0.0000021196836461
 40
0.0000021196836461
 40
1.0
 40
2.0
 40
3.0
 40
4.0
 40
4.976469524593298
 40
4.976469524593298
 40
4.976469524593298
 40
5.970409187098653
 40
5.970409187098653
 40
5.970409187098653
 40
6.970409187098653
 40
7.970409187098657
 40
8.970409187098657
 40
8.970409187098657
 40
8.970409187098657
 40
9.354498396894783
 40
9.354498396894783
 40
9.354498396894783
 40
10.35449839689478
 40
10.35449839689478
 40
10.35449839689478
 40
11.35449839689479
 40
11.35449839689479
 40
11.35449839689479
 40
12.35449839689479
 40
12.35449839689479
 40
12.35449839689479
 40
13.35449839689479
 40
13.35449839689479
 40
14.35449839689479
 40
14.35449839689479
 40
15.35449839689478
 40
15.35449839689478
 40
16.35449839689478
 40
16.35449839689478
 40
17.35449839689478
 40
17.35449839689478
 40
18.35449839689478
 40
18.35449839689478
 40
19.35449839689478
 40
19.35449839689478
 40
20.35449839689478
 40
20.35449839689478
 40
20.35449839689478
 40
21.35449839689478
 40
21.35449839689478
 40
22.35449839689478
 40
22.35449839689478
 40
23.35449839689478
 40
23.35449839689478
 40
24.35449839689478
 40
24.35449839689478
 40
25.35449839689478
 40
25.35449839689478
 40
26.35449839689478
 40
26.35449839689478
 40
27.35449839689478
 40
27.35449839689478
 40
28.35449839689478
 40
28.35449839689478
 40
29.35449839689478
 40
29.35449839689478
 40
30.35449839689478
 40
30.35449839689478
 40
30.35449839689478
 40
31.35449839689478
 40
31.35449839689478
 40
32.35449839689478
 40
32.35449839689478
 40
33.35449839689478
 40
33.35449839689478
 40
34.35449839689478
 40
34.35449839689478
 40
35.35449839689478
 40
35.35449839689478
 40
36.35449839689478
 40
36.35449839689478
 40
37.35449839689478
 40
37.35449839689478
 40
37.35449839689478
 40
38.35449839689478
 40
38.35449839689478
 40
38.35449839689478
 40
39.35467420477084
 40
40.35449839689478
 40
40.35449839689478
 40
40.35449839689478
 40
41.35365884756742
 40
42.35449839689478
 40
42.35449839689478
 40
42.35449839689478
 40
43.35449839689478
 40
44.35449839689478
 40
44.35449839689478
 40
44.35449839689478
 40
44.35450656707094
 40
44.35450656707094
 40
44.35450656707094
 40
44.35450656707094
 10
25.62589479794048
 20
22.851358661881
 30
0.0
 10
25.40306631196495
 20
23.17238273377517
 30
0.0
 10
25.00982891490293
 20
23.84933919699851
 30
0.0
 10
24.54607274083006
 20
24.92788165332062
 30
0.0
 10
24.20700595207114
 20
26.05132211216924
 30
0.0
 10
23.93260128528397
 20
27.17939995525301
 30
0.0
 10
23.7167135512509
 20
27.92577448646768
 30
0.0
 10
23.52371403834343
 20
28.2563185914505
 30
0.0
 10
23.39129757312151
 20
28.2908648303174
 30
0.0
 10
23.28055791160702
 20
28.32378937138457
 30
0.0
 10
23.12418836982118
 20
28.3543358170719
 30
0.0
 10
23.04238520961508
 20
28.37599350115703
 30
0.0
 10
22.88769531191247
 20
28.45246619783946
 30
0.0
 10
22.71775048445144
 20
28.64772256029401
 30
0.0
 10
22.66373837718146
 20
28.81167429456284
 30
0.0
 10
22.6537247127188
 20
28.89568875161285
 30
0.0
 10
22.63838070040964
 20
29.02368470951945
 30
0.0
 10
22.62246962296382
 20
29.15062675542233
 30
0.0
 10
22.6058927398937
 20
29.27678383278883
 30
0.0
 10
22.56449362091305
 20
29.59184860305091
 30
0.0
 10
22.98912967243024
 20
29.80651243271599
 30
0.0
 10
23.16098511430516
 20
29.77112364652349
 30
0.0
 10
23.42707414136058
 20
29.71633010851328
 30
0.0
 10
23.68770141702734
 20
29.63854485584717
 30
0.0
 10
23.95186413654611
 20
29.57541172906623
 30
0.0
 10
24.24692222655403
 20
29.50489481495303
 30
0.0
 10
24.77068484787867
 20
29.44040826934831
 30
0.0
 10
25.07329743245495
 20
29.40490664849903
 30
0.0
 10
25.38148655660889
 20
29.36875080438267
 30
0.0
 10
25.68981113765969
 20
29.33379245585534
 30
0.0
 10
26.30673121355505
 20
29.26627074997874
 30
0.0
 10
26.61576918211455
 20
29.23880218713875
 30
0.0
 10
27.2350009804572
 20
29.19644964165541
 30
0.0
 10
27.54454387630925
 20
29.17454320934988
 30
0.0
 10
28.16348366137474
 20
29.1292700256111
 30
0.0
 10
28.4729466901651
 20
29.106491847094
 30
0.0
 10
29.09185902026105
 20
29.06065231676441
 30
0.0
 10
29.40124947654061
 20
29.03687800140274
 30
0.0
 10
30.01989897156287
 20
28.98762027028569
 30
0.0
 10
30.32910777188847
 20
28.96160399374351
 30
0.0
 10
30.94729347816862
 20
28.90679661869187
 30
0.0
 10
31.27073961792741
 20
28.87601650163811
 30
0.0
 10
31.94633847068245
 20
28.80770340847468
 30
0.0
 10
32.2693389123919
 20
28.77257518170188
 30
0.0
 10
32.57754036943328
 20
28.73647527473799
 30
0.0
 10
32.78891287960344
 20
28.71171702724262
 30
0.0
 10
33.0001699146954
 20
28.68600526078597
 30
0.0
 10
33.42245303472293
 20
28.63267468995013
 30
0.0
 10
33.63337348553522
 20
28.60432796429872
 30
0.0
 10
34.05477216875683
 20
28.54427163252892
 30
0.0
 10
34.26486991656589
 20
28.5104360407407
 30
0.0
 10
34.68386222458048
 20
28.4351500053576
 30
0.0
 10
34.89216698070643
 20
28.39160153124438
 30
0.0
 10
35.30639369719567
 20
28.29269367017459
 30
0.0
 10
35.51008790636943
 20
28.23131847637368
 30
0.0
 10
35.91063802657519
 20
28.08472556223984
 30
0.0
 10
36.10182272052094
 20
27.99193245028994
 30
0.0
 10
36.46601137609814
 20
27.76735291662417
 30
0.0
 10
36.62875812638774
 20
27.6316273635145
 30
0.0
 10
36.91555647196896
 20
27.31330468474159
 30
0.0
 10
37.03515764273374
 20
27.13818186593211
 30
0.0
 10
37.22676398021161
 20
26.75601326946712
 30
0.0
 10
37.30451722653743
 20
26.55814687675705
 30
0.0
 10
37.42392387436286
 20
26.14884990238171
 30
0.0
 10
37.47221335614137
 20
25.9413787063141
 30
0.0
 10
37.50908899578566
 20
25.73108480136657
 30
0.0
 10
37.52942400578053
 20
25.6160793033929
 30
0.0
 10
37.55025622271862
 20
25.50142500667275
 30
0.0
 10
37.59291507048125
 20
25.27281881573947
 30
0.0
 10
37.61492423966605
 20
25.15864630752664
 30
0.0
 10
37.66030206864255
 20
24.9305624656086
 30
0.0
 10
37.68387918921055
 20
24.81670408091885
 30
0.0
 10
37.73280984250608
 20
24.58935438407788
 30
0.0
 10
37.75867415468275
 20
24.47599231243652
 30
0.0
 10
37.81320075009393
 20
24.24989372271207
 30
0.0
 10
37.84279070507558
 20
24.13746399197837
 30
0.0
 10
37.90662392959103
 20
23.91384365876803
 30
0.0
 10
37.942261097953
 20
23.80312267547183
 30
0.0
 10
38.02097654688543
 20
23.58385907549737
 30
0.0
 10
38.06942671675692
 20
23.47838429422758
 30
0.0
 10
38.12696933203371
 20
23.37706653167525
 30
0.0
 10
38.19461595176182
 20
23.2579582130471
 30
0.0
 10
38.31292828263082
 20
23.04949784656856
 30
0.0
 10
38.38165934071179
 20
22.93101692380181
 30
0.0
 10
38.41123555934675
 20
22.88003243769523
 30
0.0
 10
38.47293907165799
 20
22.78290370482913
 30
0.0
 10
38.55521426685465
 20
22.6954066655038
 30
0.0
 10
38.61247464288013
 20
22.67955292108327
 30
0.0
 10
38.62495698176696
 20
22.67841465438306
 30
0.0
 10
38.6489891256459
 20
22.66734083416063
 30
0.0
 10
38.66125421890429
 20
22.64388905756736
 30
0.0
 10
38.66301339421153
 20
22.6314574638019
 30
0.0
 10
38.66964903626554
 20
22.59098290048134
 30
0.0
 10
38.67932862541164
 20
22.50902509407745
 30
0.0
 10
38.66906237565776
 20
22.42695645991791
 30
0.0
 10
38.66169573450081
 20
22.38664015194804
 30
0.0
 10
38.66169559277765
 20
22.38663942862956
 30
0.0
 10
38.66169545105366
 20
22.38663870531122
 30
0.0
 10
38.66169530932892
 20
22.38663798199306
 30
0.0
  0
SPLINE
  5
EF
330
1F
100
AcDbEntity
  8
Make2D$Visible$Curves
 62
    18
420
        0
370
    -3
100
AcDbSpline
210
0.0
220
0.0
230
1.0
 70
    11
 71
     3
 72
    72
 73
    68
 74
     0
 42
0.0000000001
 43
0.0000000001
 40
0.0
 40
0.0
 40
0.0
 40
0.0
 40
1.0
 40
1.0
 40
2.0
 40
2.0
 40
3.0
 40
3.0
 40
4.0
 40
4.0
 40
5.0
 40
5.0
 40
6.0
 40
6.0
 40
7.0
 40
7.0
 40
8.0
 40
8.0
 40
9.0
 40
9.0
 40
10.0
 40
10.0
 40
10.0
 40
11.0
 40
11.0
 40
11.0
 40
12.0
 40
12.0
 40
13.0
 40
13.0
 40
14.0
 40
14.0
 40
15.0
 40
15.0
 40
16.0
 40
16.0
 40
17.0
 40
17.0
 40
18.0
 40
18.0
 40
19.0
 40
19.0
 40
20.0
 40
20.0
 40
21.0
 40
21.0
 40
21.0
 40
22.0
 40
22.0
 40
23.0
 40
23.0
 40
24.0
 40
24.0
 40
25.0
 40
25.0
 40
25.9440454171427
 40
25.9440454171427
 40
25.9440454171427
 40
26.94171228193566
 40
26.94171228193566
 40
27.94171228193566
 40
27.94171228193566
 40
28.94171228193566
 40
28.94171228193566
 40
29.94171228193566
 40
29.94171228193566
 40
30.94171228193566
 40
30.94171228193566
 40
30.94171228193566
 40
30.94171228193566
 10
33.3232036492019
 20
27.9460318740089
 30
0.0
 10
33.52385332350427
 20
27.92214630824158
 30
0.0
 10
33.72411996580024
 20
27.89515535708005
 30
0.0
 10
34.12388718637939
 20
27.83496268396856
 30
0.0
 10
34.32226342018981
 20
27.79691998418377
 30
0.0
 10
34.71600113485235
 20
27.70494185815615
 30
0.0
 10
34.9081380602845
 20
27.64159156662034
 30
0.0
 10
35.28294804735057
 20
27.48016852650471
 30
0.0
 10
35.4464392324589
 20
27.36522174267917
 30
0.0
 10
35.72559398582604
 20
27.06685764749263
 30
0.0
 10
35.83746356575813
 20
26.89979329930545
 30
0.0
 10
36.00578713211921
 20
26.52990000174324
 30
0.0
 10
36.07630593116211
 20
26.34043701536742
 30
0.0
 10
36.19005756097242
 20
25.9524783674264
 30
0.0
 10
36.24085919680806
 20
25.75694226717773
 30
0.0
 10
36.33031411034034
 20
25.36275651412412
 30
0.0
 10
36.37505953723439
 20
25.16569674881677
 30
0.0
 10
36.4645863312783
 20
24.77164344064097
 30
0.0
 10
36.50930673202241
 20
24.57455729435751
 30
0.0
 10
36.59866154095505
 20
24.18026601739955
 30
0.0
 10
36.6356018652711
 20
23.98169432677103
 30
0.0
 10
36.66480510943687
 20
23.78169658399296
 30
0.0
 10
36.69594162173786
 20
23.5074151252256
 30
0.0
 10
36.55329860727858
 20
23.33573701721293
 30
0.0
 10
36.27766740801255
 20
23.27427898798936
 30
0.0
 10
35.84848899310418
 20
23.17858423487068
 30
0.0
 10
35.41436111922519
 20
23.11786531269017
 30
0.0
 10
34.53620645352612
 20
23.06637913020548
 30
0.0
 10
34.0973148024229
 20
23.04487632248279
 30
0.0
 10
33.21990286370885
 20
23.01035127407668
 30
0.0
 10
32.78099352406778
 20
22.9971253054675
 30
0.0
 10
31.9027681042175
 20
22.97874647943687
 30
0.0
 10
31.46362466186156
 20
22.97959892583096
 30
0.0
 10
30.58527631228799
 20
23.00138753743796
 30
0.0
 10
30.14730729141436
 20
23.03165026262871
 30
0.0
 10
29.27377955749347
 20
23.13091255178473
 30
0.0
 10
28.84233954464355
 20
23.21215709388381
 30
0.0
 10
27.99010722716477
 20
23.43787297312415
 30
0.0
 10
27.58565554281603
 20
23.60625812919927
 30
0.0
 10
26.82008112289981
 20
24.05408287425934
 30
0.0
 10
26.49567531857193
 20
24.34359393792384
 30
0.0
 10
25.96362652117665
 20
25.05381344752177
 30
0.0
 10
25.74915299939593
 20
25.43605612998582
 30
0.0
 10
25.42330770966845
 20
26.25480735024412
 30
0.0
 10
25.29162974006172
 20
26.67357275725399
 30
0.0
 10
25.19119644571202
 20
27.10172796114461
 30
0.0
 10
25.17165991591372
 20
27.18364560903054
 30
0.0
 10
25.1573429994549
 20
27.26647508218127
 30
0.0
 10
25.13914839321606
 20
27.4339576790123
 30
0.0
 10
25.13532959363698
 20
27.51790815492989
 30
0.0
 10
25.1382490015595
 20
27.68622746176919
 30
0.0
 10
25.14602663210468
 20
27.77005794319317
 30
0.0
 10
25.1742177463629
 20
27.93706056204982
 30
0.0
 10
25.20263927384289
 20
28.01574628167095
 30
0.0
 10
25.28574235109537
 20
28.1593531689995
 30
0.0
 10
25.34176116086047
 20
28.21350959586214
 30
0.0
 10
25.41344320096914
 20
28.25208569207283
 30
0.0
 10
25.93228684257062
 20
28.33423262942365
 30
0.0
 10
26.45533290225112
 20
28.38091955337367
 30
0.0
 10
27.51106287655605
 20
28.40339962962921
 30
0.0
 10
28.03886625446617
 20
28.39668882922434
 30
0.0
 10
29.09311677301582
 20
28.34733929619223
 30
0.0
 10
29.61970929851969
 20
28.3141114016881
 30
0.0
 10
30.67182888198568
 20
28.23054935670367
 30
0.0
 10
31.19734452552484
 20
28.18286067529061
 30
0.0
 10
32.24728751621555
 20
28.07566799462278
 30
0.0
 10
32.79919899756625
 20
28.0084099845767
 30
0.0
 10
33.3232036492019
 20
27.9460318740089
 30
0.0
  0
SPLINE
  5
F0
330
1F
100
AcDbEntity
  8
0
370
    -3
100
AcDbSpline
210
0.0
220
0.0
230
1.0
 70
     8
 71
     5
 72
    12
 73
     6
 74
     0
 42
0.0000000001
 43
0.0000000001
 40
-37.79274481442121
 40
-37.79274481442121
 40
-37.79274481442121
 40
-37.79274481442121
 40
-37.79274481442121
 40
-37.79274481442121
 40
-37.78047231557851
 40
-37.78047231557851
 40
-37.78047231557851
 40
-37.78047231557851
 40
-37.78047231557851
 40
-37.78047231557851
 10
23.20687350194999
 20
29.75036252012441
 30
0.0
 10
23.20654311371899
 20
29.75265005069954
 30
0.0
 10
23.20621251635498
 20
29.75493745593494
 30
0.0
 10
23.20588170968458
 20
29.75722473624457
 30
0.0
 10
23.20555069353435
 20
29.75951189204172
 30
0.0
 10
23.20521946773073
 20
29.76179892373912
 30
0.0
  0
SPLINE
  5
F1
330
1F
100
AcDbEntity
  8
0
370
    -3
100
AcDbSpline
210
0.0
220
0.0
230
1.0
 70
     8
 71
     3
 72
     8
 73
     4
 74
     0
 42
0.0000000001
 43
0.0000000001
 40
7.059326857812475
 40
7.059326857812475
 40
7.059326857812475
 40
7.059326857812475
 40
7.060685706720511
 40
7.060685706720511
 40
7.060685706720511
 40
7.060685706720511
 10
38.60866084028909
 20
22.68065698052517
 30
0.0
 10
38.60833719465458
 20
22.68060919295217
 30
0.0
 10
38.60801354999171
 20
22.68056139928493
 30
0.0
 10
38.60768990630038
 20
22.68051359952795
 30
0.0
  0
SPLINE
  5
F2
330
1F
100
AcDbEntity
  8
0
370
    -3
100
AcDbSpline
210
0.0
220
0.0
230
1.0
 70
     8
 71
     2
 72
     9
 73
     6
 74
     0
 42
0.0000000001
 43
0.0000000001
 40
29.85907283507615
 40
29.85907283507615
 40
29.85907283507615
 40
30.85906431058556
 40
31.85906601548367
 40
32.85906772038179
 40
33.33877089679246
 40
33.33877089679246
 40
33.33877089679246
 10
-9.729259441610544
 20
21.73909285684773
 30
0.0
 10
-9.724304029336004
 20
21.93256713277545
 30
0.0
 10
-9.614532155377425
 20
22.30414865433101
 30
0.0
 10
-9.39924058314191
 20
22.62745202433074
 30
0.0
 10
-9.166340550756168
 20
22.7971812450759
 30
0.0
 10
-9.083309089037758
 20
22.8359960550343
 30
0.0
  0
SPLINE
  5
F3
330
1F
100
AcDbEntity
  8
0
370
    -3
100
AcDbSpline
210
0.0
220
0.0
230
1.0
 70
     8
 71
     2
 72
     9
 73
     6
 74
     0
 42
0.0000000001
 43
0.0000000001
 40
29.85907283507615
 40
29.85907283507615
 40
29.85907283507615
 40
30.85906431058556
 40
31.85906601548367
 40
32.85906772038179
 40
33.33875753132002
 40
33.33875753132002
 40
33.33875753132002
 10
9.72925944161053
 20
21.73909285684773
 30
0.0
 10
9.72430402933599
 20
21.93256713277545
 30
0.0
 10
9.614532155377411
 20
22.30414865433101
 30
0.0
 10
9.399240583141896
 20
22.62745202433074
 30
0.0
 10
9.166342654431691
 20
22.79717971199234
 30
0.0
 10
9.083313715871027
 20
22.83599389210807
 30
0.0
  0
SPLINE
  5
F4
330
1F
100
AcDbEntity
  8
0
370
    -3
100
AcDbSpline
210
0.0
220
0.0
230
1.0
 70
     8
 71
     2
 72
    11
 73
     8
 74
     0
 42
0.0000000001
 43
0.0000000001
 40
0.0
 40
0.0
 40
0.0
 40
1.0
 40
2.0
 40
3.0
 40
4.0
 40
5.0
 40
6.0
 40
6.0
 40
6.0
 10
0.000004798978992
 20
22.7632735273552
 30
0.0
 10
-0.6863447542862815
 20
22.76291253432667
 30
0.0
 10
-2.059027705207725
 20
22.76213508353179
 30
0.0
 10
-3.431782275934879
 20
22.77435226821024
 30
0.0
 10
-4.803324979447538
 20
22.82304491280777
 30
0.0
 10
-6.173821305147825
 20
22.94599417260093
 30
0.0
 10
-7.506994194860496
 20
23.21775040175688
 30
0.0
 10
-8.190502778394418
 20
23.4673243392975
 30
0.0
  0
SPLINE
  5
F5
330
1F
100
AcDbEntity
  8
0
370
    -3
100
AcDbSpline
210
0.0
220
0.0
230
1.0
 70
    12
 71
     3
 72
     8
 73
     4
 74
     0
 42
0.0000000001
 43
0.0000000001
 40
6.0
 40
6.0
 40
6.0
 40
6.0
 40
6.1095531143
 40
6.1095531143
 40
6.1095531143
 40
6.1095531143
 10
-8.190502778394409
 20
23.46732433929749
 30
0.0
 41
1.173246788037126
 10
-8.228704398522233
 20
23.47779532422241
 30
0.0
 41
0.9727685695181932
 10
-8.252349957566095
 20
23.51027123381163
 30
0.0
 41
0.9462828239155063
 10
-8.249097929450214
 20
23.55085246467856
 30
0.0
 41
1.093789551229066
  0
LINE
  5
F6
330
1F
100
AcDbEntity
  8
0
370
    -3
100
AcDbLine
 10
-8.249097929450201
 20
23.55085246467855
 30
0.0
 11
-8.229834553867292
 21
23.62519950688704
 31
0.0
  0
SPLINE
  5
F7
330
1F
100
AcDbEntity
  8
0
370
    -3
100
AcDbSpline
210
0.0
220
0.0
230
1.0
 70
     8
 71
     2
 72
     9
 73
     6
 74
     0
 42
0.0000000001
 43
0.0000000001
 40
6.186355199714383
 40
6.186355199714383
 40
6.186355199714383
 40
7.186355199714383
 40
8.186355199714383
 40
9.186355199714383
 40
10.18635519971438
 40
10.18635519971438
 40
10.18635519971438
 10
-8.229834553867292
 20
23.62519950688704
 30
0.0
 10
-8.22413482873283
 20
23.64411580976884
 30
0.0
 10
-8.196674106737177
 20
23.67252438148788
 30
0.0
 10
-8.159352012807446
 20
23.68527122920639
 30
0.0
 10
-8.120477093033216
 20
23.6805395384027
 30
0.0
 10
-8.101931712969517
 20
23.67486335856309
 30
0.0
  0
SPLINE
  5
F8
330
1F
100
AcDbEntity
  8
0
370
    -3
100
AcDbSpline
210
0.0
220
0.0
230
1.0
 70
     8
 71
     2
 72
    11
 73
     8
 74
     0
 42
0.0000000001
 43
0.0000000001
 40
10.18635519971438
 40
10.18635519971438
 40
10.18635519971438
 40
11.18635519971438
 40
12.18635519971438
 40
13.18635519971438
 40
14.18635519971438
 40
15.18635519971438
 40
16.18635519971438
 40
16.18635519971438
 40
16.18635519971438
 10
-8.101931712969517
 20
23.67486335856309
 30
0.0
 10
-7.437408948918957
 20
23.48784384002231
 30
0.0
 10
-6.102054988659617
 20
23.26254639012111
 30
0.0
 10
-4.748698382085067
 20
23.149152875177
 30
0.0
 10
-3.392353736630454
 20
23.10688781254465
 30
0.0
 10
-2.035408666144875
 20
23.09664524088443
 30
0.0
 10
-0.678467175974717
 20
23.09691506165137
 30
0.0
 10
0.000004798978992
 20
23.09736691560229
 30
0.0
  0
SPLINE
  5
F9
330
1F
100
AcDbEntity
  8
0
370
    -3
100
AcDbSpline
210
0.0
220
0.0
230
1.0
 70
     8
 71
     2
 72
    11
 73
     8
 74
     0
 42
0.0000000001
 43
0.0000000001
 40
16.18635519971438
 40
16.18635519971438
 40
16.18635519971438
 40
17.18635519971438
 40
18.18635519971438
 40
19.18635519971438
 40
20.18635519971438
 40
21.18635519971438
 40
22.18635519971438
 40
22.18635519971438
 40
22.18635519971438
 10
0.000004798978992
 20
23.09736691560229
 30
0.0
 10
0.6784767739327009
 20
23.09691506165137
 30
0.0
 10
2.035418264102859
 20
23.09664524088443
 30
0.0
 10
3.392363334588438
 20
23.10688781254465
 30
0.0
 10
4.748707980043051
 20
23.149152875177
 30
0.0
 10
6.102064586617601
 20
23.26254639012111
 30
0.0
 10
7.437418546876941
 20
23.48784384002231
 30
0.0
 10
8.1019413109275
 20
23.67486335856309
 30
0.0
  0
SPLINE
  5
FA
330
1F
100
AcDbEntity
  8
0
370
    -3
100
AcDbSpline
210
0.0
220
0.0
230
1.0
 70
     8
 71
     2
 72
     9
 73
     6
 74
     0
 42
0.0000000001
 43
0.0000000001
 40
22.18635519971438
 40
22.18635519971438
 40
22.18635519971438
 40
23.18635519971438
 40
24.18635519971438
 40
25.18635519971438
 40
26.18635519971438
 40
26.18635519971438
 40
26.18635519971438
 10
8.1019413109275
 20
23.67486335856309
 30
0.0
 10
8.1204866909912
 20
23.6805395384027
 30
0.0
 10
8.15936161076543
 20
23.68527122920639
 30
0.0
 10
8.196683704695161
 20
23.67252438148788
 30
0.0
 10
8.224144426690813
 20
23.64411580976884
 30
0.0
 10
8.229844151825276
 20
23.62519950688704
 30
0.0
  0
LINE
  5
FB
330
1F
100
AcDbEntity
  8
0
370
    -3
100
AcDbLine
 10
8.229844151825276
 20
23.62519950688704
 30
0.0
 11
8.249107527408185
 21
23.55085246467855
 31
0.0
  0
SPLINE
  5
FC
330
1F
100
AcDbEntity
  8
0
370
    -3
100
AcDbSpline
210
0.0
220
0.0
230
1.0
 70
    12
 71
     3
 72
     8
 73
     4
 74
     0
 42
0.0000000001
 43
0.0000000001
 40
26.26315728512877
 40
26.26315728512877
 40
26.26315728512877
 40
26.26315728512877
 40
26.37271039942877
 40
26.37271039942877
 40
26.37271039942877
 40
26.37271039942877
 10
8.249107527408157
 20
23.55085246467856
 30
0.0
 41
1.093789551229066
 10
8.252359555524068
 20
23.51027123381163
 30
0.0
 41
0.9462828239155063
 10
8.228713996480217
 20
23.47779532422241
 30
0.0
 41
0.9727685695181932
 10
8.190512376352405
 20
23.46732433929749
 30
0.0
 41
1.173246788037126
  0
SPLINE
  5
FD
330
1F
100
AcDbEntity
  8
0
370
    -3
100
AcDbSpline
210
0.0
220
0.0
230
1.0
 70
     8
 71
     2
 72
    11
 73
     8
 74
     0
 42
0.0000000001
 43
0.0000000001
 40
26.37271039942877
 40
26.37271039942877
 40
26.37271039942877
 40
27.37271039942877
 40
28.37271039942877
 40
29.37271039942877
 40
30.37271039942877
 40
31.37271039942877
 40
32.37271039942877
 40
32.37271039942877
 40
32.37271039942877
 10
8.190512376352402
 20
23.4673243392975
 30
0.0
 10
7.50700379281848
 20
23.21775040175688
 30
0.0
 10
6.173830903105809
 20
22.94599417260093
 30
0.0
 10
4.803334577405522
 20
22.82304491280777
 30
0.0
 10
3.431791873892863
 20
22.77435226821024
 30
0.0
 10
2.059037303165709
 20
22.76213508353179
 30
0.0
 10
0.6863543522442654
 20
22.76291253432667
 30
0.0
 10
0.000004798978992
 20
22.7632735273552
 30
0.0
  0
SPLINE
  5
FE
330
1F
100
AcDbEntity
  8
0
370
    -3
100
AcDbSpline
210
0.0
220
0.0
230
1.0
 70
     8
 71
     2
 72
     7
 73
     4
 74
     0
 42
0.0000000001
 43
0.0000000001
 40
0.0
 40
0.0
 40
0.0
 40
1.0
 40
2.0
 40
2.0
 40
2.0
 10
-8.234534154579691
 20
23.60844682708433
 30
0.0
 10
-8.233367227665397
 20
26.7989465505335
 30
0.0
 10
-8.24067408409654
 20
33.17994233414836
 30
0.0
 10
-8.239756290816715
 20
36.37044225081259
 30
0.0
  0
SPLINE
  5
FF
330
1F
100
AcDbEntity
  8
0
370
    -3
100
AcDbSpline
210
0.0
220
0.0
230
1.0
 70
     8
 71
     2
 72
    11
 73
     8
 74
     0
 42
0.0000000001
 43
0.0000000001
 40
2.0
 40
2.0
 40
2.0
 40
3.000000039736431
 40
4.000000079472863
 40
5.000000119209294
 40
6.000000158945726
 40
7.000000198682157
 40
8.0
 40
8.0
 40
8.0
 10
-8.239756290816715
 20
36.37044225081259
 30
0.0
 10
-8.24321769524299
 20
36.50100253987928
 30
0.0
 10
-8.162372682919468
 20
36.74937772278503
 30
0.0
 10
-7.981297840000323
 20
36.94067194538061
 30
0.0
 10
-7.739972579766672
 20
37.040028023102
 30
0.0
 10
-7.484678439904471
 20
37.08389009363329
 30
0.0
 10
-7.226445715596938
 20
37.09934871757339
 30
0.0
 10
-7.097135519964397
 20
37.09863530499971
 30
0.0
  0
SPLINE
  5
100
330
1F
100
AcDbEntity
  8
0
370
    -3
100
AcDbSpline
210
0.0
220
0.0
230
1.0
 70
     8
 71
     2
 72
    11
 73
     8
 74
     0
 42
0.0000000001
 43
0.0000000001
 40
8.0
 40
8.0
 40
8.0
 40
9.0
 40
10.0
 40
11.0
 40
12.0
 40
13.0
 40
14.0
 40
14.0
 40
14.0
 10
-7.097135519964397
 20
37.09863530499971
 30
0.0
 10
-6.505707638823097
 20
37.09643720424466
 30
0.0
 10
-5.322858648717485
 20
37.09046875842066
 30
0.0
 10
-4.140006951012751
 20
37.08509190719702
 30
0.0
 10
-2.95715046035285
 20
37.0808629469363
 30
0.0
 10
-1.774290117941021
 20
37.07790967621131
 30
0.0
 10
-0.5914270708836824
 20
37.07635575254967
 30
0.0
 10
0.0000049674050757
 20
37.07634491161706
 30
0.0
  0
SPLINE
  5
101
330
1F
100
AcDbEntity
  8
0
370
    -3
100
AcDbSpline
210
0.0
220
0.0
230
1.0
 70
     8
 71
     2
 72
    11
 73
     8
 74
     0
 42
0.0000000001
 43
0.0000000001
 40
14.0
 40
14.0
 40
14.0
 40
15.0
 40
16.0
 40
17.0
 40
18.0
 40
19.0
 40
20.0
 40
20.0
 40
20.0
 10
0.0000049674050757
 20
37.07634491161706
 30
0.0
 10
0.5914370056938338
 20
37.07635575254967
 30
0.0
 10
1.774300052751173
 20
37.07790967621131
 30
0.0
 10
2.957160395163001
 20
37.0808629469363
 30
0.0
 10
4.140016885822902
 20
37.08509190719702
 30
0.0
 10
5.322868583527637
 20
37.09046875842066
 30
0.0
 10
6.505717573633248
 20
37.09643720424466
 30
0.0
 10
7.097145454774548
 20
37.09863530499971
 30
0.0
  0
SPLINE
  5
102
330
1F
100
AcDbEntity
  8
0
370
    -3
100
AcDbSpline
210
0.0
220
0.0
230
1.0
 70
     8
 71
     2
 72
    11
 73
     8
 74
     0
 42
0.0000000001
 43
0.0000000001
 40
20.0
 40
20.0
 40
20.0
 40
20.99999980131784
 40
21.99999984105428
 40
22.99999988079071
 40
23.99999992052714
 40
24.99999996026357
 40
26.0
 40
26.0
 40
26.0
 10
7.097145454774548
 20
37.09863530499971
 30
0.0
 10
7.22645565040709
 20
37.09934871757339
 30
0.0
 10
7.484688374714622
 20
37.08389009363329
 30
0.0
 10
7.739982514576823
 20
37.040028023102
 30
0.0
 10
7.981307774810475
 20
36.94067194538061
 30
0.0
 10
8.16238261772962
 20
36.74937772278503
 30
0.0
 10
8.243227630053141
 20
36.50100253987928
 30
0.0
 10
8.239766225626866
 20
36.37044225081259
 30
0.0
  0
SPLINE
  5
103
330
1F
100
AcDbEntity
  8
0
370
    -3
100
AcDbSpline
210
0.0
220
0.0
230
1.0
 70
     8
 71
     2
 72
     7
 73
     4
 74
     0
 42
0.0000000001
 43
0.0000000001
 40
26.0
 40
26.0
 40
26.0
 40
27.0
 40
28.0
 40
28.0
 40
28.0
 10
8.239766225626866
 20
36.37044225081259
 30
0.0
 10
8.240684018906691
 20
33.17994233414836
 30
0.0
 10
8.233377162475549
 20
26.7989465505335
 30
0.0
 10
8.234544089389843
 20
23.60844682708433
 30
0.0
  0
SPLINE
  5
104
330
1F
100
AcDbEntity
  8
0
370
    -3
100
AcDbSpline
210
0.0
220
0.0
230
1.0
 70
     8
 71
     2
 72
     7
 73
     4
 74
     0
 42
0.0000000001
 43
0.0000000001
 40
15.53508026151438
 40
15.53508026151438
 40
15.53508026151438
 40
16.45235323737369
 40
17.45235323737369
 40
17.45235323737369
 40
17.45235323737369
 10
-8.250579729601284
 20
23.33936818392399
 30
0.0
 10
-8.251300112926302
 20
23.39009174327516
 30
0.0
 10
-8.251524898771592
 20
23.49614393617268
 30
0.0
 10
-8.24905260157577
 20
23.5513949072
 30
0.0
  0
SPLINE
  5
105
330
1F
100
AcDbEntity
  8
0
370
    -3
100
AcDbSpline
210
0.0
220
0.0
230
1.0
 70
     8
 71
     2
 72
     7
 73
     4
 74
     0
 42
0.0000000001
 43
0.0000000001
 40
15.53505907761717
 40
15.53505907761717
 40
15.53505907761717
 40
16.45235323737369
 40
17.45235323737369
 40
17.45235323737369
 40
17.45235323737369
 10
8.250579695625063
 20
23.33936584106053
 30
0.0
 10
8.251300109740427
 20
23.39009057150735
 30
0.0
 10
8.251524898069377
 20
23.49614393617268
 30
0.0
 10
8.249052600873554
 20
23.5513949072
 30
0.0
  0
SPLINE
  5
106
330
1F
100
AcDbEntity
  8
Make2D$Visible$Tangents
 62
    18
420
        0
370
    -3
100
AcDbSpline
210
0.0
220
0.0
230
1.0
 70
     8
 71
     3
 72
    25
 73
    21
 74
     0
 42
0.0000000001
 43
0.0000000001
 40
-7.0
 40
-7.0
 40
-7.0
 40
-7.0
 40
-5.999992802600457
 40
-4.999985605200914
 40
-3.999978407801371
 40
-2.999971210401828
 40
-1.999964013002285
 40
-0.9999568156027417
 40
0.0
 40
0.0
 40
0.0
 40
0.9999719122290828
 40
1.999975423200448
 40
2.999978934171812
 40
3.999982445143177
 40
4.999985956114541
 40
5.999989467085905
 40
6.99999297805727
 40
7.999996489028636
 40
9.0
 40
9.0
 40
9.0
 40
9.0
 10
-8.234948421407509
 20
27.76469172664812
 30
0.0
 10
-8.282622239647182
 20
27.85868889116462
 30
0.0
 10
-8.40217035695214
 20
28.03539774643899
 30
0.0
 10
-8.651963363158828
 20
28.23480101603323
 30
0.0
 10
-8.933108490140782
 20
28.37881704068871
 30
0.0
 10
-9.220531096257176
 20
28.51694876687628
 30
0.0
 10
-9.550807843702145
 20
28.52886500642496
 30
0.0
 10
-9.79992137561375
 20
28.30965893726989
 30
0.0
 10
-9.929535251725312
 20
28.14556031798053
 30
0.0
 10
-9.972788005068494
 20
28.04810155920676
 30
0.0
 10
-10.02255524762991
 20
27.85139136185447
 30
0.0
 10
-10.04955535444599
 20
27.44621620041737
 30
0.0
 10
-10.05863902501603
 20
26.83961513128732
 30
0.0
 10
-10.05355008147724
 20
26.23232702972938
 30
0.0
 10
-10.04342148143154
 20
25.62572798530098
 30
0.0
 10
-10.01796883498405
 20
25.01767954498245
 30
0.0
 10
-9.921217537054233
 20
24.4209655362167
 30
0.0
 10
-9.663041176773405
 20
23.84119322220113
 30
0.0
 10
-9.091769405179733
 20
23.57365913913625
 30
0.0
 10
-8.69204503505101
 20
23.44740511837656
 30
0.0
 10
-8.494519047326875
 20
23.39849388692398
 30
0.0
  0
SPLINE
  5
107
330
1F
100
AcDbEntity
  8
Make2D$Visible$Tangents
 62
    18
420
        0
370
    -3
100
AcDbSpline
210
0.0
220
0.0
230
1.0
 70
     8
 71
     2
 72
     6
 73
     3
 74
     0
 42
0.0000000001
 43
0.0000000001
 40
9.0
 40
9.0
 40
9.0
 40
10.0
 40
10.0
 40
10.0
 10
-8.494519047326875
 20
23.39849388692396
 30
0.0
 10
-7.412662422328069
 20
23.13060539086576
 30
0.0
 10
-6.311550432795215
 20
22.95891811192799
 30
0.0
  0
SPLINE
  5
108
330
1F
100
AcDbEntity
  8
Make2D$Visible$Tangents
 62
    18
420
        0
370
    -3
100
AcDbSpline
210
0.0
220
0.0
230
1.0
 70
     8
 71
     3
 72
    14
 73
    10
 74
     0
 42
0.0000000001
 43
0.0000000001
 40
10.0
 40
10.0
 40
10.0
 40
10.0
 40
10.54165293249129
 40
11.54165293249129
 40
12.54165293249129
 40
13.54165293249129
 40
14.54165293249129
 40
15.54165293249129
 40
16.54165293249129
 40
16.54165293249129
 40
16.54165293249129
 40
16.54165293249129
 10
-6.311550432795215
 20
22.95891811192799
 30
0.0
 10
-6.138798166398445
 20
22.933511245692
 30
0.0
 10
-5.64692443560007
 20
22.86378855757291
 30
0.0
 10
-4.83157686056775
 20
22.78334495557978
 30
0.0
 10
-3.86642737051487
 20
22.72634794882942
 30
0.0
 10
-2.900079393744576
 20
22.69713719011592
 30
0.0
 10
-1.933431158793539
 20
22.68423969538555
 30
0.0
 10
-0.9667151059551742
 20
22.68006623979863
 30
0.0
 10
-0.3222350749123137
 20
22.67980116356677
 30
0.0
 10
0.0000049229970642
 20
22.67979660827518
 30
0.0
  0
SPLINE
  5
109
330
1F
100
AcDbEntity
  8
Make2D$Visible$Tangents
 62
    18
420
        0
370
    -3
100
AcDbSpline
210
0.0
220
0.0
230
1.0
 70
     8
 71
     2
 72
     6
 73
     3
 74
     0
 42
0.0000000001
 43
0.0000000001
 40
23.08330586430662
 40
23.08330586430662
 40
23.08330586430662
 40
24.08330586430662
 40
24.08330586430662
 40
24.08330586430662
 10
6.311560278135588
 20
22.95891811188009
 30
0.0
 10
7.412672267661165
 20
23.13060539086572
 30
0.0
 10
8.494528892660142
 20
23.39849388692396
 30
0.0
  0
SPLINE
  5
10A
330
1F
100
AcDbEntity
  8
Make2D$Visible$Tangents
 62
    18
420
        0
370
    -3
100
AcDbSpline
210
0.0
220
0.0
230
1.0
 70
     8
 71
     3
 72
    25
 73
    21
 74
     0
 42
0.0000000001
 43
0.0000000001
 40
24.08330586430662
 40
24.08330586430662
 40
24.08330586430662
 40
24.08330586430662
 40
25.08330937527799
 40
26.08331288624935
 40
27.08331639722072
 40
28.08331990819208
 40
29.08332341916345
 40
30.08332693013481
 40
31.08333044110618
 40
32.08333395207754
 40
33.08330586430662
 40
33.08330586430662
 40
33.08330586430662
 40
34.08326267990937
 40
35.08326987730891
 40
36.08327707470845
 40
37.083284272108
 40
38.08329146950754
 40
39.08329866690708
 40
40.08330586430662
 40
40.08330586430662
 40
40.08330586430662
 40
40.08330586430662
 10
8.494528892660142
 20
23.39849388692398
 30
0.0
 10
8.692054880384276
 20
23.44740511837656
 30
0.0
 10
9.091779250513
 20
23.57365913913625
 30
0.0
 10
9.663051022106671
 20
23.84119322220113
 30
0.0
 10
9.9212273823875
 20
24.4209655362167
 30
0.0
 10
10.01797868031731
 20
25.01767954498245
 30
0.0
 10
10.0434313267648
 20
25.62572798530098
 30
0.0
 10
10.05355992681051
 20
26.23232702972938
 30
0.0
 10
10.0586488703493
 20
26.83961513128732
 30
0.0
 10
10.04956519977925
 20
27.44621620041737
 30
0.0
 10
10.02256509296318
 20
27.85139136185447
 30
0.0
 10
9.972797850401761
 20
28.04810155920676
 30
0.0
 10
9.929545097058579
 20
28.14556031798053
 30
0.0
 10
9.799931220947016
 20
28.30965893726989
 30
0.0
 10
9.550817689035412
 20
28.52886500642496
 30
0.0
 10
9.220540941590443
 20
28.51694876687628
 30
0.0
 10
8.933118335474049
 20
28.37881704068871
 30
0.0
 10
8.651973208492095
 20
28.23480101603323
 30
0.0
 10
8.402180202285408
 20
28.03539774643899
 30
0.0
 10
8.282632084980449
 20
27.85868889116462
 30
0.0
 10
8.234958266740776
 20
27.76469172664812
 30
0.0
  0
SPLINE
  5
10B
330
1F
100
AcDbEntity
  8
Make2D$Visible$Tangents
 62
    18
420
        0
370
    -3
100
AcDbSpline
210
0.0
220
0.0
230
1.0
 70
     8
 71
     2
 72
    10
 73
     7
 74
     0
 42
0.0000000001
 43
0.0000000001
 40
1.379638189967468
 40
1.379638189967468
 40
1.379638189967468
 40
2.379638189967468
 40
3.379638189967468
 40
4.379638189967467
 40
5.379638189967467
 40
6.379638189967467
 40
6.379638189967467
 40
6.379638189967467
 10
-8.369189315002487
 20
22.58349945383744
 30
0.0
 10
-8.596236771453206
 20
22.6520683338648
 30
0.0
 10
-9.041981204262115
 20
22.81434952311383
 30
0.0
 10
-9.474808552336171
 20
23.00885530426461
 30
0.0
 10
-9.879893676892479
 20
23.25864419165605
 30
0.0
 10
-10.24285249406786
 20
23.63410607584614
 30
0.0
 10
-10.37845356570971
 20
23.82928557670277
 30
0.0
  0
SPLINE
  5
10C
330
1F
100
AcDbEntity
  8
Make2D$Visible$Tangents
 62
    18
420
        0
370
    -3
100
AcDbSpline
210
0.0
220
0.0
230
1.0
 70
     8
 71
     3
 72
    10
 73
     6
 74
     0
 42
0.0000000001
 43
0.0000000001
 40
6.379638189967467
 40
6.379638189967467
 40
6.379638189967467
 40
6.379638189967467
 40
7.379638189967467
 40
8.379638189967467
 40
9.379638189967467
 40
9.379638189967467
 40
9.379638189967467
 40
9.379638189967467
 10
-10.37845356570971
 20
23.82928557670277
 30
0.0
 10
-10.65037010520759
 20
24.22067285566188
 30
0.0
 10
-10.94526040063933
 20
25.13531245584746
 30
0.0
 10
-11.06190909054526
 20
26.55243958576724
 30
0.0
 10
-11.0738075426293
 20
27.50177843474835
 30
0.0
 10
-11.02129976911813
 20
27.97278282023288
 30
0.0
  0
SPLINE
  5
10D
330
1F
100
AcDbEntity
  8
Make2D$Visible$Tangents
 62
    18
420
        0
370
    -3
100
AcDbSpline
210
0.0
220
0.0
230
1.0
 70
     8
 71
     3
 72
    21
 73
    17
 74
     0
 42
0.0000000001
 43
0.0000000001
 40
9.379638189967467
 40
9.379638189967467
 40
9.379638189967467
 40
9.379638189967467
 40
10.37963818996747
 40
11.37963818996747
 40
12.37963818996747
 40
12.37963818996747
 40
12.37963818996747
 40
13.37963818996747
 40
14.37963818996747
 40
15.37963818996747
 40
15.37963818996747
 40
15.37963818996747
 40
16.37963818996747
 40
16.37963818996747
 40
16.37963818996747
 40
17.37963818996747
 40
17.37963818996747
 40
17.37963818996747
 40
17.37963818996747
 10
-11.02129976911813
 20
27.97278282023288
 30
0.0
 10
-11.02026101285036
 20
27.9821006550001
 30
0.0
 10
-11.01774572849506
 20
28.00184172568785
 30
0.0
 10
-11.01396366994074
 20
28.02971334914439
 30
0.0
 10
-11.01123513402329
 20
28.04826519073245
 30
0.0
 10
-11.00975070052336
 20
28.05791384085624
 30
0.0
 10
-10.99087118292509
 20
28.20397665894961
 30
0.0
 10
-10.90601133539921
 20
28.49223014595894
 30
0.0
 10
-10.6055585142801
 20
28.82748830756019
 30
0.0
 10
-10.36685477885744
 20
28.99932620189248
 30
0.0
 10
-10.23738951325841
 20
29.07004044346584
 30
0.0
 10
-10.08205149894117
 20
29.15702622362641
 30
0.0
 10
-9.807227478066196
 20
29.25277416517007
 30
0.0
 10
-9.631391902815082
 20
29.27913754452808
 30
0.0
 10
-9.164481593523604
 20
29.35210278157338
 30
0.0
 10
-8.693645197803804
 20
29.39483665573569
 30
0.0
 10
-8.22323653286027
 20
29.43737534998844
 30
0.0
  0
SPLINE
  5
10E
330
1F
100
AcDbEntity
  8
Make2D$Visible$Tangents
 62
    18
420
        0
370
    -3
100
AcDbSpline
210
0.0
220
0.0
230
1.0
 70
     8
 71
     2
 72
    10
 73
     7
 74
     0
 42
0.0000000001
 43
0.0000000001
 40
-34.62036180813822
 40
-34.62036180813822
 40
-34.62036180813822
 40
-33.62036180813822
 40
-32.62036180813822
 40
-31.62036180813822
 40
-30.62036180813822
 40
-29.62036180813822
 40
-29.62036180813822
 40
-29.62036180813822
 10
8.369199160335754
 20
22.58349945383744
 30
0.0
 10
8.596246616786473
 20
22.6520683338648
 30
0.0
 10
9.041991049595381
 20
22.81434952311383
 30
0.0
 10
9.474818397669438
 20
23.00885530426461
 30
0.0
 10
9.879903522225746
 20
23.25864419165605
 30
0.0
 10
10.24286233940113
 20
23.63410607584614
 30
0.0
 10
10.37846341104297
 20
23.82928557670277
 30
0.0
  0
SPLINE
  5
10F
330
1F
100
AcDbEntity
  8
Make2D$Visible$Tangents
 62
    18
420
        0
370
    -3
100
AcDbSpline
210
0.0
220
0.0
230
1.0
 70
     8
 71
     3
 72
    10
 73
     6
 74
     0
 42
0.0000000001
 43
0.0000000001
 40
-29.62036180813822
 40
-29.62036180813822
 40
-29.62036180813822
 40
-29.62036180813822
 40
-28.62036180813822
 40
-27.62036180813822
 40
-26.62036180813822
 40
-26.62036180813822
 40
-26.62036180813822
 40
-26.62036180813822
 10
10.37846341104297
 20
23.82928557670277
 30
0.0
 10
10.65037995054085
 20
24.22067285566188
 30
0.0
 10
10.94527024597259
 20
25.13531245584746
 30
0.0
 10
11.06191893587852
 20
26.55243958576724
 30
0.0
 10
11.07381738796256
 20
27.50177843474835
 30
0.0
 10
11.0213096144514
 20
27.97278282023288
 30
0.0
  0
SPLINE
  5
110
330
1F
100
AcDbEntity
  8
Make2D$Visible$Tangents
 62
    18
420
        0
370
    -3
100
AcDbSpline
210
0.0
220
0.0
230
1.0
 70
     8
 71
     3
 72
    21
 73
    17
 74
     0
 42
0.0000000001
 43
0.0000000001
 40
-26.62036180813822
 40
-26.62036180813822
 40
-26.62036180813822
 40
-26.62036180813822
 40
-25.62036180813822
 40
-24.62036180813822
 40
-23.62036180813822
 40
-23.62036180813822
 40
-23.62036180813822
 40
-22.62036180813822
 40
-21.62036180813822
 40
-20.62036180813822
 40
-20.62036180813822
 40
-20.62036180813822
 40
-19.62036180813822
 40
-19.62036180813822
 40
-19.62036180813822
 40
-18.62036180813822
 40
-18.62036180813822
 40
-18.62036180813822
 40
-18.62036180813822
 10
11.0213096144514
 20
27.97278282023288
 30
0.0
 10
11.02027085818362
 20
27.9821006550001
 30
0.0
 10
11.01775557382832
 20
28.00184172568785
 30
0.0
 10
11.013973515274
 20
28.02971334914439
 30
0.0
 10
11.01124497935656
 20
28.04826519073245
 30
0.0
 10
11.00976054585662
 20
28.05791384085624
 30
0.0
 10
10.99088102825836
 20
28.20397665894961
 30
0.0
 10
10.90602118073248
 20
28.49223014595894
 30
0.0
 10
10.60556835961337
 20
28.82748830756019
 30
0.0
 10
10.36686462419071
 20
28.99932620189248
 30
0.0
 10
10.23739935859167
 20
29.07004044346584
 30
0.0
 10
10.08206134427444
 20
29.15702622362641
 30
0.0
 10
9.807237323399463
 20
29.25277416517007
 30
0.0
 10
9.631401748148349
 20
29.27913754452808
 30
0.0
 10
9.16449143885687
 20
29.35210278157338
 30
0.0
 10
8.69365504313707
 20
29.39483665573569
 30
0.0
 10
8.223246378193537
 20
29.43737534998844
 30
0.0
  0
SPLINE
  5
111
330
1F
100
AcDbEntity
  8
0
370
    -3
100
AcDbSpline
210
0.0
220
0.0
230
1.0
 70
     8
 71
     3
 72
     8
 73
     4
 74
     0
 42
0.0000000001
 43
0.0000000001
 40
-1.0
 40
-1.0
 40
-1.0
 40
-1.0
 40
0.0
 40
0.0
 40
0.0
 40
0.0
 10
6.298046943665
 20
22.0996025386814
 30
0.0
 10
4.202599297371066
 20
21.94501616507751
 30
0.0
 10
2.101029092057118
 20
21.87967357558872
 30
0.0
 10
0.00000492470447
 20
21.89410762446531
 30
0.0
  0
SPLINE
  5
112
330
1F
100
AcDbEntity
  8
0
370
    -3
100
AcDbSpline
210
0.0
220
0.0
230
1.0
 70
     8
 71
     3
 72
     8
 73
     4
 74
     0
 42
0.0000000001
 43
0.0000000001
 40
0.0
 40
0.0
 40
0.0
 40
0.0
 40
1.0
 40
1.0
 40
1.0
 40
1.0
 10
0.00000492470447
 20
21.89410762446531
 30
0.0
 10
-2.101019242648178
 20
21.87967357558872
 30
0.0
 10
-4.202589447962126
 20
21.94501616507751
 30
0.0
 10
-6.29803709425606
 20
22.0996025386814
 30
0.0
  0
SPLINE
  5
113
330
1F
100
AcDbEntity
  8
0
370
    -3
100
AcDbSpline
210
0.0
220
0.0
230
1.0
 70
     8
 71
     3
 72
    14
 73
    10
 74
     0
 42
0.0000000001
 43
0.0000000001
 40
2.0
 40
2.0
 40
2.0
 40
2.0
 40
3.0
 40
4.0
 40
5.0
 40
6.0
 40
7.0
 40
8.0
 40
9.0
 40
9.0
 40
9.0
 40
9.0
 10
-7.028714458053841
 20
22.3639358077829
 30
0.0
 10
-6.695325347305712
 20
22.32457545324728
 30
0.0
 10
-6.033173031869339
 20
22.21247006348096
 30
0.0
 10
-5.031865562005564
 20
22.10258561929552
 30
0.0
 10
-4.027138068173755
 20
22.03360963024057
 30
0.0
 10
-3.020740129327706
 20
21.99724365347875
 30
0.0
 10
-2.013900801099865
 20
21.98057328399032
 30
0.0
 10
-1.00695236819864
 20
21.97477418657254
 30
0.0
 10
-0.3356474535720935
 20
21.97430756240291
 30
0.0
 10
0.0000049229970642
 20
21.97429989267146
 30
0.0
  0
SPLINE
  5
114
330
1F
100
AcDbEntity
  8
0
370
    -3
100
AcDbSpline
210
0.0
220
0.0
230
1.0
 70
     8
 71
     3
 72
    14
 73
    10
 74
     0
 42
0.0000000001
 43
0.0000000001
 40
9.0
 40
9.0
 40
9.0
 40
9.0
 40
10.0
 40
11.0
 40
12.0
 40
13.0
 40
14.0
 40
15.0
 40
16.0
 40
16.0
 40
16.0
 40
16.0
 10
0.0000049229970642
 20
21.97429989267146
 30
0.0
 10
0.3356572995662219
 20
21.97430756240291
 30
0.0
 10
1.006962214192768
 20
21.97477418657254
 30
0.0
 10
2.013910647093994
 20
21.98057328399032
 30
0.0
 10
3.020749975321834
 20
21.99724365347875
 30
0.0
 10
4.027147914167884
 20
22.03360963024057
 30
0.0
 10
5.031875407999692
 20
22.10258561929552
 30
0.0
 10
6.033182877863467
 20
22.21247006348096
 30
0.0
 10
6.69533519329984
 20
22.32457545324728
 30
0.0
 10
7.028724304047969
 20
22.3639358077829
 30
0.0
  0
SPLINE
  5
115
330
1F
100
AcDbEntity
  8
Make2D$Visible$Tangents
 62
    18
420
        0
370
    -3
100
AcDbSpline
210
0.0
220
0.0
230
1.0
 70
     8
 71
     3
 72
    14
 73
    10
 74
     0
 42
0.0000000001
 43
0.0000000001
 40
16.54165293249129
 40
16.54165293249129
 40
16.54165293249129
 40
16.54165293249129
 40
17.54165293249129
 40
18.54165293249129
 40
19.54165293249129
 40
20.54165293249129
 40
21.54165293249129
 40
22.54165293249129
 40
23.08330586430662
 40
23.08330586430662
 40
23.08330586430662
 40
23.08330586430662
 10
0.0000049229970642
 20
22.67979660827518
 30
0.0
 10
0.3222449209064422
 20
22.67980116356677
 30
0.0
 10
0.9667249519493026
 20
22.68006623979863
 30
0.0
 10
1.933441004787667
 20
22.68423969538555
 30
0.0
 10
2.900089239738705
 20
22.69713719011592
 30
0.0
 10
3.866437216508999
 20
22.72634794882942
 30
0.0
 10
4.831586706561879
 20
22.78334495557978
 30
0.0
 10
5.646934281377369
 20
22.86378855755152
 30
0.0
 10
6.138808011961245
 20
22.93351124563086
 30
0.0
 10
6.311560278135588
 20
22.95891811188009
 30
0.0
  0
SPLINE
  5
116
330
1F
100
AcDbEntity
  8
Make2D$Visible$Tangents
 62
    18
420
        0
370
    -3
100
AcDbSpline
210
0.0
220
0.0
230
1.0
 70
     8
 71
     3
 72
     8
 73
     4
 74
     0
 42
0.0000000001
 43
0.0000000001
 40
0.0
 40
0.0
 40
0.0
 40
0.0
 40
0.8698122571304998
 40
0.8698122571304998
 40
0.8698122571304998
 40
0.8698122571304998
 10
-8.018613350634425
 20
22.33750778773133
 30
0.0
 10
-8.038444185380271
 20
22.38194895482314
 30
0.0
 10
-8.054689058218642
 20
22.42813624719611
 30
0.0
 10
-8.06826801100486
 20
22.47485419461007
 30
0.0
  0
SPLINE
  5
117
330
1F
100
AcDbEntity
  8
Make2D$Visible$Tangents
 62
    18
420
        0
370
    -3
100
AcDbSpline
210
0.0
220
0.0
230
1.0
 70
     8
 71
     3
 72
    10
 73
     6
 74
     0
 42
0.0000000001
 43
0.0000000001
 40
0.8698122571304998
 40
0.8698122571304998
 40
0.8698122571304998
 40
0.8698122571304998
 40
1.125850314679689
 40
1.125850314679689
 40
1.379638189967468
 40
1.379638189967468
 40
1.379638189967468
 40
1.379638189967468
 10
-8.06826801100486
 20
22.47485419461007
 30
0.0
 10
-8.106353130168415
 20
22.49036024817953
 30
0.0
 10
-8.149629451016025
 20
22.50687193963893
 30
0.0
 10
-8.23998071762584
 20
22.54055301692986
 30
0.0
 10
-8.295357268667757
 20
22.56087992233677
 30
0.0
 10
-8.369189315002487
 20
22.58349945383744
 30
0.0
  0
SPLINE
  5
118
330
1F
100
AcDbEntity
  8
Make2D$Visible$Tangents
 62
    18
420
        0
370
    -3
100
AcDbSpline
210
0.0
220
0.0
230
1.0
 70
     8
 71
     3
 72
     8
 73
     4
 74
     0
 42
0.0000000001
 43
0.0000000001
 40
-36.0
 40
-36.0
 40
-36.0
 40
-36.0
 40
-35.13018774097519
 40
-35.13018774097519
 40
-35.13018774097519
 40
-35.13018774097519
 10
8.018623196628553
 20
22.33750778773133
 30
0.0
 10
8.038454031383466
 20
22.3819489548435
 30
0.0
 10
8.054698904227664
 20
22.42813624723845
 30
0.0
 10
8.068277856712953
 20
22.47485419476268
 30
0.0
  0
SPLINE
  5
119
330
1F
100
AcDbEntity
  8
Make2D$Visible$Tangents
 62
    18
420
        0
370
    -3
100
AcDbSpline
210
0.0
220
0.0
230
1.0
 70
     8
 71
     3
 72
    10
 73
     6
 74
     0
 42
0.0000000001
 43
0.0000000001
 40
-35.13018774097519
 40
-35.13018774097519
 40
-35.13018774097519
 40
-35.13018774097519
 40
-34.87414968384416
 40
-34.87414968384416
 40
-34.62036180813822
 40
-34.62036180813822
 40
-34.62036180813822
 40
-34.62036180813822
 10
8.068277856712953
 20
22.47485419476268
 30
0.0
 10
8.106362975785643
 20
22.49036024828788
 30
0.0
 10
8.149639296498165
 20
22.50687193969443
 30
0.0
 10
8.239990562959107
 20
22.54055301692986
 30
0.0
 10
8.295367114001024
 20
22.56087992233677
 30
0.0
 10
8.369199160335754
 20
22.58349945383744
 30
0.0
  0
SPLINE
  5
11A
330
1F
100
AcDbEntity
  8
0
370
    -3
100
AcDbSpline
210
0.0
220
0.0
230
1.0
 70
     8
 71
     3
 72
    25
 73
    21
 74
     0
 42
0.0000000001
 43
0.0000000001
 40
-1.0
 40
-1.0
 40
-1.0
 40
-1.0
 40
0.0
 40
0.0
 40
0.0
 40
1.0
 40
2.0
 40
3.0
 40
4.0
 40
5.0
 40
6.0
 40
6.0
 40
6.0
 40
7.0
 40
7.0
 40
7.0
 40
8.0
 40
9.0
 40
10.0
 40
11.0
 40
11.0
 40
11.0
 40
11.0
 10
-8.248668445352607
 20
55.7171740701511
 30
0.0
 10
-8.813804952320865
 20
55.8014020310276
 30
0.0
 10
-9.378576386320518
 20
55.89709497397156
 30
0.0
 10
-9.930319500603886
 20
56.04792294970807
 30
0.0
 10
-10.07619089185464
 20
56.08670162226544
 30
0.0
 10
-10.3630292695038
 20
56.17270671627116
 30
0.0
 10
-10.77929503603694
 20
56.37328127767108
 30
0.0
 10
-11.0359201214756
 20
56.76414184160696
 30
0.0
 10
-11.06763451307053
 20
57.2232453596348
 30
0.0
 10
-11.05009070249601
 20
57.67289367288726
 30
0.0
 10
-11.03276519964483
 20
57.97413869058601
 30
0.0
 10
-11.02355434240376
 20
58.12520522872612
 30
0.0
 10
-10.76033258768747
 20
61.01248023980774
 30
0.0
 10
-10.45321149531229
 20
63.89713216211204
 30
0.0
 10
-10.01507521137829
 20
66.76315976289206
 30
0.0
 10
-9.980259262396729
 20
67.06154048430125
 30
0.0
 10
-9.827982205524464
 20
67.6421534362303
 30
0.0
 10
-9.541049962885992
 20
68.496183842899
 30
0.0
 10
-8.978852751160602
 20
69.2187092670225
 30
0.0
 10
-8.486869369849032
 20
69.56680453705985
 30
0.0
 10
-8.229903517185491
 20
69.72070851075046
 30
0.0
  0
SPLINE
  5
11B
330
1F
100
AcDbEntity
  8
0
370
    -3
100
AcDbSpline
210
0.0
220
0.0
230
1.0
 70
     8
 71
     3
 72
    27
 73
    23
 74
     0
 42
0.0000000001
 43
0.0000000001
 40
0.0
 40
0.0
 40
0.0
 40
0.0
 40
1.0
 40
2.0
 40
3.0
 40
3.0
 40
3.0
 40
4.0
 40
5.0
 40
6.0
 40
7.0
 40
7.0
 40
7.0
 40
8.0
 40
9.0
 40
10.0
 40
11.0
 40
12.0
 40
13.0
 40
14.0
 40
15.0
 40
16.0
 40
16.0
 40
16.0
 40
16.0
 10
-8.235339254044092
 20
68.74432116367672
 30
0.0
 10
-8.455853725526637
 20
68.6555361038766
 30
0.0
 10
-8.804456052597104
 20
68.31122673465298
 30
0.0
 10
-9.01251852744356
 20
67.6256248151661
 30
0.0
 10
-9.115226581943134
 20
67.16946812833223
 30
0.0
 10
-9.158038823226704
 20
66.9377176256997
 30
0.0
 10
-9.300838795767547
 20
66.15824260514927
 30
0.0
 10
-9.495569088307562
 20
64.58537611652027
 30
0.0
 10
-9.72962253053295
 20
62.21998387231795
 30
0.0
 10
-9.92012503131771
 20
59.85232501454287
 30
0.0
 10
-10.07908369597307
 20
58.27237895678235
 30
0.0
 10
-10.03788674520733
 20
57.48029669433639
 30
0.0
 10
-10.03283216539161
 20
57.38378951632359
 30
0.0
 10
-9.881611928728361
 20
57.25558198038198
 30
0.0
 10
-9.606054394802257
 20
57.24863241041692
 30
0.0
 10
-9.337894719428348
 20
57.26106635540238
 30
0.0
 10
-9.072530991302457
 20
57.31627724839931
 30
0.0
 10
-8.820154076747386
 20
57.41306768045696
 30
0.0
 10
-8.5908538572791
 20
57.55977299628149
 30
0.0
 10
-8.417272579564738
 20
57.77025451794476
 30
0.0
 10
-8.311760656472458
 20
58.0204055349797
 30
0.0
 10
-8.266156703994952
 20
58.19434374267659
 30
0.0
 10
-8.248075528208958
 20
58.2824165311479
 30
0.0
  0
SPLINE
  5
11C
330
1F
100
AcDbEntity
  8
0
370
    -3
100
AcDbSpline
210
0.0
220
0.0
230
1.0
 70
     8
 71
     3
 72
    27
 73
    23
 74
     0
 42
0.0000000001
 43
0.0000000001
 40
0.0
 40
0.0
 40
0.0
 40
0.0
 40
1.0
 40
2.0
 40
3.0
 40
3.0
 40
3.0
 40
4.0
 40
5.0
 40
6.0
 40
7.0
 40
7.0
 40
7.0
 40
8.0
 40
9.0
 40
10.0
 40
11.0
 40
12.0
 40
13.0
 40
14.0
 40
15.0
 40
16.0
 40
16.0
 40
16.0
 40
16.0
 10
8.235349089260481
 20
68.74432116367672
 30
0.0
 10
8.455863560743026
 20
68.6555361038766
 30
0.0
 10
8.804465887813492
 20
68.31122673465298
 30
0.0
 10
9.01252836265995
 20
67.6256248151661
 30
0.0
 10
9.115236417159522
 20
67.16946812833223
 30
0.0
 10
9.158048658443093
 20
66.9377176256997
 30
0.0
 10
9.300848630983936
 20
66.15824260514927
 30
0.0
 10
9.49557892352395
 20
64.58537611652027
 30
0.0
 10
9.729632365749339
 20
62.21998387231795
 30
0.0
 10
9.920134866534099
 20
59.85232501454287
 30
0.0
 10
10.07909353118946
 20
58.27237895678235
 30
0.0
 10
10.03789658042372
 20
57.48029669433639
 30
0.0
 10
10.032842000608
 20
57.38378951632359
 30
0.0
 10
9.88162176394475
 20
57.25558198038198
 30
0.0
 10
9.606064230018646
 20
57.24863241041692
 30
0.0
 10
9.337904554644737
 20
57.26106635540238
 30
0.0
 10
9.072540826518846
 20
57.31627724839931
 30
0.0
 10
8.820163911963775
 20
57.41306768045696
 30
0.0
 10
8.590863692495489
 20
57.55977299628149
 30
0.0
 10
8.417282414781127
 20
57.77025451794476
 30
0.0
 10
8.311770491688847
 20
58.0204055349797
 30
0.0
 10
8.26616653921134
 20
58.19434374267659
 30
0.0
 10
8.248085363425346
 20
58.2824165311479
 30
0.0
  0
SPLINE
  5
11D
330
1F
100
AcDbEntity
  8
0
370
    -3
100
AcDbSpline
210
0.0
220
0.0
230
1.0
 70
     8
 71
     3
 72
    25
 73
    21
 74
     0
 42
0.0000000001
 43
0.0000000001
 40
-1.0
 40
-1.0
 40
-1.0
 40
-1.0
 40
0.0
 40
0.0
 40
0.0
 40
1.0
 40
2.0
 40
3.0
 40
4.0
 40
5.0
 40
6.0
 40
6.0
 40
6.0
 40
7.0
 40
7.0
 40
7.0
 40
8.0
 40
9.0
 40
10.0
 40
11.0
 40
11.0
 40
11.0
 40
11.0
 10
8.248678280568996
 20
55.7171740701511
 30
0.0
 10
8.813814787537254
 20
55.8014020310276
 30
0.0
 10
9.378586221536906
 20
55.89709497397156
 30
0.0
 10
9.930329335820275
 20
56.04792294970807
 30
0.0
 10
10.07620072707103
 20
56.08670162226544
 30
0.0
 10
10.36303910472019
 20
56.17270671627116
 30
0.0
 10
10.77930487125333
 20
56.37328127767108
 30
0.0
 10
11.03592995669199
 20
56.76414184160696
 30
0.0
 10
11.06764434828692
 20
57.2232453596348
 30
0.0
 10
11.0501005377124
 20
57.67289367288726
 30
0.0
 10
11.03277503486122
 20
57.97413869058601
 30
0.0
 10
11.02356417762014
 20
58.12520522872612
 30
0.0
 10
10.76034242290386
 20
61.01248023980774
 30
0.0
 10
10.45322133052868
 20
63.89713216211204
 30
0.0
 10
10.01508504659468
 20
66.76315976289206
 30
0.0
 10
9.980269097613117
 20
67.06154048430125
 30
0.0
 10
9.827992040740853
 20
67.6421534362303
 30
0.0
 10
9.541059798102381
 20
68.496183842899
 30
0.0
 10
8.97886258637699
 20
69.2187092670225
 30
0.0
 10
8.48687920506542
 20
69.56680453705985
 30
0.0
 10
8.22991335240188
 20
69.72070851075046
 30
0.0
  0
SPLINE
  5
11E
330
1F
100
AcDbEntity
  8
0
370
    -3
100
AcDbSpline
210
0.0
220
0.0
230
1.0
 70
     8
 71
     2
 72
    11
 73
     8
 74
     0
 42
0.0000000001
 43
0.0000000001
 40
-6.0
 40
-6.0
 40
-6.0
 40
-5.0
 40
-4.0
 40
-3.0
 40
-2.0
 40
-1.0
 40
0.0
 40
0.0
 40
0.0
 10
8.05314165574972
 20
67.24765621644863
 30
0.0
 10
7.551618451616399
 20
67.76698894174496
 30
0.0
 10
6.310501029201355
 20
68.49969298894291
 30
0.0
 10
4.964941953562054
 20
69.00460292516038
 30
0.0
 10
3.569508177222353
 20
69.34407027489391
 30
0.0
 10
2.149451858238415
 20
69.55491106197394
 30
0.0
 10
0.7177153554767912
 20
69.65821171400194
 30
0.0
 10
0.0000049176082015
 20
69.65856733029466
 30
0.0
  0
SPLINE
  5
11F
330
1F
100
AcDbEntity
  8
0
370
    -3
100
AcDbSpline
210
0.0
220
0.0
230
1.0
 70
     8
 71
     2
 72
    11
 73
     8
 74
     0
 42
0.0000000001
 43
0.0000000001
 40
0.0
 40
0.0
 40
0.0
 40
1.0
 40
2.0
 40
3.0
 40
4.0
 40
5.0
 40
6.0
 40
6.0
 40
6.0
 10
0.0000049176082015
 20
69.65856733029466
 30
0.0
 10
-0.7177055202603881
 20
69.65821171400194
 30
0.0
 10
-2.149442023022011
 20
69.55491106197394
 30
0.0
 10
-3.56949834200595
 20
69.34407027489391
 30
0.0
 10
-4.964932118345651
 20
69.00460292516038
 30
0.0
 10
-6.310491193984952
 20
68.49969298894291
 30
0.0
 10
-7.551608616399996
 20
67.76698894174496
 30
0.0
 10
-8.053131820533316
 20
67.24765621644863
 30
0.0
  0
SPLINE
  5
120
330
1F
100
AcDbEntity
  8
0
100
AcDbSpline
210
0.0
220
0.0
230
1.0
 70
     8
 71
     2
 72
    11
 73
     8
 74
     0
 42
0.0000000001
 43
0.0000000001
 40
-6.0
 40
-6.0
 40
-6.0
 40
-5.0
 40
-4.0
 40
-3.0
 40
-2.0
 40
-1.0
 40
0.0
 40
0.0
 40
0.0
 10
7.138138243339078
 20
72.28995067200546
 30
0.0
 10
7.262986770478328
 20
72.24830961023912
 30
0.0
 10
7.50571284468375
 20
72.14636776124337
 30
0.0
 10
7.737168849091852
 20
72.02061949074144
 30
0.0
 10
7.949473559688407
 20
71.86427961210998
 30
0.0
 10
8.128058880400282
 20
71.66915520063515
 30
0.0
 10
8.239587238284592
 20
71.42748886058973
 30
0.0
 10
8.239766084711924
 20
71.29372628571119
 30
0.0
  0
SPLINE
  5
121
330
1F
100
AcDbEntity
  8
0
100
AcDbSpline
210
0.0
220
0.0
230
1.0
 70
     8
 71
     2
 72
    11
 73
     8
 74
     0
 42
0.0000000001
 43
0.0000000001
 40
36.00559111365089
 40
36.00559111365089
 40
36.00559111365089
 40
37.00559111365089
 40
38.00559111365089
 40
39.00559111365089
 40
40.00559111365089
 40
41.00559111365089
 40
42.00559111365089
 40
42.00559111365089
 40
42.00559111365089
 10
-6.645329997660959
 20
51.77657988216359
 30
0.0
 10
-6.850795510713631
 20
51.79663767863241
 30
0.0
 10
-7.254371570508631
 20
51.88640862160443
 30
0.0
 10
-7.633075102359392
 20
52.05404350602618
 30
0.0
 10
-7.957830752047279
 20
52.31348831825721
 30
0.0
 10
-8.165345711589687
 20
52.67519241423184
 30
0.0
 10
-8.25047498940004
 20
53.08122075590438
 30
0.0
 10
-8.249353477053468
 20
53.28813710254306
 30
0.0
  0
LINE
  5
122
330
1F
100
AcDbEntity
  8
0
100
AcDbLine
 10
-8.249353477053468
 20
53.28813710254306
 30
0.0
 11
-8.239756249495521
 21
71.29372628571119
 31
0.0
  0
SPLINE
  5
123
330
1F
100
AcDbEntity
  8
0
100
AcDbSpline
210
0.0
220
0.0
230
1.0
 70
     8
 71
     2
 72
    11
 73
     8
 74
     0
 42
0.0000000001
 43
0.0000000001
 40
60.01118222730179
 40
60.01118222730179
 40
60.01118222730179
 40
61.01118222730179
 40
62.01118222730179
 40
63.01118222730179
 40
64.01118222730179
 40
65.01118222730179
 40
66.01118222730179
 40
66.01118222730179
 40
66.01118222730179
 10
-8.239756249495521
 20
71.29372628571119
 30
0.0
 10
-8.23957740306819
 20
71.42748886058973
 30
0.0
 10
-8.128049045183879
 20
71.66915520063515
 30
0.0
 10
-7.949463724472004
 20
71.86427961210998
 30
0.0
 10
-7.737159013875448
 20
72.02061949074144
 30
0.0
 10
-7.505703009467346
 20
72.14636776124337
 30
0.0
 10
-7.262976935261925
 20
72.24830961023912
 30
0.0
 10
-7.138128408122675
 20
72.28995067200546
 30
0.0
  0
SPLINE
  5
124
330
1F
100
AcDbEntity
  8
0
100
AcDbSpline
210
0.0
220
0.0
230
1.0
 70
     8
 71
     2
 72
    11
 73
     8
 74
     0
 42
0.0000000001
 43
0.0000000001
 40
66.01118222730179
 40
66.01118222730179
 40
66.01118222730179
 40
67.01118222730179
 40
68.01118222730179
 40
69.01118222730179
 40
70.01118222730179
 40
71.01118222730179
 40
72.01118222730179
 40
72.01118222730179
 40
72.01118222730179
 10
-7.138128408122675
 20
72.28995067200546
 30
0.0
 10
-6.566894035688001
 20
72.47739672209588
 30
0.0
 10
-5.389228641772725
 20
72.71806375147946
 30
0.0
 10
-4.198237223137859
 20
72.87532119431143
 30
0.0
 10
-3.00114119828536
 20
72.97459799910226
 30
0.0
 10
-1.801362578538182
 20
73.03139556016754
 30
0.0
 10
-0.6005290613889329
 20
73.0558834560905
 30
0.0
 10
0.0000049176082015
 20
73.05562757700207
 30
0.0
  0
SPLINE
  5
125
330
1F
100
AcDbEntity
  8
0
100
AcDbSpline
210
0.0
220
0.0
230
1.0
 70
     8
 71
     2
 72
    11
 73
     8
 74
     0
 42
0.0000000001
 43
0.0000000001
 40
72.01118222730179
 40
72.01118222730179
 40
72.01118222730179
 40
73.01118222730179
 40
74.01118222730179
 40
75.01118222730179
 40
76.01118222730179
 40
77.01118222730179
 40
78.01118222730179
 40
78.01118222730179
 40
78.01118222730179
 10
0.0000049176082015
 20
73.05562757700207
 30
0.0
 10
0.600538896605336
 20
73.0558834560905
 30
0.0
 10
1.801372413754585
 20
73.03139556016754
 30
0.0
 10
3.001151033501763
 20
72.97459799910226
 30
0.0
 10
4.198247058354262
 20
72.87532119431143
 30
0.0
 10
5.389238476989128
 20
72.71806375147946
 30
0.0
 10
6.566903870904405
 20
72.47739672209588
 30
0.0
 10
7.138138243339078
 20
72.28995067200546
 30
0.0
  0
SPLINE
  5
126
330
1F
100
AcDbEntity
  8
Make2D$Visible$Tangents
 62
    18
420
        0
370
    -3
100
AcDbSpline
210
0.0
220
0.0
230
1.0
 70
    12
 71
     3
 72
     8
 73
     4
 74
     0
 42
0.0000000001
 43
0.0000000001
 40
0.0179235101680189
 40
0.0179235101680189
 40
0.0179235101680189
 40
0.0179235101680189
 40
0.1267941416125308
 40
0.1267941416125308
 40
0.1267941416125308
 40
0.1267941416125308
 10
0.0000049272194931
 20
51.60605172746876
 30
0.0
 41
1.089880733531957
 10
0.0000049274101518
 20
51.60605172756593
 30
0.0
 41
0.9462881271275585
 10
0.0000049276342553
 20
51.63196413639417
 30
0.0
 41
0.9747471590759
 10
0.0000049277910117
 20
51.67052620643042
 30
0.0
 41
1.175257829376982
  0
LINE
  5
127
330
1F
100
AcDbEntity
  8
0
100
AcDbLine
 10
8.239766084711924
 20
71.29372628571119
 30
0.0
 11
8.249363312269871
 21
53.28813710254306
 31
0.0
  0
SPLINE
  5
128
330
1F
100
AcDbEntity
  8
0
100
AcDbSpline
210
0.0
220
0.0
230
1.0
 70
     8
 71
     2
 72
    11
 73
     8
 74
     0
 42
0.0000000001
 43
0.0000000001
 40
18.00559111365089
 40
18.00559111365089
 40
18.00559111365089
 40
19.00559111365089
 40
20.00559111365089
 40
21.00559111365089
 40
22.00559111365089
 40
23.00559111365089
 40
24.00559111365089
 40
24.00559111365089
 40
24.00559111365089
 10
8.249363312269871
 20
53.28813710254306
 30
0.0
 10
8.250484824616443
 20
53.08122075590438
 30
0.0
 10
8.16535554680609
 20
52.67519241423184
 30
0.0
 10
7.957840587263682
 20
52.31348831825721
 30
0.0
 10
7.633084937575795
 20
52.05404350602618
 30
0.0
 10
7.254381405725034
 20
51.88640862160443
 30
0.0
 10
6.850805345930034
 20
51.79663767863241
 30
0.0
 10
6.645339832877362
 20
51.77657988216359
 30
0.0
  0
SPLINE
  5
129
330
1F
100
AcDbEntity
  8
0
100
AcDbSpline
210
0.0
220
0.0
230
1.0
 70
     8
 71
     2
 72
    11
 73
     8
 74
     0
 42
0.0000000001
 43
0.0000000001
 40
24.00559111365089
 40
24.00559111365089
 40
24.00559111365089
 40
25.00559111365089
 40
26.00559111365089
 40
27.00559111365089
 40
28.00559111365089
 40
29.00559111365089
 40
30.00559111365089
 40
30.00559111365089
 40
30.00559111365089
 10
6.645339832877362
 20
51.77657988216359
 30
0.0
 10
6.093756359661363
 20
51.7222147149501
 30
0.0
 10
4.986872263696135
 20
51.66327927332526
 30
0.0
 10
3.878999335220179
 20
51.63092238680332
 30
0.0
 10
2.770787663445439
 20
51.61451856445893
 30
0.0
 10
1.662484913479226
 20
51.60766067728272
 30
0.0
 10
0.5541650830355067
 20
51.60594370723297
 30
0.0
 10
0.0000049176082015
 20
51.60605170955398
 30
0.0
  0
SPLINE
  5
12A
330
1F
100
AcDbEntity
  8
0
100
AcDbSpline
210
0.0
220
0.0
230
1.0
 70
     8
 71
     2
 72
    11
 73
     8
 74
     0
 42
0.0000000001
 43
0.0000000001
 40
30.00559111365089
 40
30.00559111365089
 40
30.00559111365089
 40
31.00559111365089
 40
32.00559111365089
 40
33.00559111365089
 40
34.00559111365089
 40
35.00559111365089
 40
36.00559111365089
 40
36.00559111365089
 40
36.00559111365089
 10
0.0000049176082015
 20
51.60605170955398
 30
0.0
 10
-0.5541552478191036
 20
51.60594370723297
 30
0.0
 10
-1.662475078262823
 20
51.60766067728272
 30
0.0
 10
-2.770777828229036
 20
51.61451856445893
 30
0.0
 10
-3.878989500003776
 20
51.63092238680332
 30
0.0
 10
-4.986862428479732
 20
51.66327927332526
 30
0.0
 10
-6.09374652444496
 20
51.7222147149501
 30
0.0
 10
-6.645329997660959
 20
51.77657988216359
 30
0.0
  0
SPLINE
  5
12B
330
1F
100
AcDbEntity
  8
0
370
    -3
100
AcDbSpline
210
0.0
220
0.0
230
1.0
 70
     8
 71
     3
 72
    10
 73
     6
 74
     0
 42
0.0000000001
 43
0.0000000001
 40
0.0
 40
0.0
 40
0.0
 40
0.0
 40
1.0
 40
2.0
 40
3.0
 40
3.0
 40
3.0
 40
3.0
 10
31.23691198845727
 20
21.22105006385454
 30
0.0
 10
31.0913237644369
 20
21.19975120004384
 30
0.0
 10
30.79973472793272
 20
21.15994700126442
 30
0.0
 10
30.3610908091889
 20
21.1102601185256
 30
0.0
 10
30.06786932885958
 20
21.0850110791314
 30
0.0
 10
29.92109453999858
 20
21.07466497532651
 30
0.0
  0
LINE
  5
12C
330
1F
100
AcDbEntity
  8
0
370
    -3
100
AcDbLine
 10
38.43449603148027
 20
22.37496107693125
 30
0.0
 11
37.48031344148395
 21
22.22198713815687
 31
0.0
  0
SPLINE
  5
12D
330
1F
100
AcDbEntity
  8
0
370
    -3
100
AcDbSpline
210
0.0
220
0.0
230
1.0
 70
     8
 71
     3
 72
    10
 73
     6
 74
     0
 42
0.0000000001
 43
0.0000000001
 40
5.353583409995687
 40
5.353583409995687
 40
5.353583409995687
 40
5.353583409995687
 40
6.353583251049955
 40
7.35358333052282
 40
8.353583409995686
 40
8.353583409995686
 40
8.353583409995686
 40
8.353583409995686
 10
39.77530589507824
 20
21.15580800312456
 30
0.0
 10
39.76293447458192
 20
21.3824497616127
 30
0.0
 10
39.63302529480062
 20
21.8314668948134
 30
0.0
 10
39.12946512801363
 20
22.32972371958955
 30
0.0
 10
38.65891793659016
 20
22.41228892151464
 30
0.0
 10
38.43449603148027
 20
22.37496107693125
 30
0.0
  0
SPLINE
  5
12E
330
1F
100
AcDbEntity
  8
0
370
    -3
100
AcDbSpline
210
0.0
220
0.0
230
1.0
 70
    12
 71
     3
 72
     8
 73
     4
 74
     0
 42
0.0000000001
 43
0.0000000001
 40
40.04387966808645
 40
40.04387966808645
 40
40.04387966808645
 40
40.04387966808645
 40
41.15858793554034
 40
41.15858793554034
 40
41.15858793554034
 40
41.15858793554034
 10
25.98493616379358
 20
22.26557071918755
 30
0.0
 41
0.8565370630951963
 10
26.17204049269771
 20
22.09841411172692
 30
0.0
 41
0.8565370630951961
 10
26.35902244285033
 20
21.93136704823919
 30
0.0
 41
0.8565370630951961
 10
26.54600439300298
 20
21.76431998475146
 30
0.0
 41
0.8565370630951961
  0
SPLINE
  5
12F
330
1F
100
AcDbEntity
  8
0
370
    -3
100
AcDbSpline
210
0.0
220
0.0
230
1.0
 70
     8
 71
     3
 72
    14
 73
    10
 74
     0
 42
0.0000000001
 43
0.0000000001
 40
33.04387966808645
 40
33.04387966808645
 40
33.04387966808645
 40
33.04387966808645
 40
34.04387966808645
 40
35.04387966808645
 40
36.04387966808645
 40
37.04387966808645
 40
38.04387966808645
 40
39.04387966808645
 40
40.04387966808645
 40
40.04387966808645
 40
40.04387966808645
 40
40.04387966808645
 10
25.55116295384291
 20
21.66684180669345
 30
0.0
 10
25.55708458785923
 20
21.70604166206315
 30
0.0
 10
25.57257498107742
 20
21.7838802611313
 30
0.0
 10
25.60626568005167
 20
21.89808020009037
 30
0.0
 10
25.6507609791526
 20
22.00850102733754
 30
0.0
 10
25.70825698893491
 20
22.11311852683361
 30
0.0
 10
25.78085117269793
 20
22.20709340165735
 30
0.0
 10
25.86909616977422
 20
22.29026658474172
 30
0.0
 10
25.95640039851889
 20
22.29980005054885
 30
0.0
 10
25.98493616379357
 20
22.26557071918755
 30
0.0
  0
SPLINE
  5
130
330
1F
100
AcDbEntity
  8
0
370
    -3
100
AcDbSpline
210
0.0
220
0.0
230
1.0
 70
     8
 71
     3
 72
     8
 73
     4
 74
     0
 42
0.0000000001
 43
0.0000000001
 40
3.0
 40
3.0
 40
3.0
 40
3.0
 40
3.000092559373677
 40
3.000092559373677
 40
3.000092559373677
 40
3.000092559373677
 10
39.15120719758868
 20
21.12225471678455
 30
0.0
 10
39.15122696325903
 20
21.1218899330711
 30
0.0
 10
39.15122860468662
 20
21.12185939725502
 30
0.0
 10
39.15123025080651
 20
21.12182874303441
 30
0.0
  0
SPLINE
  5
131
330
1F
100
AcDbEntity
  8
0
370
    -3
100
AcDbSpline
210
0.0
220
0.0
230
1.0
 70
     8
 71
     3
 72
    10
 73
     6
 74
     0
 42
0.0000000001
 43
0.0000000001
 40
0.0000000000000002
 40
0.0000000000000002
 40
0.0000000000000002
 40
0.0000000000000002
 40
1.0
 40
2.0
 40
3.0
 40
3.0
 40
3.0
 40
3.0
 10
38.53349495757089
 20
21.75785151724549
 30
0.0
 10
38.64350922052392
 20
21.77677492301667
 30
0.0
 10
38.87102477847548
 20
21.71759770357998
 30
0.0
 10
39.08986926604111
 20
21.4518261609311
 30
0.0
 10
39.14494008844479
 20
21.23312782176047
 30
0.0
 10
39.15120719758868
 20
21.12225471678455
 30
0.0
  0
LINE
  5
132
330
1F
100
AcDbEntity
  8
0
370
    -3
100
AcDbLine
 10
37.6464049284429
 20
21.61563380723894
 30
0.0
 11
38.53349495757089
 21
21.75785151724549
 31
0.0
  0
SPLINE
  5
133
330
1F
100
AcDbEntity
  8
0
370
    -3
100
AcDbSpline
210
0.0
220
0.0
230
1.0
 70
     8
 71
     3
 72
    14
 73
    10
 74
     0
 42
0.0000000001
 43
0.0000000001
 40
2.12573434321113
 40
2.12573434321113
 40
2.12573434321113
 40
2.12573434321113
 40
3.12573434321113
 40
4.12573434321113
 40
5.12573434321113
 40
6.12573434321113
 40
7.12573434321113
 40
8.12573434321113
 40
9.12573434321113
 40
9.12573434321113
 40
9.12573434321113
 40
9.12573434321113
 10
26.40168995357362
 20
22.73134047432721
 30
0.0
 10
26.32446486746451
 20
22.80065454133334
 30
0.0
 10
26.14180348105517
 20
22.90905660961011
 30
0.0
 10
25.82361583744946
 20
22.93439104036381
 30
0.0
 10
25.52734934343055
 20
22.82026673365238
 30
0.0
 10
25.29107112891835
 20
22.61298103957078
 30
0.0
 10
25.11633541521001
 20
22.35353809817838
 30
0.0
 10
24.99594119014827
 20
22.06560801939339
 30
0.0
 10
24.94873040245175
 20
21.86311438037669
 30
0.0
 10
24.93319984628311
 20
21.76036551329489
 30
0.0
  0
SPLINE
  5
134
330
1F
100
AcDbEntity
  8
0
370
    -3
100
AcDbSpline
210
0.0
220
0.0
230
1.0
 70
    12
 71
     3
 72
     8
 73
     4
 74
     0
 42
0.0000000001
 43
0.0000000001
 40
1.152166011579844
 40
1.152166011579844
 40
1.152166011579844
 40
1.152166011579844
 40
2.12573434321113
 40
2.12573434321113
 40
2.12573434321113
 40
2.12573434321113
 10
26.89183406869916
 20
22.29345239852833
 30
0.0
 41
0.8565370630951956
 10
26.72852703082182
 20
22.43934862595574
 30
0.0
 41
0.8565370630951956
 10
26.56521999294453
 20
22.58524485338313
 30
0.0
 41
0.8565370630951956
 10
26.40168995357363
 20
22.73134047432719
 30
0.0
 41
0.8565370630951958
  0
SPLINE
  5
135
330
1F
100
AcDbEntity
  8
0
370
    -3
100
AcDbSpline
210
0.0
220
0.0
230
1.0
 70
     8
 71
     3
 72
     8
 73
     4
 74
     0
 42
0.0000000001
 43
0.0000000001
 40
14.54086522407511
 40
14.54086522407511
 40
14.54086522407511
 40
14.54086522407511
 40
14.7123571053979
 40
14.7123571053979
 40
14.7123571053979
 40
14.7123571053979
 10
37.84877813119262
 20
21.47494671021514
 30
0.0
 10
37.83862333102166
 20
21.53105031243013
 30
0.0
 10
37.82866485561191
 20
21.58716047957297
 30
0.0
 10
37.81870638020472
 20
21.64327064675678
 30
0.0
  0
SPLINE
  5
136
330
1F
100
AcDbEntity
  8
0
370
    -3
100
AcDbSpline
210
0.0
220
0.0
230
1.0
 70
     8
 71
     3
 72
    14
 73
    10
 74
     0
 42
0.0000000001
 43
0.0000000001
 40
7.540865224075112
 40
7.540865224075112
 40
7.540865224075112
 40
7.540865224075112
 40
8.540865224075112
 40
9.540865224075112
 40
10.54086522407511
 40
11.54086522407511
 40
12.54086522407511
 40
13.54086522407511
 40
14.54086522407511
 40
14.54086522407511
 40
14.54086522407511
 40
14.54086522407511
 10
36.68595842659493
 20
21.20484494327503
 30
0.0
 10
36.7078289909532
 20
21.12849161407272
 30
0.0
 10
36.79272403723376
 20
20.9889426158371
 30
0.0
 10
37.00979080915703
 20
20.86836145113379
 30
0.0
 10
37.25187150837524
 20
20.88322911895472
 30
0.0
 10
37.48270053340354
 20
20.93679538921058
 30
0.0
 10
37.70649243719981
 20
21.03024600030927
 30
0.0
 10
37.8482547603765
 20
21.23408617540236
 30
0.0
 10
37.86297870195283
 20
21.39677599685459
 30
0.0
 10
37.84877813119262
 20
21.47494671021514
 30
0.0
  0
LINE
  5
137
330
1F
100
AcDbEntity
  8
0
370
    -3
100
AcDbLine
 10
36.5208570277914
 20
21.7801597994436
 30
0.0
 11
36.68595842659493
 21
21.20484494327503
 31
0.0
  0
LINE
  5
138
330
1F
100
AcDbEntity
  8
0
370
    -3
100
AcDbLine
 10
36.4433225475694
 20
22.21643915290972
 30
0.0
 11
36.5208570277914
 21
21.7801597994436
 31
0.0
  0
SPLINE
  5
139
330
1F
100
AcDbEntity
  8
0
370
    -3
100
AcDbSpline
210
0.0
220
0.0
230
1.0
 70
     8
 71
     3
 72
    13
 73
     9
 74
     0
 42
0.0000000001
 43
0.0000000001
 40
0.4992135494437177
 40
0.4992135494437177
 40
0.4992135494437177
 40
0.4992135494437177
 40
1.499213549443718
 40
2.499213549443718
 40
3.499213549443718
 40
4.499213549443717
 40
5.499213549443717
 40
6.499213549443717
 40
6.499213549443717
 40
6.499213549443717
 40
6.499213549443717
 10
37.56851413000924
 20
22.38285614952205
 30
0.0
 10
37.50491779850702
 20
22.39443312777002
 30
0.0
 10
37.37567671947533
 20
22.40106725295076
 30
0.0
 10
37.18198903066439
 20
22.39478323839817
 30
0.0
 10
36.98932084757825
 20
22.37684131724237
 30
0.0
 10
36.79657337016294
 20
22.34980330902119
 30
0.0
 10
36.61090837729682
 20
22.30583909034883
 30
0.0
 10
36.47912277667677
 20
22.27068295841324
 30
0.0
 10
36.4433225475694
 20
22.21643915290972
 30
0.0
  0
LINE
  5
13A
330
1F
100
AcDbEntity
  8
0
370
    -3
100
AcDbLine
 10
37.64057524573854
 20
22.36973825498914
 30
0.0
 11
37.56851413000924
 21
22.38285614952205
 31
0.0
  0
LINE
  5
13B
330
1F
100
AcDbEntity
  8
0
370
    -3
100
AcDbLine
 10
37.67496740290886
 20
22.25319393330802
 30
0.0
 11
37.64057524573854
 21
22.36973825498914
 31
0.0
  0
ARC
  5
13C
330
1F
100
AcDbEntity
  8
0
100
AcDbCircle
 10
26.74194937654621
 20
21.09216927461484
 30
0.0
 40
1.395883897526574
100
AcDbArc
 50
50.87645155910602
 51
92.71754040389045
  0
SPLINE
  5
13D
330
1F
100
AcDbEntity
  8
0
370
    -3
100
AcDbSpline
210
0.0
220
0.0
230
1.0
 70
     8
 71
     3
 72
    10
 73
     6
 74
     0
 42
0.0000000001
 43
0.0000000001
 40
0.0
 40
0.0
 40
0.0
 40
0.0
 40
1.0
 40
2.0
 40
3.0
 40
3.0
 40
3.0
 40
3.0
 10
37.32476474713675
 20
21.91398945444684
 30
0.0
 10
37.23747395133375
 20
21.90541796982024
 30
0.0
 10
37.06301456304765
 20
21.88594880574468
 30
0.0
 10
36.80287047406443
 20
21.84747510211933
 30
0.0
 10
36.62943240409043
 20
21.81769090199408
 30
0.0
 10
36.5465823177991
 20
21.78857362151397
 30
0.0
  0
SPLINE
  5
13E
330
1F
100
AcDbEntity
  8
0
370
    -3
100
AcDbSpline
210
0.0
220
0.0
230
1.0
 70
     8
 71
     3
 72
    10
 73
     6
 74
     0
 42
0.0000000001
 43
0.0000000001
 40
4.0
 40
4.0
 40
4.0
 40
4.0
 40
5.0
 40
6.0
 40
7.0
 40
7.0
 40
7.0
 40
7.0
 10
37.37880925864456
 20
22.10163680580426
 30
0.0
 10
37.39148520956606
 20
22.12664399380794
 30
0.0
 10
37.42309970799817
 20
22.17335215817284
 30
0.0
 10
37.48367300886252
 20
22.23209124661671
 30
0.0
 10
37.54143997471095
 20
22.25055885837896
 30
0.0
 10
37.56754205035116
 20
22.23603994991118
 30
0.0
  0
SPLINE
  5
13F
330
1F
100
AcDbEntity
  8
0
370
    -3
100
AcDbSpline
210
0.0
220
0.0
230
1.0
 70
     8
 71
     3
 72
     8
 73
     4
 74
     0
 42
0.0000000001
 43
0.0000000001
 40
3.0
 40
3.0
 40
3.0
 40
3.0
 40
4.0
 40
4.0
 40
4.0
 40
4.0
 10
37.37071582427375
 20
21.84455916119175
 30
0.0
 10
37.33842981631053
 20
21.92264843104938
 30
0.0
 10
37.34083752401718
 20
22.02672595197286
 30
0.0
 10
37.37880925864456
 20
22.10163680580426
 30
0.0
  0
SPLINE
  5
140
330
1F
100
AcDbEntity
  8
0
370
    -3
100
AcDbSpline
210
0.0
220
0.0
230
1.0
 70
     8
 71
     3
 72
    10
 73
     6
 74
     0
 42
0.0000000001
 43
0.0000000001
 40
0.0
 40
0.0
 40
0.0
 40
0.0
 40
1.0
 40
2.0
 40
3.0
 40
3.0
 40
3.0
 40
3.0
 10
37.72437978022679
 20
21.62813468428724
 30
0.0
 10
37.68232284066476
 20
21.59342941695648
 30
0.0
 10
37.57851017384458
 20
21.63687787629792
 30
0.0
 10
37.45480015164059
 20
21.71657653800836
 30
0.0
 10
37.38995246951765
 20
21.79803202215008
 30
0.0
 10
37.37071582427375
 20
21.84455916119175
 30
0.0
  0
SPLINE
  5
141
330
1F
100
AcDbEntity
  8
0
370
    -3
100
AcDbSpline
210
0.0
220
0.0
230
1.0
 70
     8
 71
     3
 72
    10
 73
     6
 74
     0
 42
0.0000000001
 43
0.0000000001
 40
0.0
 40
0.0
 40
0.0
 40
0.0
 40
1.0
 40
2.0
 40
3.0
 40
3.0
 40
3.0
 40
3.0
 10
27.51502461741421
 20
21.59165339366474
 30
0.0
 10
27.50245850893779
 20
21.66553927924677
 30
0.0
 10
27.39304803867082
 20
21.77029267247313
 30
0.0
 10
27.21393920670982
 20
21.89133107947672
 30
0.0
 10
27.08364226507924
 20
21.95760183403156
 30
0.0
 10
27.0176186498341
 20
21.9876268122045
 30
0.0
  0
SPLINE
  5
142
330
1F
100
AcDbEntity
  8
0
370
    -3
100
AcDbSpline
210
0.0
220
0.0
230
1.0
 70
     8
 71
     3
 72
     8
 73
     4
 74
     0
 42
0.0000000001
 43
0.0000000001
 40
9.094349853670263
 40
9.094349853670263
 40
9.094349853670263
 40
9.094349853670263
 40
9.616149003808129
 40
9.616149003808129
 40
9.616149003808129
 40
9.616149003808129
 10
26.23372287710679
 20
21.42878252505566
 30
0.0
 10
26.26996806940868
 20
21.63147820432895
 30
0.0
 10
26.29701820695308
 20
21.78210876958745
 30
0.0
 10
26.32866588679848
 20
21.95877224044998
 30
0.0
  0
SPLINE
  5
143
330
1F
100
AcDbEntity
  8
0
370
    -3
100
AcDbSpline
210
0.0
220
0.0
230
1.0
 70
     8
 71
     3
 72
    11
 73
     7
 74
     0
 42
0.0000000001
 43
0.0000000001
 40
5.094349853670264
 40
5.094349853670264
 40
5.094349853670264
 40
5.094349853670264
 40
6.094349853670264
 40
7.094349853670263
 40
8.094349853670263
 40
9.094349853670263
 40
9.094349853670263
 40
9.094349853670263
 40
9.094349853670263
 10
26.69445997278162
 20
20.89087634051661
 30
0.0
 10
26.63250361398703
 20
20.90568482876101
 30
0.0
 10
26.48465682929923
 20
20.94436859410463
 30
0.0
 10
26.32787962550386
 20
21.06243110402444
 30
0.0
 10
26.23427558563332
 20
21.23498929971124
 30
0.0
 10
26.22469409342212
 20
21.36545021423329
 30
0.0
 10
26.23372287710679
 20
21.42878252505566
 30
0.0
  0
SPLINE
  5
144
330
1F
100
AcDbEntity
  8
0
370
    -3
100
AcDbSpline
210
0.0
220
0.0
230
1.0
 70
     8
 71
     3
 72
    11
 73
     7
 74
     0
 42
0.0000000001
 43
0.0000000001
 40
1.094349853670264
 40
1.094349853670264
 40
1.094349853670264
 40
1.094349853670264
 40
2.094349853670264
 40
3.094349853670264
 40
4.094349853670264
 40
5.094349853670264
 40
5.094349853670264
 40
5.094349853670264
 40
5.094349853670264
 10
27.39787374451421
 20
21.17377229235113
 30
0.0
 10
27.3786530130925
 20
21.1065787071157
 30
0.0
 10
27.30860842177906
 20
20.98277361667807
 30
0.0
 10
27.13173472140004
 20
20.86205422393022
 30
0.0
 10
26.92034615285825
 20
20.83590194722621
 30
0.0
 10
26.76169981731362
 20
20.87480502085419
 30
0.0
 10
26.69445997278162
 20
20.89087634051661
 30
0.0
  0
LINE
  5
145
330
1F
100
AcDbEntity
  8
0
370
    -3
100
AcDbLine
 10
27.51710413966071
 20
21.58567283813722
 30
0.0
 11
27.39787374451421
 21
21.17377229235113
 31
0.0
  0
LINE
  5
146
330
1F
100
AcDbEntity
  8
0
370
    -3
100
AcDbLine
 10
27.6227447282298
 20
22.1750780444688
 30
0.0
 11
27.51710413966071
 21
21.58567283813722
 31
0.0
  0
SPLINE
  5
147
330
1F
100
AcDbEntity
  8
0
370
    -3
100
AcDbSpline
210
0.0
220
0.0
230
1.0
 70
     8
 71
     3
 72
    11
 73
     7
 74
     0
 42
0.0000000001
 43
0.0000000001
 40
-4.0
 40
-4.0
 40
-4.0
 40
-4.0
 40
-3.0
 40
-2.0
 40
-1.0
 40
0.0
 40
0.0
 40
0.0
 40
0.0
 10
26.96229671326395
 20
21.99078596741016
 30
0.0
 10
26.97050393870855
 20
22.03054071383651
 30
0.0
 10
26.96908153951494
 20
22.13096670815097
 30
0.0
 10
26.92612901462243
 20
22.24562845729796
 30
0.0
 10
26.85735472196961
 20
22.34665954597106
 30
0.0
 10
26.793501477635
 20
22.39863138238054
 30
0.0
 10
26.75606146225942
 20
22.4145506726934
 30
0.0
  0
SPLINE
  5
148
330
1F
100
AcDbEntity
  8
0
370
    -3
100
AcDbSpline
210
0.0
220
0.0
230
1.0
 70
     8
 71
     3
 72
    11
 73
     7
 74
     0
 42
0.0000000001
 43
0.0000000001
 40
-4.0
 40
-4.0
 40
-4.0
 40
-4.0
 40
-3.0
 40
-2.0
 40
-1.0
 40
0.0
 40
0.0
 40
0.0
 40
0.0
 10
26.46237242462177
 20
21.83934919653266
 30
0.0
 10
26.48204966374782
 20
21.78753069124969
 30
0.0
 10
26.58518096558839
 20
21.73958626089112
 30
0.0
 10
26.74315406134661
 20
21.76003531453839
 30
0.0
 10
26.88768091470893
 20
21.82953737378078
 30
0.0
 10
26.95167142717735
 20
21.93931844565984
 30
0.0
 10
26.96229671326395
 20
21.99078596741016
 30
0.0
  0
SPLINE
  5
149
330
1F
100
AcDbEntity
  8
0
370
    -3
100
AcDbSpline
210
0.0
220
0.0
230
1.0
 70
     8
 71
     2
 72
     6
 73
     3
 74
     0
 42
0.0000000001
 43
0.0000000001
 40
11.16284431156144
 40
11.16284431156144
 40
11.16284431156144
 40
12.16284431156144
 40
12.16284431156144
 40
12.16284431156144
 10
30.89519108781067
 20
20.52580532321992
 30
0.0
 10
33.75391948888392
 20
20.99533226039416
 30
0.0
 10
36.61531275091061
 20
21.45032978706559
 30
0.0
  0
SPLINE
  5
14A
330
1F
100
AcDbEntity
  8
0
370
    -3
100
AcDbSpline
210
0.0
220
0.0
230
1.0
 70
     8
 71
     2
 72
    10
 73
     7
 74
     0
 42
0.0000000001
 43
0.0000000001
 40
6.162844311561436
 40
6.162844311561436
 40
6.162844311561436
 40
7.162844311561436
 40
8.162844311561436
 40
9.162844311561436
 40
10.16284431156144
 40
11.16284431156144
 40
11.16284431156144
 40
11.16284431156144
 10
30.27232950708662
 20
20.55802848320654
 30
0.0
 10
30.27282989683902
 20
20.46010035477892
 30
0.0
 10
30.3844218106733
 20
20.2994460123737
 30
0.0
 10
30.56793915350618
 20
20.23132779983829
 30
0.0
 10
30.75745881923509
 20
20.28015292073781
 30
0.0
 10
30.8852578002268
 20
20.42843162205467
 30
0.0
 10
30.89519108781067
 20
20.52580532321992
 30
0.0
  0
LINE
  5
14B
330
1F
100
AcDbEntity
  8
0
370
    -3
100
AcDbLine
 10
30.27236118327186
 20
20.72087279168717
 30
0.0
 11
30.27232950708662
 21
20.55802848320654
 31
0.0
  0
SPLINE
  5
14C
330
1F
100
AcDbEntity
  8
0
370
    -3
100
AcDbSpline
210
0.0
220
0.0
230
1.0
 70
     8
 71
     2
 72
    10
 73
     7
 74
     0
 42
0.0000000001
 43
0.0000000001
 40
1.0
 40
1.0
 40
1.0
 40
1.999945861247162
 40
2.999959395935372
 40
3.999972930623581
 40
4.999986465311791
 40
6.0
 40
6.0
 40
6.0
 10
31.01910140413164
 20
21.18612986903163
 30
0.0
 10
30.92387603416739
 20
21.17114659797495
 30
0.0
 10
30.73497941176824
 20
21.13256320858651
 30
0.0
 10
30.54932166170823
 20
21.07971014440731
 30
0.0
 10
30.37787553348732
 20
20.98653854179856
 30
0.0
 10
30.27135241215762
 20
20.82008805752182
 30
0.0
 10
30.27236118327186
 20
20.72087279168717
 30
0.0
  0
SPLINE
  5
14D
330
1F
100
AcDbEntity
  8
0
370
    -3
100
AcDbSpline
210
0.0
220
0.0
230
1.0
 70
     8
 71
     2
 72
     6
 73
     3
 74
     0
 42
0.0000000001
 43
0.0000000001
 40
0.0
 40
0.0
 40
0.0
 40
1.0
 40
1.0
 40
1.0
 10
36.47108401206096
 20
22.06018813939017
 30
0.0
 10
33.74509270792438
 20
21.62315900528322
 30
0.0
 10
31.01910140413164
 20
21.18612986903163
 30
0.0
  0
SPLINE
  5
14E
330
1F
100
AcDbEntity
  8
0
370
    -3
100
AcDbSpline
210
0.0
220
0.0
230
1.0
 70
     8
 71
     3
 72
     8
 73
     4
 74
     0
 42
0.0000000001
 43
0.0000000001
 40
17.90914285521995
 40
17.90914285521995
 40
17.90914285521995
 40
17.90914285521995
 40
18.65579743548038
 40
18.65579743548038
 40
18.65579743548038
 40
18.65579743548038
 10
27.88054312019974
 20
21.55316729384149
 30
0.0
 10
27.76559072148518
 20
21.57992717094141
 30
0.0
 10
27.65152797640524
 20
21.6337180202086
 30
0.0
 10
27.54112558737972
 20
21.71794511791374
 30
0.0
  0
SPLINE
  5
14F
330
1F
100
AcDbEntity
  8
0
370
    -3
100
AcDbSpline
210
0.0
220
0.0
230
1.0
 70
    12
 71
     3
 72
     8
 73
     4
 74
     0
 42
0.0000000001
 43
0.0000000001
 40
14.58237394139765
 40
14.58237394139765
 40
14.58237394139765
 40
14.58237394139765
 40
17.90914285521995
 40
17.90914285521995
 40
17.90914285521995
 40
17.90914285521995
 10
29.83902100673598
 20
21.09610699145767
 30
0.0
 41
0.9105540511506107
 10
29.18604452831285
 20
21.24849544311203
 30
0.0
 41
0.910554051150611
 10
28.53332059544072
 20
21.40082512856701
 30
0.0
 41
0.9105540511506107
 10
27.88054312019976
 20
21.55316729384149
 30
0.0
 41
0.9105540511506107
  0
SPLINE
  5
150
330
1F
100
AcDbEntity
  8
0
370
    -3
100
AcDbSpline
210
0.0
220
0.0
230
1.0
 70
     8
 71
     2
 72
    10
 73
     7
 74
     0
 42
0.0000000001
 43
0.0000000001
 40
9.582373941397654
 40
9.582373941397654
 40
9.582373941397654
 40
10.58237394139765
 40
11.58237394139765
 40
12.58237394139765
 40
13.58237394139765
 40
14.58237394139765
 40
14.58237394139765
 40
14.58237394139765
 10
30.27151617106795
 20
20.72102001340955
 30
0.0
 10
30.26715429830079
 20
20.78335211770932
 30
0.0
 10
30.21410438386305
 20
20.8963420812348
 30
0.0
 10
30.12627867917097
 20
20.98477225308538
 30
0.0
 10
30.01693628393308
 20
21.04343709302692
 30
0.0
 10
29.89955981337948
 20
21.08243793378416
 30
0.0
 10
29.83902100673594
 20
21.09610699145768
 30
0.0
  0
LINE
  5
151
330
1F
100
AcDbEntity
  8
0
370
    -3
100
AcDbLine
 10
30.27232950708656
 20
20.48558778093446
 30
0.0
 11
30.27151617106795
 21
20.72102001340955
 31
0.0
  0
SPLINE
  5
152
330
1F
100
AcDbEntity
  8
0
370
    -3
100
AcDbSpline
210
0.0
220
0.0
230
1.0
 70
     8
 71
     2
 72
    10
 73
     7
 74
     0
 42
0.0000000001
 43
0.0000000001
 40
4.346940304031026
 40
4.346940304031026
 40
4.346940304031026
 40
5.346940304031026
 40
6.346940304031026
 40
7.346940304031026
 40
8.346940304031026
 40
9.346940304031026
 40
9.346940304031026
 40
9.346940304031026
 10
29.64813275419385
 20
20.4988610571673
 30
0.0
 10
29.64755882557872
 20
20.37866111684856
 30
0.0
 10
29.7669659844694
 20
20.22103913914013
 30
0.0
 10
29.95980451789023
 20
20.15726030113101
 30
0.0
 10
30.15272722369829
 20
20.22010787598155
 30
0.0
 10
30.27175774056584
 20
20.38411265016684
 30
0.0
 10
30.27232950708656
 20
20.48558778093446
 30
0.0
  0
SPLINE
  5
153
330
1F
100
AcDbEntity
  8
0
370
    -3
100
AcDbSpline
210
0.0
220
0.0
230
1.0
 70
    12
 71
     3
 72
     8
 73
     4
 74
     0
 42
0.0000000001
 43
0.0000000001
 40
1.102729082821818
 40
1.102729082821818
 40
1.102729082821818
 40
1.102729082821818
 40
4.346940304031026
 40
4.346940304031026
 40
4.346940304031026
 40
4.346940304031026
 10
27.73860883966922
 20
20.9444969115227
 30
0.0
 41
0.9105540511506127
 10
28.37511680886834
 20
20.7959516168429
 30
0.0
 41
0.9105540511506127
 10
29.0116247815311
 20
20.64740633700508
 30
0.0
 41
0.9105540511506132
 10
29.64813275419384
 20
20.49886105716731
 30
0.0
 41
0.9105540511506127
  0
SPLINE
  5
154
330
1F
100
AcDbEntity
  8
0
370
    -3
100
AcDbSpline
210
0.0
220
0.0
230
1.0
 70
     8
 71
     3
 72
     8
 73
     4
 74
     0
 42
0.0000000001
 43
0.0000000001
 40
0.5266866010623173
 40
0.5266866010623173
 40
0.5266866010623173
 40
0.5266866010623173
 40
1.102729082821818
 40
1.102729082821818
 40
1.102729082821818
 40
1.102729082821818
 10
27.36387507383051
 20
21.08930449561829
 30
0.0
 10
27.48288958347077
 20
21.02373276224746
 30
0.0
 10
27.60842286213275
 20
20.97480839616348
 30
0.0
 10
27.73860883966926
 20
20.9444969115227
 30
0.0
  0
SPLINE
  5
155
330
1F
100
AcDbEntity
  8
0
370
    -3
100
AcDbSpline
210
0.0
220
0.0
230
1.0
 70
     8
 71
     3
 72
    19
 73
    15
 74
     0
 42
0.0000000001
 43
0.0000000001
 40
0.0
 40
0.0
 40
0.0
 40
0.0
 40
1.0
 40
2.0
 40
3.0
 40
4.0
 40
5.0
 40
6.0
 40
7.0
 40
8.0
 40
9.0
 40
10.0
 40
11.0
 40
12.0
 40
12.0
 40
12.0
 40
12.0
 10
36.46546753387846
 20
22.08978271817171
 30
0.0
 10
36.21745045596764
 20
22.10269255756791
 30
0.0
 10
35.72079256150644
 20
22.11502698191928
 30
0.0
 10
34.97572612253915
 20
22.10466156066296
 30
0.0
 10
34.23133398385936
 20
22.07185538873208
 30
0.0
 10
33.48811964441617
 20
22.01923249487147
 30
0.0
 10
32.74583429508584
 20
21.95517994770021
 30
0.0
 10
32.00268840515317
 20
21.90170889673477
 30
0.0
 10
31.25878658868455
 20
21.86043569699883
 30
0.0
 10
30.51379925116989
 20
21.84042697532329
 30
0.0
 10
29.76895531956634
 20
21.85455241195616
 30
0.0
 10
29.02325758044102
 20
21.84799818675376
 30
0.0
 10
28.28187627191533
 20
21.77947096990833
 30
0.0
 10
27.79045335252658
 20
21.68691476213091
 30
0.0
 10
27.54165903588039
 20
21.72267316244462
 30
0.0
  0
SPLINE
  5
156
330
1F
100
AcDbEntity
  8
0
370
    -3
100
AcDbSpline
210
0.0
220
0.0
230
1.0
 70
     8
 71
     3
 72
    12
 73
     8
 74
     0
 42
0.0000000001
 43
0.0000000001
 40
2.06068570672051
 40
2.06068570672051
 40
2.06068570672051
 40
2.06068570672051
 40
3.06068570672051
 40
4.060685706720511
 40
5.060685706720511
 40
6.060685706720511
 40
7.060685706720511
 40
7.060685706720511
 40
7.060685706720511
 40
7.060685706720511
 10
42.20186550963302
 20
22.76495277914956
 30
0.0
 10
41.96565243382141
 20
22.81149720335612
 30
0.0
 10
41.48723252345774
 20
22.87453325321597
 30
0.0
 10
40.76418858782886
 20
22.88311641140613
 30
0.0
 10
40.04275337449373
 20
22.84459253098508
 30
0.0
 10
39.32326689937616
 20
22.77944745257165
 30
0.0
 10
38.84586479787216
 20
22.71569025287426
 30
0.0
 10
38.60768990630037
 20
22.68051359952794
 30
0.0
  0
SPLINE
  5
157
330
1F
100
AcDbEntity
  8
0
370
    -3
100
AcDbSpline
210
0.0
220
0.0
230
1.0
 70
     8
 71
     3
 72
     9
 73
     5
 74
     0
 42
0.0000000001
 43
0.0000000001
 40
0.0606857067205103
 40
0.0606857067205103
 40
0.0606857067205103
 40
0.0606857067205103
 40
1.06068570672051
 40
2.06068570672051
 40
2.06068570672051
 40
2.06068570672051
 40
2.06068570672051
 10
42.29618936996032
 20
22.82600546497435
 30
0.0
 10
42.29183081729726
 20
22.80553087765694
 30
0.0
 10
42.26588418250878
 20
22.76853130589309
 30
0.0
 10
42.22241076896679
 20
22.76090445429467
 30
0.0
 10
42.20186550963302
 20
22.76495277914956
 30
0.0
  0
LINE
  5
158
330
1F
100
AcDbEntity
  8
0
370
    -3
100
AcDbLine
 10
42.30884687779308
 20
22.88535647588092
 30
0.0
 11
42.29618936996032
 21
22.82600546497435
 31
0.0
  0
SPLINE
  5
159
330
1F
100
AcDbEntity
  8
0
370
    -3
100
AcDbSpline
210
0.0
220
0.0
230
1.0
 70
    12
 71
     3
 72
     8
 73
     4
 74
     0
 42
0.0000000001
 43
0.0000000001
 40
-0.0965720612189963
 40
-0.0965720612189963
 40
-0.0965720612189963
 40
-0.0965720612189963
 40
0.0
 40
0.0
 40
0.0
 40
0.0
 10
42.27303744682396
 20
22.96980234099066
 30
0.0
 41
1.047463827611573
 10
42.30313929833559
 20
22.95096268321983
 30
0.0
 41
0.955098980548187
 10
42.31591593789069
 20
22.91861393782779
 30
0.0
 41
0.9975409759113065
 10
42.30884687779309
 20
22.88535647588091
 30
0.0
 41
1.174789813700933
  0
SPLINE
  5
15A
330
1F
100
AcDbEntity
  8
0
370
    -3
100
AcDbSpline
210
0.0
220
0.0
230
1.0
 70
     8
 71
     3
 72
    14
 73
    10
 74
     0
 42
0.0000000001
 43
0.0000000001
 40
-7.096572061218996
 40
-7.096572061218996
 40
-7.096572061218996
 40
-7.096572061218996
 40
-6.096474197351765
 40
-5.096376333484534
 40
-4.096278469617303
 40
-3.096180605750073
 40
-2.096082741882842
 40
-1.095984878015611
 40
-0.0965720612189963
 40
-0.0965720612189963
 40
-0.0965720612189963
 40
-0.0965720612189963
 10
40.62526451616792
 20
23.68227051055804
 30
0.0
 10
40.71690109394407
 20
23.68411748603624
 30
0.0
 10
40.90030949881577
 20
23.68379481606807
 30
0.0
 10
41.17482730353563
 20
23.66560167672615
 30
0.0
 10
41.44704203712651
 20
23.6228026168129
 30
0.0
 10
41.71078602821265
 20
23.54408063707414
 30
0.0
 10
41.9597954434551
 20
23.42011692355514
 30
0.0
 10
42.15111741893539
 20
23.21778532166801
 30
0.0
 10
42.22047406279403
 20
23.04489358026192
 30
0.0
 10
42.27303744682396
 20
22.96980234099065
 30
0.0
  0
SPLINE
  5
15B
330
1F
100
AcDbEntity
  8
0
370
    -3
100
AcDbSpline
210
0.0
220
0.0
230
1.0
 70
     8
 71
     3
 72
    10
 73
     6
 74
     0
 42
0.0000000001
 43
0.0000000001
 40
-27.096572061219
 40
-27.096572061219
 40
-27.096572061219
 40
-27.096572061219
 40
-26.09657377324559
 40
-25.09657291723229
 40
-24.096572061219
 40
-24.096572061219
 40
-24.096572061219
 40
-24.096572061219
 10
21.74775373551031
 20
37.09864659989808
 30
0.0
 10
21.88504002484
 20
37.0989380174977
 30
0.0
 10
22.15268766983396
 20
37.01950579493704
 30
0.0
 10
22.4865282622936
 20
36.77427754379688
 30
0.0
 10
22.65718023828844
 20
36.55842575335283
 30
0.0
 10
22.73323205461781
 20
36.44511610908854
 30
0.0
  0
SPLINE
  5
15C
330
1F
100
AcDbEntity
  8
0
370
    -3
100
AcDbSpline
210
0.0
220
0.0
230
1.0
 70
     8
 71
     3
 72
     9
 73
     5
 74
     0
 42
0.0000000001
 43
0.0000000001
 40
-29.096572061219
 40
-29.096572061219
 40
-29.096572061219
 40
-29.096572061219
 40
-28.09657066896912
 40
-27.096572061219
 40
-27.096572061219
 40
-27.096572061219
 40
-27.096572061219
 10
20.98845871814824
 20
37.07617448873189
 30
0.0
 10
21.11484489405355
 20
37.08388097358776
 30
0.0
 10
21.36795286428693
 20
37.09267867524236
 30
0.0
 10
21.62114171083609
 20
37.09740878028564
 30
0.0
 10
21.74775373551031
 20
37.09864659989808
 30
0.0
  0
SPLINE
  5
15D
330
1F
100
AcDbEntity
  8
0
370
    -3
100
AcDbSpline
210
0.0
220
0.0
230
1.0
 70
     8
 71
     3
 72
     8
 73
     4
 74
     0
 42
0.0000000001
 43
0.0000000001
 40
-30.096572061219
 40
-30.096572061219
 40
-30.096572061219
 40
-30.096572061219
 40
-29.096572061219
 40
-29.096572061219
 40
-29.096572061219
 40
-29.096572061219
 10
20.87035541006895
 20
36.93056981466578
 30
0.0
 10
20.82188221466708
 20
37.02189904792085
 30
0.0
 10
20.88050671501582
 20
37.06959204036404
 30
0.0
 10
20.98845871814824
 20
37.07617448873189
 30
0.0
  0
SPLINE
  5
15E
330
1F
100
AcDbEntity
  8
0
370
    -3
100
AcDbSpline
210
0.0
220
0.0
230
1.0
 70
     8
 71
     5
 72
    16
 73
    10
 74
     0
 42
0.0000000001
 43
0.0000000001
 40
-37.79274481442121
 40
-37.79274481442121
 40
-37.79274481442121
 40
-37.79274481442121
 40
-37.79274481442121
 40
-37.79274481442121
 40
-37.19390305355908
 40
-34.79715286859543
 40
-33.60228520264785
 40
-32.40741751985176
 40
-30.096572061219
 40
-30.096572061219
 40
-30.096572061219
 40
-30.096572061219
 40
-30.096572061219
 40
-30.096572061219
 10
23.20687350194998
 20
29.75036252012442
 30
0.0
 10
23.19075206877186
 20
29.86198354003236
 30
0.0
 10
23.10761679580298
 20
30.41885359539487
 30
0.0
 10
22.97318566777033
 20
31.18908246759316
 30
0.0
 10
22.76136318929911
 20
32.17716618036006
 30
0.0
 10
22.33885942819568
 20
33.65575107368131
 30
0.0
 10
21.81333619307127
 20
35.00198008594064
 30
0.0
 10
21.41099294679076
 20
35.8790810166137
 30
0.0
 10
21.089542784515
 20
36.51759487704531
 30
0.0
 10
20.87035541006895
 20
36.93056981466578
 30
0.0
  0
SPLINE
  5
15F
330
1F
100
AcDbEntity
  8
0
370
    -3
100
AcDbSpline
210
0.0
220
0.0
230
1.0
 70
     8
 71
     3
 72
    13
 73
     9
 74
     0
 42
0.0000000001
 43
0.0000000001
 40
0.0
 40
0.0
 40
0.0
 40
0.0
 40
1.0
 40
2.0
 40
3.0
 40
4.0
 40
5.0
 40
6.0
 40
6.0
 40
6.0
 40
6.0
 10
23.38438890292348
 20
28.29335175221957
 30
0.0
 10
23.42182252192085
 20
27.93185833626777
 30
0.0
 10
23.4841323259535
 20
27.20773142546492
 30
0.0
 10
23.57000206801003
 20
26.12077615606223
 30
0.0
 10
23.70143965971396
 20
25.03828597168386
 30
0.0
 10
23.90418667464763
 20
23.96553373341883
 30
0.0
 10
24.29550115139295
 20
22.93912633444948
 30
0.0
 10
24.74965459437831
 20
22.35879055356765
 30
0.0
 10
25.02339723271407
 20
22.11923520096142
 30
0.0
  0
SPLINE
  5
160
330
1F
100
AcDbEntity
  8
0
370
    -3
100
AcDbSpline
210
0.0
220
0.0
230
1.0
 70
     8
 71
     5
 72
    13
 73
     7
 74
     0
 42
0.0000000001
 43
0.0000000001
 40
2.471439808017385
 40
2.471439808017385
 40
2.471439808017385
 40
2.471439808017385
 40
2.471439808017385
 40
2.471439808017385
 40
2.878708620303483
 40
3.211343614209726
 40
3.211343614209726
 40
3.211343614209726
 40
3.211343614209726
 40
3.211343614209726
 40
3.211343614209726
 10
25.56286485503551
 20
21.7344272059441
 30
0.0
 10
25.63330225653777
 20
21.69395213801054
 30
0.0
 10
25.76333585174455
 20
21.62404225540792
 30
0.0
 10
25.89671382730278
 20
21.5605601641461
 30
0.0
 10
26.03272590161674
 20
21.50308700913568
 30
0.0
 10
26.17083688369558
 20
21.45118073149923
 30
0.0
 10
26.23330833240851
 20
21.42893015275971
 30
0.0
  0
SPLINE
  5
161
330
1F
100
AcDbEntity
  8
0
370
    -3
100
AcDbSpline
210
0.0
220
0.0
230
1.0
 70
     8
 71
     5
 72
    14
 73
     8
 74
     0
 42
0.0000000001
 43
0.0000000001
 40
0.494008673394144
 40
0.494008673394144
 40
0.494008673394144
 40
0.494008673394144
 40
0.494008673394144
 40
0.494008673394144
 40
0.6458742737662996
 40
0.7344057059999994
 40
0.7745734792308949
 40
0.7745734792308949
 40
0.7745734792308949
 40
0.7745734792308949
 40
0.7745734792308949
 40
0.7745734792308949
 10
35.69940121679848
 20
22.12421247727245
 30
0.0
 10
35.29988408466635
 20
22.03652799266553
 30
0.0
 10
34.6658158805053
 20
21.8947390088392
 30
0.0
 10
33.91924046096209
 20
21.72712585967217
 30
0.0
 10
33.15788096881237
 20
21.56189068126592
 30
0.0
 10
32.38286997956066
 20
21.41257140166017
 30
0.0
 10
32.02491093582443
 20
21.3488219665996
 30
0.0
 10
31.91296483817927
 20
21.32943346944868
 30
0.0
  0
SPLINE
  5
162
330
1F
100
AcDbEntity
  8
0
370
    -3
100
AcDbSpline
210
0.0
220
0.0
230
1.0
 70
    12
 71
     3
 72
     8
 73
     4
 74
     0
 42
0.0000000001
 43
0.0000000001
 40
0.0000000000002372
 40
0.0000000000002372
 40
0.0000000000002372
 40
0.0000000000002372
 40
0.1435171686539728
 40
0.1435171686539728
 40
0.1435171686539728
 40
0.1435171686539728
 10
33.38958371551349
 20
22.02963744879111
 30
0.0
 41
1.180116572514999
 10
33.39131383500724
 20
22.01577424513579
 30
0.0
 41
1.128060082959882
 10
33.39244115833523
 20
22.00874592677161
 30
0.0
 41
1.087287444469789
 10
33.39285990374383
 20
22.00956776090971
 30
0.0
 41
1.05779865704472
  0
SPLINE
  5
163
330
1F
100
AcDbEntity
  8
0
370
    -3
100
AcDbSpline
210
0.0
220
0.0
230
1.0
 70
    28
 71
     3
 72
     8
 73
     4
 74
     0
 42
0.0000000001
 43
0.0000000001
 40
-5.859026358234914
 40
-5.859026358234914
 40
-5.859026358234914
 40
-5.859026358234914
 40
0.0
 40
0.0
 40
0.0
 40
0.0
 10
-6.364222392221953
 20
21.37443604132959
 30
0.0
 41
1.0
 10
-5.386128474127962
 20
21.10684342510753
 30
0.0
 41
1.0
 10
-4.408034556033988
 20
20.8392508088855
 30
0.0
 41
1.0
 10
-3.429940637939985
 20
20.57165819266343
 30
0.0
 41
1.0
  0
SPLINE
  5
164
330
1F
100
AcDbEntity
  8
0
370
    -3
100
AcDbSpline
210
0.0
220
0.0
230
1.0
 70
     8
 71
     3
 72
     8
 73
     4
 74
     0
 42
0.0000000001
 43
0.0000000001
 40
0.0
 40
0.0
 40
0.0
 40
0.0
 40
1.0
 40
1.0
 40
1.0
 40
1.0
 10
-3.429940637939985
 20
20.57165819266343
 30
0.0
 10
-3.202690985587886
 20
20.50948591259557
 30
0.0
 10
-2.798513180462102
 20
20.44678624870129
 30
0.0
 10
-2.563980737015022
 20
20.41550454249052
 30
0.0
  0
SPLINE
  5
165
330
1F
100
AcDbEntity
  8
0
370
    -3
100
AcDbSpline
210
0.0
220
0.0
230
1.0
 70
    12
 71
     3
 72
     8
 73
     4
 74
     0
 42
0.0000000001
 43
0.0000000001
 40
1.0
 40
1.0
 40
1.0
 40
1.0
 40
6.060246462763348
 40
6.060246462763348
 40
6.060246462763348
 40
6.060246462763348
 10
-2.563980737015022
 20
20.41550454249052
 30
0.0
 41
1.0
 10
-0.8646607356853548
 20
20.18885091513592
 30
0.0
 41
1.0
 10
0.8646873646716745
 20
20.1888511245728
 30
0.0
 41
0.9999999999999996
 10
2.564001966080205
 20
20.41550454249052
 30
0.0
 41
1.0
  0
SPLINE
  5
166
330
1F
100
AcDbEntity
  8
0
370
    -3
100
AcDbSpline
210
0.0
220
0.0
230
1.0
 70
     8
 71
     3
 72
     8
 73
     4
 74
     0
 42
0.0000000001
 43
0.0000000001
 40
6.060246462763348
 40
6.060246462763348
 40
6.060246462763348
 40
6.060246462763348
 40
7.060246462763348
 40
7.060246462763348
 40
7.060246462763348
 40
7.060246462763348
 10
2.564001966080205
 20
20.41550454249052
 30
0.0
 10
2.798535875472929
 20
20.44678824185316
 30
0.0
 10
3.202704444290042
 20
20.50948690078908
 30
0.0
 10
3.429950484636315
 20
20.57165819266343
 30
0.0
  0
SPLINE
  5
167
330
1F
100
AcDbEntity
  8
0
370
    -3
100
AcDbSpline
210
0.0
220
0.0
230
1.0
 70
    28
 71
     3
 72
     8
 73
     4
 74
     0
 42
0.0000000001
 43
0.0000000001
 40
7.060246462763348
 40
7.060246462763348
 40
7.060246462763348
 40
7.060246462763348
 40
12.91927282099826
 40
12.91927282099826
 40
12.91927282099826
 40
12.91927282099826
 10
3.429950484636315
 20
20.57165819266343
 30
0.0
 41
1.0
 10
4.408044402730317
 20
20.8392508088855
 30
0.0
 41
1.0
 10
5.386138320824291
 20
21.10684342510753
 30
0.0
 41
1.0
 10
6.364232238918254
 20
21.37443604132959
 30
0.0
 41
1.0
  0
SPLINE
  5
168
330
1F
100
AcDbEntity
  8
0
370
    -3
100
AcDbSpline
210
0.0
220
0.0
230
1.0
 70
     8
 71
     3
 72
    11
 73
     7
 74
     0
 42
0.0000000001
 43
0.0000000001
 40
-4.0
 40
-4.0
 40
-4.0
 40
-4.0
 40
-3.0
 40
-2.0
 40
-1.0
 40
0.0
 40
0.0
 40
0.0
 40
0.0
 10
-6.471554112362192
 20
21.06596364556181
 30
0.0
 10
-6.178551788238231
 20
20.95122036997989
 30
0.0
 10
-5.555490011161972
 20
20.8688391030246
 30
0.0
 10
-4.633180150049618
 20
20.69963947370236
 30
0.0
 10
-3.707494431719631
 20
20.54311280910424
 30
0.0
 10
-3.09118436805003
 20
20.43538561866445
 30
0.0
 10
-2.78189200898283
 20
20.38810694284005
 30
0.0
  0
SPLINE
  5
169
330
1F
100
AcDbEntity
  8
0
370
    -3
100
AcDbSpline
210
0.0
220
0.0
230
1.0
 70
    12
 71
     3
 72
     8
 73
     4
 74
     0
 42
0.0000000001
 43
0.0000000001
 40
0.0
 40
0.0
 40
0.0
 40
0.0
 40
5.489510829511583
 40
5.489510829511583
 40
5.489510829511583
 40
5.489510829511583
 10
-2.78189200898283
 20
20.38810694284005
 30
0.0
 41
1.0
 10
-0.9420558763281761
 20
20.10139627418876
 30
0.0
 41
1.0
 10
0.9420837643534765
 20
20.10139671135086
 30
0.0
 41
1.0
 10
2.781913238048013
 20
20.38810694284005
 30
0.0
 41
1.0
  0
SPLINE
  5
16A
330
1F
100
AcDbEntity
  8
0
370
    -3
100
AcDbSpline
210
0.0
220
0.0
230
1.0
 70
     8
 71
     3
 72
    11
 73
     7
 74
     0
 42
0.0000000001
 43
0.0000000001
 40
5.489510829511583
 40
5.489510829511583
 40
5.489510829511583
 40
5.489510829511583
 40
6.489501839224093
 40
7.48950483598659
 40
8.489507832749087
 40
9.489510829511584
 40
9.489510829511584
 40
9.489510829511584
 40
9.489510829511584
 10
2.781913238048013
 20
20.38810694284005
 30
0.0
 10
3.091201602463791
 20
20.43538690999166
 30
0.0
 10
3.707507977151884
 20
20.54311343453335
 30
0.0
 10
4.633189996745948
 20
20.69963947370236
 30
0.0
 10
5.555499857858301
 20
20.8688391030246
 30
0.0
 10
6.17856163493456
 20
20.95122036997989
 30
0.0
 10
6.471563959058521
 20
21.06596364556181
 30
0.0
  0
SPLINE
  5
16B
330
1F
100
AcDbEntity
  8
0
370
    -3
100
AcDbSpline
210
0.0
220
0.0
230
1.0
 70
    24
 71
     3
 72
    11
 73
     7
 74
     0
 42
0.0000000001
 43
0.0000000001
 40
0.0
 40
0.0
 40
0.0
 40
0.0
 40
1.0
 40
2.0
 40
3.0
 40
4.0
 40
4.0
 40
4.0
 40
4.0
 10
6.30040444323884
 20
22.00401139729544
 30
0.0
 10
6.049101445493953
 20
21.93525846326018
 30
0.0
 10
5.546495450004379
 20
21.79775259518973
 30
0.0
 10
4.792586456769747
 20
21.59149379308398
 30
0.0
 10
4.0386774635354
 20
21.38523499097828
 30
0.0
 10
3.536071468045513
 20
21.24772912290781
 30
0.0
 10
3.284768470300769
 20
21.17897618887257
 30
0.0
  0
SPLINE
  5
16C
330
1F
100
AcDbEntity
  8
0
370
    -3
100
AcDbSpline
210
0.0
220
0.0
230
1.0
 70
     8
 71
     3
 72
     8
 73
     4
 74
     0
 42
0.0000000001
 43
0.0000000001
 40
4.0
 40
4.0
 40
4.0
 40
4.0
 40
5.0
 40
5.0
 40
5.0
 40
5.0
 10
3.284768470300769
 20
21.17897618887257
 30
0.0
 10
3.074017617034052
 20
21.12131774610604
 30
0.0
 10
2.699035321118792
 20
21.06405177107781
 30
0.0
 10
2.481477664424141
 20
21.0350323785368
 30
0.0
  0
SPLINE
  5
16D
330
1F
100
AcDbEntity
  8
0
370
    -3
100
AcDbSpline
210
0.0
220
0.0
230
1.0
 70
    12
 71
     3
 72
     8
 73
     4
 74
     0
 42
0.0000000001
 43
0.0000000001
 40
5.0
 40
5.0
 40
5.0
 40
5.0
 40
10.06024646276335
 40
10.06024646276335
 40
10.06024646276335
 40
10.06024646276335
 10
2.481477664424141
 20
21.0350323785368
 30
0.0
 41
1.0
 10
0.836856988795056
 20
20.81567398269586
 30
0.0
 41
0.9999999999999996
 10
-0.8368305314475817
 20
20.81567379600308
 30
0.0
 41
1.0
 10
-2.481456435358957
 20
21.0350323785368
 30
0.0
 41
1.0
  0
SPLINE
  5
16E
330
1F
100
AcDbEntity
  8
0
370
    -3
100
AcDbSpline
210
0.0
220
0.0
230
1.0
 70
     8
 71
     3
 72
     8
 73
     4
 74
     0
 42
0.0000000001
 43
0.0000000001
 40
10.06024646276335
 40
10.06024646276335
 40
10.06024646276335
 40
10.06024646276335
 40
11.06024646276335
 40
11.06024646276335
 40
11.06024646276335
 40
11.06024646276335
 10
-2.481456435358957
 20
21.0350323785368
 30
0.0
 10
-2.699012623741432
 20
21.06404980857455
 30
0.0
 10
-3.074004159124776
 20
21.12131675812942
 30
0.0
 10
-3.284758623604439
 20
21.17897618887257
 30
0.0
  0
SPLINE
  5
16F
330
1F
100
AcDbEntity
  8
0
370
    -3
100
AcDbSpline
210
0.0
220
0.0
230
1.0
 70
    24
 71
     3
 72
    11
 73
     7
 74
     0
 42
0.0000000001
 43
0.0000000001
 40
11.06024646276335
 40
11.06024646276335
 40
11.06024646276335
 40
11.06024646276335
 40
12.06024646276335
 40
13.06024646276335
 40
14.06024646276335
 40
15.06024646276335
 40
15.06024646276335
 40
15.06024646276335
 40
15.06024646276335
 10
-3.284758623604439
 20
21.17897618887257
 30
0.0
 10
-3.536061621349184
 20
21.24772912290781
 30
0.0
 10
-4.038667616839071
 20
21.38523499097828
 30
0.0
 10
-4.792576610073418
 20
21.59149379308398
 30
0.0
 10
-5.546485603308049
 20
21.79775259518973
 30
0.0
 10
-6.049091598797624
 20
21.93525846326018
 30
0.0
 10
-6.30039459654251
 20
22.00401139729544
 30
0.0
  0
SPLINE
  5
170
330
1F
100
AcDbEntity
  8
0
370
    -3
100
AcDbSpline
210
0.0
220
0.0
230
1.0
 70
     8
 71
     3
 72
    12
 73
     8
 74
     0
 42
0.0000000001
 43
0.0000000001
 40
-5.0
 40
-5.0
 40
-5.0
 40
-5.0
 40
-4.0
 40
-3.0
 40
-2.0
 40
-1.0
 40
0.0
 40
0.0
 40
0.0
 40
0.0
 10
-7.17328172568029
 20
22.24298794159584
 30
0.0
 10
-7.140192514550741
 20
22.24486768746294
 30
0.0
 10
-7.07382975528953
 20
22.23400121975438
 30
0.0
 10
-6.985348676661722
 20
22.18672699695544
 30
0.0
 10
-6.913107907437457
 20
22.11738106002237
 30
0.0
 10
-6.864195248601682
 20
22.0293310792441
 30
0.0
 10
-6.858303641622065
 20
21.94485258966011
 30
0.0
 10
-6.863368453349189
 20
21.91211069476508
 30
0.0
  0
SPLINE
  5
171
330
1F
100
AcDbEntity
  8
0
370
    -3
100
AcDbSpline
210
0.0
220
0.0
230
1.0
 70
     8
 71
     3
 72
    12
 73
     8
 74
     0
 42
0.0000000001
 43
0.0000000001
 40
0.0
 40
0.0
 40
0.0
 40
0.0
 40
1.0
 40
2.0
 40
3.0
 40
4.0
 40
5.0
 40
5.0
 40
5.0
 40
5.0
 10
-6.863368453349189
 20
21.91211069476508
 30
0.0
 10
-6.869770160336209
 20
21.87072632973624
 30
0.0
 10
-6.911725573521927
 20
21.77739674139279
 30
0.0
 10
-7.004762206921249
 20
21.69158005708081
 30
0.0
 10
-7.115519287481511
 20
21.63195071131391
 30
0.0
 10
-7.238231385704246
 20
21.60064138367967
 30
0.0
 10
-7.3238715954108
 20
21.61815761529763
 30
0.0
 10
-7.3562413974579
 20
21.64581892765528
 30
0.0
  0
SPLINE
  5
172
330
1F
100
AcDbEntity
  8
0
370
    -3
100
AcDbSpline
210
0.0
220
0.0
230
1.0
 70
     8
 71
     3
 72
    10
 73
     6
 74
     0
 42
0.0000000001
 43
0.0000000001
 40
-3.0
 40
-3.0
 40
-3.0
 40
-3.0
 40
-2.0
 40
-1.0
 40
0.0
 40
0.0
 40
0.0
 40
0.0
 10
6.031644618024238
 20
22.08252238669623
 30
0.0
 10
5.386892449542891
 20
21.85676235733575
 30
0.0
 10
4.069990154921832
 20
21.48569798041758
 30
0.0
 10
2.048138573549515
 20
21.13698516982063
 30
0.0
 10
0.6832021174190501
 20
21.04254359056002
 30
0.0
 10
0.0000049230177339
 20
21.04188037310679
 30
0.0
  0
SPLINE
  5
173
330
1F
100
AcDbEntity
  8
0
370
    -3
100
AcDbSpline
210
0.0
220
0.0
230
1.0
 70
     8
 71
     3
 72
    10
 73
     6
 74
     0
 42
0.0000000001
 43
0.0000000001
 40
0.0
 40
0.0
 40
0.0
 40
0.0
 40
1.0
 40
2.0
 40
3.0
 40
3.0
 40
3.0
 40
3.0
 10
0.0000049230177339
 20
21.04188037310679
 30
0.0
 10
-0.6831922713835823
 20
21.04254359056002
 30
0.0
 10
-2.048128727514047
 20
21.13698516982063
 30
0.0
 10
-4.069980308886365
 20
21.48569798041758
 30
0.0
 10
-5.386882603507424
 20
21.85676235733575
 30
0.0
 10
-6.03163477198877
 20
22.08252238669623
 30
0.0
  0
SPLINE
  5
174
330
1F
100
AcDbEntity
  8
0
370
    -3
100
AcDbSpline
210
0.0
220
0.0
230
1.0
 70
     8
 71
     3
 72
     8
 73
     4
 74
     0
 42
0.0000000001
 43
0.0000000001
 40
-7.827057157783509
 40
-7.827057157783509
 40
-7.827057157783509
 40
-7.827057157783509
 40
-7.508943809248903
 40
-7.508943809248903
 40
-7.508943809248903
 40
-7.508943809248903
 10
-7.55696791325898
 20
21.70075429007547
 30
0.0
 10
-7.559767944916992
 20
21.59749332050627
 30
0.0
 10
-7.562567978474767
 20
21.49423236661212
 30
0.0
 10
-7.565368014128815
 20
21.39097142825096
 30
0.0
  0
SPLINE
  5
175
330
1F
100
AcDbEntity
  8
0
370
    -3
100
AcDbSpline
210
0.0
220
0.0
230
1.0
 70
     8
 71
     3
 72
     8
 73
     4
 74
     0
 42
0.0000000001
 43
0.0000000001
 40
-7.508943809248903
 40
-7.508943809248903
 40
-7.508943809248903
 40
-7.508943809248903
 40
-7.504257793518828
 40
-7.504257793518828
 40
-7.504257793518828
 40
-7.504257793518828
 10
-7.565368014128815
 20
21.39097142825096
 30
0.0
 10
-7.565408775981133
 20
21.38946819484857
 30
0.0
 10
-7.565449537833963
 20
21.38796496144948
 30
0.0
 10
-7.565652153438954
 20
21.38646611689901
 30
0.0
  0
SPLINE
  5
176
330
1F
100
AcDbEntity
  8
0
370
    -3
100
AcDbSpline
210
0.0
220
0.0
230
1.0
 70
     8
 71
     3
 72
    14
 73
    10
 74
     0
 42
0.0000000001
 43
0.0000000001
 40
-7.504257793518828
 40
-7.504257793518828
 40
-7.504257793518828
 40
-7.504257793518828
 40
-6.504448673814874
 40
-5.5044168604322
 40
-4.504385047049526
 40
-3.504353233666852
 40
-2.504321420284178
 40
-1.504289606901503
 40
-0.5042577935188287
 40
-0.5042577935188287
 40
-0.5042577935188287
 40
-0.5042577935188287
 10
-7.565652153438954
 20
21.38646611689901
 30
0.0
 10
-7.568088978470463
 20
21.30658686319335
 30
0.0
 10
-7.529498901834707
 20
21.14588272932698
 30
0.0
 10
-7.359271773074717
 20
20.96531650658711
 30
0.0
 10
-7.127739302070957
 20
20.8877827647139
 30
0.0
 10
-6.888189983435588
 20
20.86846905495251
 30
0.0
 10
-6.647196462421341
 20
20.9077091343939
 30
0.0
 10
-6.450248401521556
 20
21.0587498582837
 30
0.0
 10
-6.386303630413359
 20
21.21113823271754
 30
0.0
 10
-6.375710686763831
 20
21.2903735522985
 30
0.0
  0
LINE
  5
177
330
1F
100
AcDbEntity
  8
0
370
    -3
100
AcDbLine
 10
-6.375710686763831
 20
21.2903735522985
 30
0.0
 11
-6.306144004532605
 21
21.80218396168595
 31
0.0
  0
LINE
  5
178
330
1F
100
AcDbEntity
  8
0
370
    -3
100
AcDbLine
 10
-6.306144004532605
 20
21.80218396168595
 30
0.0
 11
-6.296090942009705
 21
22.17264327751128
 31
0.0
  0
SPLINE
  5
179
330
1F
100
AcDbEntity
  8
0
370
    -3
100
AcDbSpline
210
0.0
220
0.0
230
1.0
 70
     8
 71
     3
 72
     8
 73
     4
 74
     0
 42
0.0000000001
 43
0.0000000001
 40
0.3926791277885351
 40
0.3926791277885351
 40
0.3926791277885351
 40
0.3926791277885351
 40
1.392679127788535
 40
1.392679127788535
 40
1.392679127788535
 40
1.392679127788535
 10
-6.296090942009705
 20
22.17264327751128
 30
0.0
 10
-6.356254620848155
 20
22.27962851438652
 30
0.0
 10
-7.242117046711464
 20
22.39354597771273
 30
0.0
 10
-7.486325974641552
 20
22.37907719542297
 30
0.0
  0
LINE
  5
17A
330
1F
100
AcDbEntity
  8
0
370
    -3
100
AcDbLine
 10
-7.486325974641552
 20
22.37907719542297
 30
0.0
 11
-7.492925338666971
 21
22.33027088557866
 31
0.0
  0
SPLINE
  5
17B
330
1F
100
AcDbEntity
  8
0
370
    -3
100
AcDbSpline
210
0.0
220
0.0
230
1.0
 70
     8
 71
     3
 72
     8
 73
     4
 74
     0
 42
0.0000000001
 43
0.0000000001
 40
0.0
 40
0.0
 40
0.0
 40
0.0
 40
1.0
 40
1.0
 40
1.0
 40
1.0
 10
-7.66925220629691
 20
22.37710739057393
 30
0.0
 10
-7.607368664139308
 20
22.39182009117398
 30
0.0
 10
-7.543465432051001
 20
22.39554500548554
 30
0.0
 10
-7.480040536967188
 20
22.39546092779781
 30
0.0
  0
SPLINE
  5
17C
330
1F
100
AcDbEntity
  8
0
370
    -3
100
AcDbSpline
210
0.0
220
0.0
230
1.0
 70
     8
 71
     3
 72
     8
 73
     4
 74
     0
 42
0.0000000001
 43
0.0000000001
 40
1.0
 40
1.0
 40
1.0
 40
1.0
 40
2.0
 40
2.0
 40
2.0
 40
2.0
 10
-7.480040536967188
 20
22.39546092779781
 30
0.0
 10
-7.358979588284889
 20
22.39523012077657
 30
0.0
 10
-7.149148218123948
 20
22.37815437508284
 30
0.0
 10
-7.028714457702741
 20
22.36393580778289
 30
0.0
  0
SPLINE
  5
17D
330
1F
100
AcDbEntity
  8
0
370
    -3
100
AcDbSpline
210
0.0
220
0.0
230
1.0
 70
     8
 71
     3
 72
     8
 73
     4
 74
     0
 42
0.0000000001
 43
0.0000000001
 40
16.0
 40
16.0
 40
16.0
 40
16.0
 40
17.0
 40
17.0
 40
17.0
 40
17.0
 10
7.02872430439907
 20
22.36393580778289
 30
0.0
 10
7.149158064820277
 20
22.37815437508284
 30
0.0
 10
7.358989434981218
 20
22.39523012077657
 30
0.0
 10
7.480050383663517
 20
22.39546092779781
 30
0.0
  0
SPLINE
  5
17E
330
1F
100
AcDbEntity
  8
0
370
    -3
100
AcDbSpline
210
0.0
220
0.0
230
1.0
 70
     8
 71
     3
 72
     8
 73
     4
 74
     0
 42
0.0000000001
 43
0.0000000001
 40
17.0
 40
17.0
 40
17.0
 40
17.0
 40
18.0
 40
18.0
 40
18.0
 40
18.0
 10
7.480050383663517
 20
22.39546092779781
 30
0.0
 10
7.54347527874733
 20
22.39554500548554
 30
0.0
 10
7.607378510835638
 20
22.39182009117398
 30
0.0
 10
7.66926205299324
 20
22.37710739057393
 30
0.0
  0
SPLINE
  5
17F
330
1F
100
AcDbEntity
  8
0
370
    -3
100
AcDbSpline
210
0.0
220
0.0
230
1.0
 70
     8
 71
     3
 72
    13
 73
     9
 74
     0
 42
0.0000000001
 43
0.0000000001
 40
0.0
 40
0.0
 40
0.0
 40
0.0
 40
1.0
 40
2.0
 40
3.0
 40
4.0
 40
5.0
 40
6.0
 40
6.0
 40
6.0
 40
6.0
 10
-6.976273424620565
 20
20.87915979211304
 30
0.0
 10
-7.054963537541319
 20
20.85392636152255
 30
0.0
 10
-7.219960292683261
 20
20.83939817432206
 30
0.0
 10
-7.467224766017416
 20
20.86714712854626
 30
0.0
 10
-7.693887944109015
 20
20.977070977351
 30
0.0
 10
-7.83958966711635
 20
21.19198866167928
 30
0.0
 10
-7.836137858197198
 20
21.44362156251781
 30
0.0
 10
-7.83473693549093
 20
21.60672744535243
 30
0.0
 10
-7.833887754975201
 20
21.68921058090275
 30
0.0
  0
SPLINE
  5
180
330
1F
100
AcDbEntity
  8
0
370
    -3
100
AcDbSpline
210
0.0
220
0.0
230
1.0
 70
     8
 71
     3
 72
    10
 73
     6
 74
     0
 42
0.0000000001
 43
0.0000000001
 40
0.0
 40
0.0
 40
0.0
 40
0.0
 40
1.0
 40
2.0
 40
3.0
 40
3.0
 40
3.0
 40
3.0
 10
-6.806071291443921
 20
21.91467876951931
 30
0.0
 10
-6.754973046101846
 20
21.90986969642962
 30
0.0
 10
-6.652872205146714
 20
21.89877458742651
 30
0.0
 10
-6.500679590854823
 20
21.87561369974738
 30
0.0
 10
-6.400068228213691
 20
21.85384382502893
 30
0.0
 10
-6.352046369969237
 20
21.83545836773457
 30
0.0
  0
SPLINE
  5
181
330
1F
100
AcDbEntity
  8
0
370
    -3
100
AcDbSpline
210
0.0
220
0.0
230
1.0
 70
    28
 71
     2
 72
     6
 73
     3
 74
     0
 42
0.0000000001
 43
0.0000000001
 40
-6.255576233813232
 40
-6.255576233813232
 40
-6.255576233813232
 40
-5.99999999999994
 40
-5.99999999999994
 40
-5.99999999999994
 10
-8.289622106190837
 20
22.12414156442276
 30
0.0
 41
0.9132703934651935
 10
-8.383961595680567
 20
22.18160556918972
 30
0.0
 41
0.9132703934651935
 10
-8.478301085170298
 20
22.23906957395667
 30
0.0
 41
0.9132703934651935
  0
SPLINE
  5
182
330
1F
100
AcDbEntity
  8
0
370
    -3
100
AcDbSpline
210
0.0
220
0.0
230
1.0
 70
     8
 71
     2
 72
    11
 73
     8
 74
     0
 42
0.0000000001
 43
0.0000000001
 40
-5.99999999999994
 40
-5.99999999999994
 40
-5.99999999999994
 40
-4.99999999999994
 40
-3.99999999999994
 40
-2.99999999999994
 40
-1.99999999999994
 40
-0.9999999999999403
 40
0.0000000000000597
 40
0.0000000000000597
 40
0.0000000000000597
 10
-8.478301085170308
 20
22.23906957395666
 30
0.0
 10
-8.550193732554114
 20
22.28421485206304
 30
0.0
 10
-8.718953983701375
 20
22.30998120696267
 30
0.0
 10
-8.877608270611582
 20
22.24629383850704
 30
0.0
 10
-8.992691168620134
 20
22.1218117290713
 30
0.0
 10
-9.06565107531737
 20
21.97005632171461
 30
0.0
 10
-9.10229341885833
 20
21.80596604773515
 30
0.0
 10
-9.104493461409852
 20
21.72199126407042
 30
0.0
  0
SPLINE
  5
183
330
1F
100
AcDbEntity
  8
0
370
    -3
100
AcDbSpline
210
0.0
220
0.0
230
1.0
 70
     8
 71
     3
 72
    12
 73
     8
 74
     0
 42
0.0000000001
 43
0.0000000001
 40
-5.0
 40
-5.0
 40
-5.0
 40
-5.0
 40
-4.0
 40
-3.0
 40
-2.0
 40
-1.0
 40
0.0
 40
0.0
 40
0.0
 40
0.0
 10
7.173281725680276
 20
22.24298794159584
 30
0.0
 10
7.140192514550726
 20
22.24486768746294
 30
0.0
 10
7.073829755289516
 20
22.23400121975438
 30
0.0
 10
6.985348676661708
 20
22.18672699695544
 30
0.0
 10
6.913107907437443
 20
22.11738106002237
 30
0.0
 10
6.864195248601668
 20
22.0293310792441
 30
0.0
 10
6.858303641622051
 20
21.94485258966011
 30
0.0
 10
6.863368453349175
 20
21.91211069476508
 30
0.0
  0
SPLINE
  5
184
330
1F
100
AcDbEntity
  8
0
370
    -3
100
AcDbSpline
210
0.0
220
0.0
230
1.0
 70
     8
 71
     3
 72
    12
 73
     8
 74
     0
 42
0.0000000001
 43
0.0000000001
 40
0.0
 40
0.0
 40
0.0
 40
0.0
 40
1.0
 40
2.0
 40
3.0
 40
4.0
 40
5.0
 40
5.0
 40
5.0
 40
5.0
 10
6.863368453349175
 20
21.91211069476508
 30
0.0
 10
6.869770160336195
 20
21.87072632973624
 30
0.0
 10
6.911725573521913
 20
21.77739674139279
 30
0.0
 10
7.004762206921235
 20
21.69158005708081
 30
0.0
 10
7.115519287481497
 20
21.63195071131391
 30
0.0
 10
7.238231385704232
 20
21.60064138367967
 30
0.0
 10
7.323871595410786
 20
21.61815761529763
 30
0.0
 10
7.356241397457886
 20
21.64581892765528
 30
0.0
  0
SPLINE
  5
185
330
1F
100
AcDbEntity
  8
0
370
    -3
100
AcDbSpline
210
0.0
220
0.0
230
1.0
 70
     8
 71
     3
 72
     8
 73
     4
 74
     0
 42
0.0000000001
 43
0.0000000001
 40
-7.827057157783509
 40
-7.827057157783509
 40
-7.827057157783509
 40
-7.827057157783509
 40
-7.508943809248903
 40
-7.508943809248903
 40
-7.508943809248903
 40
-7.508943809248903
 10
7.556967913258966
 20
21.70075429007547
 30
0.0
 10
7.559767944916977
 20
21.59749332050627
 30
0.0
 10
7.562567978474753
 20
21.49423236661212
 30
0.0
 10
7.565368014128801
 20
21.39097142825096
 30
0.0
  0
SPLINE
  5
186
330
1F
100
AcDbEntity
  8
0
370
    -3
100
AcDbSpline
210
0.0
220
0.0
230
1.0
 70
     8
 71
     3
 72
     8
 73
     4
 74
     0
 42
0.0000000001
 43
0.0000000001
 40
-7.508943809248903
 40
-7.508943809248903
 40
-7.508943809248903
 40
-7.508943809248903
 40
-7.504257793518828
 40
-7.504257793518828
 40
-7.504257793518828
 40
-7.504257793518828
 10
7.565368014128801
 20
21.39097142825096
 30
0.0
 10
7.565408775981119
 20
21.38946819484857
 30
0.0
 10
7.565449537833949
 20
21.38796496144948
 30
0.0
 10
7.56565215343894
 20
21.38646611689901
 30
0.0
  0
SPLINE
  5
187
330
1F
100
AcDbEntity
  8
0
370
    -3
100
AcDbSpline
210
0.0
220
0.0
230
1.0
 70
     8
 71
     3
 72
    14
 73
    10
 74
     0
 42
0.0000000001
 43
0.0000000001
 40
-7.504257793518828
 40
-7.504257793518828
 40
-7.504257793518828
 40
-7.504257793518828
 40
-6.504448673814874
 40
-5.5044168604322
 40
-4.504385047049526
 40
-3.504353233666852
 40
-2.504321420284178
 40
-1.504289606901503
 40
-0.5042577935188287
 40
-0.5042577935188287
 40
-0.5042577935188287
 40
-0.5042577935188287
 10
7.56565215343894
 20
21.38646611689901
 30
0.0
 10
7.568088978470449
 20
21.30658686319335
 30
0.0
 10
7.529498901834693
 20
21.14588272932698
 30
0.0
 10
7.359271773074703
 20
20.96531650658711
 30
0.0
 10
7.127739302070943
 20
20.8877827647139
 30
0.0
 10
6.888189983435574
 20
20.86846905495251
 30
0.0
 10
6.647196462421327
 20
20.9077091343939
 30
0.0
 10
6.450248401521542
 20
21.0587498582837
 30
0.0
 10
6.386303630413344
 20
21.21113823271754
 30
0.0
 10
6.375710686763817
 20
21.2903735522985
 30
0.0
  0
LINE
  5
188
330
1F
100
AcDbEntity
  8
0
370
    -3
100
AcDbLine
 10
6.375710686763817
 20
21.2903735522985
 30
0.0
 11
6.306144004532591
 21
21.80218396168595
 31
0.0
  0
LINE
  5
189
330
1F
100
AcDbEntity
  8
0
370
    -3
100
AcDbLine
 10
6.306144004532591
 20
21.80218396168595
 30
0.0
 11
6.296090942009691
 21
22.17264327751128
 31
0.0
  0
SPLINE
  5
18A
330
1F
100
AcDbEntity
  8
0
370
    -3
100
AcDbSpline
210
0.0
220
0.0
230
1.0
 70
     8
 71
     3
 72
     8
 73
     4
 74
     0
 42
0.0000000001
 43
0.0000000001
 40
0.3926791277885351
 40
0.3926791277885351
 40
0.3926791277885351
 40
0.3926791277885351
 40
1.392679127788535
 40
1.392679127788535
 40
1.392679127788535
 40
1.392679127788535
 10
6.296090942009691
 20
22.17264327751128
 30
0.0
 10
6.356254620848141
 20
22.27962851438652
 30
0.0
 10
7.242117046711449
 20
22.39354597771273
 30
0.0
 10
7.486325974641538
 20
22.37907719542297
 30
0.0
  0
LINE
  5
18B
330
1F
100
AcDbEntity
  8
0
370
    -3
100
AcDbLine
 10
7.486325974641538
 20
22.37907719542297
 30
0.0
 11
7.492925338666957
 21
22.33027088557866
 31
0.0
  0
SPLINE
  5
18C
330
1F
100
AcDbEntity
  8
0
370
    -3
100
AcDbSpline
210
0.0
220
0.0
230
1.0
 70
     8
 71
     3
 72
    13
 73
     9
 74
     0
 42
0.0000000001
 43
0.0000000001
 40
0.0
 40
0.0
 40
0.0
 40
0.0
 40
1.0
 40
2.0
 40
3.0
 40
4.0
 40
5.0
 40
6.0
 40
6.0
 40
6.0
 40
6.0
 10
6.976273424620551
 20
20.87915979211304
 30
0.0
 10
7.054963537541305
 20
20.85392636152255
 30
0.0
 10
7.219960292683247
 20
20.83939817432206
 30
0.0
 10
7.467224766017402
 20
20.86714712854626
 30
0.0
 10
7.693887944109001
 20
20.977070977351
 30
0.0
 10
7.839589667116336
 20
21.19198866167928
 30
0.0
 10
7.836137858197183
 20
21.44362156251781
 30
0.0
 10
7.834736935490916
 20
21.60672744535243
 30
0.0
 10
7.833887754975187
 20
21.68921058090275
 30
0.0
  0
SPLINE
  5
18D
330
1F
100
AcDbEntity
  8
0
370
    -3
100
AcDbSpline
210
0.0
220
0.0
230
1.0
 70
     8
 71
     3
 72
    10
 73
     6
 74
     0
 42
0.0000000001
 43
0.0000000001
 40
0.0
 40
0.0
 40
0.0
 40
0.0
 40
1.0
 40
2.0
 40
3.0
 40
3.0
 40
3.0
 40
3.0
 10
6.806071291443907
 20
21.91467876951931
 30
0.0
 10
6.754973046101831
 20
21.90986969642962
 30
0.0
 10
6.6528722051467
 20
21.89877458742651
 30
0.0
 10
6.500679590854809
 20
21.87561369974738
 30
0.0
 10
6.400068228213676
 20
21.85384382502893
 30
0.0
 10
6.352046369969223
 20
21.83545836773457
 30
0.0
  0
SPLINE
  5
18E
330
1F
100
AcDbEntity
  8
0
370
    -3
100
AcDbSpline
210
0.0
220
0.0
230
1.0
 70
    28
 71
     2
 72
     6
 73
     3
 74
     0
 42
0.0000000001
 43
0.0000000001
 40
-6.255576233813232
 40
-6.255576233813232
 40
-6.255576233813232
 40
-5.99999999999994
 40
-5.99999999999994
 40
-5.99999999999994
 10
8.289622106190853
 20
22.12414156442276
 30
0.0
 41
0.9132703934651935
 10
8.383961595680583
 20
22.18160556918972
 30
0.0
 41
0.9132703934651935
 10
8.478301085170314
 20
22.23906957395667
 30
0.0
 41
0.9132703934651935
  0
SPLINE
  5
18F
330
1F
100
AcDbEntity
  8
0
370
    -3
100
AcDbSpline
210
0.0
220
0.0
230
1.0
 70
     8
 71
     2
 72
    11
 73
     8
 74
     0
 42
0.0000000001
 43
0.0000000001
 40
-5.99999999999994
 40
-5.99999999999994
 40
-5.99999999999994
 40
-4.99999999999994
 40
-3.99999999999994
 40
-2.99999999999994
 40
-1.99999999999994
 40
-0.9999999999999403
 40
0.0000000000000597
 40
0.0000000000000597
 40
0.0000000000000597
 10
8.478301085170294
 20
22.23906957395666
 30
0.0
 10
8.5501937325541
 20
22.28421485206304
 30
0.0
 10
8.718953983701361
 20
22.30998120696267
 30
0.0
 10
8.877608270611567
 20
22.24629383850704
 30
0.0
 10
8.99269116862012
 20
22.1218117290713
 30
0.0
 10
9.065651075317355
 20
21.97005632171461
 30
0.0
 10
9.102293418858316
 20
21.80596604773515
 30
0.0
 10
9.104493461409838
 20
21.72199126407042
 30
0.0
  0
SPLINE
  5
190
330
1F
100
AcDbEntity
  8
0
370
    -3
100
AcDbSpline
210
0.0
220
0.0
230
1.0
 70
    12
 71
     3
 72
     8
 73
     4
 74
     0
 42
0.0000000001
 43
0.0000000001
 40
7.583888601110734
 40
7.583888601110734
 40
7.583888601110734
 40
7.583888601110734
 40
8.67665716278382
 40
8.67665716278382
 40
8.67665716278382
 40
8.67665716278382
 10
-7.228057353607092
 20
21.61076902840261
 30
0.0
 41
1.0
 10
-7.410293794237852
 20
21.66062633250935
 30
0.0
 41
1.0
 10
-7.592530234868669
 20
21.71048363661613
 30
0.0
 41
1.0
 10
-7.774731610046167
 20
21.76046911057727
 30
0.0
 41
1.0
  0
SPLINE
  5
191
330
1F
100
AcDbEntity
  8
0
370
    -3
100
AcDbSpline
210
0.0
220
0.0
230
1.0
 70
     8
 71
     2
 72
     9
 73
     6
 74
     0
 42
0.0000000001
 43
0.0000000001
 40
8.67665716278382
 40
8.67665716278382
 40
8.67665716278382
 40
9.6748365519468
 40
10.67544342222581
 40
11.67605029250482
 40
12.67665716278382
 40
12.67665716278382
 40
12.67665716278382
 10
-7.774731610046167
 20
21.76046911057727
 30
0.0
 10
-7.836096087410318
 20
21.70117939989071
 30
0.0
 10
-7.904742463143073
 20
21.54496090727724
 30
0.0
 10
-7.948444272342677
 20
21.38140136637477
 30
0.0
 10
-7.971414309177938
 20
21.21348517348166
 30
0.0
 10
-7.974123880207635
 20
21.12883956625326
 30
0.0
  0
SPLINE
  5
192
330
1F
100
AcDbEntity
  8
0
370
    -3
100
AcDbSpline
210
0.0
220
0.0
230
1.0
 70
     8
 71
     2
 72
    11
 73
     8
 74
     0
 42
0.0000000001
 43
0.0000000001
 40
29.55614871395723
 40
29.55614871395723
 40
29.55614871395723
 40
30.55614871395723
 40
31.55614871395723
 40
32.55614871395723
 40
33.55614871395723
 40
34.55614871395723
 40
35.55614871395723
 40
35.55614871395723
 40
35.55614871395723
 10
-8.598806091035677
 20
21.14876775274416
 30
0.0
 10
-8.594215781138452
 20
21.29778415378662
 30
0.0
 10
-8.545000664327212
 20
21.59193963665447
 30
0.0
 10
-8.450430901801845
 20
21.87510643960032
 30
0.0
 10
-8.297962361221558
 20
22.13278920209395
 30
0.0
 10
-8.07076070513856
 20
22.33132345508957
 30
0.0
 10
-7.7768199238131
 20
22.40795175526338
 30
0.0
 10
-7.629767003402897
 20
22.36770866820707
 30
0.0
  0
SPLINE
  5
193
330
1F
100
AcDbEntity
  8
0
370
    -3
100
AcDbSpline
210
0.0
220
0.0
230
1.0
 70
    12
 71
     3
 72
     8
 73
     4
 74
     0
 42
0.0000000001
 43
0.0000000001
 40
35.55614871395723
 40
35.55614871395723
 40
35.55614871395723
 40
35.55614871395723
 40
36.7912674366561
 40
36.7912674366561
 40
36.7912674366561
 40
36.7912674366561
 10
-7.629767003402903
 20
22.36770866820709
 30
0.0
 41
0.9707016926536343
 10
-7.423553051800662
 20
22.31129161232846
 30
0.0
 41
0.9707016926536343
 10
-7.217364849711805
 20
22.25488144617734
 30
0.0
 41
0.9707016926536343
 10
-7.011176647622918
 20
22.19847128002622
 30
0.0
 41
0.9707016926536343
  0
SPLINE
  5
194
330
1F
100
AcDbEntity
  8
0
370
    -3
100
AcDbSpline
210
0.0
220
0.0
230
1.0
 70
    12
 71
     3
 72
     8
 73
     4
 74
     0
 42
0.0000000001
 43
0.0000000001
 40
7.583888601110734
 40
7.583888601110734
 40
7.583888601110734
 40
7.583888601110734
 40
8.67665716278382
 40
8.67665716278382
 40
8.67665716278382
 40
8.67665716278382
 10
7.228057353607078
 20
21.61076902840261
 30
0.0
 41
1.0
 10
7.410293794237838
 20
21.66062633250935
 30
0.0
 41
1.0
 10
7.592530234868654
 20
21.71048363661613
 30
0.0
 41
1.0
 10
7.774731610046153
 20
21.76046911057727
 30
0.0
 41
1.0
  0
SPLINE
  5
195
330
1F
100
AcDbEntity
  8
0
370
    -3
100
AcDbSpline
210
0.0
220
0.0
230
1.0
 70
     8
 71
     2
 72
     9
 73
     6
 74
     0
 42
0.0000000001
 43
0.0000000001
 40
8.67665716278382
 40
8.67665716278382
 40
8.67665716278382
 40
9.6748365519468
 40
10.67544342222581
 40
11.67605029250482
 40
12.67665716278382
 40
12.67665716278382
 40
12.67665716278382
 10
7.774731610046153
 20
21.76046911057727
 30
0.0
 10
7.836096087410304
 20
21.70117939989071
 30
0.0
 10
7.904742463143059
 20
21.54496090727724
 30
0.0
 10
7.948444272342662
 20
21.38140136637477
 30
0.0
 10
7.971414309177923
 20
21.21348517348166
 30
0.0
 10
7.974123880207621
 20
21.12883956625326
 30
0.0
  0
SPLINE
  5
196
330
1F
100
AcDbEntity
  8
0
370
    -3
100
AcDbSpline
210
0.0
220
0.0
230
1.0
 70
     8
 71
     2
 72
    11
 73
     8
 74
     0
 42
0.0000000001
 43
0.0000000001
 40
29.55614871395723
 40
29.55614871395723
 40
29.55614871395723
 40
30.55614871395723
 40
31.55614871395723
 40
32.55614871395723
 40
33.55614871395723
 40
34.55614871395723
 40
35.55614871395723
 40
35.55614871395723
 40
35.55614871395723
 10
8.598806091035662
 20
21.14876775274416
 30
0.0
 10
8.594215781138438
 20
21.29778415378662
 30
0.0
 10
8.545000664327198
 20
21.59193963665447
 30
0.0
 10
8.45043090180183
 20
21.87510643960032
 30
0.0
 10
8.297962361221543
 20
22.13278920209395
 30
0.0
 10
8.070760705138547
 20
22.33132345508957
 30
0.0
 10
7.776819923813086
 20
22.40795175526338
 30
0.0
 10
7.629767003402883
 20
22.36770866820707
 30
0.0
  0
SPLINE
  5
197
330
1F
100
AcDbEntity
  8
0
370
    -3
100
AcDbSpline
210
0.0
220
0.0
230
1.0
 70
    12
 71
     3
 72
     8
 73
     4
 74
     0
 42
0.0000000001
 43
0.0000000001
 40
35.55614871395723
 40
35.55614871395723
 40
35.55614871395723
 40
35.55614871395723
 40
36.7912674366561
 40
36.7912674366561
 40
36.7912674366561
 40
36.7912674366561
 10
7.629767003402861
 20
22.36770866820709
 30
0.0
 41
0.9707016926536343
 10
7.42355305180062
 20
22.31129161232846
 30
0.0
 41
0.9707016926536343
 10
7.217364849711762
 20
22.25488144617734
 30
0.0
 41
0.9707016926536343
 10
7.011176647622875
 20
22.19847128002622
 30
0.0
 41
0.9707016926536343
  0
SPLINE
  5
198
330
1F
100
AcDbEntity
  8
Make2D$Visible$Curves
 62
    18
420
        0
370
    -3
100
AcDbSpline
210
0.0
220
0.0
230
1.0
 70
    28
 71
     2
 72
     6
 73
     3
 74
     0
 42
0.0000000001
 43
0.0000000001
 40
2.130390523000552
 40
2.130390523000552
 40
2.130390523000552
 40
19.03430400686247
 40
19.03430400686247
 40
19.03430400686247
 10
-8.451956741930971
 20
6.168500000000014
 30
0.0
 41
1.0
 10
-0.0000000000000071
 20
6.168500000000014
 30
0.0
 41
1.0
 10
8.451956741930957
 20
6.168500000000014
 30
0.0
 41
1.0
  0
SPLINE
  5
199
330
1F
100
AcDbEntity
  8
Make2D$Visible$Curves
 62
    18
420
        0
370
    -3
100
AcDbSpline
210
0.0
220
0.0
230
1.0
 70
    28
 71
     2
 72
     6
 73
     3
 74
     0
 42
0.0000000001
 43
0.0000000001
 40
2.111951017260111
 40
2.111951017260111
 40
2.111951017260111
 40
19.05418630143117
 40
19.05418630143117
 40
19.05418630143117
 10
8.470396247671403
 20
5.543500000000014
 30
0.0
 41
1.0
 10
-0.0007213944141284
 20
5.543500000000013
 30
0.0
 41
1.0
 10
-8.47183903649966
 20
5.543500000000012
 30
0.0
 41
1.0
  0
POLYLINE
  5
19A
330
1F
100
AcDbEntity
  8
Layer 01
100
AcDb2dPolyline
 66
     1
 10
0.0
 20
0.0
 30
0.0
  0
VERTEX
  5
19B
330
19A
100
AcDbEntity
  8
Layer 01
100
AcDbVertex
100
AcDb2dVertex
 10
-8.451956741930957
 20
6.168500000000012
 30
0.0
  0
VERTEX
  5
19C
330
19A
100
AcDbEntity
  8
Layer 01
100
AcDbVertex
100
AcDb2dVertex
 10
-8.774094022394621
 20
5.872989712675242
 30
0.0
  0
VERTEX
  5
19D
330
19A
100
AcDbEntity
  8
Layer 01
100
AcDbVertex
100
AcDb2dVertex
 10
-8.47183903649966
 20
5.543500000000012
 30
0.0
  0
SEQEND
  5
19E
330
19A
100
AcDbEntity
  8
Layer 01
  0
POLYLINE
  5
19F
330
1F
100
AcDbEntity
  8
Layer 01
100
AcDb2dPolyline
 66
     1
 10
0.0
 20
0.0
 30
0.0
  0
VERTEX
  5
1A0
330
19F
100
AcDbEntity
  8
Layer 01
100
AcDbVertex
100
AcDb2dVertex
 10
8.451956741930957
 20
6.168500000000012
 30
0.0
  0
VERTEX
  5
1A1
330
19F
100
AcDbEntity
  8
Layer 01
100
AcDbVertex
100
AcDb2dVertex
 10
8.774094022394621
 20
5.872989712675242
 30
0.0
  0
VERTEX
  5
1A2
330
19F
100
AcDbEntity
  8
Layer 01
100
AcDbVertex
100
AcDb2dVertex
 10
8.47183903649966
 20
5.543500000000012
 30
0.0
  0
SEQEND
  5
1A3
330
19F
100
AcDbEntity
  8
Layer 01
  0
LINE
  5
1A4
330
1F
100
AcDbEntity
  8
0
370
    -3
100
AcDbLine
 10
-7.974123880207635
 20
21.12883956625326
 30
0.0
 11
-8.451451214784463
 21
6.168483870575665
 31
0.0
  0
LINE
  5
1A5
330
1F
100
AcDbEntity
  8
0
370
    -3
100
AcDbLine
 10
7.974123880207621
 20
21.12883956625326
 30
0.0
 11
8.451451214784448
 21
6.168483870575665
 31
0.0
  0
SPLINE
  5
1A6
330
1F
100
AcDbEntity
  8
Make2D$Visible$Tangents
 62
    18
420
        0
370
    -3
100
AcDbSpline
210
0.0
220
0.0
230
1.0
 70
    12
 71
     2
 72
     6
 73
     3
 74
     0
 42
0.0000000001
 43
0.0000000001
 40
2.596961129488105
 40
2.596961129488105
 40
2.596961129488105
 40
2.623481800786057
 40
2.623481800786057
 40
2.623481800786057
 10
-7.445935391132054
 20
55.2690298395421
 30
0.0
 41
0.8792671965993568
 10
-7.443959775132147
 20
55.27003646617248
 30
0.0
 41
0.8726363733441114
 10
-7.443012059747796
 20
55.27165374750673
 30
0.0
 41
0.8677154415390815
  0
ENDSEC
  0
SECTION
  2
OBJECTS
  0
DICTIONARY
  5
C
330
0
100
AcDbDictionary
281
     1
  3
ACAD_DETAILVIEWSTYLE
350
1E2
  3
ACAD_GROUP
350
D
  3
ACAD_LAYOUT
350
1A
  3
ACAD_MATERIAL
350
43
  3
ACAD_MLEADERSTYLE
350
5B
  3
ACAD_MLINESTYLE
350
17
  3
ACAD_PLOTSETTINGS
350
19
  3
ACAD_PLOTSTYLENAME
350
E
  3
ACAD_SCALELIST
350
47
  3
ACAD_SECTIONVIEWSTYLE
350
1E3
  3
ACAD_TABLESTYLE
350
59
  3
ACAD_VISUALSTYLE
350
2A
  3
ACDB_RECOMPOSE_DATA
350
1DF
  3
AcDbVariableDictionary
350
1A7
  0
SUN
  5
5D
330
29
100
AcDbSun
 90
        1
290
     0
 63
     7
421
 16777215
 40
1.0
291
     1
 91
  2455826
 92
 54000000
292
     0
 70
     2
 71
   256
280
     1
  0
DICTIONARY
  5
1E2
102
{ACAD_REACTORS
330
C
102
}
330
C
100
AcDbDictionary
281
     1
  0
DICTIONARY
  5
D
102
{ACAD_REACTORS
330
C
102
}
330
C
100
AcDbDictionary
281
     1
  0
DICTIONARY
  5
1A
102
{ACAD_REACTORS
330
C
102
}
330
C
100
AcDbDictionary
281
     1
  3
Layout1
350
1E
  3
Layout2
350
26
  3
Model
350
22
  0
DICTIONARY
  5
43
102
{ACAD_REACTORS
330
C
102
}
330
C
100
AcDbDictionary
281
     1
  3
ByBlock
350
45
  3
ByLayer
350
44
  3
Global
350
46
  0
DICTIONARY
  5
5B
102
{ACAD_REACTORS
330
C
102
}
330
C
100
AcDbDictionary
281
     1
  3
Standard
350
5C
  0
DICTIONARY
  5
17
102
{ACAD_REACTORS
330
C
102
}
330
C
100
AcDbDictionary
281
     1
  3
Standard
350
18
  0
DICTIONARY
  5
19
102
{ACAD_REACTORS
330
C
102
}
330
C
100
AcDbDictionary
281
     1
  0
ACDBDICTIONARYWDFLT
  5
E
102
{ACAD_REACTORS
330
C
102
}
330
C
100
AcDbDictionary
281
     1
  3
Normal
350
F
100
AcDbDictionaryWithDefault
340
F
  0
DICTIONARY
  5
47
102
{ACAD_REACTORS
330
C
102
}
330
C
100
AcDbDictionary
281
     1
  3
A0
350
48
  3
A1
350
49
  3
A2
350
4A
  3
A3
350
4B
  3
A4
350
4C
  3
A5
350
4D
  3
A6
350
4E
  3
A7
350
4F
  3
A8
350
50
  3
A9
350
51
  3
B1
350
52
  3
B2
350
53
  3
B3
350
54
  3
B4
350
55
  3
B5
350
56
  3
B6
350
57
  3
B7
350
58
  0
DICTIONARY
  5
1E3
102
{ACAD_REACTORS
330
C
102
}
330
C
100
AcDbDictionary
281
     1
  0
DICTIONARY
  5
59
102
{ACAD_REACTORS
330
C
102
}
330
C
100
AcDbDictionary
281
     1
  3
Standard
350
5A
  0
DICTIONARY
  5
2A
102
{ACAD_REACTORS
330
C
102
}
330
C
100
AcDbDictionary
281
     1
  3
2dWireframe
350
2F
  3
Basic
350
32
  3
Brighten
350
36
  3
ColorChange
350
3A
  3
Conceptual
350
34
  3
Dim
350
35
  3
EdgeColorOff
350
3D
  3
Facepattern
350
39
  3
Flat
350
2B
  3
FlatWithEdges
350
2C
  3
Gouraud
350
2D
  3
GouraudWithEdges
350
2E
  3
Hidden
350
31
  3
JitterOff
350
3B
  3
Linepattern
350
38
  3
OverhangOff
350
3C
  3
Realistic
350
33
  3
Shaded
350
42
  3
Shaded with edges
350
41
  3
Shades of Gray
350
3E
  3
Sketchy
350
3F
  3
Thicken
350
37
  3
Wireframe
350
30
  3
X-Ray
350
40
  0
XRECORD
  5
1DF
102
{ACAD_REACTORS
330
C
102
}
330
C
100
AcDbXrecord
280
     1
 90
        1
330
5A
  0
DICTIONARY
  5
1A7
102
{ACAD_REACTORS
330
C
102
}
330
C
100
AcDbDictionary
281
     1
  3
CANNOSCALE
350
1A8
  3
CMLEADERSTYLE
350
1E1
  3
CTABLESTYLE
350
1E0
  3
XCLIPFRAME
350
1A9
  0
LAYOUT
  5
1E
102
{ACAD_REACTORS
330
1A
102
}
330
1A
100
AcDbPlotSettings
  1

  2
none_device
  4

  6

 40
0.0
 41
0.0
 42
0.0
 43
0.0
 44
0.0
 45
0.0
 46
0.0
 47
0.0
 48
0.0
 49
0.0
140
0.0
141
0.0
142
1.0
143
1.0
 70
   688
 72
     0
 73
     0
 74
     5
  7

 75
    16
 76
     0
 77
     2
 78
   300
147
1.0
148
0.0
149
0.0
100
AcDbLayout
  1
Layout1
 70
     1
 71
     1
 10
0.0
 20
0.0
 11
12.0
 21
9.0
 12
0.0
 22
0.0
 32
0.0
 14
1.000000000000000E+20
 24
1.000000000000000E+20
 34
1.000000000000000E+20
 15
-1.000000000000000E+20
 25
-1.000000000000000E+20
 35
-1.000000000000000E+20
146
0.0
 13
0.0
 23
0.0
 33
0.0
 16
1.0
 26
0.0
 36
0.0
 17
0.0
 27
1.0
 37
0.0
 76
     0
330
1B
  0
LAYOUT
  5
26
102
{ACAD_REACTORS
330
1A
102
}
330
1A
100
AcDbPlotSettings
  1

  2
none_device
  4

  6

 40
0.0
 41
0.0
 42
0.0
 43
0.0
 44
0.0
 45
0.0
 46
0.0
 47
0.0
 48
0.0
 49
0.0
140
0.0
141
0.0
142
1.0
143
1.0
 70
   688
 72
     0
 73
     0
 74
     5
  7

 75
    16
 76
     0
 77
     2
 78
   300
147
1.0
148
0.0
149
0.0
100
AcDbLayout
  1
Layout2
 70
     1
 71
     2
 10
0.0
 20
0.0
 11
0.0
 21
0.0
 12
0.0
 22
0.0
 32
0.0
 14
0.0
 24
0.0
 34
0.0
 15
0.0
 25
0.0
 35
0.0
146
0.0
 13
0.0
 23
0.0
 33
0.0
 16
1.0
 26
0.0
 36
0.0
 17
0.0
 27
1.0
 37
0.0
 76
     0
330
23
  0
LAYOUT
  5
22
102
{ACAD_REACTORS
330
1A
102
}
330
1A
100
AcDbPlotSettings
  1

  2
none_device
  4
Letter_(8.50_x_11.00_Inches)
  6

 40
6.35
 41
6.35
 42
6.35000508
 43
6.35000508
 44
215.9
 45
279.4
 46
0.0
 47
0.0
 48
0.0
 49
0.0
140
0.0
141
0.0
142
1.0
143
1.0
 70
  1712
 72
     0
 73
     0
 74
     0
  7

 75
     0
 76
     0
 77
     2
 78
   300
147
1.0
148
0.0
149
0.0
100
AcDbLayout
  1
Model
 70
     1
 71
     0
 10
0.0
 20
0.0
 11
12.0
 21
9.0
 12
0.0
 22
0.0
 32
0.0
 14
1.000000000000000E+20
 24
1.000000000000000E+20
 34
1.000000000000000E+20
 15
-1.000000000000000E+20
 25
-1.000000000000000E+20
 35
-1.000000000000000E+20
146
0.0
 13
0.0
 23
0.0
 33
0.0
 16
1.0
 26
0.0
 36
0.0
 17
0.0
 27
1.0
 37
0.0
 76
     0
330
1F
331
29
  0
MATERIAL
  5
45
102
{ACAD_REACTORS
330
43
102
}
330
43
100
AcDbMaterial
  1
ByBlock
 72
     1
 94
      127
  0
MATERIAL
  5
44
102
{ACAD_REACTORS
330
43
102
}
330
43
100
AcDbMaterial
  1
ByLayer
 72
     1
 94
      127
  0
MATERIAL
  5
46
102
{ACAD_REACTORS
330
43
102
}
330
43
100
AcDbMaterial
  1
Global
 72
     1
 94
      127
  0
MLEADERSTYLE
  5
5C
102
{ACAD_REACTORS
330
5B
102
}
102
{ACAD_XDICTIONARY
360
1DD
102
}
330
5B
100
AcDbMLeaderStyle
170
     2
171
     1
172
     0
 90
        2
 40
0.0
 41
0.0
173
     1
 91
-1056964608
340
14
 92
       -2
290
     1
 42
0.09
291
     1
 43
0.36
  3
Standard
341
0
 44
0.18
300

342
11
174
     1
178
     6
175
     1
176
     0
 93
-1056964608
 45
0.18
292
     0
297
     0
 46
0.18
343
0
 94
-1056964608
 47
1.0
 49
1.0
140
1.0
293
     1
141
0.0
294
     1
177
     0
142
1.0
295
     0
296
     0
143
0.125
1001
ACAD_MLEADERVER
1070
     2
  0
MLINESTYLE
  5
18
102
{ACAD_REACTORS
330
17
102
}
330
17
100
AcDbMlineStyle
  2
Standard
 70
     0
  3

 62
   256
 51
90.0
 52
90.0
 71
     2
 49
0.5
 62
   256
  6
BYLAYER
 49
-0.5
 62
   256
  6
BYLAYER
  0
ACDBPLACEHOLDER
  5
F
102
{ACAD_REACTORS
330
E
102
}
330
E
  0
SCALE
  5
48
102
{ACAD_REACTORS
330
47
102
}
330
47
100
AcDbScale
 70
     0
300
1:1
140
1.0
141
1.0
290
     1
  0
SCALE
  5
49
102
{ACAD_REACTORS
330
47
102
}
330
47
100
AcDbScale
 70
     0
300
1/128" = 1'-0"
140
0.0078125
141
12.0
290
     0
  0
SCALE
  5
4A
102
{ACAD_REACTORS
330
47
102
}
330
47
100
AcDbScale
 70
     0
300
1/64" = 1'-0"
140
0.015625
141
12.0
290
     0
  0
SCALE
  5
4B
102
{ACAD_REACTORS
330
47
102
}
330
47
100
AcDbScale
 70
     0
300
1/32" = 1'-0"
140
0.03125
141
12.0
290
     0
  0
SCALE
  5
4C
102
{ACAD_REACTORS
330
47
102
}
330
47
100
AcDbScale
 70
     0
300
1/16" = 1'-0"
140
0.0625
141
12.0
290
     0
  0
SCALE
  5
4D
102
{ACAD_REACTORS
330
47
102
}
330
47
100
AcDbScale
 70
     0
300
3/32" = 1'-0"
140
0.09375
141
12.0
290
     0
  0
SCALE
  5
4E
102
{ACAD_REACTORS
330
47
102
}
330
47
100
AcDbScale
 70
     0
300
1/8" = 1'-0"
140
0.125
141
12.0
290
     0
  0
SCALE
  5
4F
102
{ACAD_REACTORS
330
47
102
}
330
47
100
AcDbScale
 70
     0
300
3/16" = 1'-0"
140
0.1875
141
12.0
290
     0
  0
SCALE
  5
50
102
{ACAD_REACTORS
330
47
102
}
330
47
100
AcDbScale
 70
     0
300
1/4" = 1'-0"
140
0.25
141
12.0
290
     0
  0
SCALE
  5
51
102
{ACAD_REACTORS
330
47
102
}
330
47
100
AcDbScale
 70
     0
300
3/8" = 1'-0"
140
0.375
141
12.0
290
     0
  0
SCALE
  5
52
102
{ACAD_REACTORS
330
47
102
}
330
47
100
AcDbScale
 70
     0
300
1/2" = 1'-0"
140
0.5
141
12.0
290
     0
  0
SCALE
  5
53
102
{ACAD_REACTORS
330
47
102
}
330
47
100
AcDbScale
 70
     0
300
3/4" = 1'-0"
140
0.75
141
12.0
290
     0
  0
SCALE
  5
54
102
{ACAD_REACTORS
330
47
102
}
330
47
100
AcDbScale
 70
     0
300
1" = 1'-0"
140
1.0
141
12.0
290
     0
  0
SCALE
  5
55
102
{ACAD_REACTORS
330
47
102
}
330
47
100
AcDbScale
 70
     0
300
1-1/2" = 1'-0"
140
1.5
141
12.0
290
     0
  0
SCALE
  5
56
102
{ACAD_REACTORS
330
47
102
}
330
47
100
AcDbScale
 70
     0
300
3" = 1'-0"
140
3.0
141
12.0
290
     0
  0
SCALE
  5
57
102
{ACAD_REACTORS
330
47
102
}
330
47
100
AcDbScale
 70
     0
300
6" = 1'-0"
140
6.0
141
12.0
290
     0
  0
SCALE
  5
58
102
{ACAD_REACTORS
330
47
102
}
330
47
100
AcDbScale
 70
     0
300
1'-0" = 1'-0"
140
12.0
141
12.0
290
     0
  0
TABLESTYLE
  5
5A
102
{ACAD_REACTORS
330
59
102
}
102
{ACAD_XDICTIONARY
360
1DA
102
}
330
59
100
AcDbTableStyle
  3
Standard
 70
     0
 71
     0
 40
0.06
 41
0.06
280
     0
281
     0
  7
Standard
140
0.18
170
     2
 62
     0
 63
   257
283
     0
 90
        4
 91
        0
  1

274
    -2
284
     1
 64
     0
275
    -2
285
     1
 65
     0
276
    -2
286
     1
 66
     0
277
    -2
287
     1
 67
     0
278
    -2
288
     1
 68
     0
279
    -2
289
     1
 69
     0
  7
Standard
140
0.25
170
     5
 62
     0
 63
   257
283
     0
 90
        4
 91
        0
  1

274
    -2
284
     1
 64
     0
275
    -2
285
     1
 65
     0
276
    -2
286
     1
 66
     0
277
    -2
287
     1
 67
     0
278
    -2
288
     1
 68
     0
279
    -2
289
     1
 69
     0
  7
Standard
140
0.18
170
     5
 62
     0
 63
   257
283
     0
 90
        4
 91
        0
  1

274
    -2
284
     1
 64
     0
275
    -2
285
     1
 65
     0
276
    -2
286
     1
 66
     0
277
    -2
287
     1
 67
     0
278
    -2
288
     1
 68
     0
279
    -2
289
     1
 69
     0
  0
VISUALSTYLE
  5
2F
102
{ACAD_REACTORS
330
2A
102
}
102
{ACAD_XDICTIONARY
360
1B2
102
}
330
2A
100
AcDbVisualStyle
  2
2dWireframe
 70
     4
 71
     0
 72
     2
 73
     0
 90
        0
 40
0.6
 41
30.0
 62
     5
 63
     7
421
 16777215
 74
     1
 91
        4
 64
     7
 65
   257
 75
     1
175
     1
 42
1.0
 92
        0
 66
   257
 43
1.0
 76
     1
 77
     6
 78
     2
 67
     7
 79
     5
170
     0
171
     0
290
     0
174
     0
 93
        1
 44
0.0
173
     0
291
     0
 45
0.0
  0
VISUALSTYLE
  5
32
102
{ACAD_REACTORS
330
2A
102
}
102
{ACAD_XDICTIONARY
360
1B8
102
}
330
2A
100
AcDbVisualStyle
  2
Basic
 70
     7
 71
     1
 72
     0
 73
     1
 90
        0
 40
0.6
 41
30.0
 62
     5
 63
     7
421
 16777215
 74
     0
 91
        4
 64
     7
 65
   257
 75
     1
175
     1
 42
1.0
 92
        8
 66
     7
 43
1.0
 76
     1
 77
     6
 78
     2
 67
     7
 79
     5
170
     0
171
     0
290
     0
174
     0
 93
        1
 44
0.0
173
     0
291
     1
 45
0.0
  0
VISUALSTYLE
  5
36
102
{ACAD_REACTORS
330
2A
102
}
102
{ACAD_XDICTIONARY
360
1C0
102
}
330
2A
100
AcDbVisualStyle
  2
Brighten
 70
    12
 71
     2
 72
     2
 73
     0
 90
        0
 40
0.6
 41
30.0
 62
     5
 63
     7
421
 16777215
 74
     1
 91
        4
 64
     7
 65
   257
 75
     1
175
     1
 42
1.0
 92
        8
 66
     7
 43
1.0
 76
     1
 77
     6
 78
     2
 67
     7
 79
     5
170
     0
171
     0
290
     0
174
     0
 93
        1
 44
50.0
173
     0
291
     1
 45
0.0
  0
VISUALSTYLE
  5
3A
102
{ACAD_REACTORS
330
2A
102
}
102
{ACAD_XDICTIONARY
360
1C8
102
}
330
2A
100
AcDbVisualStyle
  2
ColorChange
 70
    16
 71
     2
 72
     2
 73
     3
 90
        0
 40
0.6
 41
30.0
 62
     5
 63
     8
421
  8421504
 74
     1
 91
        4
 64
     7
 65
   257
 75
     1
175
     1
 42
1.0
 92
        8
 66
     8
424
  8421504
 43
1.0
 76
     1
 77
     6
 78
     2
 67
     7
 79
     5
170
     0
171
     0
290
     0
174
     0
 93
        1
 44
0.0
173
     0
291
     1
 45
0.0
  0
VISUALSTYLE
  5
34
102
{ACAD_REACTORS
330
2A
102
}
102
{ACAD_XDICTIONARY
360
1BC
102
}
330
2A
100
AcDbVisualStyle
  2
Conceptual
 70
     9
 71
     3
 72
     2
 73
     0
 90
        0
 40
0.6
 41
30.0
 62
     5
 63
     7
421
 16777215
 74
     2
 91
        2
 64
     7
 65
   257
 75
     1
175
     1
 42
179.0
 92
        8
 66
     7
 43
1.0
 76
     1
 77
     6
 78
     2
 67
     7
 79
     3
170
     0
171
     0
290
     0
174
     0
 93
        1
 44
0.0
173
     0
291
     0
 45
0.0
  0
VISUALSTYLE
  5
35
102
{ACAD_REACTORS
330
2A
102
}
102
{ACAD_XDICTIONARY
360
1BE
102
}
330
2A
100
AcDbVisualStyle
  2
Dim
 70
    11
 71
     2
 72
     2
 73
     0
 90
        0
 40
0.6
 41
30.0
 62
     5
 63
     7
421
 16777215
 74
     1
 91
        4
 64
     7
 65
   257
 75
     1
175
     1
 42
1.0
 92
        8
 66
     7
 43
1.0
 76
     1
 77
     6
 78
     2
 67
     7
 79
     5
170
     0
171
     0
290
     0
174
     0
 93
        1
 44
-50.0
173
     0
291
     1
 45
0.0
  0
VISUALSTYLE
  5
3D
102
{ACAD_REACTORS
330
2A
102
}
102
{ACAD_XDICTIONARY
360
1CE
102
}
330
2A
100
AcDbVisualStyle
  2
EdgeColorOff
 70
    22
 71
     2
 72
     2
 73
     0
 90
        0
 40
0.6
 41
30.0
 62
     5
 63
     7
421
 16777215
 74
     1
 91
        4
 64
     7
 65
   257
 75
     1
175
     1
 42
1.0
 92
        8
 66
     7
 43
1.0
 76
     1
 77
     6
 78
     2
 67
     7
 79
     5
170
     0
171
     0
290
     0
174
     0
 93
        1
 44
0.0
173
     0
291
     1
 45
0.0
  0
VISUALSTYLE
  5
39
102
{ACAD_REACTORS
330
2A
102
}
102
{ACAD_XDICTIONARY
360
1C6
102
}
330
2A
100
AcDbVisualStyle
  2
Facepattern
 70
    15
 71
     2
 72
     2
 73
     0
 90
        0
 40
0.6
 41
30.0
 62
     5
 63
     7
421
 16777215
 74
     1
 91
        4
 64
     7
 65
   257
 75
     1
175
     1
 42
1.0
 92
        8
 66
     7
 43
1.0
 76
     1
 77
     6
 78
     2
 67
     7
 79
     5
170
     0
171
     0
290
     0
174
     0
 93
        1
 44
0.0
173
     0
291
     1
 45
0.0
  0
VISUALSTYLE
  5
2B
102
{ACAD_REACTORS
330
2A
102
}
102
{ACAD_XDICTIONARY
360
1AA
102
}
330
2A
100
AcDbVisualStyle
  2
Flat
 70
     0
 71
     2
 72
     1
 73
     1
 90
        2
 40
0.6
 41
30.0
 62
     5
 63
     7
421
 16777215
 74
     0
 91
        0
 64
     7
 65
   257
 75
     1
175
     1
 42
1.0
 92
        8
 66
     7
 43
1.0
 76
     1
 77
     6
 78
     2
 67
     7
 79
     5
170
     0
171
     0
290
     0
174
     0
 93
       13
 44
0.0
173
     0
291
     1
 45
0.0
  0
VISUALSTYLE
  5
2C
102
{ACAD_REACTORS
330
2A
102
}
102
{ACAD_XDICTIONARY
360
1AC
102
}
330
2A
100
AcDbVisualStyle
  2
FlatWithEdges
 70
     1
 71
     2
 72
     1
 73
     1
 90
        2
 40
0.6
 41
30.0
 62
     5
 63
     7
421
 16777215
 74
     1
 91
        0
 64
     7
 65
   257
 75
     1
175
     1
 42
1.0
 92
        0
 66
   257
 43
1.0
 76
     1
 77
     6
 78
     2
 67
     7
 79
     5
170
     0
171
     0
290
     0
174
     0
 93
       13
 44
0.0
173
     0
291
     1
 45
0.0
  0
VISUALSTYLE
  5
2D
102
{ACAD_REACTORS
330
2A
102
}
102
{ACAD_XDICTIONARY
360
1AE
102
}
330
2A
100
AcDbVisualStyle
  2
Gouraud
 70
     2
 71
     2
 72
     2
 73
     1
 90
        2
 40
0.6
 41
30.0
 62
     5
 63
     7
421
 16777215
 74
     0
 91
        0
 64
     7
 65
   257
 75
     1
175
     1
 42
1.0
 92
        0
 66
     7
 43
1.0
 76
     1
 77
     6
 78
     2
 67
     7
 79
     5
170
     0
171
     0
290
     0
174
     0
 93
       13
 44
0.0
173
     0
291
     1
 45
0.0
  0
VISUALSTYLE
  5
2E
102
{ACAD_REACTORS
330
2A
102
}
102
{ACAD_XDICTIONARY
360
1B0
102
}
330
2A
100
AcDbVisualStyle
  2
GouraudWithEdges
 70
     3
 71
     2
 72
     2
 73
     1
 90
        2
 40
0.6
 41
30.0
 62
     5
 63
     7
421
 16777215
 74
     1
 91
        0
 64
     7
 65
   257
 75
     1
175
     1
 42
1.0
 92
        0
 66
   257
 43
1.0
 76
     1
 77
     6
 78
     2
 67
     7
 79
     5
170
     0
171
     0
290
     0
174
     0
 93
       13
 44
0.0
173
     0
291
     1
 45
0.0
  0
VISUALSTYLE
  5
31
102
{ACAD_REACTORS
330
2A
102
}
102
{ACAD_XDICTIONARY
360
1B6
102
}
330
2A
100
AcDbVisualStyle
  2
Hidden
 70
     6
 71
     1
 72
     2
 73
     2
 90
        0
 40
0.6
 41
30.0
 62
     5
 63
     7
421
 16777215
 74
     2
 91
        2
 64
     7
 65
   257
 75
     2
175
     1
 42
40.0
 92
        0
 66
   257
 43
1.0
 76
     1
 77
     6
 78
     2
 67
     7
 79
     3
170
     0
171
     0
290
     0
174
     0
 93
        1
 44
0.0
173
     0
291
     0
 45
0.0
  0
VISUALSTYLE
  5
3B
102
{ACAD_REACTORS
330
2A
102
}
102
{ACAD_XDICTIONARY
360
1CA
102
}
330
2A
100
AcDbVisualStyle
  2
JitterOff
 70
    20
 71
     2
 72
     2
 73
     0
 90
        0
 40
0.6
 41
30.0
 62
     5
 63
     7
421
 16777215
 74
     1
 91
        4
 64
     7
 65
   257
 75
     1
175
     1
 42
1.0
 92
       10
 66
     7
 43
1.0
 76
     1
 77
     6
 78
     2
 67
     7
 79
     5
170
     0
171
     0
290
     0
174
     0
 93
        1
 44
0.0
173
     0
291
     1
 45
0.0
  0
VISUALSTYLE
  5
38
102
{ACAD_REACTORS
330
2A
102
}
102
{ACAD_XDICTIONARY
360
1C4
102
}
330
2A
100
AcDbVisualStyle
  2
Linepattern
 70
    14
 71
     2
 72
     2
 73
     0
 90
        0
 40
0.6
 41
30.0
 62
     5
 63
     7
421
 16777215
 74
     1
 91
        4
 64
     7
 65
   257
 75
     7
175
     7
 42
1.0
 92
        8
 66
     7
 43
1.0
 76
     1
 77
     6
 78
     2
 67
     7
 79
     5
170
     0
171
     0
290
     0
174
     0
 93
        1
 44
0.0
173
     0
291
     1
 45
0.0
  0
VISUALSTYLE
  5
3C
102
{ACAD_REACTORS
330
2A
102
}
102
{ACAD_XDICTIONARY
360
1CC
102
}
330
2A
100
AcDbVisualStyle
  2
OverhangOff
 70
    21
 71
     2
 72
     2
 73
     0
 90
        0
 40
0.6
 41
30.0
 62
     5
 63
     7
421
 16777215
 74
     1
 91
        4
 64
     7
 65
   257
 75
     1
175
     1
 42
1.0
 92
        9
 66
     7
 43
1.0
 76
     1
 77
     6
 78
     2
 67
     7
 79
     5
170
     0
171
     0
290
     0
174
     0
 93
        1
 44
0.0
173
     0
291
     1
 45
0.0
  0
VISUALSTYLE
  5
33
102
{ACAD_REACTORS
330
2A
102
}
102
{ACAD_XDICTIONARY
360
1BA
102
}
330
2A
100
AcDbVisualStyle
  2
Realistic
 70
     8
 71
     2
 72
     3
 73
     0
 90
        2
 40
0.6
 41
30.0
 62
     5
 63
     7
421
 16777215
 74
     0
 91
        0
 64
     7
 65
   257
 75
     1
175
     1
 42
1.0
 92
        8
 66
   257
 43
1.0
 76
     1
 77
     6
 78
     2
 67
     7
 79
     3
170
     0
171
     0
290
     0
174
     0
 93
       13
 44
0.0
173
     0
291
     0
 45
0.0
  0
VISUALSTYLE
  5
42
102
{ACAD_REACTORS
330
2A
102
}
102
{ACAD_XDICTIONARY
360
1D8
102
}
330
2A
100
AcDbVisualStyle
  2
Shaded
 70
    27
 71
     2
 72
     2
 73
     1
 90
        2
 40
0.6
 41
30.0
 62
     5
 63
     7
421
 16777215
 74
     0
 91
        4
 64
     7
 65
   257
 75
     1
175
     1
 42
1.0
 92
        8
 66
   257
 43
1.0
 76
     1
 77
     6
 78
     2
 67
     8
425
  7895160
 79
     3
170
     0
171
     0
290
     0
174
     0
 93
        5
 44
0.0
173
     0
291
     0
 45
0.0
  0
VISUALSTYLE
  5
41
102
{ACAD_REACTORS
330
2A
102
}
102
{ACAD_XDICTIONARY
360
1D6
102
}
330
2A
100
AcDbVisualStyle
  2
Shaded with edges
 70
    26
 71
     2
 72
     2
 73
     1
 90
        2
 40
0.6
 41
30.0
 62
     5
 63
     7
421
 16777215
 74
     1
 91
       10
 64
     7
 65
   257
 75
     2
175
     1
 42
1.0
 92
        8
 66
   257
 43
1.0
 76
     1
 77
     6
 78
     2
 67
     7
 79
     3
170
     0
171
     0
290
     0
174
     0
 93
        5
 44
0.0
173
     0
291
     0
 45
0.0
  0
VISUALSTYLE
  5
3E
102
{ACAD_REACTORS
330
2A
102
}
102
{ACAD_XDICTIONARY
360
1D0
102
}
330
2A
100
AcDbVisualStyle
  2
Shades of Gray
 70
    23
 71
     2
 72
     2
 73
     3
 90
        0
 40
0.6
 41
30.0
 62
     5
 63
     7
421
 16777215
 74
     2
 91
        2
 64
     7
 65
     7
 75
     1
175
     1
 42
40.0
 92
        8
 66
     7
 43
1.0
 76
     1
 77
     6
 78
     2
 67
     7
 79
     3
170
     0
171
     0
290
     0
174
     0
 93
        1
 44
0.0
173
     0
291
     0
 45
0.0
  0
VISUALSTYLE
  5
3F
102
{ACAD_REACTORS
330
2A
102
}
102
{ACAD_XDICTIONARY
360
1D2
102
}
330
2A
100
AcDbVisualStyle
  2
Sketchy
 70
    24
 71
     1
 72
     2
 73
     2
 90
        0
 40
0.6
 41
30.0
 62
     5
 63
     7
421
 16777215
 74
     2
 91
        2
 64
     7
 65
     7
 75
     1
175
     1
 42
40.0
 92
       11
 66
     7
 43
1.0
 76
     1
 77
     6
 78
     2
 67
     7
 79
     6
170
     0
171
     0
290
     0
174
     0
 93
        1
 44
0.0
173
     0
291
     0
 45
0.0
  0
VISUALSTYLE
  5
37
102
{ACAD_REACTORS
330
2A
102
}
102
{ACAD_XDICTIONARY
360
1C2
102
}
330
2A
100
AcDbVisualStyle
  2
Thicken
 70
    13
 71
     2
 72
     2
 73
     0
 90
        0
 40
0.6
 41
30.0
 62
     5
 63
     7
421
 16777215
 74
     1
 91
        4
 64
     7
 65
   257
 75
     1
175
     1
 42
1.0
 92
       12
 66
     7
 43
1.0
 76
     1
 77
     6
 78
     2
 67
     7
 79
     5
170
     0
171
     0
290
     0
174
     0
 93
        1
 44
0.0
173
     0
291
     1
 45
0.0
  0
VISUALSTYLE
  5
30
102
{ACAD_REACTORS
330
2A
102
}
102
{ACAD_XDICTIONARY
360
1B4
102
}
330
2A
100
AcDbVisualStyle
  2
Wireframe
 70
     5
 71
     0
 72
     2
 73
     0
 90
        0
 40
0.6
 41
30.0
 62
     5
 63
     7
421
 16777215
 74
     1
 91
        4
 64
     7
 65
   257
 75
     1
175
     1
 42
1.0
 92
        0
 66
   257
 43
1.0
 76
     1
 77
     6
 78
     2
 67
     7
 79
     3
170
     0
171
     0
290
     0
174
     0
 93
        1
 44
0.0
173
     0
291
     0
 45
0.0
  0
VISUALSTYLE
  5
40
102
{ACAD_REACTORS
330
2A
102
}
102
{ACAD_XDICTIONARY
360
1D4
102
}
330
2A
100
AcDbVisualStyle
  2
X-Ray
 70
    25
 71
     2
 72
     2
 73
     1
 90
        1
 40
0.5
 41
30.0
 62
     5
 63
     7
421
 16777215
 74
     1
 91
        0
 64
     7
 65
   257
 75
     1
175
     1
 42
1.0
 92
        8
 66
     7
 43
1.0
 76
     1
 77
     6
 78
     2
 67
     7
 79
     3
170
     0
171
     0
290
     0
174
     0
 93
       13
 44
0.0
173
     0
291
     0
 45
0.0
  0
DICTIONARYVAR
  5
1A8
102
{ACAD_REACTORS
330
1A7
102
}
330
1A7
100
DictionaryVariables
280
     0
  1
1:1
  0
DICTIONARYVAR
  5
1E1
102
{ACAD_REACTORS
330
1A7
102
}
330
1A7
100
DictionaryVariables
280
     0
  1
Standard
  0
DICTIONARYVAR
  5
1E0
102
{ACAD_REACTORS
330
1A7
102
}
330
1A7
100
DictionaryVariables
280
     0
  1
Standard
  0
DICTIONARYVAR
  5
1A9
102
{ACAD_REACTORS
330
1A7
102
}
330
1A7
100
DictionaryVariables
280
     0
  1
2
  0
DICTIONARY
  5
1DD
330
5C
100
AcDbDictionary
280
     1
281
     1
  3
ACAD_XREC_ROUNDTRIP
360
1DE
  0
DICTIONARY
  5
1DA
330
5A
100
AcDbDictionary
280
     1
281
     1
  3
ACAD_ROUNDTRIP_2008_TABLESTYLE_CELLSTYLEMAP
360
1DB
  0
DICTIONARY
  5
1B2
330
2F
100
AcDbDictionary
280
     1
281
     1
  3
ACAD_XREC_ROUNDTRIP
360
1B3
  0
DICTIONARY
  5
1B8
330
32
100
AcDbDictionary
280
     1
281
     1
  3
ACAD_XREC_ROUNDTRIP
360
1B9
  0
DICTIONARY
  5
1C0
330
36
100
AcDbDictionary
280
     1
281
     1
  3
ACAD_XREC_ROUNDTRIP
360
1C1
  0
DICTIONARY
  5
1C8
330
3A
100
AcDbDictionary
280
     1
281
     1
  3
ACAD_XREC_ROUNDTRIP
360
1C9
  0
DICTIONARY
  5
1BC
330
34
100
AcDbDictionary
280
     1
281
     1
  3
ACAD_XREC_ROUNDTRIP
360
1BD
  0
DICTIONARY
  5
1BE
330
35
100
AcDbDictionary
280
     1
281
     1
  3
ACAD_XREC_ROUNDTRIP
360
1BF
  0
DICTIONARY
  5
1CE
330
3D
100
AcDbDictionary
280
     1
281
     1
  3
ACAD_XREC_ROUNDTRIP
360
1CF
  0
DICTIONARY
  5
1C6
330
39
100
AcDbDictionary
280
     1
281
     1
  3
ACAD_XREC_ROUNDTRIP
360
1C7
  0
DICTIONARY
  5
1AA
330
2B
100
AcDbDictionary
280
     1
281
     1
  3
ACAD_XREC_ROUNDTRIP
360
1AB
  0
DICTIONARY
  5
1AC
330
2C
100
AcDbDictionary
280
     1
281
     1
  3
ACAD_XREC_ROUNDTRIP
360
1AD
  0
DICTIONARY
  5
1AE
330
2D
100
AcDbDictionary
280
     1
281
     1
  3
ACAD_XREC_ROUNDTRIP
360
1AF
  0
DICTIONARY
  5
1B0
330
2E
100
AcDbDictionary
280
     1
281
     1
  3
ACAD_XREC_ROUNDTRIP
360
1B1
  0
DICTIONARY
  5
1B6
330
31
100
AcDbDictionary
280
     1
281
     1
  3
ACAD_XREC_ROUNDTRIP
360
1B7
  0
DICTIONARY
  5
1CA
330
3B
100
AcDbDictionary
280
     1
281
     1
  3
ACAD_XREC_ROUNDTRIP
360
1CB
  0
DICTIONARY
  5
1C4
330
38
100
AcDbDictionary
280
     1
281
     1
  3
ACAD_XREC_ROUNDTRIP
360
1C5
  0
DICTIONARY
  5
1CC
330
3C
100
AcDbDictionary
280
     1
281
     1
  3
ACAD_XREC_ROUNDTRIP
360
1CD
  0
DICTIONARY
  5
1BA
330
33
100
AcDbDictionary
280
     1
281
     1
  3
ACAD_XREC_ROUNDTRIP
360
1BB
  0
DICTIONARY
  5
1D8
330
42
100
AcDbDictionary
280
     1
281
     1
  3
ACAD_XREC_ROUNDTRIP
360
1D9
  0
DICTIONARY
  5
1D6
330
41
100
AcDbDictionary
280
     1
281
     1
  3
ACAD_XREC_ROUNDTRIP
360
1D7
  0
DICTIONARY
  5
1D0
330
3E
100
AcDbDictionary
280
     1
281
     1
  3
ACAD_XREC_ROUNDTRIP
360
1D1
  0
DICTIONARY
  5
1D2
330
3F
100
AcDbDictionary
280
     1
281
     1
  3
ACAD_XREC_ROUNDTRIP
360
1D3
  0
DICTIONARY
  5
1C2
330
37
100
AcDbDictionary
280
     1
281
     1
  3
ACAD_XREC_ROUNDTRIP
360
1C3
  0
DICTIONARY
  5
1B4
330
30
100
AcDbDictionary
280
     1
281
     1
  3
ACAD_XREC_ROUNDTRIP
360
1B5
  0
DICTIONARY
  5
1D4
330
40
100
AcDbDictionary
280
     1
281
     1
  3
ACAD_XREC_ROUNDTRIP
360
1D5
  0
XRECORD
  5
1DE
102
{ACAD_REACTORS
330
1DD
102
}
330
1DD
100
AcDbXrecord
280
     1
102
ACAD_ROUNDTRIP_2010_MLEADER_STYLE
  0
CELLSTYLEMAP
  5
1DB
102
{ACAD_REACTORS
330
1DA
102
}
330
1DA
100
AcDbCellStyleMap
 90
        3
300
CELLSTYLE
  1
TABLEFORMAT_BEGIN
 90
        5
170
     1
 91
        0
 92
    32768
 62
   257
 93
        1
300
CONTENTFORMAT
  1
CONTENTFORMAT_BEGIN
 90
        0
 91
        0
 92
        4
 93
        0
300

 40
0.0
140
1.0
 94
        5
 62
     0
340
11
144
0.25
309
CONTENTFORMAT_END
171
     1
301
MARGIN
  1
CELLMARGIN_BEGIN
 40
0.06
 40
0.06
 40
0.06
 40
0.06
 40
0.06
 40
0.06
309
CELLMARGIN_END
 94
        6
 95
        1
302
GRIDFORMAT
  1
GRIDFORMAT_BEGIN
 90
        0
 91
        1
 62
     0
 92
       -2
340
14
 93
        0
 40
0.045
309
GRIDFORMAT_END
 95
        2
302
GRIDFORMAT
  1
GRIDFORMAT_BEGIN
 90
        0
 91
        1
 62
     0
 92
       -2
340
14
 93
        0
 40
0.045
309
GRIDFORMAT_END
 95
        4
302
GRIDFORMAT
  1
GRIDFORMAT_BEGIN
 90
        0
 91
        1
 62
     0
 92
       -2
340
14
 93
        0
 40
0.045
309
GRIDFORMAT_END
 95
        8
302
GRIDFORMAT
  1
GRIDFORMAT_BEGIN
 90
        0
 91
        1
 62
     0
 92
       -2
340
14
 93
        0
 40
0.045
309
GRIDFORMAT_END
 95
       16
302
GRIDFORMAT
  1
GRIDFORMAT_BEGIN
 90
        0
 91
        1
 62
     0
 92
       -2
340
14
 93
        0
 40
0.045
309
GRIDFORMAT_END
 95
       32
302
GRIDFORMAT
  1
GRIDFORMAT_BEGIN
 90
        0
 91
        1
 62
     0
 92
       -2
340
14
 93
        0
 40
0.045
309
GRIDFORMAT_END
309
TABLEFORMAT_END
  1
CELLSTYLE_BEGIN
 90
        1
 91
        1
300
_TITLE
309
CELLSTYLE_END
300
CELLSTYLE
  1
TABLEFORMAT_BEGIN
 90
        5
170
     1
 91
        0
 92
        0
 62
   257
 93
        1
300
CONTENTFORMAT
  1
CONTENTFORMAT_BEGIN
 90
        0
 91
        0
 92
        4
 93
        0
300

 40
0.0
140
1.0
 94
        5
 62
     0
340
11
144
0.18
309
CONTENTFORMAT_END
171
     1
301
MARGIN
  1
CELLMARGIN_BEGIN
 40
0.06
 40
0.06
 40
0.06
 40
0.06
 40
0.06
 40
0.06
309
CELLMARGIN_END
 94
        6
 95
        1
302
GRIDFORMAT
  1
GRIDFORMAT_BEGIN
 90
        0
 91
        1
 62
     0
 92
       -2
340
14
 93
        0
 40
0.045
309
GRIDFORMAT_END
 95
        2
302
GRIDFORMAT
  1
GRIDFORMAT_BEGIN
 90
        0
 91
        1
 62
     0
 92
       -2
340
14
 93
        0
 40
0.045
309
GRIDFORMAT_END
 95
        4
302
GRIDFORMAT
  1
GRIDFORMAT_BEGIN
 90
        0
 91
        1
 62
     0
 92
       -2
340
14
 93
        0
 40
0.045
309
GRIDFORMAT_END
 95
        8
302
GRIDFORMAT
  1
GRIDFORMAT_BEGIN
 90
        0
 91
        1
 62
     0
 92
       -2
340
14
 93
        0
 40
0.045
309
GRIDFORMAT_END
 95
       16
302
GRIDFORMAT
  1
GRIDFORMAT_BEGIN
 90
        0
 91
        1
 62
     0
 92
       -2
340
14
 93
        0
 40
0.045
309
GRIDFORMAT_END
 95
       32
302
GRIDFORMAT
  1
GRIDFORMAT_BEGIN
 90
        0
 91
        1
 62
     0
 92
       -2
340
14
 93
        0
 40
0.045
309
GRIDFORMAT_END
309
TABLEFORMAT_END
  1
CELLSTYLE_BEGIN
 90
        2
 91
        1
300
_HEADER
309
CELLSTYLE_END
300
CELLSTYLE
  1
TABLEFORMAT_BEGIN
 90
        5
170
     1
 91
        0
 92
        0
 62
   257
 93
        1
300
CONTENTFORMAT
  1
CONTENTFORMAT_BEGIN
 90
        0
 91
        0
 92
        4
 93
        0
300

 40
0.0
140
1.0
 94
        2
 62
     0
340
11
144
0.18
309
CONTENTFORMAT_END
171
     1
301
MARGIN
  1
CELLMARGIN_BEGIN
 40
0.06
 40
0.06
 40
0.06
 40
0.06
 40
0.06
 40
0.06
309
CELLMARGIN_END
 94
        6
 95
        1
302
GRIDFORMAT
  1
GRIDFORMAT_BEGIN
 90
        0
 91
        1
 62
     0
 92
       -2
340
14
 93
        0
 40
0.045
309
GRIDFORMAT_END
 95
        2
302
GRIDFORMAT
  1
GRIDFORMAT_BEGIN
 90
        0
 91
        1
 62
     0
 92
       -2
340
14
 93
        0
 40
0.045
309
GRIDFORMAT_END
 95
        4
302
GRIDFORMAT
  1
GRIDFORMAT_BEGIN
 90
        0
 91
        1
 62
     0
 92
       -2
340
14
 93
        0
 40
0.045
309
GRIDFORMAT_END
 95
        8
302
GRIDFORMAT
  1
GRIDFORMAT_BEGIN
 90
        0
 91
        1
 62
     0
 92
       -2
340
14
 93
        0
 40
0.045
309
GRIDFORMAT_END
 95
       16
302
GRIDFORMAT
  1
GRIDFORMAT_BEGIN
 90
        0
 91
        1
 62
     0
 92
       -2
340
14
 93
        0
 40
0.045
309
GRIDFORMAT_END
 95
       32
302
GRIDFORMAT
  1
GRIDFORMAT_BEGIN
 90
        0
 91
        1
 62
     0
 92
       -2
340
14
 93
        0
 40
0.045
309
GRIDFORMAT_END
309
TABLEFORMAT_END
  1
CELLSTYLE_BEGIN
 90
        3
 91
        2
300
_DATA
309
CELLSTYLE_END
  0
XRECORD
  5
1B3
102
{ACAD_REACTORS
330
1B2
102
}
330
1B2
100
AcDbXrecord
280
     1
102
RTVSPropertyOp0
 70
     1
102
RTVSPropertyOp1
 70
     1
102
RTVSPropertyOp2
 70
     1
102
RTVSPropertyOp3
 70
     1
102
RTVSPropertyOp4
 70
     1
102
RTVSPropertyOp5
 70
     1
102
RTVSPropertyOp6
 70
     1
102
RTVSPropertyOp7
 70
     1
102
RTVSPropertyOp8
 70
     1
102
RTVSPropertyOp9
 70
     1
102
RTVSPropertyOp10
 70
     1
102
RTVSPropertyOp11
 70
     1
102
RTVSPropertyOp12
 70
     1
102
RTVSPropertyOp13
 70
     1
102
RTVSPropertyOp14
 70
     1
102
RTVSPropertyOp15
 70
     1
102
RTVSPropertyOp16
 70
     1
102
RTVSPropertyOp17
 70
     1
102
RTVSPropertyOp18
 70
     1
102
RTVSPropertyOp19
 70
     1
102
RTVSPropertyOp20
 70
     1
102
RTVSPropertyOp21
 70
     1
102
RTVSPropertyOp22
 70
     1
102
RTVSPropertyOp23
 70
     1
102
RTVSPropertyOp24
 70
     1
102
RTVSPropertyOp25
 70
     1
102
RTVSPropertyOp26
 70
     1
102
RTVSPropertyOp27
 70
     1
102
RTVSPropertyOp28
 70
     1
102
RTVSPropertyOp29
 70
     1
102
RTVSPropertyOp30
 70
     1
102
RTVSPropertyOp31
 70
     1
102
RTVSPropertyOp32
 70
     1
102
RTVSPropertyOp33
 70
     1
102
RTVSPropertyOp34
 70
     1
102
RTVSPropertyOp35
 70
     1
102
RTVSPropertyOp36
 70
     1
102
RTVSPropertyOp37
 70
     1
102
RTVSPropertyOp38
 70
     1
102
RTVSPropertyOp39
 70
     1
102
RTVSPropertyOp40
 70
     1
102
RTVSPropertyOp41
 70
     1
102
RTVSPropertyOp42
 70
     1
102
RTVSPropertyOp43
 70
     1
102
RTVSPropertyOp44
 70
     1
102
RTVSPropertyOp45
 70
     1
102
RTVSPropertyOp46
 70
     1
102
RTVSPropertyOp47
 70
     1
102
RTVSPropertyOp48
 70
     1
102
RTVSPropertyOp49
 70
     1
102
RTVSPropertyOp50
 70
     1
102
RTVSPropertyOp51
 70
     0
102
RTVSPropertyOp52
 70
     0
102
RTVSPropertyOp53
 70
     1
102
RTVSPropertyOp54
 70
     1
102
RTVSPropertyOp55
 70
     1
102
RTVSPropertyOp56
 70
     1
102
RTVSPropertyOp57
 70
     1
102
RTVSPost2010Prop28
280
     1
102
RTVSPost2010PropOp28
 70
     1
102
RTVSPost2010Prop29
280
     1
102
RTVSPost2010PropOp29
 70
     1
102
RTVSPost2010Prop30
280
     0
102
RTVSPost2010PropOp30
 70
     1
102
RTVSPost2010Prop31
280
     0
102
RTVSPost2010PropOp31
 70
     1
102
RTVSPost2010Prop32
280
     0
102
RTVSPost2010PropOp32
 70
     1
102
RTVSPost2010Prop33
280
     0
102
RTVSPost2010PropOp33
 70
     1
102
RTVSPost2010Prop34
280
     0
102
RTVSPost2010PropOp34
 70
     1
102
RTVSPost2010Prop35
280
     0
102
RTVSPost2010PropOp35
 70
     1
102
RTVSPost2010Prop36
280
     0
102
RTVSPost2010PropOp36
 70
     1
102
RTVSPost2010Prop37
 90
       50
102
RTVSPost2010PropOp37
 70
     1
102
RTVSPost2010Prop38
140
0.0
102
RTVSPost2010PropOp38
 70
     1
102
RTVSPost2010Prop39
140
1.0
102
RTVSPost2010PropOp39
 70
     1
102
RTVSPost2010Prop40
 90
        0
102
RTVSPost2010PropOp40
 70
     1
102
RTVSPost2010Prop41ColorIndex
 90
       18
102
RTVSPost2010Prop41ColorRGB
 90
        0
102
RTVSPost2010PropOp41
 70
     1
102
RTVSPost2010Prop42
 90
       50
102
RTVSPost2010PropOp42
 70
     1
102
RTVSPost2010Prop43
 90
        3
102
RTVSPost2010PropOp43
 70
     1
102
RTVSPost2010Prop44ColorIndex
 90
        5
102
RTVSPost2010Prop44ColorRGB
 90
      255
102
RTVSPost2010PropOp44
 70
     1
102
RTVSPost2010Prop45
280
     0
102
RTVSPost2010PropOp45
 70
     1
102
RTVSPost2010Prop46
 90
       50
102
RTVSPost2010PropOp46
 70
     1
102
RTVSPost2010Prop47
 90
       50
102
RTVSPost2010PropOp47
 70
     1
102
RTVSPost2010Prop48
 90
       50
102
RTVSPost2010PropOp48
 70
     1
102
RTVSPost2010Prop49
280
     0
102
RTVSPost2010PropOp49
 70
     1
102
RTVSPost2010Prop50
 90
       50
102
RTVSPost2010PropOp50
 70
     1
102
RTVSPost2010Prop51ColorIndex
 90
      256
102
RTVSPost2010Prop51ColorRGB
 90
-16777216
102
RTVSPost2010PropOp51
 70
     0
102
RTVSPost2010Prop52
140
1.0
102
RTVSPost2010PropOp52
 70
     0
102
RTVSPost2010Prop53
 90
        2
102
RTVSPost2010PropOp53
 70
     1
102
RTVSPost2010Prop54
  1
strokes_ogs.tif
102
RTVSPost2010PropOp54
 70
     1
102
RTVSPost2010Prop55
280
     0
102
RTVSPost2010PropOp55
 70
     1
102
RTVSPost2010Prop56
140
1.0
102
RTVSPost2010PropOp56
 70
     1
102
RTVSPost2010Prop57
140
1.0
102
RTVSPost2010PropOp57
 70
     1
  0
XRECORD
  5
1B9
102
{ACAD_REACTORS
330
1B8
102
}
330
1B8
100
AcDbXrecord
280
     1
102
RTVSPropertyOp0
 70
     1
102
RTVSPropertyOp1
 70
     1
102
RTVSPropertyOp2
 70
     1
102
RTVSPropertyOp3
 70
     1
102
RTVSPropertyOp4
 70
     1
102
RTVSPropertyOp5
 70
     1
102
RTVSPropertyOp6
 70
     1
102
RTVSPropertyOp7
 70
     1
102
RTVSPropertyOp8
 70
     1
102
RTVSPropertyOp9
 70
     1
102
RTVSPropertyOp10
 70
     1
102
RTVSPropertyOp11
 70
     1
102
RTVSPropertyOp12
 70
     1
102
RTVSPropertyOp13
 70
     1
102
RTVSPropertyOp14
 70
     1
102
RTVSPropertyOp15
 70
     1
102
RTVSPropertyOp16
 70
     1
102
RTVSPropertyOp17
 70
     1
102
RTVSPropertyOp18
 70
     1
102
RTVSPropertyOp19
 70
     1
102
RTVSPropertyOp20
 70
     1
102
RTVSPropertyOp21
 70
     1
102
RTVSPropertyOp22
 70
     1
102
RTVSPropertyOp23
 70
     1
102
RTVSPropertyOp24
 70
     1
102
RTVSPropertyOp25
 70
     1
102
RTVSPropertyOp26
 70
     1
102
RTVSPropertyOp27
 70
     1
102
RTVSPropertyOp28
 70
     1
102
RTVSPropertyOp29
 70
     1
102
RTVSPropertyOp30
 70
     1
102
RTVSPropertyOp31
 70
     1
102
RTVSPropertyOp32
 70
     1
102
RTVSPropertyOp33
 70
     1
102
RTVSPropertyOp34
 70
     1
102
RTVSPropertyOp35
 70
     1
102
RTVSPropertyOp36
 70
     1
102
RTVSPropertyOp37
 70
     1
102
RTVSPropertyOp38
 70
     1
102
RTVSPropertyOp39
 70
     1
102
RTVSPropertyOp40
 70
     1
102
RTVSPropertyOp41
 70
     1
102
RTVSPropertyOp42
 70
     1
102
RTVSPropertyOp43
 70
     1
102
RTVSPropertyOp44
 70
     1
102
RTVSPropertyOp45
 70
     1
102
RTVSPropertyOp46
 70
     1
102
RTVSPropertyOp47
 70
     1
102
RTVSPropertyOp48
 70
     1
102
RTVSPropertyOp49
 70
     1
102
RTVSPropertyOp50
 70
     1
102
RTVSPropertyOp51
 70
     0
102
RTVSPropertyOp52
 70
     0
102
RTVSPropertyOp53
 70
     1
102
RTVSPropertyOp54
 70
     1
102
RTVSPropertyOp55
 70
     1
102
RTVSPropertyOp56
 70
     1
102
RTVSPropertyOp57
 70
     1
102
RTVSPost2010Prop28
280
     0
102
RTVSPost2010PropOp28
 70
     1
102
RTVSPost2010Prop29
280
     1
102
RTVSPost2010PropOp29
 70
     1
102
RTVSPost2010Prop30
280
     1
102
RTVSPost2010PropOp30
 70
     1
102
RTVSPost2010Prop31
280
     0
102
RTVSPost2010PropOp31
 70
     1
102
RTVSPost2010Prop32
280
     0
102
RTVSPost2010PropOp32
 70
     1
102
RTVSPost2010Prop33
280
     0
102
RTVSPost2010PropOp33
 70
     1
102
RTVSPost2010Prop34
280
     0
102
RTVSPost2010PropOp34
 70
     1
102
RTVSPost2010Prop35
280
     0
102
RTVSPost2010PropOp35
 70
     1
102
RTVSPost2010Prop36
280
     0
102
RTVSPost2010PropOp36
 70
     1
102
RTVSPost2010Prop37
 90
       50
102
RTVSPost2010PropOp37
 70
     1
102
RTVSPost2010Prop38
140
0.0
102
RTVSPost2010PropOp38
 70
     1
102
RTVSPost2010Prop39
140
1.0
102
RTVSPost2010PropOp39
 70
     1
102
RTVSPost2010Prop40
 90
        0
102
RTVSPost2010PropOp40
 70
     1
102
RTVSPost2010Prop41ColorIndex
 90
       18
102
RTVSPost2010Prop41ColorRGB
 90
        0
102
RTVSPost2010PropOp41
 70
     1
102
RTVSPost2010Prop42
 90
       50
102
RTVSPost2010PropOp42
 70
     1
102
RTVSPost2010Prop43
 90
        3
102
RTVSPost2010PropOp43
 70
     1
102
RTVSPost2010Prop44ColorIndex
 90
        5
102
RTVSPost2010Prop44ColorRGB
 90
      255
102
RTVSPost2010PropOp44
 70
     1
102
RTVSPost2010Prop45
280
     0
102
RTVSPost2010PropOp45
 70
     1
102
RTVSPost2010Prop46
 90
       50
102
RTVSPost2010PropOp46
 70
     1
102
RTVSPost2010Prop47
 90
       50
102
RTVSPost2010PropOp47
 70
     1
102
RTVSPost2010Prop48
 90
       50
102
RTVSPost2010PropOp48
 70
     1
102
RTVSPost2010Prop49
280
     0
102
RTVSPost2010PropOp49
 70
     1
102
RTVSPost2010Prop50
 90
       50
102
RTVSPost2010PropOp50
 70
     1
102
RTVSPost2010Prop51ColorIndex
 90
      256
102
RTVSPost2010Prop51ColorRGB
 90
-16777216
102
RTVSPost2010PropOp51
 70
     0
102
RTVSPost2010Prop52
140
1.0
102
RTVSPost2010PropOp52
 70
     0
102
RTVSPost2010Prop53
 90
        2
102
RTVSPost2010PropOp53
 70
     1
102
RTVSPost2010Prop54
  1
strokes_ogs.tif
102
RTVSPost2010PropOp54
 70
     1
102
RTVSPost2010Prop55
280
     0
102
RTVSPost2010PropOp55
 70
     1
102
RTVSPost2010Prop56
140
1.0
102
RTVSPost2010PropOp56
 70
     1
102
RTVSPost2010Prop57
140
1.0
102
RTVSPost2010PropOp57
 70
     1
  0
XRECORD
  5
1C1
102
{ACAD_REACTORS
330
1C0
102
}
330
1C0
100
AcDbXrecord
280
     1
102
RTVSPropertyOp0
 70
     1
102
RTVSPropertyOp1
 70
     1
102
RTVSPropertyOp2
 70
     1
102
RTVSPropertyOp3
 70
     1
102
RTVSPropertyOp4
 70
     1
102
RTVSPropertyOp5
 70
     1
102
RTVSPropertyOp6
 70
     1
102
RTVSPropertyOp7
 70
     1
102
RTVSPropertyOp8
 70
     1
102
RTVSPropertyOp9
 70
     1
102
RTVSPropertyOp10
 70
     1
102
RTVSPropertyOp11
 70
     1
102
RTVSPropertyOp12
 70
     1
102
RTVSPropertyOp13
 70
     1
102
RTVSPropertyOp14
 70
     1
102
RTVSPropertyOp15
 70
     1
102
RTVSPropertyOp16
 70
     1
102
RTVSPropertyOp17
 70
     1
102
RTVSPropertyOp18
 70
     1
102
RTVSPropertyOp19
 70
     1
102
RTVSPropertyOp20
 70
     1
102
RTVSPropertyOp21
 70
     1
102
RTVSPropertyOp22
 70
     1
102
RTVSPropertyOp23
 70
     1
102
RTVSPropertyOp24
 70
     1
102
RTVSPropertyOp25
 70
     1
102
RTVSPropertyOp26
 70
     1
102
RTVSPropertyOp27
 70
     1
102
RTVSPropertyOp28
 70
     1
102
RTVSPropertyOp29
 70
     1
102
RTVSPropertyOp30
 70
     1
102
RTVSPropertyOp31
 70
     1
102
RTVSPropertyOp32
 70
     1
102
RTVSPropertyOp33
 70
     1
102
RTVSPropertyOp34
 70
     1
102
RTVSPropertyOp35
 70
     1
102
RTVSPropertyOp36
 70
     1
102
RTVSPropertyOp37
 70
     1
102
RTVSPropertyOp38
 70
     1
102
RTVSPropertyOp39
 70
     1
102
RTVSPropertyOp40
 70
     1
102
RTVSPropertyOp41
 70
     1
102
RTVSPropertyOp42
 70
     1
102
RTVSPropertyOp43
 70
     1
102
RTVSPropertyOp44
 70
     1
102
RTVSPropertyOp45
 70
     1
102
RTVSPropertyOp46
 70
     1
102
RTVSPropertyOp47
 70
     1
102
RTVSPropertyOp48
 70
     1
102
RTVSPropertyOp49
 70
     1
102
RTVSPropertyOp50
 70
     1
102
RTVSPropertyOp51
 70
     0
102
RTVSPropertyOp52
 70
     0
102
RTVSPropertyOp53
 70
     1
102
RTVSPropertyOp54
 70
     1
102
RTVSPropertyOp55
 70
     1
102
RTVSPropertyOp56
 70
     1
102
RTVSPropertyOp57
 70
     1
102
RTVSPost2010Prop28
280
     0
102
RTVSPost2010PropOp28
 70
     1
102
RTVSPost2010Prop29
280
     1
102
RTVSPost2010PropOp29
 70
     1
102
RTVSPost2010Prop30
280
     1
102
RTVSPost2010PropOp30
 70
     1
102
RTVSPost2010Prop31
280
     0
102
RTVSPost2010PropOp31
 70
     1
102
RTVSPost2010Prop32
280
     0
102
RTVSPost2010PropOp32
 70
     1
102
RTVSPost2010Prop33
280
     0
102
RTVSPost2010PropOp33
 70
     1
102
RTVSPost2010Prop34
280
     0
102
RTVSPost2010PropOp34
 70
     1
102
RTVSPost2010Prop35
280
     0
102
RTVSPost2010PropOp35
 70
     1
102
RTVSPost2010Prop36
280
     0
102
RTVSPost2010PropOp36
 70
     1
102
RTVSPost2010Prop37
 90
       50
102
RTVSPost2010PropOp37
 70
     1
102
RTVSPost2010Prop38
140
0.0
102
RTVSPost2010PropOp38
 70
     1
102
RTVSPost2010Prop39
140
1.0
102
RTVSPost2010PropOp39
 70
     1
102
RTVSPost2010Prop40
 90
        0
102
RTVSPost2010PropOp40
 70
     1
102
RTVSPost2010Prop41ColorIndex
 90
       18
102
RTVSPost2010Prop41ColorRGB
 90
        0
102
RTVSPost2010PropOp41
 70
     1
102
RTVSPost2010Prop42
 90
       50
102
RTVSPost2010PropOp42
 70
     1
102
RTVSPost2010Prop43
 90
        3
102
RTVSPost2010PropOp43
 70
     1
102
RTVSPost2010Prop44ColorIndex
 90
        5
102
RTVSPost2010Prop44ColorRGB
 90
      255
102
RTVSPost2010PropOp44
 70
     1
102
RTVSPost2010Prop45
280
     0
102
RTVSPost2010PropOp45
 70
     1
102
RTVSPost2010Prop46
 90
       50
102
RTVSPost2010PropOp46
 70
     1
102
RTVSPost2010Prop47
 90
       50
102
RTVSPost2010PropOp47
 70
     1
102
RTVSPost2010Prop48
 90
       50
102
RTVSPost2010PropOp48
 70
     1
102
RTVSPost2010Prop49
280
     0
102
RTVSPost2010PropOp49
 70
     1
102
RTVSPost2010Prop50
 90
       50
102
RTVSPost2010PropOp50
 70
     1
102
RTVSPost2010Prop51ColorIndex
 90
      256
102
RTVSPost2010Prop51ColorRGB
 90
-16777216
102
RTVSPost2010PropOp51
 70
     0
102
RTVSPost2010Prop52
140
1.0
102
RTVSPost2010PropOp52
 70
     0
102
RTVSPost2010Prop53
 90
        2
102
RTVSPost2010PropOp53
 70
     1
102
RTVSPost2010Prop54
  1
strokes_ogs.tif
102
RTVSPost2010PropOp54
 70
     1
102
RTVSPost2010Prop55
280
     0
102
RTVSPost2010PropOp55
 70
     1
102
RTVSPost2010Prop56
140
1.0
102
RTVSPost2010PropOp56
 70
     1
102
RTVSPost2010Prop57
140
1.0
102
RTVSPost2010PropOp57
 70
     1
  0
XRECORD
  5
1C9
102
{ACAD_REACTORS
330
1C8
102
}
330
1C8
100
AcDbXrecord
280
     1
102
RTVSPropertyOp0
 70
     1
102
RTVSPropertyOp1
 70
     1
102
RTVSPropertyOp2
 70
     1
102
RTVSPropertyOp3
 70
     1
102
RTVSPropertyOp4
 70
     1
102
RTVSPropertyOp5
 70
     1
102
RTVSPropertyOp6
 70
     1
102
RTVSPropertyOp7
 70
     1
102
RTVSPropertyOp8
 70
     1
102
RTVSPropertyOp9
 70
     1
102
RTVSPropertyOp10
 70
     1
102
RTVSPropertyOp11
 70
     1
102
RTVSPropertyOp12
 70
     1
102
RTVSPropertyOp13
 70
     1
102
RTVSPropertyOp14
 70
     1
102
RTVSPropertyOp15
 70
     1
102
RTVSPropertyOp16
 70
     1
102
RTVSPropertyOp17
 70
     1
102
RTVSPropertyOp18
 70
     1
102
RTVSPropertyOp19
 70
     1
102
RTVSPropertyOp20
 70
     1
102
RTVSPropertyOp21
 70
     1
102
RTVSPropertyOp22
 70
     1
102
RTVSPropertyOp23
 70
     1
102
RTVSPropertyOp24
 70
     1
102
RTVSPropertyOp25
 70
     1
102
RTVSPropertyOp26
 70
     1
102
RTVSPropertyOp27
 70
     1
102
RTVSPropertyOp28
 70
     1
102
RTVSPropertyOp29
 70
     1
102
RTVSPropertyOp30
 70
     1
102
RTVSPropertyOp31
 70
     1
102
RTVSPropertyOp32
 70
     1
102
RTVSPropertyOp33
 70
     1
102
RTVSPropertyOp34
 70
     1
102
RTVSPropertyOp35
 70
     1
102
RTVSPropertyOp36
 70
     1
102
RTVSPropertyOp37
 70
     1
102
RTVSPropertyOp38
 70
     1
102
RTVSPropertyOp39
 70
     1
102
RTVSPropertyOp40
 70
     1
102
RTVSPropertyOp41
 70
     1
102
RTVSPropertyOp42
 70
     1
102
RTVSPropertyOp43
 70
     1
102
RTVSPropertyOp44
 70
     1
102
RTVSPropertyOp45
 70
     1
102
RTVSPropertyOp46
 70
     1
102
RTVSPropertyOp47
 70
     1
102
RTVSPropertyOp48
 70
     1
102
RTVSPropertyOp49
 70
     1
102
RTVSPropertyOp50
 70
     1
102
RTVSPropertyOp51
 70
     0
102
RTVSPropertyOp52
 70
     0
102
RTVSPropertyOp53
 70
     1
102
RTVSPropertyOp54
 70
     1
102
RTVSPropertyOp55
 70
     1
102
RTVSPropertyOp56
 70
     1
102
RTVSPropertyOp57
 70
     1
102
RTVSPost2010Prop28
280
     0
102
RTVSPost2010PropOp28
 70
     1
102
RTVSPost2010Prop29
280
     1
102
RTVSPost2010PropOp29
 70
     1
102
RTVSPost2010Prop30
280
     1
102
RTVSPost2010PropOp30
 70
     1
102
RTVSPost2010Prop31
280
     0
102
RTVSPost2010PropOp31
 70
     1
102
RTVSPost2010Prop32
280
     0
102
RTVSPost2010PropOp32
 70
     1
102
RTVSPost2010Prop33
280
     0
102
RTVSPost2010PropOp33
 70
     1
102
RTVSPost2010Prop34
280
     0
102
RTVSPost2010PropOp34
 70
     1
102
RTVSPost2010Prop35
280
     0
102
RTVSPost2010PropOp35
 70
     1
102
RTVSPost2010Prop36
280
     0
102
RTVSPost2010PropOp36
 70
     1
102
RTVSPost2010Prop37
 90
       50
102
RTVSPost2010PropOp37
 70
     1
102
RTVSPost2010Prop38
140
0.0
102
RTVSPost2010PropOp38
 70
     1
102
RTVSPost2010Prop39
140
1.0
102
RTVSPost2010PropOp39
 70
     1
102
RTVSPost2010Prop40
 90
        0
102
RTVSPost2010PropOp40
 70
     1
102
RTVSPost2010Prop41ColorIndex
 90
       18
102
RTVSPost2010Prop41ColorRGB
 90
        0
102
RTVSPost2010PropOp41
 70
     1
102
RTVSPost2010Prop42
 90
       50
102
RTVSPost2010PropOp42
 70
     1
102
RTVSPost2010Prop43
 90
        3
102
RTVSPost2010PropOp43
 70
     1
102
RTVSPost2010Prop44ColorIndex
 90
        5
102
RTVSPost2010Prop44ColorRGB
 90
      255
102
RTVSPost2010PropOp44
 70
     1
102
RTVSPost2010Prop45
280
     0
102
RTVSPost2010PropOp45
 70
     1
102
RTVSPost2010Prop46
 90
       50
102
RTVSPost2010PropOp46
 70
     1
102
RTVSPost2010Prop47
 90
       50
102
RTVSPost2010PropOp47
 70
     1
102
RTVSPost2010Prop48
 90
       50
102
RTVSPost2010PropOp48
 70
     1
102
RTVSPost2010Prop49
280
     0
102
RTVSPost2010PropOp49
 70
     1
102
RTVSPost2010Prop50
 90
       50
102
RTVSPost2010PropOp50
 70
     1
102
RTVSPost2010Prop51ColorIndex
 90
      256
102
RTVSPost2010Prop51ColorRGB
 90
-16777216
102
RTVSPost2010PropOp51
 70
     0
102
RTVSPost2010Prop52
140
1.0
102
RTVSPost2010PropOp52
 70
     0
102
RTVSPost2010Prop53
 90
        2
102
RTVSPost2010PropOp53
 70
     1
102
RTVSPost2010Prop54
  1
strokes_ogs.tif
102
RTVSPost2010PropOp54
 70
     1
102
RTVSPost2010Prop55
280
     0
102
RTVSPost2010PropOp55
 70
     1
102
RTVSPost2010Prop56
140
1.0
102
RTVSPost2010PropOp56
 70
     1
102
RTVSPost2010Prop57
140
1.0
102
RTVSPost2010PropOp57
 70
     1
  0
XRECORD
  5
1BD
102
{ACAD_REACTORS
330
1BC
102
}
330
1BC
100
AcDbXrecord
280
     1
102
RTVSPropertyOp0
 70
     1
102
RTVSPropertyOp1
 70
     1
102
RTVSPropertyOp2
 70
     1
102
RTVSPropertyOp3
 70
     1
102
RTVSPropertyOp4
 70
     1
102
RTVSPropertyOp5
 70
     1
102
RTVSPropertyOp6
 70
     1
102
RTVSPropertyOp7
 70
     1
102
RTVSPropertyOp8
 70
     1
102
RTVSPropertyOp9
 70
     1
102
RTVSPropertyOp10
 70
     1
102
RTVSPropertyOp11
 70
     1
102
RTVSPropertyOp12
 70
     1
102
RTVSPropertyOp13
 70
     1
102
RTVSPropertyOp14
 70
     1
102
RTVSPropertyOp15
 70
     1
102
RTVSPropertyOp16
 70
     1
102
RTVSPropertyOp17
 70
     1
102
RTVSPropertyOp18
 70
     1
102
RTVSPropertyOp19
 70
     1
102
RTVSPropertyOp20
 70
     1
102
RTVSPropertyOp21
 70
     1
102
RTVSPropertyOp22
 70
     1
102
RTVSPropertyOp23
 70
     1
102
RTVSPropertyOp24
 70
     1
102
RTVSPropertyOp25
 70
     1
102
RTVSPropertyOp26
 70
     1
102
RTVSPropertyOp27
 70
     1
102
RTVSPropertyOp28
 70
     1
102
RTVSPropertyOp29
 70
     1
102
RTVSPropertyOp30
 70
     1
102
RTVSPropertyOp31
 70
     1
102
RTVSPropertyOp32
 70
     1
102
RTVSPropertyOp33
 70
     1
102
RTVSPropertyOp34
 70
     1
102
RTVSPropertyOp35
 70
     1
102
RTVSPropertyOp36
 70
     1
102
RTVSPropertyOp37
 70
     1
102
RTVSPropertyOp38
 70
     1
102
RTVSPropertyOp39
 70
     1
102
RTVSPropertyOp40
 70
     1
102
RTVSPropertyOp41
 70
     1
102
RTVSPropertyOp42
 70
     1
102
RTVSPropertyOp43
 70
     1
102
RTVSPropertyOp44
 70
     1
102
RTVSPropertyOp45
 70
     1
102
RTVSPropertyOp46
 70
     1
102
RTVSPropertyOp47
 70
     1
102
RTVSPropertyOp48
 70
     1
102
RTVSPropertyOp49
 70
     1
102
RTVSPropertyOp50
 70
     1
102
RTVSPropertyOp51
 70
     0
102
RTVSPropertyOp52
 70
     0
102
RTVSPropertyOp53
 70
     1
102
RTVSPropertyOp54
 70
     1
102
RTVSPropertyOp55
 70
     1
102
RTVSPropertyOp56
 70
     1
102
RTVSPropertyOp57
 70
     1
102
RTVSPost2010Prop28
280
     0
102
RTVSPost2010PropOp28
 70
     1
102
RTVSPost2010Prop29
280
     1
102
RTVSPost2010PropOp29
 70
     1
102
RTVSPost2010Prop30
280
     1
102
RTVSPost2010PropOp30
 70
     1
102
RTVSPost2010Prop31
280
     0
102
RTVSPost2010PropOp31
 70
     1
102
RTVSPost2010Prop32
280
     0
102
RTVSPost2010PropOp32
 70
     1
102
RTVSPost2010Prop33
280
     0
102
RTVSPost2010PropOp33
 70
     1
102
RTVSPost2010Prop34
280
     0
102
RTVSPost2010PropOp34
 70
     1
102
RTVSPost2010Prop35
280
     0
102
RTVSPost2010PropOp35
 70
     1
102
RTVSPost2010Prop36
280
     0
102
RTVSPost2010PropOp36
 70
     1
102
RTVSPost2010Prop37
 90
       50
102
RTVSPost2010PropOp37
 70
     1
102
RTVSPost2010Prop38
140
0.0
102
RTVSPost2010PropOp38
 70
     1
102
RTVSPost2010Prop39
140
1.0
102
RTVSPost2010PropOp39
 70
     1
102
RTVSPost2010Prop40
 90
        0
102
RTVSPost2010PropOp40
 70
     1
102
RTVSPost2010Prop41ColorIndex
 90
       18
102
RTVSPost2010Prop41ColorRGB
 90
        0
102
RTVSPost2010PropOp41
 70
     1
102
RTVSPost2010Prop42
 90
       50
102
RTVSPost2010PropOp42
 70
     1
102
RTVSPost2010Prop43
 90
        3
102
RTVSPost2010PropOp43
 70
     1
102
RTVSPost2010Prop44ColorIndex
 90
        5
102
RTVSPost2010Prop44ColorRGB
 90
      255
102
RTVSPost2010PropOp44
 70
     1
102
RTVSPost2010Prop45
280
     0
102
RTVSPost2010PropOp45
 70
     1
102
RTVSPost2010Prop46
 90
       50
102
RTVSPost2010PropOp46
 70
     1
102
RTVSPost2010Prop47
 90
       50
102
RTVSPost2010PropOp47
 70
     1
102
RTVSPost2010Prop48
 90
       50
102
RTVSPost2010PropOp48
 70
     1
102
RTVSPost2010Prop49
280
     0
102
RTVSPost2010PropOp49
 70
     1
102
RTVSPost2010Prop50
 90
       50
102
RTVSPost2010PropOp50
 70
     1
102
RTVSPost2010Prop51ColorIndex
 90
      256
102
RTVSPost2010Prop51ColorRGB
 90
-16777216
102
RTVSPost2010PropOp51
 70
     0
102
RTVSPost2010Prop52
140
1.0
102
RTVSPost2010PropOp52
 70
     0
102
RTVSPost2010Prop53
 90
        2
102
RTVSPost2010PropOp53
 70
     1
102
RTVSPost2010Prop54
  1
strokes_ogs.tif
102
RTVSPost2010PropOp54
 70
     1
102
RTVSPost2010Prop55
280
     0
102
RTVSPost2010PropOp55
 70
     1
102
RTVSPost2010Prop56
140
1.0
102
RTVSPost2010PropOp56
 70
     1
102
RTVSPost2010Prop57
140
1.0
102
RTVSPost2010PropOp57
 70
     1
  0
XRECORD
  5
1BF
102
{ACAD_REACTORS
330
1BE
102
}
330
1BE
100
AcDbXrecord
280
     1
102
RTVSPropertyOp0
 70
     1
102
RTVSPropertyOp1
 70
     1
102
RTVSPropertyOp2
 70
     1
102
RTVSPropertyOp3
 70
     1
102
RTVSPropertyOp4
 70
     1
102
RTVSPropertyOp5
 70
     1
102
RTVSPropertyOp6
 70
     1
102
RTVSPropertyOp7
 70
     1
102
RTVSPropertyOp8
 70
     1
102
RTVSPropertyOp9
 70
     1
102
RTVSPropertyOp10
 70
     1
102
RTVSPropertyOp11
 70
     1
102
RTVSPropertyOp12
 70
     1
102
RTVSPropertyOp13
 70
     1
102
RTVSPropertyOp14
 70
     1
102
RTVSPropertyOp15
 70
     1
102
RTVSPropertyOp16
 70
     1
102
RTVSPropertyOp17
 70
     1
102
RTVSPropertyOp18
 70
     1
102
RTVSPropertyOp19
 70
     1
102
RTVSPropertyOp20
 70
     1
102
RTVSPropertyOp21
 70
     1
102
RTVSPropertyOp22
 70
     1
102
RTVSPropertyOp23
 70
     1
102
RTVSPropertyOp24
 70
     1
102
RTVSPropertyOp25
 70
     1
102
RTVSPropertyOp26
 70
     1
102
RTVSPropertyOp27
 70
     1
102
RTVSPropertyOp28
 70
     1
102
RTVSPropertyOp29
 70
     1
102
RTVSPropertyOp30
 70
     1
102
RTVSPropertyOp31
 70
     1
102
RTVSPropertyOp32
 70
     1
102
RTVSPropertyOp33
 70
     1
102
RTVSPropertyOp34
 70
     1
102
RTVSPropertyOp35
 70
     1
102
RTVSPropertyOp36
 70
     1
102
RTVSPropertyOp37
 70
     1
102
RTVSPropertyOp38
 70
     1
102
RTVSPropertyOp39
 70
     1
102
RTVSPropertyOp40
 70
     1
102
RTVSPropertyOp41
 70
     1
102
RTVSPropertyOp42
 70
     1
102
RTVSPropertyOp43
 70
     1
102
RTVSPropertyOp44
 70
     1
102
RTVSPropertyOp45
 70
     1
102
RTVSPropertyOp46
 70
     1
102
RTVSPropertyOp47
 70
     1
102
RTVSPropertyOp48
 70
     1
102
RTVSPropertyOp49
 70
     1
102
RTVSPropertyOp50
 70
     1
102
RTVSPropertyOp51
 70
     0
102
RTVSPropertyOp52
 70
     0
102
RTVSPropertyOp53
 70
     1
102
RTVSPropertyOp54
 70
     1
102
RTVSPropertyOp55
 70
     1
102
RTVSPropertyOp56
 70
     1
102
RTVSPropertyOp57
 70
     1
102
RTVSPost2010Prop28
280
     0
102
RTVSPost2010PropOp28
 70
     1
102
RTVSPost2010Prop29
280
     1
102
RTVSPost2010PropOp29
 70
     1
102
RTVSPost2010Prop30
280
     1
102
RTVSPost2010PropOp30
 70
     1
102
RTVSPost2010Prop31
280
     0
102
RTVSPost2010PropOp31
 70
     1
102
RTVSPost2010Prop32
280
     0
102
RTVSPost2010PropOp32
 70
     1
102
RTVSPost2010Prop33
280
     0
102
RTVSPost2010PropOp33
 70
     1
102
RTVSPost2010Prop34
280
     0
102
RTVSPost2010PropOp34
 70
     1
102
RTVSPost2010Prop35
280
     0
102
RTVSPost2010PropOp35
 70
     1
102
RTVSPost2010Prop36
280
     0
102
RTVSPost2010PropOp36
 70
     1
102
RTVSPost2010Prop37
 90
       50
102
RTVSPost2010PropOp37
 70
     1
102
RTVSPost2010Prop38
140
0.0
102
RTVSPost2010PropOp38
 70
     1
102
RTVSPost2010Prop39
140
1.0
102
RTVSPost2010PropOp39
 70
     1
102
RTVSPost2010Prop40
 90
        0
102
RTVSPost2010PropOp40
 70
     1
102
RTVSPost2010Prop41ColorIndex
 90
       18
102
RTVSPost2010Prop41ColorRGB
 90
        0
102
RTVSPost2010PropOp41
 70
     1
102
RTVSPost2010Prop42
 90
       50
102
RTVSPost2010PropOp42
 70
     1
102
RTVSPost2010Prop43
 90
        3
102
RTVSPost2010PropOp43
 70
     1
102
RTVSPost2010Prop44ColorIndex
 90
        5
102
RTVSPost2010Prop44ColorRGB
 90
      255
102
RTVSPost2010PropOp44
 70
     1
102
RTVSPost2010Prop45
280
     0
102
RTVSPost2010PropOp45
 70
     1
102
RTVSPost2010Prop46
 90
       50
102
RTVSPost2010PropOp46
 70
     1
102
RTVSPost2010Prop47
 90
       50
102
RTVSPost2010PropOp47
 70
     1
102
RTVSPost2010Prop48
 90
       50
102
RTVSPost2010PropOp48
 70
     1
102
RTVSPost2010Prop49
280
     0
102
RTVSPost2010PropOp49
 70
     1
102
RTVSPost2010Prop50
 90
       50
102
RTVSPost2010PropOp50
 70
     1
102
RTVSPost2010Prop51ColorIndex
 90
      256
102
RTVSPost2010Prop51ColorRGB
 90
-16777216
102
RTVSPost2010PropOp51
 70
     0
102
RTVSPost2010Prop52
140
1.0
102
RTVSPost2010PropOp52
 70
     0
102
RTVSPost2010Prop53
 90
        2
102
RTVSPost2010PropOp53
 70
     1
102
RTVSPost2010Prop54
  1
strokes_ogs.tif
102
RTVSPost2010PropOp54
 70
     1
102
RTVSPost2010Prop55
280
     0
102
RTVSPost2010PropOp55
 70
     1
102
RTVSPost2010Prop56
140
1.0
102
RTVSPost2010PropOp56
 70
     1
102
RTVSPost2010Prop57
140
1.0
102
RTVSPost2010PropOp57
 70
     1
  0
XRECORD
  5
1CF
102
{ACAD_REACTORS
330
1CE
102
}
330
1CE
100
AcDbXrecord
280
     1
102
RTVSPropertyOp0
 70
     0
102
RTVSPropertyOp1
 70
     0
102
RTVSPropertyOp2
 70
     0
102
RTVSPropertyOp3
 70
     0
102
RTVSPropertyOp4
 70
     0
102
RTVSPropertyOp5
 70
     0
102
RTVSPropertyOp6
 70
     0
102
RTVSPropertyOp7
 70
     0
102
RTVSPropertyOp8
 70
     0
102
RTVSPropertyOp9
 70
     0
102
RTVSPropertyOp10
 70
     0
102
RTVSPropertyOp11
 70
     0
102
RTVSPropertyOp12
 70
     0
102
RTVSPropertyOp13
 70
     0
102
RTVSPropertyOp14
 70
     2
102
RTVSPropertyOp15
 70
     0
102
RTVSPropertyOp16
 70
     0
102
RTVSPropertyOp17
 70
     0
102
RTVSPropertyOp18
 70
     0
102
RTVSPropertyOp19
 70
     0
102
RTVSPropertyOp20
 70
     0
102
RTVSPropertyOp21
 70
     0
102
RTVSPropertyOp22
 70
     0
102
RTVSPropertyOp23
 70
     0
102
RTVSPropertyOp24
 70
     0
102
RTVSPropertyOp25
 70
     0
102
RTVSPropertyOp26
 70
     0
102
RTVSPropertyOp27
 70
     0
102
RTVSPropertyOp28
 70
     0
102
RTVSPropertyOp29
 70
     0
102
RTVSPropertyOp30
 70
     0
102
RTVSPropertyOp31
 70
     0
102
RTVSPropertyOp32
 70
     0
102
RTVSPropertyOp33
 70
     0
102
RTVSPropertyOp34
 70
     0
102
RTVSPropertyOp35
 70
     0
102
RTVSPropertyOp36
 70
     0
102
RTVSPropertyOp37
 70
     0
102
RTVSPropertyOp38
 70
     0
102
RTVSPropertyOp39
 70
     0
102
RTVSPropertyOp40
 70
     0
102
RTVSPropertyOp41
 70
     0
102
RTVSPropertyOp42
 70
     0
102
RTVSPropertyOp43
 70
     0
102
RTVSPropertyOp44
 70
     0
102
RTVSPropertyOp45
 70
     0
102
RTVSPropertyOp46
 70
     0
102
RTVSPropertyOp47
 70
     0
102
RTVSPropertyOp48
 70
     0
102
RTVSPropertyOp49
 70
     0
102
RTVSPropertyOp50
 70
     0
102
RTVSPropertyOp51
 70
     0
102
RTVSPropertyOp52
 70
     0
102
RTVSPropertyOp53
 70
     0
102
RTVSPropertyOp54
 70
     0
102
RTVSPropertyOp55
 70
     0
102
RTVSPropertyOp56
 70
     0
102
RTVSPropertyOp57
 70
     0
102
RTVSPost2010Prop28
280
     0
102
RTVSPost2010PropOp28
 70
     0
102
RTVSPost2010Prop29
280
     1
102
RTVSPost2010PropOp29
 70
     0
102
RTVSPost2010Prop30
280
     1
102
RTVSPost2010PropOp30
 70
     0
102
RTVSPost2010Prop31
280
     0
102
RTVSPost2010PropOp31
 70
     0
102
RTVSPost2010Prop32
280
     0
102
RTVSPost2010PropOp32
 70
     0
102
RTVSPost2010Prop33
280
     0
102
RTVSPost2010PropOp33
 70
     0
102
RTVSPost2010Prop34
280
     0
102
RTVSPost2010PropOp34
 70
     0
102
RTVSPost2010Prop35
280
     0
102
RTVSPost2010PropOp35
 70
     0
102
RTVSPost2010Prop36
280
     0
102
RTVSPost2010PropOp36
 70
     0
102
RTVSPost2010Prop37
 90
       50
102
RTVSPost2010PropOp37
 70
     0
102
RTVSPost2010Prop38
140
0.0
102
RTVSPost2010PropOp38
 70
     0
102
RTVSPost2010Prop39
140
1.0
102
RTVSPost2010PropOp39
 70
     0
102
RTVSPost2010Prop40
 90
        0
102
RTVSPost2010PropOp40
 70
     0
102
RTVSPost2010Prop41ColorIndex
 90
       18
102
RTVSPost2010Prop41ColorRGB
 90
        0
102
RTVSPost2010PropOp41
 70
     0
102
RTVSPost2010Prop42
 90
       50
102
RTVSPost2010PropOp42
 70
     0
102
RTVSPost2010Prop43
 90
        3
102
RTVSPost2010PropOp43
 70
     0
102
RTVSPost2010Prop44ColorIndex
 90
        5
102
RTVSPost2010Prop44ColorRGB
 90
      255
102
RTVSPost2010PropOp44
 70
     0
102
RTVSPost2010Prop45
280
     0
102
RTVSPost2010PropOp45
 70
     0
102
RTVSPost2010Prop46
 90
       50
102
RTVSPost2010PropOp46
 70
     0
102
RTVSPost2010Prop47
 90
       50
102
RTVSPost2010PropOp47
 70
     0
102
RTVSPost2010Prop48
 90
       50
102
RTVSPost2010PropOp48
 70
     0
102
RTVSPost2010Prop49
280
     0
102
RTVSPost2010PropOp49
 70
     0
102
RTVSPost2010Prop50
 90
       50
102
RTVSPost2010PropOp50
 70
     0
102
RTVSPost2010Prop51ColorIndex
 90
      256
102
RTVSPost2010Prop51ColorRGB
 90
-16777216
102
RTVSPost2010PropOp51
 70
     0
102
RTVSPost2010Prop52
140
1.0
102
RTVSPost2010PropOp52
 70
     0
102
RTVSPost2010Prop53
 90
        2
102
RTVSPost2010PropOp53
 70
     0
102
RTVSPost2010Prop54
  1
strokes_ogs.tif
102
RTVSPost2010PropOp54
 70
     0
102
RTVSPost2010Prop55
280
     0
102
RTVSPost2010PropOp55
 70
     0
102
RTVSPost2010Prop56
140
1.0
102
RTVSPost2010PropOp56
 70
     0
102
RTVSPost2010Prop57
140
1.0
102
RTVSPost2010PropOp57
 70
     0
  0
XRECORD
  5
1C7
102
{ACAD_REACTORS
330
1C6
102
}
330
1C6
100
AcDbXrecord
280
     1
102
RTVSPropertyOp0
 70
     1
102
RTVSPropertyOp1
 70
     1
102
RTVSPropertyOp2
 70
     1
102
RTVSPropertyOp3
 70
     1
102
RTVSPropertyOp4
 70
     1
102
RTVSPropertyOp5
 70
     1
102
RTVSPropertyOp6
 70
     1
102
RTVSPropertyOp7
 70
     1
102
RTVSPropertyOp8
 70
     1
102
RTVSPropertyOp9
 70
     1
102
RTVSPropertyOp10
 70
     1
102
RTVSPropertyOp11
 70
     1
102
RTVSPropertyOp12
 70
     1
102
RTVSPropertyOp13
 70
     1
102
RTVSPropertyOp14
 70
     1
102
RTVSPropertyOp15
 70
     1
102
RTVSPropertyOp16
 70
     1
102
RTVSPropertyOp17
 70
     1
102
RTVSPropertyOp18
 70
     1
102
RTVSPropertyOp19
 70
     1
102
RTVSPropertyOp20
 70
     1
102
RTVSPropertyOp21
 70
     1
102
RTVSPropertyOp22
 70
     1
102
RTVSPropertyOp23
 70
     1
102
RTVSPropertyOp24
 70
     1
102
RTVSPropertyOp25
 70
     1
102
RTVSPropertyOp26
 70
     1
102
RTVSPropertyOp27
 70
     1
102
RTVSPropertyOp28
 70
     1
102
RTVSPropertyOp29
 70
     1
102
RTVSPropertyOp30
 70
     1
102
RTVSPropertyOp31
 70
     1
102
RTVSPropertyOp32
 70
     1
102
RTVSPropertyOp33
 70
     1
102
RTVSPropertyOp34
 70
     1
102
RTVSPropertyOp35
 70
     1
102
RTVSPropertyOp36
 70
     1
102
RTVSPropertyOp37
 70
     1
102
RTVSPropertyOp38
 70
     1
102
RTVSPropertyOp39
 70
     1
102
RTVSPropertyOp40
 70
     1
102
RTVSPropertyOp41
 70
     1
102
RTVSPropertyOp42
 70
     1
102
RTVSPropertyOp43
 70
     1
102
RTVSPropertyOp44
 70
     1
102
RTVSPropertyOp45
 70
     1
102
RTVSPropertyOp46
 70
     1
102
RTVSPropertyOp47
 70
     1
102
RTVSPropertyOp48
 70
     1
102
RTVSPropertyOp49
 70
     1
102
RTVSPropertyOp50
 70
     1
102
RTVSPropertyOp51
 70
     0
102
RTVSPropertyOp52
 70
     0
102
RTVSPropertyOp53
 70
     1
102
RTVSPropertyOp54
 70
     1
102
RTVSPropertyOp55
 70
     1
102
RTVSPropertyOp56
 70
     1
102
RTVSPropertyOp57
 70
     1
102
RTVSPost2010Prop28
280
     0
102
RTVSPost2010PropOp28
 70
     1
102
RTVSPost2010Prop29
280
     1
102
RTVSPost2010PropOp29
 70
     1
102
RTVSPost2010Prop30
280
     1
102
RTVSPost2010PropOp30
 70
     1
102
RTVSPost2010Prop31
280
     0
102
RTVSPost2010PropOp31
 70
     1
102
RTVSPost2010Prop32
280
     0
102
RTVSPost2010PropOp32
 70
     1
102
RTVSPost2010Prop33
280
     0
102
RTVSPost2010PropOp33
 70
     1
102
RTVSPost2010Prop34
280
     0
102
RTVSPost2010PropOp34
 70
     1
102
RTVSPost2010Prop35
280
     0
102
RTVSPost2010PropOp35
 70
     1
102
RTVSPost2010Prop36
280
     0
102
RTVSPost2010PropOp36
 70
     1
102
RTVSPost2010Prop37
 90
       50
102
RTVSPost2010PropOp37
 70
     1
102
RTVSPost2010Prop38
140
0.0
102
RTVSPost2010PropOp38
 70
     1
102
RTVSPost2010Prop39
140
1.0
102
RTVSPost2010PropOp39
 70
     1
102
RTVSPost2010Prop40
 90
        0
102
RTVSPost2010PropOp40
 70
     1
102
RTVSPost2010Prop41ColorIndex
 90
       18
102
RTVSPost2010Prop41ColorRGB
 90
        0
102
RTVSPost2010PropOp41
 70
     1
102
RTVSPost2010Prop42
 90
       50
102
RTVSPost2010PropOp42
 70
     1
102
RTVSPost2010Prop43
 90
        3
102
RTVSPost2010PropOp43
 70
     1
102
RTVSPost2010Prop44ColorIndex
 90
        5
102
RTVSPost2010Prop44ColorRGB
 90
      255
102
RTVSPost2010PropOp44
 70
     1
102
RTVSPost2010Prop45
280
     0
102
RTVSPost2010PropOp45
 70
     1
102
RTVSPost2010Prop46
 90
       50
102
RTVSPost2010PropOp46
 70
     1
102
RTVSPost2010Prop47
 90
       50
102
RTVSPost2010PropOp47
 70
     1
102
RTVSPost2010Prop48
 90
       50
102
RTVSPost2010PropOp48
 70
     1
102
RTVSPost2010Prop49
280
     0
102
RTVSPost2010PropOp49
 70
     1
102
RTVSPost2010Prop50
 90
       50
102
RTVSPost2010PropOp50
 70
     1
102
RTVSPost2010Prop51ColorIndex
 90
      256
102
RTVSPost2010Prop51ColorRGB
 90
-16777216
102
RTVSPost2010PropOp51
 70
     0
102
RTVSPost2010Prop52
140
1.0
102
RTVSPost2010PropOp52
 70
     0
102
RTVSPost2010Prop53
 90
        2
102
RTVSPost2010PropOp53
 70
     1
102
RTVSPost2010Prop54
  1
strokes_ogs.tif
102
RTVSPost2010PropOp54
 70
     1
102
RTVSPost2010Prop55
280
     0
102
RTVSPost2010PropOp55
 70
     1
102
RTVSPost2010Prop56
140
1.0
102
RTVSPost2010PropOp56
 70
     1
102
RTVSPost2010Prop57
140
1.0
102
RTVSPost2010PropOp57
 70
     1
  0
XRECORD
  5
1AB
102
{ACAD_REACTORS
330
1AA
102
}
330
1AA
100
AcDbXrecord
280
     1
102
RTVSPropertyOp0
 70
     1
102
RTVSPropertyOp1
 70
     1
102
RTVSPropertyOp2
 70
     1
102
RTVSPropertyOp3
 70
     1
102
RTVSPropertyOp4
 70
     1
102
RTVSPropertyOp5
 70
     1
102
RTVSPropertyOp6
 70
     1
102
RTVSPropertyOp7
 70
     1
102
RTVSPropertyOp8
 70
     1
102
RTVSPropertyOp9
 70
     1
102
RTVSPropertyOp10
 70
     1
102
RTVSPropertyOp11
 70
     1
102
RTVSPropertyOp12
 70
     1
102
RTVSPropertyOp13
 70
     1
102
RTVSPropertyOp14
 70
     1
102
RTVSPropertyOp15
 70
     1
102
RTVSPropertyOp16
 70
     1
102
RTVSPropertyOp17
 70
     1
102
RTVSPropertyOp18
 70
     1
102
RTVSPropertyOp19
 70
     1
102
RTVSPropertyOp20
 70
     1
102
RTVSPropertyOp21
 70
     1
102
RTVSPropertyOp22
 70
     1
102
RTVSPropertyOp23
 70
     1
102
RTVSPropertyOp24
 70
     1
102
RTVSPropertyOp25
 70
     1
102
RTVSPropertyOp26
 70
     1
102
RTVSPropertyOp27
 70
     1
102
RTVSPropertyOp28
 70
     1
102
RTVSPropertyOp29
 70
     1
102
RTVSPropertyOp30
 70
     1
102
RTVSPropertyOp31
 70
     1
102
RTVSPropertyOp32
 70
     1
102
RTVSPropertyOp33
 70
     1
102
RTVSPropertyOp34
 70
     1
102
RTVSPropertyOp35
 70
     1
102
RTVSPropertyOp36
 70
     1
102
RTVSPropertyOp37
 70
     1
102
RTVSPropertyOp38
 70
     1
102
RTVSPropertyOp39
 70
     1
102
RTVSPropertyOp40
 70
     1
102
RTVSPropertyOp41
 70
     1
102
RTVSPropertyOp42
 70
     1
102
RTVSPropertyOp43
 70
     1
102
RTVSPropertyOp44
 70
     1
102
RTVSPropertyOp45
 70
     1
102
RTVSPropertyOp46
 70
     1
102
RTVSPropertyOp47
 70
     1
102
RTVSPropertyOp48
 70
     1
102
RTVSPropertyOp49
 70
     1
102
RTVSPropertyOp50
 70
     1
102
RTVSPropertyOp51
 70
     0
102
RTVSPropertyOp52
 70
     0
102
RTVSPropertyOp53
 70
     1
102
RTVSPropertyOp54
 70
     1
102
RTVSPropertyOp55
 70
     1
102
RTVSPropertyOp56
 70
     1
102
RTVSPropertyOp57
 70
     1
102
RTVSPost2010Prop28
280
     0
102
RTVSPost2010PropOp28
 70
     1
102
RTVSPost2010Prop29
280
     1
102
RTVSPost2010PropOp29
 70
     1
102
RTVSPost2010Prop30
280
     1
102
RTVSPost2010PropOp30
 70
     1
102
RTVSPost2010Prop31
280
     0
102
RTVSPost2010PropOp31
 70
     1
102
RTVSPost2010Prop32
280
     0
102
RTVSPost2010PropOp32
 70
     1
102
RTVSPost2010Prop33
280
     0
102
RTVSPost2010PropOp33
 70
     1
102
RTVSPost2010Prop34
280
     0
102
RTVSPost2010PropOp34
 70
     1
102
RTVSPost2010Prop35
280
     0
102
RTVSPost2010PropOp35
 70
     1
102
RTVSPost2010Prop36
280
     0
102
RTVSPost2010PropOp36
 70
     1
102
RTVSPost2010Prop37
 90
       50
102
RTVSPost2010PropOp37
 70
     1
102
RTVSPost2010Prop38
140
0.0
102
RTVSPost2010PropOp38
 70
     1
102
RTVSPost2010Prop39
140
1.0
102
RTVSPost2010PropOp39
 70
     1
102
RTVSPost2010Prop40
 90
        0
102
RTVSPost2010PropOp40
 70
     1
102
RTVSPost2010Prop41ColorIndex
 90
       18
102
RTVSPost2010Prop41ColorRGB
 90
        0
102
RTVSPost2010PropOp41
 70
     1
102
RTVSPost2010Prop42
 90
       50
102
RTVSPost2010PropOp42
 70
     1
102
RTVSPost2010Prop43
 90
        3
102
RTVSPost2010PropOp43
 70
     1
102
RTVSPost2010Prop44ColorIndex
 90
        5
102
RTVSPost2010Prop44ColorRGB
 90
      255
102
RTVSPost2010PropOp44
 70
     1
102
RTVSPost2010Prop45
280
     0
102
RTVSPost2010PropOp45
 70
     1
102
RTVSPost2010Prop46
 90
       50
102
RTVSPost2010PropOp46
 70
     1
102
RTVSPost2010Prop47
 90
       50
102
RTVSPost2010PropOp47
 70
     1
102
RTVSPost2010Prop48
 90
       50
102
RTVSPost2010PropOp48
 70
     1
102
RTVSPost2010Prop49
280
     0
102
RTVSPost2010PropOp49
 70
     1
102
RTVSPost2010Prop50
 90
       50
102
RTVSPost2010PropOp50
 70
     1
102
RTVSPost2010Prop51ColorIndex
 90
      256
102
RTVSPost2010Prop51ColorRGB
 90
-16777216
102
RTVSPost2010PropOp51
 70
     0
102
RTVSPost2010Prop52
140
1.0
102
RTVSPost2010PropOp52
 70
     0
102
RTVSPost2010Prop53
 90
        2
102
RTVSPost2010PropOp53
 70
     1
102
RTVSPost2010Prop54
  1
strokes_ogs.tif
102
RTVSPost2010PropOp54
 70
     1
102
RTVSPost2010Prop55
280
     0
102
RTVSPost2010PropOp55
 70
     1
102
RTVSPost2010Prop56
140
1.0
102
RTVSPost2010PropOp56
 70
     1
102
RTVSPost2010Prop57
140
1.0
102
RTVSPost2010PropOp57
 70
     1
  0
XRECORD
  5
1AD
102
{ACAD_REACTORS
330
1AC
102
}
330
1AC
100
AcDbXrecord
280
     1
102
RTVSPropertyOp0
 70
     1
102
RTVSPropertyOp1
 70
     1
102
RTVSPropertyOp2
 70
     1
102
RTVSPropertyOp3
 70
     1
102
RTVSPropertyOp4
 70
     1
102
RTVSPropertyOp5
 70
     1
102
RTVSPropertyOp6
 70
     1
102
RTVSPropertyOp7
 70
     1
102
RTVSPropertyOp8
 70
     1
102
RTVSPropertyOp9
 70
     1
102
RTVSPropertyOp10
 70
     1
102
RTVSPropertyOp11
 70
     1
102
RTVSPropertyOp12
 70
     1
102
RTVSPropertyOp13
 70
     1
102
RTVSPropertyOp14
 70
     1
102
RTVSPropertyOp15
 70
     1
102
RTVSPropertyOp16
 70
     1
102
RTVSPropertyOp17
 70
     1
102
RTVSPropertyOp18
 70
     1
102
RTVSPropertyOp19
 70
     1
102
RTVSPropertyOp20
 70
     1
102
RTVSPropertyOp21
 70
     1
102
RTVSPropertyOp22
 70
     1
102
RTVSPropertyOp23
 70
     1
102
RTVSPropertyOp24
 70
     1
102
RTVSPropertyOp25
 70
     1
102
RTVSPropertyOp26
 70
     1
102
RTVSPropertyOp27
 70
     1
102
RTVSPropertyOp28
 70
     1
102
RTVSPropertyOp29
 70
     1
102
RTVSPropertyOp30
 70
     1
102
RTVSPropertyOp31
 70
     1
102
RTVSPropertyOp32
 70
     1
102
RTVSPropertyOp33
 70
     1
102
RTVSPropertyOp34
 70
     1
102
RTVSPropertyOp35
 70
     1
102
RTVSPropertyOp36
 70
     1
102
RTVSPropertyOp37
 70
     1
102
RTVSPropertyOp38
 70
     1
102
RTVSPropertyOp39
 70
     1
102
RTVSPropertyOp40
 70
     1
102
RTVSPropertyOp41
 70
     1
102
RTVSPropertyOp42
 70
     1
102
RTVSPropertyOp43
 70
     1
102
RTVSPropertyOp44
 70
     1
102
RTVSPropertyOp45
 70
     1
102
RTVSPropertyOp46
 70
     1
102
RTVSPropertyOp47
 70
     1
102
RTVSPropertyOp48
 70
     1
102
RTVSPropertyOp49
 70
     1
102
RTVSPropertyOp50
 70
     1
102
RTVSPropertyOp51
 70
     0
102
RTVSPropertyOp52
 70
     0
102
RTVSPropertyOp53
 70
     1
102
RTVSPropertyOp54
 70
     1
102
RTVSPropertyOp55
 70
     1
102
RTVSPropertyOp56
 70
     1
102
RTVSPropertyOp57
 70
     1
102
RTVSPost2010Prop28
280
     0
102
RTVSPost2010PropOp28
 70
     1
102
RTVSPost2010Prop29
280
     1
102
RTVSPost2010PropOp29
 70
     1
102
RTVSPost2010Prop30
280
     1
102
RTVSPost2010PropOp30
 70
     1
102
RTVSPost2010Prop31
280
     0
102
RTVSPost2010PropOp31
 70
     1
102
RTVSPost2010Prop32
280
     0
102
RTVSPost2010PropOp32
 70
     1
102
RTVSPost2010Prop33
280
     0
102
RTVSPost2010PropOp33
 70
     1
102
RTVSPost2010Prop34
280
     0
102
RTVSPost2010PropOp34
 70
     1
102
RTVSPost2010Prop35
280
     0
102
RTVSPost2010PropOp35
 70
     1
102
RTVSPost2010Prop36
280
     0
102
RTVSPost2010PropOp36
 70
     1
102
RTVSPost2010Prop37
 90
       50
102
RTVSPost2010PropOp37
 70
     1
102
RTVSPost2010Prop38
140
0.0
102
RTVSPost2010PropOp38
 70
     1
102
RTVSPost2010Prop39
140
1.0
102
RTVSPost2010PropOp39
 70
     1
102
RTVSPost2010Prop40
 90
        0
102
RTVSPost2010PropOp40
 70
     1
102
RTVSPost2010Prop41ColorIndex
 90
       18
102
RTVSPost2010Prop41ColorRGB
 90
        0
102
RTVSPost2010PropOp41
 70
     1
102
RTVSPost2010Prop42
 90
       50
102
RTVSPost2010PropOp42
 70
     1
102
RTVSPost2010Prop43
 90
        3
102
RTVSPost2010PropOp43
 70
     1
102
RTVSPost2010Prop44ColorIndex
 90
        5
102
RTVSPost2010Prop44ColorRGB
 90
      255
102
RTVSPost2010PropOp44
 70
     1
102
RTVSPost2010Prop45
280
     0
102
RTVSPost2010PropOp45
 70
     1
102
RTVSPost2010Prop46
 90
       50
102
RTVSPost2010PropOp46
 70
     1
102
RTVSPost2010Prop47
 90
       50
102
RTVSPost2010PropOp47
 70
     1
102
RTVSPost2010Prop48
 90
       50
102
RTVSPost2010PropOp48
 70
     1
102
RTVSPost2010Prop49
280
     0
102
RTVSPost2010PropOp49
 70
     1
102
RTVSPost2010Prop50
 90
       50
102
RTVSPost2010PropOp50
 70
     1
102
RTVSPost2010Prop51ColorIndex
 90
      256
102
RTVSPost2010Prop51ColorRGB
 90
-16777216
102
RTVSPost2010PropOp51
 70
     0
102
RTVSPost2010Prop52
140
1.0
102
RTVSPost2010PropOp52
 70
     0
102
RTVSPost2010Prop53
 90
        2
102
RTVSPost2010PropOp53
 70
     1
102
RTVSPost2010Prop54
  1
strokes_ogs.tif
102
RTVSPost2010PropOp54
 70
     1
102
RTVSPost2010Prop55
280
     0
102
RTVSPost2010PropOp55
 70
     1
102
RTVSPost2010Prop56
140
1.0
102
RTVSPost2010PropOp56
 70
     1
102
RTVSPost2010Prop57
140
1.0
102
RTVSPost2010PropOp57
 70
     1
  0
XRECORD
  5
1AF
102
{ACAD_REACTORS
330
1AE
102
}
330
1AE
100
AcDbXrecord
280
     1
102
RTVSPropertyOp0
 70
     1
102
RTVSPropertyOp1
 70
     1
102
RTVSPropertyOp2
 70
     1
102
RTVSPropertyOp3
 70
     1
102
RTVSPropertyOp4
 70
     1
102
RTVSPropertyOp5
 70
     1
102
RTVSPropertyOp6
 70
     1
102
RTVSPropertyOp7
 70
     1
102
RTVSPropertyOp8
 70
     1
102
RTVSPropertyOp9
 70
     1
102
RTVSPropertyOp10
 70
     1
102
RTVSPropertyOp11
 70
     1
102
RTVSPropertyOp12
 70
     1
102
RTVSPropertyOp13
 70
     1
102
RTVSPropertyOp14
 70
     1
102
RTVSPropertyOp15
 70
     1
102
RTVSPropertyOp16
 70
     1
102
RTVSPropertyOp17
 70
     1
102
RTVSPropertyOp18
 70
     1
102
RTVSPropertyOp19
 70
     1
102
RTVSPropertyOp20
 70
     1
102
RTVSPropertyOp21
 70
     1
102
RTVSPropertyOp22
 70
     1
102
RTVSPropertyOp23
 70
     1
102
RTVSPropertyOp24
 70
     1
102
RTVSPropertyOp25
 70
     1
102
RTVSPropertyOp26
 70
     1
102
RTVSPropertyOp27
 70
     1
102
RTVSPropertyOp28
 70
     1
102
RTVSPropertyOp29
 70
     1
102
RTVSPropertyOp30
 70
     1
102
RTVSPropertyOp31
 70
     1
102
RTVSPropertyOp32
 70
     1
102
RTVSPropertyOp33
 70
     1
102
RTVSPropertyOp34
 70
     1
102
RTVSPropertyOp35
 70
     1
102
RTVSPropertyOp36
 70
     1
102
RTVSPropertyOp37
 70
     1
102
RTVSPropertyOp38
 70
     1
102
RTVSPropertyOp39
 70
     1
102
RTVSPropertyOp40
 70
     1
102
RTVSPropertyOp41
 70
     1
102
RTVSPropertyOp42
 70
     1
102
RTVSPropertyOp43
 70
     1
102
RTVSPropertyOp44
 70
     1
102
RTVSPropertyOp45
 70
     1
102
RTVSPropertyOp46
 70
     1
102
RTVSPropertyOp47
 70
     1
102
RTVSPropertyOp48
 70
     1
102
RTVSPropertyOp49
 70
     1
102
RTVSPropertyOp50
 70
     1
102
RTVSPropertyOp51
 70
     0
102
RTVSPropertyOp52
 70
     0
102
RTVSPropertyOp53
 70
     1
102
RTVSPropertyOp54
 70
     1
102
RTVSPropertyOp55
 70
     1
102
RTVSPropertyOp56
 70
     1
102
RTVSPropertyOp57
 70
     1
102
RTVSPost2010Prop28
280
     0
102
RTVSPost2010PropOp28
 70
     1
102
RTVSPost2010Prop29
280
     1
102
RTVSPost2010PropOp29
 70
     1
102
RTVSPost2010Prop30
280
     1
102
RTVSPost2010PropOp30
 70
     1
102
RTVSPost2010Prop31
280
     0
102
RTVSPost2010PropOp31
 70
     1
102
RTVSPost2010Prop32
280
     0
102
RTVSPost2010PropOp32
 70
     1
102
RTVSPost2010Prop33
280
     0
102
RTVSPost2010PropOp33
 70
     1
102
RTVSPost2010Prop34
280
     0
102
RTVSPost2010PropOp34
 70
     1
102
RTVSPost2010Prop35
280
     0
102
RTVSPost2010PropOp35
 70
     1
102
RTVSPost2010Prop36
280
     0
102
RTVSPost2010PropOp36
 70
     1
102
RTVSPost2010Prop37
 90
       50
102
RTVSPost2010PropOp37
 70
     1
102
RTVSPost2010Prop38
140
0.0
102
RTVSPost2010PropOp38
 70
     1
102
RTVSPost2010Prop39
140
1.0
102
RTVSPost2010PropOp39
 70
     1
102
RTVSPost2010Prop40
 90
        0
102
RTVSPost2010PropOp40
 70
     1
102
RTVSPost2010Prop41ColorIndex
 90
       18
102
RTVSPost2010Prop41ColorRGB
 90
        0
102
RTVSPost2010PropOp41
 70
     1
102
RTVSPost2010Prop42
 90
       50
102
RTVSPost2010PropOp42
 70
     1
102
RTVSPost2010Prop43
 90
        3
102
RTVSPost2010PropOp43
 70
     1
102
RTVSPost2010Prop44ColorIndex
 90
        5
102
RTVSPost2010Prop44ColorRGB
 90
      255
102
RTVSPost2010PropOp44
 70
     1
102
RTVSPost2010Prop45
280
     0
102
RTVSPost2010PropOp45
 70
     1
102
RTVSPost2010Prop46
 90
       50
102
RTVSPost2010PropOp46
 70
     1
102
RTVSPost2010Prop47
 90
       50
102
RTVSPost2010PropOp47
 70
     1
102
RTVSPost2010Prop48
 90
       50
102
RTVSPost2010PropOp48
 70
     1
102
RTVSPost2010Prop49
280
     0
102
RTVSPost2010PropOp49
 70
     1
102
RTVSPost2010Prop50
 90
       50
102
RTVSPost2010PropOp50
 70
     1
102
RTVSPost2010Prop51ColorIndex
 90
      256
102
RTVSPost2010Prop51ColorRGB
 90
-16777216
102
RTVSPost2010PropOp51
 70
     0
102
RTVSPost2010Prop52
140
1.0
102
RTVSPost2010PropOp52
 70
     0
102
RTVSPost2010Prop53
 90
        2
102
RTVSPost2010PropOp53
 70
     1
102
RTVSPost2010Prop54
  1
strokes_ogs.tif
102
RTVSPost2010PropOp54
 70
     1
102
RTVSPost2010Prop55
280
     0
102
RTVSPost2010PropOp55
 70
     1
102
RTVSPost2010Prop56
140
1.0
102
RTVSPost2010PropOp56
 70
     1
102
RTVSPost2010Prop57
140
1.0
102
RTVSPost2010PropOp57
 70
     1
  0
XRECORD
  5
1B1
102
{ACAD_REACTORS
330
1B0
102
}
330
1B0
100
AcDbXrecord
280
     1
102
RTVSPropertyOp0
 70
     1
102
RTVSPropertyOp1
 70
     1
102
RTVSPropertyOp2
 70
     1
102
RTVSPropertyOp3
 70
     1
102
RTVSPropertyOp4
 70
     1
102
RTVSPropertyOp5
 70
     1
102
RTVSPropertyOp6
 70
     1
102
RTVSPropertyOp7
 70
     1
102
RTVSPropertyOp8
 70
     1
102
RTVSPropertyOp9
 70
     1
102
RTVSPropertyOp10
 70
     1
102
RTVSPropertyOp11
 70
     1
102
RTVSPropertyOp12
 70
     1
102
RTVSPropertyOp13
 70
     1
102
RTVSPropertyOp14
 70
     1
102
RTVSPropertyOp15
 70
     1
102
RTVSPropertyOp16
 70
     1
102
RTVSPropertyOp17
 70
     1
102
RTVSPropertyOp18
 70
     1
102
RTVSPropertyOp19
 70
     1
102
RTVSPropertyOp20
 70
     1
102
RTVSPropertyOp21
 70
     1
102
RTVSPropertyOp22
 70
     1
102
RTVSPropertyOp23
 70
     1
102
RTVSPropertyOp24
 70
     1
102
RTVSPropertyOp25
 70
     1
102
RTVSPropertyOp26
 70
     1
102
RTVSPropertyOp27
 70
     1
102
RTVSPropertyOp28
 70
     1
102
RTVSPropertyOp29
 70
     1
102
RTVSPropertyOp30
 70
     1
102
RTVSPropertyOp31
 70
     1
102
RTVSPropertyOp32
 70
     1
102
RTVSPropertyOp33
 70
     1
102
RTVSPropertyOp34
 70
     1
102
RTVSPropertyOp35
 70
     1
102
RTVSPropertyOp36
 70
     1
102
RTVSPropertyOp37
 70
     1
102
RTVSPropertyOp38
 70
     1
102
RTVSPropertyOp39
 70
     1
102
RTVSPropertyOp40
 70
     1
102
RTVSPropertyOp41
 70
     1
102
RTVSPropertyOp42
 70
     1
102
RTVSPropertyOp43
 70
     1
102
RTVSPropertyOp44
 70
     1
102
RTVSPropertyOp45
 70
     1
102
RTVSPropertyOp46
 70
     1
102
RTVSPropertyOp47
 70
     1
102
RTVSPropertyOp48
 70
     1
102
RTVSPropertyOp49
 70
     1
102
RTVSPropertyOp50
 70
     1
102
RTVSPropertyOp51
 70
     0
102
RTVSPropertyOp52
 70
     0
102
RTVSPropertyOp53
 70
     1
102
RTVSPropertyOp54
 70
     1
102
RTVSPropertyOp55
 70
     1
102
RTVSPropertyOp56
 70
     1
102
RTVSPropertyOp57
 70
     1
102
RTVSPost2010Prop28
280
     0
102
RTVSPost2010PropOp28
 70
     1
102
RTVSPost2010Prop29
280
     1
102
RTVSPost2010PropOp29
 70
     1
102
RTVSPost2010Prop30
280
     1
102
RTVSPost2010PropOp30
 70
     1
102
RTVSPost2010Prop31
280
     0
102
RTVSPost2010PropOp31
 70
     1
102
RTVSPost2010Prop32
280
     0
102
RTVSPost2010PropOp32
 70
     1
102
RTVSPost2010Prop33
280
     0
102
RTVSPost2010PropOp33
 70
     1
102
RTVSPost2010Prop34
280
     0
102
RTVSPost2010PropOp34
 70
     1
102
RTVSPost2010Prop35
280
     0
102
RTVSPost2010PropOp35
 70
     1
102
RTVSPost2010Prop36
280
     0
102
RTVSPost2010PropOp36
 70
     1
102
RTVSPost2010Prop37
 90
       50
102
RTVSPost2010PropOp37
 70
     1
102
RTVSPost2010Prop38
140
0.0
102
RTVSPost2010PropOp38
 70
     1
102
RTVSPost2010Prop39
140
1.0
102
RTVSPost2010PropOp39
 70
     1
102
RTVSPost2010Prop40
 90
        0
102
RTVSPost2010PropOp40
 70
     1
102
RTVSPost2010Prop41ColorIndex
 90
       18
102
RTVSPost2010Prop41ColorRGB
 90
        0
102
RTVSPost2010PropOp41
 70
     1
102
RTVSPost2010Prop42
 90
       50
102
RTVSPost2010PropOp42
 70
     1
102
RTVSPost2010Prop43
 90
        3
102
RTVSPost2010PropOp43
 70
     1
102
RTVSPost2010Prop44ColorIndex
 90
        5
102
RTVSPost2010Prop44ColorRGB
 90
      255
102
RTVSPost2010PropOp44
 70
     1
102
RTVSPost2010Prop45
280
     0
102
RTVSPost2010PropOp45
 70
     1
102
RTVSPost2010Prop46
 90
       50
102
RTVSPost2010PropOp46
 70
     1
102
RTVSPost2010Prop47
 90
       50
102
RTVSPost2010PropOp47
 70
     1
102
RTVSPost2010Prop48
 90
       50
102
RTVSPost2010PropOp48
 70
     1
102
RTVSPost2010Prop49
280
     0
102
RTVSPost2010PropOp49
 70
     1
102
RTVSPost2010Prop50
 90
       50
102
RTVSPost2010PropOp50
 70
     1
102
RTVSPost2010Prop51ColorIndex
 90
      256
102
RTVSPost2010Prop51ColorRGB
 90
-16777216
102
RTVSPost2010PropOp51
 70
     0
102
RTVSPost2010Prop52
140
1.0
102
RTVSPost2010PropOp52
 70
     0
102
RTVSPost2010Prop53
 90
        2
102
RTVSPost2010PropOp53
 70
     1
102
RTVSPost2010Prop54
  1
strokes_ogs.tif
102
RTVSPost2010PropOp54
 70
     1
102
RTVSPost2010Prop55
280
     0
102
RTVSPost2010PropOp55
 70
     1
102
RTVSPost2010Prop56
140
1.0
102
RTVSPost2010PropOp56
 70
     1
102
RTVSPost2010Prop57
140
1.0
102
RTVSPost2010PropOp57
 70
     1
  0
XRECORD
  5
1B7
102
{ACAD_REACTORS
330
1B6
102
}
330
1B6
100
AcDbXrecord
280
     1
102
RTVSPropertyOp0
 70
     1
102
RTVSPropertyOp1
 70
     1
102
RTVSPropertyOp2
 70
     1
102
RTVSPropertyOp3
 70
     1
102
RTVSPropertyOp4
 70
     1
102
RTVSPropertyOp5
 70
     1
102
RTVSPropertyOp6
 70
     1
102
RTVSPropertyOp7
 70
     1
102
RTVSPropertyOp8
 70
     1
102
RTVSPropertyOp9
 70
     1
102
RTVSPropertyOp10
 70
     1
102
RTVSPropertyOp11
 70
     1
102
RTVSPropertyOp12
 70
     1
102
RTVSPropertyOp13
 70
     1
102
RTVSPropertyOp14
 70
     1
102
RTVSPropertyOp15
 70
     1
102
RTVSPropertyOp16
 70
     1
102
RTVSPropertyOp17
 70
     1
102
RTVSPropertyOp18
 70
     1
102
RTVSPropertyOp19
 70
     1
102
RTVSPropertyOp20
 70
     1
102
RTVSPropertyOp21
 70
     1
102
RTVSPropertyOp22
 70
     1
102
RTVSPropertyOp23
 70
     1
102
RTVSPropertyOp24
 70
     1
102
RTVSPropertyOp25
 70
     1
102
RTVSPropertyOp26
 70
     1
102
RTVSPropertyOp27
 70
     1
102
RTVSPropertyOp28
 70
     1
102
RTVSPropertyOp29
 70
     1
102
RTVSPropertyOp30
 70
     1
102
RTVSPropertyOp31
 70
     1
102
RTVSPropertyOp32
 70
     1
102
RTVSPropertyOp33
 70
     1
102
RTVSPropertyOp34
 70
     1
102
RTVSPropertyOp35
 70
     1
102
RTVSPropertyOp36
 70
     1
102
RTVSPropertyOp37
 70
     1
102
RTVSPropertyOp38
 70
     1
102
RTVSPropertyOp39
 70
     1
102
RTVSPropertyOp40
 70
     1
102
RTVSPropertyOp41
 70
     1
102
RTVSPropertyOp42
 70
     1
102
RTVSPropertyOp43
 70
     1
102
RTVSPropertyOp44
 70
     1
102
RTVSPropertyOp45
 70
     1
102
RTVSPropertyOp46
 70
     1
102
RTVSPropertyOp47
 70
     1
102
RTVSPropertyOp48
 70
     1
102
RTVSPropertyOp49
 70
     1
102
RTVSPropertyOp50
 70
     1
102
RTVSPropertyOp51
 70
     0
102
RTVSPropertyOp52
 70
     0
102
RTVSPropertyOp53
 70
     1
102
RTVSPropertyOp54
 70
     1
102
RTVSPropertyOp55
 70
     1
102
RTVSPropertyOp56
 70
     1
102
RTVSPropertyOp57
 70
     1
102
RTVSPost2010Prop28
280
     0
102
RTVSPost2010PropOp28
 70
     1
102
RTVSPost2010Prop29
280
     1
102
RTVSPost2010PropOp29
 70
     1
102
RTVSPost2010Prop30
280
     1
102
RTVSPost2010PropOp30
 70
     1
102
RTVSPost2010Prop31
280
     0
102
RTVSPost2010PropOp31
 70
     1
102
RTVSPost2010Prop32
280
     0
102
RTVSPost2010PropOp32
 70
     1
102
RTVSPost2010Prop33
280
     0
102
RTVSPost2010PropOp33
 70
     1
102
RTVSPost2010Prop34
280
     0
102
RTVSPost2010PropOp34
 70
     1
102
RTVSPost2010Prop35
280
     0
102
RTVSPost2010PropOp35
 70
     1
102
RTVSPost2010Prop36
280
     0
102
RTVSPost2010PropOp36
 70
     1
102
RTVSPost2010Prop37
 90
       50
102
RTVSPost2010PropOp37
 70
     1
102
RTVSPost2010Prop38
140
0.0
102
RTVSPost2010PropOp38
 70
     1
102
RTVSPost2010Prop39
140
1.0
102
RTVSPost2010PropOp39
 70
     1
102
RTVSPost2010Prop40
 90
        0
102
RTVSPost2010PropOp40
 70
     1
102
RTVSPost2010Prop41ColorIndex
 90
       18
102
RTVSPost2010Prop41ColorRGB
 90
        0
102
RTVSPost2010PropOp41
 70
     1
102
RTVSPost2010Prop42
 90
       50
102
RTVSPost2010PropOp42
 70
     1
102
RTVSPost2010Prop43
 90
        3
102
RTVSPost2010PropOp43
 70
     1
102
RTVSPost2010Prop44ColorIndex
 90
        5
102
RTVSPost2010Prop44ColorRGB
 90
      255
102
RTVSPost2010PropOp44
 70
     1
102
RTVSPost2010Prop45
280
     0
102
RTVSPost2010PropOp45
 70
     1
102
RTVSPost2010Prop46
 90
       50
102
RTVSPost2010PropOp46
 70
     1
102
RTVSPost2010Prop47
 90
       50
102
RTVSPost2010PropOp47
 70
     1
102
RTVSPost2010Prop48
 90
       50
102
RTVSPost2010PropOp48
 70
     1
102
RTVSPost2010Prop49
280
     0
102
RTVSPost2010PropOp49
 70
     1
102
RTVSPost2010Prop50
 90
       50
102
RTVSPost2010PropOp50
 70
     1
102
RTVSPost2010Prop51ColorIndex
 90
      256
102
RTVSPost2010Prop51ColorRGB
 90
-16777216
102
RTVSPost2010PropOp51
 70
     0
102
RTVSPost2010Prop52
140
1.0
102
RTVSPost2010PropOp52
 70
     0
102
RTVSPost2010Prop53
 90
        2
102
RTVSPost2010PropOp53
 70
     1
102
RTVSPost2010Prop54
  1
strokes_ogs.tif
102
RTVSPost2010PropOp54
 70
     1
102
RTVSPost2010Prop55
280
     0
102
RTVSPost2010PropOp55
 70
     1
102
RTVSPost2010Prop56
140
1.0
102
RTVSPost2010PropOp56
 70
     1
102
RTVSPost2010Prop57
140
1.0
102
RTVSPost2010PropOp57
 70
     1
  0
XRECORD
  5
1CB
102
{ACAD_REACTORS
330
1CA
102
}
330
1CA
100
AcDbXrecord
280
     1
102
RTVSPropertyOp0
 70
     0
102
RTVSPropertyOp1
 70
     0
102
RTVSPropertyOp2
 70
     0
102
RTVSPropertyOp3
 70
     0
102
RTVSPropertyOp4
 70
     0
102
RTVSPropertyOp5
 70
     0
102
RTVSPropertyOp6
 70
     0
102
RTVSPropertyOp7
 70
     0
102
RTVSPropertyOp8
 70
     0
102
RTVSPropertyOp9
 70
     0
102
RTVSPropertyOp10
 70
     0
102
RTVSPropertyOp11
 70
     0
102
RTVSPropertyOp12
 70
     0
102
RTVSPropertyOp13
 70
     0
102
RTVSPropertyOp14
 70
     2
102
RTVSPropertyOp15
 70
     0
102
RTVSPropertyOp16
 70
     0
102
RTVSPropertyOp17
 70
     0
102
RTVSPropertyOp18
 70
     0
102
RTVSPropertyOp19
 70
     0
102
RTVSPropertyOp20
 70
     0
102
RTVSPropertyOp21
 70
     0
102
RTVSPropertyOp22
 70
     0
102
RTVSPropertyOp23
 70
     0
102
RTVSPropertyOp24
 70
     0
102
RTVSPropertyOp25
 70
     0
102
RTVSPropertyOp26
 70
     0
102
RTVSPropertyOp27
 70
     0
102
RTVSPropertyOp28
 70
     0
102
RTVSPropertyOp29
 70
     0
102
RTVSPropertyOp30
 70
     0
102
RTVSPropertyOp31
 70
     0
102
RTVSPropertyOp32
 70
     0
102
RTVSPropertyOp33
 70
     0
102
RTVSPropertyOp34
 70
     0
102
RTVSPropertyOp35
 70
     0
102
RTVSPropertyOp36
 70
     0
102
RTVSPropertyOp37
 70
     0
102
RTVSPropertyOp38
 70
     0
102
RTVSPropertyOp39
 70
     0
102
RTVSPropertyOp40
 70
     0
102
RTVSPropertyOp41
 70
     0
102
RTVSPropertyOp42
 70
     0
102
RTVSPropertyOp43
 70
     0
102
RTVSPropertyOp44
 70
     0
102
RTVSPropertyOp45
 70
     0
102
RTVSPropertyOp46
 70
     0
102
RTVSPropertyOp47
 70
     0
102
RTVSPropertyOp48
 70
     0
102
RTVSPropertyOp49
 70
     0
102
RTVSPropertyOp50
 70
     0
102
RTVSPropertyOp51
 70
     0
102
RTVSPropertyOp52
 70
     0
102
RTVSPropertyOp53
 70
     0
102
RTVSPropertyOp54
 70
     0
102
RTVSPropertyOp55
 70
     0
102
RTVSPropertyOp56
 70
     0
102
RTVSPropertyOp57
 70
     0
102
RTVSPost2010Prop28
280
     0
102
RTVSPost2010PropOp28
 70
     0
102
RTVSPost2010Prop29
280
     1
102
RTVSPost2010PropOp29
 70
     0
102
RTVSPost2010Prop30
280
     1
102
RTVSPost2010PropOp30
 70
     0
102
RTVSPost2010Prop31
280
     0
102
RTVSPost2010PropOp31
 70
     0
102
RTVSPost2010Prop32
280
     0
102
RTVSPost2010PropOp32
 70
     0
102
RTVSPost2010Prop33
280
     0
102
RTVSPost2010PropOp33
 70
     0
102
RTVSPost2010Prop34
280
     0
102
RTVSPost2010PropOp34
 70
     0
102
RTVSPost2010Prop35
280
     0
102
RTVSPost2010PropOp35
 70
     0
102
RTVSPost2010Prop36
280
     0
102
RTVSPost2010PropOp36
 70
     0
102
RTVSPost2010Prop37
 90
       50
102
RTVSPost2010PropOp37
 70
     0
102
RTVSPost2010Prop38
140
0.0
102
RTVSPost2010PropOp38
 70
     0
102
RTVSPost2010Prop39
140
1.0
102
RTVSPost2010PropOp39
 70
     0
102
RTVSPost2010Prop40
 90
        0
102
RTVSPost2010PropOp40
 70
     0
102
RTVSPost2010Prop41ColorIndex
 90
       18
102
RTVSPost2010Prop41ColorRGB
 90
        0
102
RTVSPost2010PropOp41
 70
     0
102
RTVSPost2010Prop42
 90
       50
102
RTVSPost2010PropOp42
 70
     0
102
RTVSPost2010Prop43
 90
        3
102
RTVSPost2010PropOp43
 70
     0
102
RTVSPost2010Prop44ColorIndex
 90
        5
102
RTVSPost2010Prop44ColorRGB
 90
      255
102
RTVSPost2010PropOp44
 70
     0
102
RTVSPost2010Prop45
280
     0
102
RTVSPost2010PropOp45
 70
     0
102
RTVSPost2010Prop46
 90
       50
102
RTVSPost2010PropOp46
 70
     0
102
RTVSPost2010Prop47
 90
       50
102
RTVSPost2010PropOp47
 70
     0
102
RTVSPost2010Prop48
 90
       50
102
RTVSPost2010PropOp48
 70
     0
102
RTVSPost2010Prop49
280
     0
102
RTVSPost2010PropOp49
 70
     0
102
RTVSPost2010Prop50
 90
       50
102
RTVSPost2010PropOp50
 70
     0
102
RTVSPost2010Prop51ColorIndex
 90
      256
102
RTVSPost2010Prop51ColorRGB
 90
-16777216
102
RTVSPost2010PropOp51
 70
     0
102
RTVSPost2010Prop52
140
1.0
102
RTVSPost2010PropOp52
 70
     0
102
RTVSPost2010Prop53
 90
        2
102
RTVSPost2010PropOp53
 70
     0
102
RTVSPost2010Prop54
  1
strokes_ogs.tif
102
RTVSPost2010PropOp54
 70
     0
102
RTVSPost2010Prop55
280
     0
102
RTVSPost2010PropOp55
 70
     0
102
RTVSPost2010Prop56
140
1.0
102
RTVSPost2010PropOp56
 70
     0
102
RTVSPost2010Prop57
140
1.0
102
RTVSPost2010PropOp57
 70
     0
  0
XRECORD
  5
1C5
102
{ACAD_REACTORS
330
1C4
102
}
330
1C4
100
AcDbXrecord
280
     1
102
RTVSPropertyOp0
 70
     1
102
RTVSPropertyOp1
 70
     1
102
RTVSPropertyOp2
 70
     1
102
RTVSPropertyOp3
 70
     1
102
RTVSPropertyOp4
 70
     1
102
RTVSPropertyOp5
 70
     1
102
RTVSPropertyOp6
 70
     1
102
RTVSPropertyOp7
 70
     1
102
RTVSPropertyOp8
 70
     1
102
RTVSPropertyOp9
 70
     1
102
RTVSPropertyOp10
 70
     1
102
RTVSPropertyOp11
 70
     1
102
RTVSPropertyOp12
 70
     1
102
RTVSPropertyOp13
 70
     1
102
RTVSPropertyOp14
 70
     1
102
RTVSPropertyOp15
 70
     1
102
RTVSPropertyOp16
 70
     1
102
RTVSPropertyOp17
 70
     1
102
RTVSPropertyOp18
 70
     1
102
RTVSPropertyOp19
 70
     1
102
RTVSPropertyOp20
 70
     1
102
RTVSPropertyOp21
 70
     1
102
RTVSPropertyOp22
 70
     1
102
RTVSPropertyOp23
 70
     1
102
RTVSPropertyOp24
 70
     1
102
RTVSPropertyOp25
 70
     1
102
RTVSPropertyOp26
 70
     1
102
RTVSPropertyOp27
 70
     1
102
RTVSPropertyOp28
 70
     1
102
RTVSPropertyOp29
 70
     1
102
RTVSPropertyOp30
 70
     1
102
RTVSPropertyOp31
 70
     1
102
RTVSPropertyOp32
 70
     1
102
RTVSPropertyOp33
 70
     1
102
RTVSPropertyOp34
 70
     1
102
RTVSPropertyOp35
 70
     1
102
RTVSPropertyOp36
 70
     1
102
RTVSPropertyOp37
 70
     1
102
RTVSPropertyOp38
 70
     1
102
RTVSPropertyOp39
 70
     1
102
RTVSPropertyOp40
 70
     1
102
RTVSPropertyOp41
 70
     1
102
RTVSPropertyOp42
 70
     1
102
RTVSPropertyOp43
 70
     1
102
RTVSPropertyOp44
 70
     1
102
RTVSPropertyOp45
 70
     1
102
RTVSPropertyOp46
 70
     1
102
RTVSPropertyOp47
 70
     1
102
RTVSPropertyOp48
 70
     1
102
RTVSPropertyOp49
 70
     1
102
RTVSPropertyOp50
 70
     1
102
RTVSPropertyOp51
 70
     0
102
RTVSPropertyOp52
 70
     0
102
RTVSPropertyOp53
 70
     1
102
RTVSPropertyOp54
 70
     1
102
RTVSPropertyOp55
 70
     1
102
RTVSPropertyOp56
 70
     1
102
RTVSPropertyOp57
 70
     1
102
RTVSPost2010Prop28
280
     0
102
RTVSPost2010PropOp28
 70
     1
102
RTVSPost2010Prop29
280
     1
102
RTVSPost2010PropOp29
 70
     1
102
RTVSPost2010Prop30
280
     1
102
RTVSPost2010PropOp30
 70
     1
102
RTVSPost2010Prop31
280
     0
102
RTVSPost2010PropOp31
 70
     1
102
RTVSPost2010Prop32
280
     0
102
RTVSPost2010PropOp32
 70
     1
102
RTVSPost2010Prop33
280
     0
102
RTVSPost2010PropOp33
 70
     1
102
RTVSPost2010Prop34
280
     0
102
RTVSPost2010PropOp34
 70
     1
102
RTVSPost2010Prop35
280
     0
102
RTVSPost2010PropOp35
 70
     1
102
RTVSPost2010Prop36
280
     0
102
RTVSPost2010PropOp36
 70
     1
102
RTVSPost2010Prop37
 90
       50
102
RTVSPost2010PropOp37
 70
     1
102
RTVSPost2010Prop38
140
0.0
102
RTVSPost2010PropOp38
 70
     1
102
RTVSPost2010Prop39
140
1.0
102
RTVSPost2010PropOp39
 70
     1
102
RTVSPost2010Prop40
 90
        0
102
RTVSPost2010PropOp40
 70
     1
102
RTVSPost2010Prop41ColorIndex
 90
       18
102
RTVSPost2010Prop41ColorRGB
 90
        0
102
RTVSPost2010PropOp41
 70
     1
102
RTVSPost2010Prop42
 90
       50
102
RTVSPost2010PropOp42
 70
     1
102
RTVSPost2010Prop43
 90
        3
102
RTVSPost2010PropOp43
 70
     1
102
RTVSPost2010Prop44ColorIndex
 90
        5
102
RTVSPost2010Prop44ColorRGB
 90
      255
102
RTVSPost2010PropOp44
 70
     1
102
RTVSPost2010Prop45
280
     0
102
RTVSPost2010PropOp45
 70
     1
102
RTVSPost2010Prop46
 90
       50
102
RTVSPost2010PropOp46
 70
     1
102
RTVSPost2010Prop47
 90
       50
102
RTVSPost2010PropOp47
 70
     1
102
RTVSPost2010Prop48
 90
       50
102
RTVSPost2010PropOp48
 70
     1
102
RTVSPost2010Prop49
280
     0
102
RTVSPost2010PropOp49
 70
     1
102
RTVSPost2010Prop50
 90
       50
102
RTVSPost2010PropOp50
 70
     1
102
RTVSPost2010Prop51ColorIndex
 90
      256
102
RTVSPost2010Prop51ColorRGB
 90
-16777216
102
RTVSPost2010PropOp51
 70
     0
102
RTVSPost2010Prop52
140
1.0
102
RTVSPost2010PropOp52
 70
     0
102
RTVSPost2010Prop53
 90
        2
102
RTVSPost2010PropOp53
 70
     1
102
RTVSPost2010Prop54
  1
strokes_ogs.tif
102
RTVSPost2010PropOp54
 70
     1
102
RTVSPost2010Prop55
280
     0
102
RTVSPost2010PropOp55
 70
     1
102
RTVSPost2010Prop56
140
1.0
102
RTVSPost2010PropOp56
 70
     1
102
RTVSPost2010Prop57
140
1.0
102
RTVSPost2010PropOp57
 70
     1
  0
XRECORD
  5
1CD
102
{ACAD_REACTORS
330
1CC
102
}
330
1CC
100
AcDbXrecord
280
     1
102
RTVSPropertyOp0
 70
     0
102
RTVSPropertyOp1
 70
     0
102
RTVSPropertyOp2
 70
     0
102
RTVSPropertyOp3
 70
     0
102
RTVSPropertyOp4
 70
     0
102
RTVSPropertyOp5
 70
     0
102
RTVSPropertyOp6
 70
     0
102
RTVSPropertyOp7
 70
     0
102
RTVSPropertyOp8
 70
     0
102
RTVSPropertyOp9
 70
     0
102
RTVSPropertyOp10
 70
     0
102
RTVSPropertyOp11
 70
     0
102
RTVSPropertyOp12
 70
     0
102
RTVSPropertyOp13
 70
     0
102
RTVSPropertyOp14
 70
     2
102
RTVSPropertyOp15
 70
     0
102
RTVSPropertyOp16
 70
     0
102
RTVSPropertyOp17
 70
     0
102
RTVSPropertyOp18
 70
     0
102
RTVSPropertyOp19
 70
     0
102
RTVSPropertyOp20
 70
     0
102
RTVSPropertyOp21
 70
     0
102
RTVSPropertyOp22
 70
     0
102
RTVSPropertyOp23
 70
     0
102
RTVSPropertyOp24
 70
     0
102
RTVSPropertyOp25
 70
     0
102
RTVSPropertyOp26
 70
     0
102
RTVSPropertyOp27
 70
     0
102
RTVSPropertyOp28
 70
     0
102
RTVSPropertyOp29
 70
     0
102
RTVSPropertyOp30
 70
     0
102
RTVSPropertyOp31
 70
     0
102
RTVSPropertyOp32
 70
     0
102
RTVSPropertyOp33
 70
     0
102
RTVSPropertyOp34
 70
     0
102
RTVSPropertyOp35
 70
     0
102
RTVSPropertyOp36
 70
     0
102
RTVSPropertyOp37
 70
     0
102
RTVSPropertyOp38
 70
     0
102
RTVSPropertyOp39
 70
     0
102
RTVSPropertyOp40
 70
     0
102
RTVSPropertyOp41
 70
     0
102
RTVSPropertyOp42
 70
     0
102
RTVSPropertyOp43
 70
     0
102
RTVSPropertyOp44
 70
     0
102
RTVSPropertyOp45
 70
     0
102
RTVSPropertyOp46
 70
     0
102
RTVSPropertyOp47
 70
     0
102
RTVSPropertyOp48
 70
     0
102
RTVSPropertyOp49
 70
     0
102
RTVSPropertyOp50
 70
     0
102
RTVSPropertyOp51
 70
     0
102
RTVSPropertyOp52
 70
     0
102
RTVSPropertyOp53
 70
     0
102
RTVSPropertyOp54
 70
     0
102
RTVSPropertyOp55
 70
     0
102
RTVSPropertyOp56
 70
     0
102
RTVSPropertyOp57
 70
     0
102
RTVSPost2010Prop28
280
     0
102
RTVSPost2010PropOp28
 70
     0
102
RTVSPost2010Prop29
280
     1
102
RTVSPost2010PropOp29
 70
     0
102
RTVSPost2010Prop30
280
     1
102
RTVSPost2010PropOp30
 70
     0
102
RTVSPost2010Prop31
280
     0
102
RTVSPost2010PropOp31
 70
     0
102
RTVSPost2010Prop32
280
     0
102
RTVSPost2010PropOp32
 70
     0
102
RTVSPost2010Prop33
280
     0
102
RTVSPost2010PropOp33
 70
     0
102
RTVSPost2010Prop34
280
     0
102
RTVSPost2010PropOp34
 70
     0
102
RTVSPost2010Prop35
280
     0
102
RTVSPost2010PropOp35
 70
     0
102
RTVSPost2010Prop36
280
     0
102
RTVSPost2010PropOp36
 70
     0
102
RTVSPost2010Prop37
 90
       50
102
RTVSPost2010PropOp37
 70
     0
102
RTVSPost2010Prop38
140
0.0
102
RTVSPost2010PropOp38
 70
     0
102
RTVSPost2010Prop39
140
1.0
102
RTVSPost2010PropOp39
 70
     0
102
RTVSPost2010Prop40
 90
        0
102
RTVSPost2010PropOp40
 70
     0
102
RTVSPost2010Prop41ColorIndex
 90
       18
102
RTVSPost2010Prop41ColorRGB
 90
        0
102
RTVSPost2010PropOp41
 70
     0
102
RTVSPost2010Prop42
 90
       50
102
RTVSPost2010PropOp42
 70
     0
102
RTVSPost2010Prop43
 90
        3
102
RTVSPost2010PropOp43
 70
     0
102
RTVSPost2010Prop44ColorIndex
 90
        5
102
RTVSPost2010Prop44ColorRGB
 90
      255
102
RTVSPost2010PropOp44
 70
     0
102
RTVSPost2010Prop45
280
     0
102
RTVSPost2010PropOp45
 70
     0
102
RTVSPost2010Prop46
 90
       50
102
RTVSPost2010PropOp46
 70
     0
102
RTVSPost2010Prop47
 90
       50
102
RTVSPost2010PropOp47
 70
     0
102
RTVSPost2010Prop48
 90
       50
102
RTVSPost2010PropOp48
 70
     0
102
RTVSPost2010Prop49
280
     0
102
RTVSPost2010PropOp49
 70
     0
102
RTVSPost2010Prop50
 90
       50
102
RTVSPost2010PropOp50
 70
     0
102
RTVSPost2010Prop51ColorIndex
 90
      256
102
RTVSPost2010Prop51ColorRGB
 90
-16777216
102
RTVSPost2010PropOp51
 70
     0
102
RTVSPost2010Prop52
140
1.0
102
RTVSPost2010PropOp52
 70
     0
102
RTVSPost2010Prop53
 90
        2
102
RTVSPost2010PropOp53
 70
     0
102
RTVSPost2010Prop54
  1
strokes_ogs.tif
102
RTVSPost2010PropOp54
 70
     0
102
RTVSPost2010Prop55
280
     0
102
RTVSPost2010PropOp55
 70
     0
102
RTVSPost2010Prop56
140
1.0
102
RTVSPost2010PropOp56
 70
     0
102
RTVSPost2010Prop57
140
1.0
102
RTVSPost2010PropOp57
 70
     0
  0
XRECORD
  5
1BB
102
{ACAD_REACTORS
330
1BA
102
}
330
1BA
100
AcDbXrecord
280
     1
102
RTVSPropertyOp0
 70
     1
102
RTVSPropertyOp1
 70
     1
102
RTVSPropertyOp2
 70
     1
102
RTVSPropertyOp3
 70
     1
102
RTVSPropertyOp4
 70
     1
102
RTVSPropertyOp5
 70
     1
102
RTVSPropertyOp6
 70
     1
102
RTVSPropertyOp7
 70
     1
102
RTVSPropertyOp8
 70
     1
102
RTVSPropertyOp9
 70
     1
102
RTVSPropertyOp10
 70
     1
102
RTVSPropertyOp11
 70
     1
102
RTVSPropertyOp12
 70
     1
102
RTVSPropertyOp13
 70
     1
102
RTVSPropertyOp14
 70
     1
102
RTVSPropertyOp15
 70
     1
102
RTVSPropertyOp16
 70
     1
102
RTVSPropertyOp17
 70
     1
102
RTVSPropertyOp18
 70
     1
102
RTVSPropertyOp19
 70
     1
102
RTVSPropertyOp20
 70
     1
102
RTVSPropertyOp21
 70
     1
102
RTVSPropertyOp22
 70
     1
102
RTVSPropertyOp23
 70
     1
102
RTVSPropertyOp24
 70
     1
102
RTVSPropertyOp25
 70
     1
102
RTVSPropertyOp26
 70
     1
102
RTVSPropertyOp27
 70
     1
102
RTVSPropertyOp28
 70
     1
102
RTVSPropertyOp29
 70
     1
102
RTVSPropertyOp30
 70
     1
102
RTVSPropertyOp31
 70
     1
102
RTVSPropertyOp32
 70
     1
102
RTVSPropertyOp33
 70
     1
102
RTVSPropertyOp34
 70
     1
102
RTVSPropertyOp35
 70
     1
102
RTVSPropertyOp36
 70
     1
102
RTVSPropertyOp37
 70
     1
102
RTVSPropertyOp38
 70
     1
102
RTVSPropertyOp39
 70
     1
102
RTVSPropertyOp40
 70
     1
102
RTVSPropertyOp41
 70
     1
102
RTVSPropertyOp42
 70
     1
102
RTVSPropertyOp43
 70
     1
102
RTVSPropertyOp44
 70
     1
102
RTVSPropertyOp45
 70
     1
102
RTVSPropertyOp46
 70
     1
102
RTVSPropertyOp47
 70
     1
102
RTVSPropertyOp48
 70
     1
102
RTVSPropertyOp49
 70
     1
102
RTVSPropertyOp50
 70
     1
102
RTVSPropertyOp51
 70
     0
102
RTVSPropertyOp52
 70
     0
102
RTVSPropertyOp53
 70
     1
102
RTVSPropertyOp54
 70
     1
102
RTVSPropertyOp55
 70
     1
102
RTVSPropertyOp56
 70
     1
102
RTVSPropertyOp57
 70
     1
102
RTVSPost2010Prop28
280
     0
102
RTVSPost2010PropOp28
 70
     1
102
RTVSPost2010Prop29
280
     1
102
RTVSPost2010PropOp29
 70
     1
102
RTVSPost2010Prop30
280
     1
102
RTVSPost2010PropOp30
 70
     1
102
RTVSPost2010Prop31
280
     0
102
RTVSPost2010PropOp31
 70
     1
102
RTVSPost2010Prop32
280
     0
102
RTVSPost2010PropOp32
 70
     1
102
RTVSPost2010Prop33
280
     0
102
RTVSPost2010PropOp33
 70
     1
102
RTVSPost2010Prop34
280
     0
102
RTVSPost2010PropOp34
 70
     1
102
RTVSPost2010Prop35
280
     0
102
RTVSPost2010PropOp35
 70
     1
102
RTVSPost2010Prop36
280
     0
102
RTVSPost2010PropOp36
 70
     1
102
RTVSPost2010Prop37
 90
       50
102
RTVSPost2010PropOp37
 70
     1
102
RTVSPost2010Prop38
140
0.0
102
RTVSPost2010PropOp38
 70
     1
102
RTVSPost2010Prop39
140
1.0
102
RTVSPost2010PropOp39
 70
     1
102
RTVSPost2010Prop40
 90
        0
102
RTVSPost2010PropOp40
 70
     1
102
RTVSPost2010Prop41ColorIndex
 90
       18
102
RTVSPost2010Prop41ColorRGB
 90
        0
102
RTVSPost2010PropOp41
 70
     1
102
RTVSPost2010Prop42
 90
       50
102
RTVSPost2010PropOp42
 70
     1
102
RTVSPost2010Prop43
 90
        3
102
RTVSPost2010PropOp43
 70
     1
102
RTVSPost2010Prop44ColorIndex
 90
        5
102
RTVSPost2010Prop44ColorRGB
 90
      255
102
RTVSPost2010PropOp44
 70
     1
102
RTVSPost2010Prop45
280
     0
102
RTVSPost2010PropOp45
 70
     1
102
RTVSPost2010Prop46
 90
       50
102
RTVSPost2010PropOp46
 70
     1
102
RTVSPost2010Prop47
 90
       50
102
RTVSPost2010PropOp47
 70
     1
102
RTVSPost2010Prop48
 90
       50
102
RTVSPost2010PropOp48
 70
     1
102
RTVSPost2010Prop49
280
     0
102
RTVSPost2010PropOp49
 70
     1
102
RTVSPost2010Prop50
 90
       50
102
RTVSPost2010PropOp50
 70
     1
102
RTVSPost2010Prop51ColorIndex
 90
      256
102
RTVSPost2010Prop51ColorRGB
 90
-16777216
102
RTVSPost2010PropOp51
 70
     0
102
RTVSPost2010Prop52
140
1.0
102
RTVSPost2010PropOp52
 70
     0
102
RTVSPost2010Prop53
 90
        2
102
RTVSPost2010PropOp53
 70
     1
102
RTVSPost2010Prop54
  1
strokes_ogs.tif
102
RTVSPost2010PropOp54
 70
     1
102
RTVSPost2010Prop55
280
     0
102
RTVSPost2010PropOp55
 70
     1
102
RTVSPost2010Prop56
140
1.0
102
RTVSPost2010PropOp56
 70
     1
102
RTVSPost2010Prop57
140
1.0
102
RTVSPost2010PropOp57
 70
     1
  0
XRECORD
  5
1D9
102
{ACAD_REACTORS
330
1D8
102
}
330
1D8
100
AcDbXrecord
280
     1
102
RTVSPropertyOp0
 70
     1
102
RTVSPropertyOp1
 70
     1
102
RTVSPropertyOp2
 70
     1
102
RTVSPropertyOp3
 70
     1
102
RTVSPropertyOp4
 70
     1
102
RTVSPropertyOp5
 70
     1
102
RTVSPropertyOp6
 70
     1
102
RTVSPropertyOp7
 70
     1
102
RTVSPropertyOp8
 70
     1
102
RTVSPropertyOp9
 70
     1
102
RTVSPropertyOp10
 70
     1
102
RTVSPropertyOp11
 70
     1
102
RTVSPropertyOp12
 70
     1
102
RTVSPropertyOp13
 70
     1
102
RTVSPropertyOp14
 70
     1
102
RTVSPropertyOp15
 70
     1
102
RTVSPropertyOp16
 70
     1
102
RTVSPropertyOp17
 70
     1
102
RTVSPropertyOp18
 70
     1
102
RTVSPropertyOp19
 70
     1
102
RTVSPropertyOp20
 70
     1
102
RTVSPropertyOp21
 70
     1
102
RTVSPropertyOp22
 70
     1
102
RTVSPropertyOp23
 70
     1
102
RTVSPropertyOp24
 70
     1
102
RTVSPropertyOp25
 70
     1
102
RTVSPropertyOp26
 70
     1
102
RTVSPropertyOp27
 70
     1
102
RTVSPropertyOp28
 70
     1
102
RTVSPropertyOp29
 70
     1
102
RTVSPropertyOp30
 70
     1
102
RTVSPropertyOp31
 70
     1
102
RTVSPropertyOp32
 70
     1
102
RTVSPropertyOp33
 70
     1
102
RTVSPropertyOp34
 70
     1
102
RTVSPropertyOp35
 70
     1
102
RTVSPropertyOp36
 70
     1
102
RTVSPropertyOp37
 70
     1
102
RTVSPropertyOp38
 70
     1
102
RTVSPropertyOp39
 70
     1
102
RTVSPropertyOp40
 70
     1
102
RTVSPropertyOp41
 70
     1
102
RTVSPropertyOp42
 70
     1
102
RTVSPropertyOp43
 70
     1
102
RTVSPropertyOp44
 70
     1
102
RTVSPropertyOp45
 70
     1
102
RTVSPropertyOp46
 70
     1
102
RTVSPropertyOp47
 70
     1
102
RTVSPropertyOp48
 70
     1
102
RTVSPropertyOp49
 70
     1
102
RTVSPropertyOp50
 70
     1
102
RTVSPropertyOp51
 70
     0
102
RTVSPropertyOp52
 70
     0
102
RTVSPropertyOp53
 70
     1
102
RTVSPropertyOp54
 70
     1
102
RTVSPropertyOp55
 70
     1
102
RTVSPropertyOp56
 70
     1
102
RTVSPropertyOp57
 70
     1
102
RTVSPost2010Prop28
280
     0
102
RTVSPost2010PropOp28
 70
     1
102
RTVSPost2010Prop29
280
     1
102
RTVSPost2010PropOp29
 70
     1
102
RTVSPost2010Prop30
280
     1
102
RTVSPost2010PropOp30
 70
     1
102
RTVSPost2010Prop31
280
     0
102
RTVSPost2010PropOp31
 70
     1
102
RTVSPost2010Prop32
280
     0
102
RTVSPost2010PropOp32
 70
     1
102
RTVSPost2010Prop33
280
     0
102
RTVSPost2010PropOp33
 70
     1
102
RTVSPost2010Prop34
280
     0
102
RTVSPost2010PropOp34
 70
     1
102
RTVSPost2010Prop35
280
     0
102
RTVSPost2010PropOp35
 70
     1
102
RTVSPost2010Prop36
280
     0
102
RTVSPost2010PropOp36
 70
     1
102
RTVSPost2010Prop37
 90
       50
102
RTVSPost2010PropOp37
 70
     1
102
RTVSPost2010Prop38
140
0.0
102
RTVSPost2010PropOp38
 70
     1
102
RTVSPost2010Prop39
140
1.0
102
RTVSPost2010PropOp39
 70
     1
102
RTVSPost2010Prop40
 90
        0
102
RTVSPost2010PropOp40
 70
     1
102
RTVSPost2010Prop41ColorIndex
 90
       18
102
RTVSPost2010Prop41ColorRGB
 90
        0
102
RTVSPost2010PropOp41
 70
     1
102
RTVSPost2010Prop42
 90
       50
102
RTVSPost2010PropOp42
 70
     1
102
RTVSPost2010Prop43
 90
        3
102
RTVSPost2010PropOp43
 70
     1
102
RTVSPost2010Prop44ColorIndex
 90
        5
102
RTVSPost2010Prop44ColorRGB
 90
      255
102
RTVSPost2010PropOp44
 70
     1
102
RTVSPost2010Prop45
280
     0
102
RTVSPost2010PropOp45
 70
     1
102
RTVSPost2010Prop46
 90
       50
102
RTVSPost2010PropOp46
 70
     1
102
RTVSPost2010Prop47
 90
       50
102
RTVSPost2010PropOp47
 70
     1
102
RTVSPost2010Prop48
 90
       50
102
RTVSPost2010PropOp48
 70
     1
102
RTVSPost2010Prop49
280
     0
102
RTVSPost2010PropOp49
 70
     1
102
RTVSPost2010Prop50
 90
       50
102
RTVSPost2010PropOp50
 70
     1
102
RTVSPost2010Prop51ColorIndex
 90
      256
102
RTVSPost2010Prop51ColorRGB
 90
-16777216
102
RTVSPost2010PropOp51
 70
     0
102
RTVSPost2010Prop52
140
1.0
102
RTVSPost2010PropOp52
 70
     0
102
RTVSPost2010Prop53
 90
        2
102
RTVSPost2010PropOp53
 70
     1
102
RTVSPost2010Prop54
  1
strokes_ogs.tif
102
RTVSPost2010PropOp54
 70
     1
102
RTVSPost2010Prop55
280
     0
102
RTVSPost2010PropOp55
 70
     1
102
RTVSPost2010Prop56
140
1.0
102
RTVSPost2010PropOp56
 70
     1
102
RTVSPost2010Prop57
140
1.0
102
RTVSPost2010PropOp57
 70
     1
  0
XRECORD
  5
1D7
102
{ACAD_REACTORS
330
1D6
102
}
330
1D6
100
AcDbXrecord
280
     1
102
RTVSPropertyOp0
 70
     1
102
RTVSPropertyOp1
 70
     1
102
RTVSPropertyOp2
 70
     1
102
RTVSPropertyOp3
 70
     1
102
RTVSPropertyOp4
 70
     1
102
RTVSPropertyOp5
 70
     1
102
RTVSPropertyOp6
 70
     1
102
RTVSPropertyOp7
 70
     1
102
RTVSPropertyOp8
 70
     1
102
RTVSPropertyOp9
 70
     1
102
RTVSPropertyOp10
 70
     1
102
RTVSPropertyOp11
 70
     1
102
RTVSPropertyOp12
 70
     1
102
RTVSPropertyOp13
 70
     1
102
RTVSPropertyOp14
 70
     1
102
RTVSPropertyOp15
 70
     1
102
RTVSPropertyOp16
 70
     1
102
RTVSPropertyOp17
 70
     1
102
RTVSPropertyOp18
 70
     1
102
RTVSPropertyOp19
 70
     1
102
RTVSPropertyOp20
 70
     1
102
RTVSPropertyOp21
 70
     1
102
RTVSPropertyOp22
 70
     1
102
RTVSPropertyOp23
 70
     1
102
RTVSPropertyOp24
 70
     1
102
RTVSPropertyOp25
 70
     1
102
RTVSPropertyOp26
 70
     1
102
RTVSPropertyOp27
 70
     1
102
RTVSPropertyOp28
 70
     1
102
RTVSPropertyOp29
 70
     1
102
RTVSPropertyOp30
 70
     1
102
RTVSPropertyOp31
 70
     1
102
RTVSPropertyOp32
 70
     1
102
RTVSPropertyOp33
 70
     1
102
RTVSPropertyOp34
 70
     1
102
RTVSPropertyOp35
 70
     1
102
RTVSPropertyOp36
 70
     1
102
RTVSPropertyOp37
 70
     1
102
RTVSPropertyOp38
 70
     1
102
RTVSPropertyOp39
 70
     1
102
RTVSPropertyOp40
 70
     1
102
RTVSPropertyOp41
 70
     1
102
RTVSPropertyOp42
 70
     1
102
RTVSPropertyOp43
 70
     1
102
RTVSPropertyOp44
 70
     1
102
RTVSPropertyOp45
 70
     1
102
RTVSPropertyOp46
 70
     1
102
RTVSPropertyOp47
 70
     1
102
RTVSPropertyOp48
 70
     1
102
RTVSPropertyOp49
 70
     1
102
RTVSPropertyOp50
 70
     1
102
RTVSPropertyOp51
 70
     0
102
RTVSPropertyOp52
 70
     0
102
RTVSPropertyOp53
 70
     1
102
RTVSPropertyOp54
 70
     1
102
RTVSPropertyOp55
 70
     1
102
RTVSPropertyOp56
 70
     1
102
RTVSPropertyOp57
 70
     1
102
RTVSPost2010Prop28
280
     0
102
RTVSPost2010PropOp28
 70
     1
102
RTVSPost2010Prop29
280
     1
102
RTVSPost2010PropOp29
 70
     1
102
RTVSPost2010Prop30
280
     1
102
RTVSPost2010PropOp30
 70
     1
102
RTVSPost2010Prop31
280
     0
102
RTVSPost2010PropOp31
 70
     1
102
RTVSPost2010Prop32
280
     0
102
RTVSPost2010PropOp32
 70
     1
102
RTVSPost2010Prop33
280
     0
102
RTVSPost2010PropOp33
 70
     1
102
RTVSPost2010Prop34
280
     0
102
RTVSPost2010PropOp34
 70
     1
102
RTVSPost2010Prop35
280
     0
102
RTVSPost2010PropOp35
 70
     1
102
RTVSPost2010Prop36
280
     0
102
RTVSPost2010PropOp36
 70
     1
102
RTVSPost2010Prop37
 90
       50
102
RTVSPost2010PropOp37
 70
     1
102
RTVSPost2010Prop38
140
0.0
102
RTVSPost2010PropOp38
 70
     1
102
RTVSPost2010Prop39
140
1.0
102
RTVSPost2010PropOp39
 70
     1
102
RTVSPost2010Prop40
 90
        0
102
RTVSPost2010PropOp40
 70
     1
102
RTVSPost2010Prop41ColorIndex
 90
       18
102
RTVSPost2010Prop41ColorRGB
 90
        0
102
RTVSPost2010PropOp41
 70
     1
102
RTVSPost2010Prop42
 90
       50
102
RTVSPost2010PropOp42
 70
     1
102
RTVSPost2010Prop43
 90
        3
102
RTVSPost2010PropOp43
 70
     1
102
RTVSPost2010Prop44ColorIndex
 90
        5
102
RTVSPost2010Prop44ColorRGB
 90
      255
102
RTVSPost2010PropOp44
 70
     1
102
RTVSPost2010Prop45
280
     0
102
RTVSPost2010PropOp45
 70
     1
102
RTVSPost2010Prop46
 90
       50
102
RTVSPost2010PropOp46
 70
     1
102
RTVSPost2010Prop47
 90
       50
102
RTVSPost2010PropOp47
 70
     1
102
RTVSPost2010Prop48
 90
       50
102
RTVSPost2010PropOp48
 70
     1
102
RTVSPost2010Prop49
280
     0
102
RTVSPost2010PropOp49
 70
     1
102
RTVSPost2010Prop50
 90
       50
102
RTVSPost2010PropOp50
 70
     1
102
RTVSPost2010Prop51ColorIndex
 90
      256
102
RTVSPost2010Prop51ColorRGB
 90
-16777216
102
RTVSPost2010PropOp51
 70
     0
102
RTVSPost2010Prop52
140
1.0
102
RTVSPost2010PropOp52
 70
     0
102
RTVSPost2010Prop53
 90
        2
102
RTVSPost2010PropOp53
 70
     1
102
RTVSPost2010Prop54
  1
strokes_ogs.tif
102
RTVSPost2010PropOp54
 70
     1
102
RTVSPost2010Prop55
280
     0
102
RTVSPost2010PropOp55
 70
     1
102
RTVSPost2010Prop56
140
1.0
102
RTVSPost2010PropOp56
 70
     1
102
RTVSPost2010Prop57
140
1.0
102
RTVSPost2010PropOp57
 70
     1
  0
XRECORD
  5
1D1
102
{ACAD_REACTORS
330
1D0
102
}
330
1D0
100
AcDbXrecord
280
     1
102
RTVSPropertyOp0
 70
     1
102
RTVSPropertyOp1
 70
     1
102
RTVSPropertyOp2
 70
     1
102
RTVSPropertyOp3
 70
     1
102
RTVSPropertyOp4
 70
     1
102
RTVSPropertyOp5
 70
     1
102
RTVSPropertyOp6
 70
     1
102
RTVSPropertyOp7
 70
     1
102
RTVSPropertyOp8
 70
     1
102
RTVSPropertyOp9
 70
     1
102
RTVSPropertyOp10
 70
     1
102
RTVSPropertyOp11
 70
     1
102
RTVSPropertyOp12
 70
     1
102
RTVSPropertyOp13
 70
     1
102
RTVSPropertyOp14
 70
     1
102
RTVSPropertyOp15
 70
     1
102
RTVSPropertyOp16
 70
     1
102
RTVSPropertyOp17
 70
     1
102
RTVSPropertyOp18
 70
     1
102
RTVSPropertyOp19
 70
     1
102
RTVSPropertyOp20
 70
     1
102
RTVSPropertyOp21
 70
     1
102
RTVSPropertyOp22
 70
     1
102
RTVSPropertyOp23
 70
     1
102
RTVSPropertyOp24
 70
     1
102
RTVSPropertyOp25
 70
     1
102
RTVSPropertyOp26
 70
     1
102
RTVSPropertyOp27
 70
     1
102
RTVSPropertyOp28
 70
     1
102
RTVSPropertyOp29
 70
     1
102
RTVSPropertyOp30
 70
     1
102
RTVSPropertyOp31
 70
     1
102
RTVSPropertyOp32
 70
     1
102
RTVSPropertyOp33
 70
     1
102
RTVSPropertyOp34
 70
     1
102
RTVSPropertyOp35
 70
     1
102
RTVSPropertyOp36
 70
     1
102
RTVSPropertyOp37
 70
     1
102
RTVSPropertyOp38
 70
     1
102
RTVSPropertyOp39
 70
     1
102
RTVSPropertyOp40
 70
     1
102
RTVSPropertyOp41
 70
     1
102
RTVSPropertyOp42
 70
     1
102
RTVSPropertyOp43
 70
     1
102
RTVSPropertyOp44
 70
     1
102
RTVSPropertyOp45
 70
     1
102
RTVSPropertyOp46
 70
     1
102
RTVSPropertyOp47
 70
     1
102
RTVSPropertyOp48
 70
     1
102
RTVSPropertyOp49
 70
     1
102
RTVSPropertyOp50
 70
     1
102
RTVSPropertyOp51
 70
     0
102
RTVSPropertyOp52
 70
     0
102
RTVSPropertyOp53
 70
     1
102
RTVSPropertyOp54
 70
     1
102
RTVSPropertyOp55
 70
     1
102
RTVSPropertyOp56
 70
     1
102
RTVSPropertyOp57
 70
     1
102
RTVSPost2010Prop28
280
     0
102
RTVSPost2010PropOp28
 70
     1
102
RTVSPost2010Prop29
280
     1
102
RTVSPost2010PropOp29
 70
     1
102
RTVSPost2010Prop30
280
     1
102
RTVSPost2010PropOp30
 70
     1
102
RTVSPost2010Prop31
280
     0
102
RTVSPost2010PropOp31
 70
     1
102
RTVSPost2010Prop32
280
     0
102
RTVSPost2010PropOp32
 70
     1
102
RTVSPost2010Prop33
280
     0
102
RTVSPost2010PropOp33
 70
     1
102
RTVSPost2010Prop34
280
     0
102
RTVSPost2010PropOp34
 70
     1
102
RTVSPost2010Prop35
280
     0
102
RTVSPost2010PropOp35
 70
     1
102
RTVSPost2010Prop36
280
     0
102
RTVSPost2010PropOp36
 70
     1
102
RTVSPost2010Prop37
 90
       50
102
RTVSPost2010PropOp37
 70
     1
102
RTVSPost2010Prop38
140
0.0
102
RTVSPost2010PropOp38
 70
     1
102
RTVSPost2010Prop39
140
1.0
102
RTVSPost2010PropOp39
 70
     1
102
RTVSPost2010Prop40
 90
        0
102
RTVSPost2010PropOp40
 70
     1
102
RTVSPost2010Prop41ColorIndex
 90
       18
102
RTVSPost2010Prop41ColorRGB
 90
        0
102
RTVSPost2010PropOp41
 70
     1
102
RTVSPost2010Prop42
 90
       50
102
RTVSPost2010PropOp42
 70
     1
102
RTVSPost2010Prop43
 90
        3
102
RTVSPost2010PropOp43
 70
     1
102
RTVSPost2010Prop44ColorIndex
 90
        5
102
RTVSPost2010Prop44ColorRGB
 90
      255
102
RTVSPost2010PropOp44
 70
     1
102
RTVSPost2010Prop45
280
     0
102
RTVSPost2010PropOp45
 70
     1
102
RTVSPost2010Prop46
 90
       50
102
RTVSPost2010PropOp46
 70
     1
102
RTVSPost2010Prop47
 90
       50
102
RTVSPost2010PropOp47
 70
     1
102
RTVSPost2010Prop48
 90
       50
102
RTVSPost2010PropOp48
 70
     1
102
RTVSPost2010Prop49
280
     0
102
RTVSPost2010PropOp49
 70
     1
102
RTVSPost2010Prop50
 90
       50
102
RTVSPost2010PropOp50
 70
     1
102
RTVSPost2010Prop51ColorIndex
 90
      256
102
RTVSPost2010Prop51ColorRGB
 90
-16777216
102
RTVSPost2010PropOp51
 70
     0
102
RTVSPost2010Prop52
140
1.0
102
RTVSPost2010PropOp52
 70
     0
102
RTVSPost2010Prop53
 90
        2
102
RTVSPost2010PropOp53
 70
     1
102
RTVSPost2010Prop54
  1
strokes_ogs.tif
102
RTVSPost2010PropOp54
 70
     1
102
RTVSPost2010Prop55
280
     0
102
RTVSPost2010PropOp55
 70
     1
102
RTVSPost2010Prop56
140
1.0
102
RTVSPost2010PropOp56
 70
     1
102
RTVSPost2010Prop57
140
1.0
102
RTVSPost2010PropOp57
 70
     1
  0
XRECORD
  5
1D3
102
{ACAD_REACTORS
330
1D2
102
}
330
1D2
100
AcDbXrecord
280
     1
102
RTVSPropertyOp0
 70
     1
102
RTVSPropertyOp1
 70
     1
102
RTVSPropertyOp2
 70
     1
102
RTVSPropertyOp3
 70
     1
102
RTVSPropertyOp4
 70
     1
102
RTVSPropertyOp5
 70
     1
102
RTVSPropertyOp6
 70
     1
102
RTVSPropertyOp7
 70
     1
102
RTVSPropertyOp8
 70
     1
102
RTVSPropertyOp9
 70
     1
102
RTVSPropertyOp10
 70
     1
102
RTVSPropertyOp11
 70
     1
102
RTVSPropertyOp12
 70
     1
102
RTVSPropertyOp13
 70
     1
102
RTVSPropertyOp14
 70
     1
102
RTVSPropertyOp15
 70
     1
102
RTVSPropertyOp16
 70
     1
102
RTVSPropertyOp17
 70
     1
102
RTVSPropertyOp18
 70
     1
102
RTVSPropertyOp19
 70
     1
102
RTVSPropertyOp20
 70
     1
102
RTVSPropertyOp21
 70
     1
102
RTVSPropertyOp22
 70
     1
102
RTVSPropertyOp23
 70
     1
102
RTVSPropertyOp24
 70
     1
102
RTVSPropertyOp25
 70
     1
102
RTVSPropertyOp26
 70
     1
102
RTVSPropertyOp27
 70
     1
102
RTVSPropertyOp28
 70
     1
102
RTVSPropertyOp29
 70
     1
102
RTVSPropertyOp30
 70
     1
102
RTVSPropertyOp31
 70
     1
102
RTVSPropertyOp32
 70
     1
102
RTVSPropertyOp33
 70
     1
102
RTVSPropertyOp34
 70
     1
102
RTVSPropertyOp35
 70
     1
102
RTVSPropertyOp36
 70
     1
102
RTVSPropertyOp37
 70
     1
102
RTVSPropertyOp38
 70
     1
102
RTVSPropertyOp39
 70
     1
102
RTVSPropertyOp40
 70
     1
102
RTVSPropertyOp41
 70
     1
102
RTVSPropertyOp42
 70
     1
102
RTVSPropertyOp43
 70
     1
102
RTVSPropertyOp44
 70
     1
102
RTVSPropertyOp45
 70
     1
102
RTVSPropertyOp46
 70
     1
102
RTVSPropertyOp47
 70
     1
102
RTVSPropertyOp48
 70
     1
102
RTVSPropertyOp49
 70
     1
102
RTVSPropertyOp50
 70
     1
102
RTVSPropertyOp51
 70
     0
102
RTVSPropertyOp52
 70
     0
102
RTVSPropertyOp53
 70
     1
102
RTVSPropertyOp54
 70
     1
102
RTVSPropertyOp55
 70
     1
102
RTVSPropertyOp56
 70
     1
102
RTVSPropertyOp57
 70
     1
102
RTVSPost2010Prop28
280
     0
102
RTVSPost2010PropOp28
 70
     1
102
RTVSPost2010Prop29
280
     1
102
RTVSPost2010PropOp29
 70
     1
102
RTVSPost2010Prop30
280
     1
102
RTVSPost2010PropOp30
 70
     1
102
RTVSPost2010Prop31
280
     0
102
RTVSPost2010PropOp31
 70
     1
102
RTVSPost2010Prop32
280
     0
102
RTVSPost2010PropOp32
 70
     1
102
RTVSPost2010Prop33
280
     0
102
RTVSPost2010PropOp33
 70
     1
102
RTVSPost2010Prop34
280
     0
102
RTVSPost2010PropOp34
 70
     1
102
RTVSPost2010Prop35
280
     0
102
RTVSPost2010PropOp35
 70
     1
102
RTVSPost2010Prop36
280
     0
102
RTVSPost2010PropOp36
 70
     1
102
RTVSPost2010Prop37
 90
       50
102
RTVSPost2010PropOp37
 70
     1
102
RTVSPost2010Prop38
140
0.0
102
RTVSPost2010PropOp38
 70
     1
102
RTVSPost2010Prop39
140
1.0
102
RTVSPost2010PropOp39
 70
     1
102
RTVSPost2010Prop40
 90
        0
102
RTVSPost2010PropOp40
 70
     1
102
RTVSPost2010Prop41ColorIndex
 90
       18
102
RTVSPost2010Prop41ColorRGB
 90
        0
102
RTVSPost2010PropOp41
 70
     1
102
RTVSPost2010Prop42
 90
       50
102
RTVSPost2010PropOp42
 70
     1
102
RTVSPost2010Prop43
 90
        3
102
RTVSPost2010PropOp43
 70
     1
102
RTVSPost2010Prop44ColorIndex
 90
        5
102
RTVSPost2010Prop44ColorRGB
 90
      255
102
RTVSPost2010PropOp44
 70
     1
102
RTVSPost2010Prop45
280
     0
102
RTVSPost2010PropOp45
 70
     1
102
RTVSPost2010Prop46
 90
       50
102
RTVSPost2010PropOp46
 70
     1
102
RTVSPost2010Prop47
 90
       50
102
RTVSPost2010PropOp47
 70
     1
102
RTVSPost2010Prop48
 90
       50
102
RTVSPost2010PropOp48
 70
     1
102
RTVSPost2010Prop49
280
     0
102
RTVSPost2010PropOp49
 70
     1
102
RTVSPost2010Prop50
 90
       50
102
RTVSPost2010PropOp50
 70
     1
102
RTVSPost2010Prop51ColorIndex
 90
      256
102
RTVSPost2010Prop51ColorRGB
 90
-16777216
102
RTVSPost2010PropOp51
 70
     0
102
RTVSPost2010Prop52
140
1.0
102
RTVSPost2010PropOp52
 70
     0
102
RTVSPost2010Prop53
 90
        2
102
RTVSPost2010PropOp53
 70
     1
102
RTVSPost2010Prop54
  1
strokes_ogs.tif
102
RTVSPost2010PropOp54
 70
     1
102
RTVSPost2010Prop55
280
     0
102
RTVSPost2010PropOp55
 70
     1
102
RTVSPost2010Prop56
140
1.0
102
RTVSPost2010PropOp56
 70
     1
102
RTVSPost2010Prop57
140
1.0
102
RTVSPost2010PropOp57
 70
     1
  0
XRECORD
  5
1C3
102
{ACAD_REACTORS
330
1C2
102
}
330
1C2
100
AcDbXrecord
280
     1
102
RTVSPropertyOp0
 70
     1
102
RTVSPropertyOp1
 70
     1
102
RTVSPropertyOp2
 70
     1
102
RTVSPropertyOp3
 70
     1
102
RTVSPropertyOp4
 70
     1
102
RTVSPropertyOp5
 70
     1
102
RTVSPropertyOp6
 70
     1
102
RTVSPropertyOp7
 70
     1
102
RTVSPropertyOp8
 70
     1
102
RTVSPropertyOp9
 70
     1
102
RTVSPropertyOp10
 70
     1
102
RTVSPropertyOp11
 70
     1
102
RTVSPropertyOp12
 70
     1
102
RTVSPropertyOp13
 70
     1
102
RTVSPropertyOp14
 70
     1
102
RTVSPropertyOp15
 70
     1
102
RTVSPropertyOp16
 70
     1
102
RTVSPropertyOp17
 70
     1
102
RTVSPropertyOp18
 70
     1
102
RTVSPropertyOp19
 70
     1
102
RTVSPropertyOp20
 70
     1
102
RTVSPropertyOp21
 70
     1
102
RTVSPropertyOp22
 70
     1
102
RTVSPropertyOp23
 70
     1
102
RTVSPropertyOp24
 70
     1
102
RTVSPropertyOp25
 70
     1
102
RTVSPropertyOp26
 70
     1
102
RTVSPropertyOp27
 70
     1
102
RTVSPropertyOp28
 70
     1
102
RTVSPropertyOp29
 70
     1
102
RTVSPropertyOp30
 70
     1
102
RTVSPropertyOp31
 70
     1
102
RTVSPropertyOp32
 70
     1
102
RTVSPropertyOp33
 70
     1
102
RTVSPropertyOp34
 70
     1
102
RTVSPropertyOp35
 70
     1
102
RTVSPropertyOp36
 70
     1
102
RTVSPropertyOp37
 70
     1
102
RTVSPropertyOp38
 70
     1
102
RTVSPropertyOp39
 70
     1
102
RTVSPropertyOp40
 70
     1
102
RTVSPropertyOp41
 70
     1
102
RTVSPropertyOp42
 70
     1
102
RTVSPropertyOp43
 70
     1
102
RTVSPropertyOp44
 70
     1
102
RTVSPropertyOp45
 70
     1
102
RTVSPropertyOp46
 70
     1
102
RTVSPropertyOp47
 70
     1
102
RTVSPropertyOp48
 70
     1
102
RTVSPropertyOp49
 70
     1
102
RTVSPropertyOp50
 70
     1
102
RTVSPropertyOp51
 70
     0
102
RTVSPropertyOp52
 70
     0
102
RTVSPropertyOp53
 70
     1
102
RTVSPropertyOp54
 70
     1
102
RTVSPropertyOp55
 70
     1
102
RTVSPropertyOp56
 70
     1
102
RTVSPropertyOp57
 70
     1
102
RTVSPost2010Prop28
280
     0
102
RTVSPost2010PropOp28
 70
     1
102
RTVSPost2010Prop29
280
     1
102
RTVSPost2010PropOp29
 70
     1
102
RTVSPost2010Prop30
280
     1
102
RTVSPost2010PropOp30
 70
     1
102
RTVSPost2010Prop31
280
     0
102
RTVSPost2010PropOp31
 70
     1
102
RTVSPost2010Prop32
280
     0
102
RTVSPost2010PropOp32
 70
     1
102
RTVSPost2010Prop33
280
     0
102
RTVSPost2010PropOp33
 70
     1
102
RTVSPost2010Prop34
280
     0
102
RTVSPost2010PropOp34
 70
     1
102
RTVSPost2010Prop35
280
     0
102
RTVSPost2010PropOp35
 70
     1
102
RTVSPost2010Prop36
280
     0
102
RTVSPost2010PropOp36
 70
     1
102
RTVSPost2010Prop37
 90
       50
102
RTVSPost2010PropOp37
 70
     1
102
RTVSPost2010Prop38
140
0.0
102
RTVSPost2010PropOp38
 70
     1
102
RTVSPost2010Prop39
140
1.0
102
RTVSPost2010PropOp39
 70
     1
102
RTVSPost2010Prop40
 90
        0
102
RTVSPost2010PropOp40
 70
     1
102
RTVSPost2010Prop41ColorIndex
 90
       18
102
RTVSPost2010Prop41ColorRGB
 90
        0
102
RTVSPost2010PropOp41
 70
     1
102
RTVSPost2010Prop42
 90
       50
102
RTVSPost2010PropOp42
 70
     1
102
RTVSPost2010Prop43
 90
        3
102
RTVSPost2010PropOp43
 70
     1
102
RTVSPost2010Prop44ColorIndex
 90
        5
102
RTVSPost2010Prop44ColorRGB
 90
      255
102
RTVSPost2010PropOp44
 70
     1
102
RTVSPost2010Prop45
280
     0
102
RTVSPost2010PropOp45
 70
     1
102
RTVSPost2010Prop46
 90
       50
102
RTVSPost2010PropOp46
 70
     1
102
RTVSPost2010Prop47
 90
       50
102
RTVSPost2010PropOp47
 70
     1
102
RTVSPost2010Prop48
 90
       50
102
RTVSPost2010PropOp48
 70
     1
102
RTVSPost2010Prop49
280
     0
102
RTVSPost2010PropOp49
 70
     1
102
RTVSPost2010Prop50
 90
       50
102
RTVSPost2010PropOp50
 70
     1
102
RTVSPost2010Prop51ColorIndex
 90
      256
102
RTVSPost2010Prop51ColorRGB
 90
-16777216
102
RTVSPost2010PropOp51
 70
     0
102
RTVSPost2010Prop52
140
1.0
102
RTVSPost2010PropOp52
 70
     0
102
RTVSPost2010Prop53
 90
        2
102
RTVSPost2010PropOp53
 70
     1
102
RTVSPost2010Prop54
  1
strokes_ogs.tif
102
RTVSPost2010PropOp54
 70
     1
102
RTVSPost2010Prop55
280
     0
102
RTVSPost2010PropOp55
 70
     1
102
RTVSPost2010Prop56
140
1.0
102
RTVSPost2010PropOp56
 70
     1
102
RTVSPost2010Prop57
140
1.0
102
RTVSPost2010PropOp57
 70
     1
  0
XRECORD
  5
1B5
102
{ACAD_REACTORS
330
1B4
102
}
330
1B4
100
AcDbXrecord
280
     1
102
RTVSPropertyOp0
 70
     1
102
RTVSPropertyOp1
 70
     1
102
RTVSPropertyOp2
 70
     1
102
RTVSPropertyOp3
 70
     1
102
RTVSPropertyOp4
 70
     1
102
RTVSPropertyOp5
 70
     1
102
RTVSPropertyOp6
 70
     1
102
RTVSPropertyOp7
 70
     1
102
RTVSPropertyOp8
 70
     1
102
RTVSPropertyOp9
 70
     1
102
RTVSPropertyOp10
 70
     1
102
RTVSPropertyOp11
 70
     1
102
RTVSPropertyOp12
 70
     1
102
RTVSPropertyOp13
 70
     1
102
RTVSPropertyOp14
 70
     1
102
RTVSPropertyOp15
 70
     1
102
RTVSPropertyOp16
 70
     1
102
RTVSPropertyOp17
 70
     1
102
RTVSPropertyOp18
 70
     1
102
RTVSPropertyOp19
 70
     1
102
RTVSPropertyOp20
 70
     1
102
RTVSPropertyOp21
 70
     1
102
RTVSPropertyOp22
 70
     1
102
RTVSPropertyOp23
 70
     1
102
RTVSPropertyOp24
 70
     1
102
RTVSPropertyOp25
 70
     1
102
RTVSPropertyOp26
 70
     1
102
RTVSPropertyOp27
 70
     1
102
RTVSPropertyOp28
 70
     1
102
RTVSPropertyOp29
 70
     1
102
RTVSPropertyOp30
 70
     1
102
RTVSPropertyOp31
 70
     1
102
RTVSPropertyOp32
 70
     1
102
RTVSPropertyOp33
 70
     1
102
RTVSPropertyOp34
 70
     1
102
RTVSPropertyOp35
 70
     1
102
RTVSPropertyOp36
 70
     1
102
RTVSPropertyOp37
 70
     1
102
RTVSPropertyOp38
 70
     1
102
RTVSPropertyOp39
 70
     1
102
RTVSPropertyOp40
 70
     1
102
RTVSPropertyOp41
 70
     1
102
RTVSPropertyOp42
 70
     1
102
RTVSPropertyOp43
 70
     1
102
RTVSPropertyOp44
 70
     1
102
RTVSPropertyOp45
 70
     1
102
RTVSPropertyOp46
 70
     1
102
RTVSPropertyOp47
 70
     1
102
RTVSPropertyOp48
 70
     1
102
RTVSPropertyOp49
 70
     1
102
RTVSPropertyOp50
 70
     1
102
RTVSPropertyOp51
 70
     0
102
RTVSPropertyOp52
 70
     0
102
RTVSPropertyOp53
 70
     1
102
RTVSPropertyOp54
 70
     1
102
RTVSPropertyOp55
 70
     1
102
RTVSPropertyOp56
 70
     1
102
RTVSPropertyOp57
 70
     1
102
RTVSPost2010Prop28
280
     0
102
RTVSPost2010PropOp28
 70
     1
102
RTVSPost2010Prop29
280
     1
102
RTVSPost2010PropOp29
 70
     1
102
RTVSPost2010Prop30
280
     1
102
RTVSPost2010PropOp30
 70
     1
102
RTVSPost2010Prop31
280
     0
102
RTVSPost2010PropOp31
 70
     1
102
RTVSPost2010Prop32
280
     0
102
RTVSPost2010PropOp32
 70
     1
102
RTVSPost2010Prop33
280
     0
102
RTVSPost2010PropOp33
 70
     1
102
RTVSPost2010Prop34
280
     0
102
RTVSPost2010PropOp34
 70
     1
102
RTVSPost2010Prop35
280
     0
102
RTVSPost2010PropOp35
 70
     1
102
RTVSPost2010Prop36
280
     0
102
RTVSPost2010PropOp36
 70
     1
102
RTVSPost2010Prop37
 90
       50
102
RTVSPost2010PropOp37
 70
     1
102
RTVSPost2010Prop38
140
0.0
102
RTVSPost2010PropOp38
 70
     1
102
RTVSPost2010Prop39
140
1.0
102
RTVSPost2010PropOp39
 70
     1
102
RTVSPost2010Prop40
 90
        0
102
RTVSPost2010PropOp40
 70
     1
102
RTVSPost2010Prop41ColorIndex
 90
       18
102
RTVSPost2010Prop41ColorRGB
 90
        0
102
RTVSPost2010PropOp41
 70
     1
102
RTVSPost2010Prop42
 90
       50
102
RTVSPost2010PropOp42
 70
     1
102
RTVSPost2010Prop43
 90
        3
102
RTVSPost2010PropOp43
 70
     1
102
RTVSPost2010Prop44ColorIndex
 90
        5
102
RTVSPost2010Prop44ColorRGB
 90
      255
102
RTVSPost2010PropOp44
 70
     1
102
RTVSPost2010Prop45
280
     0
102
RTVSPost2010PropOp45
 70
     1
102
RTVSPost2010Prop46
 90
       50
102
RTVSPost2010PropOp46
 70
     1
102
RTVSPost2010Prop47
 90
       50
102
RTVSPost2010PropOp47
 70
     1
102
RTVSPost2010Prop48
 90
       50
102
RTVSPost2010PropOp48
 70
     1
102
RTVSPost2010Prop49
280
     0
102
RTVSPost2010PropOp49
 70
     1
102
RTVSPost2010Prop50
 90
       50
102
RTVSPost2010PropOp50
 70
     1
102
RTVSPost2010Prop51ColorIndex
 90
      256
102
RTVSPost2010Prop51ColorRGB
 90
-16777216
102
RTVSPost2010PropOp51
 70
     0
102
RTVSPost2010Prop52
140
1.0
102
RTVSPost2010PropOp52
 70
     0
102
RTVSPost2010Prop53
 90
        2
102
RTVSPost2010PropOp53
 70
     1
102
RTVSPost2010Prop54
  1
strokes_ogs.tif
102
RTVSPost2010PropOp54
 70
     1
102
RTVSPost2010Prop55
280
     0
102
RTVSPost2010PropOp55
 70
     1
102
RTVSPost2010Prop56
140
1.0
102
RTVSPost2010PropOp56
 70
     1
102
RTVSPost2010Prop57
140
1.0
102
RTVSPost2010PropOp57
 70
     1
  0
XRECORD
  5
1D5
102
{ACAD_REACTORS
330
1D4
102
}
330
1D4
100
AcDbXrecord
280
     1
102
RTVSPropertyOp0
 70
     1
102
RTVSPropertyOp1
 70
     1
102
RTVSPropertyOp2
 70
     1
102
RTVSPropertyOp3
 70
     1
102
RTVSPropertyOp4
 70
     1
102
RTVSPropertyOp5
 70
     1
102
RTVSPropertyOp6
 70
     1
102
RTVSPropertyOp7
 70
     1
102
RTVSPropertyOp8
 70
     1
102
RTVSPropertyOp9
 70
     1
102
RTVSPropertyOp10
 70
     1
102
RTVSPropertyOp11
 70
     1
102
RTVSPropertyOp12
 70
     1
102
RTVSPropertyOp13
 70
     1
102
RTVSPropertyOp14
 70
     1
102
RTVSPropertyOp15
 70
     1
102
RTVSPropertyOp16
 70
     1
102
RTVSPropertyOp17
 70
     1
102
RTVSPropertyOp18
 70
     1
102
RTVSPropertyOp19
 70
     1
102
RTVSPropertyOp20
 70
     1
102
RTVSPropertyOp21
 70
     1
102
RTVSPropertyOp22
 70
     1
102
RTVSPropertyOp23
 70
     1
102
RTVSPropertyOp24
 70
     1
102
RTVSPropertyOp25
 70
     1
102
RTVSPropertyOp26
 70
     1
102
RTVSPropertyOp27
 70
     1
102
RTVSPropertyOp28
 70
     1
102
RTVSPropertyOp29
 70
     1
102
RTVSPropertyOp30
 70
     1
102
RTVSPropertyOp31
 70
     1
102
RTVSPropertyOp32
 70
     1
102
RTVSPropertyOp33
 70
     1
102
RTVSPropertyOp34
 70
     1
102
RTVSPropertyOp35
 70
     1
102
RTVSPropertyOp36
 70
     1
102
RTVSPropertyOp37
 70
     1
102
RTVSPropertyOp38
 70
     1
102
RTVSPropertyOp39
 70
     1
102
RTVSPropertyOp40
 70
     1
102
RTVSPropertyOp41
 70
     1
102
RTVSPropertyOp42
 70
     1
102
RTVSPropertyOp43
 70
     1
102
RTVSPropertyOp44
 70
     1
102
RTVSPropertyOp45
 70
     1
102
RTVSPropertyOp46
 70
     1
102
RTVSPropertyOp47
 70
     1
102
RTVSPropertyOp48
 70
     1
102
RTVSPropertyOp49
 70
     1
102
RTVSPropertyOp50
 70
     1
102
RTVSPropertyOp51
 70
     0
102
RTVSPropertyOp52
 70
     0
102
RTVSPropertyOp53
 70
     1
102
RTVSPropertyOp54
 70
     1
102
RTVSPropertyOp55
 70
     1
102
RTVSPropertyOp56
 70
     1
102
RTVSPropertyOp57
 70
     1
102
RTVSPost2010Prop28
280
     0
102
RTVSPost2010PropOp28
 70
     1
102
RTVSPost2010Prop29
280
     1
102
RTVSPost2010PropOp29
 70
     1
102
RTVSPost2010Prop30
280
     1
102
RTVSPost2010PropOp30
 70
     1
102
RTVSPost2010Prop31
280
     0
102
RTVSPost2010PropOp31
 70
     1
102
RTVSPost2010Prop32
280
     0
102
RTVSPost2010PropOp32
 70
     1
102
RTVSPost2010Prop33
280
     0
102
RTVSPost2010PropOp33
 70
     1
102
RTVSPost2010Prop34
280
     0
102
RTVSPost2010PropOp34
 70
     1
102
RTVSPost2010Prop35
280
     0
102
RTVSPost2010PropOp35
 70
     1
102
RTVSPost2010Prop36
280
     0
102
RTVSPost2010PropOp36
 70
     1
102
RTVSPost2010Prop37
 90
       50
102
RTVSPost2010PropOp37
 70
     1
102
RTVSPost2010Prop38
140
0.0
102
RTVSPost2010PropOp38
 70
     1
102
RTVSPost2010Prop39
140
1.0
102
RTVSPost2010PropOp39
 70
     1
102
RTVSPost2010Prop40
 90
        0
102
RTVSPost2010PropOp40
 70
     1
102
RTVSPost2010Prop41ColorIndex
 90
       18
102
RTVSPost2010Prop41ColorRGB
 90
        0
102
RTVSPost2010PropOp41
 70
     1
102
RTVSPost2010Prop42
 90
       50
102
RTVSPost2010PropOp42
 70
     1
102
RTVSPost2010Prop43
 90
        3
102
RTVSPost2010PropOp43
 70
     1
102
RTVSPost2010Prop44ColorIndex
 90
        5
102
RTVSPost2010Prop44ColorRGB
 90
      255
102
RTVSPost2010PropOp44
 70
     1
102
RTVSPost2010Prop45
280
     0
102
RTVSPost2010PropOp45
 70
     1
102
RTVSPost2010Prop46
 90
       50
102
RTVSPost2010PropOp46
 70
     1
102
RTVSPost2010Prop47
 90
       50
102
RTVSPost2010PropOp47
 70
     1
102
RTVSPost2010Prop48
 90
       50
102
RTVSPost2010PropOp48
 70
     1
102
RTVSPost2010Prop49
280
     0
102
RTVSPost2010PropOp49
 70
     1
102
RTVSPost2010Prop50
 90
       50
102
RTVSPost2010PropOp50
 70
     1
102
RTVSPost2010Prop51ColorIndex
 90
      256
102
RTVSPost2010Prop51ColorRGB
 90
-16777216
102
RTVSPost2010PropOp51
 70
     0
102
RTVSPost2010Prop52
140
1.0
102
RTVSPost2010PropOp52
 70
     0
102
RTVSPost2010Prop53
 90
        2
102
RTVSPost2010PropOp53
 70
     1
102
RTVSPost2010Prop54
  1
strokes_ogs.tif
102
RTVSPost2010PropOp54
 70
     1
102
RTVSPost2010Prop55
280
     0
102
RTVSPost2010PropOp55
 70
     1
102
RTVSPost2010Prop56
140
1.0
102
RTVSPost2010PropOp56
 70
     1
102
RTVSPost2010Prop57
140
1.0
102
RTVSPost2010PropOp57
 70
     1
  0
ENDSEC
  0
EOF
