  0
SECTION
  2
HEADER
  9
$ACADVER
  1
AC1021
  9
$ACADMAINTVER
 70
    25
  9
$DWGCODEPAGE
  3
ANSI_1252
  9
$INSBASE
 10
0.0
 20
0.0
 30
0.0
  9
$EXTMIN
 10
1.000000000000000E+20
 20
1.000000000000000E+20
 30
1.000000000000000E+20
  9
$EXTMAX
 10
-1.000000000000000E+20
 20
-1.000000000000000E+20
 30
-1.000000000000000E+20
  9
$LIMMIN
 10
0.0
 20
0.0
  9
$LIMMAX
 10
12.0
 20
9.0
  9
$ORTHOMODE
 70
     0
  9
$REGENMODE
 70
     1
  9
$FILLMODE
 70
     1
  9
$QTEXTMODE
 70
     0
  9
$MIRRTEXT
 70
     1
  9
$LTSCALE
 40
1.0
  9
$ATTMODE
 70
     1
  9
$TEXTSIZE
 40
0.2
  9
$TRACEWID
 40
0.05
  9
$TEXTSTYLE
  7
Standard
  9
$CLAYER
  8
0
  9
$CELTYPE
  6
ByLayer
  9
$CECOLOR
 62
   256
  9
$CELTSCALE
 40
1.0
  9
$DISPSILH
 70
     0
  9
$DIMSCALE
 40
1.0
  9
$DIMASZ
 40
0.18
  9
$DIMEXO
 40
0.0625
  9
$DIMDLI
 40
0.38
  9
$DIMRND
 40
0.0
  9
$DIMDLE
 40
0.0
  9
$DIMEXE
 40
0.18
  9
$DIMTP
 40
0.0
  9
$DIMTM
 40
0.0
  9
$DIMTXT
 40
0.18
  9
$DIMCEN
 40
0.09
  9
$DIMTSZ
 40
0.0
  9
$DIMTOL
 70
     0
  9
$DIMLIM
 70
     0
  9
$DIMTIH
 70
     1
  9
$DIMTOH
 70
     1
  9
$DIMSE1
 70
     0
  9
$DIMSE2
 70
     0
  9
$DIMTAD
 70
     0
  9
$DIMZIN
 70
     0
  9
$DIMBLK
  1

  9
$DIMASO
 70
     1
  9
$DIMSHO
 70
     1
  9
$DIMPOST
  1

  9
$DIMAPOST
  1

  9
$DIMALT
 70
     0
  9
$DIMALTD
 70
     2
  9
$DIMALTF
 40
25.4
  9
$DIMLFAC
 40
1.0
  9
$DIMTOFL
 70
     0
  9
$DIMTVP
 40
0.0
  9
$DIMTIX
 70
     0
  9
$DIMSOXD
 70
     0
  9
$DIMSAH
 70
     0
  9
$DIMBLK1
  1

  9
$DIMBLK2
  1

  9
$DIMSTYLE
  2
STANDARD_ACAD
  9
$DIMCLRD
 70
     0
  9
$DIMCLRE
 70
     0
  9
$DIMCLRT
 70
     0
  9
$DIMTFAC
 40
1.0
  9
$DIMGAP
 40
0.09
  9
$DIMJUST
 70
     0
  9
$DIMSD1
 70
     0
  9
$DIMSD2
 70
     0
  9
$DIMTOLJ
 70
     1
  9
$DIMTZIN
 70
     0
  9
$DIMALTZ
 70
     0
  9
$DIMALTTZ
 70
     0
  9
$DIMUPT
 70
     0
  9
$DIMDEC
 70
     4
  9
$DIMTDEC
 70
     4
  9
$DIMALTU
 70
     2
  9
$DIMALTTD
 70
     2
  9
$DIMTXSTY
  7
Standard
  9
$DIMAUNIT
 70
     0
  9
$DIMADEC
 70
     0
  9
$DIMALTRND
 40
0.0
  9
$DIMAZIN
 70
     0
  9
$DIMDSEP
 70
    46
  9
$DIMATFIT
 70
     3
  9
$DIMFRAC
 70
     0
  9
$DIMLDRBLK
  1

  9
$DIMLUNIT
 70
     2
  9
$DIMLWD
 70
    -2
  9
$DIMLWE
 70
    -2
  9
$DIMTMOVE
 70
     2
  9
$DIMFXL
 40
1.0
  9
$DIMFXLON
 70
     0
  9
$DIMJOGANG
 40
0.7853981633974483
  9
$DIMTFILL
 70
     0
  9
$DIMTFILLCLR
 70
     0
  9
$DIMARCSYM
 70
     0
  9
$DIMLTYPE
  6

  9
$DIMLTEX1
  6

  9
$DIMLTEX2
  6

  9
$LUNITS
 70
     2
  9
$LUPREC
 70
     3
  9
$SKETCHINC
 40
0.1
  9
$FILLETRAD
 40
0.5
  9
$AUNITS
 70
     0
  9
$AUPREC
 70
     0
  9
$MENU
  1
.
  9
$ELEVATION
 40
0.0
  9
$PELEVATION
 40
0.0
  9
$THICKNESS
 40
0.0
  9
$LIMCHECK
 70
     0
  9
$CHAMFERA
 40
0.0
  9
$CHAMFERB
 40
0.0
  9
$CHAMFERC
 40
0.0
  9
$CHAMFERD
 40
0.0
  9
$SKPOLY
 70
     0
  9
$TDCREATE
 40
2459174.698069317
  9
$TDUCREATE
 40
2459174.90640265
  9
$TDUPDATE
 40
2459174.698090104
  9
$TDUUPDATE
 40
2459174.906423437
  9
$TDINDWG
 40
0.0000000116
  9
$TDUSRTIMER
 40
0.0000000116
  9
$USRTIMER
 70
     1
  9
$ANGBASE
 50
0.0
  9
$ANGDIR
 70
     0
  9
$PDMODE
 70
     0
  9
$PDSIZE
 40
0.0
  9
$PLINEWID
 40
0.0
  9
$SPLFRAME
 70
     0
  9
$SPLINETYPE
 70
     6
  9
$SPLINESEGS
 70
     8
  9
$HANDSEED
  5
157
  9
$SURFTAB1
 70
     6
  9
$SURFTAB2
 70
     6
  9
$SURFTYPE
 70
     6
  9
$SURFU
 70
     6
  9
$SURFV
 70
     6
  9
$UCSBASE
  2

  9
$UCSNAME
  2

  9
$UCSORG
 10
0.0
 20
0.0
 30
0.0
  9
$UCSXDIR
 10
1.0
 20
0.0
 30
0.0
  9
$UCSYDIR
 10
0.0
 20
1.0
 30
0.0
  9
$UCSORTHOREF
  2

  9
$UCSORTHOVIEW
 70
     0
  9
$UCSORGTOP
 10
0.0
 20
0.0
 30
0.0
  9
$UCSORGBOTTOM
 10
0.0
 20
0.0
 30
0.0
  9
$UCSORGLEFT
 10
0.0
 20
0.0
 30
0.0
  9
$UCSORGRIGHT
 10
0.0
 20
0.0
 30
0.0
  9
$UCSORGFRONT
 10
0.0
 20
0.0
 30
0.0
  9
$UCSORGBACK
 10
0.0
 20
0.0
 30
0.0
  9
$PUCSBASE
  2

  9
$PUCSNAME
  2

  9
$PUCSORG
 10
0.0
 20
0.0
 30
0.0
  9
$PUCSXDIR
 10
1.0
 20
0.0
 30
0.0
  9
$PUCSYDIR
 10
0.0
 20
1.0
 30
0.0
  9
$PUCSORTHOREF
  2

  9
$PUCSORTHOVIEW
 70
     0
  9
$PUCSORGTOP
 10
0.0
 20
0.0
 30
0.0
  9
$PUCSORGBOTTOM
 10
0.0
 20
0.0
 30
0.0
  9
$PUCSORGLEFT
 10
0.0
 20
0.0
 30
0.0
  9
$PUCSORGRIGHT
 10
0.0
 20
0.0
 30
0.0
  9
$PUCSORGFRONT
 10
0.0
 20
0.0
 30
0.0
  9
$PUCSORGBACK
 10
0.0
 20
0.0
 30
0.0
  9
$USERI1
 70
     0
  9
$USERI2
 70
     0
  9
$USERI3
 70
     0
  9
$USERI4
 70
     0
  9
$USERI5
 70
     0
  9
$USERR1
 40
0.0
  9
$USERR2
 40
0.0
  9
$USERR3
 40
0.0
  9
$USERR4
 40
0.0
  9
$USERR5
 40
0.0
  9
$WORLDVIEW
 70
     1
  9
$SHADEDGE
 70
     3
  9
$SHADEDIF
 70
    70
  9
$TILEMODE
 70
     1
  9
$MAXACTVP
 70
    64
  9
$PINSBASE
 10
0.0
 20
0.0
 30
0.0
  9
$PLIMCHECK
 70
     0
  9
$PEXTMIN
 10
1.000000000000000E+20
 20
1.000000000000000E+20
 30
1.000000000000000E+20
  9
$PEXTMAX
 10
-1.000000000000000E+20
 20
-1.000000000000000E+20
 30
-1.000000000000000E+20
  9
$PLIMMIN
 10
0.0
 20
0.0
  9
$PLIMMAX
 10
12.0
 20
9.0
  9
$UNITMODE
 70
     0
  9
$VISRETAIN
 70
     1
  9
$PLINEGEN
 70
     0
  9
$PSLTSCALE
 70
     1
  9
$TREEDEPTH
 70
  3020
  9
$CMLSTYLE
  2
Standard
  9
$CMLJUST
 70
     0
  9
$CMLSCALE
 40
1.0
  9
$PROXYGRAPHICS
 70
     1
  9
$MEASUREMENT
 70
     0
  9
$CELWEIGHT
370
    -1
  9
$ENDCAPS
280
     0
  9
$JOINSTYLE
280
     0
  9
$LWDISPLAY
290
     0
  9
$INSUNITS
 70
     1
  9
$HYPERLINKBASE
  1

  9
$STYLESHEET
  1

  9
$XEDIT
290
     1
  9
$CEPSNTYPE
380
     0
  9
$PSTYLEMODE
290
     1
  9
$FINGERPRINTGUID
  2
{20e15075-ab96-4967-93b3-d6204da0f1a0}
  9
$VERSIONGUID
  2
{FAEB1C32-E019-11D5-929B-00C0DF256EC4}
  9
$EXTNAMES
290
     1
  9
$PSVPSCALE
 40
0.0
  9
$OLESTARTUP
290
     0
  9
$SORTENTS
280
   127
  9
$INDEXCTL
280
     0
  9
$HIDETEXT
280
     1
  9
$XCLIPFRAME
290
     0
  9
$HALOGAP
280
     0
  9
$OBSCOLOR
 70
   257
  9
$OBSLTYPE
280
     0
  9
$INTERSECTIONDISPLAY
280
     0
  9
$INTERSECTIONCOLOR
 70
   257
  9
$DIMASSOC
280
     2
  9
$PROJECTNAME
  1

  9
$CAMERADISPLAY
290
     0
  9
$LENSLENGTH
 40
50.0
  9
$CAMERAHEIGHT
 40
0.0
  9
$STEPSPERSEC
 40
2.0
  9
$STEPSIZE
 40
6.0
  9
$3DDWFPREC
 40
2.0
  9
$PSOLWIDTH
 40
0.25
  9
$PSOLHEIGHT
 40
4.0
  9
$LOFTANG1
 40
1.570796326794897
  9
$LOFTANG2
 40
1.570796326794897
  9
$LOFTMAG1
 40
0.0
  9
$LOFTMAG2
 40
0.0
  9
$LOFTPARAM
 70
     7
  9
$LOFTNORMALS
280
     1
  9
$LATITUDE
 40
37.795
  9
$LONGITUDE
 40
-122.394
  9
$NORTHDIRECTION
 40
0.0
  9
$TIMEZONE
 70
 -8000
  9
$LIGHTGLYPHDISPLAY
280
     1
  9
$TILEMODELIGHTSYNCH
280
     1
  9
$CMATERIAL
347
44
  9
$SOLIDHIST
280
     0
  9
$SHOWHIST
280
     1
  9
$DWFFRAME
280
     2
  9
$DGNFRAME
280
     2
  9
$REALWORLDSCALE
290
     1
  9
$INTERFERECOLOR
 62
   256
  9
$CSHADOW
280
     0
  9
$SHADOWPLANELOCATION
 40
0.0
  0
ENDSEC
  0
SECTION
  2
CLASSES
  0
CLASS
  1
ACDBDICTIONARYWDFLT
  2
AcDbDictionaryWithDefault
  3
ObjectDBX Classes
 90
        0
 91
        3
280
     0
281
     0
  0
CLASS
  1
VISUALSTYLE
  2
AcDbVisualStyle
  3
ObjectDBX Classes
 90
     4095
 91
        3
280
     0
281
     0
  0
CLASS
  1
MATERIAL
  2
AcDbMaterial
  3
ObjectDBX Classes
 90
     1153
 91
        3
280
     0
281
     0
  0
CLASS
  1
SCALE
  2
AcDbScale
  3
ObjectDBX Classes
 90
     1153
 91
        3
280
     0
281
     0
  0
CLASS
  1
TABLESTYLE
  2
AcDbTableStyle
  3
ObjectDBX Classes
 90
     4095
 91
        3
280
     0
281
     0
  0
CLASS
  1
MLEADERSTYLE
  2
AcDbMLeaderStyle
  3
ACDB_MLEADERSTYLE_CLASS
 90
     4095
 91
        3
280
     0
281
     0
  0
CLASS
  1
SUN
  2
AcDbSun
  3
SCENEOE
 90
     1153
 91
        3
280
     0
281
     0
  0
CLASS
  1
DICTIONARYVAR
  2
AcDbDictionaryVar
  3
ObjectDBX Classes
 90
        0
 91
        3
280
     0
281
     0
  0
CLASS
  1
CELLSTYLEMAP
  2
AcDbCellStyleMap
  3
ObjectDBX Classes
 90
     1152
 91
        3
280
     0
281
     0
  0
ENDSEC
  0
SECTION
  2
TABLES
  0
TABLE
  2
VPORT
  5
8
330
0
100
AcDbSymbolTable
 70
     1
  0
VPORT
  5
29
330
8
100
AcDbSymbolTableRecord
100
AcDbViewportTableRecord
  2
*Active
 70
     0
 10
0.0
 20
0.0
 11
1.0
 21
1.0
 12
10.42990654205607
 22
4.5
 13
0.0
 23
0.0
 14
0.5
 24
0.5
 15
0.5
 25
0.5
 16
0.0
 26
0.0
 36
1.0
 17
0.0
 27
0.0
 37
0.0
 40
9.0
 41
1.972972972850329
 42
50.0
 43
0.0
 44
0.0
 50
0.0
 51
0.0
 71
     0
 72
   100
 73
     1
 74
     3
 75
     0
 76
     0
 77
     0
 78
     0
281
     0
 65
     1
110
0.0
120
0.0
130
0.0
111
1.0
121
0.0
131
0.0
112
0.0
122
1.0
132
0.0
 79
     0
146
0.0
348
2F
 60
     3
 61
     5
292
     1
282
     1
141
0.0
142
0.0
 63
   250
361
6D
  0
ENDTAB
  0
TABLE
  2
LTYPE
  5
5
330
0
100
AcDbSymbolTable
 70
     1
  0
LTYPE
  5
14
330
5
100
AcDbSymbolTableRecord
100
AcDbLinetypeTableRecord
  2
ByBlock
 70
     0
  3

 72
    65
 73
     0
 40
0.0
  0
LTYPE
  5
15
330
5
100
AcDbSymbolTableRecord
100
AcDbLinetypeTableRecord
  2
ByLayer
 70
     0
  3

 72
    65
 73
     0
 40
0.0
  0
LTYPE
  5
16
330
5
100
AcDbSymbolTableRecord
100
AcDbLinetypeTableRecord
  2
Continuous
 70
     0
  3
Solid line
 72
    65
 73
     0
 40
0.0
  0
ENDTAB
  0
TABLE
  2
LAYER
  5
2
330
0
100
AcDbSymbolTable
 70
     3
  0
LAYER
  5
10
330
2
100
AcDbSymbolTableRecord
100
AcDbLayerTableRecord
  2
0
 70
     0
 62
    18
420
        0
  6
Continuous
370
    -3
390
F
347
46
  0
LAYER
  5
DD
330
2
100
AcDbSymbolTableRecord
100
AcDbLayerTableRecord
  2
Make2D$Visible$Tangents
 70
     0
 62
    18
420
        0
  6
Continuous
370
    -3
390
F
347
46
  0
LAYER
  5
F4
330
2
100
AcDbSymbolTableRecord
100
AcDbLayerTableRecord
  2
Make2D$Visible$Curves
 70
     0
 62
    18
420
        0
  6
Continuous
370
    -3
390
F
347
46
  0
ENDTAB
  0
TABLE
  2
STYLE
  5
3
330
0
100
AcDbSymbolTable
 70
     1
  0
STYLE
  5
11
330
3
100
AcDbSymbolTableRecord
100
AcDbTextStyleTableRecord
  2
Standard
 70
     0
 40
0.0
 41
1.0
 50
0.0
 71
     0
 42
0.2
  3
txt
  4

  0
ENDTAB
  0
TABLE
  2
VIEW
  5
6
330
0
100
AcDbSymbolTable
 70
     0
  0
ENDTAB
  0
TABLE
  2
UCS
  5
7
330
0
100
AcDbSymbolTable
 70
     0
  0
ENDTAB
  0
TABLE
  2
APPID
  5
9
330
0
100
AcDbSymbolTable
 70
     2
  0
APPID
  5
12
330
9
100
AcDbSymbolTableRecord
100
AcDbRegAppTableRecord
  2
ACAD
 70
     0
  0
APPID
  5
14F
330
9
100
AcDbSymbolTableRecord
100
AcDbRegAppTableRecord
  2
ACAD_MLEADERVER
 70
     0
  0
ENDTAB
  0
TABLE
  2
DIMSTYLE
  5
A
330
0
100
AcDbSymbolTable
 70
     1
100
AcDbDimStyleTable
  0
DIMSTYLE
105
27
330
A
100
AcDbSymbolTableRecord
100
AcDbDimStyleTableRecord
  2
STANDARD_ACAD
 70
     0
178
     0
340
11
  0
ENDTAB
  0
TABLE
  2
BLOCK_RECORD
  5
1
330
0
100
AcDbSymbolTable
 70
     1
  0
BLOCK_RECORD
  5
1F
330
1
100
AcDbSymbolTableRecord
100
AcDbBlockTableRecord
  2
*Model_Space
340
22
 70
     0
280
     1
281
     0
  0
BLOCK_RECORD
  5
1B
330
1
100
AcDbSymbolTableRecord
100
AcDbBlockTableRecord
  2
*Paper_Space
340
1E
 70
     0
280
     1
281
     0
  0
BLOCK_RECORD
  5
23
330
1
100
AcDbSymbolTableRecord
100
AcDbBlockTableRecord
  2
*Paper_Space0
340
26
 70
     0
280
     1
281
     0
  0
ENDTAB
  0
ENDSEC
  0
SECTION
  2
BLOCKS
  0
BLOCK
  5
20
330
1F
100
AcDbEntity
  8
0
100
AcDbBlockBegin
  2
*Model_Space
 70
     0
 10
0.0
 20
0.0
 30
0.0
  3
*Model_Space
  1

  0
ENDBLK
  5
21
330
1F
100
AcDbEntity
  8
0
100
AcDbBlockEnd
  0
BLOCK
  5
1C
330
1B
100
AcDbEntity
 67
     1
  8
0
100
AcDbBlockBegin
  2
*Paper_Space
 70
     0
 10
0.0
 20
0.0
 30
0.0
  3
*Paper_Space
  1

  0
ENDBLK
  5
1D
330
1B
100
AcDbEntity
 67
     1
  8
0
100
AcDbBlockEnd
  0
BLOCK
  5
24
330
23
100
AcDbEntity
  8
0
100
AcDbBlockBegin
  2
*Paper_Space0
 70
     0
 10
0.0
 20
0.0
 30
0.0
  3
*Paper_Space0
  1

  0
ENDBLK
  5
25
330
23
100
AcDbEntity
  8
0
100
AcDbBlockEnd
  0
ENDSEC
  0
SECTION
  2
ENTITIES
  0
SPLINE
  5
6E
330
1F
100
AcDbEntity
  8
0
 62
     1
420
 16711680
370
    -3
100
AcDbSpline
210
0.0
220
0.0
230
1.0
 70
     8
 71
     3
 72
     8
 73
     4
 74
     0
 42
0.000000001
 43
0.0000000001
 40
0.0044160966645264
 40
0.0044160966645264
 40
0.0044160966645264
 40
0.0044160966645264
 40
0.0047210618797727
 40
0.0047210618797727
 40
0.0047210618797727
 40
0.0047210618797727
 10
25.73097223116616
 20
17.44592268446083
 30
0.0
 10
25.73102449189071
 20
17.44585125809213
 30
0.0
 10
25.73107675332307
 20
17.44577983433102
 30
0.0
 10
25.73112901546614
 20
17.44570841317498
 30
0.0
  0
SPLINE
  5
6F
330
1F
100
AcDbEntity
  8
0
 62
     1
420
 16711680
370
    -3
100
AcDbSpline
210
0.0
220
0.0
230
1.0
 70
     8
 71
     3
 72
     8
 73
     4
 74
     0
 42
0.000000001
 43
0.0000000001
 40
3.494013072246815
 40
3.494013072246815
 40
3.494013072246815
 40
3.494013072246815
 40
3.518724291061334
 40
3.518724291061334
 40
3.518724291061334
 40
3.518724291061334
 10
5.13024078904499
 20
16.76642222195485
 30
0.0
 10
5.122655691523363
 20
16.76419372246862
 30
0.0
 10
5.115069836697103
 20
16.7619707414171
 30
0.0
 10
5.107483424432075
 20
16.75975334951912
 30
0.0
  0
SPLINE
  5
70
330
1F
100
AcDbEntity
  8
0
 62
     1
420
 16711680
370
    -3
100
AcDbSpline
210
0.0
220
0.0
230
1.0
 70
    12
 71
     3
 72
     8
 73
     4
 74
     0
 42
0.000000001
 43
0.0000000001
 40
0.0
 40
0.0
 40
0.0
 40
0.0
 40
0.0762624343719872
 40
0.0762624343719872
 40
0.0762624343719872
 40
0.0762624343719872
 10
3.196315784541391
 20
16.67640052682893
 30
0.0
 41
1.070103633578593
 10
3.195347273032499
 20
16.67248912875504
 30
0.0
 41
1.057611914324147
 10
3.194306264619044
 20
16.67021929281881
 30
0.0
 41
1.046789613350537
 10
3.193195515551098
 20
16.66965333790071
 30
0.0
 41
1.037636730657763
  0
SPLINE
  5
71
330
1F
100
AcDbEntity
  8
0
 62
     1
420
 16711680
370
    -3
100
AcDbSpline
210
0.0
220
0.0
230
1.0
 70
     8
 71
     3
 72
     8
 73
     4
 74
     0
 42
0.000000001
 43
0.0000000001
 40
0.0321156169833694
 40
0.0321156169833694
 40
0.0321156169833694
 40
0.0321156169833694
 40
0.0328439558544003
 40
0.0328439558544003
 40
0.0328439558544003
 40
0.0328439558544003
 10
3.192680787599699
 20
16.66951368633312
 30
0.0
 10
3.192438328194925
 20
16.66950470954859
 30
0.0
 10
3.192195868832869
 20
16.6694957348185
 30
0.0
 10
3.191953409513303
 20
16.6694867621423
 30
0.0
  0
SPLINE
  5
72
330
1F
100
AcDbEntity
  8
0
370
    -3
100
AcDbSpline
210
0.0
220
0.0
230
1.0
 70
    28
 71
     2
 72
     6
 73
     3
 74
     0
 42
0.000000001
 43
0.0000000001
 40
0.1854995770320006
 40
0.1854995770320006
 40
0.1854995770320006
 40
17.30129499533775
 40
17.30129499533775
 40
17.30129499533775
 10
7.943711972445672
 20
16.95557815437225
 30
0.0
 41
0.91211716420634
 10
8.473098579915584
 20
8.638522886681578
 30
0.0
 41
0.9121171642063401
 10
9.002485187385497
 20
0.3214676189909051
 30
0.0
 41
0.9121171642063401
  0
SPLINE
  5
73
330
1F
100
AcDbEntity
  8
0
370
    -3
100
AcDbSpline
210
0.0
220
0.0
230
1.0
 70
     8
 71
     3
 72
    10
 73
     6
 74
     0
 42
0.000000001
 43
0.0000000001
 40
17.30129499533775
 40
17.30129499533775
 40
17.30129499533775
 40
17.30129499533775
 40
18.30128747464974
 40
19.30129123499374
 40
20.30129499533775
 40
20.30129499533775
 40
20.30129499533775
 40
20.30129499533775
 10
9.002485187385503
 20
0.3214676189909085
 30
0.0
 10
9.005636782402746
 20
0.273230363808068
 30
0.0
 10
8.986610413463609
 20
0.1751314179109897
 30
0.0
 10
8.890137777659504
 20
0.0607643758461194
 30
0.0
 10
8.79685375384193
 20
0.0247777987963644
 30
0.0
 10
8.748664243036785
 20
0.0205406176290097
 30
0.0
  0
SPLINE
  5
74
330
1F
100
AcDbEntity
  8
0
 62
    18
420
        0
370
    -3
100
AcDbSpline
210
0.0
220
0.0
230
1.0
 70
     8
 71
     3
 72
    19
 73
    15
 74
     0
 42
0.000000001
 43
0.0000000001
 40
-8.0
 40
-8.0
 40
-8.0
 40
-8.0
 40
-7.0
 40
-6.0
 40
-5.0
 40
-5.0
 40
-5.0
 40
-4.0
 40
-3.0
 40
-2.0
 40
-1.0
 40
-1.0
 40
-1.0
 40
0.0
 40
0.0
 40
0.0
 40
0.0
 10
-0.0000158007974278
 20
40.48702120493142
 30
0.0
 10
0.681657815494674
 20
40.48708890069075
 30
0.0
 10
2.045020319651314
 20
40.48804642706635
 30
0.0
 10
4.089955599309462
 20
40.51079211801409
 30
0.0
 10
5.452548579222537
 20
40.56630825846221
 30
0.0
 10
6.132060050774356
 20
40.62169113828233
 30
0.0
 10
6.354835917692611
 20
40.64801269767437
 30
0.0
 10
6.816625258642063
 20
40.65109756393396
 30
0.0
 10
7.425278887628821
 20
41.00181340250747
 30
0.0
 10
7.770476345812511
 20
41.60810152122345
 30
0.0
 10
7.814471727275361
 20
42.06428839107097
 30
0.0
 10
7.809920363790809
 20
42.28947963906016
 30
0.0
 10
7.848625389454384
 20
46.19522455645061
 30
0.0
 10
7.666659893339585
 20
50.10927581339456
 30
0.0
 10
7.693655796895143
 20
54.0146321885925
 30
0.0
  0
SPLINE
  5
75
330
1F
100
AcDbEntity
  8
0
 62
    18
420
        0
370
    -3
100
AcDbSpline
210
0.0
220
0.0
230
1.0
 70
     8
 71
     3
 72
    12
 73
     8
 74
     0
 42
0.000000001
 43
0.0000000001
 40
0.0
 40
0.0
 40
0.0
 40
0.0
 40
1.0
 40
2.0
 40
3.0
 40
4.0
 40
5.0
 40
5.0
 40
5.0
 40
5.0
 10
7.693655796895143
 20
54.0146321885925
 30
0.0
 10
7.698148524723393
 20
54.66457165922414
 30
0.0
 10
7.308088355307859
 20
55.97951361849
 30
0.0
 10
5.731165845429018
 20
57.23406997990027
 30
0.0
 10
3.884022402372608
 20
57.89988460299685
 30
0.0
 10
1.953567916011224
 20
58.23766558245882
 30
0.0
 10
0.650402233618081
 20
58.30446162070277
 30
0.0
 10
-0.0010953737913439
 20
58.30399472255564
 30
0.0
  0
SPLINE
  5
76
330
1F
100
AcDbEntity
  8
0
 62
    18
420
        0
370
    -3
100
AcDbSpline
210
0.0
220
0.0
230
1.0
 70
     8
 71
     3
 72
    12
 73
     8
 74
     0
 42
0.000000001
 43
0.0000000001
 40
5.0
 40
5.0
 40
5.0
 40
5.0
 40
6.0
 40
7.0
 40
8.0
 40
9.0
 40
10.0
 40
10.0
 40
10.0
 40
10.0
 10
-0.0010953737913439
 20
58.30399472255564
 30
0.0
 10
-0.6525929812007689
 20
58.30446162070277
 30
0.0
 10
-1.95575866359394
 20
58.23766558245882
 30
0.0
 10
-3.886213149955296
 20
57.89988460299685
 30
0.0
 10
-5.733356593011706
 20
57.23406997990027
 30
0.0
 10
-7.310279102890547
 20
55.97951361849
 30
0.0
 10
-7.70033927230611
 20
54.66457165922414
 30
0.0
 10
-7.695846544477831
 20
54.0146321885925
 30
0.0
  0
SPLINE
  5
77
330
1F
100
AcDbEntity
  8
0
 62
    18
420
        0
370
    -3
100
AcDbSpline
210
0.0
220
0.0
230
1.0
 70
     8
 71
     3
 72
    19
 73
    15
 74
     0
 42
0.000000001
 43
0.0000000001
 40
10.0
 40
10.0
 40
10.0
 40
10.0
 40
11.0
 40
11.0
 40
11.0
 40
12.0
 40
13.0
 40
14.0
 40
15.0
 40
15.0
 40
15.0
 40
16.0
 40
17.0
 40
18.0
 40
18.0
 40
18.0
 40
18.0
 10
-7.695846544477831
 20
54.0146321885925
 30
0.0
 10
-7.668850640922273
 20
50.10927581339456
 30
0.0
 10
-7.8508161370371
 20
46.19522455645061
 30
0.0
 10
-7.812111111373525
 20
42.28947963906016
 30
0.0
 10
-7.816662474858049
 20
42.06428839107097
 30
0.0
 10
-7.772667093395199
 20
41.60810152122345
 30
0.0
 10
-7.427469635211509
 20
41.00181340250747
 30
0.0
 10
-6.818816006224779
 20
40.65109756393396
 30
0.0
 10
-6.357026665275328
 20
40.64801269767437
 30
0.0
 10
-6.134250798357073
 20
40.62169113828233
 30
0.0
 10
-5.454739326805225
 20
40.56630825846221
 30
0.0
 10
-4.09214634689215
 20
40.51079211801409
 30
0.0
 10
-2.047211067234002
 20
40.48804642706635
 30
0.0
 10
-0.6838485630773619
 20
40.48708890069075
 30
0.0
 10
-0.0021749467852601
 20
40.48702120493142
 30
0.0
  0
SPLINE
  5
78
330
1F
100
AcDbEntity
  8
0
 62
    18
420
        0
370
    -3
100
AcDbSpline
210
0.0
220
0.0
230
1.0
 70
     8
 71
     3
 72
    12
 73
     8
 74
     0
 42
0.000000001
 43
0.0000000001
 40
-5.0
 40
-5.0
 40
-5.0
 40
-5.0
 40
-4.0
 40
-3.0
 40
-2.0
 40
-1.0
 40
0.0
 40
0.0
 40
0.0
 40
0.0
 10
7.914407880567921
 20
41.18076527930793
 30
0.0
 10
8.019650680314044
 20
41.12669503693283
 30
0.0
 10
8.256276836793404
 20
41.06930873505394
 30
0.0
 10
8.611151563612339
 20
41.15653843542284
 30
0.0
 10
8.884978720238507
 20
41.39843631900781
 30
0.0
 10
9.018049306495612
 20
41.73807203674428
 30
0.0
 10
8.994116073733295
 20
41.99563748352026
 30
0.0
 10
8.955170942532249
 20
42.10738509602376
 30
0.0
  0
SPLINE
  5
79
330
1F
100
AcDbEntity
  8
0
 62
    18
420
        0
370
    -3
100
AcDbSpline
210
0.0
220
0.0
230
1.0
 70
    28
 71
     2
 72
     6
 73
     3
 74
     0
 42
0.000000001
 43
0.0000000001
 40
-17.13047804630719
 40
-17.13047804630719
 40
-17.13047804630719
 40
-7.962159045797764
 40
-7.962159045797764
 40
-7.962159045797764
 10
8.955170942532275
 20
42.10738509602376
 30
0.0
 41
0.9969117227420565
 10
8.59497206113695
 20
43.14092545860626
 30
0.0
 41
0.9969117227420565
 10
8.234773179741625
 20
44.17446582118878
 30
0.0
 41
0.9969117227420565
  0
SPLINE
  5
7A
330
1F
100
AcDbEntity
  8
0
 62
    18
420
        0
370
    -3
100
AcDbSpline
210
0.0
220
0.0
230
1.0
 70
     8
 71
     3
 72
    12
 73
     8
 74
     0
 42
0.000000001
 43
0.0000000001
 40
-5.0
 40
-5.0
 40
-5.0
 40
-5.0
 40
-4.0
 40
-3.0
 40
-2.0
 40
-1.0
 40
0.0
 40
0.0
 40
0.0
 40
0.0
 10
-7.914420526852467
 20
41.18076527930793
 30
0.0
 10
-8.019663326598561
 20
41.12669503693283
 30
0.0
 10
-8.256289483077921
 20
41.06930873505394
 30
0.0
 10
-8.611164209896856
 20
41.15653843542284
 30
0.0
 10
-8.884991366523025
 20
41.39843631900781
 30
0.0
 10
-9.01806195278013
 20
41.73807203674428
 30
0.0
 10
-8.99412872001784
 20
41.99563748352026
 30
0.0
 10
-8.955183588816794
 20
42.10738509602376
 30
0.0
  0
SPLINE
  5
7B
330
1F
100
AcDbEntity
  8
0
 62
    18
420
        0
370
    -3
100
AcDbSpline
210
0.0
220
0.0
230
1.0
 70
    28
 71
     2
 72
     6
 73
     3
 74
     0
 42
0.000000001
 43
0.0000000001
 40
-17.13047804630719
 40
-17.13047804630719
 40
-17.13047804630719
 40
-7.962159045797764
 40
-7.962159045797764
 40
-7.962159045797764
 10
-8.955183588816787
 20
42.10738509602376
 30
0.0
 41
0.9969117227420565
 10
-8.59498470742147
 20
43.14092545860626
 30
0.0
 41
0.9969117227420565
 10
-8.234785826026153
 20
44.17446582118878
 30
0.0
 41
0.9969117227420565
  0
SPLINE
  5
7C
330
1F
100
AcDbEntity
  8
0
370
    -3
100
AcDbSpline
210
0.0
220
0.0
230
1.0
 70
     8
 71
     2
 72
    11
 73
     8
 74
     0
 42
0.000000001
 43
0.0000000001
 40
-6.0
 40
-6.0
 40
-6.0
 40
-5.0
 40
-4.0
 40
-3.0
 40
-2.0
 40
-1.0
 40
0.0
 40
0.0
 40
0.0
 10
8.05313041499926
 20
56.11874659988052
 30
0.0
 10
7.551607210865939
 20
56.63807932517683
 30
0.0
 10
6.310489788450894
 20
57.3707833723748
 30
0.0
 10
4.964930712811594
 20
57.87569330859225
 30
0.0
 10
3.569496936471893
 20
58.21516065832578
 30
0.0
 10
2.149440617487954
 20
58.42600144540584
 30
0.0
 10
0.717704114726331
 20
58.52930209743382
 30
0.0
 10
-0.0000063231422587
 20
58.52965771372653
 30
0.0
  0
SPLINE
  5
7D
330
1F
100
AcDbEntity
  8
0
370
    -3
100
AcDbSpline
210
0.0
220
0.0
230
1.0
 70
     8
 71
     2
 72
    11
 73
     8
 74
     0
 42
0.000000001
 43
0.0000000001
 40
0.0
 40
0.0
 40
0.0
 40
1.0
 40
2.0
 40
3.0
 40
4.0
 40
5.0
 40
6.0
 40
6.0
 40
6.0
 10
-0.0000063231422587
 20
58.52965771372653
 30
0.0
 10
-0.7177167610108484
 20
58.52930209743382
 30
0.0
 10
-2.149453263772472
 20
58.42600144540584
 30
0.0
 10
-3.56950958275641
 20
58.21516065832578
 30
0.0
 10
-4.964943359096111
 20
57.87569330859225
 30
0.0
 10
-6.310502434735412
 20
57.3707833723748
 30
0.0
 10
-7.551619857150456
 20
56.63807932517683
 30
0.0
 10
-8.053143061283777
 20
56.11874659988052
 30
0.0
  0
SPLINE
  5
7E
330
1F
100
AcDbEntity
  8
0
100
AcDbSpline
210
0.0
220
0.0
230
1.0
 70
     8
 71
     2
 72
    11
 73
     8
 74
     0
 42
0.000000001
 43
0.0000000001
 40
-6.0
 40
-6.0
 40
-6.0
 40
-5.0
 40
-4.0
 40
-3.0
 40
-2.0
 40
-1.0
 40
0.0
 40
0.0
 40
0.0
 10
7.138127002588618
 20
61.16104105543734
 30
0.0
 10
7.262975529727868
 20
61.119399993671
 30
0.0
 10
7.505701603933289
 20
61.01745814467524
 30
0.0
 10
7.737157608341391
 20
60.89170987417332
 30
0.0
 10
7.949462318937947
 20
60.73536999554186
 30
0.0
 10
8.128047639649822
 20
60.54024558406703
 30
0.0
 10
8.239575997534132
 20
60.29857924402163
 30
0.0
 10
8.239754843961464
 20
60.16481666914307
 30
0.0
  0
LINE
  5
7F
330
1F
100
AcDbEntity
  8
0
100
AcDbLine
 10
8.239754843961464
 20
60.16481666914307
 30
0.0
 11
8.24935207151941
 21
42.15922748597495
 31
0.0
  0
SPLINE
  5
80
330
1F
100
AcDbEntity
  8
0
100
AcDbSpline
210
0.0
220
0.0
230
1.0
 70
     8
 71
     2
 72
    11
 73
     8
 74
     0
 42
0.000000001
 43
0.0000000001
 40
18.00559111365089
 40
18.00559111365089
 40
18.00559111365089
 40
19.00559111365089
 40
20.00559111365089
 40
21.00559111365089
 40
22.00559111365089
 40
23.00559111365089
 40
24.00559111365089
 40
24.00559111365089
 40
24.00559111365089
 10
8.24935207151941
 20
42.15922748597495
 30
0.0
 10
8.250473583865983
 20
41.95231113933625
 30
0.0
 10
8.16534430605563
 20
41.54628279766373
 30
0.0
 10
7.957829346513222
 20
41.1845787016891
 30
0.0
 10
7.633073696825335
 20
40.92513388945807
 30
0.0
 10
7.254370164974574
 20
40.75749900503632
 30
0.0
 10
6.850794105179574
 20
40.6677280620643
 30
0.0
 10
6.645328592126901
 20
40.64767026559547
 30
0.0
  0
SPLINE
  5
81
330
1F
100
AcDbEntity
  8
0
100
AcDbSpline
210
0.0
220
0.0
230
1.0
 70
     8
 71
     2
 72
    11
 73
     8
 74
     0
 42
0.000000001
 43
0.0000000001
 40
24.00559111365089
 40
24.00559111365089
 40
24.00559111365089
 40
25.00559111365089
 40
26.00559111365089
 40
27.00559111365089
 40
28.00559111365089
 40
29.00559111365089
 40
30.00559111365089
 40
30.00559111365089
 40
30.00559111365089
 10
6.645328592126901
 20
40.64767026559547
 30
0.0
 10
6.093745118910903
 20
40.59330509838198
 30
0.0
 10
4.986861022945675
 20
40.53436965675713
 30
0.0
 10
3.878988094469719
 20
40.5020127702352
 30
0.0
 10
2.770776422694979
 20
40.48560894789081
 30
0.0
 10
1.662473672728765
 20
40.47875106071461
 30
0.0
 10
0.5541538422850465
 20
40.47703409066485
 30
0.0
 10
-0.0000063231422587
 20
40.47714209298588
 30
0.0
  0
SPLINE
  5
82
330
1F
100
AcDbEntity
  8
0
100
AcDbSpline
210
0.0
220
0.0
230
1.0
 70
     8
 71
     2
 72
    11
 73
     8
 74
     0
 42
0.000000001
 43
0.0000000001
 40
30.00559111365089
 40
30.00559111365089
 40
30.00559111365089
 40
31.00559111365089
 40
32.00559111365089
 40
33.00559111365089
 40
34.00559111365089
 40
35.00559111365089
 40
36.00559111365089
 40
36.00559111365089
 40
36.00559111365089
 10
-0.0000063231422587
 20
40.47714209298588
 30
0.0
 10
-0.5541664885695639
 20
40.47703409066485
 30
0.0
 10
-1.662486319013283
 20
40.47875106071461
 30
0.0
 10
-2.770789068979497
 20
40.48560894789081
 30
0.0
 10
-3.879000740754236
 20
40.5020127702352
 30
0.0
 10
-4.986873669230192
 20
40.53436965675713
 30
0.0
 10
-6.09375776519542
 20
40.59330509838198
 30
0.0
 10
-6.645341238411419
 20
40.64767026559547
 30
0.0
  0
SPLINE
  5
83
330
1F
100
AcDbEntity
  8
0
100
AcDbSpline
210
0.0
220
0.0
230
1.0
 70
     8
 71
     2
 72
    11
 73
     8
 74
     0
 42
0.000000001
 43
0.0000000001
 40
36.00559111365089
 40
36.00559111365089
 40
36.00559111365089
 40
37.00559111365089
 40
38.00559111365089
 40
39.00559111365089
 40
40.00559111365089
 40
41.00559111365089
 40
42.00559111365089
 40
42.00559111365089
 40
42.00559111365089
 10
-6.645341238411419
 20
40.64767026559547
 30
0.0
 10
-6.850806751464091
 20
40.6677280620643
 30
0.0
 10
-7.254382811259092
 20
40.75749900503632
 30
0.0
 10
-7.633086343109852
 20
40.92513388945807
 30
0.0
 10
-7.957841992797739
 20
41.1845787016891
 30
0.0
 10
-8.165356952340147
 20
41.54628279766373
 30
0.0
 10
-8.2504862301505
 20
41.95231113933625
 30
0.0
 10
-8.249364717803928
 20
42.15922748597495
 30
0.0
  0
LINE
  5
84
330
1F
100
AcDbEntity
  8
0
100
AcDbLine
 10
-8.249364717803928
 20
42.15922748597495
 30
0.0
 11
-8.239767490245981
 21
60.16481666914307
 31
0.0
  0
SPLINE
  5
85
330
1F
100
AcDbEntity
  8
0
100
AcDbSpline
210
0.0
220
0.0
230
1.0
 70
     8
 71
     2
 72
    11
 73
     8
 74
     0
 42
0.000000001
 43
0.0000000001
 40
60.01118222730179
 40
60.01118222730179
 40
60.01118222730179
 40
61.01118222730179
 40
62.01118222730179
 40
63.01118222730179
 40
64.01118222730179
 40
65.01118222730179
 40
66.01118222730179
 40
66.01118222730179
 40
66.01118222730179
 10
-8.239767490245981
 20
60.16481666914307
 30
0.0
 10
-8.23958864381865
 20
60.29857924402163
 30
0.0
 10
-8.128060285934339
 20
60.54024558406703
 30
0.0
 10
-7.949474965222464
 20
60.73536999554186
 30
0.0
 10
-7.737170254625909
 20
60.89170987417332
 30
0.0
 10
-7.505714250217807
 20
61.01745814467524
 30
0.0
 10
-7.262988176012385
 20
61.119399993671
 30
0.0
 10
-7.138139648873135
 20
61.16104105543734
 30
0.0
  0
SPLINE
  5
86
330
1F
100
AcDbEntity
  8
0
100
AcDbSpline
210
0.0
220
0.0
230
1.0
 70
     8
 71
     2
 72
    11
 73
     8
 74
     0
 42
0.000000001
 43
0.0000000001
 40
66.01118222730179
 40
66.01118222730179
 40
66.01118222730179
 40
67.01118222730179
 40
68.01118222730179
 40
69.01118222730179
 40
70.01118222730179
 40
71.01118222730179
 40
72.01118222730179
 40
72.01118222730179
 40
72.01118222730179
 10
-7.138139648873135
 20
61.16104105543734
 30
0.0
 10
-6.566905276438462
 20
61.34848710552775
 30
0.0
 10
-5.389239882523185
 20
61.58915413491134
 30
0.0
 10
-4.198248463888319
 20
61.7464115777433
 30
0.0
 10
-3.00115243903582
 20
61.84568838253414
 30
0.0
 10
-1.801373819288642
 20
61.90248594359942
 30
0.0
 10
-0.6005403021393931
 20
61.92697383952237
 30
0.0
 10
-0.0000063231422587
 20
61.92671796043396
 30
0.0
  0
SPLINE
  5
87
330
1F
100
AcDbEntity
  8
0
100
AcDbSpline
210
0.0
220
0.0
230
1.0
 70
     8
 71
     2
 72
    11
 73
     8
 74
     0
 42
0.000000001
 43
0.0000000001
 40
72.01118222730179
 40
72.01118222730179
 40
72.01118222730179
 40
73.01118222730179
 40
74.01118222730179
 40
75.01118222730179
 40
76.01118222730179
 40
77.01118222730179
 40
78.01118222730179
 40
78.01118222730179
 40
78.01118222730179
 10
-0.0000063231422587
 20
61.92671796043396
 30
0.0
 10
0.6005276558548758
 20
61.92697383952237
 30
0.0
 10
1.801361173004125
 20
61.90248594359942
 30
0.0
 10
3.001139792751303
 20
61.84568838253414
 30
0.0
 10
4.198235817603802
 20
61.7464115777433
 30
0.0
 10
5.389227236238668
 20
61.58915413491134
 30
0.0
 10
6.566892630153944
 20
61.34848710552775
 30
0.0
 10
7.138127002588618
 20
61.16104105543734
 30
0.0
  0
SPLINE
  5
88
330
1F
100
AcDbEntity
  8
0
370
    -3
100
AcDbSpline
210
0.0
220
0.0
230
1.0
 70
     8
 71
     2
 72
    11
 73
     8
 74
     0
 42
0.000000001
 43
0.0000000001
 40
0.0
 40
0.0
 40
0.0
 40
1.0
 40
2.0
 40
3.0
 40
4.0
 40
5.0
 40
6.0
 40
6.0
 40
6.0
 10
-0.00000571329997
 20
17.50564513971824
 30
0.0
 10
-0.6863552665652435
 20
17.5052841466897
 30
0.0
 10
-2.059038217486687
 20
17.50450669589482
 30
0.0
 10
-3.431792788213841
 20
17.51672388057328
 30
0.0
 10
-4.8033354917265
 20
17.5654165251708
 30
0.0
 10
-6.173831817426787
 20
17.68836578496396
 30
0.0
 10
-7.507004707139458
 20
17.96012201411992
 30
0.0
 10
-8.19051329067338
 20
18.20969595166052
 30
0.0
  0
SPLINE
  5
89
330
1F
100
AcDbEntity
  8
0
370
    -3
100
AcDbSpline
210
0.0
220
0.0
230
1.0
 70
    12
 71
     3
 72
     8
 73
     4
 74
     0
 42
0.000000001
 43
0.0000000001
 40
6.0
 40
6.0
 40
6.0
 40
6.0
 40
6.1095531143
 40
6.1095531143
 40
6.1095531143
 40
6.1095531143
 10
-8.190513290673351
 20
18.20969595166052
 30
0.0
 41
1.173246788037126
 10
-8.228714910801207
 20
18.22016693658545
 30
0.0
 41
0.9727685695181932
 10
-8.252360469845055
 20
18.25264284617466
 30
0.0
 41
0.9462828239155063
 10
-8.249108441729135
 20
18.29322407704159
 30
0.0
 41
1.093789551229066
  0
LINE
  5
8A
330
1F
100
AcDbEntity
  8
0
370
    -3
100
AcDbLine
 10
-8.249108441729163
 20
18.29322407704159
 30
0.0
 11
-8.229845066146254
 21
18.36757111925007
 31
0.0
  0
SPLINE
  5
8B
330
1F
100
AcDbEntity
  8
0
370
    -3
100
AcDbSpline
210
0.0
220
0.0
230
1.0
 70
     8
 71
     2
 72
     9
 73
     6
 74
     0
 42
0.000000001
 43
0.0000000001
 40
6.186355199714383
 40
6.186355199714383
 40
6.186355199714383
 40
7.186355199714383
 40
8.186355199714383
 40
9.186355199714383
 40
10.18635519971438
 40
10.18635519971438
 40
10.18635519971438
 10
-8.229845066146254
 20
18.36757111925007
 30
0.0
 10
-8.224145341011763
 20
18.38648742213186
 30
0.0
 10
-8.196684619016139
 20
18.41489599385092
 30
0.0
 10
-8.159362525086408
 20
18.42764284156942
 30
0.0
 10
-8.120487605312178
 20
18.42291115076574
 30
0.0
 10
-8.101942225248479
 20
18.41723497092613
 30
0.0
  0
SPLINE
  5
8C
330
1F
100
AcDbEntity
  8
0
370
    -3
100
AcDbSpline
210
0.0
220
0.0
230
1.0
 70
     8
 71
     2
 72
    11
 73
     8
 74
     0
 42
0.000000001
 43
0.0000000001
 40
10.18635519971438
 40
10.18635519971438
 40
10.18635519971438
 40
11.18635519971438
 40
12.18635519971438
 40
13.18635519971438
 40
14.18635519971438
 40
15.18635519971438
 40
16.18635519971438
 40
16.18635519971438
 40
16.18635519971438
 10
-8.101942225248479
 20
18.41723497092613
 30
0.0
 10
-7.437419461197919
 20
18.23021545238534
 30
0.0
 10
-6.102065500938579
 20
18.00491800248413
 30
0.0
 10
-4.748708894364029
 20
17.89152448754002
 30
0.0
 10
-3.392364248909416
 20
17.84925942490767
 30
0.0
 10
-2.035419178423837
 20
17.83901685324747
 30
0.0
 10
-0.6784776882536789
 20
17.8392866740144
 30
0.0
 10
-0.00000571329997
 20
17.83973852796532
 30
0.0
  0
SPLINE
  5
8D
330
1F
100
AcDbEntity
  8
0
370
    -3
100
AcDbSpline
210
0.0
220
0.0
230
1.0
 70
     8
 71
     2
 72
    11
 73
     8
 74
     0
 42
0.000000001
 43
0.0000000001
 40
16.18635519971438
 40
16.18635519971438
 40
16.18635519971438
 40
17.18635519971438
 40
18.18635519971438
 40
19.18635519971438
 40
20.18635519971438
 40
21.18635519971438
 40
22.18635519971438
 40
22.18635519971438
 40
22.18635519971438
 10
-0.00000571329997
 20
17.83973852796532
 30
0.0
 10
0.6784662616537389
 20
17.8392866740144
 30
0.0
 10
2.035407751823897
 20
17.83901685324747
 30
0.0
 10
3.392352822309476
 20
17.84925942490767
 30
0.0
 10
4.748697467764089
 20
17.89152448754002
 30
0.0
 10
6.102054074338639
 20
18.00491800248413
 30
0.0
 10
7.437408034597979
 20
18.23021545238534
 30
0.0
 10
8.101930798648539
 20
18.41723497092613
 30
0.0
  0
SPLINE
  5
8E
330
1F
100
AcDbEntity
  8
0
370
    -3
100
AcDbSpline
210
0.0
220
0.0
230
1.0
 70
     8
 71
     2
 72
     9
 73
     6
 74
     0
 42
0.000000001
 43
0.0000000001
 40
22.18635519971438
 40
22.18635519971438
 40
22.18635519971438
 40
23.18635519971438
 40
24.18635519971438
 40
25.18635519971438
 40
26.18635519971438
 40
26.18635519971438
 40
26.18635519971438
 10
8.101930798648539
 20
18.41723497092613
 30
0.0
 10
8.120476178712238
 20
18.42291115076574
 30
0.0
 10
8.159351098486468
 20
18.42764284156942
 30
0.0
 10
8.196673192416199
 20
18.41489599385092
 30
0.0
 10
8.224133914411851
 20
18.38648742213186
 30
0.0
 10
8.229833639546314
 20
18.36757111925007
 30
0.0
  0
LINE
  5
8F
330
1F
100
AcDbEntity
  8
0
370
    -3
100
AcDbLine
 10
8.229833639546314
 20
18.36757111925007
 30
0.0
 11
8.249097015129223
 21
18.29322407704159
 31
0.0
  0
SPLINE
  5
90
330
1F
100
AcDbEntity
  8
0
370
    -3
100
AcDbSpline
210
0.0
220
0.0
230
1.0
 70
    12
 71
     3
 72
     8
 73
     4
 74
     0
 42
0.000000001
 43
0.0000000001
 40
26.26315728512877
 40
26.26315728512877
 40
26.26315728512877
 40
26.26315728512877
 40
26.37271039942877
 40
26.37271039942877
 40
26.37271039942877
 40
26.37271039942877
 10
8.249097015129236
 20
18.29322407704159
 30
0.0
 41
1.093789551229066
 10
8.252349043245108
 20
18.25264284617466
 30
0.0
 41
0.9462828239155063
 10
8.228703484201242
 20
18.22016693658545
 30
0.0
 41
0.9727685695181932
 10
8.190501864073456
 20
18.20969595166052
 30
0.0
 41
1.173246788037126
  0
SPLINE
  5
91
330
1F
100
AcDbEntity
  8
0
370
    -3
100
AcDbSpline
210
0.0
220
0.0
230
1.0
 70
     8
 71
     2
 72
    11
 73
     8
 74
     0
 42
0.000000001
 43
0.0000000001
 40
26.37271039942877
 40
26.37271039942877
 40
26.37271039942877
 40
27.37271039942877
 40
28.37271039942877
 40
29.37271039942877
 40
30.37271039942877
 40
31.37271039942877
 40
32.37271039942877
 40
32.37271039942877
 40
32.37271039942877
 10
8.19050186407344
 20
18.20969595166052
 30
0.0
 10
7.506993280539518
 20
17.96012201411992
 30
0.0
 10
6.173820390826847
 20
17.68836578496396
 30
0.0
 10
4.80332406512656
 20
17.5654165251708
 30
0.0
 10
3.431781361613901
 20
17.51672388057328
 30
0.0
 10
2.059026790886747
 20
17.50450669589482
 30
0.0
 10
0.6863438399653035
 20
17.5052841466897
 30
0.0
 10
-0.00000571329997
 20
17.50564513971824
 30
0.0
  0
SPLINE
  5
92
330
1F
100
AcDbEntity
  8
0
370
    -3
100
AcDbSpline
210
0.0
220
0.0
230
1.0
 70
     8
 71
     2
 72
     7
 73
     4
 74
     0
 42
0.000000001
 43
0.0000000001
 40
0.0
 40
0.0
 40
0.0
 40
1.0
 40
2.0
 40
2.0
 40
2.0
 10
-8.234544666858653
 20
18.35081843944735
 30
0.0
 10
-8.23337773994433
 20
21.54131816289653
 30
0.0
 10
-8.240684596375502
 20
27.92231394651139
 30
0.0
 10
-8.239766803095677
 20
31.11281386317563
 30
0.0
  0
SPLINE
  5
93
330
1F
100
AcDbEntity
  8
0
370
    -3
100
AcDbSpline
210
0.0
220
0.0
230
1.0
 70
     8
 71
     2
 72
    11
 73
     8
 74
     0
 42
0.000000001
 43
0.0000000001
 40
2.0
 40
2.0
 40
2.0
 40
3.000000039736431
 40
4.000000079472863
 40
5.000000119209294
 40
6.000000158945726
 40
7.000000198682157
 40
8.0
 40
8.0
 40
8.0
 10
-8.239766803095677
 20
31.11281386317563
 30
0.0
 10
-8.243228207521952
 20
31.24337415224231
 30
0.0
 10
-8.162383195198402
 20
31.49174933514806
 30
0.0
 10
-7.981308352279285
 20
31.68304355774364
 30
0.0
 10
-7.739983092045634
 20
31.78239963546504
 30
0.0
 10
-7.484688952183433
 20
31.82626170599633
 30
0.0
 10
-7.2264562278759
 20
31.84172032993642
 30
0.0
 10
-7.097146032243359
 20
31.84100691736273
 30
0.0
  0
SPLINE
  5
94
330
1F
100
AcDbEntity
  8
0
370
    -3
100
AcDbSpline
210
0.0
220
0.0
230
1.0
 70
     8
 71
     2
 72
    11
 73
     8
 74
     0
 42
0.000000001
 43
0.0000000001
 40
8.0
 40
8.0
 40
8.0
 40
9.0
 40
10.0
 40
11.0
 40
12.0
 40
13.0
 40
14.0
 40
14.0
 40
14.0
 10
-7.097146032243359
 20
31.84100691736273
 30
0.0
 10
-6.505718151102059
 20
31.8388088166077
 30
0.0
 10
-5.322869160996447
 20
31.83284037078369
 30
0.0
 10
-4.140017463291713
 20
31.82746351956006
 30
0.0
 10
-2.957160972631812
 20
31.82323455929932
 30
0.0
 10
-1.774300630219983
 20
31.82028128857434
 30
0.0
 10
-0.5914375831626444
 20
31.81872736491269
 30
0.0
 10
-0.0000055448738863
 20
31.8187165239801
 30
0.0
  0
SPLINE
  5
95
330
1F
100
AcDbEntity
  8
0
370
    -3
100
AcDbSpline
210
0.0
220
0.0
230
1.0
 70
     8
 71
     2
 72
    11
 73
     8
 74
     0
 42
0.000000001
 43
0.0000000001
 40
14.0
 40
14.0
 40
14.0
 40
15.0
 40
16.0
 40
17.0
 40
18.0
 40
19.0
 40
20.0
 40
20.0
 40
20.0
 10
-0.0000055448738863
 20
31.8187165239801
 30
0.0
 10
0.5914264934148719
 20
31.81872736491269
 30
0.0
 10
1.774289540472211
 20
31.82028128857434
 30
0.0
 10
2.957149882884039
 20
31.82323455929932
 30
0.0
 10
4.14000637354394
 20
31.82746351956006
 30
0.0
 10
5.322858071248675
 20
31.83284037078369
 30
0.0
 10
6.505707061354286
 20
31.8388088166077
 30
0.0
 10
7.097134942495586
 20
31.84100691736273
 30
0.0
  0
SPLINE
  5
96
330
1F
100
AcDbEntity
  8
0
370
    -3
100
AcDbSpline
210
0.0
220
0.0
230
1.0
 70
     8
 71
     2
 72
    11
 73
     8
 74
     0
 42
0.000000001
 43
0.0000000001
 40
20.0
 40
20.0
 40
20.0
 40
20.99999980131784
 40
21.99999984105428
 40
22.99999988079071
 40
23.99999992052714
 40
24.99999996026357
 40
26.0
 40
26.0
 40
26.0
 10
7.097134942495586
 20
31.84100691736273
 30
0.0
 10
7.226445138128128
 20
31.84172032993642
 30
0.0
 10
7.48467786243566
 20
31.82626170599633
 30
0.0
 10
7.739972002297861
 20
31.78239963546504
 30
0.0
 10
7.981297262531513
 20
31.68304355774364
 30
0.0
 10
8.162372105450658
 20
31.49174933514806
 30
0.0
 10
8.24321711777418
 20
31.24337415224231
 30
0.0
 10
8.239755713347904
 20
31.11281386317563
 30
0.0
  0
SPLINE
  5
97
330
1F
100
AcDbEntity
  8
0
370
    -3
100
AcDbSpline
210
0.0
220
0.0
230
1.0
 70
     8
 71
     2
 72
     7
 73
     4
 74
     0
 42
0.000000001
 43
0.0000000001
 40
26.0
 40
26.0
 40
26.0
 40
27.0
 40
28.0
 40
28.0
 40
28.0
 10
8.239755713347904
 20
31.11281386317563
 30
0.0
 10
8.24067350662773
 20
27.92231394651139
 30
0.0
 10
8.233366650196587
 20
21.54131816289653
 30
0.0
 10
8.23453357711088
 20
18.35081843944735
 30
0.0
  0
SPLINE
  5
98
330
1F
100
AcDbEntity
  8
0
370
    -3
100
AcDbSpline
210
0.0
220
0.0
230
1.0
 70
     8
 71
     3
 72
    10
 73
     6
 74
     0
 42
0.000000001
 43
0.0000000001
 40
-3.0
 40
-3.0
 40
-3.0
 40
-3.0
 40
-2.0
 40
-1.0
 40
0.0
 40
0.0
 40
0.0
 40
0.0
 10
6.031634105394176
 20
16.82489399905927
 30
0.0
 10
5.386881936912829
 20
16.59913396969877
 30
0.0
 10
4.06997964229177
 20
16.22806959278061
 30
0.0
 10
2.048128060919453
 20
15.87935678218366
 30
0.0
 10
0.6831916047889877
 20
15.78491520292306
 30
0.0
 10
-0.0000055896123285
 20
15.78425198546982
 30
0.0
  0
SPLINE
  5
99
330
1F
100
AcDbEntity
  8
0
370
    -3
100
AcDbSpline
210
0.0
220
0.0
230
1.0
 70
     8
 71
     3
 72
    10
 73
     6
 74
     0
 42
0.000000001
 43
0.0000000001
 40
0.0
 40
0.0
 40
0.0
 40
0.0
 40
1.0
 40
2.0
 40
3.0
 40
3.0
 40
3.0
 40
3.0
 10
-0.0000055896123285
 20
15.78425198546982
 30
0.0
 10
-0.6832027840136448
 20
15.78491520292306
 30
0.0
 10
-2.04813924014411
 20
15.87935678218366
 30
0.0
 10
-4.069990821516427
 20
16.22806959278061
 30
0.0
 10
-5.386893116137486
 20
16.59913396969877
 30
0.0
 10
-6.031645284618833
 20
16.82489399905927
 30
0.0
  0
SPLINE
  5
9A
330
1F
100
AcDbEntity
  8
0
370
    -3
100
AcDbSpline
210
0.0
220
0.0
230
1.0
 70
     8
 71
     3
 72
     8
 73
     4
 74
     0
 42
0.000000001
 43
0.0000000001
 40
0.0
 40
0.0
 40
0.0
 40
0.0
 40
1.0
 40
1.0
 40
1.0
 40
1.0
 10
-7.669262718926973
 20
17.11947900293697
 30
0.0
 10
-7.607379176769371
 20
17.13419170353703
 30
0.0
 10
-7.543475944681063
 20
17.13791661784859
 30
0.0
 10
-7.48005104959725
 20
17.13783254016083
 30
0.0
  0
SPLINE
  5
9B
330
1F
100
AcDbEntity
  8
0
370
    -3
100
AcDbSpline
210
0.0
220
0.0
230
1.0
 70
     8
 71
     3
 72
     8
 73
     4
 74
     0
 42
0.000000001
 43
0.0000000001
 40
1.0
 40
1.0
 40
1.0
 40
1.0
 40
2.0
 40
2.0
 40
2.0
 40
2.0
 10
-7.48005104959725
 20
17.13783254016083
 30
0.0
 10
-7.358990100914951
 20
17.1376017331396
 30
0.0
 10
-7.14915873075401
 20
17.12052598744586
 30
0.0
 10
-7.028724970332803
 20
17.10630742014594
 30
0.0
  0
SPLINE
  5
9C
330
1F
100
AcDbEntity
  8
0
370
    -3
100
AcDbSpline
210
0.0
220
0.0
230
1.0
 70
     8
 71
     3
 72
    14
 73
    10
 74
     0
 42
0.000000001
 43
0.0000000001
 40
2.0
 40
2.0
 40
2.0
 40
2.0
 40
3.0
 40
4.0
 40
5.0
 40
6.0
 40
7.0
 40
8.0
 40
9.0
 40
9.0
 40
9.0
 40
9.0
 10
-7.028724970332803
 20
17.10630742014594
 30
0.0
 10
-6.695335859584674
 20
17.06694706561032
 30
0.0
 10
-6.033183544148301
 20
16.95484167584398
 30
0.0
 10
-5.031876074284526
 20
16.84495723165855
 30
0.0
 10
-4.027148580452717
 20
16.77598124260361
 30
0.0
 10
-3.020750641606668
 20
16.73961526584178
 30
0.0
 10
-2.013911313378827
 20
16.72294489635335
 30
0.0
 10
-1.006962880477602
 20
16.71714579893558
 30
0.0
 10
-0.3356579658510555
 20
16.71667917476593
 30
0.0
 10
-0.0000055892818978
 20
16.7166715050345
 30
0.0
  0
SPLINE
  5
9D
330
1F
100
AcDbEntity
  8
0
370
    -3
100
AcDbSpline
210
0.0
220
0.0
230
1.0
 70
     8
 71
     3
 72
    14
 73
    10
 74
     0
 42
0.000000001
 43
0.0000000001
 40
9.0
 40
9.0
 40
9.0
 40
9.0
 40
10.0
 40
11.0
 40
12.0
 40
13.0
 40
14.0
 40
15.0
 40
16.0
 40
16.0
 40
16.0
 40
16.0
 10
-0.0000055892818978
 20
16.7166715050345
 30
0.0
 10
0.3356467872872599
 20
16.71667917476593
 30
0.0
 10
1.006951701913806
 20
16.71714579893558
 30
0.0
 10
2.013900134815032
 20
16.72294489635335
 30
0.0
 10
3.020739463042872
 20
16.73961526584178
 30
0.0
 10
4.027137401888922
 20
16.77598124260361
 30
0.0
 10
5.03186489572073
 20
16.84495723165855
 30
0.0
 10
6.033172365584505
 20
16.95484167584398
 30
0.0
 10
6.695324681020878
 20
17.06694706561032
 30
0.0
 10
7.028713791769007
 20
17.10630742014594
 30
0.0
  0
SPLINE
  5
9E
330
1F
100
AcDbEntity
  8
0
370
    -3
100
AcDbSpline
210
0.0
220
0.0
230
1.0
 70
     8
 71
     3
 72
     8
 73
     4
 74
     0
 42
0.000000001
 43
0.0000000001
 40
16.0
 40
16.0
 40
16.0
 40
16.0
 40
17.0
 40
17.0
 40
17.0
 40
17.0
 10
7.028713791769007
 20
17.10630742014594
 30
0.0
 10
7.149147552190215
 20
17.12052598744586
 30
0.0
 10
7.358978922351156
 20
17.1376017331396
 30
0.0
 10
7.480039871033455
 20
17.13783254016083
 30
0.0
  0
SPLINE
  5
9F
330
1F
100
AcDbEntity
  8
0
370
    -3
100
AcDbSpline
210
0.0
220
0.0
230
1.0
 70
     8
 71
     3
 72
     8
 73
     4
 74
     0
 42
0.000000001
 43
0.0000000001
 40
17.0
 40
17.0
 40
17.0
 40
17.0
 40
18.0
 40
18.0
 40
18.0
 40
18.0
 10
7.480039871033455
 20
17.13783254016083
 30
0.0
 10
7.543464766117268
 20
17.13791661784859
 30
0.0
 10
7.607367998205575
 20
17.13419170353703
 30
0.0
 10
7.669251540363177
 20
17.11947900293697
 30
0.0
  0
SPLINE
  5
A0
330
1F
100
AcDbEntity
  8
0
370
    -3
100
AcDbSpline
210
0.0
220
0.0
230
1.0
 70
     8
 71
     3
 72
    10
 73
     6
 74
     0
 42
0.000000001
 43
0.0000000001
 40
-9.0
 40
-9.0
 40
-9.0
 40
-9.0
 40
-8.0
 40
-7.0
 40
-6.0
 40
-6.0
 40
-6.0
 40
-6.0
 10
-7.755349190531462
 20
18.32466081623946
 30
0.0
 10
-7.768116377246287
 20
18.33115046406688
 30
0.0
 10
-7.790783400733517
 20
18.34973251085739
 30
0.0
 10
-7.810109090924442
 20
18.38921505360184
 30
0.0
 10
-7.810876773882256
 20
18.41851559864148
 30
0.0
 10
-7.808051076846482
 20
18.43318190434513
 30
0.0
  0
SPLINE
  5
A1
330
1F
100
AcDbEntity
  8
0
370
    -3
100
AcDbSpline
210
0.0
220
0.0
230
1.0
 70
     8
 71
     3
 72
    13
 73
     9
 74
     0
 42
0.000000001
 43
0.0000000001
 40
-6.0
 40
-6.0
 40
-6.0
 40
-6.0
 40
-5.0
 40
-4.0
 40
-3.0
 40
-2.0
 40
-1.0
 40
0.0
 40
0.0
 40
0.0
 40
0.0
 10
-7.808051076846482
 20
18.43318190434513
 30
0.0
 10
-7.789205022770972
 20
18.53296118317662
 30
0.0
 10
-7.692970254078233
 20
18.71689010032406
 30
0.0
 10
-7.447532257993885
 20
18.9010180853551
 30
0.0
 10
-7.160323895627954
 20
19.00432319128767
 30
0.0
 10
-6.856379333606895
 20
19.0183852081251
 30
0.0
 10
-6.557325603004955
 20
18.97399608385921
 30
0.0
 10
-6.359418236603204
 20
18.93822911438834
 30
0.0
 10
-6.259893030380169
 20
18.92329410470518
 30
0.0
  0
SPLINE
  5
A2
330
1F
100
AcDbEntity
  8
0
370
    -3
100
AcDbSpline
210
0.0
220
0.0
230
1.0
 70
     8
 71
     3
 72
    12
 73
     8
 74
     0
 42
0.000000001
 43
0.0000000001
 40
0.0
 40
0.0
 40
0.0
 40
0.0
 40
1.0
 40
2.0
 40
3.0
 40
4.0
 40
5.0
 40
5.0
 40
5.0
 40
5.0
 10
-6.259893030380169
 20
18.92329410470518
 30
0.0
 10
-5.847344472320742
 20
18.86138600179126
 30
0.0
 10
-5.00456222749159
 20
18.78051673511854
 30
0.0
 10
-3.75396407592217
 20
18.73066828956473
 30
0.0
 10
-2.502688741911982
 20
18.71526416697044
 30
0.0
 10
-1.251349395795302
 20
18.71378716753992
 30
0.0
 10
-0.4171282364351612
 20
18.71472185338854
 30
0.0
 10
-0.0000166080917552
 20
18.71471260281261
 30
0.0
  0
SPLINE
  5
A3
330
1F
100
AcDbEntity
  8
0
370
    -3
100
AcDbSpline
210
0.0
220
0.0
230
1.0
 70
     8
 71
     3
 72
    12
 73
     8
 74
     0
 42
0.000000001
 43
0.0000000001
 40
5.0
 40
5.0
 40
5.0
 40
5.0
 40
6.0
 40
7.0
 40
8.0
 40
9.0
 40
10.0
 40
10.0
 40
10.0
 40
10.0
 10
-0.0000166080917552
 20
18.71471260281261
 30
0.0
 10
0.4170950202516508
 20
18.71472185338854
 30
0.0
 10
1.25131617961182
 20
18.71378716753992
 30
0.0
 10
2.502655525728471
 20
18.71526416697044
 30
0.0
 10
3.753930859738688
 20
18.73066828956473
 30
0.0
 10
5.00452901130808
 20
18.78051673511854
 30
0.0
 10
5.847311256137232
 20
18.86138600179126
 30
0.0
 10
6.259859814196687
 20
18.92329410470518
 30
0.0
  0
SPLINE
  5
A4
330
1F
100
AcDbEntity
  8
0
370
    -3
100
AcDbSpline
210
0.0
220
0.0
230
1.0
 70
     8
 71
     3
 72
    13
 73
     9
 74
     0
 42
0.000000001
 43
0.0000000001
 40
10.0
 40
10.0
 40
10.0
 40
10.0
 40
11.0
 40
12.0
 40
13.0
 40
14.0
 40
15.0
 40
16.0
 40
16.0
 40
16.0
 40
16.0
 10
6.259859814196687
 20
18.92329410470518
 30
0.0
 10
6.359385020419722
 20
18.93822911438834
 30
0.0
 10
6.557292386821473
 20
18.97399608385921
 30
0.0
 10
6.856346117423413
 20
19.0183852081251
 30
0.0
 10
7.160290679444472
 20
19.00432319128767
 30
0.0
 10
7.447499041810403
 20
18.9010180853551
 30
0.0
 10
7.692937037894751
 20
18.71689010032406
 30
0.0
 10
7.789171806587461
 20
18.53296118317662
 30
0.0
 10
7.808017860663
 20
18.43318190434513
 30
0.0
  0
SPLINE
  5
A5
330
1F
100
AcDbEntity
  8
0
370
    -3
100
AcDbSpline
210
0.0
220
0.0
230
1.0
 70
     8
 71
     3
 72
    10
 73
     6
 74
     0
 42
0.000000001
 43
0.0000000001
 40
16.0
 40
16.0
 40
16.0
 40
16.0
 40
17.0
 40
18.0
 40
19.0
 40
19.0
 40
19.0
 40
19.0
 10
7.808017860663
 20
18.43318190434513
 30
0.0
 10
7.810843557698746
 20
18.41851559864148
 30
0.0
 10
7.81007587474096
 20
18.38921505360184
 30
0.0
 10
7.790750184550035
 20
18.34973251085739
 30
0.0
 10
7.768083161062776
 20
18.33115046406688
 30
0.0
 10
7.755315974347951
 20
18.32466081623946
 30
0.0
  0
SPLINE
  5
A6
330
1F
100
AcDbEntity
  8
0
370
    -3
100
AcDbSpline
210
0.0
220
0.0
230
1.0
 70
     8
 71
     3
 72
    10
 73
     6
 74
     0
 42
0.000000001
 43
0.0000000001
 40
0.0
 40
0.0
 40
0.0
 40
0.0
 40
1.0
 40
2.0
 40
3.0
 40
3.0
 40
3.0
 40
3.0
 10
6.187684954194822
 20
16.45380638117443
 30
0.0
 10
6.1192778298647
 20
16.45527342340127
 30
0.0
 10
5.982522631137016
 20
16.47072220147444
 30
0.0
 10
5.78831972301677
 20
16.54454374822964
 30
0.0
 10
5.684190021987916
 20
16.63793668253464
 30
0.0
 10
5.646400176313762
 20
16.69523118969722
 30
0.0
  0
SPLINE
  5
A7
330
1F
100
AcDbEntity
  8
0
370
    -3
100
AcDbSpline
210
0.0
220
0.0
230
1.0
 70
     8
 71
     3
 72
    10
 73
     6
 74
     0
 42
0.000000001
 43
0.0000000001
 40
0.0
 40
0.0
 40
0.0
 40
0.0
 40
1.0
 40
2.0
 40
3.0
 40
3.0
 40
3.0
 40
3.0
 10
7.505674985437594
 20
17.13765353704821
 30
0.0
 10
7.530036537149073
 20
17.10220093484502
 30
0.0
 10
7.584180851056971
 20
17.03497920140677
 30
0.0
 10
7.64406378613694
 20
16.91962906556329
 30
0.0
 10
7.661709356519452
 20
16.83449620730275
 30
0.0
 10
7.66524868838215
 20
16.791651713184
 30
0.0
  0
LINE
  5
A8
330
1F
100
AcDbEntity
  8
0
370
    -3
100
AcDbLine
 10
7.66524868838215
 20
16.791651713184
 30
0.0
 11
8.997489901401792
 21
0.3269546308938658
 31
0.0
  0
SPLINE
  5
A9
330
1F
100
AcDbEntity
  8
0
370
    -3
100
AcDbSpline
210
0.0
220
0.0
230
1.0
 70
     8
 71
     3
 72
    10
 73
     6
 74
     0
 42
0.000000001
 43
0.0000000001
 40
19.952643326768
 40
19.952643326768
 40
19.952643326768
 40
19.952643326768
 40
20.952643326768
 40
21.952643326768
 40
22.952643326768
 40
22.952643326768
 40
22.952643326768
 40
22.952643326768
 10
8.997489901401792
 20
0.3269546308938658
 30
0.0
 10
9.001899485956415
 20
0.2744602273947123
 30
0.0
 10
8.980834653649964
 20
0.1678246864270534
 30
0.0
 10
8.870396615107808
 20
0.0479038940929399
 30
0.0
 10
8.765799000676054
 20
0.0183064154864496
 30
0.0
 10
8.713469196042098
 20
0.0183267810530339
 30
0.0
  0
LINE
  5
AA
330
1F
100
AcDbEntity
  8
0
370
    -3
100
AcDbLine
 10
8.713469196042098
 20
0.0183267810530339
 30
0.0
 11
7.780429715123859
 21
0.0183267810530339
 31
0.0
  0
SPLINE
  5
AB
330
1F
100
AcDbEntity
  8
0
370
    -3
100
AcDbSpline
210
0.0
220
0.0
230
1.0
 70
     8
 71
     3
 72
    10
 73
     6
 74
     0
 42
0.000000001
 43
0.0000000001
 40
23.88568280768624
 40
23.88568280768624
 40
23.88568280768624
 40
23.88568280768624
 40
24.88568280768624
 40
25.88568280768624
 40
26.88568280768624
 40
26.88568280768624
 40
26.88568280768624
 40
26.88568280768624
 10
7.780429715123859
 20
0.0183267810530339
 30
0.0
 10
7.733185427141876
 20
0.0183597340885058
 30
0.0
 10
7.638903008612544
 20
0.0422513068405408
 30
0.0
 10
7.531632189598895
 20
0.1412571279232111
 30
0.0
 10
7.500092397156038
 20
0.2332998859422872
 30
0.0
 10
7.496358138179374
 20
0.2803409217547284
 30
0.0
  0
LINE
  5
AC
330
1F
100
AcDbEntity
  8
0
370
    -3
100
AcDbLine
 10
7.496358138179374
 20
0.2803409217547284
 30
0.0
 11
6.17947523424769
 21
16.55528335015026
 31
0.0
  0
SPLINE
  5
AD
330
1F
100
AcDbEntity
  8
0
370
    -3
100
AcDbSpline
210
0.0
220
0.0
230
1.0
 70
     8
 71
     3
 72
    10
 73
     6
 74
     0
 42
0.000000001
 43
0.0000000001
 40
43.64533266181492
 40
43.64533266181492
 40
43.64533266181492
 40
43.64533266181492
 40
44.64533266181492
 40
45.64533266181492
 40
46.34866394857372
 40
46.34866394857372
 40
46.34866394857372
 40
46.34866394857372
 10
6.17947523424769
 20
16.55528335015026
 30
0.0
 10
6.174918889716366
 20
16.6142648022205
 30
0.0
 10
6.185666658632101
 20
16.73523267853597
 30
0.0
 10
6.260595479264595
 20
16.87856399899039
 30
0.0
 10
6.304403100433831
 20
16.96945269754721
 30
0.0
 10
6.322646308406064
 20
17.00695582080054
 30
0.0
  0
SPLINE
  5
AE
330
1F
100
AcDbEntity
  8
0
370
    -3
100
AcDbSpline
210
0.0
220
0.0
230
1.0
 70
    28
 71
     2
 72
     6
 73
     3
 74
     0
 42
0.000000001
 43
0.0000000001
 40
0.1854995770320006
 40
0.1854995770320006
 40
0.1854995770320006
 40
17.30129499533775
 40
17.30129499533775
 40
17.30129499533775
 10
-7.943723151670324
 20
16.95557815437225
 30
0.0
 41
0.91211716420634
 10
-8.473109759140229
 20
8.638522886681578
 30
0.0
 41
0.9121171642063401
 10
-9.002496366610135
 20
0.3214676189909051
 30
0.0
 41
0.9121171642063401
  0
SPLINE
  5
AF
330
1F
100
AcDbEntity
  8
0
370
    -3
100
AcDbSpline
210
0.0
220
0.0
230
1.0
 70
     8
 71
     3
 72
    10
 73
     6
 74
     0
 42
0.000000001
 43
0.0000000001
 40
17.30129499533775
 40
17.30129499533775
 40
17.30129499533775
 40
17.30129499533775
 40
18.30128747464974
 40
19.30129123499374
 40
20.30129499533775
 40
20.30129499533775
 40
20.30129499533775
 40
20.30129499533775
 10
-9.002496366610131
 20
0.3214676189909085
 30
0.0
 10
-9.005647961627375
 20
0.273230363808068
 30
0.0
 10
-8.986621592688238
 20
0.1751314179109897
 30
0.0
 10
-8.890148956884133
 20
0.0607643758461194
 30
0.0
 10
-8.796864933066558
 20
0.0247777987963644
 30
0.0
 10
-8.748675422261414
 20
0.0205406176290097
 30
0.0
  0
SPLINE
  5
B0
330
1F
100
AcDbEntity
  8
0
370
    -3
100
AcDbSpline
210
0.0
220
0.0
230
1.0
 70
     8
 71
     3
 72
    10
 73
     6
 74
     0
 42
0.000000001
 43
0.0000000001
 40
0.0
 40
0.0
 40
0.0
 40
0.0
 40
1.0
 40
2.0
 40
3.0
 40
3.0
 40
3.0
 40
3.0
 10
-6.18769613341945
 20
16.45380638117443
 30
0.0
 10
-6.119289009089329
 20
16.45527342340127
 30
0.0
 10
-5.982533810361645
 20
16.47072220147444
 30
0.0
 10
-5.788330902241398
 20
16.54454374822964
 30
0.0
 10
-5.684201201212574
 20
16.63793668253464
 30
0.0
 10
-5.64641135553839
 20
16.69523118969722
 30
0.0
  0
SPLINE
  5
B1
330
1F
100
AcDbEntity
  8
0
370
    -3
100
AcDbSpline
210
0.0
220
0.0
230
1.0
 70
     8
 71
     3
 72
    10
 73
     6
 74
     0
 42
0.000000001
 43
0.0000000001
 40
0.0
 40
0.0
 40
0.0
 40
0.0
 40
1.0
 40
2.0
 40
3.0
 40
3.0
 40
3.0
 40
3.0
 10
-7.505686164662222
 20
17.13765353704821
 30
0.0
 10
-7.530047716373701
 20
17.10220093484502
 30
0.0
 10
-7.584192030281599
 20
17.03497920140677
 30
0.0
 10
-7.644074965361568
 20
16.91962906556329
 30
0.0
 10
-7.661720535744081
 20
16.83449620730275
 30
0.0
 10
-7.665259867606778
 20
16.791651713184
 30
0.0
  0
LINE
  5
B2
330
1F
100
AcDbEntity
  8
0
370
    -3
100
AcDbLine
 10
-7.665259867606778
 20
16.791651713184
 30
0.0
 11
-8.99750108062642
 21
0.3269546308938658
 31
0.0
  0
SPLINE
  5
B3
330
1F
100
AcDbEntity
  8
0
370
    -3
100
AcDbSpline
210
0.0
220
0.0
230
1.0
 70
     8
 71
     3
 72
    10
 73
     6
 74
     0
 42
0.000000001
 43
0.0000000001
 40
19.952643326768
 40
19.952643326768
 40
19.952643326768
 40
19.952643326768
 40
20.952643326768
 40
21.952643326768
 40
22.952643326768
 40
22.952643326768
 40
22.952643326768
 40
22.952643326768
 10
-8.99750108062642
 20
0.3269546308938658
 30
0.0
 10
-9.001910665181072
 20
0.2744602273947123
 30
0.0
 10
-8.980845832874593
 20
0.1678246864270534
 30
0.0
 10
-8.870407794332436
 20
0.0479038940929399
 30
0.0
 10
-8.765810179900711
 20
0.0183064154864496
 30
0.0
 10
-8.713480375266727
 20
0.0183267810530339
 30
0.0
  0
LINE
  5
B4
330
1F
100
AcDbEntity
  8
0
370
    -3
100
AcDbLine
 10
-8.713480375266727
 20
0.0183267810530339
 30
0.0
 11
-7.780440894348487
 21
0.0183267810530339
 31
0.0
  0
SPLINE
  5
B5
330
1F
100
AcDbEntity
  8
0
370
    -3
100
AcDbSpline
210
0.0
220
0.0
230
1.0
 70
     8
 71
     3
 72
    10
 73
     6
 74
     0
 42
0.000000001
 43
0.0000000001
 40
23.88568280768624
 40
23.88568280768624
 40
23.88568280768624
 40
23.88568280768624
 40
24.88568280768624
 40
25.88568280768624
 40
26.88568280768624
 40
26.88568280768624
 40
26.88568280768624
 40
26.88568280768624
 10
-7.780440894348487
 20
0.0183267810530339
 30
0.0
 10
-7.733196606366533
 20
0.0183597340885058
 30
0.0
 10
-7.638914187837173
 20
0.0422513068405408
 30
0.0
 10
-7.531643368823524
 20
0.1412571279232111
 30
0.0
 10
-7.500103576380667
 20
0.2332998859422872
 30
0.0
 10
-7.496369317404003
 20
0.2803409217547284
 30
0.0
  0
LINE
  5
B6
330
1F
100
AcDbEntity
  8
0
370
    -3
100
AcDbLine
 10
-7.496369317404003
 20
0.2803409217547284
 30
0.0
 11
-6.179486413472318
 21
16.55528335015026
 31
0.0
  0
SPLINE
  5
B7
330
1F
100
AcDbEntity
  8
0
370
    -3
100
AcDbSpline
210
0.0
220
0.0
230
1.0
 70
     8
 71
     3
 72
    10
 73
     6
 74
     0
 42
0.000000001
 43
0.0000000001
 40
43.64533266181492
 40
43.64533266181492
 40
43.64533266181492
 40
43.64533266181492
 40
44.64533266181492
 40
45.64533266181492
 40
46.34866394857372
 40
46.34866394857372
 40
46.34866394857372
 40
46.34866394857372
 10
-6.179486413472318
 20
16.55528335015026
 30
0.0
 10
-6.174930068941023
 20
16.6142648022205
 30
0.0
 10
-6.18567783785673
 20
16.73523267853597
 30
0.0
 10
-6.260606658489252
 20
16.87856399899039
 30
0.0
 10
-6.304414279658488
 20
16.96945269754721
 30
0.0
 10
-6.322657487630693
 20
17.00695582080054
 30
0.0
  0
SPLINE
  5
B8
330
1F
100
AcDbEntity
  8
0
370
    -3
100
AcDbSpline
210
0.0
220
0.0
230
1.0
 70
     8
 71
     3
 72
     8
 73
     4
 74
     0
 42
0.000000001
 43
0.0000000001
 40
-0.9906832861245477
 40
-0.9906832861245477
 40
-0.9906832861245477
 40
-0.9906832861245477
 40
0.0
 40
0.0
 40
0.0
 40
0.0
 10
6.23946678395879
 20
16.83767667174388
 30
0.0
 10
4.163429375904656
 20
16.6861771457248
 30
0.0
 10
2.081443938765517
 20
16.62217966585519
 30
0.0
 10
-0.000005587574492
 20
16.63647923682834
 30
0.0
  0
SPLINE
  5
B9
330
1F
100
AcDbEntity
  8
0
370
    -3
100
AcDbSpline
210
0.0
220
0.0
230
1.0
 70
     8
 71
     3
 72
     8
 73
     4
 74
     0
 42
0.000000001
 43
0.0000000001
 40
0.0
 40
0.0
 40
0.0
 40
0.0
 40
0.990683286796483
 40
0.990683286796483
 40
0.990683286796483
 40
0.990683286796483
 10
-0.000005587574492
 20
16.63647923682834
 30
0.0
 10
-2.081455115326236
 20
16.62217966584549
 30
0.0
 10
-4.163440553877876
 20
16.6861771458116
 30
0.0
 10
-6.239477963332007
 20
16.83767667205214
 30
0.0
  0
SPLINE
  5
BA
330
1F
100
AcDbEntity
  8
0
370
    -3
100
AcDbSpline
210
0.0
220
0.0
230
1.0
 70
     8
 71
     3
 72
    13
 73
     9
 74
     0
 42
0.000000001
 43
0.0000000001
 40
0.0
 40
0.0
 40
0.0
 40
0.0
 40
1.0
 40
2.0
 40
3.0
 40
4.0
 40
5.0
 40
6.0
 40
6.0
 40
6.0
 40
6.0
 10
23.38433345459853
 20
23.03570865100181
 30
0.0
 10
23.4217670735959
 20
22.67421523505003
 30
0.0
 10
23.48407687762855
 20
21.95008832424716
 30
0.0
 10
23.56994661968508
 20
20.86313305484448
 30
0.0
 10
23.70138421138901
 20
19.78064287046612
 30
0.0
 10
23.90413122632268
 20
18.70789063220109
 30
0.0
 10
24.295445703068
 20
17.68148323323175
 30
0.0
 10
24.74959914605336
 20
17.10114745234989
 30
0.0
 10
25.02334178438912
 20
16.86159209974366
 30
0.0
  0
ARC
  5
BB
330
1F
100
AcDbEntity
  8
0
370
    -3
100
AcDbCircle
 10
27.29650766755512
 20
19.45916472528859
 30
0.0
 40
3.451762836199813
100
AcDbArc
 50
228.8104542013491
 51
249.3997690872157
  0
SPLINE
  5
BC
330
1F
100
AcDbEntity
  8
0
370
    -3
100
AcDbSpline
210
0.0
220
0.0
230
1.0
 70
     8
 71
     3
 72
    11
 73
     7
 74
     0
 42
0.000000001
 43
0.0000000001
 40
0.0
 40
0.0
 40
0.0
 40
0.0
 40
1.0
 40
2.0
 40
3.0
 40
3.968971103283455
 40
3.968971103283455
 40
3.968971103283455
 40
3.968971103283455
 10
27.53895676119831
 20
15.87217992666427
 30
0.0
 10
28.22239658196
 20
15.78661501721717
 30
0.0
 10
29.60461510222933
 20
15.74475381610426
 30
0.0
 10
31.65831798216249
 20
16.00272211853604
 30
0.0
 10
33.66273267719265
 20
16.40866734760991
 30
0.0
 10
34.98510608747952
 20
16.70948685030851
 30
0.0
 10
35.63689753200899
 20
16.85284922928321
 30
0.0
  0
SPLINE
  5
BD
330
1F
100
AcDbEntity
  8
0
370
    -3
100
AcDbSpline
210
0.0
220
0.0
230
1.0
 70
     8
 71
     3
 72
    19
 73
    15
 74
     0
 42
0.000000001
 43
0.0000000001
 40
0.1114208562774371
 40
0.1114208562774371
 40
0.1114208562774371
 40
0.1114208562774371
 40
1.0
 40
2.0
 40
3.0
 40
4.0
 40
5.0
 40
6.0
 40
7.0
 40
8.0
 40
9.0
 40
10.0
 40
11.0
 40
11.83341560366924
 40
11.83341560366924
 40
11.83341560366924
 40
11.83341560366924
 10
36.38249805781302
 20
16.83620644350026
 30
0.0
 10
36.16205679507004
 20
16.84636403960913
 30
0.0
 10
35.69306513297704
 20
16.85699890599751
 30
0.0
 10
34.9756706742142
 20
16.8470184594452
 30
0.0
 10
34.23127853553441
 20
16.81421228751435
 30
0.0
 10
33.48806419609122
 20
16.76158939365371
 30
0.0
 10
32.74577884676089
 20
16.69753684648246
 30
0.0
 10
32.00263295682822
 20
16.64406579551702
 30
0.0
 10
31.2587311403596
 20
16.6027925957811
 30
0.0
 10
30.51374380284494
 20
16.58278387410556
 30
0.0
 10
29.76889987124139
 20
16.59690931073841
 30
0.0
 10
29.02320213211607
 20
16.59035508553602
 30
0.0
 10
28.32298834283426
 20
16.52563305704072
 30
0.0
 10
27.87228093687537
 20
16.44436490636754
 30
0.0
 10
27.66570021298369
 20
16.45355590899953
 30
0.0
  0
SPLINE
  5
BE
330
1F
100
AcDbEntity
  8
0
370
    -3
100
AcDbSpline
210
0.0
220
0.0
230
1.0
 70
     8
 71
     3
 72
    30
 73
    26
 74
     0
 42
0.000000001
 43
0.0000000001
 40
0.0
 40
0.0
 40
0.0
 40
0.0
 40
1.0
 40
2.0
 40
2.0
 40
2.0
 40
18.87284762216651
 40
18.87284762216651
 40
18.87284762216651
 40
19.87284762216651
 40
20.87284762216651
 40
20.87284762216651
 40
20.87284762216651
 40
21.82793535655603
 40
21.82793535655603
 40
21.82793535655603
 40
22.82793571706886
 40
23.82793535655603
 40
23.82793535655603
 40
23.82793535655603
 40
40.34844671385869
 40
40.34844671385869
 40
40.34844671385869
 40
41.34844671385869
 40
42.34844671385869
 40
42.34844671385869
 40
42.34844671385869
 40
42.34844671385869
 10
26.41763652499239
 20
17.26097089930194
 30
0.0
 10
26.3703168948104
 20
17.18449314417676
 30
0.0
 10
26.28617534246013
 20
17.02489060832291
 30
0.0
 10
26.22842370462484
 20
16.85385994033484
 30
0.0
 10
26.20788700821782
 20
16.76626042730825
 30
0.0
 10
24.92947183367593
 20
11.30025962915133
 30
0.0
 10
23.65105665913384
 20
5.834258830994358
 30
0.0
 10
22.37264148459198
 20
0.3682580328374172
 30
0.0
 10
22.35225753632153
 20
0.284901563676442
 30
0.0
 10
22.39539878050405
 20
0.1013284457171864
 30
0.0
 10
22.56426131484645
 20
0.0174814522850966
 30
0.0
 10
22.65014666841731
 20
0.0183267810530054
 30
0.0
 10
22.96850924654717
 20
0.0183267810530054
 30
0.0
 10
23.28687182467695
 20
0.0183267810530054
 30
0.0
 10
23.60523440280681
 20
0.0183267810530197
 30
0.0
 10
23.66904014152939
 20
0.0180678705495865
 30
0.0
 10
23.7959093502229
 20
0.0629021498511548
 30
0.0
 10
23.86847311081524
 20
0.1762600436346986
 30
0.0
 10
23.88273980672525
 20
0.2383957767465859
 30
0.0
 10
25.13446051277336
 20
5.590256006393503
 30
0.0
 10
26.38618121882115
 20
10.94211623604042
 30
0.0
 10
27.6379019248692
 20
16.29397646568734
 30
0.0
 10
27.65973653951426
 20
16.38780691777296
 30
0.0
 10
27.68370926720752
 20
16.57968275209704
 30
0.0
 10
27.67491441837802
 20
16.77271416425839
 30
0.0
 10
27.66380554178542
 20
16.86834873904559
 30
0.0
  0
SPLINE
  5
BF
330
1F
100
AcDbEntity
  8
0
370
    -3
100
AcDbSpline
210
0.0
220
0.0
230
1.0
 70
     8
 71
     3
 72
    12
 73
     8
 74
     0
 42
0.000000001
 43
0.0000000001
 40
42.34844671385869
 40
42.34844671385869
 40
42.34844671385869
 40
42.34844671385869
 40
43.34844671385869
 40
44.34844671385869
 40
45.34844671385869
 40
46.34844671385869
 40
47.34844671385869
 40
47.34844671385869
 40
47.34844671385869
 40
47.34844671385869
 10
27.66380554178542
 20
16.86834873904559
 30
0.0
 10
27.65753944388001
 20
16.97130235972053
 30
0.0
 10
27.50223549139369
 20
17.10265523107466
 30
0.0
 10
27.25075406764034
 20
17.23742866422837
 30
0.0
 10
26.97606106795973
 20
17.33471420282746
 30
0.0
 10
26.69041983096795
 20
17.36603088894354
 30
0.0
 10
26.49265766037612
 20
17.3498360848926
 30
0.0
 10
26.41763652499239
 20
17.26097089930194
 30
0.0
  0
SPLINE
  5
C0
330
1F
100
AcDbEntity
  8
0
 62
     1
420
 16711680
370
    -3
100
AcDbSpline
210
0.0
220
0.0
230
1.0
 70
     8
 71
     3
 72
     9
 73
     5
 74
     0
 42
0.000000001
 43
0.0000000001
 40
0.0
 40
0.0
 40
0.0
 40
0.0
 40
1.0
 40
2.0
 40
2.0
 40
2.0
 40
2.0
 10
40.17227979002746
 20
0.2382429827804913
 30
0.0
 10
40.17234647502622
 20
0.2381945543406658
 30
0.0
 10
40.17248489127269
 20
0.2381048192772397
 30
0.0
 10
40.17262966451096
 20
0.2380258629652587
 30
0.0
 10
40.17270308049689
 20
0.2379884460991946
 30
0.0
  0
SPLINE
  5
C1
330
1F
100
AcDbEntity
  8
0
370
    -3
100
AcDbSpline
210
0.0
220
0.0
230
1.0
 70
    28
 71
     2
 72
     6
 73
     3
 74
     0
 42
0.000000001
 43
0.0000000001
 40
0.1943429694957161
 40
0.1943429694957161
 40
0.1943429694957161
 40
17.02165616196923
 40
17.02165616196923
 40
17.02165616196923
 10
36.37809715966496
 20
16.58026163974433
 30
0.0
 41
0.961547889144323
 10
38.27508350515654
 20
8.4097047835254
 30
0.0
 41
0.961547889144323
 10
40.17206985064811
 20
0.2391479273064752
 30
0.0
 41
0.961547889144323
  0
SPLINE
  5
C2
330
1F
100
AcDbEntity
  8
0
370
    -3
100
AcDbSpline
210
0.0
220
0.0
230
1.0
 70
     8
 71
     3
 72
     9
 73
     5
 74
     0
 42
0.000000001
 43
0.0000000001
 40
17.02165616196923
 40
17.02165616196923
 40
17.02165616196923
 40
17.02165616196923
 40
18.02165616196923
 40
19.02165616196923
 40
19.02165616196923
 40
19.02165616196923
 40
19.02165616196923
 10
40.17206985064809
 20
0.2391479273064618
 30
0.0
 10
40.18628670729063
 20
0.1766554920647962
 30
0.0
 10
40.25880773398413
 20
0.0630102952858351
 30
0.0
 10
40.38590243570243
 20
0.0180588982880465
 30
0.0
 10
40.44974943759291
 20
0.0183267810530197
 30
0.0
  0
LINE
  5
C3
330
1F
100
AcDbEntity
  8
0
370
    -3
100
AcDbLine
 10
40.44974943759291
 20
0.0183267810530197
 30
0.0
 11
41.40448859340927
 21
0.0183267810530197
 31
0.0
  0
SPLINE
  5
C4
330
1F
100
AcDbEntity
  8
0
370
    -3
100
AcDbSpline
210
0.0
220
0.0
230
1.0
 70
     8
 71
     3
 72
     9
 73
     5
 74
     0
 42
0.000000001
 43
0.0000000001
 40
19.9763953177856
 40
19.9763953177856
 40
19.9763953177856
 40
19.9763953177856
 40
20.97639596137627
 40
21.9763953177856
 40
21.9763953177856
 40
21.9763953177856
 40
21.9763953177856
 10
41.40448859340927
 20
0.0183267810530197
 30
0.0
 10
41.4902436914025
 20
0.0174861395140766
 30
0.0
 10
41.65887268833109
 20
0.1010628708381773
 30
0.0
 10
41.70229876242266
 20
0.2842302393926985
 30
0.0
 10
41.68216550639596
 20
0.3675157139506808
 30
0.0
  0
LINE
  5
C5
330
1F
100
AcDbEntity
  8
0
370
    -3
100
AcDbLine
 10
41.68216550639596
 20
0.3675157139506808
 30
0.0
 11
37.87401076559468
 21
16.76973552606398
 31
0.0
  0
SPLINE
  5
C6
330
1F
100
AcDbEntity
  8
0
370
    -3
100
AcDbSpline
210
0.0
220
0.0
230
1.0
 70
     8
 71
     3
 72
    12
 73
     8
 74
     0
 42
0.000000001
 43
0.0000000001
 40
38.86711118412737
 40
38.86711118412737
 40
38.86711118412737
 40
38.86711118412737
 40
39.86711118412737
 40
40.86711118412737
 40
41.86711118412737
 40
42.86711118412737
 40
43.86711118412737
 40
43.86711118412737
 40
43.86711118412737
 40
43.86711118412737
 10
37.87401076559468
 20
16.76973552606398
 30
0.0
 10
37.8676071938801
 20
16.79738615684619
 30
0.0
 10
37.85021826610924
 20
16.85160665837027
 30
0.0
 10
37.81146789362745
 20
16.92774511169115
 30
0.0
 10
37.76082474546075
 20
16.99651194477818
 30
0.0
 10
37.70127433487517
 20
17.05749992684675
 30
0.0
 10
37.66294407736439
 20
17.09933760608952
 30
0.0
 10
37.64348875724033
 20
17.12000550806457
 30
0.0
  0
SPLINE
  5
C7
330
1F
100
AcDbEntity
  8
0
370
    -3
100
AcDbSpline
210
0.0
220
0.0
230
1.0
 70
     8
 71
     3
 72
    14
 73
    10
 74
     0
 42
0.000000001
 43
0.0000000001
 40
43.86711118412737
 40
43.86711118412737
 40
43.86711118412737
 40
43.86711118412737
 40
44.86711118412737
 40
45.86711118412737
 40
46.86711118412737
 40
47.86711118412737
 40
48.86711118412737
 40
49.86711118412737
 40
50.86711118412737
 40
50.86711118412737
 40
50.86711118412737
 40
50.86711118412737
 10
37.64348875724033
 20
17.12000550806457
 30
0.0
 10
37.59216570591428
 20
17.15171260373938
 30
0.0
 10
37.47087863536106
 20
17.16389701274355
 30
0.0
 10
37.29281513599443
 20
17.16828044517601
 30
0.0
 10
37.11361564040078
 20
17.15904470266585
 30
0.0
 10
36.93571512829865
 20
17.14091186392359
 30
0.0
 10
36.75800696008807
 20
17.1142948933995
 30
0.0
 10
36.58565477393029
 20
17.07315282737517
 30
0.0
 10
36.46671778574631
 20
17.03773916375339
 30
0.0
 10
36.42952169155868
 20
16.9900629404376
 30
0.0
  0
SPLINE
  5
C8
330
1F
100
AcDbEntity
  8
0
370
    -3
100
AcDbSpline
210
0.0
220
0.0
230
1.0
 70
     8
 71
     3
 72
    12
 73
     8
 74
     0
 42
0.000000001
 43
0.0000000001
 40
50.86711118412737
 40
50.86711118412737
 40
50.86711118412737
 40
50.86711118412737
 40
51.86711118412737
 40
52.86711118412737
 40
53.86711118412737
 40
54.86711118412737
 40
55.86711118412737
 40
55.86711118412737
 40
55.86711118412737
 40
55.86711118412737
 10
36.42952169155868
 20
16.9900629404376
 30
0.0
 10
36.42102534490624
 20
16.96343156661993
 30
0.0
 10
36.40495145915008
 20
16.90992041701162
 30
0.0
 10
36.37884989983738
 20
16.83013199667081
 30
0.0
 10
36.36425565944916
 20
16.74729719612145
 30
0.0
 10
36.36346003685588
 20
16.66317100778157
 30
0.0
 10
36.37173968945407
 20
16.60772055552991
 30
0.0
 10
36.37809715966495
 20
16.58026163974434
 30
0.0
  0
SPLINE
  5
C9
330
1F
100
AcDbEntity
  8
0
370
    -3
100
AcDbSpline
210
0.0
220
0.0
230
1.0
 70
     8
 71
     3
 72
    10
 73
     6
 74
     0
 42
0.000000001
 43
0.0000000001
 40
0.0
 40
0.0
 40
0.0
 40
0.0
 40
1.0
 40
2.0
 40
3.0
 40
3.0
 40
3.0
 40
3.0
 10
-8.235350494794545
 20
57.61541154710861
 30
0.0
 10
-8.45586496627709
 20
57.52662648730848
 30
0.0
 10
-8.804467293347557
 20
57.18231711808486
 30
0.0
 10
-9.012529768194014
 20
56.49671519859799
 30
0.0
 10
-9.115237822693587
 20
56.04055851176411
 30
0.0
 10
-9.158050063977157
 20
55.80880800913159
 30
0.0
  0
SPLINE
  5
CA
330
1F
100
AcDbEntity
  8
0
370
    -3
100
AcDbSpline
210
0.0
220
0.0
230
1.0
 70
     8
 71
     3
 72
    11
 73
     7
 74
     0
 42
0.000000001
 43
0.0000000001
 40
3.0
 40
3.0
 40
3.0
 40
3.0
 40
4.0
 40
5.0
 40
6.0
 40
7.0
 40
7.0
 40
7.0
 40
7.0
 10
-9.158050063977157
 20
55.80880800913159
 30
0.0
 10
-9.300850036518
 20
55.02933298858115
 30
0.0
 10
-9.495580329058015
 20
53.45646649995215
 30
0.0
 10
-9.729633771283403
 20
51.09107425574985
 30
0.0
 10
-9.920136272068163
 20
48.72341539797475
 30
0.0
 10
-10.07909493672352
 20
47.14346934021424
 30
0.0
 10
-10.03789798595778
 20
46.35138707776827
 30
0.0
  0
SPLINE
  5
CB
330
1F
100
AcDbEntity
  8
0
370
    -3
100
AcDbSpline
210
0.0
220
0.0
230
1.0
 70
     8
 71
     3
 72
    16
 73
    12
 74
     0
 42
0.000000001
 43
0.0000000001
 40
7.0
 40
7.0
 40
7.0
 40
7.0
 40
8.0
 40
9.0
 40
10.0
 40
11.0
 40
12.0
 40
13.0
 40
14.0
 40
15.0
 40
16.0
 40
16.0
 40
16.0
 40
16.0
 10
-10.03789798595778
 20
46.35138707776827
 30
0.0
 10
-10.03284340614206
 20
46.25487989975547
 30
0.0
 10
-9.881623169478814
 20
46.12667236381387
 30
0.0
 10
-9.60606563555271
 20
46.1197227938488
 30
0.0
 10
-9.337905960178801
 20
46.13215673883426
 30
0.0
 10
-9.07254223205291
 20
46.18736763183119
 30
0.0
 10
-8.820165317497839
 20
46.28415806388885
 30
0.0
 10
-8.590865098029553
 20
46.43086337971337
 30
0.0
 10
-8.417283820315191
 20
46.64134490137665
 30
0.0
 10
-8.311771897222911
 20
46.89149591841159
 30
0.0
 10
-8.266167944745405
 20
47.06543412610848
 30
0.0
 10
-8.24808676895941
 20
47.15350691457979
 30
0.0
  0
SPLINE
  5
CC
330
1F
100
AcDbEntity
  8
0
370
    -3
100
AcDbSpline
210
0.0
220
0.0
230
1.0
 70
     8
 71
     3
 72
     8
 73
     4
 74
     0
 42
0.000000001
 43
0.0000000001
 40
-1.0
 40
-1.0
 40
-1.0
 40
-1.0
 40
0.0
 40
0.0
 40
0.0
 40
0.0
 10
-8.24867968610306
 20
44.58826445358299
 30
0.0
 10
-8.813816193071318
 20
44.67249241445948
 30
0.0
 10
-9.37858762707097
 20
44.76818535740345
 30
0.0
 10
-9.93033074135434
 20
44.91901333313995
 30
0.0
  0
SPLINE
  5
CD
330
1F
100
AcDbEntity
  8
0
370
    -3
100
AcDbSpline
210
0.0
220
0.0
230
1.0
 70
     8
 71
     3
 72
    13
 73
     9
 74
     0
 42
0.000000001
 43
0.0000000001
 40
0.0
 40
0.0
 40
0.0
 40
0.0
 40
1.0
 40
2.0
 40
3.0
 40
4.0
 40
5.0
 40
6.0
 40
6.0
 40
6.0
 40
6.0
 10
-9.93033074135434
 20
44.91901333313995
 30
0.0
 10
-10.07620213260509
 20
44.95779200569733
 30
0.0
 10
-10.36304051025425
 20
45.04379709970305
 30
0.0
 10
-10.77930627678739
 20
45.24437166110297
 30
0.0
 10
-11.03593136222605
 20
45.63523222503885
 30
0.0
 10
-11.06764575382098
 20
46.09433574306668
 30
0.0
 10
-11.05010194324646
 20
46.54398405631914
 30
0.0
 10
-11.03277644039528
 20
46.84522907401789
 30
0.0
 10
-11.02356558315421
 20
46.996295612158
 30
0.0
  0
SPLINE
  5
CE
330
1F
100
AcDbEntity
  8
0
370
    -3
100
AcDbSpline
210
0.0
220
0.0
230
1.0
 70
     8
 71
     3
 72
     8
 73
     4
 74
     0
 42
0.000000001
 43
0.0000000001
 40
6.0
 40
6.0
 40
6.0
 40
6.0
 40
7.0
 40
7.0
 40
7.0
 40
7.0
 10
-11.02356558315421
 20
46.996295612158
 30
0.0
 10
-10.76034382843793
 20
49.88357062323963
 30
0.0
 10
-10.45322273606274
 20
52.76822254554393
 30
0.0
 10
-10.01508645212874
 20
55.63425014632394
 30
0.0
  0
SPLINE
  5
CF
330
1F
100
AcDbEntity
  8
0
370
    -3
100
AcDbSpline
210
0.0
220
0.0
230
1.0
 70
     8
 71
     3
 72
    11
 73
     7
 74
     0
 42
0.000000001
 43
0.0000000001
 40
7.0
 40
7.0
 40
7.0
 40
7.0
 40
8.0
 40
9.0
 40
10.0
 40
11.0
 40
11.0
 40
11.0
 40
11.0
 10
-10.01508645212874
 20
55.63425014632394
 30
0.0
 10
-9.980270503147182
 20
55.93263086773313
 30
0.0
 10
-9.827993446274917
 20
56.51324381966219
 30
0.0
 10
-9.541061203636445
 20
57.36727422633088
 30
0.0
 10
-8.978863991911055
 20
58.08979965045439
 30
0.0
 10
-8.486880610599485
 20
58.43789492049174
 30
0.0
 10
-8.229914757935944
 20
58.59179889418233
 30
0.0
  0
SPLINE
  5
D0
330
1F
100
AcDbEntity
  8
0
370
    -3
100
AcDbSpline
210
0.0
220
0.0
230
1.0
 70
     8
 71
     3
 72
    10
 73
     6
 74
     0
 42
0.000000001
 43
0.0000000001
 40
0.0
 40
0.0
 40
0.0
 40
0.0
 40
1.0
 40
2.0
 40
3.0
 40
3.0
 40
3.0
 40
3.0
 10
8.235337848510028
 20
57.61541154710861
 30
0.0
 10
8.455852319992573
 20
57.52662648730848
 30
0.0
 10
8.80445464706304
 20
57.18231711808486
 30
0.0
 10
9.012517121909497
 20
56.49671519859799
 30
0.0
 10
9.11522517640907
 20
56.04055851176411
 30
0.0
 10
9.15803741769264
 20
55.80880800913159
 30
0.0
  0
SPLINE
  5
D1
330
1F
100
AcDbEntity
  8
0
370
    -3
100
AcDbSpline
210
0.0
220
0.0
230
1.0
 70
     8
 71
     3
 72
    11
 73
     7
 74
     0
 42
0.000000001
 43
0.0000000001
 40
3.0
 40
3.0
 40
3.0
 40
3.0
 40
4.0
 40
5.0
 40
6.0
 40
7.0
 40
7.0
 40
7.0
 40
7.0
 10
9.15803741769264
 20
55.80880800913159
 30
0.0
 10
9.300837390233482
 20
55.02933298858115
 30
0.0
 10
9.495567682773498
 20
53.45646649995215
 30
0.0
 10
9.729621124998886
 20
51.09107425574985
 30
0.0
 10
9.920123625783646
 20
48.72341539797475
 30
0.0
 10
10.079082290439
 20
47.14346934021424
 30
0.0
 10
10.03788533967327
 20
46.35138707776827
 30
0.0
  0
SPLINE
  5
D2
330
1F
100
AcDbEntity
  8
0
370
    -3
100
AcDbSpline
210
0.0
220
0.0
230
1.0
 70
     8
 71
     3
 72
    16
 73
    12
 74
     0
 42
0.000000001
 43
0.0000000001
 40
7.0
 40
7.0
 40
7.0
 40
7.0
 40
8.0
 40
9.0
 40
10.0
 40
11.0
 40
12.0
 40
13.0
 40
14.0
 40
15.0
 40
16.0
 40
16.0
 40
16.0
 40
16.0
 10
10.03788533967327
 20
46.35138707776827
 30
0.0
 10
10.03283075985755
 20
46.25487989975547
 30
0.0
 10
9.881610523194297
 20
46.12667236381387
 30
0.0
 10
9.606052989268193
 20
46.1197227938488
 30
0.0
 10
9.337893313894284
 20
46.13215673883426
 30
0.0
 10
9.072529585768393
 20
46.18736763183119
 30
0.0
 10
8.820152671213322
 20
46.28415806388885
 30
0.0
 10
8.590852451745036
 20
46.43086337971337
 30
0.0
 10
8.417271174030674
 20
46.64134490137665
 30
0.0
 10
8.311759250938394
 20
46.89149591841159
 30
0.0
 10
8.266155298460887
 20
47.06543412610848
 30
0.0
 10
8.248074122674893
 20
47.15350691457979
 30
0.0
  0
SPLINE
  5
D3
330
1F
100
AcDbEntity
  8
0
370
    -3
100
AcDbSpline
210
0.0
220
0.0
230
1.0
 70
     8
 71
     3
 72
     8
 73
     4
 74
     0
 42
0.000000001
 43
0.0000000001
 40
-1.0
 40
-1.0
 40
-1.0
 40
-1.0
 40
0.0
 40
0.0
 40
0.0
 40
0.0
 10
8.248667039818542
 20
44.58826445358299
 30
0.0
 10
8.8138035467868
 20
44.67249241445948
 30
0.0
 10
9.378574980786453
 20
44.76818535740345
 30
0.0
 10
9.930318095069822
 20
44.91901333313995
 30
0.0
  0
SPLINE
  5
D4
330
1F
100
AcDbEntity
  8
0
370
    -3
100
AcDbSpline
210
0.0
220
0.0
230
1.0
 70
     8
 71
     3
 72
    13
 73
     9
 74
     0
 42
0.000000001
 43
0.0000000001
 40
0.0
 40
0.0
 40
0.0
 40
0.0
 40
1.0
 40
2.0
 40
3.0
 40
4.0
 40
5.0
 40
6.0
 40
6.0
 40
6.0
 40
6.0
 10
9.930318095069822
 20
44.91901333313995
 30
0.0
 10
10.07618948632057
 20
44.95779200569733
 30
0.0
 10
10.36302786396973
 20
45.04379709970305
 30
0.0
 10
10.77929363050288
 20
45.24437166110297
 30
0.0
 10
11.03591871594153
 20
45.63523222503885
 30
0.0
 10
11.06763310753647
 20
46.09433574306668
 30
0.0
 10
11.05008929696194
 20
46.54398405631914
 30
0.0
 10
11.03276379411076
 20
46.84522907401789
 30
0.0
 10
11.02355293686969
 20
46.996295612158
 30
0.0
  0
SPLINE
  5
D5
330
1F
100
AcDbEntity
  8
0
370
    -3
100
AcDbSpline
210
0.0
220
0.0
230
1.0
 70
     8
 71
     3
 72
     8
 73
     4
 74
     0
 42
0.000000001
 43
0.0000000001
 40
6.0
 40
6.0
 40
6.0
 40
6.0
 40
7.0
 40
7.0
 40
7.0
 40
7.0
 10
11.02355293686969
 20
46.996295612158
 30
0.0
 10
10.76033118215341
 20
49.88357062323963
 30
0.0
 10
10.45321008977822
 20
52.76822254554393
 30
0.0
 10
10.01507380584422
 20
55.63425014632394
 30
0.0
  0
SPLINE
  5
D6
330
1F
100
AcDbEntity
  8
0
370
    -3
100
AcDbSpline
210
0.0
220
0.0
230
1.0
 70
     8
 71
     3
 72
    11
 73
     7
 74
     0
 42
0.000000001
 43
0.0000000001
 40
7.0
 40
7.0
 40
7.0
 40
7.0
 40
8.0
 40
9.0
 40
10.0
 40
11.0
 40
11.0
 40
11.0
 40
11.0
 10
10.01507380584422
 20
55.63425014632394
 30
0.0
 10
9.980257856862664
 20
55.93263086773313
 30
0.0
 10
9.8279807999904
 20
56.51324381966219
 30
0.0
 10
9.541048557351928
 20
57.36727422633088
 30
0.0
 10
8.978851345626538
 20
58.08979965045439
 30
0.0
 10
8.486867964314968
 20
58.43789492049174
 30
0.0
 10
8.229902111651427
 20
58.59179889418233
 30
0.0
  0
SPLINE
  5
D7
330
1F
100
AcDbEntity
  8
0
 62
    18
420
        0
370
    -3
100
AcDbSpline
210
0.0
220
0.0
230
1.0
 70
    28
 71
     2
 72
     6
 73
     3
 74
     0
 42
0.000000001
 43
0.0000000001
 40
-11.98626670292479
 40
-11.98626670292479
 40
-11.98626670292479
 40
-8.636651742026249
 40
-8.636651742026249
 40
-8.636651742026249
 10
8.234337079364845
 20
56.73853144946077
 30
0.0
 41
0.9999999952157783
 10
8.33793957648384
 20
57.11922015181302
 30
0.0
 41
0.9999999952157783
 10
8.441542073602836
 20
57.49990885416528
 30
0.0
 41
0.9999999952157783
  0
SPLINE
  5
D8
330
1F
100
AcDbEntity
  8
0
 62
    18
420
        0
370
    -3
100
AcDbSpline
210
0.0
220
0.0
230
1.0
 70
    28
 71
     2
 72
     6
 73
     3
 74
     0
 42
0.000000001
 43
0.0000000001
 40
-5.104157813911494
 40
-5.104157813911494
 40
-5.104157813911494
 40
0.0
 40
0.0
 40
0.0
 10
8.66005984133587
 20
58.30285518994383
 30
0.0
 41
0.9999999952157783
 10
8.817929776054806
 20
58.88295028668231
 30
0.0
 41
0.9999999952157783
 10
8.975799710773739
 20
59.4630453834208
 30
0.0
 41
0.9999999952157784
  0
SPLINE
  5
D9
330
1F
100
AcDbEntity
  8
0
 62
    18
420
        0
370
    -3
100
AcDbSpline
210
0.0
220
0.0
230
1.0
 70
     8
 71
     3
 72
    12
 73
     8
 74
     0
 42
0.000000001
 43
0.0000000001
 40
0.0
 40
0.0
 40
0.0
 40
0.0
 40
1.0
 40
2.0
 40
3.0
 40
4.0
 40
5.0
 40
5.0
 40
5.0
 40
5.0
 10
8.975799710773742
 20
59.46304538342079
 30
0.0
 10
9.001373858460482
 20
59.55690291414943
 30
0.0
 10
9.016810436370662
 20
59.75432212260059
 30
0.0
 10
8.929105131404128
 20
60.03825893904742
 30
0.0
 10
8.740963026070233
 20
60.2686271291837
 30
0.0
 10
8.478789886747307
 20
60.40941017338463
 30
0.0
 10
8.281315967036363
 20
60.42863056578794
 30
0.0
 10
8.184534276838576
 20
60.41879832360279
 30
0.0
  0
SPLINE
  5
DA
330
1F
100
AcDbEntity
  8
0
 62
    18
420
        0
370
    -3
100
AcDbSpline
210
0.0
220
0.0
230
1.0
 70
    28
 71
     2
 72
     6
 73
     3
 74
     0
 42
0.000000001
 43
0.0000000001
 40
-11.98626670292479
 40
-11.98626670292479
 40
-11.98626670292479
 40
-8.636651742026142
 40
-8.636651742026142
 40
-8.636651742026142
 10
-8.234349725649295
 20
56.73853144946077
 30
0.0
 41
0.9999999952157783
 10
-8.337952222768305
 20
57.11922015181304
 30
0.0
 41
0.9999999952157783
 10
-8.441554719887314
 20
57.49990885416531
 30
0.0
 41
0.9999999952157783
  0
SPLINE
  5
DB
330
1F
100
AcDbEntity
  8
0
 62
    18
420
        0
370
    -3
100
AcDbSpline
210
0.0
220
0.0
230
1.0
 70
    28
 71
     2
 72
     6
 73
     3
 74
     0
 42
0.000000001
 43
0.0000000001
 40
-5.104157813911467
 40
-5.104157813911467
 40
-5.104157813911467
 40
0.0
 40
0.0
 40
0.0
 10
-8.660072487620377
 20
58.30285518994383
 30
0.0
 41
0.9999999952157783
 10
-8.81794242233932
 20
58.88295028668231
 30
0.0
 41
0.9999999952157783
 10
-8.97581235705826
 20
59.4630453834208
 30
0.0
 41
0.9999999952157784
  0
SPLINE
  5
DC
330
1F
100
AcDbEntity
  8
0
 62
    18
420
        0
370
    -3
100
AcDbSpline
210
0.0
220
0.0
230
1.0
 70
     8
 71
     3
 72
    12
 73
     8
 74
     0
 42
0.000000001
 43
0.0000000001
 40
0.0
 40
0.0
 40
0.0
 40
0.0
 40
1.0
 40
2.0
 40
3.0
 40
4.0
 40
5.0
 40
5.0
 40
5.0
 40
5.0
 10
-8.97581235705826
 20
59.46304538342079
 30
0.0
 10
-9.001386504745
 20
59.55690291414943
 30
0.0
 10
-9.01682308265518
 20
59.75432212260059
 30
0.0
 10
-8.929117777688646
 20
60.03825893904742
 30
0.0
 10
-8.74097567235475
 20
60.2686271291837
 30
0.0
 10
-8.478802533031825
 20
60.40941017338463
 30
0.0
 10
-8.28132861332088
 20
60.42863056578794
 30
0.0
 10
-8.184546923123094
 20
60.41879832360279
 30
0.0
  0
SPLINE
  5
DE
330
1F
100
AcDbEntity
  8
Make2D$Visible$Tangents
 62
    18
420
        0
370
    -3
100
AcDbSpline
210
0.0
220
0.0
230
1.0
 70
     8
 71
     3
 72
    25
 73
    21
 74
     0
 42
0.000000001
 43
0.0000000001
 40
-7.0
 40
-7.0
 40
-7.0
 40
-7.0
 40
-5.999992802600457
 40
-4.999985605200914
 40
-3.999978407801371
 40
-2.999971210401828
 40
-1.999964013002285
 40
-0.9999568156027417
 40
0.0
 40
0.0
 40
0.0
 40
0.9999719122290828
 40
1.999975423200448
 40
2.999978934171812
 40
3.999982445143177
 40
4.999985956114541
 40
5.999989467085905
 40
6.99999297805727
 40
7.999996489028636
 40
9.0
 40
9.0
 40
9.0
 40
9.0
 10
-8.234958933686471
 20
22.50706333901115
 30
0.0
 10
-8.282632751926144
 20
22.60106050352765
 30
0.0
 10
-8.402180869231074
 20
22.77776935880202
 30
0.0
 10
-8.651973875437761
 20
22.97717262839626
 30
0.0
 10
-8.933119002419744
 20
23.12118865305175
 30
0.0
 10
-9.22054160853611
 20
23.25932037923931
 30
0.0
 10
-9.550818355981107
 20
23.27123661878798
 30
0.0
 10
-9.799931887892683
 20
23.05203054963292
 30
0.0
 10
-9.929545764004274
 20
22.88793193034357
 30
0.0
 10
-9.972798517347428
 20
22.79047317156979
 30
0.0
 10
-10.02256575990884
 20
22.5937629742175
 30
0.0
 10
-10.04956586672495
 20
22.18858781278041
 30
0.0
 10
-10.05864953729497
 20
21.58198674365035
 30
0.0
 10
-10.05356059375617
 20
20.97469864209242
 30
0.0
 10
-10.0434319937105
 20
20.368099597664
 30
0.0
 10
-10.01797934726301
 20
19.76005115734547
 30
0.0
 10
-9.921228049333195
 20
19.16333714857973
 30
0.0
 10
-9.663051689052338
 20
18.58356483456416
 30
0.0
 10
-9.091779917458666
 20
18.31603075149928
 30
0.0
 10
-8.692055547329971
 20
18.1897767307396
 30
0.0
 10
-8.494529559605837
 20
18.140865499287
 30
0.0
  0
SPLINE
  5
DF
330
1F
100
AcDbEntity
  8
Make2D$Visible$Tangents
 62
    18
420
        0
370
    -3
100
AcDbSpline
210
0.0
220
0.0
230
1.0
 70
     8
 71
     2
 72
     6
 73
     3
 74
     0
 42
0.000000001
 43
0.0000000001
 40
9.0
 40
9.0
 40
9.0
 40
10.0
 40
10.0
 40
10.0
 10
-8.494529559605837
 20
18.140865499287
 30
0.0
 10
-7.412672934607031
 20
17.87297700322878
 30
0.0
 10
-6.311560945074149
 20
17.70128972429103
 30
0.0
  0
SPLINE
  5
E0
330
1F
100
AcDbEntity
  8
Make2D$Visible$Tangents
 62
    18
420
        0
370
    -3
100
AcDbSpline
210
0.0
220
0.0
230
1.0
 70
     8
 71
     3
 72
    14
 73
    10
 74
     0
 42
0.000000001
 43
0.0000000001
 40
10.0
 40
10.0
 40
10.0
 40
10.0
 40
10.54165293249129
 40
11.54165293249129
 40
12.54165293249129
 40
13.54165293249129
 40
14.54165293249129
 40
15.54165293249129
 40
16.54165293249129
 40
16.54165293249129
 40
16.54165293249129
 40
16.54165293249129
 10
-6.311560945074149
 20
17.70128972429103
 30
0.0
 10
-6.138808678677407
 20
17.67588285805503
 30
0.0
 10
-5.646934947879032
 20
17.60616016993595
 30
0.0
 10
-4.831587372846712
 20
17.52571656794281
 30
0.0
 10
-3.866437882793832
 20
17.46871956119246
 30
0.0
 10
-2.900089906023538
 20
17.43950880247895
 30
0.0
 10
-1.933441671072501
 20
17.42661130774859
 30
0.0
 10
-0.9667256182341362
 20
17.42243785216165
 30
0.0
 10
-0.3222455871912757
 20
17.42217277592979
 30
0.0
 10
-0.0000055892818978
 20
17.42216822063821
 30
0.0
  0
SPLINE
  5
E1
330
1F
100
AcDbEntity
  8
Make2D$Visible$Tangents
 62
    18
420
        0
370
    -3
100
AcDbSpline
210
0.0
220
0.0
230
1.0
 70
     8
 71
     3
 72
    14
 73
    10
 74
     0
 42
0.000000001
 43
0.0000000001
 40
16.54165293249129
 40
16.54165293249129
 40
16.54165293249129
 40
16.54165293249129
 40
17.54165293249129
 40
18.54165293249129
 40
19.54165293249129
 40
20.54165293249129
 40
21.54165293249129
 40
22.54165293249129
 40
23.08330586430661
 40
23.08330586430661
 40
23.08330586430661
 40
23.08330586430661
 10
-0.0000055892818978
 20
17.42216822063821
 30
0.0
 10
0.3222344086274802
 20
17.42217277592979
 30
0.0
 10
0.9667144396703407
 20
17.42243785216165
 30
0.0
 10
1.933430492508705
 20
17.42661130774859
 30
0.0
 10
2.900078727459743
 20
17.43950880247895
 30
0.0
 10
3.866426704230037
 20
17.46871956119246
 30
0.0
 10
4.831576194282917
 20
17.52571656794281
 30
0.0
 10
5.646923769098407
 20
17.60616016991455
 30
0.0
 10
6.138797499682312
 20
17.67588285799388
 30
0.0
 10
6.311549765856626
 20
17.70128972424313
 30
0.0
  0
SPLINE
  5
E2
330
1F
100
AcDbEntity
  8
Make2D$Visible$Tangents
 62
    18
420
        0
370
    -3
100
AcDbSpline
210
0.0
220
0.0
230
1.0
 70
     8
 71
     2
 72
     6
 73
     3
 74
     0
 42
0.000000001
 43
0.0000000001
 40
23.08330586430661
 40
23.08330586430661
 40
23.08330586430661
 40
24.08330586430661
 40
24.08330586430661
 40
24.08330586430661
 10
6.311549765856626
 20
17.70128972424313
 30
0.0
 10
7.412661755382203
 20
17.87297700322875
 30
0.0
 10
8.49451838038118
 20
18.140865499287
 30
0.0
  0
SPLINE
  5
E3
330
1F
100
AcDbEntity
  8
Make2D$Visible$Tangents
 62
    18
420
        0
370
    -3
100
AcDbSpline
210
0.0
220
0.0
230
1.0
 70
     8
 71
     3
 72
    25
 73
    21
 74
     0
 42
0.000000001
 43
0.0000000001
 40
24.08330586430661
 40
24.08330586430661
 40
24.08330586430661
 40
24.08330586430661
 40
25.08330937527798
 40
26.08331288624934
 40
27.08331639722071
 40
28.08331990819207
 40
29.08332341916343
 40
30.0833269301348
 40
31.08333044110616
 40
32.08333395207753
 40
33.08330586430661
 40
33.08330586430661
 40
33.08330586430661
 40
34.08326267990935
 40
35.08326987730889
 40
36.08327707470844
 40
37.08328427210798
 40
38.08329146950752
 40
39.08329866690707
 40
40.08330586430661
 40
40.08330586430661
 40
40.08330586430661
 40
40.08330586430661
 10
8.49451838038118
 20
18.140865499287
 30
0.0
 10
8.692044368105314
 20
18.1897767307396
 30
0.0
 10
9.091768738234038
 20
18.31603075149928
 30
0.0
 10
9.66304050982771
 20
18.58356483456416
 30
0.0
 10
9.921216870108537
 20
19.16333714857973
 30
0.0
 10
10.01796816803835
 20
19.76005115734547
 30
0.0
 10
10.04342081448584
 20
20.368099597664
 30
0.0
 10
10.05354941453155
 20
20.97469864209242
 30
0.0
 10
10.05863835807034
 20
21.58198674365035
 30
0.0
 10
10.04955468750029
 20
22.18858781278041
 30
0.0
 10
10.02255458068421
 20
22.5937629742175
 30
0.0
 10
9.9727873381228
 20
22.79047317156979
 30
0.0
 10
9.929534584779617
 20
22.88793193034357
 30
0.0
 10
9.799920708668054
 20
23.05203054963292
 30
0.0
 10
9.55080717675645
 20
23.27123661878798
 30
0.0
 10
9.22053042931148
 20
23.25932037923931
 30
0.0
 10
8.933107823195087
 20
23.12118865305175
 30
0.0
 10
8.651962696213133
 20
22.97717262839626
 30
0.0
 10
8.402169690006446
 20
22.77776935880202
 30
0.0
 10
8.282621572701487
 20
22.60106050352765
 30
0.0
 10
8.234947754461814
 20
22.50706333901115
 30
0.0
  0
SPLINE
  5
E4
330
1F
100
AcDbEntity
  8
0
370
    -3
100
AcDbSpline
210
0.0
220
0.0
230
1.0
 70
     8
 71
     2
 72
     7
 73
     4
 74
     0
 42
0.000000001
 43
0.0000000001
 40
15.53510243376376
 40
15.53510243376376
 40
15.53510243376376
 40
16.45235323737369
 40
17.45235323737369
 40
17.45235323737369
 40
17.45235323737369
 10
-8.250590276705992
 20
18.08174224845871
 30
0.0
 10
-8.251310627804799
 20
18.13246458207578
 30
0.0
 10
-8.251535411050554
 20
18.2385155485357
 30
0.0
 10
-8.249063113854731
 20
18.29376651956304
 30
0.0
  0
SPLINE
  5
E5
330
1F
100
AcDbEntity
  8
0
370
    -3
100
AcDbSpline
210
0.0
220
0.0
230
1.0
 70
     8
 71
     2
 72
     7
 73
     4
 74
     0
 42
0.000000001
 43
0.0000000001
 40
15.53510262625268
 40
15.53510262625268
 40
15.53510262625268
 40
16.45235323737369
 40
17.45235323737369
 40
17.45235323737369
 40
17.45235323737369
 10
8.25057918726057
 20
18.08174226974729
 30
0.0
 10
8.251299538079593
 20
18.13246459272314
 30
0.0
 10
8.251524321302782
 20
18.2385155485357
 30
0.0
 10
8.249052024106959
 20
18.29376651956304
 30
0.0
  0
ARC
  5
E6
330
1F
100
AcDbEntity
  8
Make2D$Visible$Tangents
 62
    18
420
        0
370
    -3
100
AcDbCircle
 10
7.595549714428273
 20
17.22854619471829
 30
0.0
 40
0.4424209459906815
210
0.0
220
0.0
230
-1.0
100
AcDbArc
 50
279.0656009667363
 51
321.9035472392367
  0
ARC
  5
E7
330
1F
100
AcDbEntity
  8
Make2D$Visible$Tangents
 62
    18
420
        0
370
    -3
100
AcDbCircle
 10
7.476771359364193
 20
17.32166844745012
 30
0.0
 40
0.5933515644402887
210
0.0
220
0.0
230
-1.0
100
AcDbArc
 50
321.9035472392368
 51
335.9522961975293
  0
SPLINE
  5
E8
330
1F
100
AcDbEntity
  8
Make2D$Visible$Tangents
 62
    18
420
        0
370
    -3
100
AcDbSpline
210
0.0
220
0.0
230
1.0
 70
     8
 71
     3
 72
     8
 73
     4
 74
     0
 42
0.000000001
 43
0.0000000001
 40
0.0
 40
0.0
 40
0.0
 40
0.0
 40
0.8698122571304998
 40
0.8698122571304998
 40
0.8698122571304998
 40
0.8698122571304998
 10
-8.018623862913387
 20
17.07987940009436
 30
0.0
 10
-8.038454697659233
 20
17.12432056718617
 30
0.0
 10
-8.054699570497576
 20
17.17050785955915
 30
0.0
 10
-8.068278523283823
 20
17.21722580697309
 30
0.0
  0
SPLINE
  5
E9
330
1F
100
AcDbEntity
  8
Make2D$Visible$Tangents
 62
    18
420
        0
370
    -3
100
AcDbSpline
210
0.0
220
0.0
230
1.0
 70
     8
 71
     3
 72
    10
 73
     6
 74
     0
 42
0.000000001
 43
0.0000000001
 40
0.8698122571304998
 40
0.8698122571304998
 40
0.8698122571304998
 40
0.8698122571304998
 40
1.125850314679689
 40
1.125850314679689
 40
1.379638189967468
 40
1.379638189967468
 40
1.379638189967468
 40
1.379638189967468
 10
-8.068278523283823
 20
17.21722580697309
 30
0.0
 10
-8.106363642447377
 20
17.23273186054256
 30
0.0
 10
-8.149639963294987
 20
17.24924355200197
 30
0.0
 10
-8.239991229904774
 20
17.28292462929289
 30
0.0
 10
-8.29536778094672
 20
17.3032515346998
 30
0.0
 10
-8.36919982728142
 20
17.32587106620048
 30
0.0
  0
SPLINE
  5
EA
330
1F
100
AcDbEntity
  8
Make2D$Visible$Tangents
 62
    18
420
        0
370
    -3
100
AcDbSpline
210
0.0
220
0.0
230
1.0
 70
     8
 71
     2
 72
    10
 73
     7
 74
     0
 42
0.000000001
 43
0.0000000001
 40
1.379638189967468
 40
1.379638189967468
 40
1.379638189967468
 40
2.379638189967468
 40
3.379638189967468
 40
4.379638189967467
 40
5.379638189967467
 40
6.379638189967467
 40
6.379638189967467
 40
6.379638189967467
 10
-8.36919982728142
 20
17.32587106620048
 30
0.0
 10
-8.596247283732168
 20
17.39443994622783
 30
0.0
 10
-9.041991716541077
 20
17.55672113547686
 30
0.0
 10
-9.474819064615133
 20
17.75122691662763
 30
0.0
 10
-9.879904189171441
 20
18.00101580401909
 30
0.0
 10
-10.24286300634679
 20
18.37647768820918
 30
0.0
 10
-10.37846407798867
 20
18.57165718906579
 30
0.0
  0
SPLINE
  5
EB
330
1F
100
AcDbEntity
  8
Make2D$Visible$Tangents
 62
    18
420
        0
370
    -3
100
AcDbSpline
210
0.0
220
0.0
230
1.0
 70
     8
 71
     3
 72
    10
 73
     6
 74
     0
 42
0.000000001
 43
0.0000000001
 40
6.379638189967467
 40
6.379638189967467
 40
6.379638189967467
 40
6.379638189967467
 40
7.379638189967467
 40
8.379638189967467
 40
9.379638189967467
 40
9.379638189967467
 40
9.379638189967467
 40
9.379638189967467
 10
-10.37846407798867
 20
18.57165718906579
 30
0.0
 10
-10.65038061748652
 20
18.96304446802492
 30
0.0
 10
-10.94527091291826
 20
19.8776840682105
 30
0.0
 10
-11.06191960282422
 20
21.29481119813028
 30
0.0
 10
-11.07381805490826
 20
22.24415004711139
 30
0.0
 10
-11.02131028139706
 20
22.71515443259591
 30
0.0
  0
SPLINE
  5
EC
330
1F
100
AcDbEntity
  8
Make2D$Visible$Tangents
 62
    18
420
        0
370
    -3
100
AcDbSpline
210
0.0
220
0.0
230
1.0
 70
     8
 71
     3
 72
    21
 73
    17
 74
     0
 42
0.000000001
 43
0.0000000001
 40
9.379638189967467
 40
9.379638189967467
 40
9.379638189967467
 40
9.379638189967467
 40
10.37963818996747
 40
11.37963818996747
 40
12.37963818996747
 40
12.37963818996747
 40
12.37963818996747
 40
13.37963818996747
 40
14.37963818996747
 40
15.37963818996747
 40
15.37963818996747
 40
15.37963818996747
 40
16.37963818996747
 40
16.37963818996747
 40
16.37963818996747
 40
17.37963818996747
 40
17.37963818996747
 40
17.37963818996747
 40
17.37963818996747
 10
-11.02131028139706
 20
22.71515443259591
 30
0.0
 10
-11.02027152512932
 20
22.72447226736313
 30
0.0
 10
-11.01775624077402
 20
22.74421333805088
 30
0.0
 10
-11.01397418221967
 20
22.77208496150742
 30
0.0
 10
-11.01124564630226
 20
22.79063680309548
 30
0.0
 10
-11.00976121280229
 20
22.80028545321927
 30
0.0
 10
-10.99088169520405
 20
22.94634827131264
 30
0.0
 10
-10.90602184767818
 20
23.23460175832197
 30
0.0
 10
-10.60556902655907
 20
23.56985991992322
 30
0.0
 10
-10.36686529113638
 20
23.7416978142555
 30
0.0
 10
-10.23740002553734
 20
23.81241205582887
 30
0.0
 10
-10.0820620112201
 20
23.89939783598945
 30
0.0
 10
-9.80723799034513
 20
23.99514577753311
 30
0.0
 10
-9.631402415094044
 20
24.02150915689111
 30
0.0
 10
-9.164492105802537
 20
24.09447439393641
 30
0.0
 10
-8.693655710082737
 20
24.13720826809872
 30
0.0
 10
-8.223247045139203
 20
24.17974696235146
 30
0.0
  0
ARC
  5
ED
330
1F
100
AcDbEntity
  8
Make2D$Visible$Tangents
 62
    18
420
        0
370
    -3
100
AcDbCircle
 10
7.595538535203644
 20
17.22854619471829
 30
0.0
 40
0.4424209459906815
100
AcDbArc
 50
279.0656009667363
 51
321.9035472392367
  0
ARC
  5
EE
330
1F
100
AcDbEntity
  8
Make2D$Visible$Tangents
 62
    18
420
        0
370
    -3
100
AcDbCircle
 10
7.476760180139564
 20
17.32166844745012
 30
0.0
 40
0.5933515644402887
100
AcDbArc
 50
321.9035472392368
 51
335.9522961975293
  0
SPLINE
  5
EF
330
1F
100
AcDbEntity
  8
Make2D$Visible$Tangents
 62
    18
420
        0
370
    -3
100
AcDbSpline
210
0.0
220
0.0
230
1.0
 70
     8
 71
     3
 72
     8
 73
     4
 74
     0
 42
0.000000001
 43
0.0000000001
 40
0.0
 40
0.0
 40
0.0
 40
0.0
 40
0.8698122571304998
 40
0.8698122571304998
 40
0.8698122571304998
 40
0.8698122571304998
 10
8.018612683688758
 20
17.07987940009436
 30
0.0
 10
8.038443518434605
 20
17.12432056718617
 30
0.0
 10
8.054688391272947
 20
17.17050785955915
 30
0.0
 10
8.068267344059194
 20
17.21722580697309
 30
0.0
  0
SPLINE
  5
F0
330
1F
100
AcDbEntity
  8
Make2D$Visible$Tangents
 62
    18
420
        0
370
    -3
100
AcDbSpline
210
0.0
220
0.0
230
1.0
 70
     8
 71
     3
 72
    10
 73
     6
 74
     0
 42
0.000000001
 43
0.0000000001
 40
0.8698122571304998
 40
0.8698122571304998
 40
0.8698122571304998
 40
0.8698122571304998
 40
1.125850314679689
 40
1.125850314679689
 40
1.379638189967468
 40
1.379638189967468
 40
1.379638189967468
 40
1.379638189967468
 10
8.068267344059194
 20
17.21722580697309
 30
0.0
 10
8.106352463222748
 20
17.23273186054256
 30
0.0
 10
8.149628784070359
 20
17.24924355200197
 30
0.0
 10
8.239980050680145
 20
17.28292462929289
 30
0.0
 10
8.29535660172209
 20
17.3032515346998
 30
0.0
 10
8.369188648056792
 20
17.32587106620048
 30
0.0
  0
SPLINE
  5
F1
330
1F
100
AcDbEntity
  8
Make2D$Visible$Tangents
 62
    18
420
        0
370
    -3
100
AcDbSpline
210
0.0
220
0.0
230
1.0
 70
     8
 71
     2
 72
    10
 73
     7
 74
     0
 42
0.000000001
 43
0.0000000001
 40
1.379638189967468
 40
1.379638189967468
 40
1.379638189967468
 40
2.379638189967468
 40
3.379638189967468
 40
4.379638189967467
 40
5.379638189967467
 40
6.379638189967467
 40
6.379638189967467
 40
6.379638189967467
 10
8.369188648056792
 20
17.32587106620048
 30
0.0
 10
8.59623610450754
 20
17.39443994622783
 30
0.0
 10
9.041980537316448
 20
17.55672113547686
 30
0.0
 10
9.474807885390504
 20
17.75122691662763
 30
0.0
 10
9.879893009946812
 20
18.00101580401909
 30
0.0
 10
10.24285182712217
 20
18.37647768820918
 30
0.0
 10
10.37845289876404
 20
18.57165718906579
 30
0.0
  0
SPLINE
  5
F2
330
1F
100
AcDbEntity
  8
Make2D$Visible$Tangents
 62
    18
420
        0
370
    -3
100
AcDbSpline
210
0.0
220
0.0
230
1.0
 70
     8
 71
     3
 72
    10
 73
     6
 74
     0
 42
0.000000001
 43
0.0000000001
 40
6.379638189967467
 40
6.379638189967467
 40
6.379638189967467
 40
6.379638189967467
 40
7.379638189967467
 40
8.379638189967467
 40
9.379638189967467
 40
9.379638189967467
 40
9.379638189967467
 40
9.379638189967467
 10
10.37845289876404
 20
18.57165718906579
 30
0.0
 10
10.65036943826189
 20
18.96304446802492
 30
0.0
 10
10.94525973369363
 20
19.8776840682105
 30
0.0
 10
11.06190842359959
 20
21.29481119813028
 30
0.0
 10
11.07380687568363
 20
22.24415004711139
 30
0.0
 10
11.02129910217243
 20
22.71515443259591
 30
0.0
  0
SPLINE
  5
F3
330
1F
100
AcDbEntity
  8
Make2D$Visible$Tangents
 62
    18
420
        0
370
    -3
100
AcDbSpline
210
0.0
220
0.0
230
1.0
 70
     8
 71
     3
 72
    21
 73
    17
 74
     0
 42
0.000000001
 43
0.0000000001
 40
9.379638189967467
 40
9.379638189967467
 40
9.379638189967467
 40
9.379638189967467
 40
10.37963818996747
 40
11.37963818996747
 40
12.37963818996747
 40
12.37963818996747
 40
12.37963818996747
 40
13.37963818996747
 40
14.37963818996747
 40
15.37963818996747
 40
15.37963818996747
 40
15.37963818996747
 40
16.37963818996747
 40
16.37963818996747
 40
16.37963818996747
 40
17.37963818996747
 40
17.37963818996747
 40
17.37963818996747
 40
17.37963818996747
 10
11.02129910217243
 20
22.71515443259591
 30
0.0
 10
11.02026034590469
 20
22.72447226736313
 30
0.0
 10
11.01774506154939
 20
22.74421333805088
 30
0.0
 10
11.01396300299504
 20
22.77208496150742
 30
0.0
 10
11.01123446707763
 20
22.79063680309548
 30
0.0
 10
11.00975003357766
 20
22.80028545321927
 30
0.0
 10
10.99087051597942
 20
22.94634827131264
 30
0.0
 10
10.90601066845355
 20
23.23460175832197
 30
0.0
 10
10.60555784733444
 20
23.56985991992322
 30
0.0
 10
10.36685411191175
 20
23.7416978142555
 30
0.0
 10
10.23738884631271
 20
23.81241205582887
 30
0.0
 10
10.08205083199547
 20
23.89939783598945
 30
0.0
 10
9.8072268111205
 20
23.99514577753311
 30
0.0
 10
9.631391235869415
 20
24.02150915689111
 30
0.0
 10
9.164480926577909
 20
24.09447439393641
 30
0.0
 10
8.693644530858109
 20
24.13720826809872
 30
0.0
 10
8.223235865914575
 20
24.17974696235146
 30
0.0
  0
SPLINE
  5
F5
330
1F
100
AcDbEntity
  8
Make2D$Visible$Curves
 62
    18
420
        0
370
    -3
100
AcDbSpline
210
0.0
220
0.0
230
1.0
 70
    11
 71
     3
 72
    72
 73
    68
 74
     0
 42
0.000000001
 43
0.0000000001
 40
0.0
 40
0.0
 40
0.0
 40
0.0
 40
1.0
 40
1.0
 40
2.0
 40
2.0
 40
3.0
 40
3.0
 40
4.0
 40
4.0
 40
5.0
 40
5.0
 40
6.0
 40
6.0
 40
7.0
 40
7.0
 40
8.0
 40
8.0
 40
9.0
 40
9.0
 40
10.0
 40
10.0
 40
10.0
 40
11.0
 40
11.0
 40
11.0
 40
12.0
 40
12.0
 40
13.0
 40
13.0
 40
14.0
 40
14.0
 40
15.0
 40
15.0
 40
16.0
 40
16.0
 40
17.0
 40
17.0
 40
18.0
 40
18.0
 40
19.0
 40
19.0
 40
20.0
 40
20.0
 40
21.0
 40
21.0
 40
21.0
 40
22.0
 40
22.0
 40
23.0
 40
23.0
 40
24.0
 40
24.0
 40
25.0
 40
25.0
 40
25.9440454171427
 40
25.9440454171427
 40
25.9440454171427
 40
26.94171228193566
 40
26.94171228193566
 40
27.94171228193566
 40
27.94171228193566
 40
28.94171228193566
 40
28.94171228193566
 40
29.94171228193566
 40
29.94171228193566
 40
30.94171228193566
 40
30.94171228193566
 40
30.94171228193566
 40
30.94171228193566
 10
33.32314820087694
 20
22.68838877279116
 30
0.0
 10
33.5237978751793
 20
22.66450320702384
 30
0.0
 10
33.72406451747528
 20
22.6375122558623
 30
0.0
 10
34.12383173805443
 20
22.57731958275082
 30
0.0
 10
34.32220797186483
 20
22.53927688296602
 30
0.0
 10
34.71594568652739
 20
22.44729875693841
 30
0.0
 10
34.90808261195951
 20
22.3839484654026
 30
0.0
 10
35.28289259902562
 20
22.22252542528696
 30
0.0
 10
35.4463837841339
 20
22.10757864146143
 30
0.0
 10
35.72553853750108
 20
21.80921454627489
 30
0.0
 10
35.83740811743314
 20
21.64215019808771
 30
0.0
 10
36.00573168379427
 20
21.27225690052549
 30
0.0
 10
36.07625048283714
 20
21.08279391414968
 30
0.0
 10
36.19000211264745
 20
20.69483526620866
 30
0.0
 10
36.24080374848307
 20
20.49929916595998
 30
0.0
 10
36.33025866201538
 20
20.10511341290638
 30
0.0
 10
36.37500408890944
 20
19.90805364759902
 30
0.0
 10
36.46453088295334
 20
19.51400033942322
 30
0.0
 10
36.50925128369747
 20
19.31691419313978
 30
0.0
 10
36.59860609263009
 20
18.92262291618181
 30
0.0
 10
36.63554641694614
 20
18.72405122555328
 30
0.0
 10
36.6647496611119
 20
18.52405348277522
 30
0.0
 10
36.69588617341287
 20
18.24977202400785
 30
0.0
 10
36.55324315895362
 20
18.0780939159952
 30
0.0
 10
36.27761195968759
 20
18.01663588677161
 30
0.0
 10
35.8484335447792
 20
17.92094113365293
 30
0.0
 10
35.41430567090023
 20
17.86022221147242
 30
0.0
 10
34.53615100520116
 20
17.80873602898774
 30
0.0
 10
34.0972593540979
 20
17.78723322126504
 30
0.0
 10
33.2198474153839
 20
17.75270817285893
 30
0.0
 10
32.78093807574282
 20
17.73948220424975
 30
0.0
 10
31.90271265589254
 20
17.72110337821913
 30
0.0
 10
31.46356921353657
 20
17.72195582461322
 30
0.0
 10
30.585220863963
 20
17.74374443622021
 30
0.0
 10
30.14725184308941
 20
17.77400716141096
 30
0.0
 10
29.27372410916851
 20
17.87326945056698
 30
0.0
 10
28.84228409631859
 20
17.95451399266608
 30
0.0
 10
27.99005177883981
 20
18.18022987190642
 30
0.0
 10
27.58560009449104
 20
18.34861502798151
 30
0.0
 10
26.82002567457482
 20
18.79643977304158
 30
0.0
 10
26.49561987024697
 20
19.08595083670609
 30
0.0
 10
25.96357107285166
 20
19.79617034630402
 30
0.0
 10
25.74909755107097
 20
20.17841302876808
 30
0.0
 10
25.42325226134346
 20
20.99716424902637
 30
0.0
 10
25.29157429173677
 20
21.41592965603624
 30
0.0
 10
25.19114099738707
 20
21.84408485992687
 30
0.0
 10
25.17160446758876
 20
21.9260025078128
 30
0.0
 10
25.15728755112991
 20
22.00883198096352
 30
0.0
 10
25.1390929448911
 20
22.17631457779456
 30
0.0
 10
25.135274145312
 20
22.26026505371215
 30
0.0
 10
25.13819355323454
 20
22.42858436055144
 30
0.0
 10
25.14597118377972
 20
22.51241484197543
 30
0.0
 10
25.17416229803791
 20
22.67941746083207
 30
0.0
 10
25.20258382551793
 20
22.7581031804532
 30
0.0
 10
25.28568690277041
 20
22.90171006778175
 30
0.0
 10
25.34170571253551
 20
22.9558664946444
 30
0.0
 10
25.41338775264416
 20
22.99444259085509
 30
0.0
 10
25.93223139424566
 20
23.07658952820591
 30
0.0
 10
26.45527745392616
 20
23.12327645215592
 30
0.0
 10
27.5110074282311
 20
23.14575652841145
 30
0.0
 10
28.03881080614121
 20
23.13904572800659
 30
0.0
 10
29.09306132469084
 20
23.08969619497449
 30
0.0
 10
29.61965385019474
 20
23.05646830047036
 30
0.0
 10
30.67177343366069
 20
22.97290625548592
 30
0.0
 10
31.19728907719988
 20
22.92521757407286
 30
0.0
 10
32.24723206789059
 20
22.81802489340504
 30
0.0
 10
32.79914354924125
 20
22.75076688335895
 30
0.0
 10
33.32314820087694
 20
22.68838877279116
 30
0.0
  0
SPLINE
  5
F6
330
1F
100
AcDbEntity
  8
Make2D$Visible$Curves
 62
    18
420
        0
370
    -3
100
AcDbSpline
210
0.0
220
0.0
230
1.0
 70
     8
 71
     3
 72
     9
 73
     5
 74
     0
 42
0.000000001
 43
0.0000000001
 40
-2.0
 40
-2.0
 40
-2.0
 40
-2.0
 40
-1.0
 40
0.0
 40
0.0
 40
0.0
 40
0.0
 10
26.24995669133796
 20
16.91272782713708
 30
0.0
 10
26.1458870465697
 20
16.98155923616835
 30
0.0
 10
25.95623628064595
 20
17.14589638364168
 30
0.0
 10
25.69685880965213
 20
17.49139946978593
 30
0.0
 10
25.62584076659655
 20
17.59371351925074
 30
0.0
  0
SPLINE
  5
F7
330
1F
100
AcDbEntity
  8
Make2D$Visible$Curves
 62
    18
420
        0
370
    -3
100
AcDbSpline
210
0.0
220
0.0
230
1.0
 70
     8
 71
     3
 72
    12
 73
     8
 74
     0
 42
0.000000001
 43
0.0000000001
 40
0.0
 40
0.0
 40
0.0
 40
0.0
 40
1.0
 40
2.0
 40
3.0
 40
4.0
 40
4.976469524593298
 40
4.976469524593298
 40
4.976469524593298
 40
4.976469524593298
 10
25.62584076659655
 20
17.59371351925074
 30
0.0
 10
25.40301169717983
 20
17.91473819762241
 30
0.0
 10
25.00977379425032
 20
18.59169533372396
 30
0.0
 10
24.5460172925051
 20
19.67023855210289
 30
0.0
 10
24.20695050374619
 20
20.79367901095149
 30
0.0
 10
23.93254583695901
 20
21.92175685403527
 30
0.0
 10
23.71665810292595
 20
22.66813138524994
 30
0.0
 10
23.52365859001847
 20
22.99867549023276
 30
0.0
  0
SPLINE
  5
F8
330
1F
100
AcDbEntity
  8
Make2D$Visible$Curves
 62
    18
420
        0
370
    -3
100
AcDbSpline
210
0.0
220
0.0
230
1.0
 70
     8
 71
     3
 72
     8
 73
     4
 74
     0
 42
0.000000001
 43
0.0000000001
 40
4.976469524593298
 40
4.976469524593298
 40
4.976469524593298
 40
4.976469524593298
 40
5.970409187098653
 40
5.970409187098653
 40
5.970409187098653
 40
5.970409187098653
 10
23.52365859001847
 20
22.99867549023276
 30
0.0
 10
23.39124212479655
 20
23.03322172909967
 30
0.0
 10
23.28050246328206
 20
23.06614627016683
 30
0.0
 10
23.12413292149623
 20
23.09669271585415
 30
0.0
  0
SPLINE
  5
F9
330
1F
100
AcDbEntity
  8
Make2D$Visible$Curves
 62
    18
420
        0
370
    -3
100
AcDbSpline
210
0.0
220
0.0
230
1.0
 70
     8
 71
     3
 72
    10
 73
     6
 74
     0
 42
0.000000001
 43
0.0000000001
 40
5.970409187098653
 40
5.970409187098653
 40
5.970409187098653
 40
5.970409187098653
 40
6.970409187098653
 40
7.970409187098657
 40
8.970409187098657
 40
8.970409187098657
 40
8.970409187098657
 40
8.970409187098657
 10
23.12413292149623
 20
23.09669271585415
 30
0.0
 10
23.04232976129012
 20
23.11835039993929
 30
0.0
 10
22.88763986358751
 20
23.19482309662172
 30
0.0
 10
22.71769503612649
 20
23.39007945907626
 30
0.0
 10
22.6636829288565
 20
23.55403119334508
 30
0.0
 10
22.65366926439384
 20
23.6380456503951
 30
0.0
  0
SPLINE
  5
FA
330
1F
100
AcDbEntity
  8
Make2D$Visible$Curves
 62
    18
420
        0
370
    -3
100
AcDbSpline
210
0.0
220
0.0
230
1.0
 70
     8
 71
     3
 72
     8
 73
     4
 74
     0
 42
0.000000001
 43
0.0000000001
 40
8.970409187098657
 40
8.970409187098657
 40
8.970409187098657
 40
8.970409187098657
 40
9.354498396894783
 40
9.354498396894783
 40
9.354498396894783
 40
9.354498396894783
 10
22.65366926439384
 20
23.6380456503951
 30
0.0
 10
22.63832525208468
 20
23.76604160830171
 30
0.0
 10
22.62241417463886
 20
23.89298365420458
 30
0.0
 10
22.60583729156875
 20
24.01914073157108
 30
0.0
  0
SPLINE
  5
FB
330
1F
100
AcDbEntity
  8
Make2D$Visible$Curves
 62
    18
420
        0
370
    -3
100
AcDbSpline
210
0.0
220
0.0
230
1.0
 70
     8
 71
     3
 72
     8
 73
     4
 74
     0
 42
0.000000001
 43
0.0000000001
 40
9.354498396894783
 40
9.354498396894783
 40
9.354498396894783
 40
9.354498396894783
 40
10.35449839689478
 40
10.35449839689478
 40
10.35449839689478
 40
10.35449839689478
 10
22.60583729156875
 20
24.01914073157108
 30
0.0
 10
22.5644381725881
 20
24.33420550183317
 30
0.0
 10
22.98907422410528
 20
24.54886933149825
 30
0.0
 10
23.16092966598021
 20
24.51348054530574
 30
0.0
  0
SPLINE
  5
FC
330
1F
100
AcDbEntity
  8
Make2D$Visible$Curves
 62
    18
420
        0
370
    -3
100
AcDbSpline
210
0.0
220
0.0
230
1.0
 70
     8
 71
     3
 72
     8
 73
     4
 74
     0
 42
0.000000001
 43
0.0000000001
 40
10.35449839689478
 40
10.35449839689478
 40
10.35449839689478
 40
10.35449839689478
 40
11.35449839689479
 40
11.35449839689479
 40
11.35449839689479
 40
11.35449839689479
 10
23.16092966598021
 20
24.51348054530574
 30
0.0
 10
23.42701869303562
 20
24.45868700729554
 30
0.0
 10
23.68764596870238
 20
24.38090175462942
 30
0.0
 10
23.95180868822115
 20
24.31776862784848
 30
0.0
  0
SPLINE
  5
FD
330
1F
100
AcDbEntity
  8
Make2D$Visible$Curves
 62
    18
420
        0
370
    -3
100
AcDbSpline
210
0.0
220
0.0
230
1.0
 70
     8
 71
     3
 72
     8
 73
     4
 74
     0
 42
0.000000001
 43
0.0000000001
 40
11.35449839689479
 40
11.35449839689479
 40
11.35449839689479
 40
11.35449839689479
 40
12.35449839689479
 40
12.35449839689479
 40
12.35449839689479
 40
12.35449839689479
 10
23.95180868822115
 20
24.31776862784848
 30
0.0
 10
24.24686677822908
 20
24.2472517137353
 30
0.0
 10
24.77062939955371
 20
24.18276516813057
 30
0.0
 10
25.07324198412999
 20
24.14726354728128
 30
0.0
  0
SPLINE
  5
FE
330
1F
100
AcDbEntity
  8
Make2D$Visible$Curves
 62
    18
420
        0
370
    -3
100
AcDbSpline
210
0.0
220
0.0
230
1.0
 70
     8
 71
     2
 72
    13
 73
    10
 74
     0
 42
0.000000001
 43
0.0000000001
 40
12.35449839689479
 40
12.35449839689479
 40
12.35449839689479
 40
13.35449839689479
 40
14.35449839689479
 40
15.35449839689478
 40
16.35449839689478
 40
17.35449839689478
 40
18.35449839689478
 40
19.35449839689478
 40
20.35449839689478
 40
20.35449839689478
 40
20.35449839689478
 10
25.07324198412999
 20
24.14726354728128
 30
0.0
 10
25.5355256703609
 20
24.09302978110676
 30
0.0
 10
26.46090578420393
 20
23.99174722229185
 30
0.0
 10
27.38975348171792
 20
23.92821840406683
 30
0.0
 10
28.31816315931616
 20
23.86030862845865
 30
0.0
 10
29.24653165446009
 20
23.79154933296425
 30
0.0
 10
30.17450589699348
 20
23.71766273628867
 30
0.0
 10
31.1017844564137
 20
23.63545167371122
 30
0.0
 10
32.11518273554623
 20
23.53298203396608
 30
0.0
 10
32.57748492110832
 20
23.47883217352025
 30
0.0
  0
SPLINE
  5
FF
330
1F
100
AcDbEntity
  8
Make2D$Visible$Curves
 62
    18
420
        0
370
    -3
100
AcDbSpline
210
0.0
220
0.0
230
1.0
 70
     8
 71
     2
 72
    15
 73
    12
 74
     0
 42
0.000000001
 43
0.0000000001
 40
20.35449839689478
 40
20.35449839689478
 40
20.35449839689478
 40
21.35449839689478
 40
22.35449839689478
 40
23.35449839689478
 40
24.35449839689478
 40
25.35449839689478
 40
26.35449839689478
 40
27.35449839689478
 40
28.35449839689478
 40
29.35449839689478
 40
30.35449839689478
 40
30.35449839689478
 40
30.35449839689478
 10
32.57748492110832
 20
23.47883217352025
 30
0.0
 10
32.89454368636353
 20
23.44169480227718
 30
0.0
 10
33.52796836640482
 20
23.36169894602342
 30
0.0
 10
34.16006639123728
 20
23.27161444836872
 30
0.0
 10
34.78855485325917
 20
23.15868539529409
 30
0.0
 10
35.40989492799298
 20
23.01032360368941
 30
0.0
 10
36.01072010830168
 20
22.79043423248862
 30
0.0
 10
36.5570030916675
 20
22.45356493198997
 30
0.0
 10
36.98720061003928
 20
21.97608091383063
 30
0.0
 10
37.27461011625613
 20
21.40282801913312
 30
0.0
 10
37.45372008799427
 20
20.78888255757012
 30
0.0
 10
37.50903354746069
 20
20.47344170014881
 30
0.0
  0
SPLINE
  5
100
330
1F
100
AcDbEntity
  8
Make2D$Visible$Curves
 62
    18
420
        0
370
    -3
100
AcDbSpline
210
0.0
220
0.0
230
1.0
 70
     8
 71
     2
 72
    12
 73
     9
 74
     0
 42
0.000000001
 43
0.0000000001
 40
30.35449839689478
 40
30.35449839689478
 40
30.35449839689478
 40
31.35449839689478
 40
32.35449839689478
 40
33.35449839689478
 40
34.35449839689478
 40
35.35449839689478
 40
36.35449839689478
 40
37.35449839689478
 40
37.35449839689478
 40
37.35449839689478
 10
37.50903354746069
 20
20.47344170014881
 30
0.0
 10
37.53953606245301
 20
20.30093345318832
 30
0.0
 10
37.60352433409696
 20
19.95802416678841
 30
0.0
 10
37.67159107756171
 20
19.61589840391133
 30
0.0
 10
37.744987057505
 20
19.2748738586499
 30
0.0
 10
37.82677695062176
 20
18.93572597406322
 30
0.0
 10
37.92252678739493
 20
18.6002954742477
 30
0.0
 10
38.04059996079357
 20
18.27140007428601
 30
0.0
 10
38.12691388370874
 20
18.11942343045752
 30
0.0
  0
SPLINE
  5
101
330
1F
100
AcDbEntity
  8
Make2D$Visible$Curves
 62
    18
420
        0
370
    -3
100
AcDbSpline
210
0.0
220
0.0
230
1.0
 70
     8
 71
     3
 72
     8
 73
     4
 74
     0
 42
0.000000001
 43
0.0000000001
 40
37.35449839689478
 40
37.35449839689478
 40
37.35449839689478
 40
37.35449839689478
 40
38.35449839689478
 40
38.35449839689478
 40
38.35449839689478
 40
38.35449839689478
 10
38.12691388370874
 20
18.11942343045752
 30
0.0
 10
38.19456050343686
 20
18.00031511182937
 30
0.0
 10
38.31287283430584
 20
17.79185474535082
 30
0.0
 10
38.38160389238683
 20
17.67337382258407
 30
0.0
  0
SPLINE
  5
102
330
1F
100
AcDbEntity
  8
Make2D$Visible$Curves
 62
    18
420
        0
370
    -3
100
AcDbSpline
210
0.0
220
0.0
230
1.0
 70
     8
 71
     3
 72
     9
 73
     5
 74
     0
 42
0.000000001
 43
0.0000000001
 40
38.35449839689478
 40
38.35449839689478
 40
38.35449839689478
 40
38.35449839689478
 40
39.35467420477084
 40
40.35449839689478
 40
40.35449839689478
 40
40.35449839689478
 40
40.35449839689478
 10
38.38160389238683
 20
17.67337382258407
 30
0.0
 10
38.41118011102179
 20
17.62238933647748
 30
0.0
 10
38.47288362333305
 20
17.52526060361139
 30
0.0
 10
38.55515881852969
 20
17.43776356428606
 30
0.0
 10
38.61241919455517
 20
17.42190981986552
 30
0.0
  0
SPLINE
  5
103
330
1F
100
AcDbEntity
  8
Make2D$Visible$Curves
 62
    18
420
        0
370
    -3
100
AcDbSpline
210
0.0
220
0.0
230
1.0
 70
     8
 71
     3
 72
     9
 73
     5
 74
     0
 42
0.000000001
 43
0.0000000001
 40
40.35449839689478
 40
40.35449839689478
 40
40.35449839689478
 40
40.35449839689478
 40
41.35365884756742
 40
42.35449839689478
 40
42.35449839689478
 40
42.35449839689478
 40
42.35449839689478
 10
38.61241919455517
 20
17.42190981986552
 30
0.0
 10
38.624901533442
 20
17.42077155316531
 30
0.0
 10
38.64893367732094
 20
17.40969773294289
 30
0.0
 10
38.66119877057935
 20
17.38624595634961
 30
0.0
 10
38.66295794588657
 20
17.37381436258416
 30
0.0
  0
SPLINE
  5
104
330
1F
100
AcDbEntity
  8
Make2D$Visible$Curves
 62
    18
420
        0
370
    -3
100
AcDbSpline
210
0.0
220
0.0
230
1.0
 70
     8
 71
     3
 72
     9
 73
     5
 74
     0
 42
0.000000001
 43
0.0000000001
 40
42.35449839689478
 40
42.35449839689478
 40
42.35449839689478
 40
42.35449839689478
 40
43.35449839689478
 40
44.35449839689478
 40
44.35449839689478
 40
44.35449839689478
 40
44.35449839689478
 10
38.66295794588657
 20
17.37381436258416
 30
0.0
 10
38.66959358794057
 20
17.3333397992636
 30
0.0
 10
38.67927317708669
 20
17.25138199285971
 30
0.0
 10
38.66900692733279
 20
17.16931335870017
 30
0.0
 10
38.66164028617587
 20
17.12899705073031
 30
0.0
  0
SPLINE
  5
105
330
1F
100
AcDbEntity
  8
Make2D$Visible$Curves
 62
    18
420
        0
370
    -3
100
AcDbSpline
210
0.0
220
0.0
230
1.0
 70
     8
 71
     3
 72
     9
 73
     5
 74
     0
 42
0.000000001
 43
0.0000000001
 40
44.35449839689478
 40
44.35449839689478
 40
44.35449839689478
 40
44.35449839689478
 40
45.35449839689478
 40
46.35449839689478
 40
46.35449839689478
 40
46.35449839689478
 40
46.35449839689478
 10
38.66164028617587
 20
17.12899705073031
 30
0.0
 10
38.64429388237073
 20
17.04046548514776
 30
0.0
 10
38.58604241388036
 20
16.86808858081415
 30
0.0
 10
38.45145227755967
 20
16.73226345465365
 30
0.0
 10
38.35954310798843
 20
16.7166715050308
 30
0.0
  0
SPLINE
  5
106
330
1F
100
AcDbEntity
  8
Make2D$Visible$Curves
 62
    18
420
        0
370
    -3
100
AcDbSpline
210
0.0
220
0.0
230
1.0
 70
     8
 71
     2
 72
     6
 73
     3
 74
     0
 42
0.000000001
 43
0.0000000001
 40
46.35449839689478
 40
46.35449839689478
 40
46.35449839689478
 40
47.31858109542884
 40
47.31858109542884
 40
47.31858109542884
 10
38.35954310798843
 20
16.7166715050308
 30
0.0
 10
38.13160963376973
 20
16.67973943154297
 30
0.0
 10
37.90424044668123
 20
16.63948336349534
 30
0.0
  0
SPLINE
  5
107
330
1F
100
AcDbEntity
  8
0
370
    -3
100
AcDbSpline
210
0.0
220
0.0
230
1.0
 70
     8
 71
     5
 72
    12
 73
     6
 74
     0
 42
0.000000001
 43
0.0000000001
 40
-37.79274481442121
 40
-37.79274481442121
 40
-37.79274481442121
 40
-37.79274481442121
 40
-37.79274481442121
 40
-37.79274481442121
 40
-37.78047231557853
 40
-37.78047231557853
 40
-37.78047231557853
 40
-37.78047231557853
 40
-37.78047231557853
 40
-37.78047231557853
 10
23.20681805362503
 20
24.49271941890666
 30
0.0
 10
23.20648766539401
 20
24.49500694948179
 30
0.0
 10
23.20615706803
 20
24.4972943547172
 30
0.0
 10
23.20582626135959
 20
24.49958163502681
 30
0.0
 10
23.20549524520936
 20
24.50186879082396
 30
0.0
 10
23.20516401940574
 20
24.50415582252137
 30
0.0
  0
SPLINE
  5
108
330
1F
100
AcDbEntity
  8
0
370
    -3
100
AcDbSpline
210
0.0
220
0.0
230
1.0
 70
     8
 71
     5
 72
    16
 73
    10
 74
     0
 42
0.000000001
 43
0.0000000001
 40
-37.78047231557853
 40
-37.78047231557853
 40
-37.78047231557853
 40
-37.78047231557853
 40
-37.78047231557853
 40
-37.78047231557853
 40
-37.19390305355908
 40
-34.79715286859543
 40
-33.60228520264785
 40
-32.40741751985176
 40
-30.096572061219
 40
-30.096572061219
 40
-30.096572061219
 40
-30.096572061219
 40
-30.096572061219
 40
-30.096572061219
 10
23.20516401940577
 20
24.50415582252135
 30
0.0
 10
23.18933294232255
 20
24.61346546778212
 30
0.0
 10
23.10637944921476
 20
25.16797771214551
 30
0.0
 10
22.97216434936612
 20
25.93594305070133
 30
0.0
 10
22.7606340064979
 20
26.92188086553485
 30
0.0
 10
22.33880397987073
 20
28.39810797246358
 30
0.0
 10
21.81328074474632
 20
29.74433698472291
 30
0.0
 10
21.41093749846581
 20
30.62143791539597
 30
0.0
 10
21.08948733619005
 20
31.25995177582755
 30
0.0
 10
20.870299961744
 20
31.67292671344804
 30
0.0
  0
SPLINE
  5
109
330
1F
100
AcDbEntity
  8
0
370
    -3
100
AcDbSpline
210
0.0
220
0.0
230
1.0
 70
     8
 71
     3
 72
     8
 73
     4
 74
     0
 42
0.000000001
 43
0.0000000001
 40
-30.096572061219
 40
-30.096572061219
 40
-30.096572061219
 40
-30.096572061219
 40
-29.096572061219
 40
-29.096572061219
 40
-29.096572061219
 40
-29.096572061219
 10
20.870299961744
 20
31.67292671344804
 30
0.0
 10
20.82182676634213
 20
31.7642559467031
 30
0.0
 10
20.88045126669087
 20
31.8119489391463
 30
0.0
 10
20.98840326982329
 20
31.81853138751413
 30
0.0
  0
SPLINE
  5
10A
330
1F
100
AcDbEntity
  8
0
370
    -3
100
AcDbSpline
210
0.0
220
0.0
230
1.0
 70
     8
 71
     3
 72
     9
 73
     5
 74
     0
 42
0.000000001
 43
0.0000000001
 40
-29.096572061219
 40
-29.096572061219
 40
-29.096572061219
 40
-29.096572061219
 40
-28.09657066896912
 40
-27.096572061219
 40
-27.096572061219
 40
-27.096572061219
 40
-27.096572061219
 10
20.98840326982329
 20
31.81853138751413
 30
0.0
 10
21.1147894457286
 20
31.82623787237003
 30
0.0
 10
21.36789741596198
 20
31.8350355740246
 30
0.0
 10
21.62108626251114
 20
31.83976567906791
 30
0.0
 10
21.74769828718536
 20
31.84100349868034
 30
0.0
  0
SPLINE
  5
10B
330
1F
100
AcDbEntity
  8
0
370
    -3
100
AcDbSpline
210
0.0
220
0.0
230
1.0
 70
     8
 71
     3
 72
    10
 73
     6
 74
     0
 42
0.000000001
 43
0.0000000001
 40
-27.096572061219
 40
-27.096572061219
 40
-27.096572061219
 40
-27.096572061219
 40
-26.09657377324559
 40
-25.09657291723229
 40
-24.096572061219
 40
-24.096572061219
 40
-24.096572061219
 40
-24.096572061219
 10
21.74769828718536
 20
31.84100349868034
 30
0.0
 10
21.88498457651505
 20
31.84129491627994
 30
0.0
 10
22.15263222150901
 20
31.76186269371928
 30
0.0
 10
22.48647281396865
 20
31.51663444257913
 30
0.0
 10
22.65712478996349
 20
31.30078265213507
 30
0.0
 10
22.73317660629286
 20
31.18747300787079
 30
0.0
  0
SPLINE
  5
10C
330
1F
100
AcDbEntity
  8
0
370
    -3
100
AcDbSpline
210
0.0
220
0.0
230
1.0
 70
     8
 71
     3
 72
    12
 73
     8
 74
     0
 42
0.000000001
 43
0.0000000001
 40
-24.096572061219
 40
-24.096572061219
 40
-24.096572061219
 40
-24.096572061219
 40
-23.096572061219
 40
-22.096572061219
 40
-21.096572061219
 40
-20.096572061219
 40
-19.36798764571856
 40
-19.36798764571856
 40
-19.36798764571856
 40
-19.36798764571856
 10
22.73317660629286
 20
31.18747300787079
 30
0.0
 10
23.02685510569833
 20
30.75012125505572
 30
0.0
 10
23.53406624213611
 20
29.82342398188507
 30
0.0
 10
24.09790318163681
 20
28.34474583914478
 30
0.0
 10
24.52379067669557
 20
26.82217345360749
 30
0.0
 10
24.82895942931083
 20
25.41762839322102
 30
0.0
 10
25.00398439929759
 20
24.5242793985544
 30
0.0
 10
25.07458944874585
 20
24.14710547441645
 30
0.0
  0
SPLINE
  5
10D
330
1F
100
AcDbEntity
  8
0
370
    -3
100
AcDbSpline
210
0.0
220
0.0
230
1.0
 70
     8
 71
     3
 72
    17
 73
    13
 74
     0
 42
0.000000001
 43
0.0000000001
 40
-18.56992794498782
 40
-18.56992794498782
 40
-18.56992794498782
 40
-18.56992794498782
 40
-18.096572061219
 40
-17.096572061219
 40
-16.096572061219
 40
-15.096572061219
 40
-14.096572061219
 40
-13.096572061219
 40
-12.096572061219
 40
-11.096572061219
 40
-10.096572061219
 40
-9.666593041362049
 40
-9.666593041362049
 40
-9.666593041362049
 40
-9.666593041362049
 10
25.29952345192572
 20
22.90626856222767
 30
0.0
 10
25.34473566632624
 20
22.66109850273918
 30
0.0
 10
25.49200290329165
 20
21.89933912687937
 30
0.0
 10
25.82346238192207
 20
20.63788113890791
 30
0.0
 10
26.63318131353523
 20
19.23692557030802
 30
0.0
 10
28.02635111111829
 20
18.4083000391707
 30
0.0
 10
29.58024417489722
 20
18.07793233320092
 30
0.0
 10
31.15790614872904
 20
17.96916623916846
 30
0.0
 10
32.73844748033935
 20
17.98523678391115
 30
0.0
 10
34.31747861141557
 20
18.03845451151832
 30
0.0
 10
35.59538916222027
 20
18.10899568174341
 30
0.0
 10
36.34685102395761
 20
18.15878899969674
 30
0.0
 10
36.57277272163577
 20
18.17426556901641
 30
0.0
  0
SPLINE
  5
10E
330
1F
100
AcDbEntity
  8
0
370
    -3
100
AcDbSpline
210
0.0
220
0.0
230
1.0
 70
     8
 71
     3
 72
     9
 73
     5
 74
     0
 42
0.000000001
 43
0.0000000001
 40
-8.732355162413233
 40
-8.732355162413233
 40
-8.732355162413233
 40
-8.732355162413233
 40
-8.096572061218996
 40
-7.096572061218996
 40
-7.096572061218996
 40
-7.096572061218996
 40
-7.096572061218996
 10
38.04506811533673
 20
18.27965521217162
 30
0.0
 10
38.37902966957066
 20
18.30385588406151
 30
0.0
 10
39.23834949718875
 20
18.36499504140329
 30
0.0
 10
40.09860616714516
 20
18.41363058710053
 30
0.0
 10
40.62520906784297
 20
18.4246274093403
 30
0.0
  0
SPLINE
  5
10F
330
1F
100
AcDbEntity
  8
0
370
    -3
100
AcDbSpline
210
0.0
220
0.0
230
1.0
 70
     8
 71
     3
 72
    14
 73
    10
 74
     0
 42
0.000000001
 43
0.0000000001
 40
-7.096572061218996
 40
-7.096572061218996
 40
-7.096572061218996
 40
-7.096572061218996
 40
-6.096474197351765
 40
-5.096376333484534
 40
-4.096278469617303
 40
-3.096180605750073
 40
-2.096082741882842
 40
-1.095984878015611
 40
-0.0965720612189963
 40
-0.0965720612189963
 40
-0.0965720612189963
 40
-0.0965720612189963
 10
40.62520906784297
 20
18.4246274093403
 30
0.0
 10
40.71684564561912
 20
18.4264743848185
 30
0.0
 10
40.90025405049082
 20
18.42615171485031
 30
0.0
 10
41.17477185521068
 20
18.4079585755084
 30
0.0
 10
41.44698658880156
 20
18.36515951559514
 30
0.0
 10
41.7107305798877
 20
18.28643753585641
 30
0.0
 10
41.95973999513015
 20
18.16247382233738
 30
0.0
 10
42.15106197061044
 20
17.96014222045025
 30
0.0
 10
42.22041861446908
 20
17.78725047904418
 30
0.0
 10
42.27298199849901
 20
17.7121592397729
 30
0.0
  0
SPLINE
  5
110
330
1F
100
AcDbEntity
  8
0
370
    -3
100
AcDbSpline
210
0.0
220
0.0
230
1.0
 70
    12
 71
     3
 72
     8
 73
     4
 74
     0
 42
0.000000001
 43
0.0000000001
 40
-0.0965720612189963
 40
-0.0965720612189963
 40
-0.0965720612189963
 40
-0.0965720612189963
 40
0.0
 40
0.0
 40
0.0
 40
0.0
 10
42.27298199849901
 20
17.7121592397729
 30
0.0
 41
1.047463827611573
 10
42.30308385001064
 20
17.69331958200207
 30
0.0
 41
0.955098980548187
 10
42.31586048956573
 20
17.66097083661005
 30
0.0
 41
0.9975409759113065
 10
42.30879142946813
 20
17.62771337466318
 30
0.0
 41
1.174789813700933
  0
LINE
  5
111
330
1F
100
AcDbEntity
  8
0
370
    -3
100
AcDbLine
 10
42.30879142946813
 20
17.62771337466317
 30
0.0
 11
42.29613392163537
 21
17.56836236375661
 31
0.0
  0
SPLINE
  5
112
330
1F
100
AcDbEntity
  8
0
370
    -3
100
AcDbSpline
210
0.0
220
0.0
230
1.0
 70
     8
 71
     3
 72
     9
 73
     5
 74
     0
 42
0.000000001
 43
0.0000000001
 40
0.0606857067205103
 40
0.0606857067205103
 40
0.0606857067205103
 40
0.0606857067205103
 40
1.06068570672051
 40
2.06068570672051
 40
2.06068570672051
 40
2.06068570672051
 40
2.06068570672051
 10
42.29613392163537
 20
17.56836236375661
 30
0.0
 10
42.29177536897231
 20
17.54788777643921
 30
0.0
 10
42.26582873418383
 20
17.51088820467534
 30
0.0
 10
42.22235532064184
 20
17.50326135307691
 30
0.0
 10
42.20181006130807
 20
17.50730967793183
 30
0.0
  0
SPLINE
  5
113
330
1F
100
AcDbEntity
  8
0
370
    -3
100
AcDbSpline
210
0.0
220
0.0
230
1.0
 70
     8
 71
     3
 72
    12
 73
     8
 74
     0
 42
0.000000001
 43
0.0000000001
 40
2.06068570672051
 40
2.06068570672051
 40
2.06068570672051
 40
2.06068570672051
 40
3.06068570672051
 40
4.060685706720511
 40
5.060685706720511
 40
6.060685706720511
 40
7.059326857812445
 40
7.059326857812445
 40
7.059326857812445
 40
7.059326857812445
 10
42.20181006130807
 20
17.50730967793183
 30
0.0
 10
41.96559698549646
 20
17.55385410213836
 30
0.0
 10
41.48717707513279
 20
17.61689015199822
 30
0.0
 10
40.76413313950391
 20
17.62547331018838
 30
0.0
 10
40.04269792616878
 20
17.58694942976733
 30
0.0
 10
39.32353734218822
 20
17.52183385879349
 30
0.0
 10
38.84645806791275
 20
17.45813377867434
 30
0.0
 10
38.60860539196415
 20
17.42301387930743
 30
0.0
  0
SPLINE
  5
114
330
1F
100
AcDbEntity
  8
0
370
    -3
100
AcDbSpline
210
0.0
220
0.0
230
1.0
 70
     8
 71
     3
 72
     8
 73
     4
 74
     0
 42
0.000000001
 43
0.0000000001
 40
7.059326857812445
 40
7.059326857812445
 40
7.059326857812445
 40
7.059326857812445
 40
7.060685706720511
 40
7.060685706720511
 40
7.060685706720511
 40
7.060685706720511
 10
38.60860539196415
 20
17.42301387930743
 30
0.0
 10
38.60828174632962
 20
17.42296609173442
 30
0.0
 10
38.60795810166675
 20
17.4229182980672
 30
0.0
 10
38.60763445797542
 20
17.4228704983102
 30
0.0
  0
SPLINE
  5
115
330
1F
100
AcDbEntity
  8
0
370
    -3
100
AcDbSpline
210
0.0
220
0.0
230
1.0
 70
     8
 71
     3
 72
    12
 73
     8
 74
     0
 42
0.000000001
 43
0.0000000001
 40
-10.0
 40
-10.0
 40
-10.0
 40
-10.0
 40
-9.0
 40
-8.0
 40
-7.0
 40
-6.0
 40
-5.0
 40
-5.0
 40
-5.0
 40
-5.0
 10
42.24547768094317
 20
17.75524802122219
 30
0.0
 10
42.2759315250641
 20
17.77610965712199
 30
0.0
 10
42.29418283850356
 20
17.84639060903538
 30
0.0
 10
42.30422906286009
 20
17.94992696989284
 30
0.0
 10
42.29266887370366
 20
18.05478181834921
 30
0.0
 10
42.26280820614073
 20
18.15537775926694
 30
0.0
 10
42.15876231637222
 20
18.32332106136028
 30
0.0
 10
42.14067236637783
 20
18.35314213591892
 30
0.0
  0
SPLINE
  5
116
330
1F
100
AcDbEntity
  8
0
370
    -3
100
AcDbSpline
210
0.0
220
0.0
230
1.0
 70
     8
 71
     3
 72
    12
 73
     8
 74
     0
 42
0.000000001
 43
0.0000000001
 40
-5.0
 40
-5.0
 40
-5.0
 40
-5.0
 40
-3.999999895167561
 40
-2.999999790335123
 40
-1.999999685502685
 40
-0.999999580670246
 40
0.0
 40
0.0
 40
0.0
 40
0.0
 10
42.14067236637783
 20
18.35314213591892
 30
0.0
 10
42.07977620340421
 20
18.45352876036702
 30
0.0
 10
41.84027909026554
 20
18.73170853143472
 30
0.0
 10
41.52205021573982
 20
18.89266719042051
 30
0.0
 10
41.17749218539612
 20
18.97306261138961
 30
0.0
 10
40.82636338374672
 20
19.00830081099969
 30
0.0
 10
40.59124378712667
 20
19.01184149781881
 30
0.0
 10
40.47376200503732
 20
19.01070498765138
 30
0.0
  0
SPLINE
  5
117
330
1F
100
AcDbEntity
  8
0
370
    -3
100
AcDbSpline
210
0.0
220
0.0
230
1.0
 70
     8
 71
     3
 72
     9
 73
     5
 74
     0
 42
0.000000001
 43
0.0000000001
 40
0.0
 40
0.0
 40
0.0
 40
0.0
 40
1.0
 40
1.130190443376099
 40
1.130190443376099
 40
1.130190443376099
 40
1.130190443376099
 10
40.47376200503732
 20
19.01070498765138
 30
0.0
 10
39.69744052002986
 20
19.00433891577393
 30
0.0
 10
38.82155345771397
 20
18.94956088564173
 30
0.0
 10
37.94731355686818
 20
18.87709790100007
 30
0.0
 10
37.84662587115764
 20
18.86854710238474
 30
0.0
  0
SPLINE
  5
118
330
1F
100
AcDbEntity
  8
0
370
    -3
100
AcDbSpline
210
0.0
220
0.0
230
1.0
 70
     8
 71
     3
 72
    11
 73
     7
 74
     0
 42
0.000000001
 43
0.0000000001
 40
1.656119473581988
 40
1.656119473581988
 40
1.656119473581988
 40
1.656119473581988
 40
2.0
 40
3.0
 40
4.0
 40
5.0
 40
5.0
 40
5.0
 40
5.0
 10
36.62712117124306
 20
18.7570064859149
 30
0.0
 10
36.36144747796777
 20
18.73141870044282
 30
0.0
 10
35.32339507339472
 20
18.62930077455952
 30
0.0
 10
33.51282970846285
 20
18.45201692234676
 30
0.0
 10
31.19272041487031
 20
18.2537658473357
 30
0.0
 10
29.63572849132484
 20
18.26405969294746
 30
0.0
 10
28.86718432108
 20
18.38239703448448
 30
0.0
  0
ARC
  5
119
330
1F
100
AcDbEntity
  8
0
370
    -3
100
AcDbCircle
 10
27.3253942691324
 20
8.369211502552531
 30
0.0
 40
10.13118951856968
100
AcDbArc
 50
81.24657139498426
 51
85.56110944028453
  0
ENDSEC
  0
SECTION
  2
OBJECTS
  0
DICTIONARY
  5
C
330
0
100
AcDbDictionary
281
     1
  3
ACAD_DETAILVIEWSTYLE
350
155
  3
ACAD_GROUP
350
D
  3
ACAD_LAYOUT
350
1A
  3
ACAD_MATERIAL
350
43
  3
ACAD_MLEADERSTYLE
350
6B
  3
ACAD_MLINESTYLE
350
17
  3
ACAD_PLOTSETTINGS
350
19
  3
ACAD_PLOTSTYLENAME
350
E
  3
ACAD_SCALELIST
350
47
  3
ACAD_SECTIONVIEWSTYLE
350
156
  3
ACAD_TABLESTYLE
350
69
  3
ACAD_VISUALSTYLE
350
2A
  3
ACDB_RECOMPOSE_DATA
350
152
  3
AcDbVariableDictionary
350
11A
  0
SUN
  5
6D
330
29
100
AcDbSun
 90
        1
290
     0
 63
     7
421
 16777215
 40
1.0
291
     1
 91
  2455826
 92
 54000000
292
     0
 70
     2
 71
   256
280
     1
  0
DICTIONARY
  5
155
102
{ACAD_REACTORS
330
C
102
}
330
C
100
AcDbDictionary
281
     1
  0
DICTIONARY
  5
D
102
{ACAD_REACTORS
330
C
102
}
330
C
100
AcDbDictionary
281
     1
  0
DICTIONARY
  5
1A
102
{ACAD_REACTORS
330
C
102
}
330
C
100
AcDbDictionary
281
     1
  3
Layout1
350
1E
  3
Layout2
350
26
  3
Model
350
22
  0
DICTIONARY
  5
43
102
{ACAD_REACTORS
330
C
102
}
330
C
100
AcDbDictionary
281
     1
  3
ByBlock
350
45
  3
ByLayer
350
44
  3
Global
350
46
  0
DICTIONARY
  5
6B
102
{ACAD_REACTORS
330
C
102
}
330
C
100
AcDbDictionary
281
     1
  3
Standard
350
6C
  0
DICTIONARY
  5
17
102
{ACAD_REACTORS
330
C
102
}
330
C
100
AcDbDictionary
281
     1
  3
Standard
350
18
  0
DICTIONARY
  5
19
102
{ACAD_REACTORS
330
C
102
}
330
C
100
AcDbDictionary
281
     1
  0
ACDBDICTIONARYWDFLT
  5
E
102
{ACAD_REACTORS
330
C
102
}
330
C
100
AcDbDictionary
281
     1
  3
Normal
350
F
100
AcDbDictionaryWithDefault
340
F
  0
DICTIONARY
  5
47
102
{ACAD_REACTORS
330
C
102
}
330
C
100
AcDbDictionary
281
     1
  3
A0
350
48
  3
A1
350
49
  3
A2
350
4A
  3
A3
350
4B
  3
A4
350
4C
  3
A5
350
4D
  3
A6
350
4E
  3
A7
350
4F
  3
A8
350
50
  3
A9
350
51
  3
B0
350
52
  3
B1
350
53
  3
B2
350
54
  3
B3
350
55
  3
B4
350
56
  3
B5
350
57
  3
B6
350
58
  3
B7
350
59
  3
B8
350
5A
  3
B9
350
5B
  3
C0
350
5C
  3
C1
350
5D
  3
C2
350
5E
  3
C3
350
5F
  3
C4
350
60
  3
C5
350
61
  3
C6
350
62
  3
C7
350
63
  3
C8
350
64
  3
C9
350
65
  3
D0
350
66
  3
D1
350
67
  3
D2
350
68
  0
DICTIONARY
  5
156
102
{ACAD_REACTORS
330
C
102
}
330
C
100
AcDbDictionary
281
     1
  0
DICTIONARY
  5
69
102
{ACAD_REACTORS
330
C
102
}
330
C
100
AcDbDictionary
281
     1
  3
Standard
350
6A
  0
DICTIONARY
  5
2A
102
{ACAD_REACTORS
330
C
102
}
330
C
100
AcDbDictionary
281
     1
  3
2dWireframe
350
2F
  3
Basic
350
32
  3
Brighten
350
36
  3
ColorChange
350
3A
  3
Conceptual
350
34
  3
Dim
350
35
  3
EdgeColorOff
350
3D
  3
Facepattern
350
39
  3
Flat
350
2B
  3
FlatWithEdges
350
2C
  3
Gouraud
350
2D
  3
GouraudWithEdges
350
2E
  3
Hidden
350
31
  3
JitterOff
350
3B
  3
Linepattern
350
38
  3
OverhangOff
350
3C
  3
Realistic
350
33
  3
Shaded
350
42
  3
Shaded with edges
350
41
  3
Shades of Gray
350
3E
  3
Sketchy
350
3F
  3
Thicken
350
37
  3
Wireframe
350
30
  3
X-Ray
350
40
  0
XRECORD
  5
152
102
{ACAD_REACTORS
330
C
102
}
330
C
100
AcDbXrecord
280
     1
 90
        1
330
6A
  0
DICTIONARY
  5
11A
102
{ACAD_REACTORS
330
C
102
}
330
C
100
AcDbDictionary
281
     1
  3
CANNOSCALE
350
11B
  3
CMLEADERSTYLE
350
154
  3
CTABLESTYLE
350
153
  3
XCLIPFRAME
350
11C
  0
LAYOUT
  5
1E
102
{ACAD_REACTORS
330
1A
102
}
330
1A
100
AcDbPlotSettings
  1

  2
none_device
  4

  6

 40
0.0
 41
0.0
 42
0.0
 43
0.0
 44
0.0
 45
0.0
 46
0.0
 47
0.0
 48
0.0
 49
0.0
140
0.0
141
0.0
142
1.0
143
1.0
 70
   688
 72
     0
 73
     0
 74
     5
  7

 75
    16
 76
     0
 77
     2
 78
   300
147
1.0
148
0.0
149
0.0
100
AcDbLayout
  1
Layout1
 70
     1
 71
     1
 10
0.0
 20
0.0
 11
12.0
 21
9.0
 12
0.0
 22
0.0
 32
0.0
 14
1.000000000000000E+20
 24
1.000000000000000E+20
 34
1.000000000000000E+20
 15
-1.000000000000000E+20
 25
-1.000000000000000E+20
 35
-1.000000000000000E+20
146
0.0
 13
0.0
 23
0.0
 33
0.0
 16
1.0
 26
0.0
 36
0.0
 17
0.0
 27
1.0
 37
0.0
 76
     0
330
1B
  0
LAYOUT
  5
26
102
{ACAD_REACTORS
330
1A
102
}
330
1A
100
AcDbPlotSettings
  1

  2
none_device
  4

  6

 40
0.0
 41
0.0
 42
0.0
 43
0.0
 44
0.0
 45
0.0
 46
0.0
 47
0.0
 48
0.0
 49
0.0
140
0.0
141
0.0
142
1.0
143
1.0
 70
   688
 72
     0
 73
     0
 74
     5
  7

 75
    16
 76
     0
 77
     2
 78
   300
147
1.0
148
0.0
149
0.0
100
AcDbLayout
  1
Layout2
 70
     1
 71
     2
 10
0.0
 20
0.0
 11
0.0
 21
0.0
 12
0.0
 22
0.0
 32
0.0
 14
0.0
 24
0.0
 34
0.0
 15
0.0
 25
0.0
 35
0.0
146
0.0
 13
0.0
 23
0.0
 33
0.0
 16
1.0
 26
0.0
 36
0.0
 17
0.0
 27
1.0
 37
0.0
 76
     0
330
23
  0
LAYOUT
  5
22
102
{ACAD_REACTORS
330
1A
102
}
330
1A
100
AcDbPlotSettings
  1

  2
none_device
  4
Letter_(8.50_x_11.00_Inches)
  6

 40
6.35
 41
6.35
 42
6.35000508
 43
6.35000508
 44
215.9
 45
279.4
 46
0.0
 47
0.0
 48
0.0
 49
0.0
140
0.0
141
0.0
142
1.0
143
1.0
 70
  1712
 72
     0
 73
     0
 74
     0
  7

 75
     0
 76
     0
 77
     2
 78
   300
147
1.0
148
0.0
149
0.0
100
AcDbLayout
  1
Model
 70
     1
 71
     0
 10
0.0
 20
0.0
 11
12.0
 21
9.0
 12
0.0
 22
0.0
 32
0.0
 14
1.000000000000000E+20
 24
1.000000000000000E+20
 34
1.000000000000000E+20
 15
-1.000000000000000E+20
 25
-1.000000000000000E+20
 35
-1.000000000000000E+20
146
0.0
 13
0.0
 23
0.0
 33
0.0
 16
1.0
 26
0.0
 36
0.0
 17
0.0
 27
1.0
 37
0.0
 76
     0
330
1F
331
29
  0
MATERIAL
  5
45
102
{ACAD_REACTORS
330
43
102
}
330
43
100
AcDbMaterial
  1
ByBlock
 72
     1
 94
      127
  0
MATERIAL
  5
44
102
{ACAD_REACTORS
330
43
102
}
330
43
100
AcDbMaterial
  1
ByLayer
 72
     1
 94
      127
  0
MATERIAL
  5
46
102
{ACAD_REACTORS
330
43
102
}
330
43
100
AcDbMaterial
  1
Global
 72
     1
 94
      127
  0
MLEADERSTYLE
  5
6C
102
{ACAD_REACTORS
330
6B
102
}
102
{ACAD_XDICTIONARY
360
150
102
}
330
6B
100
AcDbMLeaderStyle
170
     2
171
     1
172
     0
 90
        2
 40
0.0
 41
0.0
173
     1
 91
-1056964608
340
14
 92
       -2
290
     1
 42
0.09
291
     1
 43
0.36
  3
Standard
341
0
 44
0.18
300

342
11
174
     1
178
     6
175
     1
176
     0
 93
-1056964608
 45
0.18
292
     0
297
     0
 46
0.18
343
0
 94
-1056964608
 47
1.0
 49
1.0
140
1.0
293
     1
141
0.0
294
     1
177
     0
142
1.0
295
     0
296
     0
143
0.125
1001
ACAD_MLEADERVER
1070
     2
  0
MLINESTYLE
  5
18
102
{ACAD_REACTORS
330
17
102
}
330
17
100
AcDbMlineStyle
  2
Standard
 70
     0
  3

 62
   256
 51
90.0
 52
90.0
 71
     2
 49
0.5
 62
   256
  6
BYLAYER
 49
-0.5
 62
   256
  6
BYLAYER
  0
ACDBPLACEHOLDER
  5
F
102
{ACAD_REACTORS
330
E
102
}
330
E
  0
SCALE
  5
48
102
{ACAD_REACTORS
330
47
102
}
330
47
100
AcDbScale
 70
     0
300
1:1
140
1.0
141
1.0
290
     1
  0
SCALE
  5
49
102
{ACAD_REACTORS
330
47
102
}
330
47
100
AcDbScale
 70
     0
300
1:2
140
1.0
141
2.0
290
     0
  0
SCALE
  5
4A
102
{ACAD_REACTORS
330
47
102
}
330
47
100
AcDbScale
 70
     0
300
1:4
140
1.0
141
4.0
290
     0
  0
SCALE
  5
4B
102
{ACAD_REACTORS
330
47
102
}
330
47
100
AcDbScale
 70
     0
300
1:5
140
1.0
141
5.0
290
     0
  0
SCALE
  5
4C
102
{ACAD_REACTORS
330
47
102
}
330
47
100
AcDbScale
 70
     0
300
1:8
140
1.0
141
8.0
290
     0
  0
SCALE
  5
4D
102
{ACAD_REACTORS
330
47
102
}
330
47
100
AcDbScale
 70
     0
300
1:10
140
1.0
141
10.0
290
     0
  0
SCALE
  5
4E
102
{ACAD_REACTORS
330
47
102
}
330
47
100
AcDbScale
 70
     0
300
1:16
140
1.0
141
16.0
290
     0
  0
SCALE
  5
4F
102
{ACAD_REACTORS
330
47
102
}
330
47
100
AcDbScale
 70
     0
300
1:20
140
1.0
141
20.0
290
     0
  0
SCALE
  5
50
102
{ACAD_REACTORS
330
47
102
}
330
47
100
AcDbScale
 70
     0
300
1:30
140
1.0
141
30.0
290
     0
  0
SCALE
  5
51
102
{ACAD_REACTORS
330
47
102
}
330
47
100
AcDbScale
 70
     0
300
1:40
140
1.0
141
40.0
290
     0
  0
SCALE
  5
52
102
{ACAD_REACTORS
330
47
102
}
330
47
100
AcDbScale
 70
     0
300
1:50
140
1.0
141
50.0
290
     0
  0
SCALE
  5
53
102
{ACAD_REACTORS
330
47
102
}
330
47
100
AcDbScale
 70
     0
300
1:100
140
1.0
141
100.0
290
     0
  0
SCALE
  5
54
102
{ACAD_REACTORS
330
47
102
}
330
47
100
AcDbScale
 70
     0
300
2:1
140
2.0
141
1.0
290
     0
  0
SCALE
  5
55
102
{ACAD_REACTORS
330
47
102
}
330
47
100
AcDbScale
 70
     0
300
4:1
140
4.0
141
1.0
290
     0
  0
SCALE
  5
56
102
{ACAD_REACTORS
330
47
102
}
330
47
100
AcDbScale
 70
     0
300
8:1
140
8.0
141
1.0
290
     0
  0
SCALE
  5
57
102
{ACAD_REACTORS
330
47
102
}
330
47
100
AcDbScale
 70
     0
300
10:1
140
10.0
141
1.0
290
     0
  0
SCALE
  5
58
102
{ACAD_REACTORS
330
47
102
}
330
47
100
AcDbScale
 70
     0
300
100:1
140
100.0
141
1.0
290
     0
  0
SCALE
  5
59
102
{ACAD_REACTORS
330
47
102
}
330
47
100
AcDbScale
 70
     0
300
1/128" = 1'-0"
140
0.0078125
141
12.0
290
     0
  0
SCALE
  5
5A
102
{ACAD_REACTORS
330
47
102
}
330
47
100
AcDbScale
 70
     0
300
1/64" = 1'-0"
140
0.015625
141
12.0
290
     0
  0
SCALE
  5
5B
102
{ACAD_REACTORS
330
47
102
}
330
47
100
AcDbScale
 70
     0
300
1/32" = 1'-0"
140
0.03125
141
12.0
290
     0
  0
SCALE
  5
5C
102
{ACAD_REACTORS
330
47
102
}
330
47
100
AcDbScale
 70
     0
300
1/16" = 1'-0"
140
0.0625
141
12.0
290
     0
  0
SCALE
  5
5D
102
{ACAD_REACTORS
330
47
102
}
330
47
100
AcDbScale
 70
     0
300
3/32" = 1'-0"
140
0.09375
141
12.0
290
     0
  0
SCALE
  5
5E
102
{ACAD_REACTORS
330
47
102
}
330
47
100
AcDbScale
 70
     0
300
1/8" = 1'-0"
140
0.125
141
12.0
290
     0
  0
SCALE
  5
5F
102
{ACAD_REACTORS
330
47
102
}
330
47
100
AcDbScale
 70
     0
300
3/16" = 1'-0"
140
0.1875
141
12.0
290
     0
  0
SCALE
  5
60
102
{ACAD_REACTORS
330
47
102
}
330
47
100
AcDbScale
 70
     0
300
1/4" = 1'-0"
140
0.25
141
12.0
290
     0
  0
SCALE
  5
61
102
{ACAD_REACTORS
330
47
102
}
330
47
100
AcDbScale
 70
     0
300
3/8" = 1'-0"
140
0.375
141
12.0
290
     0
  0
SCALE
  5
62
102
{ACAD_REACTORS
330
47
102
}
330
47
100
AcDbScale
 70
     0
300
1/2" = 1'-0"
140
0.5
141
12.0
290
     0
  0
SCALE
  5
63
102
{ACAD_REACTORS
330
47
102
}
330
47
100
AcDbScale
 70
     0
300
3/4" = 1'-0"
140
0.75
141
12.0
290
     0
  0
SCALE
  5
64
102
{ACAD_REACTORS
330
47
102
}
330
47
100
AcDbScale
 70
     0
300
1" = 1'-0"
140
1.0
141
12.0
290
     0
  0
SCALE
  5
65
102
{ACAD_REACTORS
330
47
102
}
330
47
100
AcDbScale
 70
     0
300
1-1/2" = 1'-0"
140
1.5
141
12.0
290
     0
  0
SCALE
  5
66
102
{ACAD_REACTORS
330
47
102
}
330
47
100
AcDbScale
 70
     0
300
3" = 1'-0"
140
3.0
141
12.0
290
     0
  0
SCALE
  5
67
102
{ACAD_REACTORS
330
47
102
}
330
47
100
AcDbScale
 70
     0
300
6" = 1'-0"
140
6.0
141
12.0
290
     0
  0
SCALE
  5
68
102
{ACAD_REACTORS
330
47
102
}
330
47
100
AcDbScale
 70
     0
300
1'-0" = 1'-0"
140
12.0
141
12.0
290
     0
  0
TABLESTYLE
  5
6A
102
{ACAD_REACTORS
330
69
102
}
102
{ACAD_XDICTIONARY
360
14D
102
}
330
69
100
AcDbTableStyle
  3
Standard
 70
     0
 71
     0
 40
0.06
 41
0.06
280
     0
281
     0
  7
Standard
140
0.18
170
     2
 62
     0
 63
   257
283
     0
 90
        4
 91
        0
  1

274
    -2
284
     1
 64
     0
275
    -2
285
     1
 65
     0
276
    -2
286
     1
 66
     0
277
    -2
287
     1
 67
     0
278
    -2
288
     1
 68
     0
279
    -2
289
     1
 69
     0
  7
Standard
140
0.25
170
     5
 62
     0
 63
   257
283
     0
 90
        4
 91
        0
  1

274
    -2
284
     1
 64
     0
275
    -2
285
     1
 65
     0
276
    -2
286
     1
 66
     0
277
    -2
287
     1
 67
     0
278
    -2
288
     1
 68
     0
279
    -2
289
     1
 69
     0
  7
Standard
140
0.18
170
     5
 62
     0
 63
   257
283
     0
 90
        4
 91
        0
  1

274
    -2
284
     1
 64
     0
275
    -2
285
     1
 65
     0
276
    -2
286
     1
 66
     0
277
    -2
287
     1
 67
     0
278
    -2
288
     1
 68
     0
279
    -2
289
     1
 69
     0
  0
VISUALSTYLE
  5
2F
102
{ACAD_REACTORS
330
2A
102
}
102
{ACAD_XDICTIONARY
360
125
102
}
330
2A
100
AcDbVisualStyle
  2
2dWireframe
 70
     4
 71
     0
 72
     2
 73
     0
 90
        0
 40
0.6
 41
30.0
 62
     5
 63
     7
421
 16777215
 74
     1
 91
        4
 64
     7
 65
   257
 75
     1
175
     1
 42
1.0
 92
        0
 66
   257
 43
1.0
 76
     1
 77
     6
 78
     2
 67
     7
 79
     5
170
     0
171
     0
290
     0
174
     0
 93
        1
 44
0.0
173
     0
291
     0
 45
0.0
  0
VISUALSTYLE
  5
32
102
{ACAD_REACTORS
330
2A
102
}
102
{ACAD_XDICTIONARY
360
12B
102
}
330
2A
100
AcDbVisualStyle
  2
Basic
 70
     7
 71
     1
 72
     0
 73
     1
 90
        0
 40
0.6
 41
30.0
 62
     5
 63
     7
421
 16777215
 74
     0
 91
        4
 64
     7
 65
   257
 75
     1
175
     1
 42
1.0
 92
        8
 66
     7
 43
1.0
 76
     1
 77
     6
 78
     2
 67
     7
 79
     5
170
     0
171
     0
290
     0
174
     0
 93
        1
 44
0.0
173
     0
291
     1
 45
0.0
  0
VISUALSTYLE
  5
36
102
{ACAD_REACTORS
330
2A
102
}
102
{ACAD_XDICTIONARY
360
133
102
}
330
2A
100
AcDbVisualStyle
  2
Brighten
 70
    12
 71
     2
 72
     2
 73
     0
 90
        0
 40
0.6
 41
30.0
 62
     5
 63
     7
421
 16777215
 74
     1
 91
        4
 64
     7
 65
   257
 75
     1
175
     1
 42
1.0
 92
        8
 66
     7
 43
1.0
 76
     1
 77
     6
 78
     2
 67
     7
 79
     5
170
     0
171
     0
290
     0
174
     0
 93
        1
 44
50.0
173
     0
291
     1
 45
0.0
  0
VISUALSTYLE
  5
3A
102
{ACAD_REACTORS
330
2A
102
}
102
{ACAD_XDICTIONARY
360
13B
102
}
330
2A
100
AcDbVisualStyle
  2
ColorChange
 70
    16
 71
     2
 72
     2
 73
     3
 90
        0
 40
0.6
 41
30.0
 62
     5
 63
     8
421
  8421504
 74
     1
 91
        4
 64
     7
 65
   257
 75
     1
175
     1
 42
1.0
 92
        8
 66
     8
424
  8421504
 43
1.0
 76
     1
 77
     6
 78
     2
 67
     7
 79
     5
170
     0
171
     0
290
     0
174
     0
 93
        1
 44
0.0
173
     0
291
     1
 45
0.0
  0
VISUALSTYLE
  5
34
102
{ACAD_REACTORS
330
2A
102
}
102
{ACAD_XDICTIONARY
360
12F
102
}
330
2A
100
AcDbVisualStyle
  2
Conceptual
 70
     9
 71
     3
 72
     2
 73
     0
 90
        0
 40
0.6
 41
30.0
 62
     5
 63
     7
421
 16777215
 74
     2
 91
        2
 64
     7
 65
   257
 75
     1
175
     1
 42
179.0
 92
        8
 66
     7
 43
1.0
 76
     1
 77
     6
 78
     2
 67
     7
 79
     3
170
     0
171
     0
290
     0
174
     0
 93
        1
 44
0.0
173
     0
291
     0
 45
0.0
  0
VISUALSTYLE
  5
35
102
{ACAD_REACTORS
330
2A
102
}
102
{ACAD_XDICTIONARY
360
131
102
}
330
2A
100
AcDbVisualStyle
  2
Dim
 70
    11
 71
     2
 72
     2
 73
     0
 90
        0
 40
0.6
 41
30.0
 62
     5
 63
     7
421
 16777215
 74
     1
 91
        4
 64
     7
 65
   257
 75
     1
175
     1
 42
1.0
 92
        8
 66
     7
 43
1.0
 76
     1
 77
     6
 78
     2
 67
     7
 79
     5
170
     0
171
     0
290
     0
174
     0
 93
        1
 44
-50.0
173
     0
291
     1
 45
0.0
  0
VISUALSTYLE
  5
3D
102
{ACAD_REACTORS
330
2A
102
}
102
{ACAD_XDICTIONARY
360
141
102
}
330
2A
100
AcDbVisualStyle
  2
EdgeColorOff
 70
    22
 71
     2
 72
     2
 73
     0
 90
        0
 40
0.6
 41
30.0
 62
     5
 63
     7
421
 16777215
 74
     1
 91
        4
 64
     7
 65
   257
 75
     1
175
     1
 42
1.0
 92
        8
 66
     7
 43
1.0
 76
     1
 77
     6
 78
     2
 67
     7
 79
     5
170
     0
171
     0
290
     0
174
     0
 93
        1
 44
0.0
173
     0
291
     1
 45
0.0
  0
VISUALSTYLE
  5
39
102
{ACAD_REACTORS
330
2A
102
}
102
{ACAD_XDICTIONARY
360
139
102
}
330
2A
100
AcDbVisualStyle
  2
Facepattern
 70
    15
 71
     2
 72
     2
 73
     0
 90
        0
 40
0.6
 41
30.0
 62
     5
 63
     7
421
 16777215
 74
     1
 91
        4
 64
     7
 65
   257
 75
     1
175
     1
 42
1.0
 92
        8
 66
     7
 43
1.0
 76
     1
 77
     6
 78
     2
 67
     7
 79
     5
170
     0
171
     0
290
     0
174
     0
 93
        1
 44
0.0
173
     0
291
     1
 45
0.0
  0
VISUALSTYLE
  5
2B
102
{ACAD_REACTORS
330
2A
102
}
102
{ACAD_XDICTIONARY
360
11D
102
}
330
2A
100
AcDbVisualStyle
  2
Flat
 70
     0
 71
     2
 72
     1
 73
     1
 90
        2
 40
0.6
 41
30.0
 62
     5
 63
     7
421
 16777215
 74
     0
 91
        0
 64
     7
 65
   257
 75
     1
175
     1
 42
1.0
 92
        8
 66
     7
 43
1.0
 76
     1
 77
     6
 78
     2
 67
     7
 79
     5
170
     0
171
     0
290
     0
174
     0
 93
       13
 44
0.0
173
     0
291
     1
 45
0.0
  0
VISUALSTYLE
  5
2C
102
{ACAD_REACTORS
330
2A
102
}
102
{ACAD_XDICTIONARY
360
11F
102
}
330
2A
100
AcDbVisualStyle
  2
FlatWithEdges
 70
     1
 71
     2
 72
     1
 73
     1
 90
        2
 40
0.6
 41
30.0
 62
     5
 63
     7
421
 16777215
 74
     1
 91
        0
 64
     7
 65
   257
 75
     1
175
     1
 42
1.0
 92
        0
 66
   257
 43
1.0
 76
     1
 77
     6
 78
     2
 67
     7
 79
     5
170
     0
171
     0
290
     0
174
     0
 93
       13
 44
0.0
173
     0
291
     1
 45
0.0
  0
VISUALSTYLE
  5
2D
102
{ACAD_REACTORS
330
2A
102
}
102
{ACAD_XDICTIONARY
360
121
102
}
330
2A
100
AcDbVisualStyle
  2
Gouraud
 70
     2
 71
     2
 72
     2
 73
     1
 90
        2
 40
0.6
 41
30.0
 62
     5
 63
     7
421
 16777215
 74
     0
 91
        0
 64
     7
 65
   257
 75
     1
175
     1
 42
1.0
 92
        0
 66
     7
 43
1.0
 76
     1
 77
     6
 78
     2
 67
     7
 79
     5
170
     0
171
     0
290
     0
174
     0
 93
       13
 44
0.0
173
     0
291
     1
 45
0.0
  0
VISUALSTYLE
  5
2E
102
{ACAD_REACTORS
330
2A
102
}
102
{ACAD_XDICTIONARY
360
123
102
}
330
2A
100
AcDbVisualStyle
  2
GouraudWithEdges
 70
     3
 71
     2
 72
     2
 73
     1
 90
        2
 40
0.6
 41
30.0
 62
     5
 63
     7
421
 16777215
 74
     1
 91
        0
 64
     7
 65
   257
 75
     1
175
     1
 42
1.0
 92
        0
 66
   257
 43
1.0
 76
     1
 77
     6
 78
     2
 67
     7
 79
     5
170
     0
171
     0
290
     0
174
     0
 93
       13
 44
0.0
173
     0
291
     1
 45
0.0
  0
VISUALSTYLE
  5
31
102
{ACAD_REACTORS
330
2A
102
}
102
{ACAD_XDICTIONARY
360
129
102
}
330
2A
100
AcDbVisualStyle
  2
Hidden
 70
     6
 71
     1
 72
     2
 73
     2
 90
        0
 40
0.6
 41
30.0
 62
     5
 63
     7
421
 16777215
 74
     2
 91
        2
 64
     7
 65
   257
 75
     2
175
     1
 42
40.0
 92
        0
 66
   257
 43
1.0
 76
     1
 77
     6
 78
     2
 67
     7
 79
     3
170
     0
171
     0
290
     0
174
     0
 93
        1
 44
0.0
173
     0
291
     0
 45
0.0
  0
VISUALSTYLE
  5
3B
102
{ACAD_REACTORS
330
2A
102
}
102
{ACAD_XDICTIONARY
360
13D
102
}
330
2A
100
AcDbVisualStyle
  2
JitterOff
 70
    20
 71
     2
 72
     2
 73
     0
 90
        0
 40
0.6
 41
30.0
 62
     5
 63
     7
421
 16777215
 74
     1
 91
        4
 64
     7
 65
   257
 75
     1
175
     1
 42
1.0
 92
       10
 66
     7
 43
1.0
 76
     1
 77
     6
 78
     2
 67
     7
 79
     5
170
     0
171
     0
290
     0
174
     0
 93
        1
 44
0.0
173
     0
291
     1
 45
0.0
  0
VISUALSTYLE
  5
38
102
{ACAD_REACTORS
330
2A
102
}
102
{ACAD_XDICTIONARY
360
137
102
}
330
2A
100
AcDbVisualStyle
  2
Linepattern
 70
    14
 71
     2
 72
     2
 73
     0
 90
        0
 40
0.6
 41
30.0
 62
     5
 63
     7
421
 16777215
 74
     1
 91
        4
 64
     7
 65
   257
 75
     7
175
     7
 42
1.0
 92
        8
 66
     7
 43
1.0
 76
     1
 77
     6
 78
     2
 67
     7
 79
     5
170
     0
171
     0
290
     0
174
     0
 93
        1
 44
0.0
173
     0
291
     1
 45
0.0
  0
VISUALSTYLE
  5
3C
102
{ACAD_REACTORS
330
2A
102
}
102
{ACAD_XDICTIONARY
360
13F
102
}
330
2A
100
AcDbVisualStyle
  2
OverhangOff
 70
    21
 71
     2
 72
     2
 73
     0
 90
        0
 40
0.6
 41
30.0
 62
     5
 63
     7
421
 16777215
 74
     1
 91
        4
 64
     7
 65
   257
 75
     1
175
     1
 42
1.0
 92
        9
 66
     7
 43
1.0
 76
     1
 77
     6
 78
     2
 67
     7
 79
     5
170
     0
171
     0
290
     0
174
     0
 93
        1
 44
0.0
173
     0
291
     1
 45
0.0
  0
VISUALSTYLE
  5
33
102
{ACAD_REACTORS
330
2A
102
}
102
{ACAD_XDICTIONARY
360
12D
102
}
330
2A
100
AcDbVisualStyle
  2
Realistic
 70
     8
 71
     2
 72
     3
 73
     0
 90
        2
 40
0.6
 41
30.0
 62
     5
 63
     7
421
 16777215
 74
     0
 91
        0
 64
     7
 65
   257
 75
     1
175
     1
 42
1.0
 92
        8
 66
   257
 43
1.0
 76
     1
 77
     6
 78
     2
 67
     7
 79
     3
170
     0
171
     0
290
     0
174
     0
 93
       13
 44
0.0
173
     0
291
     0
 45
0.0
  0
VISUALSTYLE
  5
42
102
{ACAD_REACTORS
330
2A
102
}
102
{ACAD_XDICTIONARY
360
14B
102
}
330
2A
100
AcDbVisualStyle
  2
Shaded
 70
    27
 71
     2
 72
     2
 73
     1
 90
        2
 40
0.6
 41
30.0
 62
     5
 63
     7
421
 16777215
 74
     0
 91
        4
 64
     7
 65
   257
 75
     1
175
     1
 42
1.0
 92
        8
 66
   257
 43
1.0
 76
     1
 77
     6
 78
     2
 67
     8
425
  7895160
 79
     3
170
     0
171
     0
290
     0
174
     0
 93
        5
 44
0.0
173
     0
291
     0
 45
0.0
  0
VISUALSTYLE
  5
41
102
{ACAD_REACTORS
330
2A
102
}
102
{ACAD_XDICTIONARY
360
149
102
}
330
2A
100
AcDbVisualStyle
  2
Shaded with edges
 70
    26
 71
     2
 72
     2
 73
     1
 90
        2
 40
0.6
 41
30.0
 62
     5
 63
     7
421
 16777215
 74
     1
 91
       10
 64
     7
 65
   257
 75
     2
175
     1
 42
1.0
 92
        8
 66
   257
 43
1.0
 76
     1
 77
     6
 78
     2
 67
     7
 79
     3
170
     0
171
     0
290
     0
174
     0
 93
        5
 44
0.0
173
     0
291
     0
 45
0.0
  0
VISUALSTYLE
  5
3E
102
{ACAD_REACTORS
330
2A
102
}
102
{ACAD_XDICTIONARY
360
143
102
}
330
2A
100
AcDbVisualStyle
  2
Shades of Gray
 70
    23
 71
     2
 72
     2
 73
     3
 90
        0
 40
0.6
 41
30.0
 62
     5
 63
     7
421
 16777215
 74
     2
 91
        2
 64
     7
 65
     7
 75
     1
175
     1
 42
40.0
 92
        8
 66
     7
 43
1.0
 76
     1
 77
     6
 78
     2
 67
     7
 79
     3
170
     0
171
     0
290
     0
174
     0
 93
        1
 44
0.0
173
     0
291
     0
 45
0.0
  0
VISUALSTYLE
  5
3F
102
{ACAD_REACTORS
330
2A
102
}
102
{ACAD_XDICTIONARY
360
145
102
}
330
2A
100
AcDbVisualStyle
  2
Sketchy
 70
    24
 71
     1
 72
     2
 73
     2
 90
        0
 40
0.6
 41
30.0
 62
     5
 63
     7
421
 16777215
 74
     2
 91
        2
 64
     7
 65
     7
 75
     1
175
     1
 42
40.0
 92
       11
 66
     7
 43
1.0
 76
     1
 77
     6
 78
     2
 67
     7
 79
     6
170
     0
171
     0
290
     0
174
     0
 93
        1
 44
0.0
173
     0
291
     0
 45
0.0
  0
VISUALSTYLE
  5
37
102
{ACAD_REACTORS
330
2A
102
}
102
{ACAD_XDICTIONARY
360
135
102
}
330
2A
100
AcDbVisualStyle
  2
Thicken
 70
    13
 71
     2
 72
     2
 73
     0
 90
        0
 40
0.6
 41
30.0
 62
     5
 63
     7
421
 16777215
 74
     1
 91
        4
 64
     7
 65
   257
 75
     1
175
     1
 42
1.0
 92
       12
 66
     7
 43
1.0
 76
     1
 77
     6
 78
     2
 67
     7
 79
     5
170
     0
171
     0
290
     0
174
     0
 93
        1
 44
0.0
173
     0
291
     1
 45
0.0
  0
VISUALSTYLE
  5
30
102
{ACAD_REACTORS
330
2A
102
}
102
{ACAD_XDICTIONARY
360
127
102
}
330
2A
100
AcDbVisualStyle
  2
Wireframe
 70
     5
 71
     0
 72
     2
 73
     0
 90
        0
 40
0.6
 41
30.0
 62
     5
 63
     7
421
 16777215
 74
     1
 91
        4
 64
     7
 65
   257
 75
     1
175
     1
 42
1.0
 92
        0
 66
   257
 43
1.0
 76
     1
 77
     6
 78
     2
 67
     7
 79
     3
170
     0
171
     0
290
     0
174
     0
 93
        1
 44
0.0
173
     0
291
     0
 45
0.0
  0
VISUALSTYLE
  5
40
102
{ACAD_REACTORS
330
2A
102
}
102
{ACAD_XDICTIONARY
360
147
102
}
330
2A
100
AcDbVisualStyle
  2
X-Ray
 70
    25
 71
     2
 72
     2
 73
     1
 90
        1
 40
0.5
 41
30.0
 62
     5
 63
     7
421
 16777215
 74
     1
 91
        0
 64
     7
 65
   257
 75
     1
175
     1
 42
1.0
 92
        8
 66
     7
 43
1.0
 76
     1
 77
     6
 78
     2
 67
     7
 79
     3
170
     0
171
     0
290
     0
174
     0
 93
       13
 44
0.0
173
     0
291
     0
 45
0.0
  0
DICTIONARYVAR
  5
11B
102
{ACAD_REACTORS
330
11A
102
}
330
11A
100
DictionaryVariables
280
     0
  1
1:1
  0
DICTIONARYVAR
  5
154
102
{ACAD_REACTORS
330
11A
102
}
330
11A
100
DictionaryVariables
280
     0
  1
Standard
  0
DICTIONARYVAR
  5
153
102
{ACAD_REACTORS
330
11A
102
}
330
11A
100
DictionaryVariables
280
     0
  1
Standard
  0
DICTIONARYVAR
  5
11C
102
{ACAD_REACTORS
330
11A
102
}
330
11A
100
DictionaryVariables
280
     0
  1
2
  0
DICTIONARY
  5
150
330
6C
100
AcDbDictionary
280
     1
281
     1
  3
ACAD_XREC_ROUNDTRIP
360
151
  0
DICTIONARY
  5
14D
330
6A
100
AcDbDictionary
280
     1
281
     1
  3
ACAD_ROUNDTRIP_2008_TABLESTYLE_CELLSTYLEMAP
360
14E
  0
DICTIONARY
  5
125
330
2F
100
AcDbDictionary
280
     1
281
     1
  3
ACAD_XREC_ROUNDTRIP
360
126
  0
DICTIONARY
  5
12B
330
32
100
AcDbDictionary
280
     1
281
     1
  3
ACAD_XREC_ROUNDTRIP
360
12C
  0
DICTIONARY
  5
133
330
36
100
AcDbDictionary
280
     1
281
     1
  3
ACAD_XREC_ROUNDTRIP
360
134
  0
DICTIONARY
  5
13B
330
3A
100
AcDbDictionary
280
     1
281
     1
  3
ACAD_XREC_ROUNDTRIP
360
13C
  0
DICTIONARY
  5
12F
330
34
100
AcDbDictionary
280
     1
281
     1
  3
ACAD_XREC_ROUNDTRIP
360
130
  0
DICTIONARY
  5
131
330
35
100
AcDbDictionary
280
     1
281
     1
  3
ACAD_XREC_ROUNDTRIP
360
132
  0
DICTIONARY
  5
141
330
3D
100
AcDbDictionary
280
     1
281
     1
  3
ACAD_XREC_ROUNDTRIP
360
142
  0
DICTIONARY
  5
139
330
39
100
AcDbDictionary
280
     1
281
     1
  3
ACAD_XREC_ROUNDTRIP
360
13A
  0
DICTIONARY
  5
11D
330
2B
100
AcDbDictionary
280
     1
281
     1
  3
ACAD_XREC_ROUNDTRIP
360
11E
  0
DICTIONARY
  5
11F
330
2C
100
AcDbDictionary
280
     1
281
     1
  3
ACAD_XREC_ROUNDTRIP
360
120
  0
DICTIONARY
  5
121
330
2D
100
AcDbDictionary
280
     1
281
     1
  3
ACAD_XREC_ROUNDTRIP
360
122
  0
DICTIONARY
  5
123
330
2E
100
AcDbDictionary
280
     1
281
     1
  3
ACAD_XREC_ROUNDTRIP
360
124
  0
DICTIONARY
  5
129
330
31
100
AcDbDictionary
280
     1
281
     1
  3
ACAD_XREC_ROUNDTRIP
360
12A
  0
DICTIONARY
  5
13D
330
3B
100
AcDbDictionary
280
     1
281
     1
  3
ACAD_XREC_ROUNDTRIP
360
13E
  0
DICTIONARY
  5
137
330
38
100
AcDbDictionary
280
     1
281
     1
  3
ACAD_XREC_ROUNDTRIP
360
138
  0
DICTIONARY
  5
13F
330
3C
100
AcDbDictionary
280
     1
281
     1
  3
ACAD_XREC_ROUNDTRIP
360
140
  0
DICTIONARY
  5
12D
330
33
100
AcDbDictionary
280
     1
281
     1
  3
ACAD_XREC_ROUNDTRIP
360
12E
  0
DICTIONARY
  5
14B
330
42
100
AcDbDictionary
280
     1
281
     1
  3
ACAD_XREC_ROUNDTRIP
360
14C
  0
DICTIONARY
  5
149
330
41
100
AcDbDictionary
280
     1
281
     1
  3
ACAD_XREC_ROUNDTRIP
360
14A
  0
DICTIONARY
  5
143
330
3E
100
AcDbDictionary
280
     1
281
     1
  3
ACAD_XREC_ROUNDTRIP
360
144
  0
DICTIONARY
  5
145
330
3F
100
AcDbDictionary
280
     1
281
     1
  3
ACAD_XREC_ROUNDTRIP
360
146
  0
DICTIONARY
  5
135
330
37
100
AcDbDictionary
280
     1
281
     1
  3
ACAD_XREC_ROUNDTRIP
360
136
  0
DICTIONARY
  5
127
330
30
100
AcDbDictionary
280
     1
281
     1
  3
ACAD_XREC_ROUNDTRIP
360
128
  0
DICTIONARY
  5
147
330
40
100
AcDbDictionary
280
     1
281
     1
  3
ACAD_XREC_ROUNDTRIP
360
148
  0
XRECORD
  5
151
102
{ACAD_REACTORS
330
150
102
}
330
150
100
AcDbXrecord
280
     1
102
ACAD_ROUNDTRIP_2010_MLEADER_STYLE
  0
CELLSTYLEMAP
  5
14E
102
{ACAD_REACTORS
330
14D
102
}
330
14D
100
AcDbCellStyleMap
 90
        3
300
CELLSTYLE
  1
TABLEFORMAT_BEGIN
 90
        5
170
     1
 91
        0
 92
    32768
 62
   257
 93
        1
300
CONTENTFORMAT
  1
CONTENTFORMAT_BEGIN
 90
        0
 91
        0
 92
        4
 93
        0
300

 40
0.0
140
1.0
 94
        5
 62
     0
340
11
144
0.25
309
CONTENTFORMAT_END
171
     1
301
MARGIN
  1
CELLMARGIN_BEGIN
 40
0.06
 40
0.06
 40
0.06
 40
0.06
 40
0.06
 40
0.06
309
CELLMARGIN_END
 94
        6
 95
        1
302
GRIDFORMAT
  1
GRIDFORMAT_BEGIN
 90
        0
 91
        1
 62
     0
 92
       -2
340
14
 93
        0
 40
0.045
309
GRIDFORMAT_END
 95
        2
302
GRIDFORMAT
  1
GRIDFORMAT_BEGIN
 90
        0
 91
        1
 62
     0
 92
       -2
340
14
 93
        0
 40
0.045
309
GRIDFORMAT_END
 95
        4
302
GRIDFORMAT
  1
GRIDFORMAT_BEGIN
 90
        0
 91
        1
 62
     0
 92
       -2
340
14
 93
        0
 40
0.045
309
GRIDFORMAT_END
 95
        8
302
GRIDFORMAT
  1
GRIDFORMAT_BEGIN
 90
        0
 91
        1
 62
     0
 92
       -2
340
14
 93
        0
 40
0.045
309
GRIDFORMAT_END
 95
       16
302
GRIDFORMAT
  1
GRIDFORMAT_BEGIN
 90
        0
 91
        1
 62
     0
 92
       -2
340
14
 93
        0
 40
0.045
309
GRIDFORMAT_END
 95
       32
302
GRIDFORMAT
  1
GRIDFORMAT_BEGIN
 90
        0
 91
        1
 62
     0
 92
       -2
340
14
 93
        0
 40
0.045
309
GRIDFORMAT_END
309
TABLEFORMAT_END
  1
CELLSTYLE_BEGIN
 90
        1
 91
        1
300
_TITLE
309
CELLSTYLE_END
300
CELLSTYLE
  1
TABLEFORMAT_BEGIN
 90
        5
170
     1
 91
        0
 92
        0
 62
   257
 93
        1
300
CONTENTFORMAT
  1
CONTENTFORMAT_BEGIN
 90
        0
 91
        0
 92
        4
 93
        0
300

 40
0.0
140
1.0
 94
        5
 62
     0
340
11
144
0.18
309
CONTENTFORMAT_END
171
     1
301
MARGIN
  1
CELLMARGIN_BEGIN
 40
0.06
 40
0.06
 40
0.06
 40
0.06
 40
0.06
 40
0.06
309
CELLMARGIN_END
 94
        6
 95
        1
302
GRIDFORMAT
  1
GRIDFORMAT_BEGIN
 90
        0
 91
        1
 62
     0
 92
       -2
340
14
 93
        0
 40
0.045
309
GRIDFORMAT_END
 95
        2
302
GRIDFORMAT
  1
GRIDFORMAT_BEGIN
 90
        0
 91
        1
 62
     0
 92
       -2
340
14
 93
        0
 40
0.045
309
GRIDFORMAT_END
 95
        4
302
GRIDFORMAT
  1
GRIDFORMAT_BEGIN
 90
        0
 91
        1
 62
     0
 92
       -2
340
14
 93
        0
 40
0.045
309
GRIDFORMAT_END
 95
        8
302
GRIDFORMAT
  1
GRIDFORMAT_BEGIN
 90
        0
 91
        1
 62
     0
 92
       -2
340
14
 93
        0
 40
0.045
309
GRIDFORMAT_END
 95
       16
302
GRIDFORMAT
  1
GRIDFORMAT_BEGIN
 90
        0
 91
        1
 62
     0
 92
       -2
340
14
 93
        0
 40
0.045
309
GRIDFORMAT_END
 95
       32
302
GRIDFORMAT
  1
GRIDFORMAT_BEGIN
 90
        0
 91
        1
 62
     0
 92
       -2
340
14
 93
        0
 40
0.045
309
GRIDFORMAT_END
309
TABLEFORMAT_END
  1
CELLSTYLE_BEGIN
 90
        2
 91
        1
300
_HEADER
309
CELLSTYLE_END
300
CELLSTYLE
  1
TABLEFORMAT_BEGIN
 90
        5
170
     1
 91
        0
 92
        0
 62
   257
 93
        1
300
CONTENTFORMAT
  1
CONTENTFORMAT_BEGIN
 90
        0
 91
        0
 92
        4
 93
        0
300

 40
0.0
140
1.0
 94
        2
 62
     0
340
11
144
0.18
309
CONTENTFORMAT_END
171
     1
301
MARGIN
  1
CELLMARGIN_BEGIN
 40
0.06
 40
0.06
 40
0.06
 40
0.06
 40
0.06
 40
0.06
309
CELLMARGIN_END
 94
        6
 95
        1
302
GRIDFORMAT
  1
GRIDFORMAT_BEGIN
 90
        0
 91
        1
 62
     0
 92
       -2
340
14
 93
        0
 40
0.045
309
GRIDFORMAT_END
 95
        2
302
GRIDFORMAT
  1
GRIDFORMAT_BEGIN
 90
        0
 91
        1
 62
     0
 92
       -2
340
14
 93
        0
 40
0.045
309
GRIDFORMAT_END
 95
        4
302
GRIDFORMAT
  1
GRIDFORMAT_BEGIN
 90
        0
 91
        1
 62
     0
 92
       -2
340
14
 93
        0
 40
0.045
309
GRIDFORMAT_END
 95
        8
302
GRIDFORMAT
  1
GRIDFORMAT_BEGIN
 90
        0
 91
        1
 62
     0
 92
       -2
340
14
 93
        0
 40
0.045
309
GRIDFORMAT_END
 95
       16
302
GRIDFORMAT
  1
GRIDFORMAT_BEGIN
 90
        0
 91
        1
 62
     0
 92
       -2
340
14
 93
        0
 40
0.045
309
GRIDFORMAT_END
 95
       32
302
GRIDFORMAT
  1
GRIDFORMAT_BEGIN
 90
        0
 91
        1
 62
     0
 92
       -2
340
14
 93
        0
 40
0.045
309
GRIDFORMAT_END
309
TABLEFORMAT_END
  1
CELLSTYLE_BEGIN
 90
        3
 91
        2
300
_DATA
309
CELLSTYLE_END
  0
XRECORD
  5
126
102
{ACAD_REACTORS
330
125
102
}
330
125
100
AcDbXrecord
280
     1
102
RTVSPropertyOp0
 70
     1
102
RTVSPropertyOp1
 70
     1
102
RTVSPropertyOp2
 70
     1
102
RTVSPropertyOp3
 70
     1
102
RTVSPropertyOp4
 70
     1
102
RTVSPropertyOp5
 70
     1
102
RTVSPropertyOp6
 70
     1
102
RTVSPropertyOp7
 70
     1
102
RTVSPropertyOp8
 70
     1
102
RTVSPropertyOp9
 70
     1
102
RTVSPropertyOp10
 70
     1
102
RTVSPropertyOp11
 70
     1
102
RTVSPropertyOp12
 70
     1
102
RTVSPropertyOp13
 70
     1
102
RTVSPropertyOp14
 70
     1
102
RTVSPropertyOp15
 70
     1
102
RTVSPropertyOp16
 70
     1
102
RTVSPropertyOp17
 70
     1
102
RTVSPropertyOp18
 70
     1
102
RTVSPropertyOp19
 70
     1
102
RTVSPropertyOp20
 70
     1
102
RTVSPropertyOp21
 70
     1
102
RTVSPropertyOp22
 70
     1
102
RTVSPropertyOp23
 70
     1
102
RTVSPropertyOp24
 70
     1
102
RTVSPropertyOp25
 70
     1
102
RTVSPropertyOp26
 70
     1
102
RTVSPropertyOp27
 70
     1
102
RTVSPropertyOp28
 70
     1
102
RTVSPropertyOp29
 70
     1
102
RTVSPropertyOp30
 70
     1
102
RTVSPropertyOp31
 70
     1
102
RTVSPropertyOp32
 70
     1
102
RTVSPropertyOp33
 70
     1
102
RTVSPropertyOp34
 70
     1
102
RTVSPropertyOp35
 70
     1
102
RTVSPropertyOp36
 70
     1
102
RTVSPropertyOp37
 70
     1
102
RTVSPropertyOp38
 70
     1
102
RTVSPropertyOp39
 70
     1
102
RTVSPropertyOp40
 70
     1
102
RTVSPropertyOp41
 70
     1
102
RTVSPropertyOp42
 70
     1
102
RTVSPropertyOp43
 70
     1
102
RTVSPropertyOp44
 70
     1
102
RTVSPropertyOp45
 70
     1
102
RTVSPropertyOp46
 70
     1
102
RTVSPropertyOp47
 70
     1
102
RTVSPropertyOp48
 70
     1
102
RTVSPropertyOp49
 70
     1
102
RTVSPropertyOp50
 70
     1
102
RTVSPropertyOp51
 70
     0
102
RTVSPropertyOp52
 70
     0
102
RTVSPropertyOp53
 70
     1
102
RTVSPropertyOp54
 70
     1
102
RTVSPropertyOp55
 70
     1
102
RTVSPropertyOp56
 70
     1
102
RTVSPropertyOp57
 70
     1
102
RTVSPost2010Prop28
280
     1
102
RTVSPost2010PropOp28
 70
     1
102
RTVSPost2010Prop29
280
     1
102
RTVSPost2010PropOp29
 70
     1
102
RTVSPost2010Prop30
280
     0
102
RTVSPost2010PropOp30
 70
     1
102
RTVSPost2010Prop31
280
     0
102
RTVSPost2010PropOp31
 70
     1
102
RTVSPost2010Prop32
280
     0
102
RTVSPost2010PropOp32
 70
     1
102
RTVSPost2010Prop33
280
     0
102
RTVSPost2010PropOp33
 70
     1
102
RTVSPost2010Prop34
280
     0
102
RTVSPost2010PropOp34
 70
     1
102
RTVSPost2010Prop35
280
     0
102
RTVSPost2010PropOp35
 70
     1
102
RTVSPost2010Prop36
280
     0
102
RTVSPost2010PropOp36
 70
     1
102
RTVSPost2010Prop37
 90
       50
102
RTVSPost2010PropOp37
 70
     1
102
RTVSPost2010Prop38
140
0.0
102
RTVSPost2010PropOp38
 70
     1
102
RTVSPost2010Prop39
140
1.0
102
RTVSPost2010PropOp39
 70
     1
102
RTVSPost2010Prop40
 90
        0
102
RTVSPost2010PropOp40
 70
     1
102
RTVSPost2010Prop41ColorIndex
 90
       18
102
RTVSPost2010Prop41ColorRGB
 90
        0
102
RTVSPost2010PropOp41
 70
     1
102
RTVSPost2010Prop42
 90
       50
102
RTVSPost2010PropOp42
 70
     1
102
RTVSPost2010Prop43
 90
        3
102
RTVSPost2010PropOp43
 70
     1
102
RTVSPost2010Prop44ColorIndex
 90
        5
102
RTVSPost2010Prop44ColorRGB
 90
      255
102
RTVSPost2010PropOp44
 70
     1
102
RTVSPost2010Prop45
280
     0
102
RTVSPost2010PropOp45
 70
     1
102
RTVSPost2010Prop46
 90
       50
102
RTVSPost2010PropOp46
 70
     1
102
RTVSPost2010Prop47
 90
       50
102
RTVSPost2010PropOp47
 70
     1
102
RTVSPost2010Prop48
 90
       50
102
RTVSPost2010PropOp48
 70
     1
102
RTVSPost2010Prop49
280
     0
102
RTVSPost2010PropOp49
 70
     1
102
RTVSPost2010Prop50
 90
       50
102
RTVSPost2010PropOp50
 70
     1
102
RTVSPost2010Prop51ColorIndex
 90
      256
102
RTVSPost2010Prop51ColorRGB
 90
-16777216
102
RTVSPost2010PropOp51
 70
     0
102
RTVSPost2010Prop52
140
1.0
102
RTVSPost2010PropOp52
 70
     0
102
RTVSPost2010Prop53
 90
        2
102
RTVSPost2010PropOp53
 70
     1
102
RTVSPost2010Prop54
  1
strokes_ogs.tif
102
RTVSPost2010PropOp54
 70
     1
102
RTVSPost2010Prop55
280
     0
102
RTVSPost2010PropOp55
 70
     1
102
RTVSPost2010Prop56
140
1.0
102
RTVSPost2010PropOp56
 70
     1
102
RTVSPost2010Prop57
140
1.0
102
RTVSPost2010PropOp57
 70
     1
  0
XRECORD
  5
12C
102
{ACAD_REACTORS
330
12B
102
}
330
12B
100
AcDbXrecord
280
     1
102
RTVSPropertyOp0
 70
     1
102
RTVSPropertyOp1
 70
     1
102
RTVSPropertyOp2
 70
     1
102
RTVSPropertyOp3
 70
     1
102
RTVSPropertyOp4
 70
     1
102
RTVSPropertyOp5
 70
     1
102
RTVSPropertyOp6
 70
     1
102
RTVSPropertyOp7
 70
     1
102
RTVSPropertyOp8
 70
     1
102
RTVSPropertyOp9
 70
     1
102
RTVSPropertyOp10
 70
     1
102
RTVSPropertyOp11
 70
     1
102
RTVSPropertyOp12
 70
     1
102
RTVSPropertyOp13
 70
     1
102
RTVSPropertyOp14
 70
     1
102
RTVSPropertyOp15
 70
     1
102
RTVSPropertyOp16
 70
     1
102
RTVSPropertyOp17
 70
     1
102
RTVSPropertyOp18
 70
     1
102
RTVSPropertyOp19
 70
     1
102
RTVSPropertyOp20
 70
     1
102
RTVSPropertyOp21
 70
     1
102
RTVSPropertyOp22
 70
     1
102
RTVSPropertyOp23
 70
     1
102
RTVSPropertyOp24
 70
     1
102
RTVSPropertyOp25
 70
     1
102
RTVSPropertyOp26
 70
     1
102
RTVSPropertyOp27
 70
     1
102
RTVSPropertyOp28
 70
     1
102
RTVSPropertyOp29
 70
     1
102
RTVSPropertyOp30
 70
     1
102
RTVSPropertyOp31
 70
     1
102
RTVSPropertyOp32
 70
     1
102
RTVSPropertyOp33
 70
     1
102
RTVSPropertyOp34
 70
     1
102
RTVSPropertyOp35
 70
     1
102
RTVSPropertyOp36
 70
     1
102
RTVSPropertyOp37
 70
     1
102
RTVSPropertyOp38
 70
     1
102
RTVSPropertyOp39
 70
     1
102
RTVSPropertyOp40
 70
     1
102
RTVSPropertyOp41
 70
     1
102
RTVSPropertyOp42
 70
     1
102
RTVSPropertyOp43
 70
     1
102
RTVSPropertyOp44
 70
     1
102
RTVSPropertyOp45
 70
     1
102
RTVSPropertyOp46
 70
     1
102
RTVSPropertyOp47
 70
     1
102
RTVSPropertyOp48
 70
     1
102
RTVSPropertyOp49
 70
     1
102
RTVSPropertyOp50
 70
     1
102
RTVSPropertyOp51
 70
     0
102
RTVSPropertyOp52
 70
     0
102
RTVSPropertyOp53
 70
     1
102
RTVSPropertyOp54
 70
     1
102
RTVSPropertyOp55
 70
     1
102
RTVSPropertyOp56
 70
     1
102
RTVSPropertyOp57
 70
     1
102
RTVSPost2010Prop28
280
     0
102
RTVSPost2010PropOp28
 70
     1
102
RTVSPost2010Prop29
280
     1
102
RTVSPost2010PropOp29
 70
     1
102
RTVSPost2010Prop30
280
     1
102
RTVSPost2010PropOp30
 70
     1
102
RTVSPost2010Prop31
280
     0
102
RTVSPost2010PropOp31
 70
     1
102
RTVSPost2010Prop32
280
     0
102
RTVSPost2010PropOp32
 70
     1
102
RTVSPost2010Prop33
280
     0
102
RTVSPost2010PropOp33
 70
     1
102
RTVSPost2010Prop34
280
     0
102
RTVSPost2010PropOp34
 70
     1
102
RTVSPost2010Prop35
280
     0
102
RTVSPost2010PropOp35
 70
     1
102
RTVSPost2010Prop36
280
     0
102
RTVSPost2010PropOp36
 70
     1
102
RTVSPost2010Prop37
 90
       50
102
RTVSPost2010PropOp37
 70
     1
102
RTVSPost2010Prop38
140
0.0
102
RTVSPost2010PropOp38
 70
     1
102
RTVSPost2010Prop39
140
1.0
102
RTVSPost2010PropOp39
 70
     1
102
RTVSPost2010Prop40
 90
        0
102
RTVSPost2010PropOp40
 70
     1
102
RTVSPost2010Prop41ColorIndex
 90
       18
102
RTVSPost2010Prop41ColorRGB
 90
        0
102
RTVSPost2010PropOp41
 70
     1
102
RTVSPost2010Prop42
 90
       50
102
RTVSPost2010PropOp42
 70
     1
102
RTVSPost2010Prop43
 90
        3
102
RTVSPost2010PropOp43
 70
     1
102
RTVSPost2010Prop44ColorIndex
 90
        5
102
RTVSPost2010Prop44ColorRGB
 90
      255
102
RTVSPost2010PropOp44
 70
     1
102
RTVSPost2010Prop45
280
     0
102
RTVSPost2010PropOp45
 70
     1
102
RTVSPost2010Prop46
 90
       50
102
RTVSPost2010PropOp46
 70
     1
102
RTVSPost2010Prop47
 90
       50
102
RTVSPost2010PropOp47
 70
     1
102
RTVSPost2010Prop48
 90
       50
102
RTVSPost2010PropOp48
 70
     1
102
RTVSPost2010Prop49
280
     0
102
RTVSPost2010PropOp49
 70
     1
102
RTVSPost2010Prop50
 90
       50
102
RTVSPost2010PropOp50
 70
     1
102
RTVSPost2010Prop51ColorIndex
 90
      256
102
RTVSPost2010Prop51ColorRGB
 90
-16777216
102
RTVSPost2010PropOp51
 70
     0
102
RTVSPost2010Prop52
140
1.0
102
RTVSPost2010PropOp52
 70
     0
102
RTVSPost2010Prop53
 90
        2
102
RTVSPost2010PropOp53
 70
     1
102
RTVSPost2010Prop54
  1
strokes_ogs.tif
102
RTVSPost2010PropOp54
 70
     1
102
RTVSPost2010Prop55
280
     0
102
RTVSPost2010PropOp55
 70
     1
102
RTVSPost2010Prop56
140
1.0
102
RTVSPost2010PropOp56
 70
     1
102
RTVSPost2010Prop57
140
1.0
102
RTVSPost2010PropOp57
 70
     1
  0
XRECORD
  5
134
102
{ACAD_REACTORS
330
133
102
}
330
133
100
AcDbXrecord
280
     1
102
RTVSPropertyOp0
 70
     1
102
RTVSPropertyOp1
 70
     1
102
RTVSPropertyOp2
 70
     1
102
RTVSPropertyOp3
 70
     1
102
RTVSPropertyOp4
 70
     1
102
RTVSPropertyOp5
 70
     1
102
RTVSPropertyOp6
 70
     1
102
RTVSPropertyOp7
 70
     1
102
RTVSPropertyOp8
 70
     1
102
RTVSPropertyOp9
 70
     1
102
RTVSPropertyOp10
 70
     1
102
RTVSPropertyOp11
 70
     1
102
RTVSPropertyOp12
 70
     1
102
RTVSPropertyOp13
 70
     1
102
RTVSPropertyOp14
 70
     1
102
RTVSPropertyOp15
 70
     1
102
RTVSPropertyOp16
 70
     1
102
RTVSPropertyOp17
 70
     1
102
RTVSPropertyOp18
 70
     1
102
RTVSPropertyOp19
 70
     1
102
RTVSPropertyOp20
 70
     1
102
RTVSPropertyOp21
 70
     1
102
RTVSPropertyOp22
 70
     1
102
RTVSPropertyOp23
 70
     1
102
RTVSPropertyOp24
 70
     1
102
RTVSPropertyOp25
 70
     1
102
RTVSPropertyOp26
 70
     1
102
RTVSPropertyOp27
 70
     1
102
RTVSPropertyOp28
 70
     1
102
RTVSPropertyOp29
 70
     1
102
RTVSPropertyOp30
 70
     1
102
RTVSPropertyOp31
 70
     1
102
RTVSPropertyOp32
 70
     1
102
RTVSPropertyOp33
 70
     1
102
RTVSPropertyOp34
 70
     1
102
RTVSPropertyOp35
 70
     1
102
RTVSPropertyOp36
 70
     1
102
RTVSPropertyOp37
 70
     1
102
RTVSPropertyOp38
 70
     1
102
RTVSPropertyOp39
 70
     1
102
RTVSPropertyOp40
 70
     1
102
RTVSPropertyOp41
 70
     1
102
RTVSPropertyOp42
 70
     1
102
RTVSPropertyOp43
 70
     1
102
RTVSPropertyOp44
 70
     1
102
RTVSPropertyOp45
 70
     1
102
RTVSPropertyOp46
 70
     1
102
RTVSPropertyOp47
 70
     1
102
RTVSPropertyOp48
 70
     1
102
RTVSPropertyOp49
 70
     1
102
RTVSPropertyOp50
 70
     1
102
RTVSPropertyOp51
 70
     0
102
RTVSPropertyOp52
 70
     0
102
RTVSPropertyOp53
 70
     1
102
RTVSPropertyOp54
 70
     1
102
RTVSPropertyOp55
 70
     1
102
RTVSPropertyOp56
 70
     1
102
RTVSPropertyOp57
 70
     1
102
RTVSPost2010Prop28
280
     0
102
RTVSPost2010PropOp28
 70
     1
102
RTVSPost2010Prop29
280
     1
102
RTVSPost2010PropOp29
 70
     1
102
RTVSPost2010Prop30
280
     1
102
RTVSPost2010PropOp30
 70
     1
102
RTVSPost2010Prop31
280
     0
102
RTVSPost2010PropOp31
 70
     1
102
RTVSPost2010Prop32
280
     0
102
RTVSPost2010PropOp32
 70
     1
102
RTVSPost2010Prop33
280
     0
102
RTVSPost2010PropOp33
 70
     1
102
RTVSPost2010Prop34
280
     0
102
RTVSPost2010PropOp34
 70
     1
102
RTVSPost2010Prop35
280
     0
102
RTVSPost2010PropOp35
 70
     1
102
RTVSPost2010Prop36
280
     0
102
RTVSPost2010PropOp36
 70
     1
102
RTVSPost2010Prop37
 90
       50
102
RTVSPost2010PropOp37
 70
     1
102
RTVSPost2010Prop38
140
0.0
102
RTVSPost2010PropOp38
 70
     1
102
RTVSPost2010Prop39
140
1.0
102
RTVSPost2010PropOp39
 70
     1
102
RTVSPost2010Prop40
 90
        0
102
RTVSPost2010PropOp40
 70
     1
102
RTVSPost2010Prop41ColorIndex
 90
       18
102
RTVSPost2010Prop41ColorRGB
 90
        0
102
RTVSPost2010PropOp41
 70
     1
102
RTVSPost2010Prop42
 90
       50
102
RTVSPost2010PropOp42
 70
     1
102
RTVSPost2010Prop43
 90
        3
102
RTVSPost2010PropOp43
 70
     1
102
RTVSPost2010Prop44ColorIndex
 90
        5
102
RTVSPost2010Prop44ColorRGB
 90
      255
102
RTVSPost2010PropOp44
 70
     1
102
RTVSPost2010Prop45
280
     0
102
RTVSPost2010PropOp45
 70
     1
102
RTVSPost2010Prop46
 90
       50
102
RTVSPost2010PropOp46
 70
     1
102
RTVSPost2010Prop47
 90
       50
102
RTVSPost2010PropOp47
 70
     1
102
RTVSPost2010Prop48
 90
       50
102
RTVSPost2010PropOp48
 70
     1
102
RTVSPost2010Prop49
280
     0
102
RTVSPost2010PropOp49
 70
     1
102
RTVSPost2010Prop50
 90
       50
102
RTVSPost2010PropOp50
 70
     1
102
RTVSPost2010Prop51ColorIndex
 90
      256
102
RTVSPost2010Prop51ColorRGB
 90
-16777216
102
RTVSPost2010PropOp51
 70
     0
102
RTVSPost2010Prop52
140
1.0
102
RTVSPost2010PropOp52
 70
     0
102
RTVSPost2010Prop53
 90
        2
102
RTVSPost2010PropOp53
 70
     1
102
RTVSPost2010Prop54
  1
strokes_ogs.tif
102
RTVSPost2010PropOp54
 70
     1
102
RTVSPost2010Prop55
280
     0
102
RTVSPost2010PropOp55
 70
     1
102
RTVSPost2010Prop56
140
1.0
102
RTVSPost2010PropOp56
 70
     1
102
RTVSPost2010Prop57
140
1.0
102
RTVSPost2010PropOp57
 70
     1
  0
XRECORD
  5
13C
102
{ACAD_REACTORS
330
13B
102
}
330
13B
100
AcDbXrecord
280
     1
102
RTVSPropertyOp0
 70
     1
102
RTVSPropertyOp1
 70
     1
102
RTVSPropertyOp2
 70
     1
102
RTVSPropertyOp3
 70
     1
102
RTVSPropertyOp4
 70
     1
102
RTVSPropertyOp5
 70
     1
102
RTVSPropertyOp6
 70
     1
102
RTVSPropertyOp7
 70
     1
102
RTVSPropertyOp8
 70
     1
102
RTVSPropertyOp9
 70
     1
102
RTVSPropertyOp10
 70
     1
102
RTVSPropertyOp11
 70
     1
102
RTVSPropertyOp12
 70
     1
102
RTVSPropertyOp13
 70
     1
102
RTVSPropertyOp14
 70
     1
102
RTVSPropertyOp15
 70
     1
102
RTVSPropertyOp16
 70
     1
102
RTVSPropertyOp17
 70
     1
102
RTVSPropertyOp18
 70
     1
102
RTVSPropertyOp19
 70
     1
102
RTVSPropertyOp20
 70
     1
102
RTVSPropertyOp21
 70
     1
102
RTVSPropertyOp22
 70
     1
102
RTVSPropertyOp23
 70
     1
102
RTVSPropertyOp24
 70
     1
102
RTVSPropertyOp25
 70
     1
102
RTVSPropertyOp26
 70
     1
102
RTVSPropertyOp27
 70
     1
102
RTVSPropertyOp28
 70
     1
102
RTVSPropertyOp29
 70
     1
102
RTVSPropertyOp30
 70
     1
102
RTVSPropertyOp31
 70
     1
102
RTVSPropertyOp32
 70
     1
102
RTVSPropertyOp33
 70
     1
102
RTVSPropertyOp34
 70
     1
102
RTVSPropertyOp35
 70
     1
102
RTVSPropertyOp36
 70
     1
102
RTVSPropertyOp37
 70
     1
102
RTVSPropertyOp38
 70
     1
102
RTVSPropertyOp39
 70
     1
102
RTVSPropertyOp40
 70
     1
102
RTVSPropertyOp41
 70
     1
102
RTVSPropertyOp42
 70
     1
102
RTVSPropertyOp43
 70
     1
102
RTVSPropertyOp44
 70
     1
102
RTVSPropertyOp45
 70
     1
102
RTVSPropertyOp46
 70
     1
102
RTVSPropertyOp47
 70
     1
102
RTVSPropertyOp48
 70
     1
102
RTVSPropertyOp49
 70
     1
102
RTVSPropertyOp50
 70
     1
102
RTVSPropertyOp51
 70
     0
102
RTVSPropertyOp52
 70
     0
102
RTVSPropertyOp53
 70
     1
102
RTVSPropertyOp54
 70
     1
102
RTVSPropertyOp55
 70
     1
102
RTVSPropertyOp56
 70
     1
102
RTVSPropertyOp57
 70
     1
102
RTVSPost2010Prop28
280
     0
102
RTVSPost2010PropOp28
 70
     1
102
RTVSPost2010Prop29
280
     1
102
RTVSPost2010PropOp29
 70
     1
102
RTVSPost2010Prop30
280
     1
102
RTVSPost2010PropOp30
 70
     1
102
RTVSPost2010Prop31
280
     0
102
RTVSPost2010PropOp31
 70
     1
102
RTVSPost2010Prop32
280
     0
102
RTVSPost2010PropOp32
 70
     1
102
RTVSPost2010Prop33
280
     0
102
RTVSPost2010PropOp33
 70
     1
102
RTVSPost2010Prop34
280
     0
102
RTVSPost2010PropOp34
 70
     1
102
RTVSPost2010Prop35
280
     0
102
RTVSPost2010PropOp35
 70
     1
102
RTVSPost2010Prop36
280
     0
102
RTVSPost2010PropOp36
 70
     1
102
RTVSPost2010Prop37
 90
       50
102
RTVSPost2010PropOp37
 70
     1
102
RTVSPost2010Prop38
140
0.0
102
RTVSPost2010PropOp38
 70
     1
102
RTVSPost2010Prop39
140
1.0
102
RTVSPost2010PropOp39
 70
     1
102
RTVSPost2010Prop40
 90
        0
102
RTVSPost2010PropOp40
 70
     1
102
RTVSPost2010Prop41ColorIndex
 90
       18
102
RTVSPost2010Prop41ColorRGB
 90
        0
102
RTVSPost2010PropOp41
 70
     1
102
RTVSPost2010Prop42
 90
       50
102
RTVSPost2010PropOp42
 70
     1
102
RTVSPost2010Prop43
 90
        3
102
RTVSPost2010PropOp43
 70
     1
102
RTVSPost2010Prop44ColorIndex
 90
        5
102
RTVSPost2010Prop44ColorRGB
 90
      255
102
RTVSPost2010PropOp44
 70
     1
102
RTVSPost2010Prop45
280
     0
102
RTVSPost2010PropOp45
 70
     1
102
RTVSPost2010Prop46
 90
       50
102
RTVSPost2010PropOp46
 70
     1
102
RTVSPost2010Prop47
 90
       50
102
RTVSPost2010PropOp47
 70
     1
102
RTVSPost2010Prop48
 90
       50
102
RTVSPost2010PropOp48
 70
     1
102
RTVSPost2010Prop49
280
     0
102
RTVSPost2010PropOp49
 70
     1
102
RTVSPost2010Prop50
 90
       50
102
RTVSPost2010PropOp50
 70
     1
102
RTVSPost2010Prop51ColorIndex
 90
      256
102
RTVSPost2010Prop51ColorRGB
 90
-16777216
102
RTVSPost2010PropOp51
 70
     0
102
RTVSPost2010Prop52
140
1.0
102
RTVSPost2010PropOp52
 70
     0
102
RTVSPost2010Prop53
 90
        2
102
RTVSPost2010PropOp53
 70
     1
102
RTVSPost2010Prop54
  1
strokes_ogs.tif
102
RTVSPost2010PropOp54
 70
     1
102
RTVSPost2010Prop55
280
     0
102
RTVSPost2010PropOp55
 70
     1
102
RTVSPost2010Prop56
140
1.0
102
RTVSPost2010PropOp56
 70
     1
102
RTVSPost2010Prop57
140
1.0
102
RTVSPost2010PropOp57
 70
     1
  0
XRECORD
  5
130
102
{ACAD_REACTORS
330
12F
102
}
330
12F
100
AcDbXrecord
280
     1
102
RTVSPropertyOp0
 70
     1
102
RTVSPropertyOp1
 70
     1
102
RTVSPropertyOp2
 70
     1
102
RTVSPropertyOp3
 70
     1
102
RTVSPropertyOp4
 70
     1
102
RTVSPropertyOp5
 70
     1
102
RTVSPropertyOp6
 70
     1
102
RTVSPropertyOp7
 70
     1
102
RTVSPropertyOp8
 70
     1
102
RTVSPropertyOp9
 70
     1
102
RTVSPropertyOp10
 70
     1
102
RTVSPropertyOp11
 70
     1
102
RTVSPropertyOp12
 70
     1
102
RTVSPropertyOp13
 70
     1
102
RTVSPropertyOp14
 70
     1
102
RTVSPropertyOp15
 70
     1
102
RTVSPropertyOp16
 70
     1
102
RTVSPropertyOp17
 70
     1
102
RTVSPropertyOp18
 70
     1
102
RTVSPropertyOp19
 70
     1
102
RTVSPropertyOp20
 70
     1
102
RTVSPropertyOp21
 70
     1
102
RTVSPropertyOp22
 70
     1
102
RTVSPropertyOp23
 70
     1
102
RTVSPropertyOp24
 70
     1
102
RTVSPropertyOp25
 70
     1
102
RTVSPropertyOp26
 70
     1
102
RTVSPropertyOp27
 70
     1
102
RTVSPropertyOp28
 70
     1
102
RTVSPropertyOp29
 70
     1
102
RTVSPropertyOp30
 70
     1
102
RTVSPropertyOp31
 70
     1
102
RTVSPropertyOp32
 70
     1
102
RTVSPropertyOp33
 70
     1
102
RTVSPropertyOp34
 70
     1
102
RTVSPropertyOp35
 70
     1
102
RTVSPropertyOp36
 70
     1
102
RTVSPropertyOp37
 70
     1
102
RTVSPropertyOp38
 70
     1
102
RTVSPropertyOp39
 70
     1
102
RTVSPropertyOp40
 70
     1
102
RTVSPropertyOp41
 70
     1
102
RTVSPropertyOp42
 70
     1
102
RTVSPropertyOp43
 70
     1
102
RTVSPropertyOp44
 70
     1
102
RTVSPropertyOp45
 70
     1
102
RTVSPropertyOp46
 70
     1
102
RTVSPropertyOp47
 70
     1
102
RTVSPropertyOp48
 70
     1
102
RTVSPropertyOp49
 70
     1
102
RTVSPropertyOp50
 70
     1
102
RTVSPropertyOp51
 70
     0
102
RTVSPropertyOp52
 70
     0
102
RTVSPropertyOp53
 70
     1
102
RTVSPropertyOp54
 70
     1
102
RTVSPropertyOp55
 70
     1
102
RTVSPropertyOp56
 70
     1
102
RTVSPropertyOp57
 70
     1
102
RTVSPost2010Prop28
280
     0
102
RTVSPost2010PropOp28
 70
     1
102
RTVSPost2010Prop29
280
     1
102
RTVSPost2010PropOp29
 70
     1
102
RTVSPost2010Prop30
280
     1
102
RTVSPost2010PropOp30
 70
     1
102
RTVSPost2010Prop31
280
     0
102
RTVSPost2010PropOp31
 70
     1
102
RTVSPost2010Prop32
280
     0
102
RTVSPost2010PropOp32
 70
     1
102
RTVSPost2010Prop33
280
     0
102
RTVSPost2010PropOp33
 70
     1
102
RTVSPost2010Prop34
280
     0
102
RTVSPost2010PropOp34
 70
     1
102
RTVSPost2010Prop35
280
     0
102
RTVSPost2010PropOp35
 70
     1
102
RTVSPost2010Prop36
280
     0
102
RTVSPost2010PropOp36
 70
     1
102
RTVSPost2010Prop37
 90
       50
102
RTVSPost2010PropOp37
 70
     1
102
RTVSPost2010Prop38
140
0.0
102
RTVSPost2010PropOp38
 70
     1
102
RTVSPost2010Prop39
140
1.0
102
RTVSPost2010PropOp39
 70
     1
102
RTVSPost2010Prop40
 90
        0
102
RTVSPost2010PropOp40
 70
     1
102
RTVSPost2010Prop41ColorIndex
 90
       18
102
RTVSPost2010Prop41ColorRGB
 90
        0
102
RTVSPost2010PropOp41
 70
     1
102
RTVSPost2010Prop42
 90
       50
102
RTVSPost2010PropOp42
 70
     1
102
RTVSPost2010Prop43
 90
        3
102
RTVSPost2010PropOp43
 70
     1
102
RTVSPost2010Prop44ColorIndex
 90
        5
102
RTVSPost2010Prop44ColorRGB
 90
      255
102
RTVSPost2010PropOp44
 70
     1
102
RTVSPost2010Prop45
280
     0
102
RTVSPost2010PropOp45
 70
     1
102
RTVSPost2010Prop46
 90
       50
102
RTVSPost2010PropOp46
 70
     1
102
RTVSPost2010Prop47
 90
       50
102
RTVSPost2010PropOp47
 70
     1
102
RTVSPost2010Prop48
 90
       50
102
RTVSPost2010PropOp48
 70
     1
102
RTVSPost2010Prop49
280
     0
102
RTVSPost2010PropOp49
 70
     1
102
RTVSPost2010Prop50
 90
       50
102
RTVSPost2010PropOp50
 70
     1
102
RTVSPost2010Prop51ColorIndex
 90
      256
102
RTVSPost2010Prop51ColorRGB
 90
-16777216
102
RTVSPost2010PropOp51
 70
     0
102
RTVSPost2010Prop52
140
1.0
102
RTVSPost2010PropOp52
 70
     0
102
RTVSPost2010Prop53
 90
        2
102
RTVSPost2010PropOp53
 70
     1
102
RTVSPost2010Prop54
  1
strokes_ogs.tif
102
RTVSPost2010PropOp54
 70
     1
102
RTVSPost2010Prop55
280
     0
102
RTVSPost2010PropOp55
 70
     1
102
RTVSPost2010Prop56
140
1.0
102
RTVSPost2010PropOp56
 70
     1
102
RTVSPost2010Prop57
140
1.0
102
RTVSPost2010PropOp57
 70
     1
  0
XRECORD
  5
132
102
{ACAD_REACTORS
330
131
102
}
330
131
100
AcDbXrecord
280
     1
102
RTVSPropertyOp0
 70
     1
102
RTVSPropertyOp1
 70
     1
102
RTVSPropertyOp2
 70
     1
102
RTVSPropertyOp3
 70
     1
102
RTVSPropertyOp4
 70
     1
102
RTVSPropertyOp5
 70
     1
102
RTVSPropertyOp6
 70
     1
102
RTVSPropertyOp7
 70
     1
102
RTVSPropertyOp8
 70
     1
102
RTVSPropertyOp9
 70
     1
102
RTVSPropertyOp10
 70
     1
102
RTVSPropertyOp11
 70
     1
102
RTVSPropertyOp12
 70
     1
102
RTVSPropertyOp13
 70
     1
102
RTVSPropertyOp14
 70
     1
102
RTVSPropertyOp15
 70
     1
102
RTVSPropertyOp16
 70
     1
102
RTVSPropertyOp17
 70
     1
102
RTVSPropertyOp18
 70
     1
102
RTVSPropertyOp19
 70
     1
102
RTVSPropertyOp20
 70
     1
102
RTVSPropertyOp21
 70
     1
102
RTVSPropertyOp22
 70
     1
102
RTVSPropertyOp23
 70
     1
102
RTVSPropertyOp24
 70
     1
102
RTVSPropertyOp25
 70
     1
102
RTVSPropertyOp26
 70
     1
102
RTVSPropertyOp27
 70
     1
102
RTVSPropertyOp28
 70
     1
102
RTVSPropertyOp29
 70
     1
102
RTVSPropertyOp30
 70
     1
102
RTVSPropertyOp31
 70
     1
102
RTVSPropertyOp32
 70
     1
102
RTVSPropertyOp33
 70
     1
102
RTVSPropertyOp34
 70
     1
102
RTVSPropertyOp35
 70
     1
102
RTVSPropertyOp36
 70
     1
102
RTVSPropertyOp37
 70
     1
102
RTVSPropertyOp38
 70
     1
102
RTVSPropertyOp39
 70
     1
102
RTVSPropertyOp40
 70
     1
102
RTVSPropertyOp41
 70
     1
102
RTVSPropertyOp42
 70
     1
102
RTVSPropertyOp43
 70
     1
102
RTVSPropertyOp44
 70
     1
102
RTVSPropertyOp45
 70
     1
102
RTVSPropertyOp46
 70
     1
102
RTVSPropertyOp47
 70
     1
102
RTVSPropertyOp48
 70
     1
102
RTVSPropertyOp49
 70
     1
102
RTVSPropertyOp50
 70
     1
102
RTVSPropertyOp51
 70
     0
102
RTVSPropertyOp52
 70
     0
102
RTVSPropertyOp53
 70
     1
102
RTVSPropertyOp54
 70
     1
102
RTVSPropertyOp55
 70
     1
102
RTVSPropertyOp56
 70
     1
102
RTVSPropertyOp57
 70
     1
102
RTVSPost2010Prop28
280
     0
102
RTVSPost2010PropOp28
 70
     1
102
RTVSPost2010Prop29
280
     1
102
RTVSPost2010PropOp29
 70
     1
102
RTVSPost2010Prop30
280
     1
102
RTVSPost2010PropOp30
 70
     1
102
RTVSPost2010Prop31
280
     0
102
RTVSPost2010PropOp31
 70
     1
102
RTVSPost2010Prop32
280
     0
102
RTVSPost2010PropOp32
 70
     1
102
RTVSPost2010Prop33
280
     0
102
RTVSPost2010PropOp33
 70
     1
102
RTVSPost2010Prop34
280
     0
102
RTVSPost2010PropOp34
 70
     1
102
RTVSPost2010Prop35
280
     0
102
RTVSPost2010PropOp35
 70
     1
102
RTVSPost2010Prop36
280
     0
102
RTVSPost2010PropOp36
 70
     1
102
RTVSPost2010Prop37
 90
       50
102
RTVSPost2010PropOp37
 70
     1
102
RTVSPost2010Prop38
140
0.0
102
RTVSPost2010PropOp38
 70
     1
102
RTVSPost2010Prop39
140
1.0
102
RTVSPost2010PropOp39
 70
     1
102
RTVSPost2010Prop40
 90
        0
102
RTVSPost2010PropOp40
 70
     1
102
RTVSPost2010Prop41ColorIndex
 90
       18
102
RTVSPost2010Prop41ColorRGB
 90
        0
102
RTVSPost2010PropOp41
 70
     1
102
RTVSPost2010Prop42
 90
       50
102
RTVSPost2010PropOp42
 70
     1
102
RTVSPost2010Prop43
 90
        3
102
RTVSPost2010PropOp43
 70
     1
102
RTVSPost2010Prop44ColorIndex
 90
        5
102
RTVSPost2010Prop44ColorRGB
 90
      255
102
RTVSPost2010PropOp44
 70
     1
102
RTVSPost2010Prop45
280
     0
102
RTVSPost2010PropOp45
 70
     1
102
RTVSPost2010Prop46
 90
       50
102
RTVSPost2010PropOp46
 70
     1
102
RTVSPost2010Prop47
 90
       50
102
RTVSPost2010PropOp47
 70
     1
102
RTVSPost2010Prop48
 90
       50
102
RTVSPost2010PropOp48
 70
     1
102
RTVSPost2010Prop49
280
     0
102
RTVSPost2010PropOp49
 70
     1
102
RTVSPost2010Prop50
 90
       50
102
RTVSPost2010PropOp50
 70
     1
102
RTVSPost2010Prop51ColorIndex
 90
      256
102
RTVSPost2010Prop51ColorRGB
 90
-16777216
102
RTVSPost2010PropOp51
 70
     0
102
RTVSPost2010Prop52
140
1.0
102
RTVSPost2010PropOp52
 70
     0
102
RTVSPost2010Prop53
 90
        2
102
RTVSPost2010PropOp53
 70
     1
102
RTVSPost2010Prop54
  1
strokes_ogs.tif
102
RTVSPost2010PropOp54
 70
     1
102
RTVSPost2010Prop55
280
     0
102
RTVSPost2010PropOp55
 70
     1
102
RTVSPost2010Prop56
140
1.0
102
RTVSPost2010PropOp56
 70
     1
102
RTVSPost2010Prop57
140
1.0
102
RTVSPost2010PropOp57
 70
     1
  0
XRECORD
  5
142
102
{ACAD_REACTORS
330
141
102
}
330
141
100
AcDbXrecord
280
     1
102
RTVSPropertyOp0
 70
     0
102
RTVSPropertyOp1
 70
     0
102
RTVSPropertyOp2
 70
     0
102
RTVSPropertyOp3
 70
     0
102
RTVSPropertyOp4
 70
     0
102
RTVSPropertyOp5
 70
     0
102
RTVSPropertyOp6
 70
     0
102
RTVSPropertyOp7
 70
     0
102
RTVSPropertyOp8
 70
     0
102
RTVSPropertyOp9
 70
     0
102
RTVSPropertyOp10
 70
     0
102
RTVSPropertyOp11
 70
     0
102
RTVSPropertyOp12
 70
     0
102
RTVSPropertyOp13
 70
     0
102
RTVSPropertyOp14
 70
     2
102
RTVSPropertyOp15
 70
     0
102
RTVSPropertyOp16
 70
     0
102
RTVSPropertyOp17
 70
     0
102
RTVSPropertyOp18
 70
     0
102
RTVSPropertyOp19
 70
     0
102
RTVSPropertyOp20
 70
     0
102
RTVSPropertyOp21
 70
     0
102
RTVSPropertyOp22
 70
     0
102
RTVSPropertyOp23
 70
     0
102
RTVSPropertyOp24
 70
     0
102
RTVSPropertyOp25
 70
     0
102
RTVSPropertyOp26
 70
     0
102
RTVSPropertyOp27
 70
     0
102
RTVSPropertyOp28
 70
     0
102
RTVSPropertyOp29
 70
     0
102
RTVSPropertyOp30
 70
     0
102
RTVSPropertyOp31
 70
     0
102
RTVSPropertyOp32
 70
     0
102
RTVSPropertyOp33
 70
     0
102
RTVSPropertyOp34
 70
     0
102
RTVSPropertyOp35
 70
     0
102
RTVSPropertyOp36
 70
     0
102
RTVSPropertyOp37
 70
     0
102
RTVSPropertyOp38
 70
     0
102
RTVSPropertyOp39
 70
     0
102
RTVSPropertyOp40
 70
     0
102
RTVSPropertyOp41
 70
     0
102
RTVSPropertyOp42
 70
     0
102
RTVSPropertyOp43
 70
     0
102
RTVSPropertyOp44
 70
     0
102
RTVSPropertyOp45
 70
     0
102
RTVSPropertyOp46
 70
     0
102
RTVSPropertyOp47
 70
     0
102
RTVSPropertyOp48
 70
     0
102
RTVSPropertyOp49
 70
     0
102
RTVSPropertyOp50
 70
     0
102
RTVSPropertyOp51
 70
     0
102
RTVSPropertyOp52
 70
     0
102
RTVSPropertyOp53
 70
     0
102
RTVSPropertyOp54
 70
     0
102
RTVSPropertyOp55
 70
     0
102
RTVSPropertyOp56
 70
     0
102
RTVSPropertyOp57
 70
     0
102
RTVSPost2010Prop28
280
     0
102
RTVSPost2010PropOp28
 70
     0
102
RTVSPost2010Prop29
280
     1
102
RTVSPost2010PropOp29
 70
     0
102
RTVSPost2010Prop30
280
     1
102
RTVSPost2010PropOp30
 70
     0
102
RTVSPost2010Prop31
280
     0
102
RTVSPost2010PropOp31
 70
     0
102
RTVSPost2010Prop32
280
     0
102
RTVSPost2010PropOp32
 70
     0
102
RTVSPost2010Prop33
280
     0
102
RTVSPost2010PropOp33
 70
     0
102
RTVSPost2010Prop34
280
     0
102
RTVSPost2010PropOp34
 70
     0
102
RTVSPost2010Prop35
280
     0
102
RTVSPost2010PropOp35
 70
     0
102
RTVSPost2010Prop36
280
     0
102
RTVSPost2010PropOp36
 70
     0
102
RTVSPost2010Prop37
 90
       50
102
RTVSPost2010PropOp37
 70
     0
102
RTVSPost2010Prop38
140
0.0
102
RTVSPost2010PropOp38
 70
     0
102
RTVSPost2010Prop39
140
1.0
102
RTVSPost2010PropOp39
 70
     0
102
RTVSPost2010Prop40
 90
        0
102
RTVSPost2010PropOp40
 70
     0
102
RTVSPost2010Prop41ColorIndex
 90
       18
102
RTVSPost2010Prop41ColorRGB
 90
        0
102
RTVSPost2010PropOp41
 70
     0
102
RTVSPost2010Prop42
 90
       50
102
RTVSPost2010PropOp42
 70
     0
102
RTVSPost2010Prop43
 90
        3
102
RTVSPost2010PropOp43
 70
     0
102
RTVSPost2010Prop44ColorIndex
 90
        5
102
RTVSPost2010Prop44ColorRGB
 90
      255
102
RTVSPost2010PropOp44
 70
     0
102
RTVSPost2010Prop45
280
     0
102
RTVSPost2010PropOp45
 70
     0
102
RTVSPost2010Prop46
 90
       50
102
RTVSPost2010PropOp46
 70
     0
102
RTVSPost2010Prop47
 90
       50
102
RTVSPost2010PropOp47
 70
     0
102
RTVSPost2010Prop48
 90
       50
102
RTVSPost2010PropOp48
 70
     0
102
RTVSPost2010Prop49
280
     0
102
RTVSPost2010PropOp49
 70
     0
102
RTVSPost2010Prop50
 90
       50
102
RTVSPost2010PropOp50
 70
     0
102
RTVSPost2010Prop51ColorIndex
 90
      256
102
RTVSPost2010Prop51ColorRGB
 90
-16777216
102
RTVSPost2010PropOp51
 70
     0
102
RTVSPost2010Prop52
140
1.0
102
RTVSPost2010PropOp52
 70
     0
102
RTVSPost2010Prop53
 90
        2
102
RTVSPost2010PropOp53
 70
     0
102
RTVSPost2010Prop54
  1
strokes_ogs.tif
102
RTVSPost2010PropOp54
 70
     0
102
RTVSPost2010Prop55
280
     0
102
RTVSPost2010PropOp55
 70
     0
102
RTVSPost2010Prop56
140
1.0
102
RTVSPost2010PropOp56
 70
     0
102
RTVSPost2010Prop57
140
1.0
102
RTVSPost2010PropOp57
 70
     0
  0
XRECORD
  5
13A
102
{ACAD_REACTORS
330
139
102
}
330
139
100
AcDbXrecord
280
     1
102
RTVSPropertyOp0
 70
     1
102
RTVSPropertyOp1
 70
     1
102
RTVSPropertyOp2
 70
     1
102
RTVSPropertyOp3
 70
     1
102
RTVSPropertyOp4
 70
     1
102
RTVSPropertyOp5
 70
     1
102
RTVSPropertyOp6
 70
     1
102
RTVSPropertyOp7
 70
     1
102
RTVSPropertyOp8
 70
     1
102
RTVSPropertyOp9
 70
     1
102
RTVSPropertyOp10
 70
     1
102
RTVSPropertyOp11
 70
     1
102
RTVSPropertyOp12
 70
     1
102
RTVSPropertyOp13
 70
     1
102
RTVSPropertyOp14
 70
     1
102
RTVSPropertyOp15
 70
     1
102
RTVSPropertyOp16
 70
     1
102
RTVSPropertyOp17
 70
     1
102
RTVSPropertyOp18
 70
     1
102
RTVSPropertyOp19
 70
     1
102
RTVSPropertyOp20
 70
     1
102
RTVSPropertyOp21
 70
     1
102
RTVSPropertyOp22
 70
     1
102
RTVSPropertyOp23
 70
     1
102
RTVSPropertyOp24
 70
     1
102
RTVSPropertyOp25
 70
     1
102
RTVSPropertyOp26
 70
     1
102
RTVSPropertyOp27
 70
     1
102
RTVSPropertyOp28
 70
     1
102
RTVSPropertyOp29
 70
     1
102
RTVSPropertyOp30
 70
     1
102
RTVSPropertyOp31
 70
     1
102
RTVSPropertyOp32
 70
     1
102
RTVSPropertyOp33
 70
     1
102
RTVSPropertyOp34
 70
     1
102
RTVSPropertyOp35
 70
     1
102
RTVSPropertyOp36
 70
     1
102
RTVSPropertyOp37
 70
     1
102
RTVSPropertyOp38
 70
     1
102
RTVSPropertyOp39
 70
     1
102
RTVSPropertyOp40
 70
     1
102
RTVSPropertyOp41
 70
     1
102
RTVSPropertyOp42
 70
     1
102
RTVSPropertyOp43
 70
     1
102
RTVSPropertyOp44
 70
     1
102
RTVSPropertyOp45
 70
     1
102
RTVSPropertyOp46
 70
     1
102
RTVSPropertyOp47
 70
     1
102
RTVSPropertyOp48
 70
     1
102
RTVSPropertyOp49
 70
     1
102
RTVSPropertyOp50
 70
     1
102
RTVSPropertyOp51
 70
     0
102
RTVSPropertyOp52
 70
     0
102
RTVSPropertyOp53
 70
     1
102
RTVSPropertyOp54
 70
     1
102
RTVSPropertyOp55
 70
     1
102
RTVSPropertyOp56
 70
     1
102
RTVSPropertyOp57
 70
     1
102
RTVSPost2010Prop28
280
     0
102
RTVSPost2010PropOp28
 70
     1
102
RTVSPost2010Prop29
280
     1
102
RTVSPost2010PropOp29
 70
     1
102
RTVSPost2010Prop30
280
     1
102
RTVSPost2010PropOp30
 70
     1
102
RTVSPost2010Prop31
280
     0
102
RTVSPost2010PropOp31
 70
     1
102
RTVSPost2010Prop32
280
     0
102
RTVSPost2010PropOp32
 70
     1
102
RTVSPost2010Prop33
280
     0
102
RTVSPost2010PropOp33
 70
     1
102
RTVSPost2010Prop34
280
     0
102
RTVSPost2010PropOp34
 70
     1
102
RTVSPost2010Prop35
280
     0
102
RTVSPost2010PropOp35
 70
     1
102
RTVSPost2010Prop36
280
     0
102
RTVSPost2010PropOp36
 70
     1
102
RTVSPost2010Prop37
 90
       50
102
RTVSPost2010PropOp37
 70
     1
102
RTVSPost2010Prop38
140
0.0
102
RTVSPost2010PropOp38
 70
     1
102
RTVSPost2010Prop39
140
1.0
102
RTVSPost2010PropOp39
 70
     1
102
RTVSPost2010Prop40
 90
        0
102
RTVSPost2010PropOp40
 70
     1
102
RTVSPost2010Prop41ColorIndex
 90
       18
102
RTVSPost2010Prop41ColorRGB
 90
        0
102
RTVSPost2010PropOp41
 70
     1
102
RTVSPost2010Prop42
 90
       50
102
RTVSPost2010PropOp42
 70
     1
102
RTVSPost2010Prop43
 90
        3
102
RTVSPost2010PropOp43
 70
     1
102
RTVSPost2010Prop44ColorIndex
 90
        5
102
RTVSPost2010Prop44ColorRGB
 90
      255
102
RTVSPost2010PropOp44
 70
     1
102
RTVSPost2010Prop45
280
     0
102
RTVSPost2010PropOp45
 70
     1
102
RTVSPost2010Prop46
 90
       50
102
RTVSPost2010PropOp46
 70
     1
102
RTVSPost2010Prop47
 90
       50
102
RTVSPost2010PropOp47
 70
     1
102
RTVSPost2010Prop48
 90
       50
102
RTVSPost2010PropOp48
 70
     1
102
RTVSPost2010Prop49
280
     0
102
RTVSPost2010PropOp49
 70
     1
102
RTVSPost2010Prop50
 90
       50
102
RTVSPost2010PropOp50
 70
     1
102
RTVSPost2010Prop51ColorIndex
 90
      256
102
RTVSPost2010Prop51ColorRGB
 90
-16777216
102
RTVSPost2010PropOp51
 70
     0
102
RTVSPost2010Prop52
140
1.0
102
RTVSPost2010PropOp52
 70
     0
102
RTVSPost2010Prop53
 90
        2
102
RTVSPost2010PropOp53
 70
     1
102
RTVSPost2010Prop54
  1
strokes_ogs.tif
102
RTVSPost2010PropOp54
 70
     1
102
RTVSPost2010Prop55
280
     0
102
RTVSPost2010PropOp55
 70
     1
102
RTVSPost2010Prop56
140
1.0
102
RTVSPost2010PropOp56
 70
     1
102
RTVSPost2010Prop57
140
1.0
102
RTVSPost2010PropOp57
 70
     1
  0
XRECORD
  5
11E
102
{ACAD_REACTORS
330
11D
102
}
330
11D
100
AcDbXrecord
280
     1
102
RTVSPropertyOp0
 70
     1
102
RTVSPropertyOp1
 70
     1
102
RTVSPropertyOp2
 70
     1
102
RTVSPropertyOp3
 70
     1
102
RTVSPropertyOp4
 70
     1
102
RTVSPropertyOp5
 70
     1
102
RTVSPropertyOp6
 70
     1
102
RTVSPropertyOp7
 70
     1
102
RTVSPropertyOp8
 70
     1
102
RTVSPropertyOp9
 70
     1
102
RTVSPropertyOp10
 70
     1
102
RTVSPropertyOp11
 70
     1
102
RTVSPropertyOp12
 70
     1
102
RTVSPropertyOp13
 70
     1
102
RTVSPropertyOp14
 70
     1
102
RTVSPropertyOp15
 70
     1
102
RTVSPropertyOp16
 70
     1
102
RTVSPropertyOp17
 70
     1
102
RTVSPropertyOp18
 70
     1
102
RTVSPropertyOp19
 70
     1
102
RTVSPropertyOp20
 70
     1
102
RTVSPropertyOp21
 70
     1
102
RTVSPropertyOp22
 70
     1
102
RTVSPropertyOp23
 70
     1
102
RTVSPropertyOp24
 70
     1
102
RTVSPropertyOp25
 70
     1
102
RTVSPropertyOp26
 70
     1
102
RTVSPropertyOp27
 70
     1
102
RTVSPropertyOp28
 70
     1
102
RTVSPropertyOp29
 70
     1
102
RTVSPropertyOp30
 70
     1
102
RTVSPropertyOp31
 70
     1
102
RTVSPropertyOp32
 70
     1
102
RTVSPropertyOp33
 70
     1
102
RTVSPropertyOp34
 70
     1
102
RTVSPropertyOp35
 70
     1
102
RTVSPropertyOp36
 70
     1
102
RTVSPropertyOp37
 70
     1
102
RTVSPropertyOp38
 70
     1
102
RTVSPropertyOp39
 70
     1
102
RTVSPropertyOp40
 70
     1
102
RTVSPropertyOp41
 70
     1
102
RTVSPropertyOp42
 70
     1
102
RTVSPropertyOp43
 70
     1
102
RTVSPropertyOp44
 70
     1
102
RTVSPropertyOp45
 70
     1
102
RTVSPropertyOp46
 70
     1
102
RTVSPropertyOp47
 70
     1
102
RTVSPropertyOp48
 70
     1
102
RTVSPropertyOp49
 70
     1
102
RTVSPropertyOp50
 70
     1
102
RTVSPropertyOp51
 70
     0
102
RTVSPropertyOp52
 70
     0
102
RTVSPropertyOp53
 70
     1
102
RTVSPropertyOp54
 70
     1
102
RTVSPropertyOp55
 70
     1
102
RTVSPropertyOp56
 70
     1
102
RTVSPropertyOp57
 70
     1
102
RTVSPost2010Prop28
280
     0
102
RTVSPost2010PropOp28
 70
     1
102
RTVSPost2010Prop29
280
     1
102
RTVSPost2010PropOp29
 70
     1
102
RTVSPost2010Prop30
280
     1
102
RTVSPost2010PropOp30
 70
     1
102
RTVSPost2010Prop31
280
     0
102
RTVSPost2010PropOp31
 70
     1
102
RTVSPost2010Prop32
280
     0
102
RTVSPost2010PropOp32
 70
     1
102
RTVSPost2010Prop33
280
     0
102
RTVSPost2010PropOp33
 70
     1
102
RTVSPost2010Prop34
280
     0
102
RTVSPost2010PropOp34
 70
     1
102
RTVSPost2010Prop35
280
     0
102
RTVSPost2010PropOp35
 70
     1
102
RTVSPost2010Prop36
280
     0
102
RTVSPost2010PropOp36
 70
     1
102
RTVSPost2010Prop37
 90
       50
102
RTVSPost2010PropOp37
 70
     1
102
RTVSPost2010Prop38
140
0.0
102
RTVSPost2010PropOp38
 70
     1
102
RTVSPost2010Prop39
140
1.0
102
RTVSPost2010PropOp39
 70
     1
102
RTVSPost2010Prop40
 90
        0
102
RTVSPost2010PropOp40
 70
     1
102
RTVSPost2010Prop41ColorIndex
 90
       18
102
RTVSPost2010Prop41ColorRGB
 90
        0
102
RTVSPost2010PropOp41
 70
     1
102
RTVSPost2010Prop42
 90
       50
102
RTVSPost2010PropOp42
 70
     1
102
RTVSPost2010Prop43
 90
        3
102
RTVSPost2010PropOp43
 70
     1
102
RTVSPost2010Prop44ColorIndex
 90
        5
102
RTVSPost2010Prop44ColorRGB
 90
      255
102
RTVSPost2010PropOp44
 70
     1
102
RTVSPost2010Prop45
280
     0
102
RTVSPost2010PropOp45
 70
     1
102
RTVSPost2010Prop46
 90
       50
102
RTVSPost2010PropOp46
 70
     1
102
RTVSPost2010Prop47
 90
       50
102
RTVSPost2010PropOp47
 70
     1
102
RTVSPost2010Prop48
 90
       50
102
RTVSPost2010PropOp48
 70
     1
102
RTVSPost2010Prop49
280
     0
102
RTVSPost2010PropOp49
 70
     1
102
RTVSPost2010Prop50
 90
       50
102
RTVSPost2010PropOp50
 70
     1
102
RTVSPost2010Prop51ColorIndex
 90
      256
102
RTVSPost2010Prop51ColorRGB
 90
-16777216
102
RTVSPost2010PropOp51
 70
     0
102
RTVSPost2010Prop52
140
1.0
102
RTVSPost2010PropOp52
 70
     0
102
RTVSPost2010Prop53
 90
        2
102
RTVSPost2010PropOp53
 70
     1
102
RTVSPost2010Prop54
  1
strokes_ogs.tif
102
RTVSPost2010PropOp54
 70
     1
102
RTVSPost2010Prop55
280
     0
102
RTVSPost2010PropOp55
 70
     1
102
RTVSPost2010Prop56
140
1.0
102
RTVSPost2010PropOp56
 70
     1
102
RTVSPost2010Prop57
140
1.0
102
RTVSPost2010PropOp57
 70
     1
  0
XRECORD
  5
120
102
{ACAD_REACTORS
330
11F
102
}
330
11F
100
AcDbXrecord
280
     1
102
RTVSPropertyOp0
 70
     1
102
RTVSPropertyOp1
 70
     1
102
RTVSPropertyOp2
 70
     1
102
RTVSPropertyOp3
 70
     1
102
RTVSPropertyOp4
 70
     1
102
RTVSPropertyOp5
 70
     1
102
RTVSPropertyOp6
 70
     1
102
RTVSPropertyOp7
 70
     1
102
RTVSPropertyOp8
 70
     1
102
RTVSPropertyOp9
 70
     1
102
RTVSPropertyOp10
 70
     1
102
RTVSPropertyOp11
 70
     1
102
RTVSPropertyOp12
 70
     1
102
RTVSPropertyOp13
 70
     1
102
RTVSPropertyOp14
 70
     1
102
RTVSPropertyOp15
 70
     1
102
RTVSPropertyOp16
 70
     1
102
RTVSPropertyOp17
 70
     1
102
RTVSPropertyOp18
 70
     1
102
RTVSPropertyOp19
 70
     1
102
RTVSPropertyOp20
 70
     1
102
RTVSPropertyOp21
 70
     1
102
RTVSPropertyOp22
 70
     1
102
RTVSPropertyOp23
 70
     1
102
RTVSPropertyOp24
 70
     1
102
RTVSPropertyOp25
 70
     1
102
RTVSPropertyOp26
 70
     1
102
RTVSPropertyOp27
 70
     1
102
RTVSPropertyOp28
 70
     1
102
RTVSPropertyOp29
 70
     1
102
RTVSPropertyOp30
 70
     1
102
RTVSPropertyOp31
 70
     1
102
RTVSPropertyOp32
 70
     1
102
RTVSPropertyOp33
 70
     1
102
RTVSPropertyOp34
 70
     1
102
RTVSPropertyOp35
 70
     1
102
RTVSPropertyOp36
 70
     1
102
RTVSPropertyOp37
 70
     1
102
RTVSPropertyOp38
 70
     1
102
RTVSPropertyOp39
 70
     1
102
RTVSPropertyOp40
 70
     1
102
RTVSPropertyOp41
 70
     1
102
RTVSPropertyOp42
 70
     1
102
RTVSPropertyOp43
 70
     1
102
RTVSPropertyOp44
 70
     1
102
RTVSPropertyOp45
 70
     1
102
RTVSPropertyOp46
 70
     1
102
RTVSPropertyOp47
 70
     1
102
RTVSPropertyOp48
 70
     1
102
RTVSPropertyOp49
 70
     1
102
RTVSPropertyOp50
 70
     1
102
RTVSPropertyOp51
 70
     0
102
RTVSPropertyOp52
 70
     0
102
RTVSPropertyOp53
 70
     1
102
RTVSPropertyOp54
 70
     1
102
RTVSPropertyOp55
 70
     1
102
RTVSPropertyOp56
 70
     1
102
RTVSPropertyOp57
 70
     1
102
RTVSPost2010Prop28
280
     0
102
RTVSPost2010PropOp28
 70
     1
102
RTVSPost2010Prop29
280
     1
102
RTVSPost2010PropOp29
 70
     1
102
RTVSPost2010Prop30
280
     1
102
RTVSPost2010PropOp30
 70
     1
102
RTVSPost2010Prop31
280
     0
102
RTVSPost2010PropOp31
 70
     1
102
RTVSPost2010Prop32
280
     0
102
RTVSPost2010PropOp32
 70
     1
102
RTVSPost2010Prop33
280
     0
102
RTVSPost2010PropOp33
 70
     1
102
RTVSPost2010Prop34
280
     0
102
RTVSPost2010PropOp34
 70
     1
102
RTVSPost2010Prop35
280
     0
102
RTVSPost2010PropOp35
 70
     1
102
RTVSPost2010Prop36
280
     0
102
RTVSPost2010PropOp36
 70
     1
102
RTVSPost2010Prop37
 90
       50
102
RTVSPost2010PropOp37
 70
     1
102
RTVSPost2010Prop38
140
0.0
102
RTVSPost2010PropOp38
 70
     1
102
RTVSPost2010Prop39
140
1.0
102
RTVSPost2010PropOp39
 70
     1
102
RTVSPost2010Prop40
 90
        0
102
RTVSPost2010PropOp40
 70
     1
102
RTVSPost2010Prop41ColorIndex
 90
       18
102
RTVSPost2010Prop41ColorRGB
 90
        0
102
RTVSPost2010PropOp41
 70
     1
102
RTVSPost2010Prop42
 90
       50
102
RTVSPost2010PropOp42
 70
     1
102
RTVSPost2010Prop43
 90
        3
102
RTVSPost2010PropOp43
 70
     1
102
RTVSPost2010Prop44ColorIndex
 90
        5
102
RTVSPost2010Prop44ColorRGB
 90
      255
102
RTVSPost2010PropOp44
 70
     1
102
RTVSPost2010Prop45
280
     0
102
RTVSPost2010PropOp45
 70
     1
102
RTVSPost2010Prop46
 90
       50
102
RTVSPost2010PropOp46
 70
     1
102
RTVSPost2010Prop47
 90
       50
102
RTVSPost2010PropOp47
 70
     1
102
RTVSPost2010Prop48
 90
       50
102
RTVSPost2010PropOp48
 70
     1
102
RTVSPost2010Prop49
280
     0
102
RTVSPost2010PropOp49
 70
     1
102
RTVSPost2010Prop50
 90
       50
102
RTVSPost2010PropOp50
 70
     1
102
RTVSPost2010Prop51ColorIndex
 90
      256
102
RTVSPost2010Prop51ColorRGB
 90
-16777216
102
RTVSPost2010PropOp51
 70
     0
102
RTVSPost2010Prop52
140
1.0
102
RTVSPost2010PropOp52
 70
     0
102
RTVSPost2010Prop53
 90
        2
102
RTVSPost2010PropOp53
 70
     1
102
RTVSPost2010Prop54
  1
strokes_ogs.tif
102
RTVSPost2010PropOp54
 70
     1
102
RTVSPost2010Prop55
280
     0
102
RTVSPost2010PropOp55
 70
     1
102
RTVSPost2010Prop56
140
1.0
102
RTVSPost2010PropOp56
 70
     1
102
RTVSPost2010Prop57
140
1.0
102
RTVSPost2010PropOp57
 70
     1
  0
XRECORD
  5
122
102
{ACAD_REACTORS
330
121
102
}
330
121
100
AcDbXrecord
280
     1
102
RTVSPropertyOp0
 70
     1
102
RTVSPropertyOp1
 70
     1
102
RTVSPropertyOp2
 70
     1
102
RTVSPropertyOp3
 70
     1
102
RTVSPropertyOp4
 70
     1
102
RTVSPropertyOp5
 70
     1
102
RTVSPropertyOp6
 70
     1
102
RTVSPropertyOp7
 70
     1
102
RTVSPropertyOp8
 70
     1
102
RTVSPropertyOp9
 70
     1
102
RTVSPropertyOp10
 70
     1
102
RTVSPropertyOp11
 70
     1
102
RTVSPropertyOp12
 70
     1
102
RTVSPropertyOp13
 70
     1
102
RTVSPropertyOp14
 70
     1
102
RTVSPropertyOp15
 70
     1
102
RTVSPropertyOp16
 70
     1
102
RTVSPropertyOp17
 70
     1
102
RTVSPropertyOp18
 70
     1
102
RTVSPropertyOp19
 70
     1
102
RTVSPropertyOp20
 70
     1
102
RTVSPropertyOp21
 70
     1
102
RTVSPropertyOp22
 70
     1
102
RTVSPropertyOp23
 70
     1
102
RTVSPropertyOp24
 70
     1
102
RTVSPropertyOp25
 70
     1
102
RTVSPropertyOp26
 70
     1
102
RTVSPropertyOp27
 70
     1
102
RTVSPropertyOp28
 70
     1
102
RTVSPropertyOp29
 70
     1
102
RTVSPropertyOp30
 70
     1
102
RTVSPropertyOp31
 70
     1
102
RTVSPropertyOp32
 70
     1
102
RTVSPropertyOp33
 70
     1
102
RTVSPropertyOp34
 70
     1
102
RTVSPropertyOp35
 70
     1
102
RTVSPropertyOp36
 70
     1
102
RTVSPropertyOp37
 70
     1
102
RTVSPropertyOp38
 70
     1
102
RTVSPropertyOp39
 70
     1
102
RTVSPropertyOp40
 70
     1
102
RTVSPropertyOp41
 70
     1
102
RTVSPropertyOp42
 70
     1
102
RTVSPropertyOp43
 70
     1
102
RTVSPropertyOp44
 70
     1
102
RTVSPropertyOp45
 70
     1
102
RTVSPropertyOp46
 70
     1
102
RTVSPropertyOp47
 70
     1
102
RTVSPropertyOp48
 70
     1
102
RTVSPropertyOp49
 70
     1
102
RTVSPropertyOp50
 70
     1
102
RTVSPropertyOp51
 70
     0
102
RTVSPropertyOp52
 70
     0
102
RTVSPropertyOp53
 70
     1
102
RTVSPropertyOp54
 70
     1
102
RTVSPropertyOp55
 70
     1
102
RTVSPropertyOp56
 70
     1
102
RTVSPropertyOp57
 70
     1
102
RTVSPost2010Prop28
280
     0
102
RTVSPost2010PropOp28
 70
     1
102
RTVSPost2010Prop29
280
     1
102
RTVSPost2010PropOp29
 70
     1
102
RTVSPost2010Prop30
280
     1
102
RTVSPost2010PropOp30
 70
     1
102
RTVSPost2010Prop31
280
     0
102
RTVSPost2010PropOp31
 70
     1
102
RTVSPost2010Prop32
280
     0
102
RTVSPost2010PropOp32
 70
     1
102
RTVSPost2010Prop33
280
     0
102
RTVSPost2010PropOp33
 70
     1
102
RTVSPost2010Prop34
280
     0
102
RTVSPost2010PropOp34
 70
     1
102
RTVSPost2010Prop35
280
     0
102
RTVSPost2010PropOp35
 70
     1
102
RTVSPost2010Prop36
280
     0
102
RTVSPost2010PropOp36
 70
     1
102
RTVSPost2010Prop37
 90
       50
102
RTVSPost2010PropOp37
 70
     1
102
RTVSPost2010Prop38
140
0.0
102
RTVSPost2010PropOp38
 70
     1
102
RTVSPost2010Prop39
140
1.0
102
RTVSPost2010PropOp39
 70
     1
102
RTVSPost2010Prop40
 90
        0
102
RTVSPost2010PropOp40
 70
     1
102
RTVSPost2010Prop41ColorIndex
 90
       18
102
RTVSPost2010Prop41ColorRGB
 90
        0
102
RTVSPost2010PropOp41
 70
     1
102
RTVSPost2010Prop42
 90
       50
102
RTVSPost2010PropOp42
 70
     1
102
RTVSPost2010Prop43
 90
        3
102
RTVSPost2010PropOp43
 70
     1
102
RTVSPost2010Prop44ColorIndex
 90
        5
102
RTVSPost2010Prop44ColorRGB
 90
      255
102
RTVSPost2010PropOp44
 70
     1
102
RTVSPost2010Prop45
280
     0
102
RTVSPost2010PropOp45
 70
     1
102
RTVSPost2010Prop46
 90
       50
102
RTVSPost2010PropOp46
 70
     1
102
RTVSPost2010Prop47
 90
       50
102
RTVSPost2010PropOp47
 70
     1
102
RTVSPost2010Prop48
 90
       50
102
RTVSPost2010PropOp48
 70
     1
102
RTVSPost2010Prop49
280
     0
102
RTVSPost2010PropOp49
 70
     1
102
RTVSPost2010Prop50
 90
       50
102
RTVSPost2010PropOp50
 70
     1
102
RTVSPost2010Prop51ColorIndex
 90
      256
102
RTVSPost2010Prop51ColorRGB
 90
-16777216
102
RTVSPost2010PropOp51
 70
     0
102
RTVSPost2010Prop52
140
1.0
102
RTVSPost2010PropOp52
 70
     0
102
RTVSPost2010Prop53
 90
        2
102
RTVSPost2010PropOp53
 70
     1
102
RTVSPost2010Prop54
  1
strokes_ogs.tif
102
RTVSPost2010PropOp54
 70
     1
102
RTVSPost2010Prop55
280
     0
102
RTVSPost2010PropOp55
 70
     1
102
RTVSPost2010Prop56
140
1.0
102
RTVSPost2010PropOp56
 70
     1
102
RTVSPost2010Prop57
140
1.0
102
RTVSPost2010PropOp57
 70
     1
  0
XRECORD
  5
124
102
{ACAD_REACTORS
330
123
102
}
330
123
100
AcDbXrecord
280
     1
102
RTVSPropertyOp0
 70
     1
102
RTVSPropertyOp1
 70
     1
102
RTVSPropertyOp2
 70
     1
102
RTVSPropertyOp3
 70
     1
102
RTVSPropertyOp4
 70
     1
102
RTVSPropertyOp5
 70
     1
102
RTVSPropertyOp6
 70
     1
102
RTVSPropertyOp7
 70
     1
102
RTVSPropertyOp8
 70
     1
102
RTVSPropertyOp9
 70
     1
102
RTVSPropertyOp10
 70
     1
102
RTVSPropertyOp11
 70
     1
102
RTVSPropertyOp12
 70
     1
102
RTVSPropertyOp13
 70
     1
102
RTVSPropertyOp14
 70
     1
102
RTVSPropertyOp15
 70
     1
102
RTVSPropertyOp16
 70
     1
102
RTVSPropertyOp17
 70
     1
102
RTVSPropertyOp18
 70
     1
102
RTVSPropertyOp19
 70
     1
102
RTVSPropertyOp20
 70
     1
102
RTVSPropertyOp21
 70
     1
102
RTVSPropertyOp22
 70
     1
102
RTVSPropertyOp23
 70
     1
102
RTVSPropertyOp24
 70
     1
102
RTVSPropertyOp25
 70
     1
102
RTVSPropertyOp26
 70
     1
102
RTVSPropertyOp27
 70
     1
102
RTVSPropertyOp28
 70
     1
102
RTVSPropertyOp29
 70
     1
102
RTVSPropertyOp30
 70
     1
102
RTVSPropertyOp31
 70
     1
102
RTVSPropertyOp32
 70
     1
102
RTVSPropertyOp33
 70
     1
102
RTVSPropertyOp34
 70
     1
102
RTVSPropertyOp35
 70
     1
102
RTVSPropertyOp36
 70
     1
102
RTVSPropertyOp37
 70
     1
102
RTVSPropertyOp38
 70
     1
102
RTVSPropertyOp39
 70
     1
102
RTVSPropertyOp40
 70
     1
102
RTVSPropertyOp41
 70
     1
102
RTVSPropertyOp42
 70
     1
102
RTVSPropertyOp43
 70
     1
102
RTVSPropertyOp44
 70
     1
102
RTVSPropertyOp45
 70
     1
102
RTVSPropertyOp46
 70
     1
102
RTVSPropertyOp47
 70
     1
102
RTVSPropertyOp48
 70
     1
102
RTVSPropertyOp49
 70
     1
102
RTVSPropertyOp50
 70
     1
102
RTVSPropertyOp51
 70
     0
102
RTVSPropertyOp52
 70
     0
102
RTVSPropertyOp53
 70
     1
102
RTVSPropertyOp54
 70
     1
102
RTVSPropertyOp55
 70
     1
102
RTVSPropertyOp56
 70
     1
102
RTVSPropertyOp57
 70
     1
102
RTVSPost2010Prop28
280
     0
102
RTVSPost2010PropOp28
 70
     1
102
RTVSPost2010Prop29
280
     1
102
RTVSPost2010PropOp29
 70
     1
102
RTVSPost2010Prop30
280
     1
102
RTVSPost2010PropOp30
 70
     1
102
RTVSPost2010Prop31
280
     0
102
RTVSPost2010PropOp31
 70
     1
102
RTVSPost2010Prop32
280
     0
102
RTVSPost2010PropOp32
 70
     1
102
RTVSPost2010Prop33
280
     0
102
RTVSPost2010PropOp33
 70
     1
102
RTVSPost2010Prop34
280
     0
102
RTVSPost2010PropOp34
 70
     1
102
RTVSPost2010Prop35
280
     0
102
RTVSPost2010PropOp35
 70
     1
102
RTVSPost2010Prop36
280
     0
102
RTVSPost2010PropOp36
 70
     1
102
RTVSPost2010Prop37
 90
       50
102
RTVSPost2010PropOp37
 70
     1
102
RTVSPost2010Prop38
140
0.0
102
RTVSPost2010PropOp38
 70
     1
102
RTVSPost2010Prop39
140
1.0
102
RTVSPost2010PropOp39
 70
     1
102
RTVSPost2010Prop40
 90
        0
102
RTVSPost2010PropOp40
 70
     1
102
RTVSPost2010Prop41ColorIndex
 90
       18
102
RTVSPost2010Prop41ColorRGB
 90
        0
102
RTVSPost2010PropOp41
 70
     1
102
RTVSPost2010Prop42
 90
       50
102
RTVSPost2010PropOp42
 70
     1
102
RTVSPost2010Prop43
 90
        3
102
RTVSPost2010PropOp43
 70
     1
102
RTVSPost2010Prop44ColorIndex
 90
        5
102
RTVSPost2010Prop44ColorRGB
 90
      255
102
RTVSPost2010PropOp44
 70
     1
102
RTVSPost2010Prop45
280
     0
102
RTVSPost2010PropOp45
 70
     1
102
RTVSPost2010Prop46
 90
       50
102
RTVSPost2010PropOp46
 70
     1
102
RTVSPost2010Prop47
 90
       50
102
RTVSPost2010PropOp47
 70
     1
102
RTVSPost2010Prop48
 90
       50
102
RTVSPost2010PropOp48
 70
     1
102
RTVSPost2010Prop49
280
     0
102
RTVSPost2010PropOp49
 70
     1
102
RTVSPost2010Prop50
 90
       50
102
RTVSPost2010PropOp50
 70
     1
102
RTVSPost2010Prop51ColorIndex
 90
      256
102
RTVSPost2010Prop51ColorRGB
 90
-16777216
102
RTVSPost2010PropOp51
 70
     0
102
RTVSPost2010Prop52
140
1.0
102
RTVSPost2010PropOp52
 70
     0
102
RTVSPost2010Prop53
 90
        2
102
RTVSPost2010PropOp53
 70
     1
102
RTVSPost2010Prop54
  1
strokes_ogs.tif
102
RTVSPost2010PropOp54
 70
     1
102
RTVSPost2010Prop55
280
     0
102
RTVSPost2010PropOp55
 70
     1
102
RTVSPost2010Prop56
140
1.0
102
RTVSPost2010PropOp56
 70
     1
102
RTVSPost2010Prop57
140
1.0
102
RTVSPost2010PropOp57
 70
     1
  0
XRECORD
  5
12A
102
{ACAD_REACTORS
330
129
102
}
330
129
100
AcDbXrecord
280
     1
102
RTVSPropertyOp0
 70
     1
102
RTVSPropertyOp1
 70
     1
102
RTVSPropertyOp2
 70
     1
102
RTVSPropertyOp3
 70
     1
102
RTVSPropertyOp4
 70
     1
102
RTVSPropertyOp5
 70
     1
102
RTVSPropertyOp6
 70
     1
102
RTVSPropertyOp7
 70
     1
102
RTVSPropertyOp8
 70
     1
102
RTVSPropertyOp9
 70
     1
102
RTVSPropertyOp10
 70
     1
102
RTVSPropertyOp11
 70
     1
102
RTVSPropertyOp12
 70
     1
102
RTVSPropertyOp13
 70
     1
102
RTVSPropertyOp14
 70
     1
102
RTVSPropertyOp15
 70
     1
102
RTVSPropertyOp16
 70
     1
102
RTVSPropertyOp17
 70
     1
102
RTVSPropertyOp18
 70
     1
102
RTVSPropertyOp19
 70
     1
102
RTVSPropertyOp20
 70
     1
102
RTVSPropertyOp21
 70
     1
102
RTVSPropertyOp22
 70
     1
102
RTVSPropertyOp23
 70
     1
102
RTVSPropertyOp24
 70
     1
102
RTVSPropertyOp25
 70
     1
102
RTVSPropertyOp26
 70
     1
102
RTVSPropertyOp27
 70
     1
102
RTVSPropertyOp28
 70
     1
102
RTVSPropertyOp29
 70
     1
102
RTVSPropertyOp30
 70
     1
102
RTVSPropertyOp31
 70
     1
102
RTVSPropertyOp32
 70
     1
102
RTVSPropertyOp33
 70
     1
102
RTVSPropertyOp34
 70
     1
102
RTVSPropertyOp35
 70
     1
102
RTVSPropertyOp36
 70
     1
102
RTVSPropertyOp37
 70
     1
102
RTVSPropertyOp38
 70
     1
102
RTVSPropertyOp39
 70
     1
102
RTVSPropertyOp40
 70
     1
102
RTVSPropertyOp41
 70
     1
102
RTVSPropertyOp42
 70
     1
102
RTVSPropertyOp43
 70
     1
102
RTVSPropertyOp44
 70
     1
102
RTVSPropertyOp45
 70
     1
102
RTVSPropertyOp46
 70
     1
102
RTVSPropertyOp47
 70
     1
102
RTVSPropertyOp48
 70
     1
102
RTVSPropertyOp49
 70
     1
102
RTVSPropertyOp50
 70
     1
102
RTVSPropertyOp51
 70
     0
102
RTVSPropertyOp52
 70
     0
102
RTVSPropertyOp53
 70
     1
102
RTVSPropertyOp54
 70
     1
102
RTVSPropertyOp55
 70
     1
102
RTVSPropertyOp56
 70
     1
102
RTVSPropertyOp57
 70
     1
102
RTVSPost2010Prop28
280
     0
102
RTVSPost2010PropOp28
 70
     1
102
RTVSPost2010Prop29
280
     1
102
RTVSPost2010PropOp29
 70
     1
102
RTVSPost2010Prop30
280
     1
102
RTVSPost2010PropOp30
 70
     1
102
RTVSPost2010Prop31
280
     0
102
RTVSPost2010PropOp31
 70
     1
102
RTVSPost2010Prop32
280
     0
102
RTVSPost2010PropOp32
 70
     1
102
RTVSPost2010Prop33
280
     0
102
RTVSPost2010PropOp33
 70
     1
102
RTVSPost2010Prop34
280
     0
102
RTVSPost2010PropOp34
 70
     1
102
RTVSPost2010Prop35
280
     0
102
RTVSPost2010PropOp35
 70
     1
102
RTVSPost2010Prop36
280
     0
102
RTVSPost2010PropOp36
 70
     1
102
RTVSPost2010Prop37
 90
       50
102
RTVSPost2010PropOp37
 70
     1
102
RTVSPost2010Prop38
140
0.0
102
RTVSPost2010PropOp38
 70
     1
102
RTVSPost2010Prop39
140
1.0
102
RTVSPost2010PropOp39
 70
     1
102
RTVSPost2010Prop40
 90
        0
102
RTVSPost2010PropOp40
 70
     1
102
RTVSPost2010Prop41ColorIndex
 90
       18
102
RTVSPost2010Prop41ColorRGB
 90
        0
102
RTVSPost2010PropOp41
 70
     1
102
RTVSPost2010Prop42
 90
       50
102
RTVSPost2010PropOp42
 70
     1
102
RTVSPost2010Prop43
 90
        3
102
RTVSPost2010PropOp43
 70
     1
102
RTVSPost2010Prop44ColorIndex
 90
        5
102
RTVSPost2010Prop44ColorRGB
 90
      255
102
RTVSPost2010PropOp44
 70
     1
102
RTVSPost2010Prop45
280
     0
102
RTVSPost2010PropOp45
 70
     1
102
RTVSPost2010Prop46
 90
       50
102
RTVSPost2010PropOp46
 70
     1
102
RTVSPost2010Prop47
 90
       50
102
RTVSPost2010PropOp47
 70
     1
102
RTVSPost2010Prop48
 90
       50
102
RTVSPost2010PropOp48
 70
     1
102
RTVSPost2010Prop49
280
     0
102
RTVSPost2010PropOp49
 70
     1
102
RTVSPost2010Prop50
 90
       50
102
RTVSPost2010PropOp50
 70
     1
102
RTVSPost2010Prop51ColorIndex
 90
      256
102
RTVSPost2010Prop51ColorRGB
 90
-16777216
102
RTVSPost2010PropOp51
 70
     0
102
RTVSPost2010Prop52
140
1.0
102
RTVSPost2010PropOp52
 70
     0
102
RTVSPost2010Prop53
 90
        2
102
RTVSPost2010PropOp53
 70
     1
102
RTVSPost2010Prop54
  1
strokes_ogs.tif
102
RTVSPost2010PropOp54
 70
     1
102
RTVSPost2010Prop55
280
     0
102
RTVSPost2010PropOp55
 70
     1
102
RTVSPost2010Prop56
140
1.0
102
RTVSPost2010PropOp56
 70
     1
102
RTVSPost2010Prop57
140
1.0
102
RTVSPost2010PropOp57
 70
     1
  0
XRECORD
  5
13E
102
{ACAD_REACTORS
330
13D
102
}
330
13D
100
AcDbXrecord
280
     1
102
RTVSPropertyOp0
 70
     0
102
RTVSPropertyOp1
 70
     0
102
RTVSPropertyOp2
 70
     0
102
RTVSPropertyOp3
 70
     0
102
RTVSPropertyOp4
 70
     0
102
RTVSPropertyOp5
 70
     0
102
RTVSPropertyOp6
 70
     0
102
RTVSPropertyOp7
 70
     0
102
RTVSPropertyOp8
 70
     0
102
RTVSPropertyOp9
 70
     0
102
RTVSPropertyOp10
 70
     0
102
RTVSPropertyOp11
 70
     0
102
RTVSPropertyOp12
 70
     0
102
RTVSPropertyOp13
 70
     0
102
RTVSPropertyOp14
 70
     2
102
RTVSPropertyOp15
 70
     0
102
RTVSPropertyOp16
 70
     0
102
RTVSPropertyOp17
 70
     0
102
RTVSPropertyOp18
 70
     0
102
RTVSPropertyOp19
 70
     0
102
RTVSPropertyOp20
 70
     0
102
RTVSPropertyOp21
 70
     0
102
RTVSPropertyOp22
 70
     0
102
RTVSPropertyOp23
 70
     0
102
RTVSPropertyOp24
 70
     0
102
RTVSPropertyOp25
 70
     0
102
RTVSPropertyOp26
 70
     0
102
RTVSPropertyOp27
 70
     0
102
RTVSPropertyOp28
 70
     0
102
RTVSPropertyOp29
 70
     0
102
RTVSPropertyOp30
 70
     0
102
RTVSPropertyOp31
 70
     0
102
RTVSPropertyOp32
 70
     0
102
RTVSPropertyOp33
 70
     0
102
RTVSPropertyOp34
 70
     0
102
RTVSPropertyOp35
 70
     0
102
RTVSPropertyOp36
 70
     0
102
RTVSPropertyOp37
 70
     0
102
RTVSPropertyOp38
 70
     0
102
RTVSPropertyOp39
 70
     0
102
RTVSPropertyOp40
 70
     0
102
RTVSPropertyOp41
 70
     0
102
RTVSPropertyOp42
 70
     0
102
RTVSPropertyOp43
 70
     0
102
RTVSPropertyOp44
 70
     0
102
RTVSPropertyOp45
 70
     0
102
RTVSPropertyOp46
 70
     0
102
RTVSPropertyOp47
 70
     0
102
RTVSPropertyOp48
 70
     0
102
RTVSPropertyOp49
 70
     0
102
RTVSPropertyOp50
 70
     0
102
RTVSPropertyOp51
 70
     0
102
RTVSPropertyOp52
 70
     0
102
RTVSPropertyOp53
 70
     0
102
RTVSPropertyOp54
 70
     0
102
RTVSPropertyOp55
 70
     0
102
RTVSPropertyOp56
 70
     0
102
RTVSPropertyOp57
 70
     0
102
RTVSPost2010Prop28
280
     0
102
RTVSPost2010PropOp28
 70
     0
102
RTVSPost2010Prop29
280
     1
102
RTVSPost2010PropOp29
 70
     0
102
RTVSPost2010Prop30
280
     1
102
RTVSPost2010PropOp30
 70
     0
102
RTVSPost2010Prop31
280
     0
102
RTVSPost2010PropOp31
 70
     0
102
RTVSPost2010Prop32
280
     0
102
RTVSPost2010PropOp32
 70
     0
102
RTVSPost2010Prop33
280
     0
102
RTVSPost2010PropOp33
 70
     0
102
RTVSPost2010Prop34
280
     0
102
RTVSPost2010PropOp34
 70
     0
102
RTVSPost2010Prop35
280
     0
102
RTVSPost2010PropOp35
 70
     0
102
RTVSPost2010Prop36
280
     0
102
RTVSPost2010PropOp36
 70
     0
102
RTVSPost2010Prop37
 90
       50
102
RTVSPost2010PropOp37
 70
     0
102
RTVSPost2010Prop38
140
0.0
102
RTVSPost2010PropOp38
 70
     0
102
RTVSPost2010Prop39
140
1.0
102
RTVSPost2010PropOp39
 70
     0
102
RTVSPost2010Prop40
 90
        0
102
RTVSPost2010PropOp40
 70
     0
102
RTVSPost2010Prop41ColorIndex
 90
       18
102
RTVSPost2010Prop41ColorRGB
 90
        0
102
RTVSPost2010PropOp41
 70
     0
102
RTVSPost2010Prop42
 90
       50
102
RTVSPost2010PropOp42
 70
     0
102
RTVSPost2010Prop43
 90
        3
102
RTVSPost2010PropOp43
 70
     0
102
RTVSPost2010Prop44ColorIndex
 90
        5
102
RTVSPost2010Prop44ColorRGB
 90
      255
102
RTVSPost2010PropOp44
 70
     0
102
RTVSPost2010Prop45
280
     0
102
RTVSPost2010PropOp45
 70
     0
102
RTVSPost2010Prop46
 90
       50
102
RTVSPost2010PropOp46
 70
     0
102
RTVSPost2010Prop47
 90
       50
102
RTVSPost2010PropOp47
 70
     0
102
RTVSPost2010Prop48
 90
       50
102
RTVSPost2010PropOp48
 70
     0
102
RTVSPost2010Prop49
280
     0
102
RTVSPost2010PropOp49
 70
     0
102
RTVSPost2010Prop50
 90
       50
102
RTVSPost2010PropOp50
 70
     0
102
RTVSPost2010Prop51ColorIndex
 90
      256
102
RTVSPost2010Prop51ColorRGB
 90
-16777216
102
RTVSPost2010PropOp51
 70
     0
102
RTVSPost2010Prop52
140
1.0
102
RTVSPost2010PropOp52
 70
     0
102
RTVSPost2010Prop53
 90
        2
102
RTVSPost2010PropOp53
 70
     0
102
RTVSPost2010Prop54
  1
strokes_ogs.tif
102
RTVSPost2010PropOp54
 70
     0
102
RTVSPost2010Prop55
280
     0
102
RTVSPost2010PropOp55
 70
     0
102
RTVSPost2010Prop56
140
1.0
102
RTVSPost2010PropOp56
 70
     0
102
RTVSPost2010Prop57
140
1.0
102
RTVSPost2010PropOp57
 70
     0
  0
XRECORD
  5
138
102
{ACAD_REACTORS
330
137
102
}
330
137
100
AcDbXrecord
280
     1
102
RTVSPropertyOp0
 70
     1
102
RTVSPropertyOp1
 70
     1
102
RTVSPropertyOp2
 70
     1
102
RTVSPropertyOp3
 70
     1
102
RTVSPropertyOp4
 70
     1
102
RTVSPropertyOp5
 70
     1
102
RTVSPropertyOp6
 70
     1
102
RTVSPropertyOp7
 70
     1
102
RTVSPropertyOp8
 70
     1
102
RTVSPropertyOp9
 70
     1
102
RTVSPropertyOp10
 70
     1
102
RTVSPropertyOp11
 70
     1
102
RTVSPropertyOp12
 70
     1
102
RTVSPropertyOp13
 70
     1
102
RTVSPropertyOp14
 70
     1
102
RTVSPropertyOp15
 70
     1
102
RTVSPropertyOp16
 70
     1
102
RTVSPropertyOp17
 70
     1
102
RTVSPropertyOp18
 70
     1
102
RTVSPropertyOp19
 70
     1
102
RTVSPropertyOp20
 70
     1
102
RTVSPropertyOp21
 70
     1
102
RTVSPropertyOp22
 70
     1
102
RTVSPropertyOp23
 70
     1
102
RTVSPropertyOp24
 70
     1
102
RTVSPropertyOp25
 70
     1
102
RTVSPropertyOp26
 70
     1
102
RTVSPropertyOp27
 70
     1
102
RTVSPropertyOp28
 70
     1
102
RTVSPropertyOp29
 70
     1
102
RTVSPropertyOp30
 70
     1
102
RTVSPropertyOp31
 70
     1
102
RTVSPropertyOp32
 70
     1
102
RTVSPropertyOp33
 70
     1
102
RTVSPropertyOp34
 70
     1
102
RTVSPropertyOp35
 70
     1
102
RTVSPropertyOp36
 70
     1
102
RTVSPropertyOp37
 70
     1
102
RTVSPropertyOp38
 70
     1
102
RTVSPropertyOp39
 70
     1
102
RTVSPropertyOp40
 70
     1
102
RTVSPropertyOp41
 70
     1
102
RTVSPropertyOp42
 70
     1
102
RTVSPropertyOp43
 70
     1
102
RTVSPropertyOp44
 70
     1
102
RTVSPropertyOp45
 70
     1
102
RTVSPropertyOp46
 70
     1
102
RTVSPropertyOp47
 70
     1
102
RTVSPropertyOp48
 70
     1
102
RTVSPropertyOp49
 70
     1
102
RTVSPropertyOp50
 70
     1
102
RTVSPropertyOp51
 70
     0
102
RTVSPropertyOp52
 70
     0
102
RTVSPropertyOp53
 70
     1
102
RTVSPropertyOp54
 70
     1
102
RTVSPropertyOp55
 70
     1
102
RTVSPropertyOp56
 70
     1
102
RTVSPropertyOp57
 70
     1
102
RTVSPost2010Prop28
280
     0
102
RTVSPost2010PropOp28
 70
     1
102
RTVSPost2010Prop29
280
     1
102
RTVSPost2010PropOp29
 70
     1
102
RTVSPost2010Prop30
280
     1
102
RTVSPost2010PropOp30
 70
     1
102
RTVSPost2010Prop31
280
     0
102
RTVSPost2010PropOp31
 70
     1
102
RTVSPost2010Prop32
280
     0
102
RTVSPost2010PropOp32
 70
     1
102
RTVSPost2010Prop33
280
     0
102
RTVSPost2010PropOp33
 70
     1
102
RTVSPost2010Prop34
280
     0
102
RTVSPost2010PropOp34
 70
     1
102
RTVSPost2010Prop35
280
     0
102
RTVSPost2010PropOp35
 70
     1
102
RTVSPost2010Prop36
280
     0
102
RTVSPost2010PropOp36
 70
     1
102
RTVSPost2010Prop37
 90
       50
102
RTVSPost2010PropOp37
 70
     1
102
RTVSPost2010Prop38
140
0.0
102
RTVSPost2010PropOp38
 70
     1
102
RTVSPost2010Prop39
140
1.0
102
RTVSPost2010PropOp39
 70
     1
102
RTVSPost2010Prop40
 90
        0
102
RTVSPost2010PropOp40
 70
     1
102
RTVSPost2010Prop41ColorIndex
 90
       18
102
RTVSPost2010Prop41ColorRGB
 90
        0
102
RTVSPost2010PropOp41
 70
     1
102
RTVSPost2010Prop42
 90
       50
102
RTVSPost2010PropOp42
 70
     1
102
RTVSPost2010Prop43
 90
        3
102
RTVSPost2010PropOp43
 70
     1
102
RTVSPost2010Prop44ColorIndex
 90
        5
102
RTVSPost2010Prop44ColorRGB
 90
      255
102
RTVSPost2010PropOp44
 70
     1
102
RTVSPost2010Prop45
280
     0
102
RTVSPost2010PropOp45
 70
     1
102
RTVSPost2010Prop46
 90
       50
102
RTVSPost2010PropOp46
 70
     1
102
RTVSPost2010Prop47
 90
       50
102
RTVSPost2010PropOp47
 70
     1
102
RTVSPost2010Prop48
 90
       50
102
RTVSPost2010PropOp48
 70
     1
102
RTVSPost2010Prop49
280
     0
102
RTVSPost2010PropOp49
 70
     1
102
RTVSPost2010Prop50
 90
       50
102
RTVSPost2010PropOp50
 70
     1
102
RTVSPost2010Prop51ColorIndex
 90
      256
102
RTVSPost2010Prop51ColorRGB
 90
-16777216
102
RTVSPost2010PropOp51
 70
     0
102
RTVSPost2010Prop52
140
1.0
102
RTVSPost2010PropOp52
 70
     0
102
RTVSPost2010Prop53
 90
        2
102
RTVSPost2010PropOp53
 70
     1
102
RTVSPost2010Prop54
  1
strokes_ogs.tif
102
RTVSPost2010PropOp54
 70
     1
102
RTVSPost2010Prop55
280
     0
102
RTVSPost2010PropOp55
 70
     1
102
RTVSPost2010Prop56
140
1.0
102
RTVSPost2010PropOp56
 70
     1
102
RTVSPost2010Prop57
140
1.0
102
RTVSPost2010PropOp57
 70
     1
  0
XRECORD
  5
140
102
{ACAD_REACTORS
330
13F
102
}
330
13F
100
AcDbXrecord
280
     1
102
RTVSPropertyOp0
 70
     0
102
RTVSPropertyOp1
 70
     0
102
RTVSPropertyOp2
 70
     0
102
RTVSPropertyOp3
 70
     0
102
RTVSPropertyOp4
 70
     0
102
RTVSPropertyOp5
 70
     0
102
RTVSPropertyOp6
 70
     0
102
RTVSPropertyOp7
 70
     0
102
RTVSPropertyOp8
 70
     0
102
RTVSPropertyOp9
 70
     0
102
RTVSPropertyOp10
 70
     0
102
RTVSPropertyOp11
 70
     0
102
RTVSPropertyOp12
 70
     0
102
RTVSPropertyOp13
 70
     0
102
RTVSPropertyOp14
 70
     2
102
RTVSPropertyOp15
 70
     0
102
RTVSPropertyOp16
 70
     0
102
RTVSPropertyOp17
 70
     0
102
RTVSPropertyOp18
 70
     0
102
RTVSPropertyOp19
 70
     0
102
RTVSPropertyOp20
 70
     0
102
RTVSPropertyOp21
 70
     0
102
RTVSPropertyOp22
 70
     0
102
RTVSPropertyOp23
 70
     0
102
RTVSPropertyOp24
 70
     0
102
RTVSPropertyOp25
 70
     0
102
RTVSPropertyOp26
 70
     0
102
RTVSPropertyOp27
 70
     0
102
RTVSPropertyOp28
 70
     0
102
RTVSPropertyOp29
 70
     0
102
RTVSPropertyOp30
 70
     0
102
RTVSPropertyOp31
 70
     0
102
RTVSPropertyOp32
 70
     0
102
RTVSPropertyOp33
 70
     0
102
RTVSPropertyOp34
 70
     0
102
RTVSPropertyOp35
 70
     0
102
RTVSPropertyOp36
 70
     0
102
RTVSPropertyOp37
 70
     0
102
RTVSPropertyOp38
 70
     0
102
RTVSPropertyOp39
 70
     0
102
RTVSPropertyOp40
 70
     0
102
RTVSPropertyOp41
 70
     0
102
RTVSPropertyOp42
 70
     0
102
RTVSPropertyOp43
 70
     0
102
RTVSPropertyOp44
 70
     0
102
RTVSPropertyOp45
 70
     0
102
RTVSPropertyOp46
 70
     0
102
RTVSPropertyOp47
 70
     0
102
RTVSPropertyOp48
 70
     0
102
RTVSPropertyOp49
 70
     0
102
RTVSPropertyOp50
 70
     0
102
RTVSPropertyOp51
 70
     0
102
RTVSPropertyOp52
 70
     0
102
RTVSPropertyOp53
 70
     0
102
RTVSPropertyOp54
 70
     0
102
RTVSPropertyOp55
 70
     0
102
RTVSPropertyOp56
 70
     0
102
RTVSPropertyOp57
 70
     0
102
RTVSPost2010Prop28
280
     0
102
RTVSPost2010PropOp28
 70
     0
102
RTVSPost2010Prop29
280
     1
102
RTVSPost2010PropOp29
 70
     0
102
RTVSPost2010Prop30
280
     1
102
RTVSPost2010PropOp30
 70
     0
102
RTVSPost2010Prop31
280
     0
102
RTVSPost2010PropOp31
 70
     0
102
RTVSPost2010Prop32
280
     0
102
RTVSPost2010PropOp32
 70
     0
102
RTVSPost2010Prop33
280
     0
102
RTVSPost2010PropOp33
 70
     0
102
RTVSPost2010Prop34
280
     0
102
RTVSPost2010PropOp34
 70
     0
102
RTVSPost2010Prop35
280
     0
102
RTVSPost2010PropOp35
 70
     0
102
RTVSPost2010Prop36
280
     0
102
RTVSPost2010PropOp36
 70
     0
102
RTVSPost2010Prop37
 90
       50
102
RTVSPost2010PropOp37
 70
     0
102
RTVSPost2010Prop38
140
0.0
102
RTVSPost2010PropOp38
 70
     0
102
RTVSPost2010Prop39
140
1.0
102
RTVSPost2010PropOp39
 70
     0
102
RTVSPost2010Prop40
 90
        0
102
RTVSPost2010PropOp40
 70
     0
102
RTVSPost2010Prop41ColorIndex
 90
       18
102
RTVSPost2010Prop41ColorRGB
 90
        0
102
RTVSPost2010PropOp41
 70
     0
102
RTVSPost2010Prop42
 90
       50
102
RTVSPost2010PropOp42
 70
     0
102
RTVSPost2010Prop43
 90
        3
102
RTVSPost2010PropOp43
 70
     0
102
RTVSPost2010Prop44ColorIndex
 90
        5
102
RTVSPost2010Prop44ColorRGB
 90
      255
102
RTVSPost2010PropOp44
 70
     0
102
RTVSPost2010Prop45
280
     0
102
RTVSPost2010PropOp45
 70
     0
102
RTVSPost2010Prop46
 90
       50
102
RTVSPost2010PropOp46
 70
     0
102
RTVSPost2010Prop47
 90
       50
102
RTVSPost2010PropOp47
 70
     0
102
RTVSPost2010Prop48
 90
       50
102
RTVSPost2010PropOp48
 70
     0
102
RTVSPost2010Prop49
280
     0
102
RTVSPost2010PropOp49
 70
     0
102
RTVSPost2010Prop50
 90
       50
102
RTVSPost2010PropOp50
 70
     0
102
RTVSPost2010Prop51ColorIndex
 90
      256
102
RTVSPost2010Prop51ColorRGB
 90
-16777216
102
RTVSPost2010PropOp51
 70
     0
102
RTVSPost2010Prop52
140
1.0
102
RTVSPost2010PropOp52
 70
     0
102
RTVSPost2010Prop53
 90
        2
102
RTVSPost2010PropOp53
 70
     0
102
RTVSPost2010Prop54
  1
strokes_ogs.tif
102
RTVSPost2010PropOp54
 70
     0
102
RTVSPost2010Prop55
280
     0
102
RTVSPost2010PropOp55
 70
     0
102
RTVSPost2010Prop56
140
1.0
102
RTVSPost2010PropOp56
 70
     0
102
RTVSPost2010Prop57
140
1.0
102
RTVSPost2010PropOp57
 70
     0
  0
XRECORD
  5
12E
102
{ACAD_REACTORS
330
12D
102
}
330
12D
100
AcDbXrecord
280
     1
102
RTVSPropertyOp0
 70
     1
102
RTVSPropertyOp1
 70
     1
102
RTVSPropertyOp2
 70
     1
102
RTVSPropertyOp3
 70
     1
102
RTVSPropertyOp4
 70
     1
102
RTVSPropertyOp5
 70
     1
102
RTVSPropertyOp6
 70
     1
102
RTVSPropertyOp7
 70
     1
102
RTVSPropertyOp8
 70
     1
102
RTVSPropertyOp9
 70
     1
102
RTVSPropertyOp10
 70
     1
102
RTVSPropertyOp11
 70
     1
102
RTVSPropertyOp12
 70
     1
102
RTVSPropertyOp13
 70
     1
102
RTVSPropertyOp14
 70
     1
102
RTVSPropertyOp15
 70
     1
102
RTVSPropertyOp16
 70
     1
102
RTVSPropertyOp17
 70
     1
102
RTVSPropertyOp18
 70
     1
102
RTVSPropertyOp19
 70
     1
102
RTVSPropertyOp20
 70
     1
102
RTVSPropertyOp21
 70
     1
102
RTVSPropertyOp22
 70
     1
102
RTVSPropertyOp23
 70
     1
102
RTVSPropertyOp24
 70
     1
102
RTVSPropertyOp25
 70
     1
102
RTVSPropertyOp26
 70
     1
102
RTVSPropertyOp27
 70
     1
102
RTVSPropertyOp28
 70
     1
102
RTVSPropertyOp29
 70
     1
102
RTVSPropertyOp30
 70
     1
102
RTVSPropertyOp31
 70
     1
102
RTVSPropertyOp32
 70
     1
102
RTVSPropertyOp33
 70
     1
102
RTVSPropertyOp34
 70
     1
102
RTVSPropertyOp35
 70
     1
102
RTVSPropertyOp36
 70
     1
102
RTVSPropertyOp37
 70
     1
102
RTVSPropertyOp38
 70
     1
102
RTVSPropertyOp39
 70
     1
102
RTVSPropertyOp40
 70
     1
102
RTVSPropertyOp41
 70
     1
102
RTVSPropertyOp42
 70
     1
102
RTVSPropertyOp43
 70
     1
102
RTVSPropertyOp44
 70
     1
102
RTVSPropertyOp45
 70
     1
102
RTVSPropertyOp46
 70
     1
102
RTVSPropertyOp47
 70
     1
102
RTVSPropertyOp48
 70
     1
102
RTVSPropertyOp49
 70
     1
102
RTVSPropertyOp50
 70
     1
102
RTVSPropertyOp51
 70
     0
102
RTVSPropertyOp52
 70
     0
102
RTVSPropertyOp53
 70
     1
102
RTVSPropertyOp54
 70
     1
102
RTVSPropertyOp55
 70
     1
102
RTVSPropertyOp56
 70
     1
102
RTVSPropertyOp57
 70
     1
102
RTVSPost2010Prop28
280
     0
102
RTVSPost2010PropOp28
 70
     1
102
RTVSPost2010Prop29
280
     1
102
RTVSPost2010PropOp29
 70
     1
102
RTVSPost2010Prop30
280
     1
102
RTVSPost2010PropOp30
 70
     1
102
RTVSPost2010Prop31
280
     0
102
RTVSPost2010PropOp31
 70
     1
102
RTVSPost2010Prop32
280
     0
102
RTVSPost2010PropOp32
 70
     1
102
RTVSPost2010Prop33
280
     0
102
RTVSPost2010PropOp33
 70
     1
102
RTVSPost2010Prop34
280
     0
102
RTVSPost2010PropOp34
 70
     1
102
RTVSPost2010Prop35
280
     0
102
RTVSPost2010PropOp35
 70
     1
102
RTVSPost2010Prop36
280
     0
102
RTVSPost2010PropOp36
 70
     1
102
RTVSPost2010Prop37
 90
       50
102
RTVSPost2010PropOp37
 70
     1
102
RTVSPost2010Prop38
140
0.0
102
RTVSPost2010PropOp38
 70
     1
102
RTVSPost2010Prop39
140
1.0
102
RTVSPost2010PropOp39
 70
     1
102
RTVSPost2010Prop40
 90
        0
102
RTVSPost2010PropOp40
 70
     1
102
RTVSPost2010Prop41ColorIndex
 90
       18
102
RTVSPost2010Prop41ColorRGB
 90
        0
102
RTVSPost2010PropOp41
 70
     1
102
RTVSPost2010Prop42
 90
       50
102
RTVSPost2010PropOp42
 70
     1
102
RTVSPost2010Prop43
 90
        3
102
RTVSPost2010PropOp43
 70
     1
102
RTVSPost2010Prop44ColorIndex
 90
        5
102
RTVSPost2010Prop44ColorRGB
 90
      255
102
RTVSPost2010PropOp44
 70
     1
102
RTVSPost2010Prop45
280
     0
102
RTVSPost2010PropOp45
 70
     1
102
RTVSPost2010Prop46
 90
       50
102
RTVSPost2010PropOp46
 70
     1
102
RTVSPost2010Prop47
 90
       50
102
RTVSPost2010PropOp47
 70
     1
102
RTVSPost2010Prop48
 90
       50
102
RTVSPost2010PropOp48
 70
     1
102
RTVSPost2010Prop49
280
     0
102
RTVSPost2010PropOp49
 70
     1
102
RTVSPost2010Prop50
 90
       50
102
RTVSPost2010PropOp50
 70
     1
102
RTVSPost2010Prop51ColorIndex
 90
      256
102
RTVSPost2010Prop51ColorRGB
 90
-16777216
102
RTVSPost2010PropOp51
 70
     0
102
RTVSPost2010Prop52
140
1.0
102
RTVSPost2010PropOp52
 70
     0
102
RTVSPost2010Prop53
 90
        2
102
RTVSPost2010PropOp53
 70
     1
102
RTVSPost2010Prop54
  1
strokes_ogs.tif
102
RTVSPost2010PropOp54
 70
     1
102
RTVSPost2010Prop55
280
     0
102
RTVSPost2010PropOp55
 70
     1
102
RTVSPost2010Prop56
140
1.0
102
RTVSPost2010PropOp56
 70
     1
102
RTVSPost2010Prop57
140
1.0
102
RTVSPost2010PropOp57
 70
     1
  0
XRECORD
  5
14C
102
{ACAD_REACTORS
330
14B
102
}
330
14B
100
AcDbXrecord
280
     1
102
RTVSPropertyOp0
 70
     1
102
RTVSPropertyOp1
 70
     1
102
RTVSPropertyOp2
 70
     1
102
RTVSPropertyOp3
 70
     1
102
RTVSPropertyOp4
 70
     1
102
RTVSPropertyOp5
 70
     1
102
RTVSPropertyOp6
 70
     1
102
RTVSPropertyOp7
 70
     1
102
RTVSPropertyOp8
 70
     1
102
RTVSPropertyOp9
 70
     1
102
RTVSPropertyOp10
 70
     1
102
RTVSPropertyOp11
 70
     1
102
RTVSPropertyOp12
 70
     1
102
RTVSPropertyOp13
 70
     1
102
RTVSPropertyOp14
 70
     1
102
RTVSPropertyOp15
 70
     1
102
RTVSPropertyOp16
 70
     1
102
RTVSPropertyOp17
 70
     1
102
RTVSPropertyOp18
 70
     1
102
RTVSPropertyOp19
 70
     1
102
RTVSPropertyOp20
 70
     1
102
RTVSPropertyOp21
 70
     1
102
RTVSPropertyOp22
 70
     1
102
RTVSPropertyOp23
 70
     1
102
RTVSPropertyOp24
 70
     1
102
RTVSPropertyOp25
 70
     1
102
RTVSPropertyOp26
 70
     1
102
RTVSPropertyOp27
 70
     1
102
RTVSPropertyOp28
 70
     1
102
RTVSPropertyOp29
 70
     1
102
RTVSPropertyOp30
 70
     1
102
RTVSPropertyOp31
 70
     1
102
RTVSPropertyOp32
 70
     1
102
RTVSPropertyOp33
 70
     1
102
RTVSPropertyOp34
 70
     1
102
RTVSPropertyOp35
 70
     1
102
RTVSPropertyOp36
 70
     1
102
RTVSPropertyOp37
 70
     1
102
RTVSPropertyOp38
 70
     1
102
RTVSPropertyOp39
 70
     1
102
RTVSPropertyOp40
 70
     1
102
RTVSPropertyOp41
 70
     1
102
RTVSPropertyOp42
 70
     1
102
RTVSPropertyOp43
 70
     1
102
RTVSPropertyOp44
 70
     1
102
RTVSPropertyOp45
 70
     1
102
RTVSPropertyOp46
 70
     1
102
RTVSPropertyOp47
 70
     1
102
RTVSPropertyOp48
 70
     1
102
RTVSPropertyOp49
 70
     1
102
RTVSPropertyOp50
 70
     1
102
RTVSPropertyOp51
 70
     0
102
RTVSPropertyOp52
 70
     0
102
RTVSPropertyOp53
 70
     1
102
RTVSPropertyOp54
 70
     1
102
RTVSPropertyOp55
 70
     1
102
RTVSPropertyOp56
 70
     1
102
RTVSPropertyOp57
 70
     1
102
RTVSPost2010Prop28
280
     0
102
RTVSPost2010PropOp28
 70
     1
102
RTVSPost2010Prop29
280
     1
102
RTVSPost2010PropOp29
 70
     1
102
RTVSPost2010Prop30
280
     1
102
RTVSPost2010PropOp30
 70
     1
102
RTVSPost2010Prop31
280
     0
102
RTVSPost2010PropOp31
 70
     1
102
RTVSPost2010Prop32
280
     0
102
RTVSPost2010PropOp32
 70
     1
102
RTVSPost2010Prop33
280
     0
102
RTVSPost2010PropOp33
 70
     1
102
RTVSPost2010Prop34
280
     0
102
RTVSPost2010PropOp34
 70
     1
102
RTVSPost2010Prop35
280
     0
102
RTVSPost2010PropOp35
 70
     1
102
RTVSPost2010Prop36
280
     0
102
RTVSPost2010PropOp36
 70
     1
102
RTVSPost2010Prop37
 90
       50
102
RTVSPost2010PropOp37
 70
     1
102
RTVSPost2010Prop38
140
0.0
102
RTVSPost2010PropOp38
 70
     1
102
RTVSPost2010Prop39
140
1.0
102
RTVSPost2010PropOp39
 70
     1
102
RTVSPost2010Prop40
 90
        0
102
RTVSPost2010PropOp40
 70
     1
102
RTVSPost2010Prop41ColorIndex
 90
       18
102
RTVSPost2010Prop41ColorRGB
 90
        0
102
RTVSPost2010PropOp41
 70
     1
102
RTVSPost2010Prop42
 90
       50
102
RTVSPost2010PropOp42
 70
     1
102
RTVSPost2010Prop43
 90
        3
102
RTVSPost2010PropOp43
 70
     1
102
RTVSPost2010Prop44ColorIndex
 90
        5
102
RTVSPost2010Prop44ColorRGB
 90
      255
102
RTVSPost2010PropOp44
 70
     1
102
RTVSPost2010Prop45
280
     0
102
RTVSPost2010PropOp45
 70
     1
102
RTVSPost2010Prop46
 90
       50
102
RTVSPost2010PropOp46
 70
     1
102
RTVSPost2010Prop47
 90
       50
102
RTVSPost2010PropOp47
 70
     1
102
RTVSPost2010Prop48
 90
       50
102
RTVSPost2010PropOp48
 70
     1
102
RTVSPost2010Prop49
280
     0
102
RTVSPost2010PropOp49
 70
     1
102
RTVSPost2010Prop50
 90
       50
102
RTVSPost2010PropOp50
 70
     1
102
RTVSPost2010Prop51ColorIndex
 90
      256
102
RTVSPost2010Prop51ColorRGB
 90
-16777216
102
RTVSPost2010PropOp51
 70
     0
102
RTVSPost2010Prop52
140
1.0
102
RTVSPost2010PropOp52
 70
     0
102
RTVSPost2010Prop53
 90
        2
102
RTVSPost2010PropOp53
 70
     1
102
RTVSPost2010Prop54
  1
strokes_ogs.tif
102
RTVSPost2010PropOp54
 70
     1
102
RTVSPost2010Prop55
280
     0
102
RTVSPost2010PropOp55
 70
     1
102
RTVSPost2010Prop56
140
1.0
102
RTVSPost2010PropOp56
 70
     1
102
RTVSPost2010Prop57
140
1.0
102
RTVSPost2010PropOp57
 70
     1
  0
XRECORD
  5
14A
102
{ACAD_REACTORS
330
149
102
}
330
149
100
AcDbXrecord
280
     1
102
RTVSPropertyOp0
 70
     1
102
RTVSPropertyOp1
 70
     1
102
RTVSPropertyOp2
 70
     1
102
RTVSPropertyOp3
 70
     1
102
RTVSPropertyOp4
 70
     1
102
RTVSPropertyOp5
 70
     1
102
RTVSPropertyOp6
 70
     1
102
RTVSPropertyOp7
 70
     1
102
RTVSPropertyOp8
 70
     1
102
RTVSPropertyOp9
 70
     1
102
RTVSPropertyOp10
 70
     1
102
RTVSPropertyOp11
 70
     1
102
RTVSPropertyOp12
 70
     1
102
RTVSPropertyOp13
 70
     1
102
RTVSPropertyOp14
 70
     1
102
RTVSPropertyOp15
 70
     1
102
RTVSPropertyOp16
 70
     1
102
RTVSPropertyOp17
 70
     1
102
RTVSPropertyOp18
 70
     1
102
RTVSPropertyOp19
 70
     1
102
RTVSPropertyOp20
 70
     1
102
RTVSPropertyOp21
 70
     1
102
RTVSPropertyOp22
 70
     1
102
RTVSPropertyOp23
 70
     1
102
RTVSPropertyOp24
 70
     1
102
RTVSPropertyOp25
 70
     1
102
RTVSPropertyOp26
 70
     1
102
RTVSPropertyOp27
 70
     1
102
RTVSPropertyOp28
 70
     1
102
RTVSPropertyOp29
 70
     1
102
RTVSPropertyOp30
 70
     1
102
RTVSPropertyOp31
 70
     1
102
RTVSPropertyOp32
 70
     1
102
RTVSPropertyOp33
 70
     1
102
RTVSPropertyOp34
 70
     1
102
RTVSPropertyOp35
 70
     1
102
RTVSPropertyOp36
 70
     1
102
RTVSPropertyOp37
 70
     1
102
RTVSPropertyOp38
 70
     1
102
RTVSPropertyOp39
 70
     1
102
RTVSPropertyOp40
 70
     1
102
RTVSPropertyOp41
 70
     1
102
RTVSPropertyOp42
 70
     1
102
RTVSPropertyOp43
 70
     1
102
RTVSPropertyOp44
 70
     1
102
RTVSPropertyOp45
 70
     1
102
RTVSPropertyOp46
 70
     1
102
RTVSPropertyOp47
 70
     1
102
RTVSPropertyOp48
 70
     1
102
RTVSPropertyOp49
 70
     1
102
RTVSPropertyOp50
 70
     1
102
RTVSPropertyOp51
 70
     0
102
RTVSPropertyOp52
 70
     0
102
RTVSPropertyOp53
 70
     1
102
RTVSPropertyOp54
 70
     1
102
RTVSPropertyOp55
 70
     1
102
RTVSPropertyOp56
 70
     1
102
RTVSPropertyOp57
 70
     1
102
RTVSPost2010Prop28
280
     0
102
RTVSPost2010PropOp28
 70
     1
102
RTVSPost2010Prop29
280
     1
102
RTVSPost2010PropOp29
 70
     1
102
RTVSPost2010Prop30
280
     1
102
RTVSPost2010PropOp30
 70
     1
102
RTVSPost2010Prop31
280
     0
102
RTVSPost2010PropOp31
 70
     1
102
RTVSPost2010Prop32
280
     0
102
RTVSPost2010PropOp32
 70
     1
102
RTVSPost2010Prop33
280
     0
102
RTVSPost2010PropOp33
 70
     1
102
RTVSPost2010Prop34
280
     0
102
RTVSPost2010PropOp34
 70
     1
102
RTVSPost2010Prop35
280
     0
102
RTVSPost2010PropOp35
 70
     1
102
RTVSPost2010Prop36
280
     0
102
RTVSPost2010PropOp36
 70
     1
102
RTVSPost2010Prop37
 90
       50
102
RTVSPost2010PropOp37
 70
     1
102
RTVSPost2010Prop38
140
0.0
102
RTVSPost2010PropOp38
 70
     1
102
RTVSPost2010Prop39
140
1.0
102
RTVSPost2010PropOp39
 70
     1
102
RTVSPost2010Prop40
 90
        0
102
RTVSPost2010PropOp40
 70
     1
102
RTVSPost2010Prop41ColorIndex
 90
       18
102
RTVSPost2010Prop41ColorRGB
 90
        0
102
RTVSPost2010PropOp41
 70
     1
102
RTVSPost2010Prop42
 90
       50
102
RTVSPost2010PropOp42
 70
     1
102
RTVSPost2010Prop43
 90
        3
102
RTVSPost2010PropOp43
 70
     1
102
RTVSPost2010Prop44ColorIndex
 90
        5
102
RTVSPost2010Prop44ColorRGB
 90
      255
102
RTVSPost2010PropOp44
 70
     1
102
RTVSPost2010Prop45
280
     0
102
RTVSPost2010PropOp45
 70
     1
102
RTVSPost2010Prop46
 90
       50
102
RTVSPost2010PropOp46
 70
     1
102
RTVSPost2010Prop47
 90
       50
102
RTVSPost2010PropOp47
 70
     1
102
RTVSPost2010Prop48
 90
       50
102
RTVSPost2010PropOp48
 70
     1
102
RTVSPost2010Prop49
280
     0
102
RTVSPost2010PropOp49
 70
     1
102
RTVSPost2010Prop50
 90
       50
102
RTVSPost2010PropOp50
 70
     1
102
RTVSPost2010Prop51ColorIndex
 90
      256
102
RTVSPost2010Prop51ColorRGB
 90
-16777216
102
RTVSPost2010PropOp51
 70
     0
102
RTVSPost2010Prop52
140
1.0
102
RTVSPost2010PropOp52
 70
     0
102
RTVSPost2010Prop53
 90
        2
102
RTVSPost2010PropOp53
 70
     1
102
RTVSPost2010Prop54
  1
strokes_ogs.tif
102
RTVSPost2010PropOp54
 70
     1
102
RTVSPost2010Prop55
280
     0
102
RTVSPost2010PropOp55
 70
     1
102
RTVSPost2010Prop56
140
1.0
102
RTVSPost2010PropOp56
 70
     1
102
RTVSPost2010Prop57
140
1.0
102
RTVSPost2010PropOp57
 70
     1
  0
XRECORD
  5
144
102
{ACAD_REACTORS
330
143
102
}
330
143
100
AcDbXrecord
280
     1
102
RTVSPropertyOp0
 70
     1
102
RTVSPropertyOp1
 70
     1
102
RTVSPropertyOp2
 70
     1
102
RTVSPropertyOp3
 70
     1
102
RTVSPropertyOp4
 70
     1
102
RTVSPropertyOp5
 70
     1
102
RTVSPropertyOp6
 70
     1
102
RTVSPropertyOp7
 70
     1
102
RTVSPropertyOp8
 70
     1
102
RTVSPropertyOp9
 70
     1
102
RTVSPropertyOp10
 70
     1
102
RTVSPropertyOp11
 70
     1
102
RTVSPropertyOp12
 70
     1
102
RTVSPropertyOp13
 70
     1
102
RTVSPropertyOp14
 70
     1
102
RTVSPropertyOp15
 70
     1
102
RTVSPropertyOp16
 70
     1
102
RTVSPropertyOp17
 70
     1
102
RTVSPropertyOp18
 70
     1
102
RTVSPropertyOp19
 70
     1
102
RTVSPropertyOp20
 70
     1
102
RTVSPropertyOp21
 70
     1
102
RTVSPropertyOp22
 70
     1
102
RTVSPropertyOp23
 70
     1
102
RTVSPropertyOp24
 70
     1
102
RTVSPropertyOp25
 70
     1
102
RTVSPropertyOp26
 70
     1
102
RTVSPropertyOp27
 70
     1
102
RTVSPropertyOp28
 70
     1
102
RTVSPropertyOp29
 70
     1
102
RTVSPropertyOp30
 70
     1
102
RTVSPropertyOp31
 70
     1
102
RTVSPropertyOp32
 70
     1
102
RTVSPropertyOp33
 70
     1
102
RTVSPropertyOp34
 70
     1
102
RTVSPropertyOp35
 70
     1
102
RTVSPropertyOp36
 70
     1
102
RTVSPropertyOp37
 70
     1
102
RTVSPropertyOp38
 70
     1
102
RTVSPropertyOp39
 70
     1
102
RTVSPropertyOp40
 70
     1
102
RTVSPropertyOp41
 70
     1
102
RTVSPropertyOp42
 70
     1
102
RTVSPropertyOp43
 70
     1
102
RTVSPropertyOp44
 70
     1
102
RTVSPropertyOp45
 70
     1
102
RTVSPropertyOp46
 70
     1
102
RTVSPropertyOp47
 70
     1
102
RTVSPropertyOp48
 70
     1
102
RTVSPropertyOp49
 70
     1
102
RTVSPropertyOp50
 70
     1
102
RTVSPropertyOp51
 70
     0
102
RTVSPropertyOp52
 70
     0
102
RTVSPropertyOp53
 70
     1
102
RTVSPropertyOp54
 70
     1
102
RTVSPropertyOp55
 70
     1
102
RTVSPropertyOp56
 70
     1
102
RTVSPropertyOp57
 70
     1
102
RTVSPost2010Prop28
280
     0
102
RTVSPost2010PropOp28
 70
     1
102
RTVSPost2010Prop29
280
     1
102
RTVSPost2010PropOp29
 70
     1
102
RTVSPost2010Prop30
280
     1
102
RTVSPost2010PropOp30
 70
     1
102
RTVSPost2010Prop31
280
     0
102
RTVSPost2010PropOp31
 70
     1
102
RTVSPost2010Prop32
280
     0
102
RTVSPost2010PropOp32
 70
     1
102
RTVSPost2010Prop33
280
     0
102
RTVSPost2010PropOp33
 70
     1
102
RTVSPost2010Prop34
280
     0
102
RTVSPost2010PropOp34
 70
     1
102
RTVSPost2010Prop35
280
     0
102
RTVSPost2010PropOp35
 70
     1
102
RTVSPost2010Prop36
280
     0
102
RTVSPost2010PropOp36
 70
     1
102
RTVSPost2010Prop37
 90
       50
102
RTVSPost2010PropOp37
 70
     1
102
RTVSPost2010Prop38
140
0.0
102
RTVSPost2010PropOp38
 70
     1
102
RTVSPost2010Prop39
140
1.0
102
RTVSPost2010PropOp39
 70
     1
102
RTVSPost2010Prop40
 90
        0
102
RTVSPost2010PropOp40
 70
     1
102
RTVSPost2010Prop41ColorIndex
 90
       18
102
RTVSPost2010Prop41ColorRGB
 90
        0
102
RTVSPost2010PropOp41
 70
     1
102
RTVSPost2010Prop42
 90
       50
102
RTVSPost2010PropOp42
 70
     1
102
RTVSPost2010Prop43
 90
        3
102
RTVSPost2010PropOp43
 70
     1
102
RTVSPost2010Prop44ColorIndex
 90
        5
102
RTVSPost2010Prop44ColorRGB
 90
      255
102
RTVSPost2010PropOp44
 70
     1
102
RTVSPost2010Prop45
280
     0
102
RTVSPost2010PropOp45
 70
     1
102
RTVSPost2010Prop46
 90
       50
102
RTVSPost2010PropOp46
 70
     1
102
RTVSPost2010Prop47
 90
       50
102
RTVSPost2010PropOp47
 70
     1
102
RTVSPost2010Prop48
 90
       50
102
RTVSPost2010PropOp48
 70
     1
102
RTVSPost2010Prop49
280
     0
102
RTVSPost2010PropOp49
 70
     1
102
RTVSPost2010Prop50
 90
       50
102
RTVSPost2010PropOp50
 70
     1
102
RTVSPost2010Prop51ColorIndex
 90
      256
102
RTVSPost2010Prop51ColorRGB
 90
-16777216
102
RTVSPost2010PropOp51
 70
     0
102
RTVSPost2010Prop52
140
1.0
102
RTVSPost2010PropOp52
 70
     0
102
RTVSPost2010Prop53
 90
        2
102
RTVSPost2010PropOp53
 70
     1
102
RTVSPost2010Prop54
  1
strokes_ogs.tif
102
RTVSPost2010PropOp54
 70
     1
102
RTVSPost2010Prop55
280
     0
102
RTVSPost2010PropOp55
 70
     1
102
RTVSPost2010Prop56
140
1.0
102
RTVSPost2010PropOp56
 70
     1
102
RTVSPost2010Prop57
140
1.0
102
RTVSPost2010PropOp57
 70
     1
  0
XRECORD
  5
146
102
{ACAD_REACTORS
330
145
102
}
330
145
100
AcDbXrecord
280
     1
102
RTVSPropertyOp0
 70
     1
102
RTVSPropertyOp1
 70
     1
102
RTVSPropertyOp2
 70
     1
102
RTVSPropertyOp3
 70
     1
102
RTVSPropertyOp4
 70
     1
102
RTVSPropertyOp5
 70
     1
102
RTVSPropertyOp6
 70
     1
102
RTVSPropertyOp7
 70
     1
102
RTVSPropertyOp8
 70
     1
102
RTVSPropertyOp9
 70
     1
102
RTVSPropertyOp10
 70
     1
102
RTVSPropertyOp11
 70
     1
102
RTVSPropertyOp12
 70
     1
102
RTVSPropertyOp13
 70
     1
102
RTVSPropertyOp14
 70
     1
102
RTVSPropertyOp15
 70
     1
102
RTVSPropertyOp16
 70
     1
102
RTVSPropertyOp17
 70
     1
102
RTVSPropertyOp18
 70
     1
102
RTVSPropertyOp19
 70
     1
102
RTVSPropertyOp20
 70
     1
102
RTVSPropertyOp21
 70
     1
102
RTVSPropertyOp22
 70
     1
102
RTVSPropertyOp23
 70
     1
102
RTVSPropertyOp24
 70
     1
102
RTVSPropertyOp25
 70
     1
102
RTVSPropertyOp26
 70
     1
102
RTVSPropertyOp27
 70
     1
102
RTVSPropertyOp28
 70
     1
102
RTVSPropertyOp29
 70
     1
102
RTVSPropertyOp30
 70
     1
102
RTVSPropertyOp31
 70
     1
102
RTVSPropertyOp32
 70
     1
102
RTVSPropertyOp33
 70
     1
102
RTVSPropertyOp34
 70
     1
102
RTVSPropertyOp35
 70
     1
102
RTVSPropertyOp36
 70
     1
102
RTVSPropertyOp37
 70
     1
102
RTVSPropertyOp38
 70
     1
102
RTVSPropertyOp39
 70
     1
102
RTVSPropertyOp40
 70
     1
102
RTVSPropertyOp41
 70
     1
102
RTVSPropertyOp42
 70
     1
102
RTVSPropertyOp43
 70
     1
102
RTVSPropertyOp44
 70
     1
102
RTVSPropertyOp45
 70
     1
102
RTVSPropertyOp46
 70
     1
102
RTVSPropertyOp47
 70
     1
102
RTVSPropertyOp48
 70
     1
102
RTVSPropertyOp49
 70
     1
102
RTVSPropertyOp50
 70
     1
102
RTVSPropertyOp51
 70
     0
102
RTVSPropertyOp52
 70
     0
102
RTVSPropertyOp53
 70
     1
102
RTVSPropertyOp54
 70
     1
102
RTVSPropertyOp55
 70
     1
102
RTVSPropertyOp56
 70
     1
102
RTVSPropertyOp57
 70
     1
102
RTVSPost2010Prop28
280
     0
102
RTVSPost2010PropOp28
 70
     1
102
RTVSPost2010Prop29
280
     1
102
RTVSPost2010PropOp29
 70
     1
102
RTVSPost2010Prop30
280
     1
102
RTVSPost2010PropOp30
 70
     1
102
RTVSPost2010Prop31
280
     0
102
RTVSPost2010PropOp31
 70
     1
102
RTVSPost2010Prop32
280
     0
102
RTVSPost2010PropOp32
 70
     1
102
RTVSPost2010Prop33
280
     0
102
RTVSPost2010PropOp33
 70
     1
102
RTVSPost2010Prop34
280
     0
102
RTVSPost2010PropOp34
 70
     1
102
RTVSPost2010Prop35
280
     0
102
RTVSPost2010PropOp35
 70
     1
102
RTVSPost2010Prop36
280
     0
102
RTVSPost2010PropOp36
 70
     1
102
RTVSPost2010Prop37
 90
       50
102
RTVSPost2010PropOp37
 70
     1
102
RTVSPost2010Prop38
140
0.0
102
RTVSPost2010PropOp38
 70
     1
102
RTVSPost2010Prop39
140
1.0
102
RTVSPost2010PropOp39
 70
     1
102
RTVSPost2010Prop40
 90
        0
102
RTVSPost2010PropOp40
 70
     1
102
RTVSPost2010Prop41ColorIndex
 90
       18
102
RTVSPost2010Prop41ColorRGB
 90
        0
102
RTVSPost2010PropOp41
 70
     1
102
RTVSPost2010Prop42
 90
       50
102
RTVSPost2010PropOp42
 70
     1
102
RTVSPost2010Prop43
 90
        3
102
RTVSPost2010PropOp43
 70
     1
102
RTVSPost2010Prop44ColorIndex
 90
        5
102
RTVSPost2010Prop44ColorRGB
 90
      255
102
RTVSPost2010PropOp44
 70
     1
102
RTVSPost2010Prop45
280
     0
102
RTVSPost2010PropOp45
 70
     1
102
RTVSPost2010Prop46
 90
       50
102
RTVSPost2010PropOp46
 70
     1
102
RTVSPost2010Prop47
 90
       50
102
RTVSPost2010PropOp47
 70
     1
102
RTVSPost2010Prop48
 90
       50
102
RTVSPost2010PropOp48
 70
     1
102
RTVSPost2010Prop49
280
     0
102
RTVSPost2010PropOp49
 70
     1
102
RTVSPost2010Prop50
 90
       50
102
RTVSPost2010PropOp50
 70
     1
102
RTVSPost2010Prop51ColorIndex
 90
      256
102
RTVSPost2010Prop51ColorRGB
 90
-16777216
102
RTVSPost2010PropOp51
 70
     0
102
RTVSPost2010Prop52
140
1.0
102
RTVSPost2010PropOp52
 70
     0
102
RTVSPost2010Prop53
 90
        2
102
RTVSPost2010PropOp53
 70
     1
102
RTVSPost2010Prop54
  1
strokes_ogs.tif
102
RTVSPost2010PropOp54
 70
     1
102
RTVSPost2010Prop55
280
     0
102
RTVSPost2010PropOp55
 70
     1
102
RTVSPost2010Prop56
140
1.0
102
RTVSPost2010PropOp56
 70
     1
102
RTVSPost2010Prop57
140
1.0
102
RTVSPost2010PropOp57
 70
     1
  0
XRECORD
  5
136
102
{ACAD_REACTORS
330
135
102
}
330
135
100
AcDbXrecord
280
     1
102
RTVSPropertyOp0
 70
     1
102
RTVSPropertyOp1
 70
     1
102
RTVSPropertyOp2
 70
     1
102
RTVSPropertyOp3
 70
     1
102
RTVSPropertyOp4
 70
     1
102
RTVSPropertyOp5
 70
     1
102
RTVSPropertyOp6
 70
     1
102
RTVSPropertyOp7
 70
     1
102
RTVSPropertyOp8
 70
     1
102
RTVSPropertyOp9
 70
     1
102
RTVSPropertyOp10
 70
     1
102
RTVSPropertyOp11
 70
     1
102
RTVSPropertyOp12
 70
     1
102
RTVSPropertyOp13
 70
     1
102
RTVSPropertyOp14
 70
     1
102
RTVSPropertyOp15
 70
     1
102
RTVSPropertyOp16
 70
     1
102
RTVSPropertyOp17
 70
     1
102
RTVSPropertyOp18
 70
     1
102
RTVSPropertyOp19
 70
     1
102
RTVSPropertyOp20
 70
     1
102
RTVSPropertyOp21
 70
     1
102
RTVSPropertyOp22
 70
     1
102
RTVSPropertyOp23
 70
     1
102
RTVSPropertyOp24
 70
     1
102
RTVSPropertyOp25
 70
     1
102
RTVSPropertyOp26
 70
     1
102
RTVSPropertyOp27
 70
     1
102
RTVSPropertyOp28
 70
     1
102
RTVSPropertyOp29
 70
     1
102
RTVSPropertyOp30
 70
     1
102
RTVSPropertyOp31
 70
     1
102
RTVSPropertyOp32
 70
     1
102
RTVSPropertyOp33
 70
     1
102
RTVSPropertyOp34
 70
     1
102
RTVSPropertyOp35
 70
     1
102
RTVSPropertyOp36
 70
     1
102
RTVSPropertyOp37
 70
     1
102
RTVSPropertyOp38
 70
     1
102
RTVSPropertyOp39
 70
     1
102
RTVSPropertyOp40
 70
     1
102
RTVSPropertyOp41
 70
     1
102
RTVSPropertyOp42
 70
     1
102
RTVSPropertyOp43
 70
     1
102
RTVSPropertyOp44
 70
     1
102
RTVSPropertyOp45
 70
     1
102
RTVSPropertyOp46
 70
     1
102
RTVSPropertyOp47
 70
     1
102
RTVSPropertyOp48
 70
     1
102
RTVSPropertyOp49
 70
     1
102
RTVSPropertyOp50
 70
     1
102
RTVSPropertyOp51
 70
     0
102
RTVSPropertyOp52
 70
     0
102
RTVSPropertyOp53
 70
     1
102
RTVSPropertyOp54
 70
     1
102
RTVSPropertyOp55
 70
     1
102
RTVSPropertyOp56
 70
     1
102
RTVSPropertyOp57
 70
     1
102
RTVSPost2010Prop28
280
     0
102
RTVSPost2010PropOp28
 70
     1
102
RTVSPost2010Prop29
280
     1
102
RTVSPost2010PropOp29
 70
     1
102
RTVSPost2010Prop30
280
     1
102
RTVSPost2010PropOp30
 70
     1
102
RTVSPost2010Prop31
280
     0
102
RTVSPost2010PropOp31
 70
     1
102
RTVSPost2010Prop32
280
     0
102
RTVSPost2010PropOp32
 70
     1
102
RTVSPost2010Prop33
280
     0
102
RTVSPost2010PropOp33
 70
     1
102
RTVSPost2010Prop34
280
     0
102
RTVSPost2010PropOp34
 70
     1
102
RTVSPost2010Prop35
280
     0
102
RTVSPost2010PropOp35
 70
     1
102
RTVSPost2010Prop36
280
     0
102
RTVSPost2010PropOp36
 70
     1
102
RTVSPost2010Prop37
 90
       50
102
RTVSPost2010PropOp37
 70
     1
102
RTVSPost2010Prop38
140
0.0
102
RTVSPost2010PropOp38
 70
     1
102
RTVSPost2010Prop39
140
1.0
102
RTVSPost2010PropOp39
 70
     1
102
RTVSPost2010Prop40
 90
        0
102
RTVSPost2010PropOp40
 70
     1
102
RTVSPost2010Prop41ColorIndex
 90
       18
102
RTVSPost2010Prop41ColorRGB
 90
        0
102
RTVSPost2010PropOp41
 70
     1
102
RTVSPost2010Prop42
 90
       50
102
RTVSPost2010PropOp42
 70
     1
102
RTVSPost2010Prop43
 90
        3
102
RTVSPost2010PropOp43
 70
     1
102
RTVSPost2010Prop44ColorIndex
 90
        5
102
RTVSPost2010Prop44ColorRGB
 90
      255
102
RTVSPost2010PropOp44
 70
     1
102
RTVSPost2010Prop45
280
     0
102
RTVSPost2010PropOp45
 70
     1
102
RTVSPost2010Prop46
 90
       50
102
RTVSPost2010PropOp46
 70
     1
102
RTVSPost2010Prop47
 90
       50
102
RTVSPost2010PropOp47
 70
     1
102
RTVSPost2010Prop48
 90
       50
102
RTVSPost2010PropOp48
 70
     1
102
RTVSPost2010Prop49
280
     0
102
RTVSPost2010PropOp49
 70
     1
102
RTVSPost2010Prop50
 90
       50
102
RTVSPost2010PropOp50
 70
     1
102
RTVSPost2010Prop51ColorIndex
 90
      256
102
RTVSPost2010Prop51ColorRGB
 90
-16777216
102
RTVSPost2010PropOp51
 70
     0
102
RTVSPost2010Prop52
140
1.0
102
RTVSPost2010PropOp52
 70
     0
102
RTVSPost2010Prop53
 90
        2
102
RTVSPost2010PropOp53
 70
     1
102
RTVSPost2010Prop54
  1
strokes_ogs.tif
102
RTVSPost2010PropOp54
 70
     1
102
RTVSPost2010Prop55
280
     0
102
RTVSPost2010PropOp55
 70
     1
102
RTVSPost2010Prop56
140
1.0
102
RTVSPost2010PropOp56
 70
     1
102
RTVSPost2010Prop57
140
1.0
102
RTVSPost2010PropOp57
 70
     1
  0
XRECORD
  5
128
102
{ACAD_REACTORS
330
127
102
}
330
127
100
AcDbXrecord
280
     1
102
RTVSPropertyOp0
 70
     1
102
RTVSPropertyOp1
 70
     1
102
RTVSPropertyOp2
 70
     1
102
RTVSPropertyOp3
 70
     1
102
RTVSPropertyOp4
 70
     1
102
RTVSPropertyOp5
 70
     1
102
RTVSPropertyOp6
 70
     1
102
RTVSPropertyOp7
 70
     1
102
RTVSPropertyOp8
 70
     1
102
RTVSPropertyOp9
 70
     1
102
RTVSPropertyOp10
 70
     1
102
RTVSPropertyOp11
 70
     1
102
RTVSPropertyOp12
 70
     1
102
RTVSPropertyOp13
 70
     1
102
RTVSPropertyOp14
 70
     1
102
RTVSPropertyOp15
 70
     1
102
RTVSPropertyOp16
 70
     1
102
RTVSPropertyOp17
 70
     1
102
RTVSPropertyOp18
 70
     1
102
RTVSPropertyOp19
 70
     1
102
RTVSPropertyOp20
 70
     1
102
RTVSPropertyOp21
 70
     1
102
RTVSPropertyOp22
 70
     1
102
RTVSPropertyOp23
 70
     1
102
RTVSPropertyOp24
 70
     1
102
RTVSPropertyOp25
 70
     1
102
RTVSPropertyOp26
 70
     1
102
RTVSPropertyOp27
 70
     1
102
RTVSPropertyOp28
 70
     1
102
RTVSPropertyOp29
 70
     1
102
RTVSPropertyOp30
 70
     1
102
RTVSPropertyOp31
 70
     1
102
RTVSPropertyOp32
 70
     1
102
RTVSPropertyOp33
 70
     1
102
RTVSPropertyOp34
 70
     1
102
RTVSPropertyOp35
 70
     1
102
RTVSPropertyOp36
 70
     1
102
RTVSPropertyOp37
 70
     1
102
RTVSPropertyOp38
 70
     1
102
RTVSPropertyOp39
 70
     1
102
RTVSPropertyOp40
 70
     1
102
RTVSPropertyOp41
 70
     1
102
RTVSPropertyOp42
 70
     1
102
RTVSPropertyOp43
 70
     1
102
RTVSPropertyOp44
 70
     1
102
RTVSPropertyOp45
 70
     1
102
RTVSPropertyOp46
 70
     1
102
RTVSPropertyOp47
 70
     1
102
RTVSPropertyOp48
 70
     1
102
RTVSPropertyOp49
 70
     1
102
RTVSPropertyOp50
 70
     1
102
RTVSPropertyOp51
 70
     0
102
RTVSPropertyOp52
 70
     0
102
RTVSPropertyOp53
 70
     1
102
RTVSPropertyOp54
 70
     1
102
RTVSPropertyOp55
 70
     1
102
RTVSPropertyOp56
 70
     1
102
RTVSPropertyOp57
 70
     1
102
RTVSPost2010Prop28
280
     0
102
RTVSPost2010PropOp28
 70
     1
102
RTVSPost2010Prop29
280
     1
102
RTVSPost2010PropOp29
 70
     1
102
RTVSPost2010Prop30
280
     1
102
RTVSPost2010PropOp30
 70
     1
102
RTVSPost2010Prop31
280
     0
102
RTVSPost2010PropOp31
 70
     1
102
RTVSPost2010Prop32
280
     0
102
RTVSPost2010PropOp32
 70
     1
102
RTVSPost2010Prop33
280
     0
102
RTVSPost2010PropOp33
 70
     1
102
RTVSPost2010Prop34
280
     0
102
RTVSPost2010PropOp34
 70
     1
102
RTVSPost2010Prop35
280
     0
102
RTVSPost2010PropOp35
 70
     1
102
RTVSPost2010Prop36
280
     0
102
RTVSPost2010PropOp36
 70
     1
102
RTVSPost2010Prop37
 90
       50
102
RTVSPost2010PropOp37
 70
     1
102
RTVSPost2010Prop38
140
0.0
102
RTVSPost2010PropOp38
 70
     1
102
RTVSPost2010Prop39
140
1.0
102
RTVSPost2010PropOp39
 70
     1
102
RTVSPost2010Prop40
 90
        0
102
RTVSPost2010PropOp40
 70
     1
102
RTVSPost2010Prop41ColorIndex
 90
       18
102
RTVSPost2010Prop41ColorRGB
 90
        0
102
RTVSPost2010PropOp41
 70
     1
102
RTVSPost2010Prop42
 90
       50
102
RTVSPost2010PropOp42
 70
     1
102
RTVSPost2010Prop43
 90
        3
102
RTVSPost2010PropOp43
 70
     1
102
RTVSPost2010Prop44ColorIndex
 90
        5
102
RTVSPost2010Prop44ColorRGB
 90
      255
102
RTVSPost2010PropOp44
 70
     1
102
RTVSPost2010Prop45
280
     0
102
RTVSPost2010PropOp45
 70
     1
102
RTVSPost2010Prop46
 90
       50
102
RTVSPost2010PropOp46
 70
     1
102
RTVSPost2010Prop47
 90
       50
102
RTVSPost2010PropOp47
 70
     1
102
RTVSPost2010Prop48
 90
       50
102
RTVSPost2010PropOp48
 70
     1
102
RTVSPost2010Prop49
280
     0
102
RTVSPost2010PropOp49
 70
     1
102
RTVSPost2010Prop50
 90
       50
102
RTVSPost2010PropOp50
 70
     1
102
RTVSPost2010Prop51ColorIndex
 90
      256
102
RTVSPost2010Prop51ColorRGB
 90
-16777216
102
RTVSPost2010PropOp51
 70
     0
102
RTVSPost2010Prop52
140
1.0
102
RTVSPost2010PropOp52
 70
     0
102
RTVSPost2010Prop53
 90
        2
102
RTVSPost2010PropOp53
 70
     1
102
RTVSPost2010Prop54
  1
strokes_ogs.tif
102
RTVSPost2010PropOp54
 70
     1
102
RTVSPost2010Prop55
280
     0
102
RTVSPost2010PropOp55
 70
     1
102
RTVSPost2010Prop56
140
1.0
102
RTVSPost2010PropOp56
 70
     1
102
RTVSPost2010Prop57
140
1.0
102
RTVSPost2010PropOp57
 70
     1
  0
XRECORD
  5
148
102
{ACAD_REACTORS
330
147
102
}
330
147
100
AcDbXrecord
280
     1
102
RTVSPropertyOp0
 70
     1
102
RTVSPropertyOp1
 70
     1
102
RTVSPropertyOp2
 70
     1
102
RTVSPropertyOp3
 70
     1
102
RTVSPropertyOp4
 70
     1
102
RTVSPropertyOp5
 70
     1
102
RTVSPropertyOp6
 70
     1
102
RTVSPropertyOp7
 70
     1
102
RTVSPropertyOp8
 70
     1
102
RTVSPropertyOp9
 70
     1
102
RTVSPropertyOp10
 70
     1
102
RTVSPropertyOp11
 70
     1
102
RTVSPropertyOp12
 70
     1
102
RTVSPropertyOp13
 70
     1
102
RTVSPropertyOp14
 70
     1
102
RTVSPropertyOp15
 70
     1
102
RTVSPropertyOp16
 70
     1
102
RTVSPropertyOp17
 70
     1
102
RTVSPropertyOp18
 70
     1
102
RTVSPropertyOp19
 70
     1
102
RTVSPropertyOp20
 70
     1
102
RTVSPropertyOp21
 70
     1
102
RTVSPropertyOp22
 70
     1
102
RTVSPropertyOp23
 70
     1
102
RTVSPropertyOp24
 70
     1
102
RTVSPropertyOp25
 70
     1
102
RTVSPropertyOp26
 70
     1
102
RTVSPropertyOp27
 70
     1
102
RTVSPropertyOp28
 70
     1
102
RTVSPropertyOp29
 70
     1
102
RTVSPropertyOp30
 70
     1
102
RTVSPropertyOp31
 70
     1
102
RTVSPropertyOp32
 70
     1
102
RTVSPropertyOp33
 70
     1
102
RTVSPropertyOp34
 70
     1
102
RTVSPropertyOp35
 70
     1
102
RTVSPropertyOp36
 70
     1
102
RTVSPropertyOp37
 70
     1
102
RTVSPropertyOp38
 70
     1
102
RTVSPropertyOp39
 70
     1
102
RTVSPropertyOp40
 70
     1
102
RTVSPropertyOp41
 70
     1
102
RTVSPropertyOp42
 70
     1
102
RTVSPropertyOp43
 70
     1
102
RTVSPropertyOp44
 70
     1
102
RTVSPropertyOp45
 70
     1
102
RTVSPropertyOp46
 70
     1
102
RTVSPropertyOp47
 70
     1
102
RTVSPropertyOp48
 70
     1
102
RTVSPropertyOp49
 70
     1
102
RTVSPropertyOp50
 70
     1
102
RTVSPropertyOp51
 70
     0
102
RTVSPropertyOp52
 70
     0
102
RTVSPropertyOp53
 70
     1
102
RTVSPropertyOp54
 70
     1
102
RTVSPropertyOp55
 70
     1
102
RTVSPropertyOp56
 70
     1
102
RTVSPropertyOp57
 70
     1
102
RTVSPost2010Prop28
280
     0
102
RTVSPost2010PropOp28
 70
     1
102
RTVSPost2010Prop29
280
     1
102
RTVSPost2010PropOp29
 70
     1
102
RTVSPost2010Prop30
280
     1
102
RTVSPost2010PropOp30
 70
     1
102
RTVSPost2010Prop31
280
     0
102
RTVSPost2010PropOp31
 70
     1
102
RTVSPost2010Prop32
280
     0
102
RTVSPost2010PropOp32
 70
     1
102
RTVSPost2010Prop33
280
     0
102
RTVSPost2010PropOp33
 70
     1
102
RTVSPost2010Prop34
280
     0
102
RTVSPost2010PropOp34
 70
     1
102
RTVSPost2010Prop35
280
     0
102
RTVSPost2010PropOp35
 70
     1
102
RTVSPost2010Prop36
280
     0
102
RTVSPost2010PropOp36
 70
     1
102
RTVSPost2010Prop37
 90
       50
102
RTVSPost2010PropOp37
 70
     1
102
RTVSPost2010Prop38
140
0.0
102
RTVSPost2010PropOp38
 70
     1
102
RTVSPost2010Prop39
140
1.0
102
RTVSPost2010PropOp39
 70
     1
102
RTVSPost2010Prop40
 90
        0
102
RTVSPost2010PropOp40
 70
     1
102
RTVSPost2010Prop41ColorIndex
 90
       18
102
RTVSPost2010Prop41ColorRGB
 90
        0
102
RTVSPost2010PropOp41
 70
     1
102
RTVSPost2010Prop42
 90
       50
102
RTVSPost2010PropOp42
 70
     1
102
RTVSPost2010Prop43
 90
        3
102
RTVSPost2010PropOp43
 70
     1
102
RTVSPost2010Prop44ColorIndex
 90
        5
102
RTVSPost2010Prop44ColorRGB
 90
      255
102
RTVSPost2010PropOp44
 70
     1
102
RTVSPost2010Prop45
280
     0
102
RTVSPost2010PropOp45
 70
     1
102
RTVSPost2010Prop46
 90
       50
102
RTVSPost2010PropOp46
 70
     1
102
RTVSPost2010Prop47
 90
       50
102
RTVSPost2010PropOp47
 70
     1
102
RTVSPost2010Prop48
 90
       50
102
RTVSPost2010PropOp48
 70
     1
102
RTVSPost2010Prop49
280
     0
102
RTVSPost2010PropOp49
 70
     1
102
RTVSPost2010Prop50
 90
       50
102
RTVSPost2010PropOp50
 70
     1
102
RTVSPost2010Prop51ColorIndex
 90
      256
102
RTVSPost2010Prop51ColorRGB
 90
-16777216
102
RTVSPost2010PropOp51
 70
     0
102
RTVSPost2010Prop52
140
1.0
102
RTVSPost2010PropOp52
 70
     0
102
RTVSPost2010Prop53
 90
        2
102
RTVSPost2010PropOp53
 70
     1
102
RTVSPost2010Prop54
  1
strokes_ogs.tif
102
RTVSPost2010PropOp54
 70
     1
102
RTVSPost2010Prop55
280
     0
102
RTVSPost2010PropOp55
 70
     1
102
RTVSPost2010Prop56
140
1.0
102
RTVSPost2010PropOp56
 70
     1
102
RTVSPost2010Prop57
140
1.0
102
RTVSPost2010PropOp57
 70
     1
  0
ENDSEC
  0
EOF
