  0
SECTION
  2
HEADER
  9
$ACADVER
  1
AC1021
  9
$ACADMAINTVER
 70
    25
  9
$DWGCODEPAGE
  3
ANSI_1252
  9
$INSBASE
 10
0.0
 20
0.0
 30
0.0
  9
$EXTMIN
 10
1.000000000000000E+20
 20
1.000000000000000E+20
 30
1.000000000000000E+20
  9
$EXTMAX
 10
-1.000000000000000E+20
 20
-1.000000000000000E+20
 30
-1.000000000000000E+20
  9
$LIMMIN
 10
0.0
 20
0.0
  9
$LIMMAX
 10
12.0
 20
9.0
  9
$ORTHOMODE
 70
     0
  9
$REGENMODE
 70
     1
  9
$FILLMODE
 70
     1
  9
$QTEXTMODE
 70
     0
  9
$MIRRTEXT
 70
     1
  9
$LTSCALE
 40
1.0
  9
$ATTMODE
 70
     1
  9
$TEXTSIZE
 40
0.2
  9
$TRACEWID
 40
0.05
  9
$TEXTSTYLE
  7
Standard
  9
$CLAYER
  8
0
  9
$CELTYPE
  6
ByLayer
  9
$CECOLOR
 62
   256
  9
$CELTSCALE
 40
1.0
  9
$DISPSILH
 70
     0
  9
$DIMSCALE
 40
1.0
  9
$DIMASZ
 40
0.18
  9
$DIMEXO
 40
0.0625
  9
$DIMDLI
 40
0.38
  9
$DIMRND
 40
0.0
  9
$DIMDLE
 40
0.0
  9
$DIMEXE
 40
0.18
  9
$DIMTP
 40
0.0
  9
$DIMTM
 40
0.0
  9
$DIMTXT
 40
0.18
  9
$DIMCEN
 40
0.09
  9
$DIMTSZ
 40
0.0
  9
$DIMTOL
 70
     0
  9
$DIMLIM
 70
     0
  9
$DIMTIH
 70
     1
  9
$DIMTOH
 70
     1
  9
$DIMSE1
 70
     0
  9
$DIMSE2
 70
     0
  9
$DIMTAD
 70
     0
  9
$DIMZIN
 70
     0
  9
$DIMBLK
  1

  9
$DIMASO
 70
     1
  9
$DIMSHO
 70
     1
  9
$DIMPOST
  1

  9
$DIMAPOST
  1

  9
$DIMALT
 70
     0
  9
$DIMALTD
 70
     2
  9
$DIMALTF
 40
25.4
  9
$DIMLFAC
 40
1.0
  9
$DIMTOFL
 70
     0
  9
$DIMTVP
 40
0.0
  9
$DIMTIX
 70
     0
  9
$DIMSOXD
 70
     0
  9
$DIMSAH
 70
     0
  9
$DIMBLK1
  1

  9
$DIMBLK2
  1

  9
$DIMSTYLE
  2
STANDARD_ACAD
  9
$DIMCLRD
 70
     0
  9
$DIMCLRE
 70
     0
  9
$DIMCLRT
 70
     0
  9
$DIMTFAC
 40
1.0
  9
$DIMGAP
 40
0.09
  9
$DIMJUST
 70
     0
  9
$DIMSD1
 70
     0
  9
$DIMSD2
 70
     0
  9
$DIMTOLJ
 70
     1
  9
$DIMTZIN
 70
     0
  9
$DIMALTZ
 70
     0
  9
$DIMALTTZ
 70
     0
  9
$DIMUPT
 70
     0
  9
$DIMDEC
 70
     4
  9
$DIMTDEC
 70
     4
  9
$DIMALTU
 70
     2
  9
$DIMALTTD
 70
     2
  9
$DIMTXSTY
  7
Standard
  9
$DIMAUNIT
 70
     0
  9
$DIMADEC
 70
     0
  9
$DIMALTRND
 40
0.0
  9
$DIMAZIN
 70
     0
  9
$DIMDSEP
 70
    46
  9
$DIMATFIT
 70
     3
  9
$DIMFRAC
 70
     0
  9
$DIMLDRBLK
  1

  9
$DIMLUNIT
 70
     2
  9
$DIMLWD
 70
    -2
  9
$DIMLWE
 70
    -2
  9
$DIMTMOVE
 70
     2
  9
$DIMFXL
 40
1.0
  9
$DIMFXLON
 70
     0
  9
$DIMJOGANG
 40
0.7853981633974483
  9
$DIMTFILL
 70
     0
  9
$DIMTFILLCLR
 70
     0
  9
$DIMARCSYM
 70
     0
  9
$DIMLTYPE
  6

  9
$DIMLTEX1
  6

  9
$DIMLTEX2
  6

  9
$LUNITS
 70
     2
  9
$LUPREC
 70
     3
  9
$SKETCHINC
 40
0.1
  9
$FILLETRAD
 40
0.5
  9
$AUNITS
 70
     0
  9
$AUPREC
 70
     0
  9
$MENU
  1
.
  9
$ELEVATION
 40
0.0
  9
$PELEVATION
 40
0.0
  9
$THICKNESS
 40
0.0
  9
$LIMCHECK
 70
     0
  9
$CHAMFERA
 40
0.0
  9
$CHAMFERB
 40
0.0
  9
$CHAMFERC
 40
0.0
  9
$CHAMFERD
 40
0.0
  9
$SKPOLY
 70
     0
  9
$TDCREATE
 40
2459174.697128333
  9
$TDUCREATE
 40
2459174.905461667
  9
$TDUPDATE
 40
2459174.697141065
  9
$TDUUPDATE
 40
2459174.905474398
  9
$TDINDWG
 40
0.0000000116
  9
$TDUSRTIMER
 40
0.0000000116
  9
$USRTIMER
 70
     1
  9
$ANGBASE
 50
0.0
  9
$ANGDIR
 70
     0
  9
$PDMODE
 70
     0
  9
$PDSIZE
 40
0.0
  9
$PLINEWID
 40
0.0
  9
$SPLFRAME
 70
     0
  9
$SPLINETYPE
 70
     6
  9
$SPLINESEGS
 70
     8
  9
$HANDSEED
  5
1AD
  9
$SURFTAB1
 70
     6
  9
$SURFTAB2
 70
     6
  9
$SURFTYPE
 70
     6
  9
$SURFU
 70
     6
  9
$SURFV
 70
     6
  9
$UCSBASE
  2

  9
$UCSNAME
  2

  9
$UCSORG
 10
0.0
 20
0.0
 30
0.0
  9
$UCSXDIR
 10
1.0
 20
0.0
 30
0.0
  9
$UCSYDIR
 10
0.0
 20
1.0
 30
0.0
  9
$UCSORTHOREF
  2

  9
$UCSORTHOVIEW
 70
     0
  9
$UCSORGTOP
 10
0.0
 20
0.0
 30
0.0
  9
$UCSORGBOTTOM
 10
0.0
 20
0.0
 30
0.0
  9
$UCSORGLEFT
 10
0.0
 20
0.0
 30
0.0
  9
$UCSORGRIGHT
 10
0.0
 20
0.0
 30
0.0
  9
$UCSORGFRONT
 10
0.0
 20
0.0
 30
0.0
  9
$UCSORGBACK
 10
0.0
 20
0.0
 30
0.0
  9
$PUCSBASE
  2

  9
$PUCSNAME
  2

  9
$PUCSORG
 10
0.0
 20
0.0
 30
0.0
  9
$PUCSXDIR
 10
1.0
 20
0.0
 30
0.0
  9
$PUCSYDIR
 10
0.0
 20
1.0
 30
0.0
  9
$PUCSORTHOREF
  2

  9
$PUCSORTHOVIEW
 70
     0
  9
$PUCSORGTOP
 10
0.0
 20
0.0
 30
0.0
  9
$PUCSORGBOTTOM
 10
0.0
 20
0.0
 30
0.0
  9
$PUCSORGLEFT
 10
0.0
 20
0.0
 30
0.0
  9
$PUCSORGRIGHT
 10
0.0
 20
0.0
 30
0.0
  9
$PUCSORGFRONT
 10
0.0
 20
0.0
 30
0.0
  9
$PUCSORGBACK
 10
0.0
 20
0.0
 30
0.0
  9
$USERI1
 70
     0
  9
$USERI2
 70
     0
  9
$USERI3
 70
     0
  9
$USERI4
 70
     0
  9
$USERI5
 70
     0
  9
$USERR1
 40
0.0
  9
$USERR2
 40
0.0
  9
$USERR3
 40
0.0
  9
$USERR4
 40
0.0
  9
$USERR5
 40
0.0
  9
$WORLDVIEW
 70
     1
  9
$SHADEDGE
 70
     3
  9
$SHADEDIF
 70
    70
  9
$TILEMODE
 70
     1
  9
$MAXACTVP
 70
    64
  9
$PINSBASE
 10
0.0
 20
0.0
 30
0.0
  9
$PLIMCHECK
 70
     0
  9
$PEXTMIN
 10
1.000000000000000E+20
 20
1.000000000000000E+20
 30
1.000000000000000E+20
  9
$PEXTMAX
 10
-1.000000000000000E+20
 20
-1.000000000000000E+20
 30
-1.000000000000000E+20
  9
$PLIMMIN
 10
0.0
 20
0.0
  9
$PLIMMAX
 10
12.0
 20
9.0
  9
$UNITMODE
 70
     0
  9
$VISRETAIN
 70
     1
  9
$PLINEGEN
 70
     0
  9
$PSLTSCALE
 70
     1
  9
$TREEDEPTH
 70
  3020
  9
$CMLSTYLE
  2
Standard
  9
$CMLJUST
 70
     0
  9
$CMLSCALE
 40
1.0
  9
$PROXYGRAPHICS
 70
     1
  9
$MEASUREMENT
 70
     0
  9
$CELWEIGHT
370
    -1
  9
$ENDCAPS
280
     0
  9
$JOINSTYLE
280
     0
  9
$LWDISPLAY
290
     0
  9
$INSUNITS
 70
     1
  9
$HYPERLINKBASE
  1

  9
$STYLESHEET
  1

  9
$XEDIT
290
     1
  9
$CEPSNTYPE
380
     0
  9
$PSTYLEMODE
290
     1
  9
$FINGERPRINTGUID
  2
{a1d0648a-1d31-45a9-a1a8-4f0b9a6ea3d8}
  9
$VERSIONGUID
  2
{FAEB1C32-E019-11D5-929B-00C0DF256EC4}
  9
$EXTNAMES
290
     1
  9
$PSVPSCALE
 40
0.0
  9
$OLESTARTUP
290
     0
  9
$SORTENTS
280
   127
  9
$INDEXCTL
280
     0
  9
$HIDETEXT
280
     1
  9
$XCLIPFRAME
290
     0
  9
$HALOGAP
280
     0
  9
$OBSCOLOR
 70
   257
  9
$OBSLTYPE
280
     0
  9
$INTERSECTIONDISPLAY
280
     0
  9
$INTERSECTIONCOLOR
 70
   257
  9
$DIMASSOC
280
     2
  9
$PROJECTNAME
  1

  9
$CAMERADISPLAY
290
     0
  9
$LENSLENGTH
 40
50.0
  9
$CAMERAHEIGHT
 40
0.0
  9
$STEPSPERSEC
 40
2.0
  9
$STEPSIZE
 40
6.0
  9
$3DDWFPREC
 40
2.0
  9
$PSOLWIDTH
 40
0.25
  9
$PSOLHEIGHT
 40
4.0
  9
$LOFTANG1
 40
1.570796326794897
  9
$LOFTANG2
 40
1.570796326794897
  9
$LOFTMAG1
 40
0.0
  9
$LOFTMAG2
 40
0.0
  9
$LOFTPARAM
 70
     7
  9
$LOFTNORMALS
280
     1
  9
$LATITUDE
 40
37.795
  9
$LONGITUDE
 40
-122.394
  9
$NORTHDIRECTION
 40
0.0
  9
$TIMEZONE
 70
 -8000
  9
$LIGHTGLYPHDISPLAY
280
     1
  9
$TILEMODELIGHTSYNCH
280
     1
  9
$CMATERIAL
347
44
  9
$SOLIDHIST
280
     0
  9
$SHOWHIST
280
     1
  9
$DWFFRAME
280
     2
  9
$DGNFRAME
280
     2
  9
$REALWORLDSCALE
290
     1
  9
$INTERFERECOLOR
 62
   256
  9
$CSHADOW
280
     0
  9
$SHADOWPLANELOCATION
 40
0.0
  0
ENDSEC
  0
SECTION
  2
CLASSES
  0
CLASS
  1
ACDBDICTIONARYWDFLT
  2
AcDbDictionaryWithDefault
  3
ObjectDBX Classes
 90
        0
 91
        3
280
     0
281
     0
  0
CLASS
  1
VISUALSTYLE
  2
AcDbVisualStyle
  3
ObjectDBX Classes
 90
     4095
 91
        3
280
     0
281
     0
  0
CLASS
  1
MATERIAL
  2
AcDbMaterial
  3
ObjectDBX Classes
 90
     1153
 91
        3
280
     0
281
     0
  0
CLASS
  1
SCALE
  2
AcDbScale
  3
ObjectDBX Classes
 90
     1153
 91
        3
280
     0
281
     0
  0
CLASS
  1
TABLESTYLE
  2
AcDbTableStyle
  3
ObjectDBX Classes
 90
     4095
 91
        3
280
     0
281
     0
  0
CLASS
  1
MLEADERSTYLE
  2
AcDbMLeaderStyle
  3
ACDB_MLEADERSTYLE_CLASS
 90
     4095
 91
        3
280
     0
281
     0
  0
CLASS
  1
SUN
  2
AcDbSun
  3
SCENEOE
 90
     1153
 91
        3
280
     0
281
     0
  0
CLASS
  1
DICTIONARYVAR
  2
AcDbDictionaryVar
  3
ObjectDBX Classes
 90
        0
 91
        3
280
     0
281
     0
  0
CLASS
  1
CELLSTYLEMAP
  2
AcDbCellStyleMap
  3
ObjectDBX Classes
 90
     1152
 91
        3
280
     0
281
     0
  0
ENDSEC
  0
SECTION
  2
TABLES
  0
TABLE
  2
VPORT
  5
8
330
0
100
AcDbSymbolTable
 70
     1
  0
VPORT
  5
29
330
8
100
AcDbSymbolTableRecord
100
AcDbViewportTableRecord
  2
*Active
 70
     0
 10
0.0
 20
0.0
 11
1.0
 21
1.0
 12
10.42990654205607
 22
4.5
 13
0.0
 23
0.0
 14
0.5
 24
0.5
 15
0.5
 25
0.5
 16
0.0
 26
0.0
 36
1.0
 17
0.0
 27
0.0
 37
0.0
 40
9.0
 41
1.972972972850329
 42
50.0
 43
0.0
 44
0.0
 50
0.0
 51
0.0
 71
     0
 72
   100
 73
     1
 74
     3
 75
     0
 76
     0
 77
     0
 78
     0
281
     0
 65
     1
110
0.0
120
0.0
130
0.0
111
1.0
121
0.0
131
0.0
112
0.0
122
1.0
132
0.0
 79
     0
146
0.0
348
2F
 60
     3
 61
     5
292
     1
282
     1
141
0.0
142
0.0
 63
   250
361
6D
  0
ENDTAB
  0
TABLE
  2
LTYPE
  5
5
330
0
100
AcDbSymbolTable
 70
     1
  0
LTYPE
  5
14
330
5
100
AcDbSymbolTableRecord
100
AcDbLinetypeTableRecord
  2
ByBlock
 70
     0
  3

 72
    65
 73
     0
 40
0.0
  0
LTYPE
  5
15
330
5
100
AcDbSymbolTableRecord
100
AcDbLinetypeTableRecord
  2
ByLayer
 70
     0
  3

 72
    65
 73
     0
 40
0.0
  0
LTYPE
  5
16
330
5
100
AcDbSymbolTableRecord
100
AcDbLinetypeTableRecord
  2
Continuous
 70
     0
  3
Solid line
 72
    65
 73
     0
 40
0.0
  0
ENDTAB
  0
TABLE
  2
LAYER
  5
2
330
0
100
AcDbSymbolTable
 70
     3
  0
LAYER
  5
10
330
2
100
AcDbSymbolTableRecord
100
AcDbLayerTableRecord
  2
0
 70
     0
 62
    18
420
        0
  6
Continuous
370
    -3
390
F
347
46
  0
LAYER
  5
137
330
2
100
AcDbSymbolTableRecord
100
AcDbLayerTableRecord
  2
Make2D$Visible$Tangents
 70
     0
 62
    18
420
        0
  6
Continuous
370
    -3
390
F
347
46
  0
LAYER
  5
14B
330
2
100
AcDbSymbolTableRecord
100
AcDbLayerTableRecord
  2
Make2D$Visible$Curves
 70
     0
 62
    18
420
        0
  6
Continuous
370
    -3
390
F
347
46
  0
ENDTAB
  0
TABLE
  2
STYLE
  5
3
330
0
100
AcDbSymbolTable
 70
     1
  0
STYLE
  5
11
330
3
100
AcDbSymbolTableRecord
100
AcDbTextStyleTableRecord
  2
Standard
 70
     0
 40
0.0
 41
1.0
 50
0.0
 71
     0
 42
0.2
  3
txt
  4

  0
ENDTAB
  0
TABLE
  2
VIEW
  5
6
330
0
100
AcDbSymbolTable
 70
     0
  0
ENDTAB
  0
TABLE
  2
UCS
  5
7
330
0
100
AcDbSymbolTable
 70
     0
  0
ENDTAB
  0
TABLE
  2
APPID
  5
9
330
0
100
AcDbSymbolTable
 70
     2
  0
APPID
  5
12
330
9
100
AcDbSymbolTableRecord
100
AcDbRegAppTableRecord
  2
ACAD
 70
     0
  0
APPID
  5
1A5
330
9
100
AcDbSymbolTableRecord
100
AcDbRegAppTableRecord
  2
ACAD_MLEADERVER
 70
     0
  0
ENDTAB
  0
TABLE
  2
DIMSTYLE
  5
A
330
0
100
AcDbSymbolTable
 70
     1
100
AcDbDimStyleTable
  0
DIMSTYLE
105
27
330
A
100
AcDbSymbolTableRecord
100
AcDbDimStyleTableRecord
  2
STANDARD_ACAD
 70
     0
178
     0
340
11
  0
ENDTAB
  0
TABLE
  2
BLOCK_RECORD
  5
1
330
0
100
AcDbSymbolTable
 70
     1
  0
BLOCK_RECORD
  5
1F
330
1
100
AcDbSymbolTableRecord
100
AcDbBlockTableRecord
  2
*Model_Space
340
22
 70
     0
280
     1
281
     0
  0
BLOCK_RECORD
  5
1B
330
1
100
AcDbSymbolTableRecord
100
AcDbBlockTableRecord
  2
*Paper_Space
340
1E
 70
     0
280
     1
281
     0
  0
BLOCK_RECORD
  5
23
330
1
100
AcDbSymbolTableRecord
100
AcDbBlockTableRecord
  2
*Paper_Space0
340
26
 70
     0
280
     1
281
     0
  0
ENDTAB
  0
ENDSEC
  0
SECTION
  2
BLOCKS
  0
BLOCK
  5
20
330
1F
100
AcDbEntity
  8
0
100
AcDbBlockBegin
  2
*Model_Space
 70
     0
 10
0.0
 20
0.0
 30
0.0
  3
*Model_Space
  1

  0
ENDBLK
  5
21
330
1F
100
AcDbEntity
  8
0
100
AcDbBlockEnd
  0
BLOCK
  5
1C
330
1B
100
AcDbEntity
 67
     1
  8
0
100
AcDbBlockBegin
  2
*Paper_Space
 70
     0
 10
0.0
 20
0.0
 30
0.0
  3
*Paper_Space
  1

  0
ENDBLK
  5
1D
330
1B
100
AcDbEntity
 67
     1
  8
0
100
AcDbBlockEnd
  0
BLOCK
  5
24
330
23
100
AcDbEntity
  8
0
100
AcDbBlockBegin
  2
*Paper_Space0
 70
     0
 10
0.0
 20
0.0
 30
0.0
  3
*Paper_Space0
  1

  0
ENDBLK
  5
25
330
23
100
AcDbEntity
  8
0
100
AcDbBlockEnd
  0
ENDSEC
  0
SECTION
  2
ENTITIES
  0
SPLINE
  5
6E
330
1F
100
AcDbEntity
  8
0
370
    -3
100
AcDbSpline
210
0.0
220
0.0
230
1.0
 70
     8
 71
     5
 72
    14
 73
     8
 74
     0
 42
0.000000001
 43
0.0000000001
 40
0.494008673394144
 40
0.494008673394144
 40
0.494008673394144
 40
0.494008673394144
 40
0.494008673394144
 40
0.494008673394144
 40
0.6458742737662996
 40
0.7344057059999994
 40
0.7745734792308949
 40
0.7745734792308949
 40
0.7745734792308949
 40
0.7745734792308949
 40
0.7745734792308949
 40
0.7745734792308949
 10
35.69932216379902
 20
16.8664802348857
 30
0.0
 10
35.29980503166689
 20
16.7787957502788
 30
0.0
 10
34.66573682750584
 20
16.63700676645249
 30
0.0
 10
33.91916140796263
 20
16.46939361728543
 30
0.0
 10
33.15780191581291
 20
16.30415843887918
 30
0.0
 10
32.3827909265612
 20
16.15483915927344
 30
0.0
 10
32.02483188282497
 20
16.09108972421285
 30
0.0
 10
31.91288578517981
 20
16.07170122706195
 30
0.0
  0
SPLINE
  5
6F
330
1F
100
AcDbEntity
  8
0
370
    -3
100
AcDbSpline
210
0.0
220
0.0
230
1.0
 70
     8
 71
     5
 72
    13
 73
     7
 74
     0
 42
0.000000001
 43
0.0000000001
 40
2.471439808017385
 40
2.471439808017385
 40
2.471439808017385
 40
2.471439808017385
 40
2.471439808017385
 40
2.471439808017385
 40
2.878708620303483
 40
3.211343614209726
 40
3.211343614209726
 40
3.211343614209726
 40
3.211343614209726
 40
3.211343614209726
 40
3.211343614209726
 10
25.56278580203605
 20
16.47669496355736
 30
0.0
 10
25.63322320353831
 20
16.43621989562382
 30
0.0
 10
25.76325679874509
 20
16.36631001302118
 30
0.0
 10
25.89663477430332
 20
16.30282792175939
 30
0.0
 10
26.03264684861728
 20
16.24535476674893
 30
0.0
 10
26.17075783069612
 20
16.19344848911248
 30
0.0
 10
26.23322927940904
 20
16.17119791037297
 30
0.0
  0
LINE
  5
70
330
1F
100
AcDbEntity
  8
0
370
    -3
100
AcDbLine
 10
-8.25015806354935
 20
42.76834073328211
 30
0.0
 11
-8.51786763023415
 21
42.31149293662546
 31
0.0
  0
SPLINE
  5
71
330
1F
100
AcDbEntity
  8
0
370
    -3
100
AcDbSpline
210
0.0
220
0.0
230
1.0
 70
     8
 71
     2
 72
    11
 73
     8
 74
     0
 42
0.000000001
 43
0.0000000001
 40
0.0
 40
0.0
 40
0.0
 40
1.0
 40
2.0
 40
3.0
 40
4.0
 40
5.0
 40
6.0
 40
6.0
 40
6.0
 10
-8.51786763023415
 20
42.31149293662546
 30
0.0
 10
-8.560374583653697
 20
42.23949201662737
 30
0.0
 10
-8.705757072532037
 20
42.15697969517768
 30
0.0
 10
-8.872956860662299
 20
42.15830199146409
 30
0.0
 10
-9.017191411048998
 20
42.24282241409581
 30
0.0
 10
-9.100067823228926
 20
42.38804300191723
 30
0.0
 10
-9.099142302854233
 20
42.5552060622984
 30
0.0
 10
-9.057104198748334
 20
42.62748173892236
 30
0.0
  0
LINE
  5
72
330
1F
100
AcDbEntity
  8
0
370
    -3
100
AcDbLine
 10
-9.057104198748334
 20
42.62748173892236
 30
0.0
 11
-8.248975511378887
 21
44.00655763378934
 31
0.0
  0
LINE
  5
73
330
1F
100
AcDbEntity
  8
0
370
    -3
100
AcDbLine
 10
8.250152542233252
 20
42.76834073328211
 30
0.0
 11
8.517862108918052
 21
42.31149293662546
 31
0.0
  0
SPLINE
  5
74
330
1F
100
AcDbEntity
  8
0
370
    -3
100
AcDbSpline
210
0.0
220
0.0
230
1.0
 70
     8
 71
     2
 72
    11
 73
     8
 74
     0
 42
0.000000001
 43
0.0000000001
 40
0.0
 40
0.0
 40
0.0
 40
1.0
 40
2.0
 40
3.0
 40
4.0
 40
5.0
 40
6.0
 40
6.0
 40
6.0
 10
8.517862108918052
 20
42.31149293662546
 30
0.0
 10
8.5603690623376
 20
42.23949201662737
 30
0.0
 10
8.70575155121594
 20
42.15697969517768
 30
0.0
 10
8.872951339346201
 20
42.15830199146409
 30
0.0
 10
9.0171858897329
 20
42.24282241409581
 30
0.0
 10
9.100062301912828
 20
42.38804300191723
 30
0.0
 10
9.099136781538135
 20
42.5552060622984
 30
0.0
 10
9.057098677432236
 20
42.62748173892236
 30
0.0
  0
LINE
  5
75
330
1F
100
AcDbEntity
  8
0
370
    -3
100
AcDbLine
 10
9.057098677432236
 20
42.62748173892236
 30
0.0
 11
8.24896999006279
 21
44.00655763378934
 31
0.0
  0
SPLINE
  5
76
330
1F
100
AcDbEntity
  8
0
370
    -3
100
AcDbSpline
210
0.0
220
0.0
230
1.0
 70
     8
 71
     2
 72
    11
 73
     8
 74
     0
 42
0.000000001
 43
0.0000000001
 40
0.0
 40
0.0
 40
0.0
 40
1.0
 40
2.0
 40
3.0
 40
4.0
 40
5.0
 40
6.0
 40
6.0
 40
6.0
 10
-0.0000028885474421
 20
17.50564514068739
 30
0.0
 10
-0.6863524418127156
 20
17.50528414765886
 30
0.0
 10
-2.05903539273416
 20
17.50450669686397
 30
0.0
 10
-3.431789963461313
 20
17.51672388154243
 30
0.0
 10
-4.803332666973972
 20
17.56541652613996
 30
0.0
 10
-6.17382899267426
 20
17.68836578593312
 30
0.0
 10
-7.50700188238693
 20
17.96012201508907
 30
0.0
 10
-8.190510465920852
 20
18.20969595262967
 30
0.0
  0
SPLINE
  5
77
330
1F
100
AcDbEntity
  8
0
370
    -3
100
AcDbSpline
210
0.0
220
0.0
230
1.0
 70
    12
 71
     3
 72
     8
 73
     4
 74
     0
 42
0.000000001
 43
0.0000000001
 40
6.0
 40
6.0
 40
6.0
 40
6.0
 40
6.1095531143
 40
6.1095531143
 40
6.1095531143
 40
6.1095531143
 10
-8.190510465920834
 20
18.20969595262968
 30
0.0
 41
1.173246788037126
 10
-8.228712086048676
 20
18.2201669375546
 30
0.0
 41
0.9727685695181932
 10
-8.252357645092536
 20
18.2526428471438
 30
0.0
 41
0.9462828239155063
 10
-8.249105616976623
 20
18.29322407801073
 30
0.0
 41
1.093789551229066
  0
LINE
  5
78
330
1F
100
AcDbEntity
  8
0
370
    -3
100
AcDbLine
 10
-8.249105616976635
 20
18.29322407801074
 30
0.0
 11
-8.229842241393726
 21
18.36757112021922
 31
0.0
  0
SPLINE
  5
79
330
1F
100
AcDbEntity
  8
0
370
    -3
100
AcDbSpline
210
0.0
220
0.0
230
1.0
 70
     8
 71
     2
 72
     9
 73
     6
 74
     0
 42
0.000000001
 43
0.0000000001
 40
6.186355199714383
 40
6.186355199714383
 40
6.186355199714383
 40
7.186355199714383
 40
8.186355199714383
 40
9.186355199714383
 40
10.18635519971438
 40
10.18635519971438
 40
10.18635519971438
 10
-8.229842241393726
 20
18.36757112021922
 30
0.0
 10
-8.224142516259263
 20
18.38648742310102
 30
0.0
 10
-8.196681794263611
 20
18.41489599482007
 30
0.0
 10
-8.15935970033388
 20
18.42764284253857
 30
0.0
 10
-8.12048478055965
 20
18.42291115173489
 30
0.0
 10
-8.10193940049595
 20
18.41723497189528
 30
0.0
  0
SPLINE
  5
7A
330
1F
100
AcDbEntity
  8
0
370
    -3
100
AcDbSpline
210
0.0
220
0.0
230
1.0
 70
     8
 71
     2
 72
    11
 73
     8
 74
     0
 42
0.000000001
 43
0.0000000001
 40
10.18635519971438
 40
10.18635519971438
 40
10.18635519971438
 40
11.18635519971438
 40
12.18635519971438
 40
13.18635519971438
 40
14.18635519971438
 40
15.18635519971438
 40
16.18635519971438
 40
16.18635519971438
 40
16.18635519971438
 10
-8.10193940049595
 20
18.41723497189528
 30
0.0
 10
-7.437416636445391
 20
18.23021545335449
 30
0.0
 10
-6.102062676186051
 20
18.00491800345328
 30
0.0
 10
-4.748706069611501
 20
17.89152448850918
 30
0.0
 10
-3.392361424156888
 20
17.84925942587682
 30
0.0
 10
-2.035416353671309
 20
17.83901685421662
 30
0.0
 10
-0.678474863501151
 20
17.83928667498355
 30
0.0
 10
-0.0000028885474421
 20
17.83973852893448
 30
0.0
  0
SPLINE
  5
7B
330
1F
100
AcDbEntity
  8
0
370
    -3
100
AcDbSpline
210
0.0
220
0.0
230
1.0
 70
     8
 71
     2
 72
    11
 73
     8
 74
     0
 42
0.000000001
 43
0.0000000001
 40
16.18635519971438
 40
16.18635519971438
 40
16.18635519971438
 40
17.18635519971438
 40
18.18635519971438
 40
19.18635519971438
 40
20.18635519971438
 40
21.18635519971438
 40
22.18635519971438
 40
22.18635519971438
 40
22.18635519971438
 10
-0.0000028885474421
 20
17.83973852893448
 30
0.0
 10
0.6784690864062668
 20
17.83928667498355
 30
0.0
 10
2.035410576576425
 20
17.83901685421662
 30
0.0
 10
3.392355647062004
 20
17.84925942587682
 30
0.0
 10
4.748700292516617
 20
17.89152448850918
 30
0.0
 10
6.102056899091167
 20
18.00491800345328
 30
0.0
 10
7.437410859350507
 20
18.23021545335449
 30
0.0
 10
8.101933623401067
 20
18.41723497189528
 30
0.0
  0
SPLINE
  5
7C
330
1F
100
AcDbEntity
  8
0
370
    -3
100
AcDbSpline
210
0.0
220
0.0
230
1.0
 70
     8
 71
     2
 72
     9
 73
     6
 74
     0
 42
0.000000001
 43
0.0000000001
 40
22.18635519971438
 40
22.18635519971438
 40
22.18635519971438
 40
23.18635519971438
 40
24.18635519971438
 40
25.18635519971438
 40
26.18635519971438
 40
26.18635519971438
 40
26.18635519971438
 10
8.101933623401067
 20
18.41723497189528
 30
0.0
 10
8.120479003464766
 20
18.42291115173489
 30
0.0
 10
8.159353923238996
 20
18.42764284253857
 30
0.0
 10
8.196676017168727
 20
18.41489599482007
 30
0.0
 10
8.22413673916438
 20
18.38648742310102
 30
0.0
 10
8.229836464298842
 20
18.36757112021922
 30
0.0
  0
LINE
  5
7D
330
1F
100
AcDbEntity
  8
0
370
    -3
100
AcDbLine
 10
8.229836464298842
 20
18.36757112021922
 30
0.0
 11
8.249099839881751
 21
18.29322407801074
 31
0.0
  0
SPLINE
  5
7E
330
1F
100
AcDbEntity
  8
0
370
    -3
100
AcDbSpline
210
0.0
220
0.0
230
1.0
 70
    12
 71
     3
 72
     8
 73
     4
 74
     0
 42
0.000000001
 43
0.0000000001
 40
26.26315728512877
 40
26.26315728512877
 40
26.26315728512877
 40
26.26315728512877
 40
26.37271039942877
 40
26.37271039942877
 40
26.37271039942877
 40
26.37271039942877
 10
8.249099839881747
 20
18.29322407801073
 30
0.0
 41
1.093789551229066
 10
8.252351867997627
 20
18.2526428471438
 30
0.0
 41
0.9462828239155063
 10
8.228706308953772
 20
18.2201669375546
 30
0.0
 41
0.9727685695181932
 10
8.190504688825971
 20
18.20969595262968
 30
0.0
 41
1.173246788037126
  0
SPLINE
  5
7F
330
1F
100
AcDbEntity
  8
0
370
    -3
100
AcDbSpline
210
0.0
220
0.0
230
1.0
 70
     8
 71
     2
 72
    11
 73
     8
 74
     0
 42
0.000000001
 43
0.0000000001
 40
26.37271039942877
 40
26.37271039942877
 40
26.37271039942877
 40
27.37271039942877
 40
28.37271039942877
 40
29.37271039942877
 40
30.37271039942877
 40
31.37271039942877
 40
32.37271039942877
 40
32.37271039942877
 40
32.37271039942877
 10
8.190504688825968
 20
18.20969595262967
 30
0.0
 10
7.506996105292046
 20
17.96012201508907
 30
0.0
 10
6.173823215579375
 20
17.68836578593312
 30
0.0
 10
4.803326889879088
 20
17.56541652613996
 30
0.0
 10
3.431784186366428
 20
17.51672388154243
 30
0.0
 10
2.059029615639275
 20
17.50450669686397
 30
0.0
 10
0.6863466647178313
 20
17.50528414765886
 30
0.0
 10
-0.0000028885474421
 20
17.50564514068739
 30
0.0
  0
SPLINE
  5
80
330
1F
100
AcDbEntity
  8
0
370
    -3
100
AcDbSpline
210
0.0
220
0.0
230
1.0
 70
     8
 71
     2
 72
     7
 73
     4
 74
     0
 42
0.000000001
 43
0.0000000001
 40
0.0
 40
0.0
 40
0.0
 40
1.0
 40
2.0
 40
2.0
 40
2.0
 10
-8.234541842106125
 20
18.3508184404165
 30
0.0
 10
-8.233374915191831
 20
21.54131816386568
 30
0.0
 10
-8.240681771622974
 20
27.92231394748055
 30
0.0
 10
-8.239763978343149
 20
31.11281386414478
 30
0.0
  0
SPLINE
  5
81
330
1F
100
AcDbEntity
  8
0
370
    -3
100
AcDbSpline
210
0.0
220
0.0
230
1.0
 70
     8
 71
     2
 72
    11
 73
     8
 74
     0
 42
0.000000001
 43
0.0000000001
 40
2.0
 40
2.0
 40
2.0
 40
3.000000039736431
 40
4.000000079472863
 40
5.000000119209294
 40
6.000000158945726
 40
7.000000198682157
 40
8.0
 40
8.0
 40
8.0
 10
-8.239763978343149
 20
31.11281386414478
 30
0.0
 10
-8.243225382769424
 20
31.24337415321146
 30
0.0
 10
-8.162380370445902
 20
31.49174933611721
 30
0.0
 10
-7.981305527526757
 20
31.6830435587128
 30
0.0
 10
-7.739980267293106
 20
31.78239963643419
 30
0.0
 10
-7.484686127430905
 20
31.82626170696548
 30
0.0
 10
-7.226453403123372
 20
31.84172033090557
 30
0.0
 10
-7.097143207490831
 20
31.84100691833189
 30
0.0
  0
SPLINE
  5
82
330
1F
100
AcDbEntity
  8
0
370
    -3
100
AcDbSpline
210
0.0
220
0.0
230
1.0
 70
     8
 71
     2
 72
    11
 73
     8
 74
     0
 42
0.000000001
 43
0.0000000001
 40
8.0
 40
8.0
 40
8.0
 40
9.0
 40
10.0
 40
11.0
 40
12.0
 40
13.0
 40
14.0
 40
14.0
 40
14.0
 10
-7.097143207490831
 20
31.84100691833189
 30
0.0
 10
-6.505715326349531
 20
31.83880881757685
 30
0.0
 10
-5.322866336243919
 20
31.83284037175284
 30
0.0
 10
-4.140014638539185
 20
31.82746352052921
 30
0.0
 10
-2.957158147879284
 20
31.82323456026847
 30
0.0
 10
-1.774297805467455
 20
31.82028128954349
 30
0.0
 10
-0.5914347584101165
 20
31.81872736588184
 30
0.0
 10
-0.0000027201213584
 20
31.81871652494925
 30
0.0
  0
SPLINE
  5
83
330
1F
100
AcDbEntity
  8
0
370
    -3
100
AcDbSpline
210
0.0
220
0.0
230
1.0
 70
     8
 71
     2
 72
    11
 73
     8
 74
     0
 42
0.000000001
 43
0.0000000001
 40
14.0
 40
14.0
 40
14.0
 40
15.0
 40
16.0
 40
17.0
 40
18.0
 40
19.0
 40
20.0
 40
20.0
 40
20.0
 10
-0.0000027201213584
 20
31.81871652494925
 30
0.0
 10
0.5914293181673997
 20
31.81872736588184
 30
0.0
 10
1.774292365224738
 20
31.82028128954349
 30
0.0
 10
2.957152707636567
 20
31.82323456026847
 30
0.0
 10
4.140009198296468
 20
31.82746352052921
 30
0.0
 10
5.322860896001202
 20
31.83284037175284
 30
0.0
 10
6.505709886106814
 20
31.83880881757685
 30
0.0
 10
7.097137767248114
 20
31.84100691833189
 30
0.0
  0
SPLINE
  5
84
330
1F
100
AcDbEntity
  8
0
370
    -3
100
AcDbSpline
210
0.0
220
0.0
230
1.0
 70
     8
 71
     2
 72
    11
 73
     8
 74
     0
 42
0.000000001
 43
0.0000000001
 40
20.0
 40
20.0
 40
20.0
 40
20.99999980131784
 40
21.99999984105428
 40
22.99999988079071
 40
23.99999992052714
 40
24.99999996026357
 40
26.0
 40
26.0
 40
26.0
 10
7.097137767248114
 20
31.84100691833189
 30
0.0
 10
7.226447962880655
 20
31.84172033090557
 30
0.0
 10
7.484680687188188
 20
31.82626170696548
 30
0.0
 10
7.739974827050389
 20
31.78239963643419
 30
0.0
 10
7.981300087284041
 20
31.6830435587128
 30
0.0
 10
8.162374930203185
 20
31.49174933611721
 30
0.0
 10
8.243219942526707
 20
31.24337415321146
 30
0.0
 10
8.239758538100432
 20
31.11281386414478
 30
0.0
  0
SPLINE
  5
85
330
1F
100
AcDbEntity
  8
0
370
    -3
100
AcDbSpline
210
0.0
220
0.0
230
1.0
 70
     8
 71
     2
 72
     7
 73
     4
 74
     0
 42
0.000000001
 43
0.0000000001
 40
26.0
 40
26.0
 40
26.0
 40
27.0
 40
28.0
 40
28.0
 40
28.0
 10
8.239758538100432
 20
31.11281386414478
 30
0.0
 10
8.240676331380257
 20
27.92231394748055
 30
0.0
 10
8.233369474949114
 20
21.54131816386568
 30
0.0
 10
8.234536401863409
 20
18.3508184404165
 30
0.0
  0
SPLINE
  5
86
330
1F
100
AcDbEntity
  8
0
370
    -3
100
AcDbSpline
210
0.0
220
0.0
230
1.0
 70
    12
 71
     3
 72
     8
 73
     4
 74
     0
 42
0.000000001
 43
0.0000000001
 40
7.583888601110734
 40
7.583888601110734
 40
7.583888601110734
 40
7.583888601110734
 40
8.67665716278382
 40
8.67665716278382
 40
8.67665716278382
 40
8.67665716278382
 10
-7.228065041484626
 20
16.35314064173478
 30
0.0
 41
1.0
 10
-7.410301482115386
 20
16.40299794584155
 30
0.0
 41
1.0
 10
-7.592537922746203
 20
16.45285524994831
 30
0.0
 41
1.0
 10
-7.774739297923702
 20
16.50284072390946
 30
0.0
 41
1.0
  0
SPLINE
  5
87
330
1F
100
AcDbEntity
  8
0
370
    -3
100
AcDbSpline
210
0.0
220
0.0
230
1.0
 70
     8
 71
     2
 72
     9
 73
     6
 74
     0
 42
0.000000001
 43
0.0000000001
 40
8.67665716278382
 40
8.67665716278382
 40
8.67665716278382
 40
9.6748365519468
 40
10.67544342222581
 40
11.67605029250482
 40
12.67665716278382
 40
12.67665716278382
 40
12.67665716278382
 10
-7.774739297923702
 20
16.50284072390946
 30
0.0
 10
-7.836103775287853
 20
16.4435510132229
 30
0.0
 10
-7.904750151020608
 20
16.28733252060941
 30
0.0
 10
-7.948451960220211
 20
16.12377297970696
 30
0.0
 10
-7.971421997055472
 20
15.95585678681385
 30
0.0
 10
-7.97413156808517
 20
15.87121117958546
 30
0.0
  0
LINE
  5
88
330
1F
100
AcDbEntity
  8
0
370
    -3
100
AcDbLine
 10
-7.97413156808517
 20
15.87121117958546
 30
0.0
 11
-8.47511655756307
 21
0.1692954496284784
 31
0.0
  0
LINE
  5
89
330
1F
100
AcDbEntity
  8
0
370
    -3
100
AcDbLine
 10
-8.47511655756307
 20
0.1692954496284784
 30
0.0
 11
-9.099827019905291
 21
0.1883381746713439
 31
0.0
  0
LINE
  5
8A
330
1F
100
AcDbEntity
  8
0
370
    -3
100
AcDbLine
 10
-9.099827019905291
 20
0.1883381746713439
 30
0.0
 11
-8.598813778913211
 21
15.89113936607635
 31
0.0
  0
SPLINE
  5
8B
330
1F
100
AcDbEntity
  8
0
370
    -3
100
AcDbSpline
210
0.0
220
0.0
230
1.0
 70
     8
 71
     2
 72
    11
 73
     8
 74
     0
 42
0.000000001
 43
0.0000000001
 40
15.67665716278382
 40
15.67665716278382
 40
15.67665716278382
 40
16.67665716278382
 40
17.67665716278382
 40
18.67665716278382
 40
19.67665716278382
 40
20.67665716278382
 40
21.67665716278382
 40
21.67665716278382
 40
21.67665716278382
 10
-8.598813778913211
 20
15.89113936607635
 30
0.0
 10
-8.594223469015986
 20
16.04015576711879
 30
0.0
 10
-8.545008352204746
 20
16.33431124998663
 30
0.0
 10
-8.45043858967938
 20
16.61747805293251
 30
0.0
 10
-8.297970049099092
 20
16.87516081542611
 30
0.0
 10
-8.070768393016095
 20
17.07369506842176
 30
0.0
 10
-7.776827611690635
 20
17.15032336859556
 30
0.0
 10
-7.629774691280431
 20
17.11008028153927
 30
0.0
  0
SPLINE
  5
8C
330
1F
100
AcDbEntity
  8
0
370
    -3
100
AcDbSpline
210
0.0
220
0.0
230
1.0
 70
    12
 71
     3
 72
     8
 73
     4
 74
     0
 42
0.000000001
 43
0.0000000001
 40
21.67665716278382
 40
21.67665716278382
 40
21.67665716278382
 40
21.67665716278382
 40
22.91177588548269
 40
22.91177588548269
 40
22.91177588548269
 40
22.91177588548269
 10
-7.62977469128046
 20
17.11008028153927
 30
0.0
 41
0.9707016926536343
 10
-7.423560739678219
 20
17.05366322566066
 30
0.0
 41
0.9707016926536343
 10
-7.217372537589362
 20
16.99725305950955
 30
0.0
 41
0.9707016926536343
 10
-7.011184335500475
 20
16.94084289335843
 30
0.0
 41
0.9707016926536343
  0
SPLINE
  5
8D
330
1F
100
AcDbEntity
  8
0
370
    -3
100
AcDbSpline
210
0.0
220
0.0
230
1.0
 70
     8
 71
     2
 72
    15
 73
    12
 74
     0
 42
0.000000001
 43
0.0000000001
 40
0.0
 40
0.0
 40
0.0
 40
1.0
 40
2.0
 40
3.0
 40
4.0
 40
5.0
 40
6.0
 40
7.0
 40
8.0
 40
9.0
 40
10.0
 40
10.0
 40
10.0
 10
-8.477643582800965
 20
0.1684882585777814
 30
0.0
 10
-8.479086404619778
 20
0.1277386885718101
 30
0.0
 10
-8.521298490036571
 20
0.0578417131165878
 30
0.0
 10
-8.592715318750834
 20
0.0185243099125785
 30
0.0
 10
-8.673039539707958
 20
0.0132918182700621
 30
0.0
 10
-8.752792510579695
 20
0.0137595656714922
 30
0.0
 10
-8.832626859153066
 20
0.0163066572352761
 30
0.0
 10
-8.912247384561113
 20
0.0209271354218004
 30
0.0
 10
-8.992074653701508
 20
0.0312569469685542
 30
0.0
 10
-9.06081139997562
 20
0.07505725538023
 30
0.0
 10
-9.09848769927271
 20
0.1475008234879454
 30
0.0
 10
-9.097328246179472
 20
0.1882599042738491
 30
0.0
  0
SPLINE
  5
8E
330
1F
100
AcDbEntity
  8
0
370
    -3
100
AcDbSpline
210
0.0
220
0.0
230
1.0
 70
     8
 71
     2
 72
    12
 73
     9
 74
     0
 42
0.000000001
 43
0.0000000001
 40
0.0
 40
0.0
 40
0.0
 40
1.0
 40
2.0
 40
3.0
 40
4.0
 40
5.0
 40
6.0
 40
7.0
 40
7.0
 40
7.0
 10
-9.30856201824892
 20
0.1740863489101372
 30
0.0
 10
-9.351886592212708
 20
0.1442319529898839
 30
0.0
 10
-9.441290879086978
 20
0.1374813180081276
 30
0.0
 10
-9.531392669251005
 20
0.1315754129903581
 30
0.0
 10
-9.621601289480083
 20
0.1310300485078244
 30
0.0
 10
-9.71175864149663
 20
0.1340448943122112
 30
0.0
 10
-9.801677359636017
 20
0.1424204387099053
 30
0.0
 10
-9.890793829641495
 20
0.151564178520772
 30
0.0
 10
-9.93350318459943
 20
0.1826618139419622
 30
0.0
  0
SPLINE
  5
8F
330
1F
100
AcDbEntity
  8
0
370
    -3
100
AcDbSpline
210
0.0
220
0.0
230
1.0
 70
     8
 71
     2
 72
    12
 73
     9
 74
     0
 42
0.000000001
 43
0.0000000001
 40
0.0
 40
0.0
 40
0.0
 40
1.0
 40
2.0
 40
3.0
 40
4.0
 40
5.0
 40
6.0
 40
7.0
 40
7.0
 40
7.0
 10
-9.311061782915033
 20
0.1741206507725508
 30
0.0
 10
-9.312447952948759
 20
0.1138360110030163
 30
0.0
 10
-9.39338885173018
 20
0.0258547476800857
 30
0.0
 10
-9.508368067221738
 20
0.0021174151821555
 30
0.0
 10
-9.623491391213918
 20
-0.0010620963813182
 30
0.0
 10
-9.7384870717313
 20
0.0052724190277473
 30
0.0
 10
-9.852756093436597
 20
0.0321859166155036
 30
0.0
 10
-9.931278109218084
 20
0.1223218214508961
 30
0.0
 10
-9.931003419934768
 20
0.1826275120791365
 30
0.0
  0
SPLINE
  5
90
330
1F
100
AcDbEntity
  8
0
370
    -3
100
AcDbSpline
210
0.0
220
0.0
230
1.0
 70
    12
 71
     3
 72
     8
 73
     4
 74
     0
 42
0.000000001
 43
0.0000000001
 40
1.887621699755655
 40
1.887621699755655
 40
1.887621699755655
 40
1.887621699755655
 40
2.126620968222682
 40
2.126620968222682
 40
2.126620968222682
 40
2.126620968222682
 10
-8.289574692692307
 20
16.8665247426919
 30
0.0
 41
0.9274524922446892
 10
-8.348368991585858
 20
16.90234050466191
 30
0.0
 41
0.9274524922446892
 10
-8.407163290479348
 20
16.93815626663193
 30
0.0
 41
0.9274524922446892
 10
-8.466006652810353
 20
16.97400196550074
 30
0.0
 41
0.9274524922446892
  0
SPLINE
  5
91
330
1F
100
AcDbEntity
  8
0
370
    -3
100
AcDbSpline
210
0.0
220
0.0
230
1.0
 70
     8
 71
     2
 72
    13
 73
    10
 74
     0
 42
0.000000001
 43
0.0000000001
 40
2.126620968222682
 40
2.126620968222682
 40
2.126620968222682
 40
3.126620968222682
 40
4.126620968222682
 40
5.126620968222682
 40
6.126620968222682
 40
7.126620968222682
 40
8.126620968222682
 40
9.126620968222682
 40
10.12662096822268
 40
10.12662096822268
 40
10.12662096822268
 10
-8.466006652810336
 20
16.97400196550073
 30
0.0
 10
-8.519880353751148
 20
17.00732335791812
 30
0.0
 10
-8.642420565881707
 20
17.04076110854606
 30
0.0
 10
-8.769015230647312
 20
17.02619356758666
 30
0.0
 10
-8.879732787779858
 20
16.96355175192195
 30
0.0
 10
-8.964860443847641
 20
16.86983420707426
 30
0.0
 10
-9.02582490514942
 20
16.75927660029753
 30
0.0
 10
-9.06479132496321
 20
16.63932851567749
 30
0.0
 10
-9.084415337013581
 20
16.51482880044563
 30
0.0
 10
-9.085198352479836
 20
16.45182181974005
 30
0.0
  0
SPLINE
  5
92
330
1F
100
AcDbEntity
  8
0
370
    -3
100
AcDbSpline
210
0.0
220
0.0
230
1.0
 70
    12
 71
     3
 72
     8
 73
     4
 74
     0
 42
0.000000001
 43
0.0000000001
 40
10.12662096822268
 40
10.12662096822268
 40
10.12662096822268
 40
10.12662096822268
 40
26.59239883684134
 40
26.59239883684134
 40
26.59239883684134
 40
26.59239883684134
 10
-9.085198352479859
 20
16.45182181974004
 30
0.0
 41
0.854660164484043
 10
-9.159652943029135
 20
11.02590731225343
 30
0.0
 41
0.8546601644840432
 10
-9.23410748063914
 20
5.59999683058178
 30
0.0
 41
0.854660164484043
 10
-9.30856201824898
 20
0.1740863489101297
 30
0.0
 41
0.854660164484043
  0
SPLINE
  5
93
330
1F
100
AcDbEntity
  8
0
370
    -3
100
AcDbSpline
210
0.0
220
0.0
230
1.0
 70
    12
 71
     3
 72
     8
 73
     4
 74
     0
 42
0.000000001
 43
0.0000000001
 40
7.583888601110734
 40
7.583888601110734
 40
7.583888601110734
 40
7.583888601110734
 40
8.67665716278382
 40
8.67665716278382
 40
8.67665716278382
 40
8.67665716278382
 10
7.22805960124191
 20
16.35314064173478
 30
0.0
 41
1.0
 10
7.41029604187267
 20
16.40299794584155
 30
0.0
 41
1.0
 10
7.592532482503486
 20
16.45285524994831
 30
0.0
 41
1.0
 10
7.774733857680985
 20
16.50284072390946
 30
0.0
 41
1.0
  0
SPLINE
  5
94
330
1F
100
AcDbEntity
  8
0
370
    -3
100
AcDbSpline
210
0.0
220
0.0
230
1.0
 70
     8
 71
     2
 72
     9
 73
     6
 74
     0
 42
0.000000001
 43
0.0000000001
 40
8.67665716278382
 40
8.67665716278382
 40
8.67665716278382
 40
9.6748365519468
 40
10.67544342222581
 40
11.67605029250482
 40
12.67665716278382
 40
12.67665716278382
 40
12.67665716278382
 10
7.774733857680985
 20
16.50284072390946
 30
0.0
 10
7.836098335045136
 20
16.4435510132229
 30
0.0
 10
7.904744710777891
 20
16.28733252060941
 30
0.0
 10
7.948446519977495
 20
16.12377297970696
 30
0.0
 10
7.971416556812756
 20
15.95585678681385
 30
0.0
 10
7.974126127842453
 20
15.87121117958546
 30
0.0
  0
LINE
  5
95
330
1F
100
AcDbEntity
  8
0
370
    -3
100
AcDbLine
 10
7.974126127842453
 20
15.87121117958546
 30
0.0
 11
8.475111117320353
 21
0.1692954496284784
 31
0.0
  0
LINE
  5
96
330
1F
100
AcDbEntity
  8
0
370
    -3
100
AcDbLine
 10
8.475111117320353
 20
0.1692954496284784
 30
0.0
 11
9.099821579662574
 21
0.1883381746713439
 31
0.0
  0
LINE
  5
97
330
1F
100
AcDbEntity
  8
0
370
    -3
100
AcDbLine
 10
9.099821579662574
 20
0.1883381746713439
 30
0.0
 11
8.598808338670494
 21
15.89113936607635
 31
0.0
  0
SPLINE
  5
98
330
1F
100
AcDbEntity
  8
0
370
    -3
100
AcDbSpline
210
0.0
220
0.0
230
1.0
 70
     8
 71
     2
 72
    11
 73
     8
 74
     0
 42
0.000000001
 43
0.0000000001
 40
15.67665716278382
 40
15.67665716278382
 40
15.67665716278382
 40
16.67665716278382
 40
17.67665716278382
 40
18.67665716278382
 40
19.67665716278382
 40
20.67665716278382
 40
21.67665716278382
 40
21.67665716278382
 40
21.67665716278382
 10
8.598808338670494
 20
15.89113936607635
 30
0.0
 10
8.59421802877327
 20
16.04015576711879
 30
0.0
 10
8.54500291196203
 20
16.33431124998663
 30
0.0
 10
8.450433149436662
 20
16.61747805293251
 30
0.0
 10
8.297964608856375
 20
16.87516081542611
 30
0.0
 10
8.070762952773379
 20
17.07369506842176
 30
0.0
 10
7.776822171447918
 20
17.15032336859556
 30
0.0
 10
7.629769251037715
 20
17.11008028153927
 30
0.0
  0
SPLINE
  5
99
330
1F
100
AcDbEntity
  8
0
370
    -3
100
AcDbSpline
210
0.0
220
0.0
230
1.0
 70
    12
 71
     3
 72
     8
 73
     4
 74
     0
 42
0.000000001
 43
0.0000000001
 40
21.67665716278382
 40
21.67665716278382
 40
21.67665716278382
 40
21.67665716278382
 40
22.91177588548269
 40
22.91177588548269
 40
22.91177588548269
 40
22.91177588548269
 10
7.629769251037636
 20
17.11008028153927
 30
0.0
 41
0.9707016926536343
 10
7.423555299435396
 20
17.05366322566066
 30
0.0
 41
0.9707016926536343
 10
7.217367097346538
 20
16.99725305950955
 30
0.0
 41
0.9707016926536343
 10
7.011178895257651
 20
16.94084289335843
 30
0.0
 41
0.9707016926536343
  0
SPLINE
  5
9A
330
1F
100
AcDbEntity
  8
0
370
    -3
100
AcDbSpline
210
0.0
220
0.0
230
1.0
 70
     8
 71
     2
 72
    15
 73
    12
 74
     0
 42
0.000000001
 43
0.0000000001
 40
0.0
 40
0.0
 40
0.0
 40
1.0
 40
2.0
 40
3.0
 40
4.0
 40
5.0
 40
6.0
 40
7.0
 40
8.0
 40
9.0
 40
10.0
 40
10.0
 40
10.0
 10
8.477638142558249
 20
0.1684882585777814
 30
0.0
 10
8.479080964377061
 20
0.1277386885718101
 30
0.0
 10
8.521293049793854
 20
0.0578417131165878
 30
0.0
 10
8.592709878508117
 20
0.0185243099125785
 30
0.0
 10
8.67303409946524
 20
0.0132918182700621
 30
0.0
 10
8.752787070336979
 20
0.0137595656714922
 30
0.0
 10
8.83262141891035
 20
0.0163066572352761
 30
0.0
 10
8.912241944318396
 20
0.0209271354218004
 30
0.0
 10
8.992069213458791
 20
0.0312569469685542
 30
0.0
 10
9.060805959732903
 20
0.07505725538023
 30
0.0
 10
9.098482259029993
 20
0.1475008234879454
 30
0.0
 10
9.097322805936756
 20
0.1882599042738491
 30
0.0
  0
SPLINE
  5
9B
330
1F
100
AcDbEntity
  8
0
370
    -3
100
AcDbSpline
210
0.0
220
0.0
230
1.0
 70
     8
 71
     2
 72
    12
 73
     9
 74
     0
 42
0.000000001
 43
0.0000000001
 40
0.0
 40
0.0
 40
0.0
 40
1.0
 40
2.0
 40
3.0
 40
4.0
 40
5.0
 40
6.0
 40
7.0
 40
7.0
 40
7.0
 10
9.308556578006204
 20
0.1740863489101372
 30
0.0
 10
9.351881151969991
 20
0.1442319529898839
 30
0.0
 10
9.441285438844261
 20
0.1374813180081276
 30
0.0
 10
9.531387229008288
 20
0.1315754129903581
 30
0.0
 10
9.621595849237366
 20
0.1310300485078244
 30
0.0
 10
9.711753201253913
 20
0.1340448943122112
 30
0.0
 10
9.8016719193933
 20
0.1424204387099053
 30
0.0
 10
9.890788389398779
 20
0.151564178520772
 30
0.0
 10
9.933497744356714
 20
0.1826618139419622
 30
0.0
  0
SPLINE
  5
9C
330
1F
100
AcDbEntity
  8
0
370
    -3
100
AcDbSpline
210
0.0
220
0.0
230
1.0
 70
     8
 71
     2
 72
    12
 73
     9
 74
     0
 42
0.000000001
 43
0.0000000001
 40
0.0
 40
0.0
 40
0.0
 40
1.0
 40
2.0
 40
3.0
 40
4.0
 40
5.0
 40
6.0
 40
7.0
 40
7.0
 40
7.0
 10
9.311056342672316
 20
0.1741206507725508
 30
0.0
 10
9.312442512706042
 20
0.1138360110030163
 30
0.0
 10
9.393383411487463
 20
0.0258547476800857
 30
0.0
 10
9.508362626979022
 20
0.0021174151821555
 30
0.0
 10
9.623485950971201
 20
-0.0010620963813182
 30
0.0
 10
9.738481631488582
 20
0.0052724190277473
 30
0.0
 10
9.85275065319388
 20
0.0321859166155036
 30
0.0
 10
9.931272668975367
 20
0.1223218214508961
 30
0.0
 10
9.930997979692052
 20
0.1826275120791365
 30
0.0
  0
SPLINE
  5
9D
330
1F
100
AcDbEntity
  8
0
370
    -3
100
AcDbSpline
210
0.0
220
0.0
230
1.0
 70
    12
 71
     3
 72
     8
 73
     4
 74
     0
 42
0.000000001
 43
0.0000000001
 40
1.887621699755655
 40
1.887621699755655
 40
1.887621699755655
 40
1.887621699755655
 40
2.126620968222682
 40
2.126620968222682
 40
2.126620968222682
 40
2.126620968222682
 10
8.28956925244956
 20
16.8665247426919
 30
0.0
 41
0.9274524922446892
 10
8.34836355134311
 20
16.90234050466191
 30
0.0
 41
0.9274524922446892
 10
8.4071578502366
 20
16.93815626663193
 30
0.0
 41
0.9274524922446892
 10
8.466001212567607
 20
16.97400196550074
 30
0.0
 41
0.9274524922446892
  0
SPLINE
  5
9E
330
1F
100
AcDbEntity
  8
0
370
    -3
100
AcDbSpline
210
0.0
220
0.0
230
1.0
 70
     8
 71
     2
 72
    13
 73
    10
 74
     0
 42
0.000000001
 43
0.0000000001
 40
2.126620968222682
 40
2.126620968222682
 40
2.126620968222682
 40
3.126620968222682
 40
4.126620968222682
 40
5.126620968222682
 40
6.126620968222682
 40
7.126620968222682
 40
8.126620968222682
 40
9.126620968222682
 40
10.12662096822268
 40
10.12662096822268
 40
10.12662096822268
 10
8.466001212567619
 20
16.97400196550073
 30
0.0
 10
8.519874913508431
 20
17.00732335791812
 30
0.0
 10
8.64241512563899
 20
17.04076110854606
 30
0.0
 10
8.769009790404596
 20
17.02619356758666
 30
0.0
 10
8.879727347537141
 20
16.96355175192195
 30
0.0
 10
8.964855003604924
 20
16.86983420707426
 30
0.0
 10
9.025819464906704
 20
16.75927660029753
 30
0.0
 10
9.064785884720493
 20
16.63932851567749
 30
0.0
 10
9.084409896770865
 20
16.51482880044563
 30
0.0
 10
9.085192912237119
 20
16.45182181974005
 30
0.0
  0
SPLINE
  5
9F
330
1F
100
AcDbEntity
  8
0
370
    -3
100
AcDbSpline
210
0.0
220
0.0
230
1.0
 70
    12
 71
     3
 72
     8
 73
     4
 74
     0
 42
0.000000001
 43
0.0000000001
 40
10.12662096822268
 40
10.12662096822268
 40
10.12662096822268
 40
10.12662096822268
 40
26.59239883684134
 40
26.59239883684134
 40
26.59239883684134
 40
26.59239883684134
 10
9.085192912237096
 20
16.45182181974004
 30
0.0
 41
0.854660164484043
 10
9.159647502786438
 20
11.02590731225343
 30
0.0
 41
0.8546601644840432
 10
9.23410204039631
 20
5.59999683058178
 30
0.0
 41
0.854660164484043
 10
9.308556578006149
 20
0.1740863489101297
 30
0.0
 41
0.854660164484043
  0
SPLINE
  5
A0
330
1F
100
AcDbEntity
  8
0
370
    -3
100
AcDbSpline
210
0.0
220
0.0
230
1.0
 70
    28
 71
     3
 72
     8
 73
     4
 74
     0
 42
0.000000001
 43
0.0000000001
 40
-5.859026358234914
 40
-5.859026358234914
 40
-5.859026358234914
 40
-5.859026358234914
 40
0.0
 40
0.0
 40
0.0
 40
0.0
 10
-6.364230080099501
 20
16.11680765466175
 30
0.0
 41
1.0
 10
-5.386136162005497
 20
15.84921503843972
 30
0.0
 41
1.0
 10
-4.408042243911522
 20
15.58162242221768
 30
0.0
 41
1.0
 10
-3.42994832581752
 20
15.31402980599563
 30
0.0
 41
1.0
  0
SPLINE
  5
A1
330
1F
100
AcDbEntity
  8
0
370
    -3
100
AcDbSpline
210
0.0
220
0.0
230
1.0
 70
     8
 71
     3
 72
     8
 73
     4
 74
     0
 42
0.000000001
 43
0.0000000001
 40
0.0
 40
0.0
 40
0.0
 40
0.0
 40
1.0
 40
1.0
 40
1.0
 40
1.0
 10
-3.42994832581752
 20
15.31402980599563
 30
0.0
 10
-3.20269867346542
 20
15.25185752592775
 30
0.0
 10
-2.798520868339637
 20
15.18915786203347
 30
0.0
 10
-2.563988424892557
 20
15.15787615582273
 30
0.0
  0
SPLINE
  5
A2
330
1F
100
AcDbEntity
  8
0
370
    -3
100
AcDbSpline
210
0.0
220
0.0
230
1.0
 70
    12
 71
     3
 72
     8
 73
     4
 74
     0
 42
0.000000001
 43
0.0000000001
 40
1.0
 40
1.0
 40
1.0
 40
1.0
 40
6.060246462763348
 40
6.060246462763348
 40
6.060246462763348
 40
6.060246462763348
 10
-2.563988424892557
 20
15.15787615582273
 30
0.0
 41
1.0
 10
-0.8646684235629036
 20
14.93122252846809
 30
0.0
 41
1.0
 10
0.8646796767941399
 20
14.93122273790498
 30
0.0
 41
0.9999999999999996
 10
2.563994278202671
 20
15.15787615582273
 30
0.0
 41
1.0
  0
SPLINE
  5
A3
330
1F
100
AcDbEntity
  8
0
370
    -3
100
AcDbSpline
210
0.0
220
0.0
230
1.0
 70
     8
 71
     3
 72
     8
 73
     4
 74
     0
 42
0.000000001
 43
0.0000000001
 40
6.060246462763348
 40
6.060246462763348
 40
6.060246462763348
 40
6.060246462763348
 40
7.060246462763348
 40
7.060246462763348
 40
7.060246462763348
 40
7.060246462763348
 10
2.563994278202671
 20
15.15787615582273
 30
0.0
 10
2.798528187595394
 20
15.18915985518535
 30
0.0
 10
3.202696756412507
 20
15.25185851412128
 30
0.0
 10
3.42994279675878
 20
15.31402980599563
 30
0.0
  0
SPLINE
  5
A4
330
1F
100
AcDbEntity
  8
0
370
    -3
100
AcDbSpline
210
0.0
220
0.0
230
1.0
 70
    28
 71
     3
 72
     8
 73
     4
 74
     0
 42
0.000000001
 43
0.0000000001
 40
7.060246462763348
 40
7.060246462763348
 40
7.060246462763348
 40
7.060246462763348
 40
12.91927282099826
 40
12.91927282099826
 40
12.91927282099826
 40
12.91927282099826
 10
3.42994279675878
 20
15.31402980599563
 30
0.0
 41
1.0
 10
4.408036714852782
 20
15.58162242221768
 30
0.0
 41
1.0
 10
5.386130632946757
 20
15.84921503843972
 30
0.0
 41
1.0
 10
6.364224551040705
 20
16.11680765466175
 30
0.0
 41
1.0
  0
SPLINE
  5
A5
330
1F
100
AcDbEntity
  8
0
370
    -3
100
AcDbSpline
210
0.0
220
0.0
230
1.0
 70
     8
 71
     3
 72
    11
 73
     7
 74
     0
 42
0.000000001
 43
0.0000000001
 40
-4.0
 40
-4.0
 40
-4.0
 40
-4.0
 40
-3.0
 40
-2.0
 40
-1.0
 40
0.0
 40
0.0
 40
0.0
 40
0.0
 10
-6.471561800239726
 20
15.808335258894
 30
0.0
 10
-6.178559476115765
 20
15.69359198331206
 30
0.0
 10
-5.555497699039506
 20
15.61121071635677
 30
0.0
 10
-4.633187837927153
 20
15.44201108703456
 30
0.0
 10
-3.707502119597166
 20
15.28548442243644
 30
0.0
 10
-3.091192055927564
 20
15.17775723199664
 30
0.0
 10
-2.781899696860364
 20
15.13047855617225
 30
0.0
  0
SPLINE
  5
A6
330
1F
100
AcDbEntity
  8
0
370
    -3
100
AcDbSpline
210
0.0
220
0.0
230
1.0
 70
    12
 71
     3
 72
     8
 73
     4
 74
     0
 42
0.000000001
 43
0.0000000001
 40
0.0
 40
0.0
 40
0.0
 40
0.0
 40
5.489510829511583
 40
5.489510829511583
 40
5.489510829511583
 40
5.489510829511583
 10
-2.781899696860364
 20
15.13047855617225
 30
0.0
 41
1.0
 10
-0.9420635642057107
 20
14.84376788752094
 30
0.0
 41
1.0
 10
0.9420760764759277
 20
14.84376832468304
 30
0.0
 41
1.0
 10
2.781905550170478
 20
15.13047855617224
 30
0.0
 41
1.0
  0
SPLINE
  5
A7
330
1F
100
AcDbEntity
  8
0
370
    -3
100
AcDbSpline
210
0.0
220
0.0
230
1.0
 70
     8
 71
     3
 72
    11
 73
     7
 74
     0
 42
0.000000001
 43
0.0000000001
 40
5.489510829511583
 40
5.489510829511583
 40
5.489510829511583
 40
5.489510829511583
 40
6.489501839224093
 40
7.48950483598659
 40
8.489507832749087
 40
9.489510829511584
 40
9.489510829511584
 40
9.489510829511584
 40
9.489510829511584
 10
2.781905550170478
 20
15.13047855617224
 30
0.0
 10
3.091193914586256
 20
15.17775852332386
 30
0.0
 10
3.70750028927435
 20
15.28548504786555
 30
0.0
 10
4.633182308868413
 20
15.44201108703456
 30
0.0
 10
5.555492169980766
 20
15.61121071635677
 30
0.0
 10
6.178553947057026
 20
15.69359198331206
 30
0.0
 10
6.471556271180987
 20
15.808335258894
 30
0.0
  0
SPLINE
  5
A8
330
1F
100
AcDbEntity
  8
0
370
    -3
100
AcDbSpline
210
0.0
220
0.0
230
1.0
 70
    24
 71
     3
 72
    11
 73
     7
 74
     0
 42
0.000000001
 43
0.0000000001
 40
0.0
 40
0.0
 40
0.0
 40
0.0
 40
1.0
 40
2.0
 40
3.0
 40
4.0
 40
4.0
 40
4.0
 40
4.0
 10
6.300396755361305
 20
16.74638301062761
 30
0.0
 10
6.049093757616419
 20
16.67763007659238
 30
0.0
 10
5.546487762126844
 20
16.5401242085219
 30
0.0
 10
4.792578768892213
 20
16.33386540641618
 30
0.0
 10
4.038669775657866
 20
16.12760660431047
 30
0.0
 10
3.536063780167979
 20
15.99010073623998
 30
0.0
 10
3.284760782423234
 20
15.92134780220475
 30
0.0
  0
SPLINE
  5
A9
330
1F
100
AcDbEntity
  8
0
370
    -3
100
AcDbSpline
210
0.0
220
0.0
230
1.0
 70
     8
 71
     3
 72
     8
 73
     4
 74
     0
 42
0.000000001
 43
0.0000000001
 40
4.0
 40
4.0
 40
4.0
 40
4.0
 40
5.0
 40
5.0
 40
5.0
 40
5.0
 10
3.284760782423234
 20
15.92134780220475
 30
0.0
 10
3.074009929156517
 20
15.86368935943824
 30
0.0
 10
2.699027633241258
 20
15.80642338441001
 30
0.0
 10
2.481469976546606
 20
15.77740399186899
 30
0.0
  0
SPLINE
  5
AA
330
1F
100
AcDbEntity
  8
0
370
    -3
100
AcDbSpline
210
0.0
220
0.0
230
1.0
 70
    12
 71
     3
 72
     8
 73
     4
 74
     0
 42
0.000000001
 43
0.0000000001
 40
5.0
 40
5.0
 40
5.0
 40
5.0
 40
10.06024646276335
 40
10.06024646276335
 40
10.06024646276335
 40
10.06024646276335
 10
2.481469976546606
 20
15.77740399186899
 30
0.0
 41
1.0
 10
0.8368493009175214
 20
15.55804559602803
 30
0.0
 41
0.9999999999999996
 10
-0.8368382193251305
 20
15.55804540933526
 30
0.0
 41
1.0
 10
-2.481464123236492
 20
15.77740399186899
 30
0.0
 41
1.0
  0
SPLINE
  5
AB
330
1F
100
AcDbEntity
  8
0
370
    -3
100
AcDbSpline
210
0.0
220
0.0
230
1.0
 70
     8
 71
     3
 72
     8
 73
     4
 74
     0
 42
0.000000001
 43
0.0000000001
 40
10.06024646276335
 40
10.06024646276335
 40
10.06024646276335
 40
10.06024646276335
 40
11.06024646276335
 40
11.06024646276335
 40
11.06024646276335
 40
11.06024646276335
 10
-2.481464123236492
 20
15.77740399186899
 30
0.0
 10
-2.699020311618966
 20
15.80642142190675
 30
0.0
 10
-3.074011847002311
 20
15.86368837146162
 30
0.0
 10
-3.284766311481974
 20
15.92134780220475
 30
0.0
  0
SPLINE
  5
AC
330
1F
100
AcDbEntity
  8
0
370
    -3
100
AcDbSpline
210
0.0
220
0.0
230
1.0
 70
    24
 71
     3
 72
    11
 73
     7
 74
     0
 42
0.000000001
 43
0.0000000001
 40
11.06024646276335
 40
11.06024646276335
 40
11.06024646276335
 40
11.06024646276335
 40
12.06024646276335
 40
13.06024646276335
 40
14.06024646276335
 40
15.06024646276335
 40
15.06024646276335
 40
15.06024646276335
 40
15.06024646276335
 10
-3.284766311481974
 20
15.92134780220475
 30
0.0
 10
-3.536069309226718
 20
15.99010073623998
 30
0.0
 10
-4.038675304716605
 20
16.12760660431047
 30
0.0
 10
-4.792584297950953
 20
16.33386540641618
 30
0.0
 10
-5.546493291185584
 20
16.5401242085219
 30
0.0
 10
-6.049099286675158
 20
16.67763007659238
 30
0.0
 10
-6.300402284420045
 20
16.74638301062761
 30
0.0
  0
SPLINE
  5
AD
330
1F
100
AcDbEntity
  8
0
370
    -3
100
AcDbSpline
210
0.0
220
0.0
230
1.0
 70
     8
 71
     3
 72
    12
 73
     8
 74
     0
 42
0.000000001
 43
0.0000000001
 40
-5.0
 40
-5.0
 40
-5.0
 40
-5.0
 40
-4.0
 40
-3.0
 40
-2.0
 40
-1.0
 40
0.0
 40
0.0
 40
0.0
 40
0.0
 10
-7.173289413557825
 20
16.98535955492804
 30
0.0
 10
-7.140200202428275
 20
16.98723930079512
 30
0.0
 10
-7.073837443167065
 20
16.97637283308657
 30
0.0
 10
-6.985356364539257
 20
16.92909861028762
 30
0.0
 10
-6.913115595314991
 20
16.85975267335456
 30
0.0
 10
-6.864202936479217
 20
16.77170269257628
 30
0.0
 10
-6.8583113294996
 20
16.6872242029923
 30
0.0
 10
-6.863376141226723
 20
16.65448230809727
 30
0.0
  0
SPLINE
  5
AE
330
1F
100
AcDbEntity
  8
0
370
    -3
100
AcDbSpline
210
0.0
220
0.0
230
1.0
 70
     8
 71
     3
 72
    12
 73
     8
 74
     0
 42
0.000000001
 43
0.0000000001
 40
0.0
 40
0.0
 40
0.0
 40
0.0
 40
1.0
 40
2.0
 40
3.0
 40
4.0
 40
5.0
 40
5.0
 40
5.0
 40
5.0
 10
-6.863376141226723
 20
16.65448230809727
 30
0.0
 10
-6.869777848213744
 20
16.61309794306842
 30
0.0
 10
-6.911733261399462
 20
16.51976835472497
 30
0.0
 10
-7.004769894798784
 20
16.43395167041299
 30
0.0
 10
-7.115526975359046
 20
16.37432232464609
 30
0.0
 10
-7.238239073581781
 20
16.34301299701187
 30
0.0
 10
-7.323879283288335
 20
16.3605292286298
 30
0.0
 10
-7.356249085335435
 20
16.38819054098745
 30
0.0
  0
SPLINE
  5
AF
330
1F
100
AcDbEntity
  8
0
370
    -3
100
AcDbSpline
210
0.0
220
0.0
230
1.0
 70
     8
 71
     3
 72
    10
 73
     6
 74
     0
 42
0.000000001
 43
0.0000000001
 40
0.0
 40
0.0
 40
0.0
 40
0.0
 40
1.0
 40
2.0
 40
3.0
 40
3.0
 40
3.0
 40
3.0
 10
-6.806078979321455
 20
16.65705038285148
 30
0.0
 10
-6.75498073397938
 20
16.65224130976183
 30
0.0
 10
-6.652879893024249
 20
16.6411462007587
 30
0.0
 10
-6.500687278732357
 20
16.61798531307954
 30
0.0
 10
-6.400075916091225
 20
16.59621543836113
 30
0.0
 10
-6.352054057846772
 20
16.57782998106676
 30
0.0
  0
SPLINE
  5
B0
330
1F
100
AcDbEntity
  8
0
370
    -3
100
AcDbSpline
210
0.0
220
0.0
230
1.0
 70
     8
 71
     3
 72
    10
 73
     6
 74
     0
 42
0.000000001
 43
0.0000000001
 40
-3.0
 40
-3.0
 40
-3.0
 40
-3.0
 40
-2.0
 40
-1.0
 40
0.0
 40
0.0
 40
0.0
 40
0.0
 10
6.031636930146703
 20
16.82489400002842
 30
0.0
 10
5.386884761665357
 20
16.59913397066792
 30
0.0
 10
4.069982467044298
 20
16.22806959374977
 30
0.0
 10
2.048130885671981
 20
15.87935678315282
 30
0.0
 10
0.6831944295415155
 20
15.78491520389221
 30
0.0
 10
-0.0000027648598007
 20
15.78425198643897
 30
0.0
  0
SPLINE
  5
B1
330
1F
100
AcDbEntity
  8
0
370
    -3
100
AcDbSpline
210
0.0
220
0.0
230
1.0
 70
     8
 71
     3
 72
    10
 73
     6
 74
     0
 42
0.000000001
 43
0.0000000001
 40
0.0
 40
0.0
 40
0.0
 40
0.0
 40
1.0
 40
2.0
 40
3.0
 40
3.0
 40
3.0
 40
3.0
 10
-0.0000027648598007
 20
15.78425198643897
 30
0.0
 10
-0.6831999592611169
 20
15.78491520389221
 30
0.0
 10
-2.048136415391582
 20
15.87935678315282
 30
0.0
 10
-4.069987996763899
 20
16.22806959374977
 30
0.0
 10
-5.386890291384958
 20
16.59913397066792
 30
0.0
 10
-6.031642459866305
 20
16.82489400002842
 30
0.0
  0
SPLINE
  5
B2
330
1F
100
AcDbEntity
  8
0
370
    -3
100
AcDbSpline
210
0.0
220
0.0
230
1.0
 70
     8
 71
     3
 72
    12
 73
     8
 74
     0
 42
0.000000001
 43
0.0000000001
 40
-5.0
 40
-5.0
 40
-5.0
 40
-5.0
 40
-4.0
 40
-3.0
 40
-2.0
 40
-1.0
 40
0.0
 40
0.0
 40
0.0
 40
0.0
 10
7.173283883838224
 20
16.98535955492804
 30
0.0
 10
7.140194672708674
 20
16.98723930079512
 30
0.0
 10
7.073831913447464
 20
16.97637283308657
 30
0.0
 10
6.985350834819656
 20
16.92909861028762
 30
0.0
 10
6.91311006559539
 20
16.85975267335456
 30
0.0
 10
6.864197406759615
 20
16.77170269257628
 30
0.0
 10
6.858305799779998
 20
16.6872242029923
 30
0.0
 10
6.863370611507122
 20
16.65448230809727
 30
0.0
  0
SPLINE
  5
B3
330
1F
100
AcDbEntity
  8
0
370
    -3
100
AcDbSpline
210
0.0
220
0.0
230
1.0
 70
     8
 71
     3
 72
    12
 73
     8
 74
     0
 42
0.000000001
 43
0.0000000001
 40
0.0
 40
0.0
 40
0.0
 40
0.0
 40
1.0
 40
2.0
 40
3.0
 40
4.0
 40
5.0
 40
5.0
 40
5.0
 40
5.0
 10
6.863370611507122
 20
16.65448230809727
 30
0.0
 10
6.869772318494142
 20
16.61309794306842
 30
0.0
 10
6.911727731679861
 20
16.51976835472497
 30
0.0
 10
7.004764365079183
 20
16.43395167041299
 30
0.0
 10
7.115521445639445
 20
16.37432232464609
 30
0.0
 10
7.238233543862179
 20
16.34301299701187
 30
0.0
 10
7.323873753568733
 20
16.3605292286298
 30
0.0
 10
7.356243555615833
 20
16.38819054098745
 30
0.0
  0
SPLINE
  5
B4
330
1F
100
AcDbEntity
  8
0
370
    -3
100
AcDbSpline
210
0.0
220
0.0
230
1.0
 70
     8
 71
     3
 72
    10
 73
     6
 74
     0
 42
0.000000001
 43
0.0000000001
 40
0.0
 40
0.0
 40
0.0
 40
0.0
 40
1.0
 40
2.0
 40
3.0
 40
3.0
 40
3.0
 40
3.0
 10
6.806073449601854
 20
16.65705038285148
 30
0.0
 10
6.754975204259779
 20
16.65224130976183
 30
0.0
 10
6.652874363304647
 20
16.6411462007587
 30
0.0
 10
6.500681749012756
 20
16.61798531307954
 30
0.0
 10
6.400070386371624
 20
16.59621543836113
 30
0.0
 10
6.35204852812717
 20
16.57782998106676
 30
0.0
  0
SPLINE
  5
B5
330
1F
100
AcDbEntity
  8
0
370
    -3
100
AcDbSpline
210
0.0
220
0.0
230
1.0
 70
     8
 71
     3
 72
     8
 73
     4
 74
     0
 42
0.000000001
 43
0.0000000001
 40
-7.827057157783509
 40
-7.827057157783509
 40
-7.827057157783509
 40
-7.827057157783509
 40
-7.508943809248903
 40
-7.508943809248903
 40
-7.508943809248903
 40
-7.508943809248903
 10
-7.556975601136514
 20
16.44312590340763
 30
0.0
 10
-7.559775632794526
 20
16.33986493383844
 30
0.0
 10
-7.562575666352302
 20
16.23660397994429
 30
0.0
 10
-7.565375702006349
 20
16.13334304158313
 30
0.0
  0
SPLINE
  5
B6
330
1F
100
AcDbEntity
  8
0
370
    -3
100
AcDbSpline
210
0.0
220
0.0
230
1.0
 70
     8
 71
     3
 72
     8
 73
     4
 74
     0
 42
0.000000001
 43
0.0000000001
 40
-7.508943809248903
 40
-7.508943809248903
 40
-7.508943809248903
 40
-7.508943809248903
 40
-7.504257793518828
 40
-7.504257793518828
 40
-7.504257793518828
 40
-7.504257793518828
 10
-7.565375702006349
 20
16.13334304158313
 30
0.0
 10
-7.565416463858668
 20
16.13183980818076
 30
0.0
 10
-7.565457225711498
 20
16.13033657478167
 30
0.0
 10
-7.565659841316489
 20
16.1288377302312
 30
0.0
  0
SPLINE
  5
B7
330
1F
100
AcDbEntity
  8
0
370
    -3
100
AcDbSpline
210
0.0
220
0.0
230
1.0
 70
     8
 71
     3
 72
    14
 73
    10
 74
     0
 42
0.000000001
 43
0.0000000001
 40
-7.504257793518828
 40
-7.504257793518828
 40
-7.504257793518828
 40
-7.504257793518828
 40
-6.504448673814874
 40
-5.5044168604322
 40
-4.504385047049526
 40
-3.504353233666852
 40
-2.504321420284178
 40
-1.504289606901503
 40
-0.5042577935188287
 40
-0.5042577935188287
 40
-0.5042577935188287
 40
-0.5042577935188287
 10
-7.565659841316489
 20
16.1288377302312
 30
0.0
 10
-7.568096666347998
 20
16.04895847652554
 30
0.0
 10
-7.529506589712241
 20
15.88825434265914
 30
0.0
 10
-7.359279460952251
 20
15.70768811991931
 30
0.0
 10
-7.127746989948491
 20
15.63015437804609
 30
0.0
 10
-6.888197671313122
 20
15.61084066828471
 30
0.0
 10
-6.647204150298876
 20
15.65008074772608
 30
0.0
 10
-6.45025608939909
 20
15.80112147161589
 30
0.0
 10
-6.386311318290893
 20
15.95350984604974
 30
0.0
 10
-6.375718374641366
 20
16.0327451656307
 30
0.0
  0
LINE
  5
B8
330
1F
100
AcDbEntity
  8
0
370
    -3
100
AcDbLine
 10
-6.375718374641366
 20
16.0327451656307
 30
0.0
 11
-6.30615169241014
 21
16.54455557501812
 31
0.0
  0
LINE
  5
B9
330
1F
100
AcDbEntity
  8
0
370
    -3
100
AcDbLine
 10
-6.30615169241014
 20
16.54455557501812
 30
0.0
 11
-6.29609862988724
 21
16.91501489084348
 31
0.0
  0
SPLINE
  5
BA
330
1F
100
AcDbEntity
  8
0
370
    -3
100
AcDbSpline
210
0.0
220
0.0
230
1.0
 70
     8
 71
     3
 72
     8
 73
     4
 74
     0
 42
0.000000001
 43
0.0000000001
 40
0.3926791277885351
 40
0.3926791277885351
 40
0.3926791277885351
 40
0.3926791277885351
 40
1.392679127788535
 40
1.392679127788535
 40
1.392679127788535
 40
1.392679127788535
 10
-6.29609862988724
 20
16.91501489084348
 30
0.0
 10
-6.35626230872569
 20
17.02200012771871
 30
0.0
 10
-7.242124734588998
 20
17.1359175910449
 30
0.0
 10
-7.486333662519087
 20
17.12144880875516
 30
0.0
  0
LINE
  5
BB
330
1F
100
AcDbEntity
  8
0
370
    -3
100
AcDbLine
 10
-7.486333662519087
 20
17.12144880875516
 30
0.0
 11
-7.492933026544506
 21
17.07264249891085
 31
0.0
  0
SPLINE
  5
BC
330
1F
100
AcDbEntity
  8
0
370
    -3
100
AcDbSpline
210
0.0
220
0.0
230
1.0
 70
     8
 71
     3
 72
     8
 73
     4
 74
     0
 42
0.000000001
 43
0.0000000001
 40
-7.827057157783509
 40
-7.827057157783509
 40
-7.827057157783509
 40
-7.827057157783509
 40
-7.508943809248903
 40
-7.508943809248903
 40
-7.508943809248903
 40
-7.508943809248903
 10
7.556970075492586
 20
16.44312590340763
 30
0.0
 10
7.559770107150598
 20
16.33986493383844
 30
0.0
 10
7.562570140708374
 20
16.23660397994429
 30
0.0
 10
7.565370176362421
 20
16.13334304158313
 30
0.0
  0
SPLINE
  5
BD
330
1F
100
AcDbEntity
  8
0
370
    -3
100
AcDbSpline
210
0.0
220
0.0
230
1.0
 70
     8
 71
     3
 72
     8
 73
     4
 74
     0
 42
0.000000001
 43
0.0000000001
 40
-7.508943809248903
 40
-7.508943809248903
 40
-7.508943809248903
 40
-7.508943809248903
 40
-7.504257793518828
 40
-7.504257793518828
 40
-7.504257793518828
 40
-7.504257793518828
 10
7.565370176362421
 20
16.13334304158313
 30
0.0
 10
7.56541093821474
 20
16.13183980818076
 30
0.0
 10
7.56545170006757
 20
16.13033657478167
 30
0.0
 10
7.56565431567256
 20
16.1288377302312
 30
0.0
  0
SPLINE
  5
BE
330
1F
100
AcDbEntity
  8
0
370
    -3
100
AcDbSpline
210
0.0
220
0.0
230
1.0
 70
     8
 71
     3
 72
    14
 73
    10
 74
     0
 42
0.000000001
 43
0.0000000001
 40
-7.504257793518828
 40
-7.504257793518828
 40
-7.504257793518828
 40
-7.504257793518828
 40
-6.504448673814874
 40
-5.5044168604322
 40
-4.504385047049526
 40
-3.504353233666852
 40
-2.504321420284178
 40
-1.504289606901503
 40
-0.5042577935188287
 40
-0.5042577935188287
 40
-0.5042577935188287
 40
-0.5042577935188287
 10
7.56565431567256
 20
16.1288377302312
 30
0.0
 10
7.56809114070407
 20
16.04895847652554
 30
0.0
 10
7.529501064068313
 20
15.88825434265914
 30
0.0
 10
7.359273935308323
 20
15.70768811991931
 30
0.0
 10
7.127741464304563
 20
15.63015437804609
 30
0.0
 10
6.888192145669194
 20
15.61084066828471
 30
0.0
 10
6.647198624654948
 20
15.65008074772608
 30
0.0
 10
6.450250563755162
 20
15.80112147161589
 30
0.0
 10
6.386305792646965
 20
15.95350984604974
 30
0.0
 10
6.375712848997438
 20
16.0327451656307
 30
0.0
  0
LINE
  5
BF
330
1F
100
AcDbEntity
  8
0
370
    -3
100
AcDbLine
 10
6.375712848997438
 20
16.0327451656307
 30
0.0
 11
6.306146166766212
 21
16.54455557501812
 31
0.0
  0
LINE
  5
C0
330
1F
100
AcDbEntity
  8
0
370
    -3
100
AcDbLine
 10
6.306146166766212
 20
16.54455557501812
 30
0.0
 11
6.296093104243312
 21
16.91501489084348
 31
0.0
  0
SPLINE
  5
C1
330
1F
100
AcDbEntity
  8
0
370
    -3
100
AcDbSpline
210
0.0
220
0.0
230
1.0
 70
     8
 71
     3
 72
     8
 73
     4
 74
     0
 42
0.000000001
 43
0.0000000001
 40
0.3926791277885351
 40
0.3926791277885351
 40
0.3926791277885351
 40
0.3926791277885351
 40
1.392679127788535
 40
1.392679127788535
 40
1.392679127788535
 40
1.392679127788535
 10
6.296093104243312
 20
16.91501489084348
 30
0.0
 10
6.356256783081761
 20
17.02200012771871
 30
0.0
 10
7.24211920894507
 20
17.1359175910449
 30
0.0
 10
7.486328136875159
 20
17.12144880875516
 30
0.0
  0
LINE
  5
C2
330
1F
100
AcDbEntity
  8
0
370
    -3
100
AcDbLine
 10
7.486328136875159
 20
17.12144880875516
 30
0.0
 11
7.492927500900578
 21
17.07264249891085
 31
0.0
  0
SPLINE
  5
C3
330
1F
100
AcDbEntity
  8
0
370
    -3
100
AcDbSpline
210
0.0
220
0.0
230
1.0
 70
     8
 71
     3
 72
     8
 73
     4
 74
     0
 42
0.000000001
 43
0.0000000001
 40
-1.0
 40
-1.0
 40
-1.0
 40
-1.0
 40
0.0
 40
0.0
 40
0.0
 40
0.0
 10
6.298039256138566
 20
16.84197415201359
 30
0.0
 10
4.202591609844632
 20
16.68738777840969
 30
0.0
 10
2.101021404530684
 20
16.62204518892089
 30
0.0
 10
-0.0000027628219641
 20
16.63647923779749
 30
0.0
  0
SPLINE
  5
C4
330
1F
100
AcDbEntity
  8
0
370
    -3
100
AcDbSpline
210
0.0
220
0.0
230
1.0
 70
     8
 71
     3
 72
     8
 73
     4
 74
     0
 42
0.000000001
 43
0.0000000001
 40
0.0
 40
0.0
 40
0.0
 40
0.0
 40
1.0
 40
1.0
 40
1.0
 40
1.0
 10
-0.0000027628219641
 20
16.63647923779749
 30
0.0
 10
-2.101026930174612
 20
16.62204518892089
 30
0.0
 10
-4.20259713548856
 20
16.68738777840969
 30
0.0
 10
-6.298044781782494
 20
16.84197415201359
 30
0.0
  0
SPLINE
  5
C5
330
1F
100
AcDbEntity
  8
0
370
    -3
100
AcDbSpline
210
0.0
220
0.0
230
1.0
 70
     8
 71
     3
 72
    13
 73
     9
 74
     0
 42
0.000000001
 43
0.0000000001
 40
0.0
 40
0.0
 40
0.0
 40
0.0
 40
1.0
 40
2.0
 40
3.0
 40
4.0
 40
5.0
 40
6.0
 40
6.0
 40
6.0
 40
6.0
 10
-6.9762811124981
 20
15.62153140544524
 30
0.0
 10
-7.054971225418853
 20
15.59629797485474
 30
0.0
 10
-7.219967980560796
 20
15.58176978765425
 30
0.0
 10
-7.467232453894951
 20
15.60951874187843
 30
0.0
 10
-7.69389563198655
 20
15.71944259068319
 30
0.0
 10
-7.839597354993884
 20
15.93436027501146
 30
0.0
 10
-7.836145546074732
 20
16.18599317585
 30
0.0
 10
-7.834744623368465
 20
16.34909905868463
 30
0.0
 10
-7.833895442852736
 20
16.43158219423495
 30
0.0
  0
SPLINE
  5
C6
330
1F
100
AcDbEntity
  8
0
370
    -3
100
AcDbSpline
210
0.0
220
0.0
230
1.0
 70
     8
 71
     3
 72
    13
 73
     9
 74
     0
 42
0.000000001
 43
0.0000000001
 40
0.0
 40
0.0
 40
0.0
 40
0.0
 40
1.0
 40
2.0
 40
3.0
 40
4.0
 40
5.0
 40
6.0
 40
6.0
 40
6.0
 40
6.0
 10
6.976275582778499
 20
15.62153140544524
 30
0.0
 10
7.054965695699252
 20
15.59629797485474
 30
0.0
 10
7.219962450841194
 20
15.58176978765425
 30
0.0
 10
7.46722692417535
 20
15.60951874187843
 30
0.0
 10
7.693890102266948
 20
15.71944259068319
 30
0.0
 10
7.839591825274283
 20
15.93436027501146
 30
0.0
 10
7.836140016355131
 20
16.18599317585
 30
0.0
 10
7.834739093648864
 20
16.34909905868463
 30
0.0
 10
7.833889913133135
 20
16.43158219423495
 30
0.0
  0
SPLINE
  5
C7
330
1F
100
AcDbEntity
  8
0
370
    -3
100
AcDbSpline
210
0.0
220
0.0
230
1.0
 70
     8
 71
     3
 72
     8
 73
     4
 74
     0
 42
0.000000001
 43
0.0000000001
 40
0.0
 40
0.0
 40
0.0
 40
0.0
 40
1.0
 40
1.0
 40
1.0
 40
1.0
 10
-7.669259894174445
 20
17.11947900390612
 30
0.0
 10
-7.607376352016843
 20
17.13419170450618
 30
0.0
 10
-7.543473119928535
 20
17.13791661881774
 30
0.0
 10
-7.480048224844722
 20
17.13783254112998
 30
0.0
  0
SPLINE
  5
C8
330
1F
100
AcDbEntity
  8
0
370
    -3
100
AcDbSpline
210
0.0
220
0.0
230
1.0
 70
     8
 71
     3
 72
     8
 73
     4
 74
     0
 42
0.000000001
 43
0.0000000001
 40
1.0
 40
1.0
 40
1.0
 40
1.0
 40
2.0
 40
2.0
 40
2.0
 40
2.0
 10
-7.480048224844722
 20
17.13783254112998
 30
0.0
 10
-7.358987276162424
 20
17.13760173410876
 30
0.0
 10
-7.149155906001482
 20
17.12052598841501
 30
0.0
 10
-7.028722145580275
 20
17.10630742111509
 30
0.0
  0
SPLINE
  5
C9
330
1F
100
AcDbEntity
  8
0
370
    -3
100
AcDbSpline
210
0.0
220
0.0
230
1.0
 70
     8
 71
     3
 72
    14
 73
    10
 74
     0
 42
0.000000001
 43
0.0000000001
 40
2.0
 40
2.0
 40
2.0
 40
2.0
 40
3.0
 40
4.0
 40
5.0
 40
6.0
 40
7.0
 40
8.0
 40
9.0
 40
9.0
 40
9.0
 40
9.0
 10
-7.028722145580275
 20
17.10630742111509
 30
0.0
 10
-6.695333034832146
 20
17.06694706657947
 30
0.0
 10
-6.033180719395773
 20
16.95484167681313
 30
0.0
 10
-5.031873249531998
 20
16.84495723262771
 30
0.0
 10
-4.02714575570019
 20
16.77598124357276
 30
0.0
 10
-3.02074781685414
 20
16.73961526681093
 30
0.0
 10
-2.013908488626299
 20
16.72294489732251
 30
0.0
 10
-1.006960055725074
 20
16.71714579990473
 30
0.0
 10
-0.3356551410985276
 20
16.71667917573508
 30
0.0
 10
-0.0000027645293699
 20
16.71667150600365
 30
0.0
  0
SPLINE
  5
CA
330
1F
100
AcDbEntity
  8
0
370
    -3
100
AcDbSpline
210
0.0
220
0.0
230
1.0
 70
     8
 71
     3
 72
    14
 73
    10
 74
     0
 42
0.000000001
 43
0.0000000001
 40
9.0
 40
9.0
 40
9.0
 40
9.0
 40
10.0
 40
11.0
 40
12.0
 40
13.0
 40
14.0
 40
15.0
 40
16.0
 40
16.0
 40
16.0
 40
16.0
 10
-0.0000027645293699
 20
16.71667150600365
 30
0.0
 10
0.3356496120397878
 20
16.71667917573508
 30
0.0
 10
1.006954526666334
 20
16.71714579990473
 30
0.0
 10
2.013902959567559
 20
16.72294489732251
 30
0.0
 10
3.0207422877954
 20
16.73961526681093
 30
0.0
 10
4.02714022664145
 20
16.77598124357276
 30
0.0
 10
5.031867720473258
 20
16.84495723262771
 30
0.0
 10
6.033175190337033
 20
16.95484167681313
 30
0.0
 10
6.695327505773406
 20
17.06694706657947
 30
0.0
 10
7.028716616521535
 20
17.10630742111509
 30
0.0
  0
SPLINE
  5
CB
330
1F
100
AcDbEntity
  8
0
370
    -3
100
AcDbSpline
210
0.0
220
0.0
230
1.0
 70
     8
 71
     3
 72
     8
 73
     4
 74
     0
 42
0.000000001
 43
0.0000000001
 40
16.0
 40
16.0
 40
16.0
 40
16.0
 40
17.0
 40
17.0
 40
17.0
 40
17.0
 10
7.028716616521535
 20
17.10630742111509
 30
0.0
 10
7.149150376942742
 20
17.12052598841501
 30
0.0
 10
7.358981747103684
 20
17.13760173410876
 30
0.0
 10
7.480042695785983
 20
17.13783254112998
 30
0.0
  0
SPLINE
  5
CC
330
1F
100
AcDbEntity
  8
0
370
    -3
100
AcDbSpline
210
0.0
220
0.0
230
1.0
 70
     8
 71
     3
 72
     8
 73
     4
 74
     0
 42
0.000000001
 43
0.0000000001
 40
17.0
 40
17.0
 40
17.0
 40
17.0
 40
18.0
 40
18.0
 40
18.0
 40
18.0
 10
7.480042695785983
 20
17.13783254112998
 30
0.0
 10
7.543467590869795
 20
17.13791661881774
 30
0.0
 10
7.607370822958103
 20
17.13419170450618
 30
0.0
 10
7.669254365115705
 20
17.11947900390612
 30
0.0
  0
SPLINE
  5
CD
330
1F
100
AcDbEntity
  8
0
370
    -3
100
AcDbSpline
210
0.0
220
0.0
230
1.0
 70
     8
 71
     3
 72
    13
 73
     9
 74
     0
 42
0.000000001
 43
0.0000000001
 40
0.0
 40
0.0
 40
0.0
 40
0.0
 40
1.0
 40
2.0
 40
3.0
 40
4.0
 40
5.0
 40
6.0
 40
6.0
 40
6.0
 40
6.0
 10
23.38430984992402
 20
23.03561950983283
 30
0.0
 10
23.42174346892139
 20
22.67412609388104
 30
0.0
 10
23.48405327295404
 20
21.94999918307818
 30
0.0
 10
23.56992301501057
 20
20.8630439136755
 30
0.0
 10
23.7013606067145
 20
19.78055372929714
 30
0.0
 10
23.90410762164817
 20
18.7078014910321
 30
0.0
 10
24.29542209839349
 20
17.68139409206276
 30
0.0
 10
24.74957554137885
 20
17.10105831118092
 30
0.0
 10
25.02331817971461
 20
16.86150295857468
 30
0.0
  0
SPLINE
  5
CE
330
1F
100
AcDbEntity
  8
0
370
    -3
100
AcDbSpline
210
0.0
220
0.0
230
1.0
 70
    12
 71
     3
 72
     8
 73
     4
 74
     0
 42
0.000000001
 43
0.0000000001
 40
0.0214044668833789
 40
0.0214044668833789
 40
0.0214044668833789
 40
0.0214044668833789
 40
0.9785955331167818
 40
0.9785955331167818
 40
0.9785955331167818
 40
0.9785955331167818
 10
22.46431932876877
 20
0.2248165289385015
 30
0.0
 41
1.355227453722939
 10
22.4506917957283
 20
0.135056571604823
 30
0.0
 41
1.09060283295985
 10
22.50453138982054
 20
0.0619496893391075
 30
0.0
 41
1.090602832959895
 10
22.59429960701888
 20
0.048320902269804
 30
0.0
 41
1.355227453723072
  0
LINE
  5
CF
330
1F
100
AcDbEntity
  8
0
370
    -3
100
AcDbLine
 10
22.59429960701888
 20
0.0483209022698077
 30
0.0
 11
22.90078747164745
 21
0.0017893126190245
 31
0.0
  0
SPLINE
  5
D0
330
1F
100
AcDbEntity
  8
0
370
    -3
100
AcDbSpline
210
0.0
220
0.0
230
1.0
 70
    12
 71
     3
 72
     8
 73
     4
 74
     0
 42
0.000000001
 43
0.0000000001
 40
1.288595533116792
 40
1.288595533116792
 40
1.288595533116792
 40
1.288595533116792
 40
2.245786599350195
 40
2.245786599350195
 40
2.245786599350195
 40
2.245786599350195
 10
22.90078747164743
 20
0.0017893126190219
 30
0.0
 41
1.355227453723072
 10
22.99055568884576
 20
-0.0118394744503322
 30
0.0
 41
1.090602832959895
 10
23.06366752498542
 20
0.0419933923032654
 30
0.0
 41
1.09060283295985
 10
23.07729505802594
 20
0.1317533496369282
 30
0.0
 41
1.355227453722939
  0
SPLINE
  5
D1
330
1F
100
AcDbEntity
  8
0
370
    -3
100
AcDbSpline
210
0.0
220
0.0
230
1.0
 70
    12
 71
     3
 72
     8
 73
     4
 74
     0
 42
0.000000001
 43
0.0000000001
 40
0.0214044668833789
 40
0.0214044668833789
 40
0.0214044668833789
 40
0.0214044668833789
 40
0.9785955331167818
 40
0.9785955331167818
 40
0.9785955331167818
 40
0.9785955331167818
 10
40.00862926205742
 20
0.1614311090001748
 30
0.0
 41
1.355227453722939
 10
40.01356313139916
 20
0.0708144743241416
 30
0.0
 41
1.09060283295985
 10
40.08116005031417
 20
0.010229379997905
 30
0.0
 41
1.090602832959895
 10
40.17182266047665
 20
0.0151657526001686
 30
0.0
 41
1.355227453723072
  0
LINE
  5
D2
330
1F
100
AcDbEntity
  8
0
370
    -3
100
AcDbLine
 10
40.17182266047666
 20
0.0151657526001685
 30
0.0
 11
40.48136417369361
 21
0.0320195828876706
 31
0.0
  0
SPLINE
  5
D3
330
1F
100
AcDbEntity
  8
0
370
    -3
100
AcDbSpline
210
0.0
220
0.0
230
1.0
 70
    12
 71
     3
 72
     8
 73
     4
 74
     0
 42
0.000000001
 43
0.0000000001
 40
1.288595533116772
 40
1.288595533116772
 40
1.288595533116772
 40
1.288595533116772
 40
2.245786599350175
 40
2.245786599350175
 40
2.245786599350175
 40
2.245786599350175
 10
40.48136417369361
 20
0.032019582887665
 30
0.0
 41
1.355227453723072
 10
40.57202678385615
 20
0.0369559554898767
 30
0.0
 41
1.090602832959895
 10
40.63264615783306
 20
0.1045221348991235
 30
0.0
 41
1.09060283295985
 10
40.62771228849137
 20
0.195138769575171
 30
0.0
 41
1.355227453722939
  0
SPLINE
  5
D4
330
1F
100
AcDbEntity
  8
0
370
    -3
100
AcDbSpline
210
0.0
220
0.0
230
1.0
 70
     8
 71
     3
 72
    10
 73
     6
 74
     0
 42
0.000000001
 43
0.0000000001
 40
0.0
 40
0.0
 40
0.0
 40
0.0
 40
1.0
 40
2.0
 40
3.0
 40
3.0
 40
3.0
 40
3.0
 10
31.23683293545781
 20
15.9633178214678
 30
0.0
 10
31.09124471143744
 20
15.94201895765711
 30
0.0
 10
30.79965567493326
 20
15.90221475887769
 30
0.0
 10
30.36101175618944
 20
15.85252787613886
 30
0.0
 10
30.06779027586012
 20
15.82727883674468
 30
0.0
 10
29.92101548699912
 20
15.81693273293979
 30
0.0
  0
SPLINE
  5
D5
330
1F
100
AcDbEntity
  8
0
370
    -3
100
AcDbSpline
210
0.0
220
0.0
230
1.0
 70
     8
 71
     3
 72
     8
 73
     4
 74
     0
 42
0.000000001
 43
0.0000000001
 40
0.5266866010623173
 40
0.5266866010623173
 40
0.5266866010623173
 40
0.5266866010623173
 40
1.102729082821818
 40
1.102729082821818
 40
1.102729082821818
 40
1.102729082821818
 10
27.36379602083105
 20
15.83157225323156
 30
0.0
 10
27.48281053047131
 20
15.76600051986074
 30
0.0
 10
27.60834380913329
 20
15.71707615377674
 30
0.0
 10
27.7385297866698
 20
15.68676466913595
 30
0.0
  0
SPLINE
  5
D6
330
1F
100
AcDbEntity
  8
0
370
    -3
100
AcDbSpline
210
0.0
220
0.0
230
1.0
 70
    12
 71
     3
 72
     8
 73
     4
 74
     0
 42
0.000000001
 43
0.0000000001
 40
1.102729082821818
 40
1.102729082821818
 40
1.102729082821818
 40
1.102729082821818
 40
4.346940304031026
 40
4.346940304031026
 40
4.346940304031026
 40
4.346940304031026
 10
27.73852978666976
 20
15.68676466913596
 30
0.0
 41
0.9105540511506127
 10
28.37503775586886
 20
15.53821937445615
 30
0.0
 41
0.9105540511506127
 10
29.01154572853162
 20
15.38967409461837
 30
0.0
 41
0.9105540511506132
 10
29.64805370119436
 20
15.24112881478057
 30
0.0
 41
0.9105540511506127
  0
SPLINE
  5
D7
330
1F
100
AcDbEntity
  8
0
370
    -3
100
AcDbSpline
210
0.0
220
0.0
230
1.0
 70
     8
 71
     2
 72
    10
 73
     7
 74
     0
 42
0.000000001
 43
0.0000000001
 40
4.346940304031026
 40
4.346940304031026
 40
4.346940304031026
 40
5.346940304031026
 40
6.346940304031026
 40
7.346940304031026
 40
8.346940304031026
 40
9.346940304031026
 40
9.346940304031026
 40
9.346940304031026
 10
29.64805370119439
 20
15.24112881478058
 30
0.0
 10
29.64747977257926
 20
15.12092887446181
 30
0.0
 10
29.76688693146994
 20
14.96330689675338
 30
0.0
 10
29.95972546489077
 20
14.89952805874428
 30
0.0
 10
30.15264817069882
 20
14.9623756335948
 30
0.0
 10
30.27167868756638
 20
15.1263804077801
 30
0.0
 10
30.2722504540871
 20
15.22785553854773
 30
0.0
  0
LINE
  5
D8
330
1F
100
AcDbEntity
  8
0
370
    -3
100
AcDbLine
 10
30.2722504540871
 20
15.22785553854773
 30
0.0
 11
30.27143711806849
 21
15.46328777102281
 31
0.0
  0
SPLINE
  5
D9
330
1F
100
AcDbEntity
  8
0
370
    -3
100
AcDbSpline
210
0.0
220
0.0
230
1.0
 70
     8
 71
     2
 72
    10
 73
     7
 74
     0
 42
0.000000001
 43
0.0000000001
 40
9.582373941397654
 40
9.582373941397654
 40
9.582373941397654
 40
10.58237394139765
 40
11.58237394139765
 40
12.58237394139765
 40
13.58237394139765
 40
14.58237394139765
 40
14.58237394139765
 40
14.58237394139765
 10
30.27143711806849
 20
15.46328777102281
 30
0.0
 10
30.26707524530133
 20
15.5256198753226
 30
0.0
 10
30.21402533086359
 20
15.63860983884807
 30
0.0
 10
30.12619962617151
 20
15.72704001069866
 30
0.0
 10
30.01685723093362
 20
15.78570485064019
 30
0.0
 10
29.89948076038002
 20
15.82470569139743
 30
0.0
 10
29.83894195373648
 20
15.83837474907094
 30
0.0
  0
SPLINE
  5
DA
330
1F
100
AcDbEntity
  8
0
370
    -3
100
AcDbSpline
210
0.0
220
0.0
230
1.0
 70
    12
 71
     3
 72
     8
 73
     4
 74
     0
 42
0.000000001
 43
0.0000000001
 40
14.58237394139765
 40
14.58237394139765
 40
14.58237394139765
 40
14.58237394139765
 40
17.90914285521995
 40
17.90914285521995
 40
17.90914285521995
 40
17.90914285521995
 10
29.83894195373651
 20
15.83837474907094
 30
0.0
 41
0.9105540511506107
 10
29.1859654753134
 20
15.99076320072529
 30
0.0
 41
0.910554051150611
 10
28.53324154244124
 20
16.14309288618029
 30
0.0
 41
0.9105540511506107
 10
27.88046406720028
 20
16.29543505145476
 30
0.0
 41
0.9105540511506107
  0
SPLINE
  5
DB
330
1F
100
AcDbEntity
  8
0
370
    -3
100
AcDbSpline
210
0.0
220
0.0
230
1.0
 70
     8
 71
     3
 72
     8
 73
     4
 74
     0
 42
0.000000001
 43
0.0000000001
 40
17.90914285521995
 40
17.90914285521995
 40
17.90914285521995
 40
17.90914285521995
 40
18.65579743548038
 40
18.65579743548038
 40
18.65579743548038
 40
18.65579743548038
 10
27.88046406720028
 20
16.29543505145476
 30
0.0
 10
27.76551166848571
 20
16.32219492855468
 30
0.0
 10
27.65144892340578
 20
16.37598577782188
 30
0.0
 10
27.54104653438026
 20
16.46021287552701
 30
0.0
  0
SPLINE
  5
DC
330
1F
100
AcDbEntity
  8
0
370
    -3
100
AcDbSpline
210
0.0
220
0.0
230
1.0
 70
     8
 71
     2
 72
     6
 73
     3
 74
     0
 42
0.000000001
 43
0.0000000001
 40
0.0
 40
0.0
 40
0.0
 40
1.0
 40
1.0
 40
1.0
 10
36.4710049590615
 20
16.80245589700344
 30
0.0
 10
33.74501365492492
 20
16.3654267628965
 30
0.0
 10
31.01902235113218
 20
15.92839762664488
 30
0.0
  0
SPLINE
  5
DD
330
1F
100
AcDbEntity
  8
0
370
    -3
100
AcDbSpline
210
0.0
220
0.0
230
1.0
 70
     8
 71
     2
 72
    10
 73
     7
 74
     0
 42
0.000000001
 43
0.0000000001
 40
1.0
 40
1.0
 40
1.0
 40
1.999945861247162
 40
2.999959395935372
 40
3.999972930623581
 40
4.999986465311791
 40
6.0
 40
6.0
 40
6.0
 10
31.01902235113218
 20
15.92839762664488
 30
0.0
 10
30.92379698116792
 20
15.91341435558822
 30
0.0
 10
30.73490035876878
 20
15.87483096619978
 30
0.0
 10
30.54924260870877
 20
15.82197790202058
 30
0.0
 10
30.37779648048786
 20
15.72880629941183
 30
0.0
 10
30.27127335915816
 20
15.56235581513509
 30
0.0
 10
30.2722821302724
 20
15.46314054930045
 30
0.0
  0
LINE
  5
DE
330
1F
100
AcDbEntity
  8
0
370
    -3
100
AcDbLine
 10
30.2722821302724
 20
15.46314054930045
 30
0.0
 11
30.27225045408716
 21
15.3002962408198
 31
0.0
  0
SPLINE
  5
DF
330
1F
100
AcDbEntity
  8
0
370
    -3
100
AcDbSpline
210
0.0
220
0.0
230
1.0
 70
     8
 71
     2
 72
    10
 73
     7
 74
     0
 42
0.000000001
 43
0.0000000001
 40
6.162844311561436
 40
6.162844311561436
 40
6.162844311561436
 40
7.162844311561436
 40
8.162844311561436
 40
9.162844311561436
 40
10.16284431156144
 40
11.16284431156144
 40
11.16284431156144
 40
11.16284431156144
 10
30.27225045408716
 20
15.3002962408198
 30
0.0
 10
30.27275084383956
 20
15.20236811239218
 30
0.0
 10
30.38434275767383
 20
15.04171376998698
 30
0.0
 10
30.56786010050672
 20
14.97359555745155
 30
0.0
 10
30.75737976623563
 20
15.0224206783511
 30
0.0
 10
30.88517874722734
 20
15.17069937966795
 30
0.0
 10
30.89511203481121
 20
15.2680730808332
 30
0.0
  0
SPLINE
  5
E0
330
1F
100
AcDbEntity
  8
0
370
    -3
100
AcDbSpline
210
0.0
220
0.0
230
1.0
 70
     8
 71
     2
 72
     6
 73
     3
 74
     0
 42
0.000000001
 43
0.0000000001
 40
11.16284431156144
 40
11.16284431156144
 40
11.16284431156144
 40
12.16284431156144
 40
12.16284431156144
 40
12.16284431156144
 10
30.89511203481121
 20
15.2680730808332
 30
0.0
 10
33.75384043588446
 20
15.73760001800743
 30
0.0
 10
36.61523369791115
 20
16.19259754467888
 30
0.0
  0
SPLINE
  5
E1
330
1F
100
AcDbEntity
  8
0
370
    -3
100
AcDbSpline
210
0.0
220
0.0
230
1.0
 70
    12
 71
     3
 72
     8
 73
     4
 74
     0
 42
0.000000001
 43
0.0000000001
 40
1.152166011579844
 40
1.152166011579844
 40
1.152166011579844
 40
1.152166011579844
 40
2.12573434321113
 40
2.12573434321113
 40
2.12573434321113
 40
2.12573434321113
 10
26.89175501569971
 20
17.03572015614159
 30
0.0
 41
0.8565370630951956
 10
26.72844797782236
 20
17.181616383569
 30
0.0
 41
0.8565370630951956
 10
26.56514093994508
 20
17.32751261099639
 30
0.0
 41
0.8565370630951956
 10
26.40161090057417
 20
17.47360823194047
 30
0.0
 41
0.8565370630951958
  0
SPLINE
  5
E2
330
1F
100
AcDbEntity
  8
0
370
    -3
100
AcDbSpline
210
0.0
220
0.0
230
1.0
 70
     8
 71
     3
 72
    14
 73
    10
 74
     0
 42
0.000000001
 43
0.0000000001
 40
2.12573434321113
 40
2.12573434321113
 40
2.12573434321113
 40
2.12573434321113
 40
3.12573434321113
 40
4.12573434321113
 40
5.12573434321113
 40
6.12573434321113
 40
7.12573434321113
 40
8.12573434321113
 40
9.12573434321113
 40
9.12573434321113
 40
9.12573434321113
 40
9.12573434321113
 10
26.40161090057416
 20
17.47360823194046
 30
0.0
 10
26.32438581446505
 20
17.54292229894661
 30
0.0
 10
26.14172442805571
 20
17.65132436722338
 30
0.0
 10
25.82353678445
 20
17.67665879797707
 30
0.0
 10
25.52727029043109
 20
17.56253449126567
 30
0.0
 10
25.29099207591889
 20
17.35524879718403
 30
0.0
 10
25.11625636221055
 20
17.09580585579167
 30
0.0
 10
24.99586213714881
 20
16.80787577700666
 30
0.0
 10
24.94865134945229
 20
16.60538213798998
 30
0.0
 10
24.93312079328365
 20
16.50263327090815
 30
0.0
  0
LINE
  5
E3
330
1F
100
AcDbEntity
  8
0
370
    -3
100
AcDbLine
 10
24.93312079328365
 20
16.50263327090815
 30
0.0
 11
22.46184765244084
 21
0.2251917836969852
 31
0.0
  0
LINE
  5
E4
330
1F
100
AcDbEntity
  8
0
370
    -3
100
AcDbLine
 10
22.46184765244084
 20
0.2251917836969852
 30
0.0
 11
23.07976673435235
 21
0.1313780948788263
 31
0.0
  0
LINE
  5
E5
330
1F
100
AcDbEntity
  8
0
370
    -3
100
AcDbLine
 10
23.07976673435235
 20
0.1313780948788263
 30
0.0
 11
25.55108390084345
 21
16.40910956430673
 31
0.0
  0
SPLINE
  5
E6
330
1F
100
AcDbEntity
  8
0
370
    -3
100
AcDbSpline
210
0.0
220
0.0
230
1.0
 70
     8
 71
     3
 72
    14
 73
    10
 74
     0
 42
0.000000001
 43
0.0000000001
 40
12.12573434321113
 40
12.12573434321113
 40
12.12573434321113
 40
12.12573434321113
 40
13.12573434321113
 40
14.12573434321113
 40
15.12573434321113
 40
16.12573434321113
 40
17.12573434321113
 40
18.12573434321113
 40
19.12573434321113
 40
19.12573434321113
 40
19.12573434321113
 40
19.12573434321113
 10
25.55108390084345
 20
16.40910956430673
 30
0.0
 10
25.55700553485977
 20
16.44830941967641
 30
0.0
 10
25.57249592807796
 20
16.52614801874458
 30
0.0
 10
25.60618662705221
 20
16.64034795770363
 30
0.0
 10
25.65068192615314
 20
16.75076878495079
 30
0.0
 10
25.70817793593545
 20
16.85538628444687
 30
0.0
 10
25.78077211969847
 20
16.94936115927064
 30
0.0
 10
25.86901711677476
 20
17.03253434235501
 30
0.0
 10
25.95632134551943
 20
17.04206780816213
 30
0.0
 10
25.98485711079411
 20
17.00783847680083
 30
0.0
  0
SPLINE
  5
E7
330
1F
100
AcDbEntity
  8
0
370
    -3
100
AcDbSpline
210
0.0
220
0.0
230
1.0
 70
    12
 71
     3
 72
     8
 73
     4
 74
     0
 42
0.000000001
 43
0.0000000001
 40
19.12573434321113
 40
19.12573434321113
 40
19.12573434321113
 40
19.12573434321113
 40
20.24044261066502
 40
20.24044261066502
 40
20.24044261066502
 40
20.24044261066502
 10
25.98485711079407
 20
17.00783847680082
 30
0.0
 41
0.8565370630951963
 10
26.17196143969826
 20
16.84068186934018
 30
0.0
 41
0.8565370630951961
 10
26.35894338985088
 20
16.67363480585246
 30
0.0
 41
0.8565370630951961
 10
26.54592534000353
 20
16.50658774236472
 30
0.0
 41
0.8565370630951961
  0
SPLINE
  5
E8
330
1F
100
AcDbEntity
  8
0
370
    -3
100
AcDbSpline
210
0.0
220
0.0
230
1.0
 70
     8
 71
     3
 72
    11
 73
     7
 74
     0
 42
0.000000001
 43
0.0000000001
 40
-4.0
 40
-4.0
 40
-4.0
 40
-4.0
 40
-3.0
 40
-2.0
 40
-1.0
 40
0.0
 40
0.0
 40
0.0
 40
0.0
 10
26.46229337162231
 20
16.58161695414594
 30
0.0
 10
26.48197061074836
 20
16.52979844886298
 30
0.0
 10
26.58510191258893
 20
16.48185401850438
 30
0.0
 10
26.74307500834715
 20
16.50230307215165
 30
0.0
 10
26.88760186170947
 20
16.57180513139403
 30
0.0
 10
26.95159237417789
 20
16.68158620327311
 30
0.0
 10
26.96221766026449
 20
16.73305372502342
 30
0.0
  0
SPLINE
  5
E9
330
1F
100
AcDbEntity
  8
0
370
    -3
100
AcDbSpline
210
0.0
220
0.0
230
1.0
 70
     8
 71
     3
 72
    11
 73
     7
 74
     0
 42
0.000000001
 43
0.0000000001
 40
-4.0
 40
-4.0
 40
-4.0
 40
-4.0
 40
-3.0
 40
-2.0
 40
-1.0
 40
0.0
 40
0.0
 40
0.0
 40
0.0
 10
26.96221766026449
 20
16.73305372502342
 30
0.0
 10
26.97042488570909
 20
16.77280847144978
 30
0.0
 10
26.96900248651548
 20
16.87323446576423
 30
0.0
 10
26.92604996162297
 20
16.98789621491123
 30
0.0
 10
26.85727566897015
 20
17.08892730358434
 30
0.0
 10
26.79342242463554
 20
17.14089913999381
 30
0.0
 10
26.75598240925996
 20
17.15681843030669
 30
0.0
  0
LINE
  5
EA
330
1F
100
AcDbEntity
  8
0
370
    -3
100
AcDbLine
 10
27.62266567523034
 20
16.91734580208205
 30
0.0
 11
27.51702508666125
 21
16.32794059575049
 31
0.0
  0
LINE
  5
EB
330
1F
100
AcDbEntity
  8
0
370
    -3
100
AcDbLine
 10
27.51702508666125
 20
16.32794059575049
 30
0.0
 11
27.39779469151475
 21
15.91604004996439
 31
0.0
  0
SPLINE
  5
EC
330
1F
100
AcDbEntity
  8
0
370
    -3
100
AcDbSpline
210
0.0
220
0.0
230
1.0
 70
     8
 71
     3
 72
    11
 73
     7
 74
     0
 42
0.000000001
 43
0.0000000001
 40
1.094349853670264
 40
1.094349853670264
 40
1.094349853670264
 40
1.094349853670264
 40
2.094349853670264
 40
3.094349853670264
 40
4.094349853670264
 40
5.094349853670264
 40
5.094349853670264
 40
5.094349853670264
 40
5.094349853670264
 10
27.39779469151475
 20
15.91604004996439
 30
0.0
 10
27.37857396009304
 20
15.84884646472898
 30
0.0
 10
27.3085293687796
 20
15.72504137429135
 30
0.0
 10
27.13165566840058
 20
15.60432198154351
 30
0.0
 10
26.92026709985879
 20
15.57816970483948
 30
0.0
 10
26.76162076431416
 20
15.61707277846745
 30
0.0
 10
26.69438091978216
 20
15.63314409812988
 30
0.0
  0
SPLINE
  5
ED
330
1F
100
AcDbEntity
  8
0
370
    -3
100
AcDbSpline
210
0.0
220
0.0
230
1.0
 70
     8
 71
     3
 72
    11
 73
     7
 74
     0
 42
0.000000001
 43
0.0000000001
 40
5.094349853670264
 40
5.094349853670264
 40
5.094349853670264
 40
5.094349853670264
 40
6.094349853670264
 40
7.094349853670263
 40
8.094349853670263
 40
9.094349853670263
 40
9.094349853670263
 40
9.094349853670263
 40
9.094349853670263
 10
26.69438091978216
 20
15.63314409812988
 30
0.0
 10
26.63242456098757
 20
15.64795258637427
 30
0.0
 10
26.48457777629977
 20
15.68663635171789
 30
0.0
 10
26.3278005725044
 20
15.8046988616377
 30
0.0
 10
26.23419653263386
 20
15.97725705732451
 30
0.0
 10
26.22461504042266
 20
16.10771797184657
 30
0.0
 10
26.23364382410733
 20
16.17105028266892
 30
0.0
  0
SPLINE
  5
EE
330
1F
100
AcDbEntity
  8
0
370
    -3
100
AcDbSpline
210
0.0
220
0.0
230
1.0
 70
     8
 71
     3
 72
     8
 73
     4
 74
     0
 42
0.000000001
 43
0.0000000001
 40
9.094349853670263
 40
9.094349853670263
 40
9.094349853670263
 40
9.094349853670263
 40
9.616149003808129
 40
9.616149003808129
 40
9.616149003808129
 40
9.616149003808129
 10
26.23364382410733
 20
16.17105028266892
 30
0.0
 10
26.26988901640922
 20
16.37374596194222
 30
0.0
 10
26.29693915395362
 20
16.5243765272007
 30
0.0
 10
26.32858683379902
 20
16.70103999806327
 30
0.0
  0
SPLINE
  5
EF
330
1F
100
AcDbEntity
  8
0
370
    -3
100
AcDbSpline
210
0.0
220
0.0
230
1.0
 70
     8
 71
     3
 72
    10
 73
     6
 74
     0
 42
0.000000001
 43
0.0000000001
 40
0.0
 40
0.0
 40
0.0
 40
0.0
 40
1.0
 40
2.0
 40
3.0
 40
3.0
 40
3.0
 40
3.0
 10
27.51494556441475
 20
16.33392115127799
 30
0.0
 10
27.50237945593832
 20
16.40780703686002
 30
0.0
 10
27.39296898567136
 20
16.5125604300864
 30
0.0
 10
27.21386015371036
 20
16.63359883708998
 30
0.0
 10
27.08356321207978
 20
16.69986959164483
 30
0.0
 10
27.01753959683464
 20
16.72989456981777
 30
0.0
  0
LINE
  5
F0
330
1F
100
AcDbEntity
  8
0
370
    -3
100
AcDbLine
 10
37.64632587544344
 20
16.35790156485223
 30
0.0
 11
38.53341590457143
 21
16.50011927485878
 31
0.0
  0
SPLINE
  5
F1
330
1F
100
AcDbEntity
  8
0
370
    -3
100
AcDbSpline
210
0.0
220
0.0
230
1.0
 70
     8
 71
     3
 72
    10
 73
     6
 74
     0
 42
0.000000001
 43
0.0000000001
 40
0.0
 40
0.0
 40
0.0
 40
0.0
 40
1.0
 40
2.0
 40
3.0
 40
3.0
 40
3.0
 40
3.0
 10
38.53341590457143
 20
16.50011927485878
 30
0.0
 10
38.64343016752446
 20
16.51904268062994
 30
0.0
 10
38.87094572547602
 20
16.45986546119326
 30
0.0
 10
39.08979021304165
 20
16.19409391854437
 30
0.0
 10
39.14486103544533
 20
15.97539557937374
 30
0.0
 10
39.15112814458922
 20
15.86452247439782
 30
0.0
  0
SPLINE
  5
F2
330
1F
100
AcDbEntity
  8
0
370
    -3
100
AcDbSpline
210
0.0
220
0.0
230
1.0
 70
     8
 71
     3
 72
     8
 73
     4
 74
     0
 42
0.000000001
 43
0.0000000001
 40
3.0
 40
3.0
 40
3.0
 40
3.0
 40
3.000092559373676
 40
3.000092559373676
 40
3.000092559373676
 40
3.000092559373676
 10
39.15112814458922
 20
15.86452247439782
 30
0.0
 10
39.15114791025957
 20
15.86415769068437
 30
0.0
 10
39.15114955168715
 20
15.8641271548683
 30
0.0
 10
39.15115119780705
 20
15.86409650064769
 30
0.0
  0
LINE
  5
F3
330
1F
100
AcDbEntity
  8
0
370
    -3
100
AcDbLine
 10
39.15115119780705
 20
15.86409650064769
 30
0.0
 11
40.00613295953119
 21
0.1612951910100122
 31
0.0
  0
LINE
  5
F4
330
1F
100
AcDbEntity
  8
0
370
    -3
100
AcDbLine
 10
40.00613295953119
 20
0.1612951910100122
 30
0.0
 11
40.63020859101653
 21
0.1952746875654867
 31
0.0
  0
LINE
  5
F5
330
1F
100
AcDbEntity
  8
0
370
    -3
100
AcDbLine
 10
40.63020859101653
 20
0.1952746875654867
 30
0.0
 11
39.77522684207878
 21
15.89807576073783
 31
0.0
  0
SPLINE
  5
F6
330
1F
100
AcDbEntity
  8
0
370
    -3
100
AcDbSpline
210
0.0
220
0.0
230
1.0
 70
     8
 71
     3
 72
    10
 73
     6
 74
     0
 42
0.000000001
 43
0.0000000001
 40
6.000092559373677
 40
6.000092559373677
 40
6.000092559373677
 40
6.000092559373677
 40
7.000092400427945
 40
8.000092479900811
 40
9.000092559373677
 40
9.000092559373677
 40
9.000092559373677
 40
9.000092559373677
 10
39.77522684207878
 20
15.89807576073783
 30
0.0
 10
39.76285542158246
 20
16.12471751922595
 30
0.0
 10
39.63294624180116
 20
16.57373465242667
 30
0.0
 10
39.12938607501417
 20
17.07199147720281
 30
0.0
 10
38.6588388835907
 20
17.15455667912792
 30
0.0
 10
38.43441697848081
 20
17.11722883454452
 30
0.0
  0
LINE
  5
F7
330
1F
100
AcDbEntity
  8
0
370
    -3
100
AcDbLine
 10
38.43441697848081
 20
17.11722883454452
 30
0.0
 11
37.48023438848449
 21
16.96425489577013
 31
0.0
  0
SPLINE
  5
F8
330
1F
100
AcDbEntity
  8
0
370
    -3
100
AcDbSpline
210
0.0
220
0.0
230
1.0
 70
     8
 71
     3
 72
    10
 73
     6
 74
     0
 42
0.000000001
 43
0.0000000001
 40
0.0
 40
0.0
 40
0.0
 40
0.0
 40
1.0
 40
2.0
 40
3.0
 40
3.0
 40
3.0
 40
3.0
 10
37.72430072722733
 20
16.3704024419005
 30
0.0
 10
37.6822437876653
 20
16.33569717456976
 30
0.0
 10
37.57843112084512
 20
16.37914563391121
 30
0.0
 10
37.45472109864113
 20
16.45884429562163
 30
0.0
 10
37.38987341651818
 20
16.54029977976333
 30
0.0
 10
37.37063677127429
 20
16.58682691880502
 30
0.0
  0
SPLINE
  5
F9
330
1F
100
AcDbEntity
  8
0
370
    -3
100
AcDbSpline
210
0.0
220
0.0
230
1.0
 70
     8
 71
     3
 72
     8
 73
     4
 74
     0
 42
0.000000001
 43
0.0000000001
 40
3.0
 40
3.0
 40
3.0
 40
3.0
 40
4.0
 40
4.0
 40
4.0
 40
4.0
 10
37.37063677127429
 20
16.58682691880502
 30
0.0
 10
37.33835076331107
 20
16.66491618866263
 30
0.0
 10
37.34075847101772
 20
16.76899370958614
 30
0.0
 10
37.3787302056451
 20
16.84390456341752
 30
0.0
  0
SPLINE
  5
FA
330
1F
100
AcDbEntity
  8
0
370
    -3
100
AcDbSpline
210
0.0
220
0.0
230
1.0
 70
     8
 71
     3
 72
    10
 73
     6
 74
     0
 42
0.000000001
 43
0.0000000001
 40
4.0
 40
4.0
 40
4.0
 40
4.0
 40
5.0
 40
6.0
 40
7.0
 40
7.0
 40
7.0
 40
7.0
 10
37.3787302056451
 20
16.84390456341752
 30
0.0
 10
37.3914061565666
 20
16.86891175142122
 30
0.0
 10
37.42302065499871
 20
16.9156199157861
 30
0.0
 10
37.48359395586306
 20
16.97435900423
 30
0.0
 10
37.54136092171149
 20
16.99282661599223
 30
0.0
 10
37.5674629973517
 20
16.97830770752445
 30
0.0
  0
SPLINE
  5
FB
330
1F
100
AcDbEntity
  8
0
370
    -3
100
AcDbSpline
210
0.0
220
0.0
230
1.0
 70
     8
 71
     3
 72
    10
 73
     6
 74
     0
 42
0.000000001
 43
0.0000000001
 40
0.0
 40
0.0
 40
0.0
 40
0.0
 40
1.0
 40
2.0
 40
3.0
 40
3.0
 40
3.0
 40
3.0
 10
37.32468569413729
 20
16.65625721206013
 30
0.0
 10
37.23739489833429
 20
16.64768572743353
 30
0.0
 10
37.06293551004819
 20
16.62821656335795
 30
0.0
 10
36.80279142106497
 20
16.58974285973261
 30
0.0
 10
36.62935335109097
 20
16.55995865960735
 30
0.0
 10
36.54650326479964
 20
16.53084137912724
 30
0.0
  0
LINE
  5
FC
330
1F
100
AcDbEntity
  8
0
370
    -3
100
AcDbLine
 10
37.67488834990939
 20
16.99546169092127
 30
0.0
 11
37.64049619273908
 21
17.11200601260242
 31
0.0
  0
LINE
  5
FD
330
1F
100
AcDbEntity
  8
0
370
    -3
100
AcDbLine
 10
37.64049619273908
 20
17.11200601260242
 30
0.0
 11
37.56843507700978
 21
17.1251239071353
 31
0.0
  0
SPLINE
  5
FE
330
1F
100
AcDbEntity
  8
0
370
    -3
100
AcDbSpline
210
0.0
220
0.0
230
1.0
 70
     8
 71
     3
 72
    13
 73
     9
 74
     0
 42
0.000000001
 43
0.0000000001
 40
0.4992135494437177
 40
0.4992135494437177
 40
0.4992135494437177
 40
0.4992135494437177
 40
1.499213549443718
 40
2.499213549443718
 40
3.499213549443718
 40
4.499213549443717
 40
5.499213549443717
 40
6.499213549443717
 40
6.499213549443717
 40
6.499213549443717
 40
6.499213549443717
 10
37.56843507700978
 20
17.1251239071353
 30
0.0
 10
37.50483874550756
 20
17.13670088538331
 30
0.0
 10
37.37559766647587
 20
17.14333501056404
 30
0.0
 10
37.18190997766493
 20
17.13705099601142
 30
0.0
 10
36.98924179457879
 20
17.11910907485566
 30
0.0
 10
36.79649431716348
 20
17.09207106663446
 30
0.0
 10
36.61082932429736
 20
17.0481068479621
 30
0.0
 10
36.47904372367731
 20
17.01295071602652
 30
0.0
 10
36.44324349456994
 20
16.95870691052301
 30
0.0
  0
LINE
  5
FF
330
1F
100
AcDbEntity
  8
0
370
    -3
100
AcDbLine
 10
36.44324349456994
 20
16.95870691052301
 30
0.0
 11
36.52077797479194
 21
16.52242755705687
 31
0.0
  0
LINE
  5
100
330
1F
100
AcDbEntity
  8
0
370
    -3
100
AcDbLine
 10
36.52077797479194
 20
16.52242755705687
 30
0.0
 11
36.68587937359547
 21
15.9471127008883
 31
0.0
  0
SPLINE
  5
101
330
1F
100
AcDbEntity
  8
0
370
    -3
100
AcDbSpline
210
0.0
220
0.0
230
1.0
 70
     8
 71
     3
 72
    14
 73
    10
 74
     0
 42
0.000000001
 43
0.0000000001
 40
7.540865224075112
 40
7.540865224075112
 40
7.540865224075112
 40
7.540865224075112
 40
8.540865224075112
 40
9.540865224075112
 40
10.54086522407511
 40
11.54086522407511
 40
12.54086522407511
 40
13.54086522407511
 40
14.54086522407511
 40
14.54086522407511
 40
14.54086522407511
 40
14.54086522407511
 10
36.68587937359547
 20
15.9471127008883
 30
0.0
 10
36.70774993795374
 20
15.87075937168598
 30
0.0
 10
36.7926449842343
 20
15.73121037345037
 30
0.0
 10
37.00971175615757
 20
15.61062920874707
 30
0.0
 10
37.25179245537578
 20
15.62549687656801
 30
0.0
 10
37.48262148040408
 20
15.67906314682384
 30
0.0
 10
37.70641338420035
 20
15.77251375792252
 30
0.0
 10
37.84817570737704
 20
15.97635393301563
 30
0.0
 10
37.86289964895337
 20
16.13904375446788
 30
0.0
 10
37.84869907819316
 20
16.21721446782841
 30
0.0
  0
SPLINE
  5
102
330
1F
100
AcDbEntity
  8
0
370
    -3
100
AcDbSpline
210
0.0
220
0.0
230
1.0
 70
     8
 71
     3
 72
     8
 73
     4
 74
     0
 42
0.000000001
 43
0.0000000001
 40
14.54086522407511
 40
14.54086522407511
 40
14.54086522407511
 40
14.54086522407511
 40
14.7123571053979
 40
14.7123571053979
 40
14.7123571053979
 40
14.7123571053979
 10
37.84869907819316
 20
16.21721446782841
 30
0.0
 10
37.8385442780222
 20
16.2733180700434
 30
0.0
 10
37.82858580261245
 20
16.32942823718625
 30
0.0
 10
37.81862732720526
 20
16.38553840437004
 30
0.0
  0
ARC
  5
103
330
1F
100
AcDbEntity
  8
0
100
AcDbCircle
 10
26.74187032354675
 20
15.83443703222812
 30
0.0
 40
1.395883897526574
100
AcDbArc
 50
50.87645155910602
 51
92.71754040389045
  0
SPLINE
  5
104
330
1F
100
AcDbEntity
  8
0
370
    -3
100
AcDbSpline
210
0.0
220
0.0
230
1.0
 70
     8
 71
     2
 72
    11
 73
     8
 74
     0
 42
0.000000001
 43
0.0000000001
 40
-6.0
 40
-6.0
 40
-6.0
 40
-5.0
 40
-4.0
 40
-3.0
 40
-2.0
 40
-1.0
 40
0.0
 40
0.0
 40
0.0
 10
8.05313397748347
 20
56.11874659987924
 30
0.0
 10
7.551610773350149
 20
56.63807932517555
 30
0.0
 10
6.310493350935104
 20
57.37078337237351
 30
0.0
 10
4.964934275295803
 20
57.87569330859097
 30
0.0
 10
3.569500498956103
 20
58.21516065832449
 30
0.0
 10
2.149444179972164
 20
58.42600144540455
 30
0.0
 10
0.7177076772105409
 20
58.52930209743253
 30
0.0
 10
-0.0000027606580488
 20
58.52965771372524
 30
0.0
  0
SPLINE
  5
105
330
1F
100
AcDbEntity
  8
0
370
    -3
100
AcDbSpline
210
0.0
220
0.0
230
1.0
 70
     8
 71
     2
 72
    11
 73
     8
 74
     0
 42
0.000000001
 43
0.0000000001
 40
0.0
 40
0.0
 40
0.0
 40
1.0
 40
2.0
 40
3.0
 40
4.0
 40
5.0
 40
6.0
 40
6.0
 40
6.0
 10
-0.0000027606580488
 20
58.52965771372524
 30
0.0
 10
-0.7177131985266385
 20
58.52930209743253
 30
0.0
 10
-2.149449701288262
 20
58.42600144540455
 30
0.0
 10
-3.5695060202722
 20
58.21516065832449
 30
0.0
 10
-4.964939796611901
 20
57.87569330859097
 30
0.0
 10
-6.310498872251202
 20
57.37078337237351
 30
0.0
 10
-7.551616294666246
 20
56.63807932517555
 30
0.0
 10
-8.053139498799567
 20
56.11874659987924
 30
0.0
  0
SPLINE
  5
106
330
1F
100
AcDbEntity
  8
0
100
AcDbSpline
210
0.0
220
0.0
230
1.0
 70
     8
 71
     2
 72
    11
 73
     8
 74
     0
 42
0.000000001
 43
0.0000000001
 40
-6.0
 40
-6.0
 40
-6.0
 40
-5.0
 40
-4.0
 40
-3.0
 40
-2.0
 40
-1.0
 40
0.0
 40
0.0
 40
0.0
 10
7.138130565072828
 20
61.16104105543606
 30
0.0
 10
7.262979092212078
 20
61.11939999366972
 30
0.0
 10
7.505705166417499
 20
61.01745814467395
 30
0.0
 10
7.737161170825601
 20
60.89170987417204
 30
0.0
 10
7.949465881422157
 20
60.73536999554057
 30
0.0
 10
8.128051202134031
 20
60.54024558406574
 30
0.0
 10
8.239579560018342
 20
60.29857924402035
 30
0.0
 10
8.239758406445674
 20
60.16481666914179
 30
0.0
  0
LINE
  5
107
330
1F
100
AcDbEntity
  8
0
100
AcDbLine
 10
8.239758406445674
 20
60.16481666914179
 30
0.0
 11
8.24935563400362
 21
42.15922748597366
 31
0.0
  0
SPLINE
  5
108
330
1F
100
AcDbEntity
  8
0
100
AcDbSpline
210
0.0
220
0.0
230
1.0
 70
     8
 71
     2
 72
    11
 73
     8
 74
     0
 42
0.000000001
 43
0.0000000001
 40
18.00559111365089
 40
18.00559111365089
 40
18.00559111365089
 40
19.00559111365089
 40
20.00559111365089
 40
21.00559111365089
 40
22.00559111365089
 40
23.00559111365089
 40
24.00559111365089
 40
24.00559111365089
 40
24.00559111365089
 10
8.24935563400362
 20
42.15922748597366
 30
0.0
 10
8.250477146350192
 20
41.95231113933497
 30
0.0
 10
8.16534786853984
 20
41.54628279766244
 30
0.0
 10
7.957832908997432
 20
41.18457870168781
 30
0.0
 10
7.633077259309545
 20
40.92513388945678
 30
0.0
 10
7.254373727458784
 20
40.75749900503503
 30
0.0
 10
6.850797667663784
 20
40.66772806206301
 30
0.0
 10
6.645332154611111
 20
40.64767026559419
 30
0.0
  0
SPLINE
  5
109
330
1F
100
AcDbEntity
  8
0
100
AcDbSpline
210
0.0
220
0.0
230
1.0
 70
     8
 71
     2
 72
    11
 73
     8
 74
     0
 42
0.000000001
 43
0.0000000001
 40
24.00559111365089
 40
24.00559111365089
 40
24.00559111365089
 40
25.00559111365089
 40
26.00559111365089
 40
27.00559111365089
 40
28.00559111365089
 40
29.00559111365089
 40
30.00559111365089
 40
30.00559111365089
 40
30.00559111365089
 10
6.645332154611111
 20
40.64767026559419
 30
0.0
 10
6.093748681395112
 20
40.5933050983807
 30
0.0
 10
4.986864585429885
 20
40.53436965675584
 30
0.0
 10
3.878991656953929
 20
40.50201277023391
 30
0.0
 10
2.770779985179189
 20
40.48560894788952
 30
0.0
 10
1.662477235212975
 20
40.47875106071332
 30
0.0
 10
0.5541574047692563
 20
40.47703409066357
 30
0.0
 10
-0.0000027606580488
 20
40.47714209298459
 30
0.0
  0
SPLINE
  5
10A
330
1F
100
AcDbEntity
  8
0
100
AcDbSpline
210
0.0
220
0.0
230
1.0
 70
     8
 71
     2
 72
    11
 73
     8
 74
     0
 42
0.000000001
 43
0.0000000001
 40
30.00559111365089
 40
30.00559111365089
 40
30.00559111365089
 40
31.00559111365089
 40
32.00559111365089
 40
33.00559111365089
 40
34.00559111365089
 40
35.00559111365089
 40
36.00559111365089
 40
36.00559111365089
 40
36.00559111365089
 10
-0.0000027606580488
 20
40.47714209298459
 30
0.0
 10
-0.554162926085354
 20
40.47703409066357
 30
0.0
 10
-1.662482756529073
 20
40.47875106071332
 30
0.0
 10
-2.770785506495287
 20
40.48560894788952
 30
0.0
 10
-3.878997178270026
 20
40.50201277023391
 30
0.0
 10
-4.986870106745982
 20
40.53436965675584
 30
0.0
 10
-6.09375420271121
 20
40.5933050983807
 30
0.0
 10
-6.645337675927209
 20
40.64767026559419
 30
0.0
  0
SPLINE
  5
10B
330
1F
100
AcDbEntity
  8
0
100
AcDbSpline
210
0.0
220
0.0
230
1.0
 70
     8
 71
     2
 72
    11
 73
     8
 74
     0
 42
0.000000001
 43
0.0000000001
 40
36.00559111365089
 40
36.00559111365089
 40
36.00559111365089
 40
37.00559111365089
 40
38.00559111365089
 40
39.00559111365089
 40
40.00559111365089
 40
41.00559111365089
 40
42.00559111365089
 40
42.00559111365089
 40
42.00559111365089
 10
-6.645337675927209
 20
40.64767026559419
 30
0.0
 10
-6.850803188979881
 20
40.66772806206301
 30
0.0
 10
-7.254379248774882
 20
40.75749900503503
 30
0.0
 10
-7.633082780625642
 20
40.92513388945678
 30
0.0
 10
-7.957838430313529
 20
41.18457870168781
 30
0.0
 10
-8.165353389855937
 20
41.54628279766244
 30
0.0
 10
-8.25048266766629
 20
41.95231113933497
 30
0.0
 10
-8.249361155319718
 20
42.15922748597366
 30
0.0
  0
LINE
  5
10C
330
1F
100
AcDbEntity
  8
0
100
AcDbLine
 10
-8.249361155319718
 20
42.15922748597366
 30
0.0
 11
-8.239763927761771
 21
60.16481666914179
 31
0.0
  0
SPLINE
  5
10D
330
1F
100
AcDbEntity
  8
0
100
AcDbSpline
210
0.0
220
0.0
230
1.0
 70
     8
 71
     2
 72
    11
 73
     8
 74
     0
 42
0.000000001
 43
0.0000000001
 40
60.01118222730179
 40
60.01118222730179
 40
60.01118222730179
 40
61.01118222730179
 40
62.01118222730179
 40
63.01118222730179
 40
64.01118222730179
 40
65.01118222730179
 40
66.01118222730179
 40
66.01118222730179
 40
66.01118222730179
 10
-8.239763927761771
 20
60.16481666914179
 30
0.0
 10
-8.23958508133444
 20
60.29857924402035
 30
0.0
 10
-8.128056723450129
 20
60.54024558406574
 30
0.0
 10
-7.949471402738254
 20
60.73536999554057
 30
0.0
 10
-7.737166692141699
 20
60.89170987417204
 30
0.0
 10
-7.505710687733597
 20
61.01745814467395
 30
0.0
 10
-7.262984613528175
 20
61.11939999366972
 30
0.0
 10
-7.138136086388926
 20
61.16104105543606
 30
0.0
  0
SPLINE
  5
10E
330
1F
100
AcDbEntity
  8
0
100
AcDbSpline
210
0.0
220
0.0
230
1.0
 70
     8
 71
     2
 72
    11
 73
     8
 74
     0
 42
0.000000001
 43
0.0000000001
 40
66.01118222730179
 40
66.01118222730179
 40
66.01118222730179
 40
67.01118222730179
 40
68.01118222730179
 40
69.01118222730179
 40
70.01118222730179
 40
71.01118222730179
 40
72.01118222730179
 40
72.01118222730179
 40
72.01118222730179
 10
-7.138136086388926
 20
61.16104105543606
 30
0.0
 10
-6.566901713954252
 20
61.34848710552647
 30
0.0
 10
-5.389236320038975
 20
61.58915413491005
 30
0.0
 10
-4.198244901404109
 20
61.74641157774201
 30
0.0
 10
-3.001148876551611
 20
61.84568838253286
 30
0.0
 10
-1.801370256804432
 20
61.90248594359814
 30
0.0
 10
-0.6005367396551833
 20
61.92697383952108
 30
0.0
 10
-0.0000027606580488
 20
61.92671796043268
 30
0.0
  0
SPLINE
  5
10F
330
1F
100
AcDbEntity
  8
0
100
AcDbSpline
210
0.0
220
0.0
230
1.0
 70
     8
 71
     2
 72
    11
 73
     8
 74
     0
 42
0.000000001
 43
0.0000000001
 40
72.01118222730179
 40
72.01118222730179
 40
72.01118222730179
 40
73.01118222730179
 40
74.01118222730179
 40
75.01118222730179
 40
76.01118222730179
 40
77.01118222730179
 40
78.01118222730179
 40
78.01118222730179
 40
78.01118222730179
 10
-0.0000027606580488
 20
61.92671796043268
 30
0.0
 10
0.6005312183390856
 20
61.92697383952108
 30
0.0
 10
1.801364735488335
 20
61.90248594359814
 30
0.0
 10
3.001143355235513
 20
61.84568838253286
 30
0.0
 10
4.198239380088012
 20
61.74641157774201
 30
0.0
 10
5.389230798722878
 20
61.58915413491005
 30
0.0
 10
6.566896192638154
 20
61.34848710552647
 30
0.0
 10
7.138130565072828
 20
61.16104105543606
 30
0.0
  0
SPLINE
  5
110
330
1F
100
AcDbEntity
  8
0
 62
    18
420
        0
370
    -3
100
AcDbSpline
210
0.0
220
0.0
230
1.0
 70
     8
 71
     3
 72
    19
 73
    15
 74
     0
 42
0.000000001
 43
0.0000000001
 40
-8.0
 40
-8.0
 40
-8.0
 40
-8.0
 40
-7.0
 40
-6.0
 40
-5.0
 40
-5.0
 40
-5.0
 40
-4.0
 40
-3.0
 40
-2.0
 40
-1.0
 40
-1.0
 40
-1.0
 40
0.0
 40
0.0
 40
0.0
 40
0.0
 10
-0.0000122383132179
 20
40.48702120493013
 30
0.0
 10
0.6816613779788838
 20
40.48708890068946
 30
0.0
 10
2.045023882135524
 20
40.48804642706506
 30
0.0
 10
4.089959161793672
 20
40.51079211801281
 30
0.0
 10
5.452552141706747
 20
40.56630825846093
 30
0.0
 10
6.132063613258595
 20
40.62169113828104
 30
0.0
 10
6.35483948017685
 20
40.64801269767309
 30
0.0
 10
6.816628821126301
 20
40.65109756393267
 30
0.0
 10
7.425282450113031
 20
41.00181340250619
 30
0.0
 10
7.770479908296721
 20
41.60810152122216
 30
0.0
 10
7.814475289759571
 20
42.06428839106969
 30
0.0
 10
7.809923926275019
 20
42.28947963905888
 30
0.0
 10
7.848628951938622
 20
46.19522455644933
 30
0.0
 10
7.666663455823794
 20
50.10927581339327
 30
0.0
 10
7.693659359379353
 20
54.01463218859121
 30
0.0
  0
SPLINE
  5
111
330
1F
100
AcDbEntity
  8
0
 62
    18
420
        0
370
    -3
100
AcDbSpline
210
0.0
220
0.0
230
1.0
 70
     8
 71
     3
 72
    12
 73
     8
 74
     0
 42
0.000000001
 43
0.0000000001
 40
0.0
 40
0.0
 40
0.0
 40
0.0
 40
1.0
 40
2.0
 40
3.0
 40
4.0
 40
5.0
 40
5.0
 40
5.0
 40
5.0
 10
7.693659359379353
 20
54.01463218859121
 30
0.0
 10
7.698152087207632
 20
54.66457165922285
 30
0.0
 10
7.308091917792069
 20
55.97951361848872
 30
0.0
 10
5.731169407913228
 20
57.23406997989898
 30
0.0
 10
3.884025964856818
 20
57.89988460299556
 30
0.0
 10
1.953571478495462
 20
58.23766558245754
 30
0.0
 10
0.6504057961022909
 20
58.30446162070149
 30
0.0
 10
-0.0010918113071341
 20
58.30399472255435
 30
0.0
  0
SPLINE
  5
112
330
1F
100
AcDbEntity
  8
0
 62
    18
420
        0
370
    -3
100
AcDbSpline
210
0.0
220
0.0
230
1.0
 70
     8
 71
     3
 72
    12
 73
     8
 74
     0
 42
0.000000001
 43
0.0000000001
 40
5.0
 40
5.0
 40
5.0
 40
5.0
 40
6.0
 40
7.0
 40
8.0
 40
9.0
 40
10.0
 40
10.0
 40
10.0
 40
10.0
 10
-0.0010918113071341
 20
58.30399472255435
 30
0.0
 10
-0.6525894187165591
 20
58.30446162070149
 30
0.0
 10
-1.95575510110973
 20
58.23766558245754
 30
0.0
 10
-3.886209587471086
 20
57.89988460299556
 30
0.0
 10
-5.733353030527496
 20
57.23406997989898
 30
0.0
 10
-7.310275540406337
 20
55.97951361848872
 30
0.0
 10
-7.7003357098219
 20
54.66457165922285
 30
0.0
 10
-7.695842981993621
 20
54.01463218859121
 30
0.0
  0
SPLINE
  5
113
330
1F
100
AcDbEntity
  8
0
 62
    18
420
        0
370
    -3
100
AcDbSpline
210
0.0
220
0.0
230
1.0
 70
     8
 71
     3
 72
    19
 73
    15
 74
     0
 42
0.000000001
 43
0.0000000001
 40
10.0
 40
10.0
 40
10.0
 40
10.0
 40
11.0
 40
11.0
 40
11.0
 40
12.0
 40
13.0
 40
14.0
 40
15.0
 40
15.0
 40
15.0
 40
16.0
 40
17.0
 40
18.0
 40
18.0
 40
18.0
 40
18.0
 10
-7.695842981993621
 20
54.01463218859121
 30
0.0
 10
-7.668847078438063
 20
50.10927581339327
 30
0.0
 10
-7.85081257455289
 20
46.19522455644933
 30
0.0
 10
-7.812107548889287
 20
42.28947963905888
 30
0.0
 10
-7.816658912373839
 20
42.06428839106969
 30
0.0
 10
-7.772663530910989
 20
41.60810152122216
 30
0.0
 10
-7.427466072727299
 20
41.00181340250619
 30
0.0
 10
-6.818812443740569
 20
40.65109756393267
 30
0.0
 10
-6.357023102791118
 20
40.64801269767309
 30
0.0
 10
-6.134247235872863
 20
40.62169113828104
 30
0.0
 10
-5.454735764321015
 20
40.56630825846093
 30
0.0
 10
-4.09214278440794
 20
40.51079211801281
 30
0.0
 10
-2.047207504749792
 20
40.48804642706506
 30
0.0
 10
-0.683845000593152
 20
40.48708890068946
 30
0.0
 10
-0.0021713843010502
 20
40.48702120493013
 30
0.0
  0
SPLINE
  5
114
330
1F
100
AcDbEntity
  8
0
370
    -3
100
AcDbSpline
210
0.0
220
0.0
230
1.0
 70
     8
 71
     3
 72
    10
 73
     6
 74
     0
 42
0.000000001
 43
0.0000000001
 40
-9.0
 40
-9.0
 40
-9.0
 40
-9.0
 40
-8.0
 40
-7.0
 40
-6.0
 40
-6.0
 40
-6.0
 40
-6.0
 10
-7.755346365778934
 20
18.32466081720861
 30
0.0
 10
-7.768113552493759
 20
18.33115046503603
 30
0.0
 10
-7.790780575980989
 20
18.34973251182655
 30
0.0
 10
-7.810106266171942
 20
18.389215054571
 30
0.0
 10
-7.810873949129729
 20
18.41851559961063
 30
0.0
 10
-7.808048252093954
 20
18.43318190531429
 30
0.0
  0
SPLINE
  5
115
330
1F
100
AcDbEntity
  8
0
370
    -3
100
AcDbSpline
210
0.0
220
0.0
230
1.0
 70
     8
 71
     3
 72
    13
 73
     9
 74
     0
 42
0.000000001
 43
0.0000000001
 40
-6.0
 40
-6.0
 40
-6.0
 40
-6.0
 40
-5.0
 40
-4.0
 40
-3.0
 40
-2.0
 40
-1.0
 40
0.0
 40
0.0
 40
0.0
 40
0.0
 10
-7.808048252093954
 20
18.43318190531429
 30
0.0
 10
-7.789202198018444
 20
18.53296118414578
 30
0.0
 10
-7.692967429325734
 20
18.71689010129322
 30
0.0
 10
-7.447529433241357
 20
18.90101808632426
 30
0.0
 10
-7.160321070875455
 20
19.00432319225682
 30
0.0
 10
-6.856376508854396
 20
19.01838520909425
 30
0.0
 10
-6.557322778252455
 20
18.97399608482836
 30
0.0
 10
-6.359415411850705
 20
18.93822911535749
 30
0.0
 10
-6.259890205627642
 20
18.92329410567433
 30
0.0
  0
SPLINE
  5
116
330
1F
100
AcDbEntity
  8
0
370
    -3
100
AcDbSpline
210
0.0
220
0.0
230
1.0
 70
     8
 71
     3
 72
    12
 73
     8
 74
     0
 42
0.000000001
 43
0.0000000001
 40
0.0
 40
0.0
 40
0.0
 40
0.0
 40
1.0
 40
2.0
 40
3.0
 40
4.0
 40
5.0
 40
5.0
 40
5.0
 40
5.0
 10
-6.259890205627642
 20
18.92329410567433
 30
0.0
 10
-5.847341647568214
 20
18.86138600276041
 30
0.0
 10
-5.004559402739062
 20
18.78051673608769
 30
0.0
 10
-3.753961251169642
 20
18.73066829053388
 30
0.0
 10
-2.502685917159454
 20
18.71526416793959
 30
0.0
 10
-1.251346571042802
 20
18.71378716850907
 30
0.0
 10
-0.4171254116826333
 20
18.71472185435769
 30
0.0
 10
-0.0000137833392273
 20
18.71471260378176
 30
0.0
  0
SPLINE
  5
117
330
1F
100
AcDbEntity
  8
0
370
    -3
100
AcDbSpline
210
0.0
220
0.0
230
1.0
 70
     8
 71
     3
 72
    12
 73
     8
 74
     0
 42
0.000000001
 43
0.0000000001
 40
5.0
 40
5.0
 40
5.0
 40
5.0
 40
6.0
 40
7.0
 40
8.0
 40
9.0
 40
10.0
 40
10.0
 40
10.0
 40
10.0
 10
-0.0000137833392273
 20
18.71471260378176
 30
0.0
 10
0.4170978450041787
 20
18.71472185435769
 30
0.0
 10
1.251319004364348
 20
18.71378716850907
 30
0.0
 10
2.502658350480999
 20
18.71526416793959
 30
0.0
 10
3.753933684491187
 20
18.73066829053388
 30
0.0
 10
5.004531836060607
 20
18.78051673608769
 30
0.0
 10
5.84731408088976
 20
18.86138600276041
 30
0.0
 10
6.259862638949187
 20
18.92329410567433
 30
0.0
  0
SPLINE
  5
118
330
1F
100
AcDbEntity
  8
0
370
    -3
100
AcDbSpline
210
0.0
220
0.0
230
1.0
 70
     8
 71
     3
 72
    13
 73
     9
 74
     0
 42
0.000000001
 43
0.0000000001
 40
10.0
 40
10.0
 40
10.0
 40
10.0
 40
11.0
 40
12.0
 40
13.0
 40
14.0
 40
15.0
 40
16.0
 40
16.0
 40
16.0
 40
16.0
 10
6.259862638949187
 20
18.92329410567433
 30
0.0
 10
6.35938784517225
 20
18.93822911535749
 30
0.0
 10
6.557295211574001
 20
18.97399608482836
 30
0.0
 10
6.856348942175941
 20
19.01838520909425
 30
0.0
 10
7.160293504197
 20
19.00432319225682
 30
0.0
 10
7.447501866562902
 20
18.90101808632426
 30
0.0
 10
7.692939862647279
 20
18.71689010129322
 30
0.0
 10
7.789174631339989
 20
18.53296118414578
 30
0.0
 10
7.808020685415499
 20
18.43318190531429
 30
0.0
  0
SPLINE
  5
119
330
1F
100
AcDbEntity
  8
0
370
    -3
100
AcDbSpline
210
0.0
220
0.0
230
1.0
 70
     8
 71
     3
 72
    10
 73
     6
 74
     0
 42
0.000000001
 43
0.0000000001
 40
16.0
 40
16.0
 40
16.0
 40
16.0
 40
17.0
 40
18.0
 40
19.0
 40
19.0
 40
19.0
 40
19.0
 10
7.808020685415499
 20
18.43318190531429
 30
0.0
 10
7.810846382451274
 20
18.41851559961063
 30
0.0
 10
7.810078699493488
 20
18.389215054571
 30
0.0
 10
7.790753009302534
 20
18.34973251182655
 30
0.0
 10
7.768085985815304
 20
18.33115046503603
 30
0.0
 10
7.755318799100479
 20
18.32466081720861
 30
0.0
  0
SPLINE
  5
11A
330
1F
100
AcDbEntity
  8
0
370
    -3
100
AcDbSpline
210
0.0
220
0.0
230
1.0
 70
     8
 71
     3
 72
    10
 73
     6
 74
     0
 42
0.000000001
 43
0.0000000001
 40
0.0
 40
0.0
 40
0.0
 40
0.0
 40
1.0
 40
2.0
 40
3.0
 40
3.0
 40
3.0
 40
3.0
 10
-8.235346932310335
 20
57.61541154710732
 30
0.0
 10
-8.45586140379288
 20
57.5266264873072
 30
0.0
 10
-8.804463730863347
 20
57.18231711808357
 30
0.0
 10
-9.012526205709804
 20
56.4967151985967
 30
0.0
 10
-9.115234260209377
 20
56.04055851176282
 30
0.0
 10
-9.158046501492947
 20
55.8088080091303
 30
0.0
  0
SPLINE
  5
11B
330
1F
100
AcDbEntity
  8
0
370
    -3
100
AcDbSpline
210
0.0
220
0.0
230
1.0
 70
     8
 71
     3
 72
    11
 73
     7
 74
     0
 42
0.000000001
 43
0.0000000001
 40
3.0
 40
3.0
 40
3.0
 40
3.0
 40
4.0
 40
5.0
 40
6.0
 40
7.0
 40
7.0
 40
7.0
 40
7.0
 10
-9.158046501492947
 20
55.8088080091303
 30
0.0
 10
-9.30084647403379
 20
55.02933298857987
 30
0.0
 10
-9.495576766573805
 20
53.45646649995086
 30
0.0
 10
-9.729630208799193
 20
51.09107425574856
 30
0.0
 10
-9.920132709583953
 20
48.72341539797347
 30
0.0
 10
-10.07909137423931
 20
47.14346934021295
 30
0.0
 10
-10.03789442347357
 20
46.35138707776699
 30
0.0
  0
SPLINE
  5
11C
330
1F
100
AcDbEntity
  8
0
370
    -3
100
AcDbSpline
210
0.0
220
0.0
230
1.0
 70
     8
 71
     3
 72
    16
 73
    12
 74
     0
 42
0.000000001
 43
0.0000000001
 40
7.0
 40
7.0
 40
7.0
 40
7.0
 40
8.0
 40
9.0
 40
10.0
 40
11.0
 40
12.0
 40
13.0
 40
14.0
 40
15.0
 40
16.0
 40
16.0
 40
16.0
 40
16.0
 10
-10.03789442347357
 20
46.35138707776699
 30
0.0
 10
-10.03283984365785
 20
46.25487989975419
 30
0.0
 10
-9.881619606994605
 20
46.12667236381258
 30
0.0
 10
-9.6060620730685
 20
46.11972279384752
 30
0.0
 10
-9.337902397694592
 20
46.13215673883298
 30
0.0
 10
-9.0725386695687
 20
46.18736763182991
 30
0.0
 10
-8.820161755013629
 20
46.28415806388756
 30
0.0
 10
-8.590861535545343
 20
46.43086337971209
 30
0.0
 10
-8.417280257830981
 20
46.64134490137536
 30
0.0
 10
-8.311768334738701
 20
46.8914959184103
 30
0.0
 10
-8.266164382261195
 20
47.06543412610719
 30
0.0
 10
-8.2480832064752
 20
47.1535069145785
 30
0.0
  0
SPLINE
  5
11D
330
1F
100
AcDbEntity
  8
0
370
    -3
100
AcDbSpline
210
0.0
220
0.0
230
1.0
 70
     8
 71
     3
 72
     8
 73
     4
 74
     0
 42
0.000000001
 43
0.0000000001
 40
-1.0
 40
-1.0
 40
-1.0
 40
-1.0
 40
0.0
 40
0.0
 40
0.0
 40
0.0
 10
-8.24867612361885
 20
44.5882644535817
 30
0.0
 10
-8.813812630587108
 20
44.6724924144582
 30
0.0
 10
-9.37858406458676
 20
44.76818535740216
 30
0.0
 10
-9.93032717887013
 20
44.91901333313866
 30
0.0
  0
SPLINE
  5
11E
330
1F
100
AcDbEntity
  8
0
370
    -3
100
AcDbSpline
210
0.0
220
0.0
230
1.0
 70
     8
 71
     3
 72
    13
 73
     9
 74
     0
 42
0.000000001
 43
0.0000000001
 40
0.0
 40
0.0
 40
0.0
 40
0.0
 40
1.0
 40
2.0
 40
3.0
 40
4.0
 40
5.0
 40
6.0
 40
6.0
 40
6.0
 40
6.0
 10
-9.93032717887013
 20
44.91901333313866
 30
0.0
 10
-10.07619857012088
 20
44.95779200569604
 30
0.0
 10
-10.36303694777004
 20
45.04379709970176
 30
0.0
 10
-10.77930271430318
 20
45.24437166110168
 30
0.0
 10
-11.03592779974184
 20
45.63523222503756
 30
0.0
 10
-11.06764219133677
 20
46.09433574306539
 30
0.0
 10
-11.05009838076225
 20
46.54398405631785
 30
0.0
 10
-11.03277287791107
 20
46.84522907401661
 30
0.0
 10
-11.02356202067
 20
46.99629561215671
 30
0.0
  0
SPLINE
  5
11F
330
1F
100
AcDbEntity
  8
0
370
    -3
100
AcDbSpline
210
0.0
220
0.0
230
1.0
 70
     8
 71
     3
 72
     8
 73
     4
 74
     0
 42
0.000000001
 43
0.0000000001
 40
6.0
 40
6.0
 40
6.0
 40
6.0
 40
7.0
 40
7.0
 40
7.0
 40
7.0
 10
-11.02356202067
 20
46.99629561215671
 30
0.0
 10
-10.76034026595372
 20
49.88357062323834
 30
0.0
 10
-10.45321917357853
 20
52.76822254554264
 30
0.0
 10
-10.01508288964453
 20
55.63425014632265
 30
0.0
  0
SPLINE
  5
120
330
1F
100
AcDbEntity
  8
0
370
    -3
100
AcDbSpline
210
0.0
220
0.0
230
1.0
 70
     8
 71
     3
 72
    11
 73
     7
 74
     0
 42
0.000000001
 43
0.0000000001
 40
7.0
 40
7.0
 40
7.0
 40
7.0
 40
8.0
 40
9.0
 40
10.0
 40
11.0
 40
11.0
 40
11.0
 40
11.0
 10
-10.01508288964453
 20
55.63425014632265
 30
0.0
 10
-9.980266940662972
 20
55.93263086773185
 30
0.0
 10
-9.827989883790707
 20
56.5132438196609
 30
0.0
 10
-9.541057641152236
 20
57.3672742263296
 30
0.0
 10
-8.978860429426845
 20
58.0897996504531
 30
0.0
 10
-8.486877048115275
 20
58.43789492049046
 30
0.0
 10
-8.229911195451734
 20
58.59179889418105
 30
0.0
  0
SPLINE
  5
121
330
1F
100
AcDbEntity
  8
0
370
    -3
100
AcDbSpline
210
0.0
220
0.0
230
1.0
 70
     8
 71
     3
 72
    10
 73
     6
 74
     0
 42
0.000000001
 43
0.0000000001
 40
0.0
 40
0.0
 40
0.0
 40
0.0
 40
1.0
 40
2.0
 40
3.0
 40
3.0
 40
3.0
 40
3.0
 10
8.235341410994238
 20
57.61541154710732
 30
0.0
 10
8.455855882476783
 20
57.5266264873072
 30
0.0
 10
8.80445820954725
 20
57.18231711808357
 30
0.0
 10
9.012520684393706
 20
56.4967151985967
 30
0.0
 10
9.11522873889328
 20
56.04055851176282
 30
0.0
 10
9.15804098017685
 20
55.8088080091303
 30
0.0
  0
SPLINE
  5
122
330
1F
100
AcDbEntity
  8
0
370
    -3
100
AcDbSpline
210
0.0
220
0.0
230
1.0
 70
     8
 71
     3
 72
    11
 73
     7
 74
     0
 42
0.000000001
 43
0.0000000001
 40
3.0
 40
3.0
 40
3.0
 40
3.0
 40
4.0
 40
5.0
 40
6.0
 40
7.0
 40
7.0
 40
7.0
 40
7.0
 10
9.15804098017685
 20
55.8088080091303
 30
0.0
 10
9.300840952717692
 20
55.02933298857987
 30
0.0
 10
9.495571245257707
 20
53.45646649995086
 30
0.0
 10
9.729624687483096
 20
51.09107425574856
 30
0.0
 10
9.920127188267855
 20
48.72341539797347
 30
0.0
 10
10.07908585292321
 20
47.14346934021295
 30
0.0
 10
10.03788890215748
 20
46.35138707776699
 30
0.0
  0
SPLINE
  5
123
330
1F
100
AcDbEntity
  8
0
370
    -3
100
AcDbSpline
210
0.0
220
0.0
230
1.0
 70
     8
 71
     3
 72
    16
 73
    12
 74
     0
 42
0.000000001
 43
0.0000000001
 40
7.0
 40
7.0
 40
7.0
 40
7.0
 40
8.0
 40
9.0
 40
10.0
 40
11.0
 40
12.0
 40
13.0
 40
14.0
 40
15.0
 40
16.0
 40
16.0
 40
16.0
 40
16.0
 10
10.03788890215748
 20
46.35138707776699
 30
0.0
 10
10.03283432234176
 20
46.25487989975419
 30
0.0
 10
9.881614085678507
 20
46.12667236381258
 30
0.0
 10
9.606056551752403
 20
46.11972279384752
 30
0.0
 10
9.337896876378494
 20
46.13215673883298
 30
0.0
 10
9.072533148252603
 20
46.18736763182991
 30
0.0
 10
8.820156233697531
 20
46.28415806388756
 30
0.0
 10
8.590856014229246
 20
46.43086337971209
 30
0.0
 10
8.417274736514884
 20
46.64134490137536
 30
0.0
 10
8.311762813422604
 20
46.8914959184103
 30
0.0
 10
8.266158860945097
 20
47.06543412610719
 30
0.0
 10
8.248077685159103
 20
47.1535069145785
 30
0.0
  0
SPLINE
  5
124
330
1F
100
AcDbEntity
  8
0
370
    -3
100
AcDbSpline
210
0.0
220
0.0
230
1.0
 70
     8
 71
     3
 72
     8
 73
     4
 74
     0
 42
0.000000001
 43
0.0000000001
 40
-1.0
 40
-1.0
 40
-1.0
 40
-1.0
 40
0.0
 40
0.0
 40
0.0
 40
0.0
 10
8.248670602302752
 20
44.5882644535817
 30
0.0
 10
8.81380710927101
 20
44.6724924144582
 30
0.0
 10
9.378578543270663
 20
44.76818535740216
 30
0.0
 10
9.930321657554032
 20
44.91901333313866
 30
0.0
  0
SPLINE
  5
125
330
1F
100
AcDbEntity
  8
0
370
    -3
100
AcDbSpline
210
0.0
220
0.0
230
1.0
 70
     8
 71
     3
 72
    13
 73
     9
 74
     0
 42
0.000000001
 43
0.0000000001
 40
0.0
 40
0.0
 40
0.0
 40
0.0
 40
1.0
 40
2.0
 40
3.0
 40
4.0
 40
5.0
 40
6.0
 40
6.0
 40
6.0
 40
6.0
 10
9.930321657554032
 20
44.91901333313866
 30
0.0
 10
10.07619304880478
 20
44.95779200569604
 30
0.0
 10
10.36303142645394
 20
45.04379709970176
 30
0.0
 10
10.77929719298709
 20
45.24437166110168
 30
0.0
 10
11.03592227842574
 20
45.63523222503756
 30
0.0
 10
11.06763667002068
 20
46.09433574306539
 30
0.0
 10
11.05009285944615
 20
46.54398405631785
 30
0.0
 10
11.03276735659497
 20
46.84522907401661
 30
0.0
 10
11.0235564993539
 20
46.99629561215671
 30
0.0
  0
SPLINE
  5
126
330
1F
100
AcDbEntity
  8
0
370
    -3
100
AcDbSpline
210
0.0
220
0.0
230
1.0
 70
     8
 71
     3
 72
     8
 73
     4
 74
     0
 42
0.000000001
 43
0.0000000001
 40
6.0
 40
6.0
 40
6.0
 40
6.0
 40
7.0
 40
7.0
 40
7.0
 40
7.0
 10
11.0235564993539
 20
46.99629561215671
 30
0.0
 10
10.76033474463762
 20
49.88357062323834
 30
0.0
 10
10.45321365226243
 20
52.76822254554264
 30
0.0
 10
10.01507736832843
 20
55.63425014632265
 30
0.0
  0
SPLINE
  5
127
330
1F
100
AcDbEntity
  8
0
370
    -3
100
AcDbSpline
210
0.0
220
0.0
230
1.0
 70
     8
 71
     3
 72
    11
 73
     7
 74
     0
 42
0.000000001
 43
0.0000000001
 40
7.0
 40
7.0
 40
7.0
 40
7.0
 40
8.0
 40
9.0
 40
10.0
 40
11.0
 40
11.0
 40
11.0
 40
11.0
 10
10.01507736832843
 20
55.63425014632265
 30
0.0
 10
9.980261419346874
 20
55.93263086773185
 30
0.0
 10
9.82798436247461
 20
56.5132438196609
 30
0.0
 10
9.541052119836138
 20
57.3672742263296
 30
0.0
 10
8.978854908110748
 20
58.0897996504531
 30
0.0
 10
8.486871526799177
 20
58.43789492049046
 30
0.0
 10
8.229905674135637
 20
58.59179889418105
 30
0.0
  0
SPLINE
  5
128
330
1F
100
AcDbEntity
  8
0
370
    -3
100
AcDbSpline
210
0.0
220
0.0
230
1.0
 70
     8
 71
     2
 72
     9
 73
     6
 74
     0
 42
0.000000001
 43
0.0000000001
 40
0.0
 40
0.0
 40
0.0
 40
1.0
 40
2.0
 40
3.0
 40
3.471621771393735
 40
3.471621771393735
 40
3.471621771393735
 10
-8.234475805653773
 20
56.1692508970286
 30
0.0
 10
-8.339420413644064
 20
56.2409170798265
 30
0.0
 10
-8.54972369014169
 20
56.3836686308942
 30
0.0
 10
-8.75569591708225
 20
56.53261162886254
 30
0.0
 10
-8.904079716782206
 20
56.6464657175156
 30
0.0
 10
-8.951149184748488
 20
56.68356407861471
 30
0.0
  0
SPLINE
  5
129
330
1F
100
AcDbEntity
  8
0
370
    -3
100
AcDbSpline
210
0.0
220
0.0
230
1.0
 70
     8
 71
     2
 72
     7
 73
     4
 74
     0
 42
0.000000001
 43
0.0000000001
 40
6.668562427901782
 40
6.668562427901782
 40
6.668562427901782
 40
7.0
 40
8.0
 40
8.0
 40
8.0
 10
-9.556277699384623
 20
57.22488899612244
 30
0.0
 10
-9.584377338063547
 20
57.25671500088585
 30
0.0
 10
-9.692734178910598
 20
57.39001410671985
 30
0.0
 10
-9.709089079531111
 20
57.51953357670985
 30
0.0
  0
SPLINE
  5
12A
330
1F
100
AcDbEntity
  8
0
370
    -3
100
AcDbSpline
210
0.0
220
0.0
230
1.0
 70
    12
 71
     3
 72
     8
 73
     4
 74
     0
 42
0.000000001
 43
0.0000000001
 40
8.0
 40
8.0
 40
8.0
 40
8.0
 40
24.4515906985874
 40
24.4515906985874
 40
24.4515906985874
 40
24.4515906985874
 10
-9.709089079531095
 20
57.51953357670985
 30
0.0
 41
0.8592593746650863
 10
-9.783483192638947
 20
58.34259585239397
 30
0.0
 41
0.8592593746650863
 10
-9.857873579062595
 20
59.16565846490477
 30
0.0
 41
0.8592593746650862
 10
-9.932263965486039
 20
59.98872107741565
 30
0.0
 41
0.8592593746650863
  0
SPLINE
  5
12B
330
1F
100
AcDbEntity
  8
0
370
    -3
100
AcDbSpline
210
0.0
220
0.0
230
1.0
 70
     8
 71
     2
 72
    11
 73
     8
 74
     0
 42
0.000000001
 43
0.0000000001
 40
24.4515906985874
 40
24.4515906985874
 40
24.4515906985874
 40
25.4515906985874
 40
26.4515906985874
 40
27.4515906985874
 40
28.4515906985874
 40
29.4515906985874
 40
30.4515906985874
 40
30.4515906985874
 40
30.4515906985874
 10
-9.932263965486044
 20
59.98872107741566
 30
0.0
 10
-9.939458055226623
 20
60.07167987157227
 30
0.0
 10
-9.868409919963028
 20
60.22217495299897
 30
0.0
 10
-9.731631267657235
 20
60.31688310510689
 30
0.0
 10
-9.566022060719774
 20
60.33185126528684
 30
0.0
 10
-9.414478800962826
 20
60.26320234320309
 30
0.0
 10
-9.317598254914003
 20
60.12788506268237
 30
0.0
 10
-9.309801237362308
 20
60.04498076188676
 30
0.0
  0
SPLINE
  5
12C
330
1F
100
AcDbEntity
  8
0
370
    -3
100
AcDbSpline
210
0.0
220
0.0
230
1.0
 70
    28
 71
     3
 72
     8
 73
     4
 74
     0
 42
0.000000001
 43
0.0000000001
 40
30.4515906985874
 40
30.4515906985874
 40
30.4515906985874
 40
30.4515906985874
 40
44.83977035366917
 40
44.83977035366917
 40
44.83977035366917
 40
44.83977035366917
 10
-9.3098012373623
 20
60.04498076188676
 30
0.0
 41
0.859259374665087
 10
-9.24474113076949
 20
59.32514929068423
 30
0.0
 41
0.859259374665087
 10
-9.179681024176547
 20
58.60531781948168
 30
0.0
 41
0.8592593746650872
 10
-9.114620917583673
 20
57.8854863482791
 30
0.0
 41
0.8592593746650871
  0
SPLINE
  5
12D
330
1F
100
AcDbEntity
  8
0
370
    -3
100
AcDbSpline
210
0.0
220
0.0
230
1.0
 70
     8
 71
     2
 72
     7
 73
     4
 74
     0
 42
0.000000001
 43
0.0000000001
 40
48.45940160648737
 40
48.45940160648737
 40
48.45940160648737
 40
49.44804448981878
 40
50.44804448981878
 40
50.44804448981878
 40
50.44804448981878
 10
-8.676954031113127
 20
57.26483198586745
 30
0.0
 10
-8.569698043327804
 20
57.17728720512619
 30
0.0
 10
-8.348318411879575
 20
57.00829247446777
 30
0.0
 10
-8.234207621121186
 20
56.92709981113357
 30
0.0
  0
SPLINE
  5
12E
330
1F
100
AcDbEntity
  8
0
370
    -3
100
AcDbSpline
210
0.0
220
0.0
230
1.0
 70
     8
 71
     2
 72
     9
 73
     6
 74
     0
 42
0.000000001
 43
0.0000000001
 40
0.0
 40
0.0
 40
0.0
 40
1.0
 40
2.0
 40
3.0
 40
3.47162177139362
 40
3.47162177139362
 40
3.47162177139362
 10
8.234470284337675
 20
56.1692508970286
 30
0.0
 10
8.339414892327966
 20
56.2409170798265
 30
0.0
 10
8.549718168825592
 20
56.3836686308942
 30
0.0
 10
8.755690395766152
 20
56.53261162886254
 30
0.0
 10
8.90407419546608
 20
56.64646571751559
 30
0.0
 10
8.951143663432333
 20
56.68356407861469
 30
0.0
  0
SPLINE
  5
12F
330
1F
100
AcDbEntity
  8
0
370
    -3
100
AcDbSpline
210
0.0
220
0.0
230
1.0
 70
     8
 71
     2
 72
     7
 73
     4
 74
     0
 42
0.000000001
 43
0.0000000001
 40
6.668562427901877
 40
6.668562427901877
 40
6.668562427901877
 40
7.0
 40
8.0
 40
8.0
 40
8.0
 10
9.556272178068554
 20
57.22488899612246
 30
0.0
 10
9.584371816747478
 20
57.25671500088586
 30
0.0
 10
9.6927286575945
 20
57.39001410671985
 30
0.0
 10
9.709083558215013
 20
57.51953357670985
 30
0.0
  0
SPLINE
  5
130
330
1F
100
AcDbEntity
  8
0
370
    -3
100
AcDbSpline
210
0.0
220
0.0
230
1.0
 70
    12
 71
     3
 72
     8
 73
     4
 74
     0
 42
0.000000001
 43
0.0000000001
 40
8.0
 40
8.0
 40
8.0
 40
8.0
 40
24.4515906985874
 40
24.4515906985874
 40
24.4515906985874
 40
24.4515906985874
 10
9.709083558214983
 20
57.51953357670985
 30
0.0
 41
0.8592593746650863
 10
9.783477671322833
 20
58.34259585239397
 30
0.0
 41
0.8592593746650863
 10
9.857868057746481
 20
59.16565846490477
 30
0.0
 41
0.8592593746650862
 10
9.932258444169928
 20
59.98872107741565
 30
0.0
 41
0.8592593746650863
  0
SPLINE
  5
131
330
1F
100
AcDbEntity
  8
0
370
    -3
100
AcDbSpline
210
0.0
220
0.0
230
1.0
 70
     8
 71
     2
 72
    11
 73
     8
 74
     0
 42
0.000000001
 43
0.0000000001
 40
24.4515906985874
 40
24.4515906985874
 40
24.4515906985874
 40
25.4515906985874
 40
26.4515906985874
 40
27.4515906985874
 40
28.4515906985874
 40
29.4515906985874
 40
30.4515906985874
 40
30.4515906985874
 40
30.4515906985874
 10
9.932258444169946
 20
59.98872107741566
 30
0.0
 10
9.939452533910526
 20
60.07167987157227
 30
0.0
 10
9.86840439864693
 20
60.22217495299897
 30
0.0
 10
9.731625746341138
 20
60.31688310510689
 30
0.0
 10
9.566016539403677
 20
60.33185126528684
 30
0.0
 10
9.414473279646728
 20
60.26320234320309
 30
0.0
 10
9.317592733597905
 20
60.12788506268237
 30
0.0
 10
9.30979571604621
 20
60.04498076188676
 30
0.0
  0
SPLINE
  5
132
330
1F
100
AcDbEntity
  8
0
370
    -3
100
AcDbSpline
210
0.0
220
0.0
230
1.0
 70
    28
 71
     3
 72
     8
 73
     4
 74
     0
 42
0.000000001
 43
0.0000000001
 40
30.4515906985874
 40
30.4515906985874
 40
30.4515906985874
 40
30.4515906985874
 40
44.83977035366912
 40
44.83977035366912
 40
44.83977035366912
 40
44.83977035366912
 10
9.309795716046187
 20
60.04498076188676
 30
0.0
 41
0.859259374665087
 10
9.244735609453379
 20
59.32514929068424
 30
0.0
 41
0.859259374665087
 10
9.179675502860468
 20
58.60531781948168
 30
0.0
 41
0.8592593746650872
 10
9.114615396267562
 20
57.8854863482791
 30
0.0
 41
0.8592593746650871
  0
SPLINE
  5
133
330
1F
100
AcDbEntity
  8
0
370
    -3
100
AcDbSpline
210
0.0
220
0.0
230
1.0
 70
     8
 71
     2
 72
     7
 73
     4
 74
     0
 42
0.000000001
 43
0.0000000001
 40
48.45940160648723
 40
48.45940160648723
 40
48.45940160648723
 40
49.44804448981878
 40
50.44804448981878
 40
50.44804448981878
 40
50.44804448981878
 10
8.676948509797086
 20
57.26483198586748
 30
0.0
 10
8.569692522011735
 20
57.1772872051262
 30
0.0
 10
8.348312890563477
 20
57.00829247446777
 30
0.0
 10
8.234202099805088
 20
56.92709981113357
 30
0.0
  0
SPLINE
  5
134
330
1F
100
AcDbEntity
  8
0
370
    -3
100
AcDbSpline
210
0.0
220
0.0
230
1.0
 70
     8
 71
     2
 72
     7
 73
     4
 74
     0
 42
0.000000001
 43
0.0000000001
 40
15.53508026151425
 40
15.53508026151425
 40
15.53508026151425
 40
16.45235323737369
 40
17.45235323737369
 40
17.45235323737369
 40
17.45235323737369
 10
-8.25058741712769
 20
18.08173979725615
 30
0.0
 10
-8.251307800452736
 20
18.13246335660733
 30
0.0
 10
-8.251532586298026
 20
18.23851554950485
 30
0.0
 10
-8.249060289102204
 20
18.29376652053219
 30
0.0
  0
SPLINE
  5
135
330
1F
100
AcDbEntity
  8
0
370
    -3
100
AcDbSpline
210
0.0
220
0.0
230
1.0
 70
    12
 71
     3
 72
     8
 73
     4
 74
     0
 42
0.000000001
 43
0.0000000001
 40
0.0
 40
0.0
 40
0.0
 40
0.0
 40
16.46577786861866
 40
16.46577786861866
 40
16.46577786861866
 40
16.46577786861866
 10
-9.933503184599447
 20
0.1826618139419695
 30
0.0
 41
0.854660164484043
 10
-9.859048665403625
 20
5.608570953685824
 30
0.0
 41
0.854660164484043
 10
-9.784594146207567
 20
11.03448009342969
 30
0.0
 41
0.8546601644840432
 10
-9.710139624709205
 20
16.46038923314197
 30
0.0
 41
0.854660164484043
  0
SPLINE
  5
136
330
1F
100
AcDbEntity
  8
0
370
    -3
100
AcDbSpline
210
0.0
220
0.0
230
1.0
 70
     8
 71
     2
 72
    10
 73
     7
 74
     0
 42
0.000000001
 43
0.0000000001
 40
16.46577786861866
 40
16.46577786861866
 40
16.46577786861866
 40
17.46579037414968
 40
18.46581671052812
 40
19.46584304690656
 40
20.465869383285
 40
21.12822513423483
 40
21.12822513423483
 40
21.12822513423483
 10
-9.7101396247092
 20
16.46038923314197
 30
0.0
 10
-9.708329525332658
 20
16.60592986230093
 30
0.0
 10
-9.648342877833187
 20
16.89090356790098
 30
0.0
 10
-9.5292968035169
 20
17.15691253928014
 30
0.0
 10
-9.350015957368981
 20
17.3871913597236
 30
0.0
 10
-9.154643796854316
 20
17.53145111959267
 30
0.0
 10
-9.067753818486665
 20
17.57194093270071
 30
0.0
  0
SPLINE
  5
138
330
1F
100
AcDbEntity
  8
Make2D$Visible$Tangents
 62
    18
420
        0
370
    -3
100
AcDbSpline
210
0.0
220
0.0
230
1.0
 70
     8
 71
     3
 72
    25
 73
    21
 74
     0
 42
0.000000001
 43
0.0000000001
 40
-7.0
 40
-7.0
 40
-7.0
 40
-7.0
 40
-5.999992802600457
 40
-4.999985605200914
 40
-3.999978407801371
 40
-2.999971210401828
 40
-1.999964013002285
 40
-0.9999568156027417
 40
0.0
 40
0.0
 40
0.0
 40
0.9999719122290828
 40
1.999975423200448
 40
2.999978934171812
 40
3.999982445143177
 40
4.999985956114541
 40
5.999989467085905
 40
6.99999297805727
 40
7.999996489028636
 40
9.0
 40
9.0
 40
9.0
 40
9.0
 10
-8.234956108933943
 20
22.50706333998031
 30
0.0
 10
-8.282629927173616
 20
22.6010605044968
 30
0.0
 10
-8.402178044478575
 20
22.77776935977117
 30
0.0
 10
-8.651971050685262
 20
22.97717262936541
 30
0.0
 10
-8.933116177667216
 20
23.1211886540209
 30
0.0
 10
-9.22053878378361
 20
23.25932038020846
 30
0.0
 10
-9.55081553122858
 20
23.27123661975713
 30
0.0
 10
-9.799929063140183
 20
23.05203055060207
 30
0.0
 10
-9.929542939251746
 20
22.88793193131272
 30
0.0
 10
-9.972795692594929
 20
22.79047317253894
 30
0.0
 10
-10.02256293515634
 20
22.59376297518665
 30
0.0
 10
-10.04956304197242
 20
22.18858781374956
 30
0.0
 10
-10.05864671254247
 20
21.5819867446195
 30
0.0
 10
-10.05355776900367
 20
20.97469864306157
 30
0.0
 10
-10.04342916895797
 20
20.36809959863315
 30
0.0
 10
-10.01797652251048
 20
19.76005115831462
 30
0.0
 10
-9.921225224580667
 20
19.16333714954888
 30
0.0
 10
-9.663048864299839
 20
18.58356483553331
 30
0.0
 10
-9.091777092706167
 20
18.31603075246844
 30
0.0
 10
-8.692052722577444
 20
18.18977673170875
 30
0.0
 10
-8.49452673485331
 20
18.14086550025615
 30
0.0
  0
SPLINE
  5
139
330
1F
100
AcDbEntity
  8
Make2D$Visible$Tangents
 62
    18
420
        0
370
    -3
100
AcDbSpline
210
0.0
220
0.0
230
1.0
 70
     8
 71
     2
 72
     6
 73
     3
 74
     0
 42
0.000000001
 43
0.0000000001
 40
9.0
 40
9.0
 40
9.0
 40
10.0
 40
10.0
 40
10.0
 10
-8.49452673485331
 20
18.14086550025615
 30
0.0
 10
-7.412670109854503
 20
17.87297700419795
 30
0.0
 10
-6.311558120321649
 20
17.70128972526018
 30
0.0
  0
SPLINE
  5
13A
330
1F
100
AcDbEntity
  8
Make2D$Visible$Tangents
 62
    18
420
        0
370
    -3
100
AcDbSpline
210
0.0
220
0.0
230
1.0
 70
     8
 71
     3
 72
    14
 73
    10
 74
     0
 42
0.000000001
 43
0.0000000001
 40
10.0
 40
10.0
 40
10.0
 40
10.0
 40
10.54165293249128
 40
11.54165293249128
 40
12.54165293249128
 40
13.54165293249128
 40
14.54165293249128
 40
15.54165293249128
 40
16.54165293249128
 40
16.54165293249128
 40
16.54165293249128
 40
16.54165293249128
 10
-6.311558120321649
 20
17.70128972526018
 30
0.0
 10
-6.138805853924907
 20
17.67588285902418
 30
0.0
 10
-5.646932123126476
 20
17.6061601709051
 30
0.0
 10
-4.831584548094185
 20
17.52571656891196
 30
0.0
 10
-3.866435058041304
 20
17.46871956216161
 30
0.0
 10
-2.90008708127101
 20
17.43950880344811
 30
0.0
 10
-1.933438846319973
 20
17.42661130871774
 30
0.0
 10
-0.9667227934816083
 20
17.4224378531308
 30
0.0
 10
-0.3222427624387478
 20
17.42217277689895
 30
0.0
 10
-0.0000027645293699
 20
17.42216822160736
 30
0.0
  0
SPLINE
  5
13B
330
1F
100
AcDbEntity
  8
Make2D$Visible$Tangents
 62
    18
420
        0
370
    -3
100
AcDbSpline
210
0.0
220
0.0
230
1.0
 70
     8
 71
     3
 72
    25
 73
    21
 74
     0
 42
0.000000001
 43
0.0000000001
 40
-7.0
 40
-7.0
 40
-7.0
 40
-7.0
 40
-5.999992802600457
 40
-4.999985605200914
 40
-3.999978407801371
 40
-2.999971210401828
 40
-1.999964013002285
 40
-0.9999568156027417
 40
0.0
 40
0.0
 40
0.0
 40
0.9999719122290828
 40
1.999975423200448
 40
2.999978934171812
 40
3.999982445143177
 40
4.999985956114541
 40
5.999989467085905
 40
6.99999297805727
 40
7.999996489028636
 40
9.0
 40
9.0
 40
9.0
 40
9.0
 10
8.234950579214342
 20
22.50706333998031
 30
0.0
 10
8.282624397454015
 20
22.6010605044968
 30
0.0
 10
8.402172514758973
 20
22.77776935977117
 30
0.0
 10
8.65196552096566
 20
22.97717262936541
 30
0.0
 10
8.933110647947615
 20
23.1211886540209
 30
0.0
 10
9.220533254064009
 20
23.25932038020846
 30
0.0
 10
9.550810001508978
 20
23.27123661975713
 30
0.0
 10
9.799923533420582
 20
23.05203055060207
 30
0.0
 10
9.929537409532145
 20
22.88793193131272
 30
0.0
 10
9.972790162875327
 20
22.79047317253894
 30
0.0
 10
10.02255740543674
 20
22.59376297518665
 30
0.0
 10
10.04955751225282
 20
22.18858781374956
 30
0.0
 10
10.05864118282287
 20
21.5819867446195
 30
0.0
 10
10.05355223928407
 20
20.97469864306157
 30
0.0
 10
10.04342363923837
 20
20.36809959863315
 30
0.0
 10
10.01797099279088
 20
19.76005115831462
 30
0.0
 10
9.921219694861065
 20
19.16333714954888
 30
0.0
 10
9.663043334580237
 20
18.58356483553331
 30
0.0
 10
9.091771562986565
 20
18.31603075246844
 30
0.0
 10
8.692047192857842
 20
18.18977673170875
 30
0.0
 10
8.494521205133708
 20
18.14086550025615
 30
0.0
  0
SPLINE
  5
13C
330
1F
100
AcDbEntity
  8
Make2D$Visible$Tangents
 62
    18
420
        0
370
    -3
100
AcDbSpline
210
0.0
220
0.0
230
1.0
 70
     8
 71
     2
 72
     6
 73
     3
 74
     0
 42
0.000000001
 43
0.0000000001
 40
9.0
 40
9.0
 40
9.0
 40
10.0
 40
10.0
 40
10.0
 10
8.494521205133708
 20
18.14086550025615
 30
0.0
 10
7.412664580134731
 20
17.87297700419791
 30
0.0
 10
6.311552590609153
 20
17.70128972521226
 30
0.0
  0
SPLINE
  5
13D
330
1F
100
AcDbEntity
  8
Make2D$Visible$Tangents
 62
    18
420
        0
370
    -3
100
AcDbSpline
210
0.0
220
0.0
230
1.0
 70
     8
 71
     3
 72
    14
 73
    10
 74
     0
 42
0.000000001
 43
0.0000000001
 40
10.0
 40
10.0
 40
10.0
 40
10.0
 40
10.54165293181532
 40
11.54165293181532
 40
12.54165293181532
 40
13.54165293181532
 40
14.54165293181532
 40
15.54165293181532
 40
16.54165293181532
 40
16.54165293181532
 40
16.54165293181532
 40
16.54165293181532
 10
6.311552590609153
 20
17.70128972521226
 30
0.0
 10
6.13880032443484
 20
17.67588285896304
 30
0.0
 10
5.646926593850935
 20
17.6061601708837
 30
0.0
 10
4.831579019035445
 20
17.52571656891196
 30
0.0
 10
3.866429528982565
 20
17.46871956216161
 30
0.0
 10
2.900081552212271
 20
17.43950880344811
 30
0.0
 10
1.933433317261233
 20
17.42661130871774
 30
0.0
 10
0.9667172644228685
 20
17.4224378531308
 30
0.0
 10
0.3222372333800081
 20
17.42217277689895
 30
0.0
 10
-0.0000027645293699
 20
17.42216822160736
 30
0.0
  0
SPLINE
  5
13E
330
1F
100
AcDbEntity
  8
0
370
    -3
100
AcDbSpline
210
0.0
220
0.0
230
1.0
 70
     8
 71
     2
 72
     7
 73
     4
 74
     0
 42
0.000000001
 43
0.0000000001
 40
15.53510262625298
 40
15.53510262625298
 40
15.53510262625298
 40
16.45235323737369
 40
17.45235323737369
 40
17.45235323737369
 40
17.45235323737369
 10
8.250582012013098
 20
18.08174227071648
 30
0.0
 10
8.25130236283212
 20
18.1324645936923
 30
0.0
 10
8.25152714605531
 20
18.23851554950485
 30
0.0
 10
8.249054848859487
 20
18.29376652053219
 30
0.0
  0
SPLINE
  5
13F
330
1F
100
AcDbEntity
  8
0
370
    -3
100
AcDbSpline
210
0.0
220
0.0
230
1.0
 70
    12
 71
     3
 72
     8
 73
     4
 74
     0
 42
0.000000001
 43
0.0000000001
 40
0.0
 40
0.0
 40
0.0
 40
0.0
 40
16.46577786861866
 40
16.46577786861866
 40
16.46577786861866
 40
16.46577786861866
 10
9.933497744356684
 20
0.1826618139419695
 30
0.0
 41
0.854660164484043
 10
9.859043225160795
 20
5.608570953685824
 30
0.0
 41
0.854660164484043
 10
9.78458870596487
 20
11.03448009342969
 30
0.0
 41
0.8546601644840432
 10
9.710134184466442
 20
16.46038923314197
 30
0.0
 41
0.854660164484043
  0
SPLINE
  5
140
330
1F
100
AcDbEntity
  8
0
370
    -3
100
AcDbSpline
210
0.0
220
0.0
230
1.0
 70
     8
 71
     2
 72
    10
 73
     7
 74
     0
 42
0.000000001
 43
0.0000000001
 40
16.46577786861866
 40
16.46577786861866
 40
16.46577786861866
 40
17.46579037414968
 40
18.46581671052812
 40
19.46584304690656
 40
20.465869383285
 40
21.12822529415048
 40
21.12822529415048
 40
21.12822529415048
 10
9.710134184466483
 20
16.46038923314197
 30
0.0
 10
9.708324085089941
 20
16.60592986230093
 30
0.0
 10
9.64833743759047
 20
16.89090356790098
 30
0.0
 10
9.529291363274183
 20
17.15691253928014
 30
0.0
 10
9.350010517126265
 20
17.3871913597236
 30
0.0
 10
9.15463833781746
 20
17.53145113346997
 30
0.0
 10
9.067748336287451
 20
17.57194095225199
 30
0.0
  0
SPLINE
  5
141
330
1F
100
AcDbEntity
  8
Make2D$Visible$Tangents
 62
    18
420
        0
370
    -3
100
AcDbSpline
210
0.0
220
0.0
230
1.0
 70
     8
 71
     3
 72
     8
 73
     4
 74
     0
 42
0.000000001
 43
0.0000000001
 40
0.0
 40
0.0
 40
0.0
 40
0.0
 40
0.8698122571304998
 40
0.8698122571304998
 40
0.8698122571304998
 40
0.8698122571304998
 10
-8.018621038160859
 20
17.07987940106351
 30
0.0
 10
-8.038451872906705
 20
17.12432056815533
 30
0.0
 10
-8.054696745745076
 20
17.1705078605283
 30
0.0
 10
-8.068275698531295
 20
17.21722580794224
 30
0.0
  0
SPLINE
  5
142
330
1F
100
AcDbEntity
  8
Make2D$Visible$Tangents
 62
    18
420
        0
370
    -3
100
AcDbSpline
210
0.0
220
0.0
230
1.0
 70
     8
 71
     3
 72
    10
 73
     6
 74
     0
 42
0.000000001
 43
0.0000000001
 40
0.8698122571304998
 40
0.8698122571304998
 40
0.8698122571304998
 40
0.8698122571304998
 40
1.125850314679689
 40
1.125850314679689
 40
1.379638189967468
 40
1.379638189967468
 40
1.379638189967468
 40
1.379638189967468
 10
-8.068275698531295
 20
17.21722580794224
 30
0.0
 10
-8.10636081769485
 20
17.23273186151171
 30
0.0
 10
-8.14963713854246
 20
17.24924355297112
 30
0.0
 10
-8.239988405152275
 20
17.28292463026204
 30
0.0
 10
-8.295364956194192
 20
17.30325153566895
 30
0.0
 10
-8.36919700252892
 20
17.32587106716963
 30
0.0
  0
SPLINE
  5
143
330
1F
100
AcDbEntity
  8
Make2D$Visible$Tangents
 62
    18
420
        0
370
    -3
100
AcDbSpline
210
0.0
220
0.0
230
1.0
 70
     8
 71
     2
 72
    10
 73
     7
 74
     0
 42
0.000000001
 43
0.0000000001
 40
1.379638189967468
 40
1.379638189967468
 40
1.379638189967468
 40
2.379638189967468
 40
3.379638189967468
 40
4.379638189967467
 40
5.379638189967467
 40
6.379638189967467
 40
6.379638189967467
 40
6.379638189967467
 10
-8.36919700252892
 20
17.32587106716963
 30
0.0
 10
-8.59624445897964
 20
17.39443994719699
 30
0.0
 10
-9.041988891788549
 20
17.55672113644601
 30
0.0
 10
-9.474816239862605
 20
17.75122691759678
 30
0.0
 10
-9.879901364418913
 20
18.00101580498824
 30
0.0
 10
-10.2428601815943
 20
18.37647768917833
 30
0.0
 10
-10.37846125323614
 20
18.57165719003494
 30
0.0
  0
SPLINE
  5
144
330
1F
100
AcDbEntity
  8
Make2D$Visible$Tangents
 62
    18
420
        0
370
    -3
100
AcDbSpline
210
0.0
220
0.0
230
1.0
 70
     8
 71
     3
 72
    10
 73
     6
 74
     0
 42
0.000000001
 43
0.0000000001
 40
6.379638189967467
 40
6.379638189967467
 40
6.379638189967467
 40
6.379638189967467
 40
7.379638189967467
 40
8.379638189967467
 40
9.379638189967467
 40
9.379638189967467
 40
9.379638189967467
 40
9.379638189967467
 10
-10.37846125323614
 20
18.57165719003494
 30
0.0
 10
-10.65037779273402
 20
18.96304446899407
 30
0.0
 10
-10.94526808816576
 20
19.87768406917965
 30
0.0
 10
-11.06191677807169
 20
21.29481119909943
 30
0.0
 10
-11.07381523015573
 20
22.24415004808054
 30
0.0
 10
-11.02130745664456
 20
22.71515443356506
 30
0.0
  0
SPLINE
  5
145
330
1F
100
AcDbEntity
  8
Make2D$Visible$Tangents
 62
    18
420
        0
370
    -3
100
AcDbSpline
210
0.0
220
0.0
230
1.0
 70
     8
 71
     3
 72
    21
 73
    17
 74
     0
 42
0.000000001
 43
0.0000000001
 40
9.379638189967467
 40
9.379638189967467
 40
9.379638189967467
 40
9.379638189967467
 40
10.37963818996747
 40
11.37963818996747
 40
12.37963818996747
 40
12.37963818996747
 40
12.37963818996747
 40
13.37963818996747
 40
14.37963818996747
 40
15.37963818996747
 40
15.37963818996747
 40
15.37963818996747
 40
16.37963818996747
 40
16.37963818996747
 40
16.37963818996747
 40
17.37963818996747
 40
17.37963818996747
 40
17.37963818996747
 40
17.37963818996747
 10
-11.02130745664456
 20
22.71515443356506
 30
0.0
 10
-11.02026870037679
 20
22.72447226833228
 30
0.0
 10
-11.01775341602149
 20
22.74421333902004
 30
0.0
 10
-11.01397135746717
 20
22.77208496247657
 30
0.0
 10
-11.01124282154973
 20
22.79063680406463
 30
0.0
 10
-11.00975838804979
 20
22.80028545418843
 30
0.0
 10
-10.99087887045152
 20
22.9463482722818
 30
0.0
 10
-10.90601902292565
 20
23.23460175929112
 30
0.0
 10
-10.60556620180654
 20
23.56985992089237
 30
0.0
 10
-10.36686246638388
 20
23.74169781522465
 30
0.0
 10
-10.23739720078484
 20
23.81241205679802
 30
0.0
 10
-10.0820591864676
 20
23.8993978369586
 30
0.0
 10
-9.80723516559263
 20
23.99514577850226
 30
0.0
 10
-9.631399590341516
 20
24.02150915786027
 30
0.0
 10
-9.164489281050038
 20
24.09447439490556
 30
0.0
 10
-8.693652885330238
 20
24.13720826906787
 30
0.0
 10
-8.223244220386704
 20
24.17974696332061
 30
0.0
  0
SPLINE
  5
146
330
1F
100
AcDbEntity
  8
Make2D$Visible$Tangents
 62
    18
420
        0
370
    -3
100
AcDbSpline
210
0.0
220
0.0
230
1.0
 70
     8
 71
     3
 72
     8
 73
     4
 74
     0
 42
0.000000001
 43
0.0000000001
 40
-36.0
 40
-36.0
 40
-36.0
 40
-36.0
 40
-35.13018774097519
 40
-35.13018774097519
 40
-35.13018774097519
 40
-35.13018774097519
 10
8.01861550910212
 20
17.07987940106351
 30
0.0
 10
8.038446343857032
 20
17.12432056817568
 30
0.0
 10
8.05469121670123
 20
17.17050786057062
 30
0.0
 10
8.068270169186519
 20
17.21722580809487
 30
0.0
  0
SPLINE
  5
147
330
1F
100
AcDbEntity
  8
Make2D$Visible$Tangents
 62
    18
420
        0
370
    -3
100
AcDbSpline
210
0.0
220
0.0
230
1.0
 70
     8
 71
     3
 72
    10
 73
     6
 74
     0
 42
0.000000001
 43
0.0000000001
 40
-35.13018774097519
 40
-35.13018774097519
 40
-35.13018774097519
 40
-35.13018774097519
 40
-34.87414968384416
 40
-34.87414968384416
 40
-34.62036180813822
 40
-34.62036180813822
 40
-34.62036180813822
 40
-34.62036180813822
 10
8.068270169186519
 20
17.21722580809487
 30
0.0
 10
8.10635528825921
 20
17.23273186162005
 30
0.0
 10
8.149631608971731
 20
17.24924355302662
 30
0.0
 10
8.239982875432673
 20
17.28292463026204
 30
0.0
 10
8.29535942647459
 20
17.30325153566895
 30
0.0
 10
8.36919147280932
 20
17.32587106716963
 30
0.0
  0
SPLINE
  5
148
330
1F
100
AcDbEntity
  8
Make2D$Visible$Tangents
 62
    18
420
        0
370
    -3
100
AcDbSpline
210
0.0
220
0.0
230
1.0
 70
     8
 71
     2
 72
    10
 73
     7
 74
     0
 42
0.000000001
 43
0.0000000001
 40
-34.62036180813822
 40
-34.62036180813822
 40
-34.62036180813822
 40
-33.62036180813822
 40
-32.62036180813822
 40
-31.62036180813822
 40
-30.62036180813822
 40
-29.62036180813822
 40
-29.62036180813822
 40
-29.62036180813822
 10
8.36919147280932
 20
17.32587106716963
 30
0.0
 10
8.59623892926004
 20
17.39443994719699
 30
0.0
 10
9.041983362068947
 20
17.55672113644601
 30
0.0
 10
9.474810710143004
 20
17.75122691759678
 30
0.0
 10
9.879895834699312
 20
18.00101580498824
 30
0.0
 10
10.24285465187469
 20
18.37647768917833
 30
0.0
 10
10.37845572351654
 20
18.57165719003494
 30
0.0
  0
SPLINE
  5
149
330
1F
100
AcDbEntity
  8
Make2D$Visible$Tangents
 62
    18
420
        0
370
    -3
100
AcDbSpline
210
0.0
220
0.0
230
1.0
 70
     8
 71
     3
 72
    10
 73
     6
 74
     0
 42
0.000000001
 43
0.0000000001
 40
-29.62036180813822
 40
-29.62036180813822
 40
-29.62036180813822
 40
-29.62036180813822
 40
-28.62036180813822
 40
-27.62036180813822
 40
-26.62036180813822
 40
-26.62036180813822
 40
-26.62036180813822
 40
-26.62036180813822
 10
10.37845572351654
 20
18.57165719003494
 30
0.0
 10
10.65037226301442
 20
18.96304446899407
 30
0.0
 10
10.94526255844616
 20
19.87768406917965
 30
0.0
 10
11.06191124835209
 20
21.29481119909943
 30
0.0
 10
11.07380970043613
 20
22.24415004808054
 30
0.0
 10
11.02130192692496
 20
22.71515443356506
 30
0.0
  0
SPLINE
  5
14A
330
1F
100
AcDbEntity
  8
Make2D$Visible$Tangents
 62
    18
420
        0
370
    -3
100
AcDbSpline
210
0.0
220
0.0
230
1.0
 70
     8
 71
     3
 72
    21
 73
    17
 74
     0
 42
0.000000001
 43
0.0000000001
 40
-26.62036180813822
 40
-26.62036180813822
 40
-26.62036180813822
 40
-26.62036180813822
 40
-25.62036180813822
 40
-24.62036180813822
 40
-23.62036180813822
 40
-23.62036180813822
 40
-23.62036180813822
 40
-22.62036180813822
 40
-21.62036180813822
 40
-20.62036180813822
 40
-20.62036180813822
 40
-20.62036180813822
 40
-19.62036180813822
 40
-19.62036180813822
 40
-19.62036180813822
 40
-18.62036180813822
 40
-18.62036180813822
 40
-18.62036180813822
 40
-18.62036180813822
 10
11.02130192692496
 20
22.71515443356506
 30
0.0
 10
11.02026317065719
 20
22.72447226833228
 30
0.0
 10
11.01774788630189
 20
22.74421333902004
 30
0.0
 10
11.01396582774757
 20
22.77208496247657
 30
0.0
 10
11.01123729183013
 20
22.79063680406463
 30
0.0
 10
11.00975285833019
 20
22.80028545418843
 30
0.0
 10
10.99087334073192
 20
22.9463482722818
 30
0.0
 10
10.90601349320605
 20
23.23460175929112
 30
0.0
 10
10.60556067208694
 20
23.56985992089237
 30
0.0
 10
10.36685693666428
 20
23.74169781522465
 30
0.0
 10
10.23739167106524
 20
23.81241205679802
 30
0.0
 10
10.082053656748
 20
23.8993978369586
 30
0.0
 10
9.807229635873028
 20
23.99514577850226
 30
0.0
 10
9.631394060621915
 20
24.02150915786027
 30
0.0
 10
9.164483751330437
 20
24.09447439490556
 30
0.0
 10
8.693647355610636
 20
24.13720826906787
 30
0.0
 10
8.223238690667102
 20
24.17974696332061
 30
0.0
  0
SPLINE
  5
14C
330
1F
100
AcDbEntity
  8
Make2D$Visible$Curves
 62
    18
420
        0
370
    -3
100
AcDbSpline
210
0.0
220
0.0
230
1.0
 70
    11
 71
     3
 72
    72
 73
    68
 74
     0
 42
0.000000001
 43
0.0000000001
 40
0.0
 40
0.0
 40
0.0
 40
0.0
 40
1.0
 40
1.0
 40
2.0
 40
2.0
 40
3.0
 40
3.0
 40
4.0
 40
4.0
 40
5.0
 40
5.0
 40
6.0
 40
6.0
 40
7.0
 40
7.0
 40
8.0
 40
8.0
 40
9.0
 40
9.0
 40
10.0
 40
10.0
 40
10.0
 40
11.0
 40
11.0
 40
11.0
 40
12.0
 40
12.0
 40
13.0
 40
13.0
 40
14.0
 40
14.0
 40
15.0
 40
15.0
 40
16.0
 40
16.0
 40
17.0
 40
17.0
 40
18.0
 40
18.0
 40
19.0
 40
19.0
 40
20.0
 40
20.0
 40
21.0
 40
21.0
 40
21.0
 40
22.0
 40
22.0
 40
23.0
 40
23.0
 40
24.0
 40
24.0
 40
25.0
 40
25.0
 40
25.9440454171427
 40
25.9440454171427
 40
25.9440454171427
 40
26.94171228193566
 40
26.94171228193566
 40
27.94171228193566
 40
27.94171228193566
 40
28.94171228193566
 40
28.94171228193566
 40
29.94171228193566
 40
29.94171228193566
 40
30.94171228193566
 40
30.94171228193566
 40
30.94171228193566
 40
30.94171228193566
 10
33.32312459620243
 20
22.68829963162217
 30
0.0
 10
33.52377427050482
 20
22.66441406585486
 30
0.0
 10
33.72404091280077
 20
22.63742311469332
 30
0.0
 10
34.12380813337992
 20
22.57723044158183
 30
0.0
 10
34.32218436719035
 20
22.53918774179704
 30
0.0
 10
34.71592208185288
 20
22.44720961576942
 30
0.0
 10
34.90805900728503
 20
22.38385932423361
 30
0.0
 10
35.28286899435111
 20
22.22243628411798
 30
0.0
 10
35.44636017945942
 20
22.10748950029244
 30
0.0
 10
35.72551493282657
 20
21.8091254051059
 30
0.0
 10
35.83738451275866
 20
21.64206105691872
 30
0.0
 10
36.00570807911976
 20
21.27216775935651
 30
0.0
 10
36.07622687816263
 20
21.08270477298069
 30
0.0
 10
36.18997850797297
 20
20.69474612503967
 30
0.0
 10
36.24078014380859
 20
20.499210024791
 30
0.0
 10
36.33023505734087
 20
20.10502427173739
 30
0.0
 10
36.37498048423492
 20
19.90796450643003
 30
0.0
 10
36.46450727827883
 20
19.51391119825423
 30
0.0
 10
36.50922767902296
 20
19.3168250519708
 30
0.0
 10
36.59858248795558
 20
18.92253377501282
 30
0.0
 10
36.63552281227163
 20
18.7239620843843
 30
0.0
 10
36.66472605643742
 20
18.52396434160623
 30
0.0
 10
36.69586256873839
 20
18.24968288283887
 30
0.0
 10
36.55321955427911
 20
18.07800477482621
 30
0.0
 10
36.27758835501308
 20
18.01654674560262
 30
0.0
 10
35.84840994010472
 20
17.92085199248395
 30
0.0
 10
35.41428206622572
 20
17.86013307030343
 30
0.0
 10
34.53612740052665
 20
17.80864688781875
 30
0.0
 10
34.09723574942342
 20
17.78714408009606
 30
0.0
 10
33.21982381070939
 20
17.75261903168995
 30
0.0
 10
32.78091447106831
 20
17.73939306308077
 30
0.0
 10
31.90268905121803
 20
17.72101423705014
 30
0.0
 10
31.46354560886209
 20
17.72186668344423
 30
0.0
 10
30.58519725928852
 20
17.74365529505123
 30
0.0
 10
30.1472282384149
 20
17.77391802024198
 30
0.0
 10
29.273700504494
 20
17.87318030939799
 30
0.0
 10
28.84226049164408
 20
17.95442485149709
 30
0.0
 10
27.9900281741653
 20
18.18014073073743
 30
0.0
 10
27.58557648981656
 20
18.34852588681252
 30
0.0
 10
26.82000206990034
 20
18.7963506318726
 30
0.0
 10
26.49559626557246
 20
19.0858616955371
 30
0.0
 10
25.96354746817718
 20
19.79608120513504
 30
0.0
 10
25.74907394639646
 20
20.17832388759909
 30
0.0
 10
25.42322865666898
 20
20.99707510785738
 30
0.0
 10
25.29155068706226
 20
21.41584051486726
 30
0.0
 10
25.19111739271256
 20
21.84399571875788
 30
0.0
 10
25.17158086291425
 20
21.92591336664381
 30
0.0
 10
25.15726394645543
 20
22.00874283979454
 30
0.0
 10
25.13906934021659
 20
22.17622543662557
 30
0.0
 10
25.13525054063751
 20
22.26017591254316
 30
0.0
 10
25.13816994856003
 20
22.42849521938246
 30
0.0
 10
25.14594757910521
 20
22.51232570080644
 30
0.0
 10
25.17413869336343
 20
22.67932831966309
 30
0.0
 10
25.20256022084342
 20
22.75801403928422
 30
0.0
 10
25.2856632980959
 20
22.90162092661276
 30
0.0
 10
25.341682107861
 20
22.95577735347541
 30
0.0
 10
25.41336414796967
 20
22.9943534496861
 30
0.0
 10
25.93220778957115
 20
23.07650038703693
 30
0.0
 10
26.45525384925165
 20
23.12318731098694
 30
0.0
 10
27.51098382355659
 20
23.14566738724247
 30
0.0
 10
28.0387872014667
 20
23.13895658683761
 30
0.0
 10
29.09303772001635
 20
23.08960705380551
 30
0.0
 10
29.61963024552023
 20
23.05637915930137
 30
0.0
 10
30.67174982898621
 20
22.97281711431694
 30
0.0
 10
31.19726547252537
 20
22.92512843290388
 30
0.0
 10
32.24720846321608
 20
22.81793575223605
 30
0.0
 10
32.79911994456677
 20
22.75067774218996
 30
0.0
 10
33.32312459620243
 20
22.68829963162217
 30
0.0
  0
SPLINE
  5
14D
330
1F
100
AcDbEntity
  8
0
370
    -3
100
AcDbSpline
210
0.0
220
0.0
230
1.0
 70
     8
 71
     3
 72
    19
 73
    15
 74
     0
 42
0.000000001
 43
0.0000000001
 40
0.1114208562774371
 40
0.1114208562774371
 40
0.1114208562774371
 40
0.1114208562774371
 40
1.0
 40
2.0
 40
3.0
 40
4.0
 40
5.0
 40
6.0
 40
7.0
 40
8.0
 40
9.0
 40
10.0
 40
11.0
 40
11.83341560366924
 40
11.83341560366924
 40
11.83341560366924
 40
11.83341560366924
 10
36.38247445313851
 20
16.83611730233127
 30
0.0
 10
36.16203319039556
 20
16.84627489844014
 30
0.0
 10
35.69304152830256
 20
16.85690976482853
 30
0.0
 10
34.97564706953969
 20
16.84692931827621
 30
0.0
 10
34.2312549308599
 20
16.81412314634537
 30
0.0
 10
33.48804059141671
 20
16.76150025248472
 30
0.0
 10
32.74575524208637
 20
16.69744770531348
 30
0.0
 10
32.00260935215371
 20
16.64397665434804
 30
0.0
 10
31.25870753568509
 20
16.60270345461211
 30
0.0
 10
30.51372019817043
 20
16.58269473293657
 30
0.0
 10
29.76887626656688
 20
16.59682016956943
 30
0.0
 10
29.02317852744156
 20
16.59026594436703
 30
0.0
 10
28.32296473815975
 20
16.52554391587174
 30
0.0
 10
27.87225733220086
 20
16.44427576519855
 30
0.0
 10
27.66567660830918
 20
16.45346676783055
 30
0.0
  0
SPLINE
  5
14E
330
1F
100
AcDbEntity
  8
0
370
    -3
100
AcDbSpline
210
0.0
220
0.0
230
1.0
 70
     8
 71
     5
 72
    12
 73
     6
 74
     0
 42
0.000000001
 43
0.0000000001
 40
-37.79274481442121
 40
-37.79274481442121
 40
-37.79274481442121
 40
-37.79274481442121
 40
-37.79274481442121
 40
-37.79274481442121
 40
-37.78047231557852
 40
-37.78047231557852
 40
-37.78047231557852
 40
-37.78047231557852
 40
-37.78047231557852
 40
-37.78047231557852
 10
23.20679444895052
 20
24.49263027773767
 30
0.0
 10
23.20646406071953
 20
24.49491780831281
 30
0.0
 10
23.20613346335551
 20
24.49720521354821
 30
0.0
 10
23.20580265668511
 20
24.49949249385783
 30
0.0
 10
23.20547164053488
 20
24.50177964965498
 30
0.0
 10
23.20514041473126
 20
24.50406668135238
 30
0.0
  0
SPLINE
  5
14F
330
1F
100
AcDbEntity
  8
0
370
    -3
100
AcDbSpline
210
0.0
220
0.0
230
1.0
 70
     8
 71
     5
 72
    16
 73
    10
 74
     0
 42
0.000000001
 43
0.0000000001
 40
-37.78047231557852
 40
-37.78047231557852
 40
-37.78047231557852
 40
-37.78047231557852
 40
-37.78047231557852
 40
-37.78047231557852
 40
-37.19390305355908
 40
-34.79715286859543
 40
-33.60228520264785
 40
-32.40741751985176
 40
-30.096572061219
 40
-30.096572061219
 40
-30.096572061219
 40
-30.096572061219
 40
-30.096572061219
 40
-30.096572061219
 10
23.20514041473129
 20
24.50406668135238
 30
0.0
 10
23.18930933764804
 20
24.61337632661314
 30
0.0
 10
23.10635584454025
 20
25.16788857097653
 30
0.0
 10
22.97214074469161
 20
25.93585390953234
 30
0.0
 10
22.76061040182339
 20
26.92179172436586
 30
0.0
 10
22.33878037519622
 20
28.39801883129459
 30
0.0
 10
21.81325714007181
 20
29.74424784355392
 30
0.0
 10
21.4109138937913
 20
30.62134877422699
 30
0.0
 10
21.08946373151554
 20
31.25986263465856
 30
0.0
 10
20.87027635706949
 20
31.67283757227905
 30
0.0
  0
SPLINE
  5
150
330
1F
100
AcDbEntity
  8
0
370
    -3
100
AcDbSpline
210
0.0
220
0.0
230
1.0
 70
     8
 71
     3
 72
     8
 73
     4
 74
     0
 42
0.000000001
 43
0.0000000001
 40
-30.096572061219
 40
-30.096572061219
 40
-30.096572061219
 40
-30.096572061219
 40
-29.096572061219
 40
-29.096572061219
 40
-29.096572061219
 40
-29.096572061219
 10
20.87027635706949
 20
31.67283757227905
 30
0.0
 10
20.82180316166762
 20
31.76416680553412
 30
0.0
 10
20.88042766201636
 20
31.81185979797732
 30
0.0
 10
20.98837966514878
 20
31.81844224634514
 30
0.0
  0
SPLINE
  5
151
330
1F
100
AcDbEntity
  8
0
370
    -3
100
AcDbSpline
210
0.0
220
0.0
230
1.0
 70
     8
 71
     3
 72
     9
 73
     5
 74
     0
 42
0.000000001
 43
0.0000000001
 40
-29.096572061219
 40
-29.096572061219
 40
-29.096572061219
 40
-29.096572061219
 40
-28.09657066896912
 40
-27.096572061219
 40
-27.096572061219
 40
-27.096572061219
 40
-27.096572061219
 10
20.98837966514878
 20
31.81844224634514
 30
0.0
 10
21.11476584105409
 20
31.82614873120104
 30
0.0
 10
21.36787381128747
 20
31.83494643285562
 30
0.0
 10
21.62106265783663
 20
31.83967653789892
 30
0.0
 10
21.74767468251085
 20
31.84091435751135
 30
0.0
  0
SPLINE
  5
152
330
1F
100
AcDbEntity
  8
0
370
    -3
100
AcDbSpline
210
0.0
220
0.0
230
1.0
 70
     8
 71
     3
 72
    10
 73
     6
 74
     0
 42
0.000000001
 43
0.0000000001
 40
-27.096572061219
 40
-27.096572061219
 40
-27.096572061219
 40
-27.096572061219
 40
-26.09657377324559
 40
-25.09657291723229
 40
-24.096572061219
 40
-24.096572061219
 40
-24.096572061219
 40
-24.096572061219
 10
21.74767468251085
 20
31.84091435751135
 30
0.0
 10
21.88496097184054
 20
31.84120577511095
 30
0.0
 10
22.1526086168345
 20
31.7617735525503
 30
0.0
 10
22.48644920929414
 20
31.51654530141015
 30
0.0
 10
22.65710118528898
 20
31.30069351096608
 30
0.0
 10
22.73315300161835
 20
31.18738386670181
 30
0.0
  0
SPLINE
  5
153
330
1F
100
AcDbEntity
  8
0
370
    -3
100
AcDbSpline
210
0.0
220
0.0
230
1.0
 70
     8
 71
     3
 72
    12
 73
     8
 74
     0
 42
0.000000001
 43
0.0000000001
 40
-24.096572061219
 40
-24.096572061219
 40
-24.096572061219
 40
-24.096572061219
 40
-23.096572061219
 40
-22.096572061219
 40
-21.096572061219
 40
-20.096572061219
 40
-19.36798764571856
 40
-19.36798764571856
 40
-19.36798764571856
 40
-19.36798764571856
 10
22.73315300161835
 20
31.18738386670181
 30
0.0
 10
23.02683150102382
 20
30.75003211388673
 30
0.0
 10
23.5340426374616
 20
29.82333484071609
 30
0.0
 10
24.0978795769623
 20
28.34465669797579
 30
0.0
 10
24.52376707202106
 20
26.82208431243851
 30
0.0
 10
24.82893582463632
 20
25.41753925205204
 30
0.0
 10
25.00396079462308
 20
24.52419025738541
 30
0.0
 10
25.07456584407134
 20
24.14701633324746
 30
0.0
  0
SPLINE
  5
154
330
1F
100
AcDbEntity
  8
0
370
    -3
100
AcDbSpline
210
0.0
220
0.0
230
1.0
 70
     8
 71
     3
 72
    17
 73
    13
 74
     0
 42
0.000000001
 43
0.0000000001
 40
-18.56992794498784
 40
-18.56992794498784
 40
-18.56992794498784
 40
-18.56992794498784
 40
-18.096572061219
 40
-17.096572061219
 40
-16.096572061219
 40
-15.096572061219
 40
-14.096572061219
 40
-13.096572061219
 40
-12.096572061219
 40
-11.096572061219
 40
-10.096572061219
 40
-9.666593041362054
 40
-9.666593041362054
 40
-9.666593041362054
 40
-9.666593041362054
 10
25.29949984725124
 20
22.90617942105871
 30
0.0
 10
25.34471206165173
 20
22.66100936157021
 30
0.0
 10
25.49197929861714
 20
21.89924998571038
 30
0.0
 10
25.82343877724756
 20
20.63779199773893
 30
0.0
 10
26.63315770886072
 20
19.23683642913903
 30
0.0
 10
28.02632750644378
 20
18.40821089800171
 30
0.0
 10
29.58022057022271
 20
18.07784319203193
 30
0.0
 10
31.15788254405453
 20
17.96907709799947
 30
0.0
 10
32.73842387566484
 20
17.98514764274216
 30
0.0
 10
34.31745500674106
 20
18.03836537034934
 30
0.0
 10
35.59536555754576
 20
18.10890654057442
 30
0.0
 10
36.34682741928313
 20
18.15869985852775
 30
0.0
 10
36.57274911696126
 20
18.17417642784743
 30
0.0
  0
SPLINE
  5
155
330
1F
100
AcDbEntity
  8
0
370
    -3
100
AcDbSpline
210
0.0
220
0.0
230
1.0
 70
     8
 71
     3
 72
     9
 73
     5
 74
     0
 42
0.000000001
 43
0.0000000001
 40
-8.732355162413208
 40
-8.732355162413208
 40
-8.732355162413208
 40
-8.732355162413208
 40
-8.096572061218996
 40
-7.096572061218996
 40
-7.096572061218996
 40
-7.096572061218996
 40
-7.096572061218996
 10
38.04504451066225
 20
18.27956607100263
 30
0.0
 10
38.37900606489615
 20
18.30376674289252
 30
0.0
 10
39.23832589251427
 20
18.36490590023431
 30
0.0
 10
40.09858256247065
 20
18.41354144593154
 30
0.0
 10
40.62518546316846
 20
18.42453826817132
 30
0.0
  0
SPLINE
  5
156
330
1F
100
AcDbEntity
  8
0
370
    -3
100
AcDbSpline
210
0.0
220
0.0
230
1.0
 70
     8
 71
     3
 72
    14
 73
    10
 74
     0
 42
0.000000001
 43
0.0000000001
 40
-7.096572061218996
 40
-7.096572061218996
 40
-7.096572061218996
 40
-7.096572061218996
 40
-6.096474197351765
 40
-5.096376333484534
 40
-4.096278469617303
 40
-3.096180605750073
 40
-2.096082741882842
 40
-1.095984878015611
 40
-0.0965720612189963
 40
-0.0965720612189963
 40
-0.0965720612189963
 40
-0.0965720612189963
 10
40.62518546316846
 20
18.42453826817132
 30
0.0
 10
40.71682204094461
 20
18.42638524364952
 30
0.0
 10
40.90023044581631
 20
18.42606257368132
 30
0.0
 10
41.17474825053617
 20
18.40786943433942
 30
0.0
 10
41.44696298412705
 20
18.36507037442615
 30
0.0
 10
41.71070697521318
 20
18.28634839468742
 30
0.0
 10
41.95971639045564
 20
18.16238468116839
 30
0.0
 10
42.15103836593593
 20
17.96005307928127
 30
0.0
 10
42.22039500979457
 20
17.78716133787519
 30
0.0
 10
42.2729583938245
 20
17.71207009860392
 30
0.0
  0
SPLINE
  5
157
330
1F
100
AcDbEntity
  8
0
370
    -3
100
AcDbSpline
210
0.0
220
0.0
230
1.0
 70
    12
 71
     3
 72
     8
 73
     4
 74
     0
 42
0.000000001
 43
0.0000000001
 40
-0.0965720612189963
 40
-0.0965720612189963
 40
-0.0965720612189963
 40
-0.0965720612189963
 40
0.0
 40
0.0
 40
0.0
 40
0.0
 10
42.2729583938245
 20
17.71207009860392
 30
0.0
 41
1.047463827611573
 10
42.30306024533615
 20
17.69323044083308
 30
0.0
 41
0.955098980548187
 10
42.3158368848912
 20
17.66088169544107
 30
0.0
 41
0.9975409759113065
 10
42.30876782479362
 20
17.62762423349419
 30
0.0
 41
1.174789813700933
  0
LINE
  5
158
330
1F
100
AcDbEntity
  8
0
370
    -3
100
AcDbLine
 10
42.30876782479362
 20
17.62762423349419
 30
0.0
 11
42.29611031696086
 21
17.56827322258762
 31
0.0
  0
SPLINE
  5
159
330
1F
100
AcDbEntity
  8
0
370
    -3
100
AcDbSpline
210
0.0
220
0.0
230
1.0
 70
     8
 71
     3
 72
     9
 73
     5
 74
     0
 42
0.000000001
 43
0.0000000001
 40
0.0606857067205103
 40
0.0606857067205103
 40
0.0606857067205103
 40
0.0606857067205103
 40
1.06068570672051
 40
2.06068570672051
 40
2.06068570672051
 40
2.06068570672051
 40
2.06068570672051
 10
42.29611031696086
 20
17.56827322258762
 30
0.0
 10
42.2917517642978
 20
17.54779863527023
 30
0.0
 10
42.26580512950932
 20
17.51079906350635
 30
0.0
 10
42.22233171596733
 20
17.50317221190792
 30
0.0
 10
42.20178645663356
 20
17.50722053676284
 30
0.0
  0
SPLINE
  5
15A
330
1F
100
AcDbEntity
  8
0
370
    -3
100
AcDbSpline
210
0.0
220
0.0
230
1.0
 70
     8
 71
     3
 72
    12
 73
     8
 74
     0
 42
0.000000001
 43
0.0000000001
 40
2.06068570672051
 40
2.06068570672051
 40
2.06068570672051
 40
2.06068570672051
 40
3.06068570672051
 40
4.060685706720511
 40
5.060685706720511
 40
6.060685706720511
 40
7.059326857812455
 40
7.059326857812455
 40
7.059326857812455
 40
7.059326857812455
 10
42.20178645663356
 20
17.50722053676284
 30
0.0
 10
41.96557338082195
 20
17.55376496096937
 30
0.0
 10
41.48715347045828
 20
17.61680101082923
 30
0.0
 10
40.7641095348294
 20
17.6253841690194
 30
0.0
 10
40.04267432149427
 20
17.58686028859834
 30
0.0
 10
39.32351373751374
 20
17.5217447176245
 30
0.0
 10
38.84643446323824
 20
17.45804463750535
 30
0.0
 10
38.60858178728964
 20
17.42292473813843
 30
0.0
  0
SPLINE
  5
15B
330
1F
100
AcDbEntity
  8
0
370
    -3
100
AcDbSpline
210
0.0
220
0.0
230
1.0
 70
     8
 71
     3
 72
     8
 73
     4
 74
     0
 42
0.000000001
 43
0.0000000001
 40
7.059326857812455
 40
7.059326857812455
 40
7.059326857812455
 40
7.059326857812455
 40
7.060685706720511
 40
7.060685706720511
 40
7.060685706720511
 40
7.060685706720511
 10
38.60858178728964
 20
17.42292473813843
 30
0.0
 10
38.60825814165511
 20
17.42287695056544
 30
0.0
 10
38.60793449699224
 20
17.4228291568982
 30
0.0
 10
38.60761085330091
 20
17.42278135714122
 30
0.0
  0
SPLINE
  5
15C
330
1F
100
AcDbEntity
  8
0
370
    -3
100
AcDbSpline
210
0.0
220
0.0
230
1.0
 70
     8
 71
     3
 72
    12
 73
     8
 74
     0
 42
0.000000001
 43
0.0000000001
 40
-10.0
 40
-10.0
 40
-10.0
 40
-10.0
 40
-9.0
 40
-8.0
 40
-7.0
 40
-6.0
 40
-5.0
 40
-5.0
 40
-5.0
 40
-5.0
 10
42.24545407626866
 20
17.7551588800532
 30
0.0
 10
42.27590792038961
 20
17.77602051595301
 30
0.0
 10
42.29415923382905
 20
17.8463014678664
 30
0.0
 10
42.30420545818561
 20
17.94983782872386
 30
0.0
 10
42.29264526902915
 20
18.05469267718023
 30
0.0
 10
42.26278460146622
 20
18.15528861809796
 30
0.0
 10
42.15873871169771
 20
18.32323192019129
 30
0.0
 10
42.14064876170332
 20
18.35305299474993
 30
0.0
  0
SPLINE
  5
15D
330
1F
100
AcDbEntity
  8
0
370
    -3
100
AcDbSpline
210
0.0
220
0.0
230
1.0
 70
     8
 71
     3
 72
    12
 73
     8
 74
     0
 42
0.000000001
 43
0.0000000001
 40
-5.0
 40
-5.0
 40
-5.0
 40
-5.0
 40
-3.999999895167561
 40
-2.999999790335123
 40
-1.999999685502685
 40
-0.999999580670246
 40
0.0
 40
0.0
 40
0.0
 40
0.0
 10
42.14064876170332
 20
18.35305299474993
 30
0.0
 10
42.0797525987297
 20
18.45343961919804
 30
0.0
 10
41.84025548559106
 20
18.73161939026573
 30
0.0
 10
41.52202661106531
 20
18.89257804925153
 30
0.0
 10
41.17746858072161
 20
18.97297347022062
 30
0.0
 10
40.82633977907221
 20
19.0082116698307
 30
0.0
 10
40.59122018245216
 20
19.01175235664982
 30
0.0
 10
40.47373840036281
 20
19.01061584648239
 30
0.0
  0
SPLINE
  5
15E
330
1F
100
AcDbEntity
  8
0
370
    -3
100
AcDbSpline
210
0.0
220
0.0
230
1.0
 70
     8
 71
     3
 72
     9
 73
     5
 74
     0
 42
0.000000001
 43
0.0000000001
 40
0.0
 40
0.0
 40
0.0
 40
0.0
 40
1.0
 40
1.130190443376097
 40
1.130190443376097
 40
1.130190443376097
 40
1.130190443376097
 10
40.47373840036281
 20
19.01061584648239
 30
0.0
 10
39.69741691535535
 20
19.00424977460494
 30
0.0
 10
38.82152985303946
 20
18.94947174447275
 30
0.0
 10
37.9472899521937
 20
18.87700875983109
 30
0.0
 10
37.84660226648319
 20
18.86845796121575
 30
0.0
  0
SPLINE
  5
15F
330
1F
100
AcDbEntity
  8
0
370
    -3
100
AcDbSpline
210
0.0
220
0.0
230
1.0
 70
     8
 71
     3
 72
    11
 73
     7
 74
     0
 42
0.000000001
 43
0.0000000001
 40
1.656119473581978
 40
1.656119473581978
 40
1.656119473581978
 40
1.656119473581978
 40
2.0
 40
3.0
 40
4.0
 40
5.0
 40
5.0
 40
5.0
 40
5.0
 10
36.62709756656861
 20
18.75691734474591
 30
0.0
 10
36.36142387329329
 20
18.73132955927383
 30
0.0
 10
35.32337146872021
 20
18.62921163339054
 30
0.0
 10
33.51280610378834
 20
18.45192778117777
 30
0.0
 10
31.1926968101958
 20
18.25367670616671
 30
0.0
 10
29.63570488665033
 20
18.26397055177847
 30
0.0
 10
28.86716071640549
 20
18.3823078933155
 30
0.0
  0
ARC
  5
160
330
1F
100
AcDbEntity
  8
0
370
    -3
100
AcDbCircle
 10
27.32537066445789
 20
8.369122361383546
 30
0.0
 40
10.13118951856968
100
AcDbArc
 50
81.24657139498426
 51
85.56110944028453
  0
SPLINE
  5
161
330
1F
100
AcDbEntity
  8
Make2D$Visible$Curves
 62
    18
420
        0
370
    -3
100
AcDbSpline
210
0.0
220
0.0
230
1.0
 70
     8
 71
     3
 72
    12
 73
     8
 74
     0
 42
0.000000001
 43
0.0000000001
 40
0.0000021196836493
 40
0.0000021196836493
 40
0.0000021196836493
 40
0.0000021196836493
 40
1.0
 40
2.0
 40
3.0
 40
4.0
 40
4.976469524593298
 40
4.976469524593298
 40
4.976469524593298
 40
4.976469524593298
 10
25.62581574494095
 20
17.59362641949429
 30
0.0
 10
25.40298725896548
 20
17.91465049138846
 30
0.0
 10
25.00974986190346
 20
18.59160695461179
 30
0.0
 10
24.54599368783059
 20
19.6701494109339
 30
0.0
 10
24.20692689907168
 20
20.79358986978251
 30
0.0
 10
23.9325222322845
 20
21.92166771286628
 30
0.0
 10
23.71663449825144
 20
22.66804224408095
 30
0.0
 10
23.52363498534396
 20
22.99858634906377
 30
0.0
  0
SPLINE
  5
162
330
1F
100
AcDbEntity
  8
Make2D$Visible$Curves
 62
    18
420
        0
370
    -3
100
AcDbSpline
210
0.0
220
0.0
230
1.0
 70
     8
 71
     3
 72
     8
 73
     4
 74
     0
 42
0.000000001
 43
0.0000000001
 40
4.976469524593298
 40
4.976469524593298
 40
4.976469524593298
 40
4.976469524593298
 40
5.970409187098653
 40
5.970409187098653
 40
5.970409187098653
 40
5.970409187098653
 10
23.52363498534396
 20
22.99858634906377
 30
0.0
 10
23.39121852012204
 20
23.03313258793068
 30
0.0
 10
23.28047885860755
 20
23.06605712899784
 30
0.0
 10
23.12410931682172
 20
23.09660357468516
 30
0.0
  0
SPLINE
  5
163
330
1F
100
AcDbEntity
  8
Make2D$Visible$Curves
 62
    18
420
        0
370
    -3
100
AcDbSpline
210
0.0
220
0.0
230
1.0
 70
     8
 71
     3
 72
    10
 73
     6
 74
     0
 42
0.000000001
 43
0.0000000001
 40
5.970409187098653
 40
5.970409187098653
 40
5.970409187098653
 40
5.970409187098653
 40
6.970409187098653
 40
7.970409187098657
 40
8.970409187098657
 40
8.970409187098657
 40
8.970409187098657
 40
8.970409187098657
 10
23.12410931682172
 20
23.09660357468516
 30
0.0
 10
23.04230615661561
 20
23.1182612587703
 30
0.0
 10
22.887616258913
 20
23.19473395545273
 30
0.0
 10
22.71767143145198
 20
23.38999031790728
 30
0.0
 10
22.66365932418199
 20
23.5539420521761
 30
0.0
 10
22.65364565971933
 20
23.63795650922611
 30
0.0
  0
SPLINE
  5
164
330
1F
100
AcDbEntity
  8
Make2D$Visible$Curves
 62
    18
420
        0
370
    -3
100
AcDbSpline
210
0.0
220
0.0
230
1.0
 70
     8
 71
     3
 72
     8
 73
     4
 74
     0
 42
0.000000001
 43
0.0000000001
 40
8.970409187098657
 40
8.970409187098657
 40
8.970409187098657
 40
8.970409187098657
 40
9.354498396894783
 40
9.354498396894783
 40
9.354498396894783
 40
9.354498396894783
 10
22.65364565971933
 20
23.63795650922611
 30
0.0
 10
22.63830164741017
 20
23.76595246713272
 30
0.0
 10
22.62239056996435
 20
23.8928945130356
 30
0.0
 10
22.60581368689424
 20
24.0190515904021
 30
0.0
  0
SPLINE
  5
165
330
1F
100
AcDbEntity
  8
Make2D$Visible$Curves
 62
    18
420
        0
370
    -3
100
AcDbSpline
210
0.0
220
0.0
230
1.0
 70
     8
 71
     3
 72
     8
 73
     4
 74
     0
 42
0.000000001
 43
0.0000000001
 40
9.354498396894783
 40
9.354498396894783
 40
9.354498396894783
 40
9.354498396894783
 40
10.35449839689478
 40
10.35449839689478
 40
10.35449839689478
 40
10.35449839689478
 10
22.60581368689424
 20
24.0190515904021
 30
0.0
 10
22.56441456791359
 20
24.33411636066418
 30
0.0
 10
22.98905061943077
 20
24.54878019032927
 30
0.0
 10
23.1609060613057
 20
24.51339140413675
 30
0.0
  0
SPLINE
  5
166
330
1F
100
AcDbEntity
  8
Make2D$Visible$Curves
 62
    18
420
        0
370
    -3
100
AcDbSpline
210
0.0
220
0.0
230
1.0
 70
     8
 71
     3
 72
     8
 73
     4
 74
     0
 42
0.000000001
 43
0.0000000001
 40
10.35449839689478
 40
10.35449839689478
 40
10.35449839689478
 40
10.35449839689478
 40
11.35449839689479
 40
11.35449839689479
 40
11.35449839689479
 40
11.35449839689479
 10
23.1609060613057
 20
24.51339140413675
 30
0.0
 10
23.42699508836111
 20
24.45859786612655
 30
0.0
 10
23.68762236402787
 20
24.38081261346044
 30
0.0
 10
23.95178508354664
 20
24.31767948667949
 30
0.0
  0
SPLINE
  5
167
330
1F
100
AcDbEntity
  8
Make2D$Visible$Curves
 62
    18
420
        0
370
    -3
100
AcDbSpline
210
0.0
220
0.0
230
1.0
 70
     8
 71
     3
 72
     8
 73
     4
 74
     0
 42
0.000000001
 43
0.0000000001
 40
11.35449839689479
 40
11.35449839689479
 40
11.35449839689479
 40
11.35449839689479
 40
12.35449839689479
 40
12.35449839689479
 40
12.35449839689479
 40
12.35449839689479
 10
23.95178508354664
 20
24.31767948667949
 30
0.0
 10
24.24684317355457
 20
24.24716257256631
 30
0.0
 10
24.7706057948792
 20
24.18267602696159
 30
0.0
 10
25.07321837945548
 20
24.1471744061123
 30
0.0
  0
SPLINE
  5
168
330
1F
100
AcDbEntity
  8
Make2D$Visible$Curves
 62
    18
420
        0
370
    -3
100
AcDbSpline
210
0.0
220
0.0
230
1.0
 70
     8
 71
     2
 72
    13
 73
    10
 74
     0
 42
0.000000001
 43
0.0000000001
 40
12.35449839689479
 40
12.35449839689479
 40
12.35449839689479
 40
13.35449839689479
 40
14.35449839689479
 40
15.35449839689478
 40
16.35449839689478
 40
17.35449839689478
 40
18.35449839689478
 40
19.35449839689478
 40
20.35449839689478
 40
20.35449839689478
 40
20.35449839689478
 10
25.07321837945548
 20
24.1471744061123
 30
0.0
 10
25.53550206568639
 20
24.09294063993778
 30
0.0
 10
26.46088217952942
 20
23.99165808112286
 30
0.0
 10
27.38972987704341
 20
23.92812926289784
 30
0.0
 10
28.31813955464165
 20
23.86021948728967
 30
0.0
 10
29.24650804978558
 20
23.79146019179527
 30
0.0
 10
30.17448229231897
 20
23.71757359511969
 30
0.0
 10
31.10176085173919
 20
23.63536253254223
 30
0.0
 10
32.11515913087175
 20
23.53289289279709
 30
0.0
 10
32.57746131643381
 20
23.47874303235126
 30
0.0
  0
SPLINE
  5
169
330
1F
100
AcDbEntity
  8
Make2D$Visible$Curves
 62
    18
420
        0
370
    -3
100
AcDbSpline
210
0.0
220
0.0
230
1.0
 70
     8
 71
     2
 72
    15
 73
    12
 74
     0
 42
0.000000001
 43
0.0000000001
 40
20.35449839689478
 40
20.35449839689478
 40
20.35449839689478
 40
21.35449839689478
 40
22.35449839689478
 40
23.35449839689478
 40
24.35449839689478
 40
25.35449839689478
 40
26.35449839689478
 40
27.35449839689478
 40
28.35449839689478
 40
29.35449839689478
 40
30.35449839689478
 40
30.35449839689478
 40
30.35449839689478
 10
32.57746131643381
 20
23.47874303235126
 30
0.0
 10
32.89452008168905
 20
23.4416056611082
 30
0.0
 10
33.52794476173034
 20
23.36160980485444
 30
0.0
 10
34.16004278656277
 20
23.27152530719974
 30
0.0
 10
34.78853124858466
 20
23.1585962541251
 30
0.0
 10
35.4098713233185
 20
23.01023446252043
 30
0.0
 10
36.01069650362717
 20
22.79034509131964
 30
0.0
 10
36.55697948699299
 20
22.45347579082099
 30
0.0
 10
36.9871770053648
 20
21.97599177266164
 30
0.0
 10
37.27458651158162
 20
21.40273887796414
 30
0.0
 10
37.45369648331976
 20
20.78879341640113
 30
0.0
 10
37.50900994278618
 20
20.47335255897983
 30
0.0
  0
SPLINE
  5
16A
330
1F
100
AcDbEntity
  8
Make2D$Visible$Curves
 62
    18
420
        0
370
    -3
100
AcDbSpline
210
0.0
220
0.0
230
1.0
 70
     8
 71
     2
 72
    12
 73
     9
 74
     0
 42
0.000000001
 43
0.0000000001
 40
30.35449839689478
 40
30.35449839689478
 40
30.35449839689478
 40
31.35449839689478
 40
32.35449839689478
 40
33.35449839689478
 40
34.35449839689478
 40
35.35449839689478
 40
36.35449839689478
 40
37.35449839689478
 40
37.35449839689478
 40
37.35449839689478
 10
37.50900994278618
 20
20.47335255897983
 30
0.0
 10
37.5395124577785
 20
20.30084431201934
 30
0.0
 10
37.60350072942245
 20
19.95793502561942
 30
0.0
 10
37.6715674728872
 20
19.61580926274235
 30
0.0
 10
37.74496345283049
 20
19.27478471748091
 30
0.0
 10
37.82675334594725
 20
18.93563683289423
 30
0.0
 10
37.92250318272045
 20
18.60020633307872
 30
0.0
 10
38.04057635611906
 20
18.27131093311702
 30
0.0
 10
38.12689027903423
 20
18.11933428928853
 30
0.0
  0
SPLINE
  5
16B
330
1F
100
AcDbEntity
  8
Make2D$Visible$Curves
 62
    18
420
        0
370
    -3
100
AcDbSpline
210
0.0
220
0.0
230
1.0
 70
     8
 71
     3
 72
     8
 73
     4
 74
     0
 42
0.000000001
 43
0.0000000001
 40
37.35449839689478
 40
37.35449839689478
 40
37.35449839689478
 40
37.35449839689478
 40
38.35449839689478
 40
38.35449839689478
 40
38.35449839689478
 40
38.35449839689478
 10
38.12689027903423
 20
18.11933428928853
 30
0.0
 10
38.19453689876235
 20
18.00022597066038
 30
0.0
 10
38.31284922963135
 20
17.79176560418183
 30
0.0
 10
38.38158028771232
 20
17.67328468141508
 30
0.0
  0
SPLINE
  5
16C
330
1F
100
AcDbEntity
  8
Make2D$Visible$Curves
 62
    18
420
        0
370
    -3
100
AcDbSpline
210
0.0
220
0.0
230
1.0
 70
     8
 71
     3
 72
     9
 73
     5
 74
     0
 42
0.000000001
 43
0.0000000001
 40
38.35449839689478
 40
38.35449839689478
 40
38.35449839689478
 40
38.35449839689478
 40
39.35467420477084
 40
40.35449839689478
 40
40.35449839689478
 40
40.35449839689478
 40
40.35449839689478
 10
38.38158028771232
 20
17.67328468141508
 30
0.0
 10
38.41115650634728
 20
17.6223001953085
 30
0.0
 10
38.47286001865854
 20
17.5251714624424
 30
0.0
 10
38.55513521385518
 20
17.43767442311707
 30
0.0
 10
38.61239558988066
 20
17.42182067869653
 30
0.0
  0
SPLINE
  5
16D
330
1F
100
AcDbEntity
  8
Make2D$Visible$Curves
 62
    18
420
        0
370
    -3
100
AcDbSpline
210
0.0
220
0.0
230
1.0
 70
     8
 71
     3
 72
     9
 73
     5
 74
     0
 42
0.000000001
 43
0.0000000001
 40
40.35449839689478
 40
40.35449839689478
 40
40.35449839689478
 40
40.35449839689478
 40
41.35365884756742
 40
42.35449839689478
 40
42.35449839689478
 40
42.35449839689478
 40
42.35449839689478
 10
38.61239558988066
 20
17.42182067869653
 30
0.0
 10
38.62487792876749
 20
17.42068241199632
 30
0.0
 10
38.64891007264643
 20
17.4096085917739
 30
0.0
 10
38.66117516590484
 20
17.38615681518063
 30
0.0
 10
38.66293434121206
 20
17.37372522141517
 30
0.0
  0
SPLINE
  5
16E
330
1F
100
AcDbEntity
  8
Make2D$Visible$Curves
 62
    18
420
        0
370
    -3
100
AcDbSpline
210
0.0
220
0.0
230
1.0
 70
     8
 71
     3
 72
     9
 73
     5
 74
     0
 42
0.000000001
 43
0.0000000001
 40
42.35449839689478
 40
42.35449839689478
 40
42.35449839689478
 40
42.35449839689478
 40
43.35449839689478
 40
44.35449839689478
 40
44.35449839689478
 40
44.35449839689478
 40
44.35449839689478
 10
38.66293434121206
 20
17.37372522141517
 30
0.0
 10
38.66956998326606
 20
17.33325065809461
 30
0.0
 10
38.67924957241217
 20
17.25129285169072
 30
0.0
 10
38.66898332265828
 20
17.16922421753118
 30
0.0
 10
38.66161668150136
 20
17.12890790956132
 30
0.0
  0
SPLINE
  5
16F
330
1F
100
AcDbEntity
  8
Make2D$Visible$Curves
 62
    18
420
        0
370
    -3
100
AcDbSpline
210
0.0
220
0.0
230
1.0
 70
    24
 71
     3
 72
     8
 73
     4
 74
     0
 42
0.000000001
 43
0.0000000001
 40
44.35449839689478
 40
44.35449839689478
 40
44.35449839689478
 40
44.35449839689478
 40
44.35450656707094
 40
44.35450656707094
 40
44.35450656707094
 40
44.35450656707094
 10
38.66161668150136
 20
17.12890790956132
 30
0.0
 10
38.66161653977818
 20
17.12890718624283
 30
0.0
 10
38.66161639805424
 20
17.1289064629245
 30
0.0
 10
38.66161625632947
 20
17.12890573960632
 30
0.0
  0
ENDSEC
  0
SECTION
  2
OBJECTS
  0
DICTIONARY
  5
C
330
0
100
AcDbDictionary
281
     1
  3
ACAD_DETAILVIEWSTYLE
350
1AB
  3
ACAD_GROUP
350
D
  3
ACAD_LAYOUT
350
1A
  3
ACAD_MATERIAL
350
43
  3
ACAD_MLEADERSTYLE
350
6B
  3
ACAD_MLINESTYLE
350
17
  3
ACAD_PLOTSETTINGS
350
19
  3
ACAD_PLOTSTYLENAME
350
E
  3
ACAD_SCALELIST
350
47
  3
ACAD_SECTIONVIEWSTYLE
350
1AC
  3
ACAD_TABLESTYLE
350
69
  3
ACAD_VISUALSTYLE
350
2A
  3
ACDB_RECOMPOSE_DATA
350
1A8
  3
AcDbVariableDictionary
350
170
  0
SUN
  5
6D
330
29
100
AcDbSun
 90
        1
290
     0
 63
     7
421
 16777215
 40
1.0
291
     1
 91
  2455826
 92
 54000000
292
     0
 70
     2
 71
   256
280
     1
  0
DICTIONARY
  5
1AB
102
{ACAD_REACTORS
330
C
102
}
330
C
100
AcDbDictionary
281
     1
  0
DICTIONARY
  5
D
102
{ACAD_REACTORS
330
C
102
}
330
C
100
AcDbDictionary
281
     1
  0
DICTIONARY
  5
1A
102
{ACAD_REACTORS
330
C
102
}
330
C
100
AcDbDictionary
281
     1
  3
Layout1
350
1E
  3
Layout2
350
26
  3
Model
350
22
  0
DICTIONARY
  5
43
102
{ACAD_REACTORS
330
C
102
}
330
C
100
AcDbDictionary
281
     1
  3
ByBlock
350
45
  3
ByLayer
350
44
  3
Global
350
46
  0
DICTIONARY
  5
6B
102
{ACAD_REACTORS
330
C
102
}
330
C
100
AcDbDictionary
281
     1
  3
Standard
350
6C
  0
DICTIONARY
  5
17
102
{ACAD_REACTORS
330
C
102
}
330
C
100
AcDbDictionary
281
     1
  3
Standard
350
18
  0
DICTIONARY
  5
19
102
{ACAD_REACTORS
330
C
102
}
330
C
100
AcDbDictionary
281
     1
  0
ACDBDICTIONARYWDFLT
  5
E
102
{ACAD_REACTORS
330
C
102
}
330
C
100
AcDbDictionary
281
     1
  3
Normal
350
F
100
AcDbDictionaryWithDefault
340
F
  0
DICTIONARY
  5
47
102
{ACAD_REACTORS
330
C
102
}
330
C
100
AcDbDictionary
281
     1
  3
A0
350
48
  3
A1
350
49
  3
A2
350
4A
  3
A3
350
4B
  3
A4
350
4C
  3
A5
350
4D
  3
A6
350
4E
  3
A7
350
4F
  3
A8
350
50
  3
A9
350
51
  3
B0
350
52
  3
B1
350
53
  3
B2
350
54
  3
B3
350
55
  3
B4
350
56
  3
B5
350
57
  3
B6
350
58
  3
B7
350
59
  3
B8
350
5A
  3
B9
350
5B
  3
C0
350
5C
  3
C1
350
5D
  3
C2
350
5E
  3
C3
350
5F
  3
C4
350
60
  3
C5
350
61
  3
C6
350
62
  3
C7
350
63
  3
C8
350
64
  3
C9
350
65
  3
D0
350
66
  3
D1
350
67
  3
D2
350
68
  0
DICTIONARY
  5
1AC
102
{ACAD_REACTORS
330
C
102
}
330
C
100
AcDbDictionary
281
     1
  0
DICTIONARY
  5
69
102
{ACAD_REACTORS
330
C
102
}
330
C
100
AcDbDictionary
281
     1
  3
Standard
350
6A
  0
DICTIONARY
  5
2A
102
{ACAD_REACTORS
330
C
102
}
330
C
100
AcDbDictionary
281
     1
  3
2dWireframe
350
2F
  3
Basic
350
32
  3
Brighten
350
36
  3
ColorChange
350
3A
  3
Conceptual
350
34
  3
Dim
350
35
  3
EdgeColorOff
350
3D
  3
Facepattern
350
39
  3
Flat
350
2B
  3
FlatWithEdges
350
2C
  3
Gouraud
350
2D
  3
GouraudWithEdges
350
2E
  3
Hidden
350
31
  3
JitterOff
350
3B
  3
Linepattern
350
38
  3
OverhangOff
350
3C
  3
Realistic
350
33
  3
Shaded
350
42
  3
Shaded with edges
350
41
  3
Shades of Gray
350
3E
  3
Sketchy
350
3F
  3
Thicken
350
37
  3
Wireframe
350
30
  3
X-Ray
350
40
  0
XRECORD
  5
1A8
102
{ACAD_REACTORS
330
C
102
}
330
C
100
AcDbXrecord
280
     1
 90
        1
330
6A
  0
DICTIONARY
  5
170
102
{ACAD_REACTORS
330
C
102
}
330
C
100
AcDbDictionary
281
     1
  3
CANNOSCALE
350
171
  3
CMLEADERSTYLE
350
1AA
  3
CTABLESTYLE
350
1A9
  3
XCLIPFRAME
350
172
  0
LAYOUT
  5
1E
102
{ACAD_REACTORS
330
1A
102
}
330
1A
100
AcDbPlotSettings
  1

  2
none_device
  4

  6

 40
0.0
 41
0.0
 42
0.0
 43
0.0
 44
0.0
 45
0.0
 46
0.0
 47
0.0
 48
0.0
 49
0.0
140
0.0
141
0.0
142
1.0
143
1.0
 70
   688
 72
     0
 73
     0
 74
     5
  7

 75
    16
 76
     0
 77
     2
 78
   300
147
1.0
148
0.0
149
0.0
100
AcDbLayout
  1
Layout1
 70
     1
 71
     1
 10
0.0
 20
0.0
 11
12.0
 21
9.0
 12
0.0
 22
0.0
 32
0.0
 14
1.000000000000000E+20
 24
1.000000000000000E+20
 34
1.000000000000000E+20
 15
-1.000000000000000E+20
 25
-1.000000000000000E+20
 35
-1.000000000000000E+20
146
0.0
 13
0.0
 23
0.0
 33
0.0
 16
1.0
 26
0.0
 36
0.0
 17
0.0
 27
1.0
 37
0.0
 76
     0
330
1B
  0
LAYOUT
  5
26
102
{ACAD_REACTORS
330
1A
102
}
330
1A
100
AcDbPlotSettings
  1

  2
none_device
  4

  6

 40
0.0
 41
0.0
 42
0.0
 43
0.0
 44
0.0
 45
0.0
 46
0.0
 47
0.0
 48
0.0
 49
0.0
140
0.0
141
0.0
142
1.0
143
1.0
 70
   688
 72
     0
 73
     0
 74
     5
  7

 75
    16
 76
     0
 77
     2
 78
   300
147
1.0
148
0.0
149
0.0
100
AcDbLayout
  1
Layout2
 70
     1
 71
     2
 10
0.0
 20
0.0
 11
0.0
 21
0.0
 12
0.0
 22
0.0
 32
0.0
 14
0.0
 24
0.0
 34
0.0
 15
0.0
 25
0.0
 35
0.0
146
0.0
 13
0.0
 23
0.0
 33
0.0
 16
1.0
 26
0.0
 36
0.0
 17
0.0
 27
1.0
 37
0.0
 76
     0
330
23
  0
LAYOUT
  5
22
102
{ACAD_REACTORS
330
1A
102
}
330
1A
100
AcDbPlotSettings
  1

  2
none_device
  4
Letter_(8.50_x_11.00_Inches)
  6

 40
6.35
 41
6.35
 42
6.35000508
 43
6.35000508
 44
215.9
 45
279.4
 46
0.0
 47
0.0
 48
0.0
 49
0.0
140
0.0
141
0.0
142
1.0
143
1.0
 70
  1712
 72
     0
 73
     0
 74
     0
  7

 75
     0
 76
     0
 77
     2
 78
   300
147
1.0
148
0.0
149
0.0
100
AcDbLayout
  1
Model
 70
     1
 71
     0
 10
0.0
 20
0.0
 11
12.0
 21
9.0
 12
0.0
 22
0.0
 32
0.0
 14
1.000000000000000E+20
 24
1.000000000000000E+20
 34
1.000000000000000E+20
 15
-1.000000000000000E+20
 25
-1.000000000000000E+20
 35
-1.000000000000000E+20
146
0.0
 13
0.0
 23
0.0
 33
0.0
 16
1.0
 26
0.0
 36
0.0
 17
0.0
 27
1.0
 37
0.0
 76
     0
330
1F
331
29
  0
MATERIAL
  5
45
102
{ACAD_REACTORS
330
43
102
}
330
43
100
AcDbMaterial
  1
ByBlock
 72
     1
 94
      127
  0
MATERIAL
  5
44
102
{ACAD_REACTORS
330
43
102
}
330
43
100
AcDbMaterial
  1
ByLayer
 72
     1
 94
      127
  0
MATERIAL
  5
46
102
{ACAD_REACTORS
330
43
102
}
330
43
100
AcDbMaterial
  1
Global
 72
     1
 94
      127
  0
MLEADERSTYLE
  5
6C
102
{ACAD_REACTORS
330
6B
102
}
102
{ACAD_XDICTIONARY
360
1A6
102
}
330
6B
100
AcDbMLeaderStyle
170
     2
171
     1
172
     0
 90
        2
 40
0.0
 41
0.0
173
     1
 91
-1056964608
340
14
 92
       -2
290
     1
 42
0.09
291
     1
 43
0.36
  3
Standard
341
0
 44
0.18
300

342
11
174
     1
178
     6
175
     1
176
     0
 93
-1056964608
 45
0.18
292
     0
297
     0
 46
0.18
343
0
 94
-1056964608
 47
1.0
 49
1.0
140
1.0
293
     1
141
0.0
294
     1
177
     0
142
1.0
295
     0
296
     0
143
0.125
1001
ACAD_MLEADERVER
1070
     2
  0
MLINESTYLE
  5
18
102
{ACAD_REACTORS
330
17
102
}
330
17
100
AcDbMlineStyle
  2
Standard
 70
     0
  3

 62
   256
 51
90.0
 52
90.0
 71
     2
 49
0.5
 62
   256
  6
BYLAYER
 49
-0.5
 62
   256
  6
BYLAYER
  0
ACDBPLACEHOLDER
  5
F
102
{ACAD_REACTORS
330
E
102
}
330
E
  0
SCALE
  5
48
102
{ACAD_REACTORS
330
47
102
}
330
47
100
AcDbScale
 70
     0
300
1:1
140
1.0
141
1.0
290
     1
  0
SCALE
  5
49
102
{ACAD_REACTORS
330
47
102
}
330
47
100
AcDbScale
 70
     0
300
1:2
140
1.0
141
2.0
290
     0
  0
SCALE
  5
4A
102
{ACAD_REACTORS
330
47
102
}
330
47
100
AcDbScale
 70
     0
300
1:4
140
1.0
141
4.0
290
     0
  0
SCALE
  5
4B
102
{ACAD_REACTORS
330
47
102
}
330
47
100
AcDbScale
 70
     0
300
1:5
140
1.0
141
5.0
290
     0
  0
SCALE
  5
4C
102
{ACAD_REACTORS
330
47
102
}
330
47
100
AcDbScale
 70
     0
300
1:8
140
1.0
141
8.0
290
     0
  0
SCALE
  5
4D
102
{ACAD_REACTORS
330
47
102
}
330
47
100
AcDbScale
 70
     0
300
1:10
140
1.0
141
10.0
290
     0
  0
SCALE
  5
4E
102
{ACAD_REACTORS
330
47
102
}
330
47
100
AcDbScale
 70
     0
300
1:16
140
1.0
141
16.0
290
     0
  0
SCALE
  5
4F
102
{ACAD_REACTORS
330
47
102
}
330
47
100
AcDbScale
 70
     0
300
1:20
140
1.0
141
20.0
290
     0
  0
SCALE
  5
50
102
{ACAD_REACTORS
330
47
102
}
330
47
100
AcDbScale
 70
     0
300
1:30
140
1.0
141
30.0
290
     0
  0
SCALE
  5
51
102
{ACAD_REACTORS
330
47
102
}
330
47
100
AcDbScale
 70
     0
300
1:40
140
1.0
141
40.0
290
     0
  0
SCALE
  5
52
102
{ACAD_REACTORS
330
47
102
}
330
47
100
AcDbScale
 70
     0
300
1:50
140
1.0
141
50.0
290
     0
  0
SCALE
  5
53
102
{ACAD_REACTORS
330
47
102
}
330
47
100
AcDbScale
 70
     0
300
1:100
140
1.0
141
100.0
290
     0
  0
SCALE
  5
54
102
{ACAD_REACTORS
330
47
102
}
330
47
100
AcDbScale
 70
     0
300
2:1
140
2.0
141
1.0
290
     0
  0
SCALE
  5
55
102
{ACAD_REACTORS
330
47
102
}
330
47
100
AcDbScale
 70
     0
300
4:1
140
4.0
141
1.0
290
     0
  0
SCALE
  5
56
102
{ACAD_REACTORS
330
47
102
}
330
47
100
AcDbScale
 70
     0
300
8:1
140
8.0
141
1.0
290
     0
  0
SCALE
  5
57
102
{ACAD_REACTORS
330
47
102
}
330
47
100
AcDbScale
 70
     0
300
10:1
140
10.0
141
1.0
290
     0
  0
SCALE
  5
58
102
{ACAD_REACTORS
330
47
102
}
330
47
100
AcDbScale
 70
     0
300
100:1
140
100.0
141
1.0
290
     0
  0
SCALE
  5
59
102
{ACAD_REACTORS
330
47
102
}
330
47
100
AcDbScale
 70
     0
300
1/128" = 1'-0"
140
0.0078125
141
12.0
290
     0
  0
SCALE
  5
5A
102
{ACAD_REACTORS
330
47
102
}
330
47
100
AcDbScale
 70
     0
300
1/64" = 1'-0"
140
0.015625
141
12.0
290
     0
  0
SCALE
  5
5B
102
{ACAD_REACTORS
330
47
102
}
330
47
100
AcDbScale
 70
     0
300
1/32" = 1'-0"
140
0.03125
141
12.0
290
     0
  0
SCALE
  5
5C
102
{ACAD_REACTORS
330
47
102
}
330
47
100
AcDbScale
 70
     0
300
1/16" = 1'-0"
140
0.0625
141
12.0
290
     0
  0
SCALE
  5
5D
102
{ACAD_REACTORS
330
47
102
}
330
47
100
AcDbScale
 70
     0
300
3/32" = 1'-0"
140
0.09375
141
12.0
290
     0
  0
SCALE
  5
5E
102
{ACAD_REACTORS
330
47
102
}
330
47
100
AcDbScale
 70
     0
300
1/8" = 1'-0"
140
0.125
141
12.0
290
     0
  0
SCALE
  5
5F
102
{ACAD_REACTORS
330
47
102
}
330
47
100
AcDbScale
 70
     0
300
3/16" = 1'-0"
140
0.1875
141
12.0
290
     0
  0
SCALE
  5
60
102
{ACAD_REACTORS
330
47
102
}
330
47
100
AcDbScale
 70
     0
300
1/4" = 1'-0"
140
0.25
141
12.0
290
     0
  0
SCALE
  5
61
102
{ACAD_REACTORS
330
47
102
}
330
47
100
AcDbScale
 70
     0
300
3/8" = 1'-0"
140
0.375
141
12.0
290
     0
  0
SCALE
  5
62
102
{ACAD_REACTORS
330
47
102
}
330
47
100
AcDbScale
 70
     0
300
1/2" = 1'-0"
140
0.5
141
12.0
290
     0
  0
SCALE
  5
63
102
{ACAD_REACTORS
330
47
102
}
330
47
100
AcDbScale
 70
     0
300
3/4" = 1'-0"
140
0.75
141
12.0
290
     0
  0
SCALE
  5
64
102
{ACAD_REACTORS
330
47
102
}
330
47
100
AcDbScale
 70
     0
300
1" = 1'-0"
140
1.0
141
12.0
290
     0
  0
SCALE
  5
65
102
{ACAD_REACTORS
330
47
102
}
330
47
100
AcDbScale
 70
     0
300
1-1/2" = 1'-0"
140
1.5
141
12.0
290
     0
  0
SCALE
  5
66
102
{ACAD_REACTORS
330
47
102
}
330
47
100
AcDbScale
 70
     0
300
3" = 1'-0"
140
3.0
141
12.0
290
     0
  0
SCALE
  5
67
102
{ACAD_REACTORS
330
47
102
}
330
47
100
AcDbScale
 70
     0
300
6" = 1'-0"
140
6.0
141
12.0
290
     0
  0
SCALE
  5
68
102
{ACAD_REACTORS
330
47
102
}
330
47
100
AcDbScale
 70
     0
300
1'-0" = 1'-0"
140
12.0
141
12.0
290
     0
  0
TABLESTYLE
  5
6A
102
{ACAD_REACTORS
330
69
102
}
102
{ACAD_XDICTIONARY
360
1A3
102
}
330
69
100
AcDbTableStyle
  3
Standard
 70
     0
 71
     0
 40
0.06
 41
0.06
280
     0
281
     0
  7
Standard
140
0.18
170
     2
 62
     0
 63
   257
283
     0
 90
        4
 91
        0
  1

274
    -2
284
     1
 64
     0
275
    -2
285
     1
 65
     0
276
    -2
286
     1
 66
     0
277
    -2
287
     1
 67
     0
278
    -2
288
     1
 68
     0
279
    -2
289
     1
 69
     0
  7
Standard
140
0.25
170
     5
 62
     0
 63
   257
283
     0
 90
        4
 91
        0
  1

274
    -2
284
     1
 64
     0
275
    -2
285
     1
 65
     0
276
    -2
286
     1
 66
     0
277
    -2
287
     1
 67
     0
278
    -2
288
     1
 68
     0
279
    -2
289
     1
 69
     0
  7
Standard
140
0.18
170
     5
 62
     0
 63
   257
283
     0
 90
        4
 91
        0
  1

274
    -2
284
     1
 64
     0
275
    -2
285
     1
 65
     0
276
    -2
286
     1
 66
     0
277
    -2
287
     1
 67
     0
278
    -2
288
     1
 68
     0
279
    -2
289
     1
 69
     0
  0
VISUALSTYLE
  5
2F
102
{ACAD_REACTORS
330
2A
102
}
102
{ACAD_XDICTIONARY
360
17B
102
}
330
2A
100
AcDbVisualStyle
  2
2dWireframe
 70
     4
 71
     0
 72
     2
 73
     0
 90
        0
 40
0.6
 41
30.0
 62
     5
 63
     7
421
 16777215
 74
     1
 91
        4
 64
     7
 65
   257
 75
     1
175
     1
 42
1.0
 92
        0
 66
   257
 43
1.0
 76
     1
 77
     6
 78
     2
 67
     7
 79
     5
170
     0
171
     0
290
     0
174
     0
 93
        1
 44
0.0
173
     0
291
     0
 45
0.0
  0
VISUALSTYLE
  5
32
102
{ACAD_REACTORS
330
2A
102
}
102
{ACAD_XDICTIONARY
360
181
102
}
330
2A
100
AcDbVisualStyle
  2
Basic
 70
     7
 71
     1
 72
     0
 73
     1
 90
        0
 40
0.6
 41
30.0
 62
     5
 63
     7
421
 16777215
 74
     0
 91
        4
 64
     7
 65
   257
 75
     1
175
     1
 42
1.0
 92
        8
 66
     7
 43
1.0
 76
     1
 77
     6
 78
     2
 67
     7
 79
     5
170
     0
171
     0
290
     0
174
     0
 93
        1
 44
0.0
173
     0
291
     1
 45
0.0
  0
VISUALSTYLE
  5
36
102
{ACAD_REACTORS
330
2A
102
}
102
{ACAD_XDICTIONARY
360
189
102
}
330
2A
100
AcDbVisualStyle
  2
Brighten
 70
    12
 71
     2
 72
     2
 73
     0
 90
        0
 40
0.6
 41
30.0
 62
     5
 63
     7
421
 16777215
 74
     1
 91
        4
 64
     7
 65
   257
 75
     1
175
     1
 42
1.0
 92
        8
 66
     7
 43
1.0
 76
     1
 77
     6
 78
     2
 67
     7
 79
     5
170
     0
171
     0
290
     0
174
     0
 93
        1
 44
50.0
173
     0
291
     1
 45
0.0
  0
VISUALSTYLE
  5
3A
102
{ACAD_REACTORS
330
2A
102
}
102
{ACAD_XDICTIONARY
360
191
102
}
330
2A
100
AcDbVisualStyle
  2
ColorChange
 70
    16
 71
     2
 72
     2
 73
     3
 90
        0
 40
0.6
 41
30.0
 62
     5
 63
     8
421
  8421504
 74
     1
 91
        4
 64
     7
 65
   257
 75
     1
175
     1
 42
1.0
 92
        8
 66
     8
424
  8421504
 43
1.0
 76
     1
 77
     6
 78
     2
 67
     7
 79
     5
170
     0
171
     0
290
     0
174
     0
 93
        1
 44
0.0
173
     0
291
     1
 45
0.0
  0
VISUALSTYLE
  5
34
102
{ACAD_REACTORS
330
2A
102
}
102
{ACAD_XDICTIONARY
360
185
102
}
330
2A
100
AcDbVisualStyle
  2
Conceptual
 70
     9
 71
     3
 72
     2
 73
     0
 90
        0
 40
0.6
 41
30.0
 62
     5
 63
     7
421
 16777215
 74
     2
 91
        2
 64
     7
 65
   257
 75
     1
175
     1
 42
179.0
 92
        8
 66
     7
 43
1.0
 76
     1
 77
     6
 78
     2
 67
     7
 79
     3
170
     0
171
     0
290
     0
174
     0
 93
        1
 44
0.0
173
     0
291
     0
 45
0.0
  0
VISUALSTYLE
  5
35
102
{ACAD_REACTORS
330
2A
102
}
102
{ACAD_XDICTIONARY
360
187
102
}
330
2A
100
AcDbVisualStyle
  2
Dim
 70
    11
 71
     2
 72
     2
 73
     0
 90
        0
 40
0.6
 41
30.0
 62
     5
 63
     7
421
 16777215
 74
     1
 91
        4
 64
     7
 65
   257
 75
     1
175
     1
 42
1.0
 92
        8
 66
     7
 43
1.0
 76
     1
 77
     6
 78
     2
 67
     7
 79
     5
170
     0
171
     0
290
     0
174
     0
 93
        1
 44
-50.0
173
     0
291
     1
 45
0.0
  0
VISUALSTYLE
  5
3D
102
{ACAD_REACTORS
330
2A
102
}
102
{ACAD_XDICTIONARY
360
197
102
}
330
2A
100
AcDbVisualStyle
  2
EdgeColorOff
 70
    22
 71
     2
 72
     2
 73
     0
 90
        0
 40
0.6
 41
30.0
 62
     5
 63
     7
421
 16777215
 74
     1
 91
        4
 64
     7
 65
   257
 75
     1
175
     1
 42
1.0
 92
        8
 66
     7
 43
1.0
 76
     1
 77
     6
 78
     2
 67
     7
 79
     5
170
     0
171
     0
290
     0
174
     0
 93
        1
 44
0.0
173
     0
291
     1
 45
0.0
  0
VISUALSTYLE
  5
39
102
{ACAD_REACTORS
330
2A
102
}
102
{ACAD_XDICTIONARY
360
18F
102
}
330
2A
100
AcDbVisualStyle
  2
Facepattern
 70
    15
 71
     2
 72
     2
 73
     0
 90
        0
 40
0.6
 41
30.0
 62
     5
 63
     7
421
 16777215
 74
     1
 91
        4
 64
     7
 65
   257
 75
     1
175
     1
 42
1.0
 92
        8
 66
     7
 43
1.0
 76
     1
 77
     6
 78
     2
 67
     7
 79
     5
170
     0
171
     0
290
     0
174
     0
 93
        1
 44
0.0
173
     0
291
     1
 45
0.0
  0
VISUALSTYLE
  5
2B
102
{ACAD_REACTORS
330
2A
102
}
102
{ACAD_XDICTIONARY
360
173
102
}
330
2A
100
AcDbVisualStyle
  2
Flat
 70
     0
 71
     2
 72
     1
 73
     1
 90
        2
 40
0.6
 41
30.0
 62
     5
 63
     7
421
 16777215
 74
     0
 91
        0
 64
     7
 65
   257
 75
     1
175
     1
 42
1.0
 92
        8
 66
     7
 43
1.0
 76
     1
 77
     6
 78
     2
 67
     7
 79
     5
170
     0
171
     0
290
     0
174
     0
 93
       13
 44
0.0
173
     0
291
     1
 45
0.0
  0
VISUALSTYLE
  5
2C
102
{ACAD_REACTORS
330
2A
102
}
102
{ACAD_XDICTIONARY
360
175
102
}
330
2A
100
AcDbVisualStyle
  2
FlatWithEdges
 70
     1
 71
     2
 72
     1
 73
     1
 90
        2
 40
0.6
 41
30.0
 62
     5
 63
     7
421
 16777215
 74
     1
 91
        0
 64
     7
 65
   257
 75
     1
175
     1
 42
1.0
 92
        0
 66
   257
 43
1.0
 76
     1
 77
     6
 78
     2
 67
     7
 79
     5
170
     0
171
     0
290
     0
174
     0
 93
       13
 44
0.0
173
     0
291
     1
 45
0.0
  0
VISUALSTYLE
  5
2D
102
{ACAD_REACTORS
330
2A
102
}
102
{ACAD_XDICTIONARY
360
177
102
}
330
2A
100
AcDbVisualStyle
  2
Gouraud
 70
     2
 71
     2
 72
     2
 73
     1
 90
        2
 40
0.6
 41
30.0
 62
     5
 63
     7
421
 16777215
 74
     0
 91
        0
 64
     7
 65
   257
 75
     1
175
     1
 42
1.0
 92
        0
 66
     7
 43
1.0
 76
     1
 77
     6
 78
     2
 67
     7
 79
     5
170
     0
171
     0
290
     0
174
     0
 93
       13
 44
0.0
173
     0
291
     1
 45
0.0
  0
VISUALSTYLE
  5
2E
102
{ACAD_REACTORS
330
2A
102
}
102
{ACAD_XDICTIONARY
360
179
102
}
330
2A
100
AcDbVisualStyle
  2
GouraudWithEdges
 70
     3
 71
     2
 72
     2
 73
     1
 90
        2
 40
0.6
 41
30.0
 62
     5
 63
     7
421
 16777215
 74
     1
 91
        0
 64
     7
 65
   257
 75
     1
175
     1
 42
1.0
 92
        0
 66
   257
 43
1.0
 76
     1
 77
     6
 78
     2
 67
     7
 79
     5
170
     0
171
     0
290
     0
174
     0
 93
       13
 44
0.0
173
     0
291
     1
 45
0.0
  0
VISUALSTYLE
  5
31
102
{ACAD_REACTORS
330
2A
102
}
102
{ACAD_XDICTIONARY
360
17F
102
}
330
2A
100
AcDbVisualStyle
  2
Hidden
 70
     6
 71
     1
 72
     2
 73
     2
 90
        0
 40
0.6
 41
30.0
 62
     5
 63
     7
421
 16777215
 74
     2
 91
        2
 64
     7
 65
   257
 75
     2
175
     1
 42
40.0
 92
        0
 66
   257
 43
1.0
 76
     1
 77
     6
 78
     2
 67
     7
 79
     3
170
     0
171
     0
290
     0
174
     0
 93
        1
 44
0.0
173
     0
291
     0
 45
0.0
  0
VISUALSTYLE
  5
3B
102
{ACAD_REACTORS
330
2A
102
}
102
{ACAD_XDICTIONARY
360
193
102
}
330
2A
100
AcDbVisualStyle
  2
JitterOff
 70
    20
 71
     2
 72
     2
 73
     0
 90
        0
 40
0.6
 41
30.0
 62
     5
 63
     7
421
 16777215
 74
     1
 91
        4
 64
     7
 65
   257
 75
     1
175
     1
 42
1.0
 92
       10
 66
     7
 43
1.0
 76
     1
 77
     6
 78
     2
 67
     7
 79
     5
170
     0
171
     0
290
     0
174
     0
 93
        1
 44
0.0
173
     0
291
     1
 45
0.0
  0
VISUALSTYLE
  5
38
102
{ACAD_REACTORS
330
2A
102
}
102
{ACAD_XDICTIONARY
360
18D
102
}
330
2A
100
AcDbVisualStyle
  2
Linepattern
 70
    14
 71
     2
 72
     2
 73
     0
 90
        0
 40
0.6
 41
30.0
 62
     5
 63
     7
421
 16777215
 74
     1
 91
        4
 64
     7
 65
   257
 75
     7
175
     7
 42
1.0
 92
        8
 66
     7
 43
1.0
 76
     1
 77
     6
 78
     2
 67
     7
 79
     5
170
     0
171
     0
290
     0
174
     0
 93
        1
 44
0.0
173
     0
291
     1
 45
0.0
  0
VISUALSTYLE
  5
3C
102
{ACAD_REACTORS
330
2A
102
}
102
{ACAD_XDICTIONARY
360
195
102
}
330
2A
100
AcDbVisualStyle
  2
OverhangOff
 70
    21
 71
     2
 72
     2
 73
     0
 90
        0
 40
0.6
 41
30.0
 62
     5
 63
     7
421
 16777215
 74
     1
 91
        4
 64
     7
 65
   257
 75
     1
175
     1
 42
1.0
 92
        9
 66
     7
 43
1.0
 76
     1
 77
     6
 78
     2
 67
     7
 79
     5
170
     0
171
     0
290
     0
174
     0
 93
        1
 44
0.0
173
     0
291
     1
 45
0.0
  0
VISUALSTYLE
  5
33
102
{ACAD_REACTORS
330
2A
102
}
102
{ACAD_XDICTIONARY
360
183
102
}
330
2A
100
AcDbVisualStyle
  2
Realistic
 70
     8
 71
     2
 72
     3
 73
     0
 90
        2
 40
0.6
 41
30.0
 62
     5
 63
     7
421
 16777215
 74
     0
 91
        0
 64
     7
 65
   257
 75
     1
175
     1
 42
1.0
 92
        8
 66
   257
 43
1.0
 76
     1
 77
     6
 78
     2
 67
     7
 79
     3
170
     0
171
     0
290
     0
174
     0
 93
       13
 44
0.0
173
     0
291
     0
 45
0.0
  0
VISUALSTYLE
  5
42
102
{ACAD_REACTORS
330
2A
102
}
102
{ACAD_XDICTIONARY
360
1A1
102
}
330
2A
100
AcDbVisualStyle
  2
Shaded
 70
    27
 71
     2
 72
     2
 73
     1
 90
        2
 40
0.6
 41
30.0
 62
     5
 63
     7
421
 16777215
 74
     0
 91
        4
 64
     7
 65
   257
 75
     1
175
     1
 42
1.0
 92
        8
 66
   257
 43
1.0
 76
     1
 77
     6
 78
     2
 67
     8
425
  7895160
 79
     3
170
     0
171
     0
290
     0
174
     0
 93
        5
 44
0.0
173
     0
291
     0
 45
0.0
  0
VISUALSTYLE
  5
41
102
{ACAD_REACTORS
330
2A
102
}
102
{ACAD_XDICTIONARY
360
19F
102
}
330
2A
100
AcDbVisualStyle
  2
Shaded with edges
 70
    26
 71
     2
 72
     2
 73
     1
 90
        2
 40
0.6
 41
30.0
 62
     5
 63
     7
421
 16777215
 74
     1
 91
       10
 64
     7
 65
   257
 75
     2
175
     1
 42
1.0
 92
        8
 66
   257
 43
1.0
 76
     1
 77
     6
 78
     2
 67
     7
 79
     3
170
     0
171
     0
290
     0
174
     0
 93
        5
 44
0.0
173
     0
291
     0
 45
0.0
  0
VISUALSTYLE
  5
3E
102
{ACAD_REACTORS
330
2A
102
}
102
{ACAD_XDICTIONARY
360
199
102
}
330
2A
100
AcDbVisualStyle
  2
Shades of Gray
 70
    23
 71
     2
 72
     2
 73
     3
 90
        0
 40
0.6
 41
30.0
 62
     5
 63
     7
421
 16777215
 74
     2
 91
        2
 64
     7
 65
     7
 75
     1
175
     1
 42
40.0
 92
        8
 66
     7
 43
1.0
 76
     1
 77
     6
 78
     2
 67
     7
 79
     3
170
     0
171
     0
290
     0
174
     0
 93
        1
 44
0.0
173
     0
291
     0
 45
0.0
  0
VISUALSTYLE
  5
3F
102
{ACAD_REACTORS
330
2A
102
}
102
{ACAD_XDICTIONARY
360
19B
102
}
330
2A
100
AcDbVisualStyle
  2
Sketchy
 70
    24
 71
     1
 72
     2
 73
     2
 90
        0
 40
0.6
 41
30.0
 62
     5
 63
     7
421
 16777215
 74
     2
 91
        2
 64
     7
 65
     7
 75
     1
175
     1
 42
40.0
 92
       11
 66
     7
 43
1.0
 76
     1
 77
     6
 78
     2
 67
     7
 79
     6
170
     0
171
     0
290
     0
174
     0
 93
        1
 44
0.0
173
     0
291
     0
 45
0.0
  0
VISUALSTYLE
  5
37
102
{ACAD_REACTORS
330
2A
102
}
102
{ACAD_XDICTIONARY
360
18B
102
}
330
2A
100
AcDbVisualStyle
  2
Thicken
 70
    13
 71
     2
 72
     2
 73
     0
 90
        0
 40
0.6
 41
30.0
 62
     5
 63
     7
421
 16777215
 74
     1
 91
        4
 64
     7
 65
   257
 75
     1
175
     1
 42
1.0
 92
       12
 66
     7
 43
1.0
 76
     1
 77
     6
 78
     2
 67
     7
 79
     5
170
     0
171
     0
290
     0
174
     0
 93
        1
 44
0.0
173
     0
291
     1
 45
0.0
  0
VISUALSTYLE
  5
30
102
{ACAD_REACTORS
330
2A
102
}
102
{ACAD_XDICTIONARY
360
17D
102
}
330
2A
100
AcDbVisualStyle
  2
Wireframe
 70
     5
 71
     0
 72
     2
 73
     0
 90
        0
 40
0.6
 41
30.0
 62
     5
 63
     7
421
 16777215
 74
     1
 91
        4
 64
     7
 65
   257
 75
     1
175
     1
 42
1.0
 92
        0
 66
   257
 43
1.0
 76
     1
 77
     6
 78
     2
 67
     7
 79
     3
170
     0
171
     0
290
     0
174
     0
 93
        1
 44
0.0
173
     0
291
     0
 45
0.0
  0
VISUALSTYLE
  5
40
102
{ACAD_REACTORS
330
2A
102
}
102
{ACAD_XDICTIONARY
360
19D
102
}
330
2A
100
AcDbVisualStyle
  2
X-Ray
 70
    25
 71
     2
 72
     2
 73
     1
 90
        1
 40
0.5
 41
30.0
 62
     5
 63
     7
421
 16777215
 74
     1
 91
        0
 64
     7
 65
   257
 75
     1
175
     1
 42
1.0
 92
        8
 66
     7
 43
1.0
 76
     1
 77
     6
 78
     2
 67
     7
 79
     3
170
     0
171
     0
290
     0
174
     0
 93
       13
 44
0.0
173
     0
291
     0
 45
0.0
  0
DICTIONARYVAR
  5
171
102
{ACAD_REACTORS
330
170
102
}
330
170
100
DictionaryVariables
280
     0
  1
1:1
  0
DICTIONARYVAR
  5
1AA
102
{ACAD_REACTORS
330
170
102
}
330
170
100
DictionaryVariables
280
     0
  1
Standard
  0
DICTIONARYVAR
  5
1A9
102
{ACAD_REACTORS
330
170
102
}
330
170
100
DictionaryVariables
280
     0
  1
Standard
  0
DICTIONARYVAR
  5
172
102
{ACAD_REACTORS
330
170
102
}
330
170
100
DictionaryVariables
280
     0
  1
2
  0
DICTIONARY
  5
1A6
330
6C
100
AcDbDictionary
280
     1
281
     1
  3
ACAD_XREC_ROUNDTRIP
360
1A7
  0
DICTIONARY
  5
1A3
330
6A
100
AcDbDictionary
280
     1
281
     1
  3
ACAD_ROUNDTRIP_2008_TABLESTYLE_CELLSTYLEMAP
360
1A4
  0
DICTIONARY
  5
17B
330
2F
100
AcDbDictionary
280
     1
281
     1
  3
ACAD_XREC_ROUNDTRIP
360
17C
  0
DICTIONARY
  5
181
330
32
100
AcDbDictionary
280
     1
281
     1
  3
ACAD_XREC_ROUNDTRIP
360
182
  0
DICTIONARY
  5
189
330
36
100
AcDbDictionary
280
     1
281
     1
  3
ACAD_XREC_ROUNDTRIP
360
18A
  0
DICTIONARY
  5
191
330
3A
100
AcDbDictionary
280
     1
281
     1
  3
ACAD_XREC_ROUNDTRIP
360
192
  0
DICTIONARY
  5
185
330
34
100
AcDbDictionary
280
     1
281
     1
  3
ACAD_XREC_ROUNDTRIP
360
186
  0
DICTIONARY
  5
187
330
35
100
AcDbDictionary
280
     1
281
     1
  3
ACAD_XREC_ROUNDTRIP
360
188
  0
DICTIONARY
  5
197
330
3D
100
AcDbDictionary
280
     1
281
     1
  3
ACAD_XREC_ROUNDTRIP
360
198
  0
DICTIONARY
  5
18F
330
39
100
AcDbDictionary
280
     1
281
     1
  3
ACAD_XREC_ROUNDTRIP
360
190
  0
DICTIONARY
  5
173
330
2B
100
AcDbDictionary
280
     1
281
     1
  3
ACAD_XREC_ROUNDTRIP
360
174
  0
DICTIONARY
  5
175
330
2C
100
AcDbDictionary
280
     1
281
     1
  3
ACAD_XREC_ROUNDTRIP
360
176
  0
DICTIONARY
  5
177
330
2D
100
AcDbDictionary
280
     1
281
     1
  3
ACAD_XREC_ROUNDTRIP
360
178
  0
DICTIONARY
  5
179
330
2E
100
AcDbDictionary
280
     1
281
     1
  3
ACAD_XREC_ROUNDTRIP
360
17A
  0
DICTIONARY
  5
17F
330
31
100
AcDbDictionary
280
     1
281
     1
  3
ACAD_XREC_ROUNDTRIP
360
180
  0
DICTIONARY
  5
193
330
3B
100
AcDbDictionary
280
     1
281
     1
  3
ACAD_XREC_ROUNDTRIP
360
194
  0
DICTIONARY
  5
18D
330
38
100
AcDbDictionary
280
     1
281
     1
  3
ACAD_XREC_ROUNDTRIP
360
18E
  0
DICTIONARY
  5
195
330
3C
100
AcDbDictionary
280
     1
281
     1
  3
ACAD_XREC_ROUNDTRIP
360
196
  0
DICTIONARY
  5
183
330
33
100
AcDbDictionary
280
     1
281
     1
  3
ACAD_XREC_ROUNDTRIP
360
184
  0
DICTIONARY
  5
1A1
330
42
100
AcDbDictionary
280
     1
281
     1
  3
ACAD_XREC_ROUNDTRIP
360
1A2
  0
DICTIONARY
  5
19F
330
41
100
AcDbDictionary
280
     1
281
     1
  3
ACAD_XREC_ROUNDTRIP
360
1A0
  0
DICTIONARY
  5
199
330
3E
100
AcDbDictionary
280
     1
281
     1
  3
ACAD_XREC_ROUNDTRIP
360
19A
  0
DICTIONARY
  5
19B
330
3F
100
AcDbDictionary
280
     1
281
     1
  3
ACAD_XREC_ROUNDTRIP
360
19C
  0
DICTIONARY
  5
18B
330
37
100
AcDbDictionary
280
     1
281
     1
  3
ACAD_XREC_ROUNDTRIP
360
18C
  0
DICTIONARY
  5
17D
330
30
100
AcDbDictionary
280
     1
281
     1
  3
ACAD_XREC_ROUNDTRIP
360
17E
  0
DICTIONARY
  5
19D
330
40
100
AcDbDictionary
280
     1
281
     1
  3
ACAD_XREC_ROUNDTRIP
360
19E
  0
XRECORD
  5
1A7
102
{ACAD_REACTORS
330
1A6
102
}
330
1A6
100
AcDbXrecord
280
     1
102
ACAD_ROUNDTRIP_2010_MLEADER_STYLE
  0
CELLSTYLEMAP
  5
1A4
102
{ACAD_REACTORS
330
1A3
102
}
330
1A3
100
AcDbCellStyleMap
 90
        3
300
CELLSTYLE
  1
TABLEFORMAT_BEGIN
 90
        5
170
     1
 91
        0
 92
    32768
 62
   257
 93
        1
300
CONTENTFORMAT
  1
CONTENTFORMAT_BEGIN
 90
        0
 91
        0
 92
        4
 93
        0
300

 40
0.0
140
1.0
 94
        5
 62
     0
340
11
144
0.25
309
CONTENTFORMAT_END
171
     1
301
MARGIN
  1
CELLMARGIN_BEGIN
 40
0.06
 40
0.06
 40
0.06
 40
0.06
 40
0.06
 40
0.06
309
CELLMARGIN_END
 94
        6
 95
        1
302
GRIDFORMAT
  1
GRIDFORMAT_BEGIN
 90
        0
 91
        1
 62
     0
 92
       -2
340
14
 93
        0
 40
0.045
309
GRIDFORMAT_END
 95
        2
302
GRIDFORMAT
  1
GRIDFORMAT_BEGIN
 90
        0
 91
        1
 62
     0
 92
       -2
340
14
 93
        0
 40
0.045
309
GRIDFORMAT_END
 95
        4
302
GRIDFORMAT
  1
GRIDFORMAT_BEGIN
 90
        0
 91
        1
 62
     0
 92
       -2
340
14
 93
        0
 40
0.045
309
GRIDFORMAT_END
 95
        8
302
GRIDFORMAT
  1
GRIDFORMAT_BEGIN
 90
        0
 91
        1
 62
     0
 92
       -2
340
14
 93
        0
 40
0.045
309
GRIDFORMAT_END
 95
       16
302
GRIDFORMAT
  1
GRIDFORMAT_BEGIN
 90
        0
 91
        1
 62
     0
 92
       -2
340
14
 93
        0
 40
0.045
309
GRIDFORMAT_END
 95
       32
302
GRIDFORMAT
  1
GRIDFORMAT_BEGIN
 90
        0
 91
        1
 62
     0
 92
       -2
340
14
 93
        0
 40
0.045
309
GRIDFORMAT_END
309
TABLEFORMAT_END
  1
CELLSTYLE_BEGIN
 90
        1
 91
        1
300
_TITLE
309
CELLSTYLE_END
300
CELLSTYLE
  1
TABLEFORMAT_BEGIN
 90
        5
170
     1
 91
        0
 92
        0
 62
   257
 93
        1
300
CONTENTFORMAT
  1
CONTENTFORMAT_BEGIN
 90
        0
 91
        0
 92
        4
 93
        0
300

 40
0.0
140
1.0
 94
        5
 62
     0
340
11
144
0.18
309
CONTENTFORMAT_END
171
     1
301
MARGIN
  1
CELLMARGIN_BEGIN
 40
0.06
 40
0.06
 40
0.06
 40
0.06
 40
0.06
 40
0.06
309
CELLMARGIN_END
 94
        6
 95
        1
302
GRIDFORMAT
  1
GRIDFORMAT_BEGIN
 90
        0
 91
        1
 62
     0
 92
       -2
340
14
 93
        0
 40
0.045
309
GRIDFORMAT_END
 95
        2
302
GRIDFORMAT
  1
GRIDFORMAT_BEGIN
 90
        0
 91
        1
 62
     0
 92
       -2
340
14
 93
        0
 40
0.045
309
GRIDFORMAT_END
 95
        4
302
GRIDFORMAT
  1
GRIDFORMAT_BEGIN
 90
        0
 91
        1
 62
     0
 92
       -2
340
14
 93
        0
 40
0.045
309
GRIDFORMAT_END
 95
        8
302
GRIDFORMAT
  1
GRIDFORMAT_BEGIN
 90
        0
 91
        1
 62
     0
 92
       -2
340
14
 93
        0
 40
0.045
309
GRIDFORMAT_END
 95
       16
302
GRIDFORMAT
  1
GRIDFORMAT_BEGIN
 90
        0
 91
        1
 62
     0
 92
       -2
340
14
 93
        0
 40
0.045
309
GRIDFORMAT_END
 95
       32
302
GRIDFORMAT
  1
GRIDFORMAT_BEGIN
 90
        0
 91
        1
 62
     0
 92
       -2
340
14
 93
        0
 40
0.045
309
GRIDFORMAT_END
309
TABLEFORMAT_END
  1
CELLSTYLE_BEGIN
 90
        2
 91
        1
300
_HEADER
309
CELLSTYLE_END
300
CELLSTYLE
  1
TABLEFORMAT_BEGIN
 90
        5
170
     1
 91
        0
 92
        0
 62
   257
 93
        1
300
CONTENTFORMAT
  1
CONTENTFORMAT_BEGIN
 90
        0
 91
        0
 92
        4
 93
        0
300

 40
0.0
140
1.0
 94
        2
 62
     0
340
11
144
0.18
309
CONTENTFORMAT_END
171
     1
301
MARGIN
  1
CELLMARGIN_BEGIN
 40
0.06
 40
0.06
 40
0.06
 40
0.06
 40
0.06
 40
0.06
309
CELLMARGIN_END
 94
        6
 95
        1
302
GRIDFORMAT
  1
GRIDFORMAT_BEGIN
 90
        0
 91
        1
 62
     0
 92
       -2
340
14
 93
        0
 40
0.045
309
GRIDFORMAT_END
 95
        2
302
GRIDFORMAT
  1
GRIDFORMAT_BEGIN
 90
        0
 91
        1
 62
     0
 92
       -2
340
14
 93
        0
 40
0.045
309
GRIDFORMAT_END
 95
        4
302
GRIDFORMAT
  1
GRIDFORMAT_BEGIN
 90
        0
 91
        1
 62
     0
 92
       -2
340
14
 93
        0
 40
0.045
309
GRIDFORMAT_END
 95
        8
302
GRIDFORMAT
  1
GRIDFORMAT_BEGIN
 90
        0
 91
        1
 62
     0
 92
       -2
340
14
 93
        0
 40
0.045
309
GRIDFORMAT_END
 95
       16
302
GRIDFORMAT
  1
GRIDFORMAT_BEGIN
 90
        0
 91
        1
 62
     0
 92
       -2
340
14
 93
        0
 40
0.045
309
GRIDFORMAT_END
 95
       32
302
GRIDFORMAT
  1
GRIDFORMAT_BEGIN
 90
        0
 91
        1
 62
     0
 92
       -2
340
14
 93
        0
 40
0.045
309
GRIDFORMAT_END
309
TABLEFORMAT_END
  1
CELLSTYLE_BEGIN
 90
        3
 91
        2
300
_DATA
309
CELLSTYLE_END
  0
XRECORD
  5
17C
102
{ACAD_REACTORS
330
17B
102
}
330
17B
100
AcDbXrecord
280
     1
102
RTVSPropertyOp0
 70
     1
102
RTVSPropertyOp1
 70
     1
102
RTVSPropertyOp2
 70
     1
102
RTVSPropertyOp3
 70
     1
102
RTVSPropertyOp4
 70
     1
102
RTVSPropertyOp5
 70
     1
102
RTVSPropertyOp6
 70
     1
102
RTVSPropertyOp7
 70
     1
102
RTVSPropertyOp8
 70
     1
102
RTVSPropertyOp9
 70
     1
102
RTVSPropertyOp10
 70
     1
102
RTVSPropertyOp11
 70
     1
102
RTVSPropertyOp12
 70
     1
102
RTVSPropertyOp13
 70
     1
102
RTVSPropertyOp14
 70
     1
102
RTVSPropertyOp15
 70
     1
102
RTVSPropertyOp16
 70
     1
102
RTVSPropertyOp17
 70
     1
102
RTVSPropertyOp18
 70
     1
102
RTVSPropertyOp19
 70
     1
102
RTVSPropertyOp20
 70
     1
102
RTVSPropertyOp21
 70
     1
102
RTVSPropertyOp22
 70
     1
102
RTVSPropertyOp23
 70
     1
102
RTVSPropertyOp24
 70
     1
102
RTVSPropertyOp25
 70
     1
102
RTVSPropertyOp26
 70
     1
102
RTVSPropertyOp27
 70
     1
102
RTVSPropertyOp28
 70
     1
102
RTVSPropertyOp29
 70
     1
102
RTVSPropertyOp30
 70
     1
102
RTVSPropertyOp31
 70
     1
102
RTVSPropertyOp32
 70
     1
102
RTVSPropertyOp33
 70
     1
102
RTVSPropertyOp34
 70
     1
102
RTVSPropertyOp35
 70
     1
102
RTVSPropertyOp36
 70
     1
102
RTVSPropertyOp37
 70
     1
102
RTVSPropertyOp38
 70
     1
102
RTVSPropertyOp39
 70
     1
102
RTVSPropertyOp40
 70
     1
102
RTVSPropertyOp41
 70
     1
102
RTVSPropertyOp42
 70
     1
102
RTVSPropertyOp43
 70
     1
102
RTVSPropertyOp44
 70
     1
102
RTVSPropertyOp45
 70
     1
102
RTVSPropertyOp46
 70
     1
102
RTVSPropertyOp47
 70
     1
102
RTVSPropertyOp48
 70
     1
102
RTVSPropertyOp49
 70
     1
102
RTVSPropertyOp50
 70
     1
102
RTVSPropertyOp51
 70
     0
102
RTVSPropertyOp52
 70
     0
102
RTVSPropertyOp53
 70
     1
102
RTVSPropertyOp54
 70
     1
102
RTVSPropertyOp55
 70
     1
102
RTVSPropertyOp56
 70
     1
102
RTVSPropertyOp57
 70
     1
102
RTVSPost2010Prop28
280
     1
102
RTVSPost2010PropOp28
 70
     1
102
RTVSPost2010Prop29
280
     1
102
RTVSPost2010PropOp29
 70
     1
102
RTVSPost2010Prop30
280
     0
102
RTVSPost2010PropOp30
 70
     1
102
RTVSPost2010Prop31
280
     0
102
RTVSPost2010PropOp31
 70
     1
102
RTVSPost2010Prop32
280
     0
102
RTVSPost2010PropOp32
 70
     1
102
RTVSPost2010Prop33
280
     0
102
RTVSPost2010PropOp33
 70
     1
102
RTVSPost2010Prop34
280
     0
102
RTVSPost2010PropOp34
 70
     1
102
RTVSPost2010Prop35
280
     0
102
RTVSPost2010PropOp35
 70
     1
102
RTVSPost2010Prop36
280
     0
102
RTVSPost2010PropOp36
 70
     1
102
RTVSPost2010Prop37
 90
       50
102
RTVSPost2010PropOp37
 70
     1
102
RTVSPost2010Prop38
140
0.0
102
RTVSPost2010PropOp38
 70
     1
102
RTVSPost2010Prop39
140
1.0
102
RTVSPost2010PropOp39
 70
     1
102
RTVSPost2010Prop40
 90
        0
102
RTVSPost2010PropOp40
 70
     1
102
RTVSPost2010Prop41ColorIndex
 90
       18
102
RTVSPost2010Prop41ColorRGB
 90
        0
102
RTVSPost2010PropOp41
 70
     1
102
RTVSPost2010Prop42
 90
       50
102
RTVSPost2010PropOp42
 70
     1
102
RTVSPost2010Prop43
 90
        3
102
RTVSPost2010PropOp43
 70
     1
102
RTVSPost2010Prop44ColorIndex
 90
        5
102
RTVSPost2010Prop44ColorRGB
 90
      255
102
RTVSPost2010PropOp44
 70
     1
102
RTVSPost2010Prop45
280
     0
102
RTVSPost2010PropOp45
 70
     1
102
RTVSPost2010Prop46
 90
       50
102
RTVSPost2010PropOp46
 70
     1
102
RTVSPost2010Prop47
 90
       50
102
RTVSPost2010PropOp47
 70
     1
102
RTVSPost2010Prop48
 90
       50
102
RTVSPost2010PropOp48
 70
     1
102
RTVSPost2010Prop49
280
     0
102
RTVSPost2010PropOp49
 70
     1
102
RTVSPost2010Prop50
 90
       50
102
RTVSPost2010PropOp50
 70
     1
102
RTVSPost2010Prop51ColorIndex
 90
      256
102
RTVSPost2010Prop51ColorRGB
 90
-16777216
102
RTVSPost2010PropOp51
 70
     0
102
RTVSPost2010Prop52
140
1.0
102
RTVSPost2010PropOp52
 70
     0
102
RTVSPost2010Prop53
 90
        2
102
RTVSPost2010PropOp53
 70
     1
102
RTVSPost2010Prop54
  1
strokes_ogs.tif
102
RTVSPost2010PropOp54
 70
     1
102
RTVSPost2010Prop55
280
     0
102
RTVSPost2010PropOp55
 70
     1
102
RTVSPost2010Prop56
140
1.0
102
RTVSPost2010PropOp56
 70
     1
102
RTVSPost2010Prop57
140
1.0
102
RTVSPost2010PropOp57
 70
     1
  0
XRECORD
  5
182
102
{ACAD_REACTORS
330
181
102
}
330
181
100
AcDbXrecord
280
     1
102
RTVSPropertyOp0
 70
     1
102
RTVSPropertyOp1
 70
     1
102
RTVSPropertyOp2
 70
     1
102
RTVSPropertyOp3
 70
     1
102
RTVSPropertyOp4
 70
     1
102
RTVSPropertyOp5
 70
     1
102
RTVSPropertyOp6
 70
     1
102
RTVSPropertyOp7
 70
     1
102
RTVSPropertyOp8
 70
     1
102
RTVSPropertyOp9
 70
     1
102
RTVSPropertyOp10
 70
     1
102
RTVSPropertyOp11
 70
     1
102
RTVSPropertyOp12
 70
     1
102
RTVSPropertyOp13
 70
     1
102
RTVSPropertyOp14
 70
     1
102
RTVSPropertyOp15
 70
     1
102
RTVSPropertyOp16
 70
     1
102
RTVSPropertyOp17
 70
     1
102
RTVSPropertyOp18
 70
     1
102
RTVSPropertyOp19
 70
     1
102
RTVSPropertyOp20
 70
     1
102
RTVSPropertyOp21
 70
     1
102
RTVSPropertyOp22
 70
     1
102
RTVSPropertyOp23
 70
     1
102
RTVSPropertyOp24
 70
     1
102
RTVSPropertyOp25
 70
     1
102
RTVSPropertyOp26
 70
     1
102
RTVSPropertyOp27
 70
     1
102
RTVSPropertyOp28
 70
     1
102
RTVSPropertyOp29
 70
     1
102
RTVSPropertyOp30
 70
     1
102
RTVSPropertyOp31
 70
     1
102
RTVSPropertyOp32
 70
     1
102
RTVSPropertyOp33
 70
     1
102
RTVSPropertyOp34
 70
     1
102
RTVSPropertyOp35
 70
     1
102
RTVSPropertyOp36
 70
     1
102
RTVSPropertyOp37
 70
     1
102
RTVSPropertyOp38
 70
     1
102
RTVSPropertyOp39
 70
     1
102
RTVSPropertyOp40
 70
     1
102
RTVSPropertyOp41
 70
     1
102
RTVSPropertyOp42
 70
     1
102
RTVSPropertyOp43
 70
     1
102
RTVSPropertyOp44
 70
     1
102
RTVSPropertyOp45
 70
     1
102
RTVSPropertyOp46
 70
     1
102
RTVSPropertyOp47
 70
     1
102
RTVSPropertyOp48
 70
     1
102
RTVSPropertyOp49
 70
     1
102
RTVSPropertyOp50
 70
     1
102
RTVSPropertyOp51
 70
     0
102
RTVSPropertyOp52
 70
     0
102
RTVSPropertyOp53
 70
     1
102
RTVSPropertyOp54
 70
     1
102
RTVSPropertyOp55
 70
     1
102
RTVSPropertyOp56
 70
     1
102
RTVSPropertyOp57
 70
     1
102
RTVSPost2010Prop28
280
     0
102
RTVSPost2010PropOp28
 70
     1
102
RTVSPost2010Prop29
280
     1
102
RTVSPost2010PropOp29
 70
     1
102
RTVSPost2010Prop30
280
     1
102
RTVSPost2010PropOp30
 70
     1
102
RTVSPost2010Prop31
280
     0
102
RTVSPost2010PropOp31
 70
     1
102
RTVSPost2010Prop32
280
     0
102
RTVSPost2010PropOp32
 70
     1
102
RTVSPost2010Prop33
280
     0
102
RTVSPost2010PropOp33
 70
     1
102
RTVSPost2010Prop34
280
     0
102
RTVSPost2010PropOp34
 70
     1
102
RTVSPost2010Prop35
280
     0
102
RTVSPost2010PropOp35
 70
     1
102
RTVSPost2010Prop36
280
     0
102
RTVSPost2010PropOp36
 70
     1
102
RTVSPost2010Prop37
 90
       50
102
RTVSPost2010PropOp37
 70
     1
102
RTVSPost2010Prop38
140
0.0
102
RTVSPost2010PropOp38
 70
     1
102
RTVSPost2010Prop39
140
1.0
102
RTVSPost2010PropOp39
 70
     1
102
RTVSPost2010Prop40
 90
        0
102
RTVSPost2010PropOp40
 70
     1
102
RTVSPost2010Prop41ColorIndex
 90
       18
102
RTVSPost2010Prop41ColorRGB
 90
        0
102
RTVSPost2010PropOp41
 70
     1
102
RTVSPost2010Prop42
 90
       50
102
RTVSPost2010PropOp42
 70
     1
102
RTVSPost2010Prop43
 90
        3
102
RTVSPost2010PropOp43
 70
     1
102
RTVSPost2010Prop44ColorIndex
 90
        5
102
RTVSPost2010Prop44ColorRGB
 90
      255
102
RTVSPost2010PropOp44
 70
     1
102
RTVSPost2010Prop45
280
     0
102
RTVSPost2010PropOp45
 70
     1
102
RTVSPost2010Prop46
 90
       50
102
RTVSPost2010PropOp46
 70
     1
102
RTVSPost2010Prop47
 90
       50
102
RTVSPost2010PropOp47
 70
     1
102
RTVSPost2010Prop48
 90
       50
102
RTVSPost2010PropOp48
 70
     1
102
RTVSPost2010Prop49
280
     0
102
RTVSPost2010PropOp49
 70
     1
102
RTVSPost2010Prop50
 90
       50
102
RTVSPost2010PropOp50
 70
     1
102
RTVSPost2010Prop51ColorIndex
 90
      256
102
RTVSPost2010Prop51ColorRGB
 90
-16777216
102
RTVSPost2010PropOp51
 70
     0
102
RTVSPost2010Prop52
140
1.0
102
RTVSPost2010PropOp52
 70
     0
102
RTVSPost2010Prop53
 90
        2
102
RTVSPost2010PropOp53
 70
     1
102
RTVSPost2010Prop54
  1
strokes_ogs.tif
102
RTVSPost2010PropOp54
 70
     1
102
RTVSPost2010Prop55
280
     0
102
RTVSPost2010PropOp55
 70
     1
102
RTVSPost2010Prop56
140
1.0
102
RTVSPost2010PropOp56
 70
     1
102
RTVSPost2010Prop57
140
1.0
102
RTVSPost2010PropOp57
 70
     1
  0
XRECORD
  5
18A
102
{ACAD_REACTORS
330
189
102
}
330
189
100
AcDbXrecord
280
     1
102
RTVSPropertyOp0
 70
     1
102
RTVSPropertyOp1
 70
     1
102
RTVSPropertyOp2
 70
     1
102
RTVSPropertyOp3
 70
     1
102
RTVSPropertyOp4
 70
     1
102
RTVSPropertyOp5
 70
     1
102
RTVSPropertyOp6
 70
     1
102
RTVSPropertyOp7
 70
     1
102
RTVSPropertyOp8
 70
     1
102
RTVSPropertyOp9
 70
     1
102
RTVSPropertyOp10
 70
     1
102
RTVSPropertyOp11
 70
     1
102
RTVSPropertyOp12
 70
     1
102
RTVSPropertyOp13
 70
     1
102
RTVSPropertyOp14
 70
     1
102
RTVSPropertyOp15
 70
     1
102
RTVSPropertyOp16
 70
     1
102
RTVSPropertyOp17
 70
     1
102
RTVSPropertyOp18
 70
     1
102
RTVSPropertyOp19
 70
     1
102
RTVSPropertyOp20
 70
     1
102
RTVSPropertyOp21
 70
     1
102
RTVSPropertyOp22
 70
     1
102
RTVSPropertyOp23
 70
     1
102
RTVSPropertyOp24
 70
     1
102
RTVSPropertyOp25
 70
     1
102
RTVSPropertyOp26
 70
     1
102
RTVSPropertyOp27
 70
     1
102
RTVSPropertyOp28
 70
     1
102
RTVSPropertyOp29
 70
     1
102
RTVSPropertyOp30
 70
     1
102
RTVSPropertyOp31
 70
     1
102
RTVSPropertyOp32
 70
     1
102
RTVSPropertyOp33
 70
     1
102
RTVSPropertyOp34
 70
     1
102
RTVSPropertyOp35
 70
     1
102
RTVSPropertyOp36
 70
     1
102
RTVSPropertyOp37
 70
     1
102
RTVSPropertyOp38
 70
     1
102
RTVSPropertyOp39
 70
     1
102
RTVSPropertyOp40
 70
     1
102
RTVSPropertyOp41
 70
     1
102
RTVSPropertyOp42
 70
     1
102
RTVSPropertyOp43
 70
     1
102
RTVSPropertyOp44
 70
     1
102
RTVSPropertyOp45
 70
     1
102
RTVSPropertyOp46
 70
     1
102
RTVSPropertyOp47
 70
     1
102
RTVSPropertyOp48
 70
     1
102
RTVSPropertyOp49
 70
     1
102
RTVSPropertyOp50
 70
     1
102
RTVSPropertyOp51
 70
     0
102
RTVSPropertyOp52
 70
     0
102
RTVSPropertyOp53
 70
     1
102
RTVSPropertyOp54
 70
     1
102
RTVSPropertyOp55
 70
     1
102
RTVSPropertyOp56
 70
     1
102
RTVSPropertyOp57
 70
     1
102
RTVSPost2010Prop28
280
     0
102
RTVSPost2010PropOp28
 70
     1
102
RTVSPost2010Prop29
280
     1
102
RTVSPost2010PropOp29
 70
     1
102
RTVSPost2010Prop30
280
     1
102
RTVSPost2010PropOp30
 70
     1
102
RTVSPost2010Prop31
280
     0
102
RTVSPost2010PropOp31
 70
     1
102
RTVSPost2010Prop32
280
     0
102
RTVSPost2010PropOp32
 70
     1
102
RTVSPost2010Prop33
280
     0
102
RTVSPost2010PropOp33
 70
     1
102
RTVSPost2010Prop34
280
     0
102
RTVSPost2010PropOp34
 70
     1
102
RTVSPost2010Prop35
280
     0
102
RTVSPost2010PropOp35
 70
     1
102
RTVSPost2010Prop36
280
     0
102
RTVSPost2010PropOp36
 70
     1
102
RTVSPost2010Prop37
 90
       50
102
RTVSPost2010PropOp37
 70
     1
102
RTVSPost2010Prop38
140
0.0
102
RTVSPost2010PropOp38
 70
     1
102
RTVSPost2010Prop39
140
1.0
102
RTVSPost2010PropOp39
 70
     1
102
RTVSPost2010Prop40
 90
        0
102
RTVSPost2010PropOp40
 70
     1
102
RTVSPost2010Prop41ColorIndex
 90
       18
102
RTVSPost2010Prop41ColorRGB
 90
        0
102
RTVSPost2010PropOp41
 70
     1
102
RTVSPost2010Prop42
 90
       50
102
RTVSPost2010PropOp42
 70
     1
102
RTVSPost2010Prop43
 90
        3
102
RTVSPost2010PropOp43
 70
     1
102
RTVSPost2010Prop44ColorIndex
 90
        5
102
RTVSPost2010Prop44ColorRGB
 90
      255
102
RTVSPost2010PropOp44
 70
     1
102
RTVSPost2010Prop45
280
     0
102
RTVSPost2010PropOp45
 70
     1
102
RTVSPost2010Prop46
 90
       50
102
RTVSPost2010PropOp46
 70
     1
102
RTVSPost2010Prop47
 90
       50
102
RTVSPost2010PropOp47
 70
     1
102
RTVSPost2010Prop48
 90
       50
102
RTVSPost2010PropOp48
 70
     1
102
RTVSPost2010Prop49
280
     0
102
RTVSPost2010PropOp49
 70
     1
102
RTVSPost2010Prop50
 90
       50
102
RTVSPost2010PropOp50
 70
     1
102
RTVSPost2010Prop51ColorIndex
 90
      256
102
RTVSPost2010Prop51ColorRGB
 90
-16777216
102
RTVSPost2010PropOp51
 70
     0
102
RTVSPost2010Prop52
140
1.0
102
RTVSPost2010PropOp52
 70
     0
102
RTVSPost2010Prop53
 90
        2
102
RTVSPost2010PropOp53
 70
     1
102
RTVSPost2010Prop54
  1
strokes_ogs.tif
102
RTVSPost2010PropOp54
 70
     1
102
RTVSPost2010Prop55
280
     0
102
RTVSPost2010PropOp55
 70
     1
102
RTVSPost2010Prop56
140
1.0
102
RTVSPost2010PropOp56
 70
     1
102
RTVSPost2010Prop57
140
1.0
102
RTVSPost2010PropOp57
 70
     1
  0
XRECORD
  5
192
102
{ACAD_REACTORS
330
191
102
}
330
191
100
AcDbXrecord
280
     1
102
RTVSPropertyOp0
 70
     1
102
RTVSPropertyOp1
 70
     1
102
RTVSPropertyOp2
 70
     1
102
RTVSPropertyOp3
 70
     1
102
RTVSPropertyOp4
 70
     1
102
RTVSPropertyOp5
 70
     1
102
RTVSPropertyOp6
 70
     1
102
RTVSPropertyOp7
 70
     1
102
RTVSPropertyOp8
 70
     1
102
RTVSPropertyOp9
 70
     1
102
RTVSPropertyOp10
 70
     1
102
RTVSPropertyOp11
 70
     1
102
RTVSPropertyOp12
 70
     1
102
RTVSPropertyOp13
 70
     1
102
RTVSPropertyOp14
 70
     1
102
RTVSPropertyOp15
 70
     1
102
RTVSPropertyOp16
 70
     1
102
RTVSPropertyOp17
 70
     1
102
RTVSPropertyOp18
 70
     1
102
RTVSPropertyOp19
 70
     1
102
RTVSPropertyOp20
 70
     1
102
RTVSPropertyOp21
 70
     1
102
RTVSPropertyOp22
 70
     1
102
RTVSPropertyOp23
 70
     1
102
RTVSPropertyOp24
 70
     1
102
RTVSPropertyOp25
 70
     1
102
RTVSPropertyOp26
 70
     1
102
RTVSPropertyOp27
 70
     1
102
RTVSPropertyOp28
 70
     1
102
RTVSPropertyOp29
 70
     1
102
RTVSPropertyOp30
 70
     1
102
RTVSPropertyOp31
 70
     1
102
RTVSPropertyOp32
 70
     1
102
RTVSPropertyOp33
 70
     1
102
RTVSPropertyOp34
 70
     1
102
RTVSPropertyOp35
 70
     1
102
RTVSPropertyOp36
 70
     1
102
RTVSPropertyOp37
 70
     1
102
RTVSPropertyOp38
 70
     1
102
RTVSPropertyOp39
 70
     1
102
RTVSPropertyOp40
 70
     1
102
RTVSPropertyOp41
 70
     1
102
RTVSPropertyOp42
 70
     1
102
RTVSPropertyOp43
 70
     1
102
RTVSPropertyOp44
 70
     1
102
RTVSPropertyOp45
 70
     1
102
RTVSPropertyOp46
 70
     1
102
RTVSPropertyOp47
 70
     1
102
RTVSPropertyOp48
 70
     1
102
RTVSPropertyOp49
 70
     1
102
RTVSPropertyOp50
 70
     1
102
RTVSPropertyOp51
 70
     0
102
RTVSPropertyOp52
 70
     0
102
RTVSPropertyOp53
 70
     1
102
RTVSPropertyOp54
 70
     1
102
RTVSPropertyOp55
 70
     1
102
RTVSPropertyOp56
 70
     1
102
RTVSPropertyOp57
 70
     1
102
RTVSPost2010Prop28
280
     0
102
RTVSPost2010PropOp28
 70
     1
102
RTVSPost2010Prop29
280
     1
102
RTVSPost2010PropOp29
 70
     1
102
RTVSPost2010Prop30
280
     1
102
RTVSPost2010PropOp30
 70
     1
102
RTVSPost2010Prop31
280
     0
102
RTVSPost2010PropOp31
 70
     1
102
RTVSPost2010Prop32
280
     0
102
RTVSPost2010PropOp32
 70
     1
102
RTVSPost2010Prop33
280
     0
102
RTVSPost2010PropOp33
 70
     1
102
RTVSPost2010Prop34
280
     0
102
RTVSPost2010PropOp34
 70
     1
102
RTVSPost2010Prop35
280
     0
102
RTVSPost2010PropOp35
 70
     1
102
RTVSPost2010Prop36
280
     0
102
RTVSPost2010PropOp36
 70
     1
102
RTVSPost2010Prop37
 90
       50
102
RTVSPost2010PropOp37
 70
     1
102
RTVSPost2010Prop38
140
0.0
102
RTVSPost2010PropOp38
 70
     1
102
RTVSPost2010Prop39
140
1.0
102
RTVSPost2010PropOp39
 70
     1
102
RTVSPost2010Prop40
 90
        0
102
RTVSPost2010PropOp40
 70
     1
102
RTVSPost2010Prop41ColorIndex
 90
       18
102
RTVSPost2010Prop41ColorRGB
 90
        0
102
RTVSPost2010PropOp41
 70
     1
102
RTVSPost2010Prop42
 90
       50
102
RTVSPost2010PropOp42
 70
     1
102
RTVSPost2010Prop43
 90
        3
102
RTVSPost2010PropOp43
 70
     1
102
RTVSPost2010Prop44ColorIndex
 90
        5
102
RTVSPost2010Prop44ColorRGB
 90
      255
102
RTVSPost2010PropOp44
 70
     1
102
RTVSPost2010Prop45
280
     0
102
RTVSPost2010PropOp45
 70
     1
102
RTVSPost2010Prop46
 90
       50
102
RTVSPost2010PropOp46
 70
     1
102
RTVSPost2010Prop47
 90
       50
102
RTVSPost2010PropOp47
 70
     1
102
RTVSPost2010Prop48
 90
       50
102
RTVSPost2010PropOp48
 70
     1
102
RTVSPost2010Prop49
280
     0
102
RTVSPost2010PropOp49
 70
     1
102
RTVSPost2010Prop50
 90
       50
102
RTVSPost2010PropOp50
 70
     1
102
RTVSPost2010Prop51ColorIndex
 90
      256
102
RTVSPost2010Prop51ColorRGB
 90
-16777216
102
RTVSPost2010PropOp51
 70
     0
102
RTVSPost2010Prop52
140
1.0
102
RTVSPost2010PropOp52
 70
     0
102
RTVSPost2010Prop53
 90
        2
102
RTVSPost2010PropOp53
 70
     1
102
RTVSPost2010Prop54
  1
strokes_ogs.tif
102
RTVSPost2010PropOp54
 70
     1
102
RTVSPost2010Prop55
280
     0
102
RTVSPost2010PropOp55
 70
     1
102
RTVSPost2010Prop56
140
1.0
102
RTVSPost2010PropOp56
 70
     1
102
RTVSPost2010Prop57
140
1.0
102
RTVSPost2010PropOp57
 70
     1
  0
XRECORD
  5
186
102
{ACAD_REACTORS
330
185
102
}
330
185
100
AcDbXrecord
280
     1
102
RTVSPropertyOp0
 70
     1
102
RTVSPropertyOp1
 70
     1
102
RTVSPropertyOp2
 70
     1
102
RTVSPropertyOp3
 70
     1
102
RTVSPropertyOp4
 70
     1
102
RTVSPropertyOp5
 70
     1
102
RTVSPropertyOp6
 70
     1
102
RTVSPropertyOp7
 70
     1
102
RTVSPropertyOp8
 70
     1
102
RTVSPropertyOp9
 70
     1
102
RTVSPropertyOp10
 70
     1
102
RTVSPropertyOp11
 70
     1
102
RTVSPropertyOp12
 70
     1
102
RTVSPropertyOp13
 70
     1
102
RTVSPropertyOp14
 70
     1
102
RTVSPropertyOp15
 70
     1
102
RTVSPropertyOp16
 70
     1
102
RTVSPropertyOp17
 70
     1
102
RTVSPropertyOp18
 70
     1
102
RTVSPropertyOp19
 70
     1
102
RTVSPropertyOp20
 70
     1
102
RTVSPropertyOp21
 70
     1
102
RTVSPropertyOp22
 70
     1
102
RTVSPropertyOp23
 70
     1
102
RTVSPropertyOp24
 70
     1
102
RTVSPropertyOp25
 70
     1
102
RTVSPropertyOp26
 70
     1
102
RTVSPropertyOp27
 70
     1
102
RTVSPropertyOp28
 70
     1
102
RTVSPropertyOp29
 70
     1
102
RTVSPropertyOp30
 70
     1
102
RTVSPropertyOp31
 70
     1
102
RTVSPropertyOp32
 70
     1
102
RTVSPropertyOp33
 70
     1
102
RTVSPropertyOp34
 70
     1
102
RTVSPropertyOp35
 70
     1
102
RTVSPropertyOp36
 70
     1
102
RTVSPropertyOp37
 70
     1
102
RTVSPropertyOp38
 70
     1
102
RTVSPropertyOp39
 70
     1
102
RTVSPropertyOp40
 70
     1
102
RTVSPropertyOp41
 70
     1
102
RTVSPropertyOp42
 70
     1
102
RTVSPropertyOp43
 70
     1
102
RTVSPropertyOp44
 70
     1
102
RTVSPropertyOp45
 70
     1
102
RTVSPropertyOp46
 70
     1
102
RTVSPropertyOp47
 70
     1
102
RTVSPropertyOp48
 70
     1
102
RTVSPropertyOp49
 70
     1
102
RTVSPropertyOp50
 70
     1
102
RTVSPropertyOp51
 70
     0
102
RTVSPropertyOp52
 70
     0
102
RTVSPropertyOp53
 70
     1
102
RTVSPropertyOp54
 70
     1
102
RTVSPropertyOp55
 70
     1
102
RTVSPropertyOp56
 70
     1
102
RTVSPropertyOp57
 70
     1
102
RTVSPost2010Prop28
280
     0
102
RTVSPost2010PropOp28
 70
     1
102
RTVSPost2010Prop29
280
     1
102
RTVSPost2010PropOp29
 70
     1
102
RTVSPost2010Prop30
280
     1
102
RTVSPost2010PropOp30
 70
     1
102
RTVSPost2010Prop31
280
     0
102
RTVSPost2010PropOp31
 70
     1
102
RTVSPost2010Prop32
280
     0
102
RTVSPost2010PropOp32
 70
     1
102
RTVSPost2010Prop33
280
     0
102
RTVSPost2010PropOp33
 70
     1
102
RTVSPost2010Prop34
280
     0
102
RTVSPost2010PropOp34
 70
     1
102
RTVSPost2010Prop35
280
     0
102
RTVSPost2010PropOp35
 70
     1
102
RTVSPost2010Prop36
280
     0
102
RTVSPost2010PropOp36
 70
     1
102
RTVSPost2010Prop37
 90
       50
102
RTVSPost2010PropOp37
 70
     1
102
RTVSPost2010Prop38
140
0.0
102
RTVSPost2010PropOp38
 70
     1
102
RTVSPost2010Prop39
140
1.0
102
RTVSPost2010PropOp39
 70
     1
102
RTVSPost2010Prop40
 90
        0
102
RTVSPost2010PropOp40
 70
     1
102
RTVSPost2010Prop41ColorIndex
 90
       18
102
RTVSPost2010Prop41ColorRGB
 90
        0
102
RTVSPost2010PropOp41
 70
     1
102
RTVSPost2010Prop42
 90
       50
102
RTVSPost2010PropOp42
 70
     1
102
RTVSPost2010Prop43
 90
        3
102
RTVSPost2010PropOp43
 70
     1
102
RTVSPost2010Prop44ColorIndex
 90
        5
102
RTVSPost2010Prop44ColorRGB
 90
      255
102
RTVSPost2010PropOp44
 70
     1
102
RTVSPost2010Prop45
280
     0
102
RTVSPost2010PropOp45
 70
     1
102
RTVSPost2010Prop46
 90
       50
102
RTVSPost2010PropOp46
 70
     1
102
RTVSPost2010Prop47
 90
       50
102
RTVSPost2010PropOp47
 70
     1
102
RTVSPost2010Prop48
 90
       50
102
RTVSPost2010PropOp48
 70
     1
102
RTVSPost2010Prop49
280
     0
102
RTVSPost2010PropOp49
 70
     1
102
RTVSPost2010Prop50
 90
       50
102
RTVSPost2010PropOp50
 70
     1
102
RTVSPost2010Prop51ColorIndex
 90
      256
102
RTVSPost2010Prop51ColorRGB
 90
-16777216
102
RTVSPost2010PropOp51
 70
     0
102
RTVSPost2010Prop52
140
1.0
102
RTVSPost2010PropOp52
 70
     0
102
RTVSPost2010Prop53
 90
        2
102
RTVSPost2010PropOp53
 70
     1
102
RTVSPost2010Prop54
  1
strokes_ogs.tif
102
RTVSPost2010PropOp54
 70
     1
102
RTVSPost2010Prop55
280
     0
102
RTVSPost2010PropOp55
 70
     1
102
RTVSPost2010Prop56
140
1.0
102
RTVSPost2010PropOp56
 70
     1
102
RTVSPost2010Prop57
140
1.0
102
RTVSPost2010PropOp57
 70
     1
  0
XRECORD
  5
188
102
{ACAD_REACTORS
330
187
102
}
330
187
100
AcDbXrecord
280
     1
102
RTVSPropertyOp0
 70
     1
102
RTVSPropertyOp1
 70
     1
102
RTVSPropertyOp2
 70
     1
102
RTVSPropertyOp3
 70
     1
102
RTVSPropertyOp4
 70
     1
102
RTVSPropertyOp5
 70
     1
102
RTVSPropertyOp6
 70
     1
102
RTVSPropertyOp7
 70
     1
102
RTVSPropertyOp8
 70
     1
102
RTVSPropertyOp9
 70
     1
102
RTVSPropertyOp10
 70
     1
102
RTVSPropertyOp11
 70
     1
102
RTVSPropertyOp12
 70
     1
102
RTVSPropertyOp13
 70
     1
102
RTVSPropertyOp14
 70
     1
102
RTVSPropertyOp15
 70
     1
102
RTVSPropertyOp16
 70
     1
102
RTVSPropertyOp17
 70
     1
102
RTVSPropertyOp18
 70
     1
102
RTVSPropertyOp19
 70
     1
102
RTVSPropertyOp20
 70
     1
102
RTVSPropertyOp21
 70
     1
102
RTVSPropertyOp22
 70
     1
102
RTVSPropertyOp23
 70
     1
102
RTVSPropertyOp24
 70
     1
102
RTVSPropertyOp25
 70
     1
102
RTVSPropertyOp26
 70
     1
102
RTVSPropertyOp27
 70
     1
102
RTVSPropertyOp28
 70
     1
102
RTVSPropertyOp29
 70
     1
102
RTVSPropertyOp30
 70
     1
102
RTVSPropertyOp31
 70
     1
102
RTVSPropertyOp32
 70
     1
102
RTVSPropertyOp33
 70
     1
102
RTVSPropertyOp34
 70
     1
102
RTVSPropertyOp35
 70
     1
102
RTVSPropertyOp36
 70
     1
102
RTVSPropertyOp37
 70
     1
102
RTVSPropertyOp38
 70
     1
102
RTVSPropertyOp39
 70
     1
102
RTVSPropertyOp40
 70
     1
102
RTVSPropertyOp41
 70
     1
102
RTVSPropertyOp42
 70
     1
102
RTVSPropertyOp43
 70
     1
102
RTVSPropertyOp44
 70
     1
102
RTVSPropertyOp45
 70
     1
102
RTVSPropertyOp46
 70
     1
102
RTVSPropertyOp47
 70
     1
102
RTVSPropertyOp48
 70
     1
102
RTVSPropertyOp49
 70
     1
102
RTVSPropertyOp50
 70
     1
102
RTVSPropertyOp51
 70
     0
102
RTVSPropertyOp52
 70
     0
102
RTVSPropertyOp53
 70
     1
102
RTVSPropertyOp54
 70
     1
102
RTVSPropertyOp55
 70
     1
102
RTVSPropertyOp56
 70
     1
102
RTVSPropertyOp57
 70
     1
102
RTVSPost2010Prop28
280
     0
102
RTVSPost2010PropOp28
 70
     1
102
RTVSPost2010Prop29
280
     1
102
RTVSPost2010PropOp29
 70
     1
102
RTVSPost2010Prop30
280
     1
102
RTVSPost2010PropOp30
 70
     1
102
RTVSPost2010Prop31
280
     0
102
RTVSPost2010PropOp31
 70
     1
102
RTVSPost2010Prop32
280
     0
102
RTVSPost2010PropOp32
 70
     1
102
RTVSPost2010Prop33
280
     0
102
RTVSPost2010PropOp33
 70
     1
102
RTVSPost2010Prop34
280
     0
102
RTVSPost2010PropOp34
 70
     1
102
RTVSPost2010Prop35
280
     0
102
RTVSPost2010PropOp35
 70
     1
102
RTVSPost2010Prop36
280
     0
102
RTVSPost2010PropOp36
 70
     1
102
RTVSPost2010Prop37
 90
       50
102
RTVSPost2010PropOp37
 70
     1
102
RTVSPost2010Prop38
140
0.0
102
RTVSPost2010PropOp38
 70
     1
102
RTVSPost2010Prop39
140
1.0
102
RTVSPost2010PropOp39
 70
     1
102
RTVSPost2010Prop40
 90
        0
102
RTVSPost2010PropOp40
 70
     1
102
RTVSPost2010Prop41ColorIndex
 90
       18
102
RTVSPost2010Prop41ColorRGB
 90
        0
102
RTVSPost2010PropOp41
 70
     1
102
RTVSPost2010Prop42
 90
       50
102
RTVSPost2010PropOp42
 70
     1
102
RTVSPost2010Prop43
 90
        3
102
RTVSPost2010PropOp43
 70
     1
102
RTVSPost2010Prop44ColorIndex
 90
        5
102
RTVSPost2010Prop44ColorRGB
 90
      255
102
RTVSPost2010PropOp44
 70
     1
102
RTVSPost2010Prop45
280
     0
102
RTVSPost2010PropOp45
 70
     1
102
RTVSPost2010Prop46
 90
       50
102
RTVSPost2010PropOp46
 70
     1
102
RTVSPost2010Prop47
 90
       50
102
RTVSPost2010PropOp47
 70
     1
102
RTVSPost2010Prop48
 90
       50
102
RTVSPost2010PropOp48
 70
     1
102
RTVSPost2010Prop49
280
     0
102
RTVSPost2010PropOp49
 70
     1
102
RTVSPost2010Prop50
 90
       50
102
RTVSPost2010PropOp50
 70
     1
102
RTVSPost2010Prop51ColorIndex
 90
      256
102
RTVSPost2010Prop51ColorRGB
 90
-16777216
102
RTVSPost2010PropOp51
 70
     0
102
RTVSPost2010Prop52
140
1.0
102
RTVSPost2010PropOp52
 70
     0
102
RTVSPost2010Prop53
 90
        2
102
RTVSPost2010PropOp53
 70
     1
102
RTVSPost2010Prop54
  1
strokes_ogs.tif
102
RTVSPost2010PropOp54
 70
     1
102
RTVSPost2010Prop55
280
     0
102
RTVSPost2010PropOp55
 70
     1
102
RTVSPost2010Prop56
140
1.0
102
RTVSPost2010PropOp56
 70
     1
102
RTVSPost2010Prop57
140
1.0
102
RTVSPost2010PropOp57
 70
     1
  0
XRECORD
  5
198
102
{ACAD_REACTORS
330
197
102
}
330
197
100
AcDbXrecord
280
     1
102
RTVSPropertyOp0
 70
     0
102
RTVSPropertyOp1
 70
     0
102
RTVSPropertyOp2
 70
     0
102
RTVSPropertyOp3
 70
     0
102
RTVSPropertyOp4
 70
     0
102
RTVSPropertyOp5
 70
     0
102
RTVSPropertyOp6
 70
     0
102
RTVSPropertyOp7
 70
     0
102
RTVSPropertyOp8
 70
     0
102
RTVSPropertyOp9
 70
     0
102
RTVSPropertyOp10
 70
     0
102
RTVSPropertyOp11
 70
     0
102
RTVSPropertyOp12
 70
     0
102
RTVSPropertyOp13
 70
     0
102
RTVSPropertyOp14
 70
     2
102
RTVSPropertyOp15
 70
     0
102
RTVSPropertyOp16
 70
     0
102
RTVSPropertyOp17
 70
     0
102
RTVSPropertyOp18
 70
     0
102
RTVSPropertyOp19
 70
     0
102
RTVSPropertyOp20
 70
     0
102
RTVSPropertyOp21
 70
     0
102
RTVSPropertyOp22
 70
     0
102
RTVSPropertyOp23
 70
     0
102
RTVSPropertyOp24
 70
     0
102
RTVSPropertyOp25
 70
     0
102
RTVSPropertyOp26
 70
     0
102
RTVSPropertyOp27
 70
     0
102
RTVSPropertyOp28
 70
     0
102
RTVSPropertyOp29
 70
     0
102
RTVSPropertyOp30
 70
     0
102
RTVSPropertyOp31
 70
     0
102
RTVSPropertyOp32
 70
     0
102
RTVSPropertyOp33
 70
     0
102
RTVSPropertyOp34
 70
     0
102
RTVSPropertyOp35
 70
     0
102
RTVSPropertyOp36
 70
     0
102
RTVSPropertyOp37
 70
     0
102
RTVSPropertyOp38
 70
     0
102
RTVSPropertyOp39
 70
     0
102
RTVSPropertyOp40
 70
     0
102
RTVSPropertyOp41
 70
     0
102
RTVSPropertyOp42
 70
     0
102
RTVSPropertyOp43
 70
     0
102
RTVSPropertyOp44
 70
     0
102
RTVSPropertyOp45
 70
     0
102
RTVSPropertyOp46
 70
     0
102
RTVSPropertyOp47
 70
     0
102
RTVSPropertyOp48
 70
     0
102
RTVSPropertyOp49
 70
     0
102
RTVSPropertyOp50
 70
     0
102
RTVSPropertyOp51
 70
     0
102
RTVSPropertyOp52
 70
     0
102
RTVSPropertyOp53
 70
     0
102
RTVSPropertyOp54
 70
     0
102
RTVSPropertyOp55
 70
     0
102
RTVSPropertyOp56
 70
     0
102
RTVSPropertyOp57
 70
     0
102
RTVSPost2010Prop28
280
     0
102
RTVSPost2010PropOp28
 70
     0
102
RTVSPost2010Prop29
280
     1
102
RTVSPost2010PropOp29
 70
     0
102
RTVSPost2010Prop30
280
     1
102
RTVSPost2010PropOp30
 70
     0
102
RTVSPost2010Prop31
280
     0
102
RTVSPost2010PropOp31
 70
     0
102
RTVSPost2010Prop32
280
     0
102
RTVSPost2010PropOp32
 70
     0
102
RTVSPost2010Prop33
280
     0
102
RTVSPost2010PropOp33
 70
     0
102
RTVSPost2010Prop34
280
     0
102
RTVSPost2010PropOp34
 70
     0
102
RTVSPost2010Prop35
280
     0
102
RTVSPost2010PropOp35
 70
     0
102
RTVSPost2010Prop36
280
     0
102
RTVSPost2010PropOp36
 70
     0
102
RTVSPost2010Prop37
 90
       50
102
RTVSPost2010PropOp37
 70
     0
102
RTVSPost2010Prop38
140
0.0
102
RTVSPost2010PropOp38
 70
     0
102
RTVSPost2010Prop39
140
1.0
102
RTVSPost2010PropOp39
 70
     0
102
RTVSPost2010Prop40
 90
        0
102
RTVSPost2010PropOp40
 70
     0
102
RTVSPost2010Prop41ColorIndex
 90
       18
102
RTVSPost2010Prop41ColorRGB
 90
        0
102
RTVSPost2010PropOp41
 70
     0
102
RTVSPost2010Prop42
 90
       50
102
RTVSPost2010PropOp42
 70
     0
102
RTVSPost2010Prop43
 90
        3
102
RTVSPost2010PropOp43
 70
     0
102
RTVSPost2010Prop44ColorIndex
 90
        5
102
RTVSPost2010Prop44ColorRGB
 90
      255
102
RTVSPost2010PropOp44
 70
     0
102
RTVSPost2010Prop45
280
     0
102
RTVSPost2010PropOp45
 70
     0
102
RTVSPost2010Prop46
 90
       50
102
RTVSPost2010PropOp46
 70
     0
102
RTVSPost2010Prop47
 90
       50
102
RTVSPost2010PropOp47
 70
     0
102
RTVSPost2010Prop48
 90
       50
102
RTVSPost2010PropOp48
 70
     0
102
RTVSPost2010Prop49
280
     0
102
RTVSPost2010PropOp49
 70
     0
102
RTVSPost2010Prop50
 90
       50
102
RTVSPost2010PropOp50
 70
     0
102
RTVSPost2010Prop51ColorIndex
 90
      256
102
RTVSPost2010Prop51ColorRGB
 90
-16777216
102
RTVSPost2010PropOp51
 70
     0
102
RTVSPost2010Prop52
140
1.0
102
RTVSPost2010PropOp52
 70
     0
102
RTVSPost2010Prop53
 90
        2
102
RTVSPost2010PropOp53
 70
     0
102
RTVSPost2010Prop54
  1
strokes_ogs.tif
102
RTVSPost2010PropOp54
 70
     0
102
RTVSPost2010Prop55
280
     0
102
RTVSPost2010PropOp55
 70
     0
102
RTVSPost2010Prop56
140
1.0
102
RTVSPost2010PropOp56
 70
     0
102
RTVSPost2010Prop57
140
1.0
102
RTVSPost2010PropOp57
 70
     0
  0
XRECORD
  5
190
102
{ACAD_REACTORS
330
18F
102
}
330
18F
100
AcDbXrecord
280
     1
102
RTVSPropertyOp0
 70
     1
102
RTVSPropertyOp1
 70
     1
102
RTVSPropertyOp2
 70
     1
102
RTVSPropertyOp3
 70
     1
102
RTVSPropertyOp4
 70
     1
102
RTVSPropertyOp5
 70
     1
102
RTVSPropertyOp6
 70
     1
102
RTVSPropertyOp7
 70
     1
102
RTVSPropertyOp8
 70
     1
102
RTVSPropertyOp9
 70
     1
102
RTVSPropertyOp10
 70
     1
102
RTVSPropertyOp11
 70
     1
102
RTVSPropertyOp12
 70
     1
102
RTVSPropertyOp13
 70
     1
102
RTVSPropertyOp14
 70
     1
102
RTVSPropertyOp15
 70
     1
102
RTVSPropertyOp16
 70
     1
102
RTVSPropertyOp17
 70
     1
102
RTVSPropertyOp18
 70
     1
102
RTVSPropertyOp19
 70
     1
102
RTVSPropertyOp20
 70
     1
102
RTVSPropertyOp21
 70
     1
102
RTVSPropertyOp22
 70
     1
102
RTVSPropertyOp23
 70
     1
102
RTVSPropertyOp24
 70
     1
102
RTVSPropertyOp25
 70
     1
102
RTVSPropertyOp26
 70
     1
102
RTVSPropertyOp27
 70
     1
102
RTVSPropertyOp28
 70
     1
102
RTVSPropertyOp29
 70
     1
102
RTVSPropertyOp30
 70
     1
102
RTVSPropertyOp31
 70
     1
102
RTVSPropertyOp32
 70
     1
102
RTVSPropertyOp33
 70
     1
102
RTVSPropertyOp34
 70
     1
102
RTVSPropertyOp35
 70
     1
102
RTVSPropertyOp36
 70
     1
102
RTVSPropertyOp37
 70
     1
102
RTVSPropertyOp38
 70
     1
102
RTVSPropertyOp39
 70
     1
102
RTVSPropertyOp40
 70
     1
102
RTVSPropertyOp41
 70
     1
102
RTVSPropertyOp42
 70
     1
102
RTVSPropertyOp43
 70
     1
102
RTVSPropertyOp44
 70
     1
102
RTVSPropertyOp45
 70
     1
102
RTVSPropertyOp46
 70
     1
102
RTVSPropertyOp47
 70
     1
102
RTVSPropertyOp48
 70
     1
102
RTVSPropertyOp49
 70
     1
102
RTVSPropertyOp50
 70
     1
102
RTVSPropertyOp51
 70
     0
102
RTVSPropertyOp52
 70
     0
102
RTVSPropertyOp53
 70
     1
102
RTVSPropertyOp54
 70
     1
102
RTVSPropertyOp55
 70
     1
102
RTVSPropertyOp56
 70
     1
102
RTVSPropertyOp57
 70
     1
102
RTVSPost2010Prop28
280
     0
102
RTVSPost2010PropOp28
 70
     1
102
RTVSPost2010Prop29
280
     1
102
RTVSPost2010PropOp29
 70
     1
102
RTVSPost2010Prop30
280
     1
102
RTVSPost2010PropOp30
 70
     1
102
RTVSPost2010Prop31
280
     0
102
RTVSPost2010PropOp31
 70
     1
102
RTVSPost2010Prop32
280
     0
102
RTVSPost2010PropOp32
 70
     1
102
RTVSPost2010Prop33
280
     0
102
RTVSPost2010PropOp33
 70
     1
102
RTVSPost2010Prop34
280
     0
102
RTVSPost2010PropOp34
 70
     1
102
RTVSPost2010Prop35
280
     0
102
RTVSPost2010PropOp35
 70
     1
102
RTVSPost2010Prop36
280
     0
102
RTVSPost2010PropOp36
 70
     1
102
RTVSPost2010Prop37
 90
       50
102
RTVSPost2010PropOp37
 70
     1
102
RTVSPost2010Prop38
140
0.0
102
RTVSPost2010PropOp38
 70
     1
102
RTVSPost2010Prop39
140
1.0
102
RTVSPost2010PropOp39
 70
     1
102
RTVSPost2010Prop40
 90
        0
102
RTVSPost2010PropOp40
 70
     1
102
RTVSPost2010Prop41ColorIndex
 90
       18
102
RTVSPost2010Prop41ColorRGB
 90
        0
102
RTVSPost2010PropOp41
 70
     1
102
RTVSPost2010Prop42
 90
       50
102
RTVSPost2010PropOp42
 70
     1
102
RTVSPost2010Prop43
 90
        3
102
RTVSPost2010PropOp43
 70
     1
102
RTVSPost2010Prop44ColorIndex
 90
        5
102
RTVSPost2010Prop44ColorRGB
 90
      255
102
RTVSPost2010PropOp44
 70
     1
102
RTVSPost2010Prop45
280
     0
102
RTVSPost2010PropOp45
 70
     1
102
RTVSPost2010Prop46
 90
       50
102
RTVSPost2010PropOp46
 70
     1
102
RTVSPost2010Prop47
 90
       50
102
RTVSPost2010PropOp47
 70
     1
102
RTVSPost2010Prop48
 90
       50
102
RTVSPost2010PropOp48
 70
     1
102
RTVSPost2010Prop49
280
     0
102
RTVSPost2010PropOp49
 70
     1
102
RTVSPost2010Prop50
 90
       50
102
RTVSPost2010PropOp50
 70
     1
102
RTVSPost2010Prop51ColorIndex
 90
      256
102
RTVSPost2010Prop51ColorRGB
 90
-16777216
102
RTVSPost2010PropOp51
 70
     0
102
RTVSPost2010Prop52
140
1.0
102
RTVSPost2010PropOp52
 70
     0
102
RTVSPost2010Prop53
 90
        2
102
RTVSPost2010PropOp53
 70
     1
102
RTVSPost2010Prop54
  1
strokes_ogs.tif
102
RTVSPost2010PropOp54
 70
     1
102
RTVSPost2010Prop55
280
     0
102
RTVSPost2010PropOp55
 70
     1
102
RTVSPost2010Prop56
140
1.0
102
RTVSPost2010PropOp56
 70
     1
102
RTVSPost2010Prop57
140
1.0
102
RTVSPost2010PropOp57
 70
     1
  0
XRECORD
  5
174
102
{ACAD_REACTORS
330
173
102
}
330
173
100
AcDbXrecord
280
     1
102
RTVSPropertyOp0
 70
     1
102
RTVSPropertyOp1
 70
     1
102
RTVSPropertyOp2
 70
     1
102
RTVSPropertyOp3
 70
     1
102
RTVSPropertyOp4
 70
     1
102
RTVSPropertyOp5
 70
     1
102
RTVSPropertyOp6
 70
     1
102
RTVSPropertyOp7
 70
     1
102
RTVSPropertyOp8
 70
     1
102
RTVSPropertyOp9
 70
     1
102
RTVSPropertyOp10
 70
     1
102
RTVSPropertyOp11
 70
     1
102
RTVSPropertyOp12
 70
     1
102
RTVSPropertyOp13
 70
     1
102
RTVSPropertyOp14
 70
     1
102
RTVSPropertyOp15
 70
     1
102
RTVSPropertyOp16
 70
     1
102
RTVSPropertyOp17
 70
     1
102
RTVSPropertyOp18
 70
     1
102
RTVSPropertyOp19
 70
     1
102
RTVSPropertyOp20
 70
     1
102
RTVSPropertyOp21
 70
     1
102
RTVSPropertyOp22
 70
     1
102
RTVSPropertyOp23
 70
     1
102
RTVSPropertyOp24
 70
     1
102
RTVSPropertyOp25
 70
     1
102
RTVSPropertyOp26
 70
     1
102
RTVSPropertyOp27
 70
     1
102
RTVSPropertyOp28
 70
     1
102
RTVSPropertyOp29
 70
     1
102
RTVSPropertyOp30
 70
     1
102
RTVSPropertyOp31
 70
     1
102
RTVSPropertyOp32
 70
     1
102
RTVSPropertyOp33
 70
     1
102
RTVSPropertyOp34
 70
     1
102
RTVSPropertyOp35
 70
     1
102
RTVSPropertyOp36
 70
     1
102
RTVSPropertyOp37
 70
     1
102
RTVSPropertyOp38
 70
     1
102
RTVSPropertyOp39
 70
     1
102
RTVSPropertyOp40
 70
     1
102
RTVSPropertyOp41
 70
     1
102
RTVSPropertyOp42
 70
     1
102
RTVSPropertyOp43
 70
     1
102
RTVSPropertyOp44
 70
     1
102
RTVSPropertyOp45
 70
     1
102
RTVSPropertyOp46
 70
     1
102
RTVSPropertyOp47
 70
     1
102
RTVSPropertyOp48
 70
     1
102
RTVSPropertyOp49
 70
     1
102
RTVSPropertyOp50
 70
     1
102
RTVSPropertyOp51
 70
     0
102
RTVSPropertyOp52
 70
     0
102
RTVSPropertyOp53
 70
     1
102
RTVSPropertyOp54
 70
     1
102
RTVSPropertyOp55
 70
     1
102
RTVSPropertyOp56
 70
     1
102
RTVSPropertyOp57
 70
     1
102
RTVSPost2010Prop28
280
     0
102
RTVSPost2010PropOp28
 70
     1
102
RTVSPost2010Prop29
280
     1
102
RTVSPost2010PropOp29
 70
     1
102
RTVSPost2010Prop30
280
     1
102
RTVSPost2010PropOp30
 70
     1
102
RTVSPost2010Prop31
280
     0
102
RTVSPost2010PropOp31
 70
     1
102
RTVSPost2010Prop32
280
     0
102
RTVSPost2010PropOp32
 70
     1
102
RTVSPost2010Prop33
280
     0
102
RTVSPost2010PropOp33
 70
     1
102
RTVSPost2010Prop34
280
     0
102
RTVSPost2010PropOp34
 70
     1
102
RTVSPost2010Prop35
280
     0
102
RTVSPost2010PropOp35
 70
     1
102
RTVSPost2010Prop36
280
     0
102
RTVSPost2010PropOp36
 70
     1
102
RTVSPost2010Prop37
 90
       50
102
RTVSPost2010PropOp37
 70
     1
102
RTVSPost2010Prop38
140
0.0
102
RTVSPost2010PropOp38
 70
     1
102
RTVSPost2010Prop39
140
1.0
102
RTVSPost2010PropOp39
 70
     1
102
RTVSPost2010Prop40
 90
        0
102
RTVSPost2010PropOp40
 70
     1
102
RTVSPost2010Prop41ColorIndex
 90
       18
102
RTVSPost2010Prop41ColorRGB
 90
        0
102
RTVSPost2010PropOp41
 70
     1
102
RTVSPost2010Prop42
 90
       50
102
RTVSPost2010PropOp42
 70
     1
102
RTVSPost2010Prop43
 90
        3
102
RTVSPost2010PropOp43
 70
     1
102
RTVSPost2010Prop44ColorIndex
 90
        5
102
RTVSPost2010Prop44ColorRGB
 90
      255
102
RTVSPost2010PropOp44
 70
     1
102
RTVSPost2010Prop45
280
     0
102
RTVSPost2010PropOp45
 70
     1
102
RTVSPost2010Prop46
 90
       50
102
RTVSPost2010PropOp46
 70
     1
102
RTVSPost2010Prop47
 90
       50
102
RTVSPost2010PropOp47
 70
     1
102
RTVSPost2010Prop48
 90
       50
102
RTVSPost2010PropOp48
 70
     1
102
RTVSPost2010Prop49
280
     0
102
RTVSPost2010PropOp49
 70
     1
102
RTVSPost2010Prop50
 90
       50
102
RTVSPost2010PropOp50
 70
     1
102
RTVSPost2010Prop51ColorIndex
 90
      256
102
RTVSPost2010Prop51ColorRGB
 90
-16777216
102
RTVSPost2010PropOp51
 70
     0
102
RTVSPost2010Prop52
140
1.0
102
RTVSPost2010PropOp52
 70
     0
102
RTVSPost2010Prop53
 90
        2
102
RTVSPost2010PropOp53
 70
     1
102
RTVSPost2010Prop54
  1
strokes_ogs.tif
102
RTVSPost2010PropOp54
 70
     1
102
RTVSPost2010Prop55
280
     0
102
RTVSPost2010PropOp55
 70
     1
102
RTVSPost2010Prop56
140
1.0
102
RTVSPost2010PropOp56
 70
     1
102
RTVSPost2010Prop57
140
1.0
102
RTVSPost2010PropOp57
 70
     1
  0
XRECORD
  5
176
102
{ACAD_REACTORS
330
175
102
}
330
175
100
AcDbXrecord
280
     1
102
RTVSPropertyOp0
 70
     1
102
RTVSPropertyOp1
 70
     1
102
RTVSPropertyOp2
 70
     1
102
RTVSPropertyOp3
 70
     1
102
RTVSPropertyOp4
 70
     1
102
RTVSPropertyOp5
 70
     1
102
RTVSPropertyOp6
 70
     1
102
RTVSPropertyOp7
 70
     1
102
RTVSPropertyOp8
 70
     1
102
RTVSPropertyOp9
 70
     1
102
RTVSPropertyOp10
 70
     1
102
RTVSPropertyOp11
 70
     1
102
RTVSPropertyOp12
 70
     1
102
RTVSPropertyOp13
 70
     1
102
RTVSPropertyOp14
 70
     1
102
RTVSPropertyOp15
 70
     1
102
RTVSPropertyOp16
 70
     1
102
RTVSPropertyOp17
 70
     1
102
RTVSPropertyOp18
 70
     1
102
RTVSPropertyOp19
 70
     1
102
RTVSPropertyOp20
 70
     1
102
RTVSPropertyOp21
 70
     1
102
RTVSPropertyOp22
 70
     1
102
RTVSPropertyOp23
 70
     1
102
RTVSPropertyOp24
 70
     1
102
RTVSPropertyOp25
 70
     1
102
RTVSPropertyOp26
 70
     1
102
RTVSPropertyOp27
 70
     1
102
RTVSPropertyOp28
 70
     1
102
RTVSPropertyOp29
 70
     1
102
RTVSPropertyOp30
 70
     1
102
RTVSPropertyOp31
 70
     1
102
RTVSPropertyOp32
 70
     1
102
RTVSPropertyOp33
 70
     1
102
RTVSPropertyOp34
 70
     1
102
RTVSPropertyOp35
 70
     1
102
RTVSPropertyOp36
 70
     1
102
RTVSPropertyOp37
 70
     1
102
RTVSPropertyOp38
 70
     1
102
RTVSPropertyOp39
 70
     1
102
RTVSPropertyOp40
 70
     1
102
RTVSPropertyOp41
 70
     1
102
RTVSPropertyOp42
 70
     1
102
RTVSPropertyOp43
 70
     1
102
RTVSPropertyOp44
 70
     1
102
RTVSPropertyOp45
 70
     1
102
RTVSPropertyOp46
 70
     1
102
RTVSPropertyOp47
 70
     1
102
RTVSPropertyOp48
 70
     1
102
RTVSPropertyOp49
 70
     1
102
RTVSPropertyOp50
 70
     1
102
RTVSPropertyOp51
 70
     0
102
RTVSPropertyOp52
 70
     0
102
RTVSPropertyOp53
 70
     1
102
RTVSPropertyOp54
 70
     1
102
RTVSPropertyOp55
 70
     1
102
RTVSPropertyOp56
 70
     1
102
RTVSPropertyOp57
 70
     1
102
RTVSPost2010Prop28
280
     0
102
RTVSPost2010PropOp28
 70
     1
102
RTVSPost2010Prop29
280
     1
102
RTVSPost2010PropOp29
 70
     1
102
RTVSPost2010Prop30
280
     1
102
RTVSPost2010PropOp30
 70
     1
102
RTVSPost2010Prop31
280
     0
102
RTVSPost2010PropOp31
 70
     1
102
RTVSPost2010Prop32
280
     0
102
RTVSPost2010PropOp32
 70
     1
102
RTVSPost2010Prop33
280
     0
102
RTVSPost2010PropOp33
 70
     1
102
RTVSPost2010Prop34
280
     0
102
RTVSPost2010PropOp34
 70
     1
102
RTVSPost2010Prop35
280
     0
102
RTVSPost2010PropOp35
 70
     1
102
RTVSPost2010Prop36
280
     0
102
RTVSPost2010PropOp36
 70
     1
102
RTVSPost2010Prop37
 90
       50
102
RTVSPost2010PropOp37
 70
     1
102
RTVSPost2010Prop38
140
0.0
102
RTVSPost2010PropOp38
 70
     1
102
RTVSPost2010Prop39
140
1.0
102
RTVSPost2010PropOp39
 70
     1
102
RTVSPost2010Prop40
 90
        0
102
RTVSPost2010PropOp40
 70
     1
102
RTVSPost2010Prop41ColorIndex
 90
       18
102
RTVSPost2010Prop41ColorRGB
 90
        0
102
RTVSPost2010PropOp41
 70
     1
102
RTVSPost2010Prop42
 90
       50
102
RTVSPost2010PropOp42
 70
     1
102
RTVSPost2010Prop43
 90
        3
102
RTVSPost2010PropOp43
 70
     1
102
RTVSPost2010Prop44ColorIndex
 90
        5
102
RTVSPost2010Prop44ColorRGB
 90
      255
102
RTVSPost2010PropOp44
 70
     1
102
RTVSPost2010Prop45
280
     0
102
RTVSPost2010PropOp45
 70
     1
102
RTVSPost2010Prop46
 90
       50
102
RTVSPost2010PropOp46
 70
     1
102
RTVSPost2010Prop47
 90
       50
102
RTVSPost2010PropOp47
 70
     1
102
RTVSPost2010Prop48
 90
       50
102
RTVSPost2010PropOp48
 70
     1
102
RTVSPost2010Prop49
280
     0
102
RTVSPost2010PropOp49
 70
     1
102
RTVSPost2010Prop50
 90
       50
102
RTVSPost2010PropOp50
 70
     1
102
RTVSPost2010Prop51ColorIndex
 90
      256
102
RTVSPost2010Prop51ColorRGB
 90
-16777216
102
RTVSPost2010PropOp51
 70
     0
102
RTVSPost2010Prop52
140
1.0
102
RTVSPost2010PropOp52
 70
     0
102
RTVSPost2010Prop53
 90
        2
102
RTVSPost2010PropOp53
 70
     1
102
RTVSPost2010Prop54
  1
strokes_ogs.tif
102
RTVSPost2010PropOp54
 70
     1
102
RTVSPost2010Prop55
280
     0
102
RTVSPost2010PropOp55
 70
     1
102
RTVSPost2010Prop56
140
1.0
102
RTVSPost2010PropOp56
 70
     1
102
RTVSPost2010Prop57
140
1.0
102
RTVSPost2010PropOp57
 70
     1
  0
XRECORD
  5
178
102
{ACAD_REACTORS
330
177
102
}
330
177
100
AcDbXrecord
280
     1
102
RTVSPropertyOp0
 70
     1
102
RTVSPropertyOp1
 70
     1
102
RTVSPropertyOp2
 70
     1
102
RTVSPropertyOp3
 70
     1
102
RTVSPropertyOp4
 70
     1
102
RTVSPropertyOp5
 70
     1
102
RTVSPropertyOp6
 70
     1
102
RTVSPropertyOp7
 70
     1
102
RTVSPropertyOp8
 70
     1
102
RTVSPropertyOp9
 70
     1
102
RTVSPropertyOp10
 70
     1
102
RTVSPropertyOp11
 70
     1
102
RTVSPropertyOp12
 70
     1
102
RTVSPropertyOp13
 70
     1
102
RTVSPropertyOp14
 70
     1
102
RTVSPropertyOp15
 70
     1
102
RTVSPropertyOp16
 70
     1
102
RTVSPropertyOp17
 70
     1
102
RTVSPropertyOp18
 70
     1
102
RTVSPropertyOp19
 70
     1
102
RTVSPropertyOp20
 70
     1
102
RTVSPropertyOp21
 70
     1
102
RTVSPropertyOp22
 70
     1
102
RTVSPropertyOp23
 70
     1
102
RTVSPropertyOp24
 70
     1
102
RTVSPropertyOp25
 70
     1
102
RTVSPropertyOp26
 70
     1
102
RTVSPropertyOp27
 70
     1
102
RTVSPropertyOp28
 70
     1
102
RTVSPropertyOp29
 70
     1
102
RTVSPropertyOp30
 70
     1
102
RTVSPropertyOp31
 70
     1
102
RTVSPropertyOp32
 70
     1
102
RTVSPropertyOp33
 70
     1
102
RTVSPropertyOp34
 70
     1
102
RTVSPropertyOp35
 70
     1
102
RTVSPropertyOp36
 70
     1
102
RTVSPropertyOp37
 70
     1
102
RTVSPropertyOp38
 70
     1
102
RTVSPropertyOp39
 70
     1
102
RTVSPropertyOp40
 70
     1
102
RTVSPropertyOp41
 70
     1
102
RTVSPropertyOp42
 70
     1
102
RTVSPropertyOp43
 70
     1
102
RTVSPropertyOp44
 70
     1
102
RTVSPropertyOp45
 70
     1
102
RTVSPropertyOp46
 70
     1
102
RTVSPropertyOp47
 70
     1
102
RTVSPropertyOp48
 70
     1
102
RTVSPropertyOp49
 70
     1
102
RTVSPropertyOp50
 70
     1
102
RTVSPropertyOp51
 70
     0
102
RTVSPropertyOp52
 70
     0
102
RTVSPropertyOp53
 70
     1
102
RTVSPropertyOp54
 70
     1
102
RTVSPropertyOp55
 70
     1
102
RTVSPropertyOp56
 70
     1
102
RTVSPropertyOp57
 70
     1
102
RTVSPost2010Prop28
280
     0
102
RTVSPost2010PropOp28
 70
     1
102
RTVSPost2010Prop29
280
     1
102
RTVSPost2010PropOp29
 70
     1
102
RTVSPost2010Prop30
280
     1
102
RTVSPost2010PropOp30
 70
     1
102
RTVSPost2010Prop31
280
     0
102
RTVSPost2010PropOp31
 70
     1
102
RTVSPost2010Prop32
280
     0
102
RTVSPost2010PropOp32
 70
     1
102
RTVSPost2010Prop33
280
     0
102
RTVSPost2010PropOp33
 70
     1
102
RTVSPost2010Prop34
280
     0
102
RTVSPost2010PropOp34
 70
     1
102
RTVSPost2010Prop35
280
     0
102
RTVSPost2010PropOp35
 70
     1
102
RTVSPost2010Prop36
280
     0
102
RTVSPost2010PropOp36
 70
     1
102
RTVSPost2010Prop37
 90
       50
102
RTVSPost2010PropOp37
 70
     1
102
RTVSPost2010Prop38
140
0.0
102
RTVSPost2010PropOp38
 70
     1
102
RTVSPost2010Prop39
140
1.0
102
RTVSPost2010PropOp39
 70
     1
102
RTVSPost2010Prop40
 90
        0
102
RTVSPost2010PropOp40
 70
     1
102
RTVSPost2010Prop41ColorIndex
 90
       18
102
RTVSPost2010Prop41ColorRGB
 90
        0
102
RTVSPost2010PropOp41
 70
     1
102
RTVSPost2010Prop42
 90
       50
102
RTVSPost2010PropOp42
 70
     1
102
RTVSPost2010Prop43
 90
        3
102
RTVSPost2010PropOp43
 70
     1
102
RTVSPost2010Prop44ColorIndex
 90
        5
102
RTVSPost2010Prop44ColorRGB
 90
      255
102
RTVSPost2010PropOp44
 70
     1
102
RTVSPost2010Prop45
280
     0
102
RTVSPost2010PropOp45
 70
     1
102
RTVSPost2010Prop46
 90
       50
102
RTVSPost2010PropOp46
 70
     1
102
RTVSPost2010Prop47
 90
       50
102
RTVSPost2010PropOp47
 70
     1
102
RTVSPost2010Prop48
 90
       50
102
RTVSPost2010PropOp48
 70
     1
102
RTVSPost2010Prop49
280
     0
102
RTVSPost2010PropOp49
 70
     1
102
RTVSPost2010Prop50
 90
       50
102
RTVSPost2010PropOp50
 70
     1
102
RTVSPost2010Prop51ColorIndex
 90
      256
102
RTVSPost2010Prop51ColorRGB
 90
-16777216
102
RTVSPost2010PropOp51
 70
     0
102
RTVSPost2010Prop52
140
1.0
102
RTVSPost2010PropOp52
 70
     0
102
RTVSPost2010Prop53
 90
        2
102
RTVSPost2010PropOp53
 70
     1
102
RTVSPost2010Prop54
  1
strokes_ogs.tif
102
RTVSPost2010PropOp54
 70
     1
102
RTVSPost2010Prop55
280
     0
102
RTVSPost2010PropOp55
 70
     1
102
RTVSPost2010Prop56
140
1.0
102
RTVSPost2010PropOp56
 70
     1
102
RTVSPost2010Prop57
140
1.0
102
RTVSPost2010PropOp57
 70
     1
  0
XRECORD
  5
17A
102
{ACAD_REACTORS
330
179
102
}
330
179
100
AcDbXrecord
280
     1
102
RTVSPropertyOp0
 70
     1
102
RTVSPropertyOp1
 70
     1
102
RTVSPropertyOp2
 70
     1
102
RTVSPropertyOp3
 70
     1
102
RTVSPropertyOp4
 70
     1
102
RTVSPropertyOp5
 70
     1
102
RTVSPropertyOp6
 70
     1
102
RTVSPropertyOp7
 70
     1
102
RTVSPropertyOp8
 70
     1
102
RTVSPropertyOp9
 70
     1
102
RTVSPropertyOp10
 70
     1
102
RTVSPropertyOp11
 70
     1
102
RTVSPropertyOp12
 70
     1
102
RTVSPropertyOp13
 70
     1
102
RTVSPropertyOp14
 70
     1
102
RTVSPropertyOp15
 70
     1
102
RTVSPropertyOp16
 70
     1
102
RTVSPropertyOp17
 70
     1
102
RTVSPropertyOp18
 70
     1
102
RTVSPropertyOp19
 70
     1
102
RTVSPropertyOp20
 70
     1
102
RTVSPropertyOp21
 70
     1
102
RTVSPropertyOp22
 70
     1
102
RTVSPropertyOp23
 70
     1
102
RTVSPropertyOp24
 70
     1
102
RTVSPropertyOp25
 70
     1
102
RTVSPropertyOp26
 70
     1
102
RTVSPropertyOp27
 70
     1
102
RTVSPropertyOp28
 70
     1
102
RTVSPropertyOp29
 70
     1
102
RTVSPropertyOp30
 70
     1
102
RTVSPropertyOp31
 70
     1
102
RTVSPropertyOp32
 70
     1
102
RTVSPropertyOp33
 70
     1
102
RTVSPropertyOp34
 70
     1
102
RTVSPropertyOp35
 70
     1
102
RTVSPropertyOp36
 70
     1
102
RTVSPropertyOp37
 70
     1
102
RTVSPropertyOp38
 70
     1
102
RTVSPropertyOp39
 70
     1
102
RTVSPropertyOp40
 70
     1
102
RTVSPropertyOp41
 70
     1
102
RTVSPropertyOp42
 70
     1
102
RTVSPropertyOp43
 70
     1
102
RTVSPropertyOp44
 70
     1
102
RTVSPropertyOp45
 70
     1
102
RTVSPropertyOp46
 70
     1
102
RTVSPropertyOp47
 70
     1
102
RTVSPropertyOp48
 70
     1
102
RTVSPropertyOp49
 70
     1
102
RTVSPropertyOp50
 70
     1
102
RTVSPropertyOp51
 70
     0
102
RTVSPropertyOp52
 70
     0
102
RTVSPropertyOp53
 70
     1
102
RTVSPropertyOp54
 70
     1
102
RTVSPropertyOp55
 70
     1
102
RTVSPropertyOp56
 70
     1
102
RTVSPropertyOp57
 70
     1
102
RTVSPost2010Prop28
280
     0
102
RTVSPost2010PropOp28
 70
     1
102
RTVSPost2010Prop29
280
     1
102
RTVSPost2010PropOp29
 70
     1
102
RTVSPost2010Prop30
280
     1
102
RTVSPost2010PropOp30
 70
     1
102
RTVSPost2010Prop31
280
     0
102
RTVSPost2010PropOp31
 70
     1
102
RTVSPost2010Prop32
280
     0
102
RTVSPost2010PropOp32
 70
     1
102
RTVSPost2010Prop33
280
     0
102
RTVSPost2010PropOp33
 70
     1
102
RTVSPost2010Prop34
280
     0
102
RTVSPost2010PropOp34
 70
     1
102
RTVSPost2010Prop35
280
     0
102
RTVSPost2010PropOp35
 70
     1
102
RTVSPost2010Prop36
280
     0
102
RTVSPost2010PropOp36
 70
     1
102
RTVSPost2010Prop37
 90
       50
102
RTVSPost2010PropOp37
 70
     1
102
RTVSPost2010Prop38
140
0.0
102
RTVSPost2010PropOp38
 70
     1
102
RTVSPost2010Prop39
140
1.0
102
RTVSPost2010PropOp39
 70
     1
102
RTVSPost2010Prop40
 90
        0
102
RTVSPost2010PropOp40
 70
     1
102
RTVSPost2010Prop41ColorIndex
 90
       18
102
RTVSPost2010Prop41ColorRGB
 90
        0
102
RTVSPost2010PropOp41
 70
     1
102
RTVSPost2010Prop42
 90
       50
102
RTVSPost2010PropOp42
 70
     1
102
RTVSPost2010Prop43
 90
        3
102
RTVSPost2010PropOp43
 70
     1
102
RTVSPost2010Prop44ColorIndex
 90
        5
102
RTVSPost2010Prop44ColorRGB
 90
      255
102
RTVSPost2010PropOp44
 70
     1
102
RTVSPost2010Prop45
280
     0
102
RTVSPost2010PropOp45
 70
     1
102
RTVSPost2010Prop46
 90
       50
102
RTVSPost2010PropOp46
 70
     1
102
RTVSPost2010Prop47
 90
       50
102
RTVSPost2010PropOp47
 70
     1
102
RTVSPost2010Prop48
 90
       50
102
RTVSPost2010PropOp48
 70
     1
102
RTVSPost2010Prop49
280
     0
102
RTVSPost2010PropOp49
 70
     1
102
RTVSPost2010Prop50
 90
       50
102
RTVSPost2010PropOp50
 70
     1
102
RTVSPost2010Prop51ColorIndex
 90
      256
102
RTVSPost2010Prop51ColorRGB
 90
-16777216
102
RTVSPost2010PropOp51
 70
     0
102
RTVSPost2010Prop52
140
1.0
102
RTVSPost2010PropOp52
 70
     0
102
RTVSPost2010Prop53
 90
        2
102
RTVSPost2010PropOp53
 70
     1
102
RTVSPost2010Prop54
  1
strokes_ogs.tif
102
RTVSPost2010PropOp54
 70
     1
102
RTVSPost2010Prop55
280
     0
102
RTVSPost2010PropOp55
 70
     1
102
RTVSPost2010Prop56
140
1.0
102
RTVSPost2010PropOp56
 70
     1
102
RTVSPost2010Prop57
140
1.0
102
RTVSPost2010PropOp57
 70
     1
  0
XRECORD
  5
180
102
{ACAD_REACTORS
330
17F
102
}
330
17F
100
AcDbXrecord
280
     1
102
RTVSPropertyOp0
 70
     1
102
RTVSPropertyOp1
 70
     1
102
RTVSPropertyOp2
 70
     1
102
RTVSPropertyOp3
 70
     1
102
RTVSPropertyOp4
 70
     1
102
RTVSPropertyOp5
 70
     1
102
RTVSPropertyOp6
 70
     1
102
RTVSPropertyOp7
 70
     1
102
RTVSPropertyOp8
 70
     1
102
RTVSPropertyOp9
 70
     1
102
RTVSPropertyOp10
 70
     1
102
RTVSPropertyOp11
 70
     1
102
RTVSPropertyOp12
 70
     1
102
RTVSPropertyOp13
 70
     1
102
RTVSPropertyOp14
 70
     1
102
RTVSPropertyOp15
 70
     1
102
RTVSPropertyOp16
 70
     1
102
RTVSPropertyOp17
 70
     1
102
RTVSPropertyOp18
 70
     1
102
RTVSPropertyOp19
 70
     1
102
RTVSPropertyOp20
 70
     1
102
RTVSPropertyOp21
 70
     1
102
RTVSPropertyOp22
 70
     1
102
RTVSPropertyOp23
 70
     1
102
RTVSPropertyOp24
 70
     1
102
RTVSPropertyOp25
 70
     1
102
RTVSPropertyOp26
 70
     1
102
RTVSPropertyOp27
 70
     1
102
RTVSPropertyOp28
 70
     1
102
RTVSPropertyOp29
 70
     1
102
RTVSPropertyOp30
 70
     1
102
RTVSPropertyOp31
 70
     1
102
RTVSPropertyOp32
 70
     1
102
RTVSPropertyOp33
 70
     1
102
RTVSPropertyOp34
 70
     1
102
RTVSPropertyOp35
 70
     1
102
RTVSPropertyOp36
 70
     1
102
RTVSPropertyOp37
 70
     1
102
RTVSPropertyOp38
 70
     1
102
RTVSPropertyOp39
 70
     1
102
RTVSPropertyOp40
 70
     1
102
RTVSPropertyOp41
 70
     1
102
RTVSPropertyOp42
 70
     1
102
RTVSPropertyOp43
 70
     1
102
RTVSPropertyOp44
 70
     1
102
RTVSPropertyOp45
 70
     1
102
RTVSPropertyOp46
 70
     1
102
RTVSPropertyOp47
 70
     1
102
RTVSPropertyOp48
 70
     1
102
RTVSPropertyOp49
 70
     1
102
RTVSPropertyOp50
 70
     1
102
RTVSPropertyOp51
 70
     0
102
RTVSPropertyOp52
 70
     0
102
RTVSPropertyOp53
 70
     1
102
RTVSPropertyOp54
 70
     1
102
RTVSPropertyOp55
 70
     1
102
RTVSPropertyOp56
 70
     1
102
RTVSPropertyOp57
 70
     1
102
RTVSPost2010Prop28
280
     0
102
RTVSPost2010PropOp28
 70
     1
102
RTVSPost2010Prop29
280
     1
102
RTVSPost2010PropOp29
 70
     1
102
RTVSPost2010Prop30
280
     1
102
RTVSPost2010PropOp30
 70
     1
102
RTVSPost2010Prop31
280
     0
102
RTVSPost2010PropOp31
 70
     1
102
RTVSPost2010Prop32
280
     0
102
RTVSPost2010PropOp32
 70
     1
102
RTVSPost2010Prop33
280
     0
102
RTVSPost2010PropOp33
 70
     1
102
RTVSPost2010Prop34
280
     0
102
RTVSPost2010PropOp34
 70
     1
102
RTVSPost2010Prop35
280
     0
102
RTVSPost2010PropOp35
 70
     1
102
RTVSPost2010Prop36
280
     0
102
RTVSPost2010PropOp36
 70
     1
102
RTVSPost2010Prop37
 90
       50
102
RTVSPost2010PropOp37
 70
     1
102
RTVSPost2010Prop38
140
0.0
102
RTVSPost2010PropOp38
 70
     1
102
RTVSPost2010Prop39
140
1.0
102
RTVSPost2010PropOp39
 70
     1
102
RTVSPost2010Prop40
 90
        0
102
RTVSPost2010PropOp40
 70
     1
102
RTVSPost2010Prop41ColorIndex
 90
       18
102
RTVSPost2010Prop41ColorRGB
 90
        0
102
RTVSPost2010PropOp41
 70
     1
102
RTVSPost2010Prop42
 90
       50
102
RTVSPost2010PropOp42
 70
     1
102
RTVSPost2010Prop43
 90
        3
102
RTVSPost2010PropOp43
 70
     1
102
RTVSPost2010Prop44ColorIndex
 90
        5
102
RTVSPost2010Prop44ColorRGB
 90
      255
102
RTVSPost2010PropOp44
 70
     1
102
RTVSPost2010Prop45
280
     0
102
RTVSPost2010PropOp45
 70
     1
102
RTVSPost2010Prop46
 90
       50
102
RTVSPost2010PropOp46
 70
     1
102
RTVSPost2010Prop47
 90
       50
102
RTVSPost2010PropOp47
 70
     1
102
RTVSPost2010Prop48
 90
       50
102
RTVSPost2010PropOp48
 70
     1
102
RTVSPost2010Prop49
280
     0
102
RTVSPost2010PropOp49
 70
     1
102
RTVSPost2010Prop50
 90
       50
102
RTVSPost2010PropOp50
 70
     1
102
RTVSPost2010Prop51ColorIndex
 90
      256
102
RTVSPost2010Prop51ColorRGB
 90
-16777216
102
RTVSPost2010PropOp51
 70
     0
102
RTVSPost2010Prop52
140
1.0
102
RTVSPost2010PropOp52
 70
     0
102
RTVSPost2010Prop53
 90
        2
102
RTVSPost2010PropOp53
 70
     1
102
RTVSPost2010Prop54
  1
strokes_ogs.tif
102
RTVSPost2010PropOp54
 70
     1
102
RTVSPost2010Prop55
280
     0
102
RTVSPost2010PropOp55
 70
     1
102
RTVSPost2010Prop56
140
1.0
102
RTVSPost2010PropOp56
 70
     1
102
RTVSPost2010Prop57
140
1.0
102
RTVSPost2010PropOp57
 70
     1
  0
XRECORD
  5
194
102
{ACAD_REACTORS
330
193
102
}
330
193
100
AcDbXrecord
280
     1
102
RTVSPropertyOp0
 70
     0
102
RTVSPropertyOp1
 70
     0
102
RTVSPropertyOp2
 70
     0
102
RTVSPropertyOp3
 70
     0
102
RTVSPropertyOp4
 70
     0
102
RTVSPropertyOp5
 70
     0
102
RTVSPropertyOp6
 70
     0
102
RTVSPropertyOp7
 70
     0
102
RTVSPropertyOp8
 70
     0
102
RTVSPropertyOp9
 70
     0
102
RTVSPropertyOp10
 70
     0
102
RTVSPropertyOp11
 70
     0
102
RTVSPropertyOp12
 70
     0
102
RTVSPropertyOp13
 70
     0
102
RTVSPropertyOp14
 70
     2
102
RTVSPropertyOp15
 70
     0
102
RTVSPropertyOp16
 70
     0
102
RTVSPropertyOp17
 70
     0
102
RTVSPropertyOp18
 70
     0
102
RTVSPropertyOp19
 70
     0
102
RTVSPropertyOp20
 70
     0
102
RTVSPropertyOp21
 70
     0
102
RTVSPropertyOp22
 70
     0
102
RTVSPropertyOp23
 70
     0
102
RTVSPropertyOp24
 70
     0
102
RTVSPropertyOp25
 70
     0
102
RTVSPropertyOp26
 70
     0
102
RTVSPropertyOp27
 70
     0
102
RTVSPropertyOp28
 70
     0
102
RTVSPropertyOp29
 70
     0
102
RTVSPropertyOp30
 70
     0
102
RTVSPropertyOp31
 70
     0
102
RTVSPropertyOp32
 70
     0
102
RTVSPropertyOp33
 70
     0
102
RTVSPropertyOp34
 70
     0
102
RTVSPropertyOp35
 70
     0
102
RTVSPropertyOp36
 70
     0
102
RTVSPropertyOp37
 70
     0
102
RTVSPropertyOp38
 70
     0
102
RTVSPropertyOp39
 70
     0
102
RTVSPropertyOp40
 70
     0
102
RTVSPropertyOp41
 70
     0
102
RTVSPropertyOp42
 70
     0
102
RTVSPropertyOp43
 70
     0
102
RTVSPropertyOp44
 70
     0
102
RTVSPropertyOp45
 70
     0
102
RTVSPropertyOp46
 70
     0
102
RTVSPropertyOp47
 70
     0
102
RTVSPropertyOp48
 70
     0
102
RTVSPropertyOp49
 70
     0
102
RTVSPropertyOp50
 70
     0
102
RTVSPropertyOp51
 70
     0
102
RTVSPropertyOp52
 70
     0
102
RTVSPropertyOp53
 70
     0
102
RTVSPropertyOp54
 70
     0
102
RTVSPropertyOp55
 70
     0
102
RTVSPropertyOp56
 70
     0
102
RTVSPropertyOp57
 70
     0
102
RTVSPost2010Prop28
280
     0
102
RTVSPost2010PropOp28
 70
     0
102
RTVSPost2010Prop29
280
     1
102
RTVSPost2010PropOp29
 70
     0
102
RTVSPost2010Prop30
280
     1
102
RTVSPost2010PropOp30
 70
     0
102
RTVSPost2010Prop31
280
     0
102
RTVSPost2010PropOp31
 70
     0
102
RTVSPost2010Prop32
280
     0
102
RTVSPost2010PropOp32
 70
     0
102
RTVSPost2010Prop33
280
     0
102
RTVSPost2010PropOp33
 70
     0
102
RTVSPost2010Prop34
280
     0
102
RTVSPost2010PropOp34
 70
     0
102
RTVSPost2010Prop35
280
     0
102
RTVSPost2010PropOp35
 70
     0
102
RTVSPost2010Prop36
280
     0
102
RTVSPost2010PropOp36
 70
     0
102
RTVSPost2010Prop37
 90
       50
102
RTVSPost2010PropOp37
 70
     0
102
RTVSPost2010Prop38
140
0.0
102
RTVSPost2010PropOp38
 70
     0
102
RTVSPost2010Prop39
140
1.0
102
RTVSPost2010PropOp39
 70
     0
102
RTVSPost2010Prop40
 90
        0
102
RTVSPost2010PropOp40
 70
     0
102
RTVSPost2010Prop41ColorIndex
 90
       18
102
RTVSPost2010Prop41ColorRGB
 90
        0
102
RTVSPost2010PropOp41
 70
     0
102
RTVSPost2010Prop42
 90
       50
102
RTVSPost2010PropOp42
 70
     0
102
RTVSPost2010Prop43
 90
        3
102
RTVSPost2010PropOp43
 70
     0
102
RTVSPost2010Prop44ColorIndex
 90
        5
102
RTVSPost2010Prop44ColorRGB
 90
      255
102
RTVSPost2010PropOp44
 70
     0
102
RTVSPost2010Prop45
280
     0
102
RTVSPost2010PropOp45
 70
     0
102
RTVSPost2010Prop46
 90
       50
102
RTVSPost2010PropOp46
 70
     0
102
RTVSPost2010Prop47
 90
       50
102
RTVSPost2010PropOp47
 70
     0
102
RTVSPost2010Prop48
 90
       50
102
RTVSPost2010PropOp48
 70
     0
102
RTVSPost2010Prop49
280
     0
102
RTVSPost2010PropOp49
 70
     0
102
RTVSPost2010Prop50
 90
       50
102
RTVSPost2010PropOp50
 70
     0
102
RTVSPost2010Prop51ColorIndex
 90
      256
102
RTVSPost2010Prop51ColorRGB
 90
-16777216
102
RTVSPost2010PropOp51
 70
     0
102
RTVSPost2010Prop52
140
1.0
102
RTVSPost2010PropOp52
 70
     0
102
RTVSPost2010Prop53
 90
        2
102
RTVSPost2010PropOp53
 70
     0
102
RTVSPost2010Prop54
  1
strokes_ogs.tif
102
RTVSPost2010PropOp54
 70
     0
102
RTVSPost2010Prop55
280
     0
102
RTVSPost2010PropOp55
 70
     0
102
RTVSPost2010Prop56
140
1.0
102
RTVSPost2010PropOp56
 70
     0
102
RTVSPost2010Prop57
140
1.0
102
RTVSPost2010PropOp57
 70
     0
  0
XRECORD
  5
18E
102
{ACAD_REACTORS
330
18D
102
}
330
18D
100
AcDbXrecord
280
     1
102
RTVSPropertyOp0
 70
     1
102
RTVSPropertyOp1
 70
     1
102
RTVSPropertyOp2
 70
     1
102
RTVSPropertyOp3
 70
     1
102
RTVSPropertyOp4
 70
     1
102
RTVSPropertyOp5
 70
     1
102
RTVSPropertyOp6
 70
     1
102
RTVSPropertyOp7
 70
     1
102
RTVSPropertyOp8
 70
     1
102
RTVSPropertyOp9
 70
     1
102
RTVSPropertyOp10
 70
     1
102
RTVSPropertyOp11
 70
     1
102
RTVSPropertyOp12
 70
     1
102
RTVSPropertyOp13
 70
     1
102
RTVSPropertyOp14
 70
     1
102
RTVSPropertyOp15
 70
     1
102
RTVSPropertyOp16
 70
     1
102
RTVSPropertyOp17
 70
     1
102
RTVSPropertyOp18
 70
     1
102
RTVSPropertyOp19
 70
     1
102
RTVSPropertyOp20
 70
     1
102
RTVSPropertyOp21
 70
     1
102
RTVSPropertyOp22
 70
     1
102
RTVSPropertyOp23
 70
     1
102
RTVSPropertyOp24
 70
     1
102
RTVSPropertyOp25
 70
     1
102
RTVSPropertyOp26
 70
     1
102
RTVSPropertyOp27
 70
     1
102
RTVSPropertyOp28
 70
     1
102
RTVSPropertyOp29
 70
     1
102
RTVSPropertyOp30
 70
     1
102
RTVSPropertyOp31
 70
     1
102
RTVSPropertyOp32
 70
     1
102
RTVSPropertyOp33
 70
     1
102
RTVSPropertyOp34
 70
     1
102
RTVSPropertyOp35
 70
     1
102
RTVSPropertyOp36
 70
     1
102
RTVSPropertyOp37
 70
     1
102
RTVSPropertyOp38
 70
     1
102
RTVSPropertyOp39
 70
     1
102
RTVSPropertyOp40
 70
     1
102
RTVSPropertyOp41
 70
     1
102
RTVSPropertyOp42
 70
     1
102
RTVSPropertyOp43
 70
     1
102
RTVSPropertyOp44
 70
     1
102
RTVSPropertyOp45
 70
     1
102
RTVSPropertyOp46
 70
     1
102
RTVSPropertyOp47
 70
     1
102
RTVSPropertyOp48
 70
     1
102
RTVSPropertyOp49
 70
     1
102
RTVSPropertyOp50
 70
     1
102
RTVSPropertyOp51
 70
     0
102
RTVSPropertyOp52
 70
     0
102
RTVSPropertyOp53
 70
     1
102
RTVSPropertyOp54
 70
     1
102
RTVSPropertyOp55
 70
     1
102
RTVSPropertyOp56
 70
     1
102
RTVSPropertyOp57
 70
     1
102
RTVSPost2010Prop28
280
     0
102
RTVSPost2010PropOp28
 70
     1
102
RTVSPost2010Prop29
280
     1
102
RTVSPost2010PropOp29
 70
     1
102
RTVSPost2010Prop30
280
     1
102
RTVSPost2010PropOp30
 70
     1
102
RTVSPost2010Prop31
280
     0
102
RTVSPost2010PropOp31
 70
     1
102
RTVSPost2010Prop32
280
     0
102
RTVSPost2010PropOp32
 70
     1
102
RTVSPost2010Prop33
280
     0
102
RTVSPost2010PropOp33
 70
     1
102
RTVSPost2010Prop34
280
     0
102
RTVSPost2010PropOp34
 70
     1
102
RTVSPost2010Prop35
280
     0
102
RTVSPost2010PropOp35
 70
     1
102
RTVSPost2010Prop36
280
     0
102
RTVSPost2010PropOp36
 70
     1
102
RTVSPost2010Prop37
 90
       50
102
RTVSPost2010PropOp37
 70
     1
102
RTVSPost2010Prop38
140
0.0
102
RTVSPost2010PropOp38
 70
     1
102
RTVSPost2010Prop39
140
1.0
102
RTVSPost2010PropOp39
 70
     1
102
RTVSPost2010Prop40
 90
        0
102
RTVSPost2010PropOp40
 70
     1
102
RTVSPost2010Prop41ColorIndex
 90
       18
102
RTVSPost2010Prop41ColorRGB
 90
        0
102
RTVSPost2010PropOp41
 70
     1
102
RTVSPost2010Prop42
 90
       50
102
RTVSPost2010PropOp42
 70
     1
102
RTVSPost2010Prop43
 90
        3
102
RTVSPost2010PropOp43
 70
     1
102
RTVSPost2010Prop44ColorIndex
 90
        5
102
RTVSPost2010Prop44ColorRGB
 90
      255
102
RTVSPost2010PropOp44
 70
     1
102
RTVSPost2010Prop45
280
     0
102
RTVSPost2010PropOp45
 70
     1
102
RTVSPost2010Prop46
 90
       50
102
RTVSPost2010PropOp46
 70
     1
102
RTVSPost2010Prop47
 90
       50
102
RTVSPost2010PropOp47
 70
     1
102
RTVSPost2010Prop48
 90
       50
102
RTVSPost2010PropOp48
 70
     1
102
RTVSPost2010Prop49
280
     0
102
RTVSPost2010PropOp49
 70
     1
102
RTVSPost2010Prop50
 90
       50
102
RTVSPost2010PropOp50
 70
     1
102
RTVSPost2010Prop51ColorIndex
 90
      256
102
RTVSPost2010Prop51ColorRGB
 90
-16777216
102
RTVSPost2010PropOp51
 70
     0
102
RTVSPost2010Prop52
140
1.0
102
RTVSPost2010PropOp52
 70
     0
102
RTVSPost2010Prop53
 90
        2
102
RTVSPost2010PropOp53
 70
     1
102
RTVSPost2010Prop54
  1
strokes_ogs.tif
102
RTVSPost2010PropOp54
 70
     1
102
RTVSPost2010Prop55
280
     0
102
RTVSPost2010PropOp55
 70
     1
102
RTVSPost2010Prop56
140
1.0
102
RTVSPost2010PropOp56
 70
     1
102
RTVSPost2010Prop57
140
1.0
102
RTVSPost2010PropOp57
 70
     1
  0
XRECORD
  5
196
102
{ACAD_REACTORS
330
195
102
}
330
195
100
AcDbXrecord
280
     1
102
RTVSPropertyOp0
 70
     0
102
RTVSPropertyOp1
 70
     0
102
RTVSPropertyOp2
 70
     0
102
RTVSPropertyOp3
 70
     0
102
RTVSPropertyOp4
 70
     0
102
RTVSPropertyOp5
 70
     0
102
RTVSPropertyOp6
 70
     0
102
RTVSPropertyOp7
 70
     0
102
RTVSPropertyOp8
 70
     0
102
RTVSPropertyOp9
 70
     0
102
RTVSPropertyOp10
 70
     0
102
RTVSPropertyOp11
 70
     0
102
RTVSPropertyOp12
 70
     0
102
RTVSPropertyOp13
 70
     0
102
RTVSPropertyOp14
 70
     2
102
RTVSPropertyOp15
 70
     0
102
RTVSPropertyOp16
 70
     0
102
RTVSPropertyOp17
 70
     0
102
RTVSPropertyOp18
 70
     0
102
RTVSPropertyOp19
 70
     0
102
RTVSPropertyOp20
 70
     0
102
RTVSPropertyOp21
 70
     0
102
RTVSPropertyOp22
 70
     0
102
RTVSPropertyOp23
 70
     0
102
RTVSPropertyOp24
 70
     0
102
RTVSPropertyOp25
 70
     0
102
RTVSPropertyOp26
 70
     0
102
RTVSPropertyOp27
 70
     0
102
RTVSPropertyOp28
 70
     0
102
RTVSPropertyOp29
 70
     0
102
RTVSPropertyOp30
 70
     0
102
RTVSPropertyOp31
 70
     0
102
RTVSPropertyOp32
 70
     0
102
RTVSPropertyOp33
 70
     0
102
RTVSPropertyOp34
 70
     0
102
RTVSPropertyOp35
 70
     0
102
RTVSPropertyOp36
 70
     0
102
RTVSPropertyOp37
 70
     0
102
RTVSPropertyOp38
 70
     0
102
RTVSPropertyOp39
 70
     0
102
RTVSPropertyOp40
 70
     0
102
RTVSPropertyOp41
 70
     0
102
RTVSPropertyOp42
 70
     0
102
RTVSPropertyOp43
 70
     0
102
RTVSPropertyOp44
 70
     0
102
RTVSPropertyOp45
 70
     0
102
RTVSPropertyOp46
 70
     0
102
RTVSPropertyOp47
 70
     0
102
RTVSPropertyOp48
 70
     0
102
RTVSPropertyOp49
 70
     0
102
RTVSPropertyOp50
 70
     0
102
RTVSPropertyOp51
 70
     0
102
RTVSPropertyOp52
 70
     0
102
RTVSPropertyOp53
 70
     0
102
RTVSPropertyOp54
 70
     0
102
RTVSPropertyOp55
 70
     0
102
RTVSPropertyOp56
 70
     0
102
RTVSPropertyOp57
 70
     0
102
RTVSPost2010Prop28
280
     0
102
RTVSPost2010PropOp28
 70
     0
102
RTVSPost2010Prop29
280
     1
102
RTVSPost2010PropOp29
 70
     0
102
RTVSPost2010Prop30
280
     1
102
RTVSPost2010PropOp30
 70
     0
102
RTVSPost2010Prop31
280
     0
102
RTVSPost2010PropOp31
 70
     0
102
RTVSPost2010Prop32
280
     0
102
RTVSPost2010PropOp32
 70
     0
102
RTVSPost2010Prop33
280
     0
102
RTVSPost2010PropOp33
 70
     0
102
RTVSPost2010Prop34
280
     0
102
RTVSPost2010PropOp34
 70
     0
102
RTVSPost2010Prop35
280
     0
102
RTVSPost2010PropOp35
 70
     0
102
RTVSPost2010Prop36
280
     0
102
RTVSPost2010PropOp36
 70
     0
102
RTVSPost2010Prop37
 90
       50
102
RTVSPost2010PropOp37
 70
     0
102
RTVSPost2010Prop38
140
0.0
102
RTVSPost2010PropOp38
 70
     0
102
RTVSPost2010Prop39
140
1.0
102
RTVSPost2010PropOp39
 70
     0
102
RTVSPost2010Prop40
 90
        0
102
RTVSPost2010PropOp40
 70
     0
102
RTVSPost2010Prop41ColorIndex
 90
       18
102
RTVSPost2010Prop41ColorRGB
 90
        0
102
RTVSPost2010PropOp41
 70
     0
102
RTVSPost2010Prop42
 90
       50
102
RTVSPost2010PropOp42
 70
     0
102
RTVSPost2010Prop43
 90
        3
102
RTVSPost2010PropOp43
 70
     0
102
RTVSPost2010Prop44ColorIndex
 90
        5
102
RTVSPost2010Prop44ColorRGB
 90
      255
102
RTVSPost2010PropOp44
 70
     0
102
RTVSPost2010Prop45
280
     0
102
RTVSPost2010PropOp45
 70
     0
102
RTVSPost2010Prop46
 90
       50
102
RTVSPost2010PropOp46
 70
     0
102
RTVSPost2010Prop47
 90
       50
102
RTVSPost2010PropOp47
 70
     0
102
RTVSPost2010Prop48
 90
       50
102
RTVSPost2010PropOp48
 70
     0
102
RTVSPost2010Prop49
280
     0
102
RTVSPost2010PropOp49
 70
     0
102
RTVSPost2010Prop50
 90
       50
102
RTVSPost2010PropOp50
 70
     0
102
RTVSPost2010Prop51ColorIndex
 90
      256
102
RTVSPost2010Prop51ColorRGB
 90
-16777216
102
RTVSPost2010PropOp51
 70
     0
102
RTVSPost2010Prop52
140
1.0
102
RTVSPost2010PropOp52
 70
     0
102
RTVSPost2010Prop53
 90
        2
102
RTVSPost2010PropOp53
 70
     0
102
RTVSPost2010Prop54
  1
strokes_ogs.tif
102
RTVSPost2010PropOp54
 70
     0
102
RTVSPost2010Prop55
280
     0
102
RTVSPost2010PropOp55
 70
     0
102
RTVSPost2010Prop56
140
1.0
102
RTVSPost2010PropOp56
 70
     0
102
RTVSPost2010Prop57
140
1.0
102
RTVSPost2010PropOp57
 70
     0
  0
XRECORD
  5
184
102
{ACAD_REACTORS
330
183
102
}
330
183
100
AcDbXrecord
280
     1
102
RTVSPropertyOp0
 70
     1
102
RTVSPropertyOp1
 70
     1
102
RTVSPropertyOp2
 70
     1
102
RTVSPropertyOp3
 70
     1
102
RTVSPropertyOp4
 70
     1
102
RTVSPropertyOp5
 70
     1
102
RTVSPropertyOp6
 70
     1
102
RTVSPropertyOp7
 70
     1
102
RTVSPropertyOp8
 70
     1
102
RTVSPropertyOp9
 70
     1
102
RTVSPropertyOp10
 70
     1
102
RTVSPropertyOp11
 70
     1
102
RTVSPropertyOp12
 70
     1
102
RTVSPropertyOp13
 70
     1
102
RTVSPropertyOp14
 70
     1
102
RTVSPropertyOp15
 70
     1
102
RTVSPropertyOp16
 70
     1
102
RTVSPropertyOp17
 70
     1
102
RTVSPropertyOp18
 70
     1
102
RTVSPropertyOp19
 70
     1
102
RTVSPropertyOp20
 70
     1
102
RTVSPropertyOp21
 70
     1
102
RTVSPropertyOp22
 70
     1
102
RTVSPropertyOp23
 70
     1
102
RTVSPropertyOp24
 70
     1
102
RTVSPropertyOp25
 70
     1
102
RTVSPropertyOp26
 70
     1
102
RTVSPropertyOp27
 70
     1
102
RTVSPropertyOp28
 70
     1
102
RTVSPropertyOp29
 70
     1
102
RTVSPropertyOp30
 70
     1
102
RTVSPropertyOp31
 70
     1
102
RTVSPropertyOp32
 70
     1
102
RTVSPropertyOp33
 70
     1
102
RTVSPropertyOp34
 70
     1
102
RTVSPropertyOp35
 70
     1
102
RTVSPropertyOp36
 70
     1
102
RTVSPropertyOp37
 70
     1
102
RTVSPropertyOp38
 70
     1
102
RTVSPropertyOp39
 70
     1
102
RTVSPropertyOp40
 70
     1
102
RTVSPropertyOp41
 70
     1
102
RTVSPropertyOp42
 70
     1
102
RTVSPropertyOp43
 70
     1
102
RTVSPropertyOp44
 70
     1
102
RTVSPropertyOp45
 70
     1
102
RTVSPropertyOp46
 70
     1
102
RTVSPropertyOp47
 70
     1
102
RTVSPropertyOp48
 70
     1
102
RTVSPropertyOp49
 70
     1
102
RTVSPropertyOp50
 70
     1
102
RTVSPropertyOp51
 70
     0
102
RTVSPropertyOp52
 70
     0
102
RTVSPropertyOp53
 70
     1
102
RTVSPropertyOp54
 70
     1
102
RTVSPropertyOp55
 70
     1
102
RTVSPropertyOp56
 70
     1
102
RTVSPropertyOp57
 70
     1
102
RTVSPost2010Prop28
280
     0
102
RTVSPost2010PropOp28
 70
     1
102
RTVSPost2010Prop29
280
     1
102
RTVSPost2010PropOp29
 70
     1
102
RTVSPost2010Prop30
280
     1
102
RTVSPost2010PropOp30
 70
     1
102
RTVSPost2010Prop31
280
     0
102
RTVSPost2010PropOp31
 70
     1
102
RTVSPost2010Prop32
280
     0
102
RTVSPost2010PropOp32
 70
     1
102
RTVSPost2010Prop33
280
     0
102
RTVSPost2010PropOp33
 70
     1
102
RTVSPost2010Prop34
280
     0
102
RTVSPost2010PropOp34
 70
     1
102
RTVSPost2010Prop35
280
     0
102
RTVSPost2010PropOp35
 70
     1
102
RTVSPost2010Prop36
280
     0
102
RTVSPost2010PropOp36
 70
     1
102
RTVSPost2010Prop37
 90
       50
102
RTVSPost2010PropOp37
 70
     1
102
RTVSPost2010Prop38
140
0.0
102
RTVSPost2010PropOp38
 70
     1
102
RTVSPost2010Prop39
140
1.0
102
RTVSPost2010PropOp39
 70
     1
102
RTVSPost2010Prop40
 90
        0
102
RTVSPost2010PropOp40
 70
     1
102
RTVSPost2010Prop41ColorIndex
 90
       18
102
RTVSPost2010Prop41ColorRGB
 90
        0
102
RTVSPost2010PropOp41
 70
     1
102
RTVSPost2010Prop42
 90
       50
102
RTVSPost2010PropOp42
 70
     1
102
RTVSPost2010Prop43
 90
        3
102
RTVSPost2010PropOp43
 70
     1
102
RTVSPost2010Prop44ColorIndex
 90
        5
102
RTVSPost2010Prop44ColorRGB
 90
      255
102
RTVSPost2010PropOp44
 70
     1
102
RTVSPost2010Prop45
280
     0
102
RTVSPost2010PropOp45
 70
     1
102
RTVSPost2010Prop46
 90
       50
102
RTVSPost2010PropOp46
 70
     1
102
RTVSPost2010Prop47
 90
       50
102
RTVSPost2010PropOp47
 70
     1
102
RTVSPost2010Prop48
 90
       50
102
RTVSPost2010PropOp48
 70
     1
102
RTVSPost2010Prop49
280
     0
102
RTVSPost2010PropOp49
 70
     1
102
RTVSPost2010Prop50
 90
       50
102
RTVSPost2010PropOp50
 70
     1
102
RTVSPost2010Prop51ColorIndex
 90
      256
102
RTVSPost2010Prop51ColorRGB
 90
-16777216
102
RTVSPost2010PropOp51
 70
     0
102
RTVSPost2010Prop52
140
1.0
102
RTVSPost2010PropOp52
 70
     0
102
RTVSPost2010Prop53
 90
        2
102
RTVSPost2010PropOp53
 70
     1
102
RTVSPost2010Prop54
  1
strokes_ogs.tif
102
RTVSPost2010PropOp54
 70
     1
102
RTVSPost2010Prop55
280
     0
102
RTVSPost2010PropOp55
 70
     1
102
RTVSPost2010Prop56
140
1.0
102
RTVSPost2010PropOp56
 70
     1
102
RTVSPost2010Prop57
140
1.0
102
RTVSPost2010PropOp57
 70
     1
  0
XRECORD
  5
1A2
102
{ACAD_REACTORS
330
1A1
102
}
330
1A1
100
AcDbXrecord
280
     1
102
RTVSPropertyOp0
 70
     1
102
RTVSPropertyOp1
 70
     1
102
RTVSPropertyOp2
 70
     1
102
RTVSPropertyOp3
 70
     1
102
RTVSPropertyOp4
 70
     1
102
RTVSPropertyOp5
 70
     1
102
RTVSPropertyOp6
 70
     1
102
RTVSPropertyOp7
 70
     1
102
RTVSPropertyOp8
 70
     1
102
RTVSPropertyOp9
 70
     1
102
RTVSPropertyOp10
 70
     1
102
RTVSPropertyOp11
 70
     1
102
RTVSPropertyOp12
 70
     1
102
RTVSPropertyOp13
 70
     1
102
RTVSPropertyOp14
 70
     1
102
RTVSPropertyOp15
 70
     1
102
RTVSPropertyOp16
 70
     1
102
RTVSPropertyOp17
 70
     1
102
RTVSPropertyOp18
 70
     1
102
RTVSPropertyOp19
 70
     1
102
RTVSPropertyOp20
 70
     1
102
RTVSPropertyOp21
 70
     1
102
RTVSPropertyOp22
 70
     1
102
RTVSPropertyOp23
 70
     1
102
RTVSPropertyOp24
 70
     1
102
RTVSPropertyOp25
 70
     1
102
RTVSPropertyOp26
 70
     1
102
RTVSPropertyOp27
 70
     1
102
RTVSPropertyOp28
 70
     1
102
RTVSPropertyOp29
 70
     1
102
RTVSPropertyOp30
 70
     1
102
RTVSPropertyOp31
 70
     1
102
RTVSPropertyOp32
 70
     1
102
RTVSPropertyOp33
 70
     1
102
RTVSPropertyOp34
 70
     1
102
RTVSPropertyOp35
 70
     1
102
RTVSPropertyOp36
 70
     1
102
RTVSPropertyOp37
 70
     1
102
RTVSPropertyOp38
 70
     1
102
RTVSPropertyOp39
 70
     1
102
RTVSPropertyOp40
 70
     1
102
RTVSPropertyOp41
 70
     1
102
RTVSPropertyOp42
 70
     1
102
RTVSPropertyOp43
 70
     1
102
RTVSPropertyOp44
 70
     1
102
RTVSPropertyOp45
 70
     1
102
RTVSPropertyOp46
 70
     1
102
RTVSPropertyOp47
 70
     1
102
RTVSPropertyOp48
 70
     1
102
RTVSPropertyOp49
 70
     1
102
RTVSPropertyOp50
 70
     1
102
RTVSPropertyOp51
 70
     0
102
RTVSPropertyOp52
 70
     0
102
RTVSPropertyOp53
 70
     1
102
RTVSPropertyOp54
 70
     1
102
RTVSPropertyOp55
 70
     1
102
RTVSPropertyOp56
 70
     1
102
RTVSPropertyOp57
 70
     1
102
RTVSPost2010Prop28
280
     0
102
RTVSPost2010PropOp28
 70
     1
102
RTVSPost2010Prop29
280
     1
102
RTVSPost2010PropOp29
 70
     1
102
RTVSPost2010Prop30
280
     1
102
RTVSPost2010PropOp30
 70
     1
102
RTVSPost2010Prop31
280
     0
102
RTVSPost2010PropOp31
 70
     1
102
RTVSPost2010Prop32
280
     0
102
RTVSPost2010PropOp32
 70
     1
102
RTVSPost2010Prop33
280
     0
102
RTVSPost2010PropOp33
 70
     1
102
RTVSPost2010Prop34
280
     0
102
RTVSPost2010PropOp34
 70
     1
102
RTVSPost2010Prop35
280
     0
102
RTVSPost2010PropOp35
 70
     1
102
RTVSPost2010Prop36
280
     0
102
RTVSPost2010PropOp36
 70
     1
102
RTVSPost2010Prop37
 90
       50
102
RTVSPost2010PropOp37
 70
     1
102
RTVSPost2010Prop38
140
0.0
102
RTVSPost2010PropOp38
 70
     1
102
RTVSPost2010Prop39
140
1.0
102
RTVSPost2010PropOp39
 70
     1
102
RTVSPost2010Prop40
 90
        0
102
RTVSPost2010PropOp40
 70
     1
102
RTVSPost2010Prop41ColorIndex
 90
       18
102
RTVSPost2010Prop41ColorRGB
 90
        0
102
RTVSPost2010PropOp41
 70
     1
102
RTVSPost2010Prop42
 90
       50
102
RTVSPost2010PropOp42
 70
     1
102
RTVSPost2010Prop43
 90
        3
102
RTVSPost2010PropOp43
 70
     1
102
RTVSPost2010Prop44ColorIndex
 90
        5
102
RTVSPost2010Prop44ColorRGB
 90
      255
102
RTVSPost2010PropOp44
 70
     1
102
RTVSPost2010Prop45
280
     0
102
RTVSPost2010PropOp45
 70
     1
102
RTVSPost2010Prop46
 90
       50
102
RTVSPost2010PropOp46
 70
     1
102
RTVSPost2010Prop47
 90
       50
102
RTVSPost2010PropOp47
 70
     1
102
RTVSPost2010Prop48
 90
       50
102
RTVSPost2010PropOp48
 70
     1
102
RTVSPost2010Prop49
280
     0
102
RTVSPost2010PropOp49
 70
     1
102
RTVSPost2010Prop50
 90
       50
102
RTVSPost2010PropOp50
 70
     1
102
RTVSPost2010Prop51ColorIndex
 90
      256
102
RTVSPost2010Prop51ColorRGB
 90
-16777216
102
RTVSPost2010PropOp51
 70
     0
102
RTVSPost2010Prop52
140
1.0
102
RTVSPost2010PropOp52
 70
     0
102
RTVSPost2010Prop53
 90
        2
102
RTVSPost2010PropOp53
 70
     1
102
RTVSPost2010Prop54
  1
strokes_ogs.tif
102
RTVSPost2010PropOp54
 70
     1
102
RTVSPost2010Prop55
280
     0
102
RTVSPost2010PropOp55
 70
     1
102
RTVSPost2010Prop56
140
1.0
102
RTVSPost2010PropOp56
 70
     1
102
RTVSPost2010Prop57
140
1.0
102
RTVSPost2010PropOp57
 70
     1
  0
XRECORD
  5
1A0
102
{ACAD_REACTORS
330
19F
102
}
330
19F
100
AcDbXrecord
280
     1
102
RTVSPropertyOp0
 70
     1
102
RTVSPropertyOp1
 70
     1
102
RTVSPropertyOp2
 70
     1
102
RTVSPropertyOp3
 70
     1
102
RTVSPropertyOp4
 70
     1
102
RTVSPropertyOp5
 70
     1
102
RTVSPropertyOp6
 70
     1
102
RTVSPropertyOp7
 70
     1
102
RTVSPropertyOp8
 70
     1
102
RTVSPropertyOp9
 70
     1
102
RTVSPropertyOp10
 70
     1
102
RTVSPropertyOp11
 70
     1
102
RTVSPropertyOp12
 70
     1
102
RTVSPropertyOp13
 70
     1
102
RTVSPropertyOp14
 70
     1
102
RTVSPropertyOp15
 70
     1
102
RTVSPropertyOp16
 70
     1
102
RTVSPropertyOp17
 70
     1
102
RTVSPropertyOp18
 70
     1
102
RTVSPropertyOp19
 70
     1
102
RTVSPropertyOp20
 70
     1
102
RTVSPropertyOp21
 70
     1
102
RTVSPropertyOp22
 70
     1
102
RTVSPropertyOp23
 70
     1
102
RTVSPropertyOp24
 70
     1
102
RTVSPropertyOp25
 70
     1
102
RTVSPropertyOp26
 70
     1
102
RTVSPropertyOp27
 70
     1
102
RTVSPropertyOp28
 70
     1
102
RTVSPropertyOp29
 70
     1
102
RTVSPropertyOp30
 70
     1
102
RTVSPropertyOp31
 70
     1
102
RTVSPropertyOp32
 70
     1
102
RTVSPropertyOp33
 70
     1
102
RTVSPropertyOp34
 70
     1
102
RTVSPropertyOp35
 70
     1
102
RTVSPropertyOp36
 70
     1
102
RTVSPropertyOp37
 70
     1
102
RTVSPropertyOp38
 70
     1
102
RTVSPropertyOp39
 70
     1
102
RTVSPropertyOp40
 70
     1
102
RTVSPropertyOp41
 70
     1
102
RTVSPropertyOp42
 70
     1
102
RTVSPropertyOp43
 70
     1
102
RTVSPropertyOp44
 70
     1
102
RTVSPropertyOp45
 70
     1
102
RTVSPropertyOp46
 70
     1
102
RTVSPropertyOp47
 70
     1
102
RTVSPropertyOp48
 70
     1
102
RTVSPropertyOp49
 70
     1
102
RTVSPropertyOp50
 70
     1
102
RTVSPropertyOp51
 70
     0
102
RTVSPropertyOp52
 70
     0
102
RTVSPropertyOp53
 70
     1
102
RTVSPropertyOp54
 70
     1
102
RTVSPropertyOp55
 70
     1
102
RTVSPropertyOp56
 70
     1
102
RTVSPropertyOp57
 70
     1
102
RTVSPost2010Prop28
280
     0
102
RTVSPost2010PropOp28
 70
     1
102
RTVSPost2010Prop29
280
     1
102
RTVSPost2010PropOp29
 70
     1
102
RTVSPost2010Prop30
280
     1
102
RTVSPost2010PropOp30
 70
     1
102
RTVSPost2010Prop31
280
     0
102
RTVSPost2010PropOp31
 70
     1
102
RTVSPost2010Prop32
280
     0
102
RTVSPost2010PropOp32
 70
     1
102
RTVSPost2010Prop33
280
     0
102
RTVSPost2010PropOp33
 70
     1
102
RTVSPost2010Prop34
280
     0
102
RTVSPost2010PropOp34
 70
     1
102
RTVSPost2010Prop35
280
     0
102
RTVSPost2010PropOp35
 70
     1
102
RTVSPost2010Prop36
280
     0
102
RTVSPost2010PropOp36
 70
     1
102
RTVSPost2010Prop37
 90
       50
102
RTVSPost2010PropOp37
 70
     1
102
RTVSPost2010Prop38
140
0.0
102
RTVSPost2010PropOp38
 70
     1
102
RTVSPost2010Prop39
140
1.0
102
RTVSPost2010PropOp39
 70
     1
102
RTVSPost2010Prop40
 90
        0
102
RTVSPost2010PropOp40
 70
     1
102
RTVSPost2010Prop41ColorIndex
 90
       18
102
RTVSPost2010Prop41ColorRGB
 90
        0
102
RTVSPost2010PropOp41
 70
     1
102
RTVSPost2010Prop42
 90
       50
102
RTVSPost2010PropOp42
 70
     1
102
RTVSPost2010Prop43
 90
        3
102
RTVSPost2010PropOp43
 70
     1
102
RTVSPost2010Prop44ColorIndex
 90
        5
102
RTVSPost2010Prop44ColorRGB
 90
      255
102
RTVSPost2010PropOp44
 70
     1
102
RTVSPost2010Prop45
280
     0
102
RTVSPost2010PropOp45
 70
     1
102
RTVSPost2010Prop46
 90
       50
102
RTVSPost2010PropOp46
 70
     1
102
RTVSPost2010Prop47
 90
       50
102
RTVSPost2010PropOp47
 70
     1
102
RTVSPost2010Prop48
 90
       50
102
RTVSPost2010PropOp48
 70
     1
102
RTVSPost2010Prop49
280
     0
102
RTVSPost2010PropOp49
 70
     1
102
RTVSPost2010Prop50
 90
       50
102
RTVSPost2010PropOp50
 70
     1
102
RTVSPost2010Prop51ColorIndex
 90
      256
102
RTVSPost2010Prop51ColorRGB
 90
-16777216
102
RTVSPost2010PropOp51
 70
     0
102
RTVSPost2010Prop52
140
1.0
102
RTVSPost2010PropOp52
 70
     0
102
RTVSPost2010Prop53
 90
        2
102
RTVSPost2010PropOp53
 70
     1
102
RTVSPost2010Prop54
  1
strokes_ogs.tif
102
RTVSPost2010PropOp54
 70
     1
102
RTVSPost2010Prop55
280
     0
102
RTVSPost2010PropOp55
 70
     1
102
RTVSPost2010Prop56
140
1.0
102
RTVSPost2010PropOp56
 70
     1
102
RTVSPost2010Prop57
140
1.0
102
RTVSPost2010PropOp57
 70
     1
  0
XRECORD
  5
19A
102
{ACAD_REACTORS
330
199
102
}
330
199
100
AcDbXrecord
280
     1
102
RTVSPropertyOp0
 70
     1
102
RTVSPropertyOp1
 70
     1
102
RTVSPropertyOp2
 70
     1
102
RTVSPropertyOp3
 70
     1
102
RTVSPropertyOp4
 70
     1
102
RTVSPropertyOp5
 70
     1
102
RTVSPropertyOp6
 70
     1
102
RTVSPropertyOp7
 70
     1
102
RTVSPropertyOp8
 70
     1
102
RTVSPropertyOp9
 70
     1
102
RTVSPropertyOp10
 70
     1
102
RTVSPropertyOp11
 70
     1
102
RTVSPropertyOp12
 70
     1
102
RTVSPropertyOp13
 70
     1
102
RTVSPropertyOp14
 70
     1
102
RTVSPropertyOp15
 70
     1
102
RTVSPropertyOp16
 70
     1
102
RTVSPropertyOp17
 70
     1
102
RTVSPropertyOp18
 70
     1
102
RTVSPropertyOp19
 70
     1
102
RTVSPropertyOp20
 70
     1
102
RTVSPropertyOp21
 70
     1
102
RTVSPropertyOp22
 70
     1
102
RTVSPropertyOp23
 70
     1
102
RTVSPropertyOp24
 70
     1
102
RTVSPropertyOp25
 70
     1
102
RTVSPropertyOp26
 70
     1
102
RTVSPropertyOp27
 70
     1
102
RTVSPropertyOp28
 70
     1
102
RTVSPropertyOp29
 70
     1
102
RTVSPropertyOp30
 70
     1
102
RTVSPropertyOp31
 70
     1
102
RTVSPropertyOp32
 70
     1
102
RTVSPropertyOp33
 70
     1
102
RTVSPropertyOp34
 70
     1
102
RTVSPropertyOp35
 70
     1
102
RTVSPropertyOp36
 70
     1
102
RTVSPropertyOp37
 70
     1
102
RTVSPropertyOp38
 70
     1
102
RTVSPropertyOp39
 70
     1
102
RTVSPropertyOp40
 70
     1
102
RTVSPropertyOp41
 70
     1
102
RTVSPropertyOp42
 70
     1
102
RTVSPropertyOp43
 70
     1
102
RTVSPropertyOp44
 70
     1
102
RTVSPropertyOp45
 70
     1
102
RTVSPropertyOp46
 70
     1
102
RTVSPropertyOp47
 70
     1
102
RTVSPropertyOp48
 70
     1
102
RTVSPropertyOp49
 70
     1
102
RTVSPropertyOp50
 70
     1
102
RTVSPropertyOp51
 70
     0
102
RTVSPropertyOp52
 70
     0
102
RTVSPropertyOp53
 70
     1
102
RTVSPropertyOp54
 70
     1
102
RTVSPropertyOp55
 70
     1
102
RTVSPropertyOp56
 70
     1
102
RTVSPropertyOp57
 70
     1
102
RTVSPost2010Prop28
280
     0
102
RTVSPost2010PropOp28
 70
     1
102
RTVSPost2010Prop29
280
     1
102
RTVSPost2010PropOp29
 70
     1
102
RTVSPost2010Prop30
280
     1
102
RTVSPost2010PropOp30
 70
     1
102
RTVSPost2010Prop31
280
     0
102
RTVSPost2010PropOp31
 70
     1
102
RTVSPost2010Prop32
280
     0
102
RTVSPost2010PropOp32
 70
     1
102
RTVSPost2010Prop33
280
     0
102
RTVSPost2010PropOp33
 70
     1
102
RTVSPost2010Prop34
280
     0
102
RTVSPost2010PropOp34
 70
     1
102
RTVSPost2010Prop35
280
     0
102
RTVSPost2010PropOp35
 70
     1
102
RTVSPost2010Prop36
280
     0
102
RTVSPost2010PropOp36
 70
     1
102
RTVSPost2010Prop37
 90
       50
102
RTVSPost2010PropOp37
 70
     1
102
RTVSPost2010Prop38
140
0.0
102
RTVSPost2010PropOp38
 70
     1
102
RTVSPost2010Prop39
140
1.0
102
RTVSPost2010PropOp39
 70
     1
102
RTVSPost2010Prop40
 90
        0
102
RTVSPost2010PropOp40
 70
     1
102
RTVSPost2010Prop41ColorIndex
 90
       18
102
RTVSPost2010Prop41ColorRGB
 90
        0
102
RTVSPost2010PropOp41
 70
     1
102
RTVSPost2010Prop42
 90
       50
102
RTVSPost2010PropOp42
 70
     1
102
RTVSPost2010Prop43
 90
        3
102
RTVSPost2010PropOp43
 70
     1
102
RTVSPost2010Prop44ColorIndex
 90
        5
102
RTVSPost2010Prop44ColorRGB
 90
      255
102
RTVSPost2010PropOp44
 70
     1
102
RTVSPost2010Prop45
280
     0
102
RTVSPost2010PropOp45
 70
     1
102
RTVSPost2010Prop46
 90
       50
102
RTVSPost2010PropOp46
 70
     1
102
RTVSPost2010Prop47
 90
       50
102
RTVSPost2010PropOp47
 70
     1
102
RTVSPost2010Prop48
 90
       50
102
RTVSPost2010PropOp48
 70
     1
102
RTVSPost2010Prop49
280
     0
102
RTVSPost2010PropOp49
 70
     1
102
RTVSPost2010Prop50
 90
       50
102
RTVSPost2010PropOp50
 70
     1
102
RTVSPost2010Prop51ColorIndex
 90
      256
102
RTVSPost2010Prop51ColorRGB
 90
-16777216
102
RTVSPost2010PropOp51
 70
     0
102
RTVSPost2010Prop52
140
1.0
102
RTVSPost2010PropOp52
 70
     0
102
RTVSPost2010Prop53
 90
        2
102
RTVSPost2010PropOp53
 70
     1
102
RTVSPost2010Prop54
  1
strokes_ogs.tif
102
RTVSPost2010PropOp54
 70
     1
102
RTVSPost2010Prop55
280
     0
102
RTVSPost2010PropOp55
 70
     1
102
RTVSPost2010Prop56
140
1.0
102
RTVSPost2010PropOp56
 70
     1
102
RTVSPost2010Prop57
140
1.0
102
RTVSPost2010PropOp57
 70
     1
  0
XRECORD
  5
19C
102
{ACAD_REACTORS
330
19B
102
}
330
19B
100
AcDbXrecord
280
     1
102
RTVSPropertyOp0
 70
     1
102
RTVSPropertyOp1
 70
     1
102
RTVSPropertyOp2
 70
     1
102
RTVSPropertyOp3
 70
     1
102
RTVSPropertyOp4
 70
     1
102
RTVSPropertyOp5
 70
     1
102
RTVSPropertyOp6
 70
     1
102
RTVSPropertyOp7
 70
     1
102
RTVSPropertyOp8
 70
     1
102
RTVSPropertyOp9
 70
     1
102
RTVSPropertyOp10
 70
     1
102
RTVSPropertyOp11
 70
     1
102
RTVSPropertyOp12
 70
     1
102
RTVSPropertyOp13
 70
     1
102
RTVSPropertyOp14
 70
     1
102
RTVSPropertyOp15
 70
     1
102
RTVSPropertyOp16
 70
     1
102
RTVSPropertyOp17
 70
     1
102
RTVSPropertyOp18
 70
     1
102
RTVSPropertyOp19
 70
     1
102
RTVSPropertyOp20
 70
     1
102
RTVSPropertyOp21
 70
     1
102
RTVSPropertyOp22
 70
     1
102
RTVSPropertyOp23
 70
     1
102
RTVSPropertyOp24
 70
     1
102
RTVSPropertyOp25
 70
     1
102
RTVSPropertyOp26
 70
     1
102
RTVSPropertyOp27
 70
     1
102
RTVSPropertyOp28
 70
     1
102
RTVSPropertyOp29
 70
     1
102
RTVSPropertyOp30
 70
     1
102
RTVSPropertyOp31
 70
     1
102
RTVSPropertyOp32
 70
     1
102
RTVSPropertyOp33
 70
     1
102
RTVSPropertyOp34
 70
     1
102
RTVSPropertyOp35
 70
     1
102
RTVSPropertyOp36
 70
     1
102
RTVSPropertyOp37
 70
     1
102
RTVSPropertyOp38
 70
     1
102
RTVSPropertyOp39
 70
     1
102
RTVSPropertyOp40
 70
     1
102
RTVSPropertyOp41
 70
     1
102
RTVSPropertyOp42
 70
     1
102
RTVSPropertyOp43
 70
     1
102
RTVSPropertyOp44
 70
     1
102
RTVSPropertyOp45
 70
     1
102
RTVSPropertyOp46
 70
     1
102
RTVSPropertyOp47
 70
     1
102
RTVSPropertyOp48
 70
     1
102
RTVSPropertyOp49
 70
     1
102
RTVSPropertyOp50
 70
     1
102
RTVSPropertyOp51
 70
     0
102
RTVSPropertyOp52
 70
     0
102
RTVSPropertyOp53
 70
     1
102
RTVSPropertyOp54
 70
     1
102
RTVSPropertyOp55
 70
     1
102
RTVSPropertyOp56
 70
     1
102
RTVSPropertyOp57
 70
     1
102
RTVSPost2010Prop28
280
     0
102
RTVSPost2010PropOp28
 70
     1
102
RTVSPost2010Prop29
280
     1
102
RTVSPost2010PropOp29
 70
     1
102
RTVSPost2010Prop30
280
     1
102
RTVSPost2010PropOp30
 70
     1
102
RTVSPost2010Prop31
280
     0
102
RTVSPost2010PropOp31
 70
     1
102
RTVSPost2010Prop32
280
     0
102
RTVSPost2010PropOp32
 70
     1
102
RTVSPost2010Prop33
280
     0
102
RTVSPost2010PropOp33
 70
     1
102
RTVSPost2010Prop34
280
     0
102
RTVSPost2010PropOp34
 70
     1
102
RTVSPost2010Prop35
280
     0
102
RTVSPost2010PropOp35
 70
     1
102
RTVSPost2010Prop36
280
     0
102
RTVSPost2010PropOp36
 70
     1
102
RTVSPost2010Prop37
 90
       50
102
RTVSPost2010PropOp37
 70
     1
102
RTVSPost2010Prop38
140
0.0
102
RTVSPost2010PropOp38
 70
     1
102
RTVSPost2010Prop39
140
1.0
102
RTVSPost2010PropOp39
 70
     1
102
RTVSPost2010Prop40
 90
        0
102
RTVSPost2010PropOp40
 70
     1
102
RTVSPost2010Prop41ColorIndex
 90
       18
102
RTVSPost2010Prop41ColorRGB
 90
        0
102
RTVSPost2010PropOp41
 70
     1
102
RTVSPost2010Prop42
 90
       50
102
RTVSPost2010PropOp42
 70
     1
102
RTVSPost2010Prop43
 90
        3
102
RTVSPost2010PropOp43
 70
     1
102
RTVSPost2010Prop44ColorIndex
 90
        5
102
RTVSPost2010Prop44ColorRGB
 90
      255
102
RTVSPost2010PropOp44
 70
     1
102
RTVSPost2010Prop45
280
     0
102
RTVSPost2010PropOp45
 70
     1
102
RTVSPost2010Prop46
 90
       50
102
RTVSPost2010PropOp46
 70
     1
102
RTVSPost2010Prop47
 90
       50
102
RTVSPost2010PropOp47
 70
     1
102
RTVSPost2010Prop48
 90
       50
102
RTVSPost2010PropOp48
 70
     1
102
RTVSPost2010Prop49
280
     0
102
RTVSPost2010PropOp49
 70
     1
102
RTVSPost2010Prop50
 90
       50
102
RTVSPost2010PropOp50
 70
     1
102
RTVSPost2010Prop51ColorIndex
 90
      256
102
RTVSPost2010Prop51ColorRGB
 90
-16777216
102
RTVSPost2010PropOp51
 70
     0
102
RTVSPost2010Prop52
140
1.0
102
RTVSPost2010PropOp52
 70
     0
102
RTVSPost2010Prop53
 90
        2
102
RTVSPost2010PropOp53
 70
     1
102
RTVSPost2010Prop54
  1
strokes_ogs.tif
102
RTVSPost2010PropOp54
 70
     1
102
RTVSPost2010Prop55
280
     0
102
RTVSPost2010PropOp55
 70
     1
102
RTVSPost2010Prop56
140
1.0
102
RTVSPost2010PropOp56
 70
     1
102
RTVSPost2010Prop57
140
1.0
102
RTVSPost2010PropOp57
 70
     1
  0
XRECORD
  5
18C
102
{ACAD_REACTORS
330
18B
102
}
330
18B
100
AcDbXrecord
280
     1
102
RTVSPropertyOp0
 70
     1
102
RTVSPropertyOp1
 70
     1
102
RTVSPropertyOp2
 70
     1
102
RTVSPropertyOp3
 70
     1
102
RTVSPropertyOp4
 70
     1
102
RTVSPropertyOp5
 70
     1
102
RTVSPropertyOp6
 70
     1
102
RTVSPropertyOp7
 70
     1
102
RTVSPropertyOp8
 70
     1
102
RTVSPropertyOp9
 70
     1
102
RTVSPropertyOp10
 70
     1
102
RTVSPropertyOp11
 70
     1
102
RTVSPropertyOp12
 70
     1
102
RTVSPropertyOp13
 70
     1
102
RTVSPropertyOp14
 70
     1
102
RTVSPropertyOp15
 70
     1
102
RTVSPropertyOp16
 70
     1
102
RTVSPropertyOp17
 70
     1
102
RTVSPropertyOp18
 70
     1
102
RTVSPropertyOp19
 70
     1
102
RTVSPropertyOp20
 70
     1
102
RTVSPropertyOp21
 70
     1
102
RTVSPropertyOp22
 70
     1
102
RTVSPropertyOp23
 70
     1
102
RTVSPropertyOp24
 70
     1
102
RTVSPropertyOp25
 70
     1
102
RTVSPropertyOp26
 70
     1
102
RTVSPropertyOp27
 70
     1
102
RTVSPropertyOp28
 70
     1
102
RTVSPropertyOp29
 70
     1
102
RTVSPropertyOp30
 70
     1
102
RTVSPropertyOp31
 70
     1
102
RTVSPropertyOp32
 70
     1
102
RTVSPropertyOp33
 70
     1
102
RTVSPropertyOp34
 70
     1
102
RTVSPropertyOp35
 70
     1
102
RTVSPropertyOp36
 70
     1
102
RTVSPropertyOp37
 70
     1
102
RTVSPropertyOp38
 70
     1
102
RTVSPropertyOp39
 70
     1
102
RTVSPropertyOp40
 70
     1
102
RTVSPropertyOp41
 70
     1
102
RTVSPropertyOp42
 70
     1
102
RTVSPropertyOp43
 70
     1
102
RTVSPropertyOp44
 70
     1
102
RTVSPropertyOp45
 70
     1
102
RTVSPropertyOp46
 70
     1
102
RTVSPropertyOp47
 70
     1
102
RTVSPropertyOp48
 70
     1
102
RTVSPropertyOp49
 70
     1
102
RTVSPropertyOp50
 70
     1
102
RTVSPropertyOp51
 70
     0
102
RTVSPropertyOp52
 70
     0
102
RTVSPropertyOp53
 70
     1
102
RTVSPropertyOp54
 70
     1
102
RTVSPropertyOp55
 70
     1
102
RTVSPropertyOp56
 70
     1
102
RTVSPropertyOp57
 70
     1
102
RTVSPost2010Prop28
280
     0
102
RTVSPost2010PropOp28
 70
     1
102
RTVSPost2010Prop29
280
     1
102
RTVSPost2010PropOp29
 70
     1
102
RTVSPost2010Prop30
280
     1
102
RTVSPost2010PropOp30
 70
     1
102
RTVSPost2010Prop31
280
     0
102
RTVSPost2010PropOp31
 70
     1
102
RTVSPost2010Prop32
280
     0
102
RTVSPost2010PropOp32
 70
     1
102
RTVSPost2010Prop33
280
     0
102
RTVSPost2010PropOp33
 70
     1
102
RTVSPost2010Prop34
280
     0
102
RTVSPost2010PropOp34
 70
     1
102
RTVSPost2010Prop35
280
     0
102
RTVSPost2010PropOp35
 70
     1
102
RTVSPost2010Prop36
280
     0
102
RTVSPost2010PropOp36
 70
     1
102
RTVSPost2010Prop37
 90
       50
102
RTVSPost2010PropOp37
 70
     1
102
RTVSPost2010Prop38
140
0.0
102
RTVSPost2010PropOp38
 70
     1
102
RTVSPost2010Prop39
140
1.0
102
RTVSPost2010PropOp39
 70
     1
102
RTVSPost2010Prop40
 90
        0
102
RTVSPost2010PropOp40
 70
     1
102
RTVSPost2010Prop41ColorIndex
 90
       18
102
RTVSPost2010Prop41ColorRGB
 90
        0
102
RTVSPost2010PropOp41
 70
     1
102
RTVSPost2010Prop42
 90
       50
102
RTVSPost2010PropOp42
 70
     1
102
RTVSPost2010Prop43
 90
        3
102
RTVSPost2010PropOp43
 70
     1
102
RTVSPost2010Prop44ColorIndex
 90
        5
102
RTVSPost2010Prop44ColorRGB
 90
      255
102
RTVSPost2010PropOp44
 70
     1
102
RTVSPost2010Prop45
280
     0
102
RTVSPost2010PropOp45
 70
     1
102
RTVSPost2010Prop46
 90
       50
102
RTVSPost2010PropOp46
 70
     1
102
RTVSPost2010Prop47
 90
       50
102
RTVSPost2010PropOp47
 70
     1
102
RTVSPost2010Prop48
 90
       50
102
RTVSPost2010PropOp48
 70
     1
102
RTVSPost2010Prop49
280
     0
102
RTVSPost2010PropOp49
 70
     1
102
RTVSPost2010Prop50
 90
       50
102
RTVSPost2010PropOp50
 70
     1
102
RTVSPost2010Prop51ColorIndex
 90
      256
102
RTVSPost2010Prop51ColorRGB
 90
-16777216
102
RTVSPost2010PropOp51
 70
     0
102
RTVSPost2010Prop52
140
1.0
102
RTVSPost2010PropOp52
 70
     0
102
RTVSPost2010Prop53
 90
        2
102
RTVSPost2010PropOp53
 70
     1
102
RTVSPost2010Prop54
  1
strokes_ogs.tif
102
RTVSPost2010PropOp54
 70
     1
102
RTVSPost2010Prop55
280
     0
102
RTVSPost2010PropOp55
 70
     1
102
RTVSPost2010Prop56
140
1.0
102
RTVSPost2010PropOp56
 70
     1
102
RTVSPost2010Prop57
140
1.0
102
RTVSPost2010PropOp57
 70
     1
  0
XRECORD
  5
17E
102
{ACAD_REACTORS
330
17D
102
}
330
17D
100
AcDbXrecord
280
     1
102
RTVSPropertyOp0
 70
     1
102
RTVSPropertyOp1
 70
     1
102
RTVSPropertyOp2
 70
     1
102
RTVSPropertyOp3
 70
     1
102
RTVSPropertyOp4
 70
     1
102
RTVSPropertyOp5
 70
     1
102
RTVSPropertyOp6
 70
     1
102
RTVSPropertyOp7
 70
     1
102
RTVSPropertyOp8
 70
     1
102
RTVSPropertyOp9
 70
     1
102
RTVSPropertyOp10
 70
     1
102
RTVSPropertyOp11
 70
     1
102
RTVSPropertyOp12
 70
     1
102
RTVSPropertyOp13
 70
     1
102
RTVSPropertyOp14
 70
     1
102
RTVSPropertyOp15
 70
     1
102
RTVSPropertyOp16
 70
     1
102
RTVSPropertyOp17
 70
     1
102
RTVSPropertyOp18
 70
     1
102
RTVSPropertyOp19
 70
     1
102
RTVSPropertyOp20
 70
     1
102
RTVSPropertyOp21
 70
     1
102
RTVSPropertyOp22
 70
     1
102
RTVSPropertyOp23
 70
     1
102
RTVSPropertyOp24
 70
     1
102
RTVSPropertyOp25
 70
     1
102
RTVSPropertyOp26
 70
     1
102
RTVSPropertyOp27
 70
     1
102
RTVSPropertyOp28
 70
     1
102
RTVSPropertyOp29
 70
     1
102
RTVSPropertyOp30
 70
     1
102
RTVSPropertyOp31
 70
     1
102
RTVSPropertyOp32
 70
     1
102
RTVSPropertyOp33
 70
     1
102
RTVSPropertyOp34
 70
     1
102
RTVSPropertyOp35
 70
     1
102
RTVSPropertyOp36
 70
     1
102
RTVSPropertyOp37
 70
     1
102
RTVSPropertyOp38
 70
     1
102
RTVSPropertyOp39
 70
     1
102
RTVSPropertyOp40
 70
     1
102
RTVSPropertyOp41
 70
     1
102
RTVSPropertyOp42
 70
     1
102
RTVSPropertyOp43
 70
     1
102
RTVSPropertyOp44
 70
     1
102
RTVSPropertyOp45
 70
     1
102
RTVSPropertyOp46
 70
     1
102
RTVSPropertyOp47
 70
     1
102
RTVSPropertyOp48
 70
     1
102
RTVSPropertyOp49
 70
     1
102
RTVSPropertyOp50
 70
     1
102
RTVSPropertyOp51
 70
     0
102
RTVSPropertyOp52
 70
     0
102
RTVSPropertyOp53
 70
     1
102
RTVSPropertyOp54
 70
     1
102
RTVSPropertyOp55
 70
     1
102
RTVSPropertyOp56
 70
     1
102
RTVSPropertyOp57
 70
     1
102
RTVSPost2010Prop28
280
     0
102
RTVSPost2010PropOp28
 70
     1
102
RTVSPost2010Prop29
280
     1
102
RTVSPost2010PropOp29
 70
     1
102
RTVSPost2010Prop30
280
     1
102
RTVSPost2010PropOp30
 70
     1
102
RTVSPost2010Prop31
280
     0
102
RTVSPost2010PropOp31
 70
     1
102
RTVSPost2010Prop32
280
     0
102
RTVSPost2010PropOp32
 70
     1
102
RTVSPost2010Prop33
280
     0
102
RTVSPost2010PropOp33
 70
     1
102
RTVSPost2010Prop34
280
     0
102
RTVSPost2010PropOp34
 70
     1
102
RTVSPost2010Prop35
280
     0
102
RTVSPost2010PropOp35
 70
     1
102
RTVSPost2010Prop36
280
     0
102
RTVSPost2010PropOp36
 70
     1
102
RTVSPost2010Prop37
 90
       50
102
RTVSPost2010PropOp37
 70
     1
102
RTVSPost2010Prop38
140
0.0
102
RTVSPost2010PropOp38
 70
     1
102
RTVSPost2010Prop39
140
1.0
102
RTVSPost2010PropOp39
 70
     1
102
RTVSPost2010Prop40
 90
        0
102
RTVSPost2010PropOp40
 70
     1
102
RTVSPost2010Prop41ColorIndex
 90
       18
102
RTVSPost2010Prop41ColorRGB
 90
        0
102
RTVSPost2010PropOp41
 70
     1
102
RTVSPost2010Prop42
 90
       50
102
RTVSPost2010PropOp42
 70
     1
102
RTVSPost2010Prop43
 90
        3
102
RTVSPost2010PropOp43
 70
     1
102
RTVSPost2010Prop44ColorIndex
 90
        5
102
RTVSPost2010Prop44ColorRGB
 90
      255
102
RTVSPost2010PropOp44
 70
     1
102
RTVSPost2010Prop45
280
     0
102
RTVSPost2010PropOp45
 70
     1
102
RTVSPost2010Prop46
 90
       50
102
RTVSPost2010PropOp46
 70
     1
102
RTVSPost2010Prop47
 90
       50
102
RTVSPost2010PropOp47
 70
     1
102
RTVSPost2010Prop48
 90
       50
102
RTVSPost2010PropOp48
 70
     1
102
RTVSPost2010Prop49
280
     0
102
RTVSPost2010PropOp49
 70
     1
102
RTVSPost2010Prop50
 90
       50
102
RTVSPost2010PropOp50
 70
     1
102
RTVSPost2010Prop51ColorIndex
 90
      256
102
RTVSPost2010Prop51ColorRGB
 90
-16777216
102
RTVSPost2010PropOp51
 70
     0
102
RTVSPost2010Prop52
140
1.0
102
RTVSPost2010PropOp52
 70
     0
102
RTVSPost2010Prop53
 90
        2
102
RTVSPost2010PropOp53
 70
     1
102
RTVSPost2010Prop54
  1
strokes_ogs.tif
102
RTVSPost2010PropOp54
 70
     1
102
RTVSPost2010Prop55
280
     0
102
RTVSPost2010PropOp55
 70
     1
102
RTVSPost2010Prop56
140
1.0
102
RTVSPost2010PropOp56
 70
     1
102
RTVSPost2010Prop57
140
1.0
102
RTVSPost2010PropOp57
 70
     1
  0
XRECORD
  5
19E
102
{ACAD_REACTORS
330
19D
102
}
330
19D
100
AcDbXrecord
280
     1
102
RTVSPropertyOp0
 70
     1
102
RTVSPropertyOp1
 70
     1
102
RTVSPropertyOp2
 70
     1
102
RTVSPropertyOp3
 70
     1
102
RTVSPropertyOp4
 70
     1
102
RTVSPropertyOp5
 70
     1
102
RTVSPropertyOp6
 70
     1
102
RTVSPropertyOp7
 70
     1
102
RTVSPropertyOp8
 70
     1
102
RTVSPropertyOp9
 70
     1
102
RTVSPropertyOp10
 70
     1
102
RTVSPropertyOp11
 70
     1
102
RTVSPropertyOp12
 70
     1
102
RTVSPropertyOp13
 70
     1
102
RTVSPropertyOp14
 70
     1
102
RTVSPropertyOp15
 70
     1
102
RTVSPropertyOp16
 70
     1
102
RTVSPropertyOp17
 70
     1
102
RTVSPropertyOp18
 70
     1
102
RTVSPropertyOp19
 70
     1
102
RTVSPropertyOp20
 70
     1
102
RTVSPropertyOp21
 70
     1
102
RTVSPropertyOp22
 70
     1
102
RTVSPropertyOp23
 70
     1
102
RTVSPropertyOp24
 70
     1
102
RTVSPropertyOp25
 70
     1
102
RTVSPropertyOp26
 70
     1
102
RTVSPropertyOp27
 70
     1
102
RTVSPropertyOp28
 70
     1
102
RTVSPropertyOp29
 70
     1
102
RTVSPropertyOp30
 70
     1
102
RTVSPropertyOp31
 70
     1
102
RTVSPropertyOp32
 70
     1
102
RTVSPropertyOp33
 70
     1
102
RTVSPropertyOp34
 70
     1
102
RTVSPropertyOp35
 70
     1
102
RTVSPropertyOp36
 70
     1
102
RTVSPropertyOp37
 70
     1
102
RTVSPropertyOp38
 70
     1
102
RTVSPropertyOp39
 70
     1
102
RTVSPropertyOp40
 70
     1
102
RTVSPropertyOp41
 70
     1
102
RTVSPropertyOp42
 70
     1
102
RTVSPropertyOp43
 70
     1
102
RTVSPropertyOp44
 70
     1
102
RTVSPropertyOp45
 70
     1
102
RTVSPropertyOp46
 70
     1
102
RTVSPropertyOp47
 70
     1
102
RTVSPropertyOp48
 70
     1
102
RTVSPropertyOp49
 70
     1
102
RTVSPropertyOp50
 70
     1
102
RTVSPropertyOp51
 70
     0
102
RTVSPropertyOp52
 70
     0
102
RTVSPropertyOp53
 70
     1
102
RTVSPropertyOp54
 70
     1
102
RTVSPropertyOp55
 70
     1
102
RTVSPropertyOp56
 70
     1
102
RTVSPropertyOp57
 70
     1
102
RTVSPost2010Prop28
280
     0
102
RTVSPost2010PropOp28
 70
     1
102
RTVSPost2010Prop29
280
     1
102
RTVSPost2010PropOp29
 70
     1
102
RTVSPost2010Prop30
280
     1
102
RTVSPost2010PropOp30
 70
     1
102
RTVSPost2010Prop31
280
     0
102
RTVSPost2010PropOp31
 70
     1
102
RTVSPost2010Prop32
280
     0
102
RTVSPost2010PropOp32
 70
     1
102
RTVSPost2010Prop33
280
     0
102
RTVSPost2010PropOp33
 70
     1
102
RTVSPost2010Prop34
280
     0
102
RTVSPost2010PropOp34
 70
     1
102
RTVSPost2010Prop35
280
     0
102
RTVSPost2010PropOp35
 70
     1
102
RTVSPost2010Prop36
280
     0
102
RTVSPost2010PropOp36
 70
     1
102
RTVSPost2010Prop37
 90
       50
102
RTVSPost2010PropOp37
 70
     1
102
RTVSPost2010Prop38
140
0.0
102
RTVSPost2010PropOp38
 70
     1
102
RTVSPost2010Prop39
140
1.0
102
RTVSPost2010PropOp39
 70
     1
102
RTVSPost2010Prop40
 90
        0
102
RTVSPost2010PropOp40
 70
     1
102
RTVSPost2010Prop41ColorIndex
 90
       18
102
RTVSPost2010Prop41ColorRGB
 90
        0
102
RTVSPost2010PropOp41
 70
     1
102
RTVSPost2010Prop42
 90
       50
102
RTVSPost2010PropOp42
 70
     1
102
RTVSPost2010Prop43
 90
        3
102
RTVSPost2010PropOp43
 70
     1
102
RTVSPost2010Prop44ColorIndex
 90
        5
102
RTVSPost2010Prop44ColorRGB
 90
      255
102
RTVSPost2010PropOp44
 70
     1
102
RTVSPost2010Prop45
280
     0
102
RTVSPost2010PropOp45
 70
     1
102
RTVSPost2010Prop46
 90
       50
102
RTVSPost2010PropOp46
 70
     1
102
RTVSPost2010Prop47
 90
       50
102
RTVSPost2010PropOp47
 70
     1
102
RTVSPost2010Prop48
 90
       50
102
RTVSPost2010PropOp48
 70
     1
102
RTVSPost2010Prop49
280
     0
102
RTVSPost2010PropOp49
 70
     1
102
RTVSPost2010Prop50
 90
       50
102
RTVSPost2010PropOp50
 70
     1
102
RTVSPost2010Prop51ColorIndex
 90
      256
102
RTVSPost2010Prop51ColorRGB
 90
-16777216
102
RTVSPost2010PropOp51
 70
     0
102
RTVSPost2010Prop52
140
1.0
102
RTVSPost2010PropOp52
 70
     0
102
RTVSPost2010Prop53
 90
        2
102
RTVSPost2010PropOp53
 70
     1
102
RTVSPost2010Prop54
  1
strokes_ogs.tif
102
RTVSPost2010PropOp54
 70
     1
102
RTVSPost2010Prop55
280
     0
102
RTVSPost2010PropOp55
 70
     1
102
RTVSPost2010Prop56
140
1.0
102
RTVSPost2010PropOp56
 70
     1
102
RTVSPost2010Prop57
140
1.0
102
RTVSPost2010PropOp57
 70
     1
  0
ENDSEC
  0
EOF
