  0
SECTION
  2
HEADER
  9
$ACADVER
  1
AC1021
  9
$ACADMAINTVER
 70
    25
  9
$DWGCODEPAGE
  3
ANSI_1252
  9
$INSBASE
 10
0.0
 20
0.0
 30
0.0
  9
$EXTMIN
 10
1.000000000000000E+20
 20
1.000000000000000E+20
 30
1.000000000000000E+20
  9
$EXTMAX
 10
-1.000000000000000E+20
 20
-1.000000000000000E+20
 30
-1.000000000000000E+20
  9
$LIMMIN
 10
0.0
 20
0.0
  9
$LIMMAX
 10
12.0
 20
9.0
  9
$ORTHOMODE
 70
     0
  9
$REGENMODE
 70
     1
  9
$FILLMODE
 70
     1
  9
$QTEXTMODE
 70
     0
  9
$MIRRTEXT
 70
     1
  9
$LTSCALE
 40
1.0
  9
$ATTMODE
 70
     1
  9
$TEXTSIZE
 40
0.2
  9
$TRACEWID
 40
0.05
  9
$TEXTSTYLE
  7
Standard
  9
$CLAYER
  8
0
  9
$CELTYPE
  6
ByLayer
  9
$CECOLOR
 62
   256
  9
$CELTSCALE
 40
1.0
  9
$DISPSILH
 70
     0
  9
$DIMSCALE
 40
1.0
  9
$DIMASZ
 40
0.18
  9
$DIMEXO
 40
0.0625
  9
$DIMDLI
 40
0.38
  9
$DIMRND
 40
0.0
  9
$DIMDLE
 40
0.0
  9
$DIMEXE
 40
0.18
  9
$DIMTP
 40
0.0
  9
$DIMTM
 40
0.0
  9
$DIMTXT
 40
0.18
  9
$DIMCEN
 40
0.09
  9
$DIMTSZ
 40
0.0
  9
$DIMTOL
 70
     0
  9
$DIMLIM
 70
     0
  9
$DIMTIH
 70
     1
  9
$DIMTOH
 70
     1
  9
$DIMSE1
 70
     0
  9
$DIMSE2
 70
     0
  9
$DIMTAD
 70
     0
  9
$DIMZIN
 70
     0
  9
$DIMBLK
  1

  9
$DIMASO
 70
     1
  9
$DIMSHO
 70
     1
  9
$DIMPOST
  1

  9
$DIMAPOST
  1

  9
$DIMALT
 70
     0
  9
$DIMALTD
 70
     2
  9
$DIMALTF
 40
25.4
  9
$DIMLFAC
 40
1.0
  9
$DIMTOFL
 70
     0
  9
$DIMTVP
 40
0.0
  9
$DIMTIX
 70
     0
  9
$DIMSOXD
 70
     0
  9
$DIMSAH
 70
     0
  9
$DIMBLK1
  1

  9
$DIMBLK2
  1

  9
$DIMSTYLE
  2
STANDARD_ACAD
  9
$DIMCLRD
 70
     0
  9
$DIMCLRE
 70
     0
  9
$DIMCLRT
 70
     0
  9
$DIMTFAC
 40
1.0
  9
$DIMGAP
 40
0.09
  9
$DIMJUST
 70
     0
  9
$DIMSD1
 70
     0
  9
$DIMSD2
 70
     0
  9
$DIMTOLJ
 70
     1
  9
$DIMTZIN
 70
     0
  9
$DIMALTZ
 70
     0
  9
$DIMALTTZ
 70
     0
  9
$DIMUPT
 70
     0
  9
$DIMDEC
 70
     4
  9
$DIMTDEC
 70
     4
  9
$DIMALTU
 70
     2
  9
$DIMALTTD
 70
     2
  9
$DIMTXSTY
  7
Standard
  9
$DIMAUNIT
 70
     0
  9
$DIMADEC
 70
     0
  9
$DIMALTRND
 40
0.0
  9
$DIMAZIN
 70
     0
  9
$DIMDSEP
 70
    46
  9
$DIMATFIT
 70
     3
  9
$DIMFRAC
 70
     0
  9
$DIMLDRBLK
  1

  9
$DIMLUNIT
 70
     2
  9
$DIMLWD
 70
    -2
  9
$DIMLWE
 70
    -2
  9
$DIMTMOVE
 70
     2
  9
$DIMFXL
 40
1.0
  9
$DIMFXLON
 70
     0
  9
$DIMJOGANG
 40
0.7853981633974483
  9
$DIMTFILL
 70
     0
  9
$DIMTFILLCLR
 70
     0
  9
$DIMARCSYM
 70
     0
  9
$DIMLTYPE
  6

  9
$DIMLTEX1
  6

  9
$DIMLTEX2
  6

  9
$LUNITS
 70
     2
  9
$LUPREC
 70
     3
  9
$SKETCHINC
 40
0.1
  9
$FILLETRAD
 40
0.5
  9
$AUNITS
 70
     0
  9
$AUPREC
 70
     0
  9
$MENU
  1
.
  9
$ELEVATION
 40
0.0
  9
$PELEVATION
 40
0.0
  9
$THICKNESS
 40
0.0
  9
$LIMCHECK
 70
     0
  9
$CHAMFERA
 40
0.0
  9
$CHAMFERB
 40
0.0
  9
$CHAMFERC
 40
0.0
  9
$CHAMFERD
 40
0.0
  9
$SKPOLY
 70
     0
  9
$TDCREATE
 40
2459174.699445903
  9
$TDUCREATE
 40
2459174.907779236
  9
$TDUPDATE
 40
2459174.699452812
  9
$TDUUPDATE
 40
2459174.907786146
  9
$TDINDWG
 40
0.0000000116
  9
$TDUSRTIMER
 40
0.0000000116
  9
$USRTIMER
 70
     1
  9
$ANGBASE
 50
0.0
  9
$ANGDIR
 70
     0
  9
$PDMODE
 70
     0
  9
$PDSIZE
 40
0.0
  9
$PLINEWID
 40
0.0
  9
$SPLFRAME
 70
     0
  9
$SPLINETYPE
 70
     6
  9
$SPLINESEGS
 70
     8
  9
$HANDSEED
  5
1F8
  9
$SURFTAB1
 70
     6
  9
$SURFTAB2
 70
     6
  9
$SURFTYPE
 70
     6
  9
$SURFU
 70
     6
  9
$SURFV
 70
     6
  9
$UCSBASE
  2

  9
$UCSNAME
  2

  9
$UCSORG
 10
0.0
 20
0.0
 30
0.0
  9
$UCSXDIR
 10
1.0
 20
0.0
 30
0.0
  9
$UCSYDIR
 10
0.0
 20
1.0
 30
0.0
  9
$UCSORTHOREF
  2

  9
$UCSORTHOVIEW
 70
     0
  9
$UCSORGTOP
 10
0.0
 20
0.0
 30
0.0
  9
$UCSORGBOTTOM
 10
0.0
 20
0.0
 30
0.0
  9
$UCSORGLEFT
 10
0.0
 20
0.0
 30
0.0
  9
$UCSORGRIGHT
 10
0.0
 20
0.0
 30
0.0
  9
$UCSORGFRONT
 10
0.0
 20
0.0
 30
0.0
  9
$UCSORGBACK
 10
0.0
 20
0.0
 30
0.0
  9
$PUCSBASE
  2

  9
$PUCSNAME
  2

  9
$PUCSORG
 10
0.0
 20
0.0
 30
0.0
  9
$PUCSXDIR
 10
1.0
 20
0.0
 30
0.0
  9
$PUCSYDIR
 10
0.0
 20
1.0
 30
0.0
  9
$PUCSORTHOREF
  2

  9
$PUCSORTHOVIEW
 70
     0
  9
$PUCSORGTOP
 10
0.0
 20
0.0
 30
0.0
  9
$PUCSORGBOTTOM
 10
0.0
 20
0.0
 30
0.0
  9
$PUCSORGLEFT
 10
0.0
 20
0.0
 30
0.0
  9
$PUCSORGRIGHT
 10
0.0
 20
0.0
 30
0.0
  9
$PUCSORGFRONT
 10
0.0
 20
0.0
 30
0.0
  9
$PUCSORGBACK
 10
0.0
 20
0.0
 30
0.0
  9
$USERI1
 70
     0
  9
$USERI2
 70
     0
  9
$USERI3
 70
     0
  9
$USERI4
 70
     0
  9
$USERI5
 70
     0
  9
$USERR1
 40
0.0
  9
$USERR2
 40
0.0
  9
$USERR3
 40
0.0
  9
$USERR4
 40
0.0
  9
$USERR5
 40
0.0
  9
$WORLDVIEW
 70
     1
  9
$SHADEDGE
 70
     3
  9
$SHADEDIF
 70
    70
  9
$TILEMODE
 70
     1
  9
$MAXACTVP
 70
    64
  9
$PINSBASE
 10
0.0
 20
0.0
 30
0.0
  9
$PLIMCHECK
 70
     0
  9
$PEXTMIN
 10
1.000000000000000E+20
 20
1.000000000000000E+20
 30
1.000000000000000E+20
  9
$PEXTMAX
 10
-1.000000000000000E+20
 20
-1.000000000000000E+20
 30
-1.000000000000000E+20
  9
$PLIMMIN
 10
0.0
 20
0.0
  9
$PLIMMAX
 10
12.0
 20
9.0
  9
$UNITMODE
 70
     0
  9
$VISRETAIN
 70
     1
  9
$PLINEGEN
 70
     0
  9
$PSLTSCALE
 70
     1
  9
$TREEDEPTH
 70
  3020
  9
$CMLSTYLE
  2
Standard
  9
$CMLJUST
 70
     0
  9
$CMLSCALE
 40
1.0
  9
$PROXYGRAPHICS
 70
     1
  9
$MEASUREMENT
 70
     0
  9
$CELWEIGHT
370
    -1
  9
$ENDCAPS
280
     0
  9
$JOINSTYLE
280
     0
  9
$LWDISPLAY
290
     0
  9
$INSUNITS
 70
     1
  9
$HYPERLINKBASE
  1

  9
$STYLESHEET
  1

  9
$XEDIT
290
     1
  9
$CEPSNTYPE
380
     0
  9
$PSTYLEMODE
290
     1
  9
$FINGERPRINTGUID
  2
{c4259a57-24d6-4e3a-94d1-34a63c3bab43}
  9
$VERSIONGUID
  2
{FAEB1C32-E019-11D5-929B-00C0DF256EC4}
  9
$EXTNAMES
290
     1
  9
$PSVPSCALE
 40
0.0
  9
$OLESTARTUP
290
     0
  9
$SORTENTS
280
   127
  9
$INDEXCTL
280
     0
  9
$HIDETEXT
280
     1
  9
$XCLIPFRAME
290
     0
  9
$HALOGAP
280
     0
  9
$OBSCOLOR
 70
   257
  9
$OBSLTYPE
280
     0
  9
$INTERSECTIONDISPLAY
280
     0
  9
$INTERSECTIONCOLOR
 70
   257
  9
$DIMASSOC
280
     2
  9
$PROJECTNAME
  1

  9
$CAMERADISPLAY
290
     0
  9
$LENSLENGTH
 40
50.0
  9
$CAMERAHEIGHT
 40
0.0
  9
$STEPSPERSEC
 40
2.0
  9
$STEPSIZE
 40
6.0
  9
$3DDWFPREC
 40
2.0
  9
$PSOLWIDTH
 40
0.25
  9
$PSOLHEIGHT
 40
4.0
  9
$LOFTANG1
 40
1.570796326794897
  9
$LOFTANG2
 40
1.570796326794897
  9
$LOFTMAG1
 40
0.0
  9
$LOFTMAG2
 40
0.0
  9
$LOFTPARAM
 70
     7
  9
$LOFTNORMALS
280
     1
  9
$LATITUDE
 40
37.795
  9
$LONGITUDE
 40
-122.394
  9
$NORTHDIRECTION
 40
0.0
  9
$TIMEZONE
 70
 -8000
  9
$LIGHTGLYPHDISPLAY
280
     1
  9
$TILEMODELIGHTSYNCH
280
     1
  9
$CMATERIAL
347
44
  9
$SOLIDHIST
280
     0
  9
$SHOWHIST
280
     1
  9
$DWFFRAME
280
     2
  9
$DGNFRAME
280
     2
  9
$REALWORLDSCALE
290
     1
  9
$INTERFERECOLOR
 62
   256
  9
$CSHADOW
280
     0
  9
$SHADOWPLANELOCATION
 40
0.0
  0
ENDSEC
  0
SECTION
  2
CLASSES
  0
CLASS
  1
ACDBDICTIONARYWDFLT
  2
AcDbDictionaryWithDefault
  3
ObjectDBX Classes
 90
        0
 91
        3
280
     0
281
     0
  0
CLASS
  1
VISUALSTYLE
  2
AcDbVisualStyle
  3
ObjectDBX Classes
 90
     4095
 91
        3
280
     0
281
     0
  0
CLASS
  1
MATERIAL
  2
AcDbMaterial
  3
ObjectDBX Classes
 90
     1153
 91
        3
280
     0
281
     0
  0
CLASS
  1
SCALE
  2
AcDbScale
  3
ObjectDBX Classes
 90
     1153
 91
        3
280
     0
281
     0
  0
CLASS
  1
TABLESTYLE
  2
AcDbTableStyle
  3
ObjectDBX Classes
 90
     4095
 91
        3
280
     0
281
     0
  0
CLASS
  1
MLEADERSTYLE
  2
AcDbMLeaderStyle
  3
ACDB_MLEADERSTYLE_CLASS
 90
     4095
 91
        3
280
     0
281
     0
  0
CLASS
  1
SUN
  2
AcDbSun
  3
SCENEOE
 90
     1153
 91
        3
280
     0
281
     0
  0
CLASS
  1
DICTIONARYVAR
  2
AcDbDictionaryVar
  3
ObjectDBX Classes
 90
        0
 91
        3
280
     0
281
     0
  0
CLASS
  1
CELLSTYLEMAP
  2
AcDbCellStyleMap
  3
ObjectDBX Classes
 90
     1152
 91
        3
280
     0
281
     0
  0
ENDSEC
  0
SECTION
  2
TABLES
  0
TABLE
  2
VPORT
  5
8
330
0
100
AcDbSymbolTable
 70
     1
  0
VPORT
  5
29
330
8
100
AcDbSymbolTableRecord
100
AcDbViewportTableRecord
  2
*Active
 70
     0
 10
0.0
 20
0.0
 11
1.0
 21
1.0
 12
10.42990654205607
 22
4.5
 13
0.0
 23
0.0
 14
0.5
 24
0.5
 15
0.5
 25
0.5
 16
0.0
 26
0.0
 36
1.0
 17
0.0
 27
0.0
 37
0.0
 40
9.0
 41
1.972972972850329
 42
50.0
 43
0.0
 44
0.0
 50
0.0
 51
0.0
 71
     0
 72
   100
 73
     1
 74
     3
 75
     0
 76
     0
 77
     0
 78
     0
281
     0
 65
     1
110
0.0
120
0.0
130
0.0
111
1.0
121
0.0
131
0.0
112
0.0
122
1.0
132
0.0
 79
     0
146
0.0
348
2F
 60
     3
 61
     5
292
     1
282
     1
141
0.0
142
0.0
 63
   250
361
6D
  0
ENDTAB
  0
TABLE
  2
LTYPE
  5
5
330
0
100
AcDbSymbolTable
 70
     1
  0
LTYPE
  5
14
330
5
100
AcDbSymbolTableRecord
100
AcDbLinetypeTableRecord
  2
ByBlock
 70
     0
  3

 72
    65
 73
     0
 40
0.0
  0
LTYPE
  5
15
330
5
100
AcDbSymbolTableRecord
100
AcDbLinetypeTableRecord
  2
ByLayer
 70
     0
  3

 72
    65
 73
     0
 40
0.0
  0
LTYPE
  5
16
330
5
100
AcDbSymbolTableRecord
100
AcDbLinetypeTableRecord
  2
Continuous
 70
     0
  3
Solid line
 72
    65
 73
     0
 40
0.0
  0
ENDTAB
  0
TABLE
  2
LAYER
  5
2
330
0
100
AcDbSymbolTable
 70
     3
  0
LAYER
  5
10
330
2
100
AcDbSymbolTableRecord
100
AcDbLayerTableRecord
  2
0
 70
     0
 62
    18
420
        0
  6
Continuous
370
    -3
390
F
347
46
  0
LAYER
  5
70
330
2
100
AcDbSymbolTableRecord
100
AcDbLayerTableRecord
  2
Make2D$Visible$Tangents
 70
     0
 62
    18
420
        0
  6
Continuous
370
    -3
390
F
347
46
  0
LAYER
  5
196
330
2
100
AcDbSymbolTableRecord
100
AcDbLayerTableRecord
  2
Make2D$Visible$Curves
 70
     0
 62
    18
420
        0
  6
Continuous
370
    -3
390
F
347
46
  0
ENDTAB
  0
TABLE
  2
STYLE
  5
3
330
0
100
AcDbSymbolTable
 70
     1
  0
STYLE
  5
11
330
3
100
AcDbSymbolTableRecord
100
AcDbTextStyleTableRecord
  2
Standard
 70
     0
 40
0.0
 41
1.0
 50
0.0
 71
     0
 42
0.2
  3
txt
  4

  0
ENDTAB
  0
TABLE
  2
VIEW
  5
6
330
0
100
AcDbSymbolTable
 70
     0
  0
ENDTAB
  0
TABLE
  2
UCS
  5
7
330
0
100
AcDbSymbolTable
 70
     0
  0
ENDTAB
  0
TABLE
  2
APPID
  5
9
330
0
100
AcDbSymbolTable
 70
     2
  0
APPID
  5
12
330
9
100
AcDbSymbolTableRecord
100
AcDbRegAppTableRecord
  2
ACAD
 70
     0
  0
APPID
  5
1F0
330
9
100
AcDbSymbolTableRecord
100
AcDbRegAppTableRecord
  2
ACAD_MLEADERVER
 70
     0
  0
ENDTAB
  0
TABLE
  2
DIMSTYLE
  5
A
330
0
100
AcDbSymbolTable
 70
     1
100
AcDbDimStyleTable
  0
DIMSTYLE
105
27
330
A
100
AcDbSymbolTableRecord
100
AcDbDimStyleTableRecord
  2
STANDARD_ACAD
 70
     0
178
     0
340
11
  0
ENDTAB
  0
TABLE
  2
BLOCK_RECORD
  5
1
330
0
100
AcDbSymbolTable
 70
     1
  0
BLOCK_RECORD
  5
1F
330
1
100
AcDbSymbolTableRecord
100
AcDbBlockTableRecord
  2
*Model_Space
340
22
 70
     0
280
     1
281
     0
  0
BLOCK_RECORD
  5
1B
330
1
100
AcDbSymbolTableRecord
100
AcDbBlockTableRecord
  2
*Paper_Space
340
1E
 70
     0
280
     1
281
     0
  0
BLOCK_RECORD
  5
23
330
1
100
AcDbSymbolTableRecord
100
AcDbBlockTableRecord
  2
*Paper_Space0
340
26
 70
     0
280
     1
281
     0
  0
ENDTAB
  0
ENDSEC
  0
SECTION
  2
BLOCKS
  0
BLOCK
  5
20
330
1F
100
AcDbEntity
  8
0
100
AcDbBlockBegin
  2
*Model_Space
 70
     0
 10
0.0
 20
0.0
 30
0.0
  3
*Model_Space
  1

  0
ENDBLK
  5
21
330
1F
100
AcDbEntity
  8
0
100
AcDbBlockEnd
  0
BLOCK
  5
1C
330
1B
100
AcDbEntity
 67
     1
  8
0
100
AcDbBlockBegin
  2
*Paper_Space
 70
     0
 10
0.0
 20
0.0
 30
0.0
  3
*Paper_Space
  1

  0
ENDBLK
  5
1D
330
1B
100
AcDbEntity
 67
     1
  8
0
100
AcDbBlockEnd
  0
BLOCK
  5
24
330
23
100
AcDbEntity
  8
0
100
AcDbBlockBegin
  2
*Paper_Space0
 70
     0
 10
0.0
 20
0.0
 30
0.0
  3
*Paper_Space0
  1

  0
ENDBLK
  5
25
330
23
100
AcDbEntity
  8
0
100
AcDbBlockEnd
  0
ENDSEC
  0
SECTION
  2
ENTITIES
  0
SPLINE
  5
6E
330
1F
100
AcDbEntity
  8
0
370
    -3
100
AcDbSpline
210
0.0
220
0.0
230
1.0
 70
    12
 71
     3
 72
     8
 73
     4
 74
     0
 42
0.000000001
 43
0.0000000001
 40
0.0
 40
0.0
 40
0.0
 40
0.0
 40
0.2647511823589043
 40
0.2647511823589043
 40
0.2647511823589043
 40
0.2647511823589043
 10
-9.94400388907227
 20
61.5203970756229
 30
0.0
 41
0.8536807726429321
 10
-9.944048700430026
 20
61.43267807186525
 30
0.0
 41
0.8536807726429323
 10
-9.927060986696851
 20
61.34499553872812
 30
0.0
 41
0.8536807726429321
 10
-9.894259401472278
 20
61.26364007686725
 30
0.0
 41
0.8536807726429321
  0
SPLINE
  5
6F
330
1F
100
AcDbEntity
  8
0
370
    -3
100
AcDbSpline
210
0.0
220
0.0
230
1.0
 70
    28
 71
     2
 72
     6
 73
     3
 74
     0
 42
0.000000001
 43
0.0000000001
 40
-2.344878717470501
 40
-2.344878717470501
 40
-2.344878717470501
 40
-2.172974505234492
 40
-2.172974505234492
 40
-2.172974505234492
 10
-8.249388554620133
 20
59.60490319685687
 30
0.0
 41
1.000000000000006
 10
-8.335340660738147
 20
59.60490319685687
 30
0.0
 41
1.000000000000006
 10
-8.421292766856162
 20
59.60490319685687
 30
0.0
 41
1.000000000000006
  0
SPLINE
  5
71
330
1F
100
AcDbEntity
  8
Make2D$Visible$Tangents
 62
    18
420
        0
370
    -3
100
AcDbSpline
210
0.0
220
0.0
230
1.0
 70
    12
 71
     3
 72
     8
 73
     4
 74
     0
 42
0.000000001
 43
0.0000000001
 40
0.0179235101680189
 40
0.0179235101680189
 40
0.0179235101680189
 40
0.0179235101680189
 40
0.1267941416125308
 40
0.1267941416125308
 40
0.1267941416125308
 40
0.1267941416125308
 10
0.0000049272194931
 20
57.60605172746879
 30
0.0
 41
1.089880733531957
 10
0.0000049274101593
 20
57.60605172756593
 30
0.0
 41
0.9462881271275585
 10
0.0000049276342626
 20
57.6319641363942
 30
0.0
 41
0.9747471590759
 10
0.0000049277910117
 20
57.67052620643044
 30
0.0
 41
1.175257829376982
  0
LINE
  5
72
330
1F
100
AcDbEntity
  8
0
370
    -3
100
AcDbLine
 10
-10.47201073797967
 20
76.17843974619393
 30
0.0
 11
-10.47201073797956
 21
78.16343974619386
 31
0.0
  0
LINE
  5
73
330
1F
100
AcDbEntity
  8
0
370
    -3
100
AcDbLine
 10
-10.47201073797956
 20
78.16343974619386
 30
0.0
 11
-10.66400388907226
 21
78.16343974619397
 31
0.0
  0
LINE
  5
74
330
1F
100
AcDbEntity
  8
0
370
    -3
100
AcDbLine
 10
-10.66400388907226
 20
78.16343974619397
 30
0.0
 11
-10.66400388907226
 21
76.17843974619396
 31
0.0
  0
LINE
  5
75
330
1F
100
AcDbEntity
  8
0
370
    -3
100
AcDbLine
 10
-10.66400388907226
 20
76.17843974619396
 30
0.0
 11
-10.47201073797967
 21
76.17843974619393
 31
0.0
  0
SPLINE
  5
76
330
1F
100
AcDbEntity
  8
0
370
    -3
100
AcDbSpline
210
0.0
220
0.0
230
1.0
 70
    28
 71
     2
 72
     6
 73
     3
 74
     0
 42
0.000000001
 43
0.0000000001
 40
3.703568509380769
 40
3.703568509380769
 40
3.703568509380769
 40
16.37622015487923
 40
16.37622015487923
 40
16.37622015487923
 10
36.41085868192123
 20
0.1625002793382414
 30
0.0
 41
0.8536950984354469
 10
30.07453285917197
 20
0.1625002793382414
 30
0.0
 41
0.8536950984354469
 10
23.73820703642272
 20
0.1625002793382414
 30
0.0
 41
0.8536950984354469
  0
SPLINE
  5
77
330
1F
100
AcDbEntity
  8
0
370
    -3
100
AcDbSpline
210
0.0
220
0.0
230
1.0
 70
    12
 71
     3
 72
     8
 73
     4
 74
     0
 42
0.000000001
 43
0.0000000001
 40
0.0000000000002372
 40
0.0000000000002372
 40
0.0000000000002372
 40
0.0000000000002372
 40
0.1435171686539728
 40
0.1435171686539728
 40
0.1435171686539728
 40
0.1435171686539728
 10
33.38958371551347
 20
31.43366756651667
 30
0.0
 41
1.180116572514999
 10
33.39131383500725
 20
31.41980436286134
 30
0.0
 41
1.128060082959882
 10
33.39244115833524
 20
31.41277604449718
 30
0.0
 41
1.087287444469789
 10
33.39285990374381
 20
31.41359787863527
 30
0.0
 41
1.05779865704472
  0
SPLINE
  5
78
330
1F
100
AcDbEntity
  8
0
 62
    18
420
        0
370
    -3
100
AcDbSpline
210
0.0
220
0.0
230
1.0
 70
     8
 71
     3
 72
    19
 73
    15
 74
     0
 42
0.000000001
 43
0.0000000001
 40
-8.0
 40
-8.0
 40
-8.0
 40
-8.0
 40
-7.0
 40
-6.0
 40
-5.0
 40
-5.0
 40
-5.0
 40
-4.0
 40
-3.0
 40
-2.0
 40
-1.0
 40
-1.0
 40
-1.0
 40
0.0
 40
0.0
 40
0.0
 40
0.0
 10
-0.0000045600469605
 20
57.61593082149953
 30
0.0
 10
0.6816690562451413
 20
57.61599851725887
 30
0.0
 10
2.045031560401782
 20
57.61695604363447
 30
0.0
 10
4.08996684005993
 20
57.63970173458221
 30
0.0
 10
5.452559819973004
 20
57.69521787503033
 30
0.0
 10
6.132071291524824
 20
57.75060075485045
 30
0.0
 10
6.354847158443079
 20
57.77692231424249
 30
0.0
 10
6.81663649939253
 20
57.78000718050207
 30
0.0
 10
7.425290128379288
 20
58.13072301907559
 30
0.0
 10
7.770487586562979
 20
58.73701113779156
 30
0.0
 10
7.814482968025828
 20
59.19319800763909
 30
0.0
 10
7.809931604541305
 20
59.41838925562828
 30
0.0
 10
7.848636630204851
 20
63.32413417301873
 30
0.0
 10
7.666671134090052
 20
67.23818542996267
 30
0.0
 10
7.693667037645611
 20
71.14354180516062
 30
0.0
  0
SPLINE
  5
79
330
1F
100
AcDbEntity
  8
0
 62
    18
420
        0
370
    -3
100
AcDbSpline
210
0.0
220
0.0
230
1.0
 70
     8
 71
     3
 72
    12
 73
     8
 74
     0
 42
0.000000001
 43
0.0000000001
 40
0.0
 40
0.0
 40
0.0
 40
0.0
 40
1.0
 40
2.0
 40
3.0
 40
4.0
 40
5.0
 40
5.0
 40
5.0
 40
5.0
 10
7.693667037645611
 20
71.14354180516062
 30
0.0
 10
7.698159765473861
 20
71.79348127579226
 30
0.0
 10
7.308099596058327
 20
73.10842323505813
 30
0.0
 10
5.731177086179486
 20
74.36297959646839
 30
0.0
 10
3.884033643123075
 20
75.02879421956496
 30
0.0
 10
1.953579156761691
 20
75.36657519902694
 30
0.0
 10
0.6504134743685483
 20
75.43337123727089
 30
0.0
 10
-0.0010841330408766
 20
75.43290433912375
 30
0.0
  0
SPLINE
  5
7A
330
1F
100
AcDbEntity
  8
0
 62
    18
420
        0
370
    -3
100
AcDbSpline
210
0.0
220
0.0
230
1.0
 70
     8
 71
     3
 72
    12
 73
     8
 74
     0
 42
0.000000001
 43
0.0000000001
 40
5.0
 40
5.0
 40
5.0
 40
5.0
 40
6.0
 40
7.0
 40
8.0
 40
9.0
 40
10.0
 40
10.0
 40
10.0
 40
10.0
 10
-0.0010841330408766
 20
75.43290433912375
 30
0.0
 10
-0.6525817404503016
 20
75.43337123727089
 30
0.0
 10
-1.955747422843444
 20
75.36657519902694
 30
0.0
 10
-3.886201909204829
 20
75.02879421956496
 30
0.0
 10
-5.733345352261239
 20
74.36297959646839
 30
0.0
 10
-7.31026786214008
 20
73.10842323505813
 30
0.0
 10
-7.700328031555614
 20
71.79348127579226
 30
0.0
 10
-7.695835303727364
 20
71.14354180516062
 30
0.0
  0
SPLINE
  5
7B
330
1F
100
AcDbEntity
  8
0
 62
    18
420
        0
370
    -3
100
AcDbSpline
210
0.0
220
0.0
230
1.0
 70
     8
 71
     3
 72
    19
 73
    15
 74
     0
 42
0.000000001
 43
0.0000000001
 40
10.0
 40
10.0
 40
10.0
 40
10.0
 40
11.0
 40
11.0
 40
11.0
 40
12.0
 40
13.0
 40
14.0
 40
15.0
 40
15.0
 40
15.0
 40
16.0
 40
17.0
 40
18.0
 40
18.0
 40
18.0
 40
18.0
 10
-7.695835303727364
 20
71.14354180516062
 30
0.0
 10
-7.668839400171805
 20
67.23818542996267
 30
0.0
 10
-7.850804896286604
 20
63.32413417301873
 30
0.0
 10
-7.812099870623058
 20
59.41838925562828
 30
0.0
 10
-7.816651234107582
 20
59.19319800763909
 30
0.0
 10
-7.772655852644732
 20
58.73701113779156
 30
0.0
 10
-7.427458394461041
 20
58.13072301907559
 30
0.0
 10
-6.818804765474283
 20
57.78000718050207
 30
0.0
 10
-6.357015424524832
 20
57.77692231424249
 30
0.0
 10
-6.134239557606577
 20
57.75060075485045
 30
0.0
 10
-5.454728086054757
 20
57.69521787503033
 30
0.0
 10
-4.092135106141683
 20
57.63970173458221
 30
0.0
 10
-2.047199826483535
 20
57.61695604363447
 30
0.0
 10
-0.6838373223268945
 20
57.61599851725887
 30
0.0
 10
-0.0021637060347928
 20
57.61593082149953
 30
0.0
  0
SPLINE
  5
7C
330
1F
100
AcDbEntity
  8
0
370
    -3
100
AcDbSpline
210
0.0
220
0.0
230
1.0
 70
     8
 71
     2
 72
    11
 73
     8
 74
     0
 42
0.000000001
 43
0.0000000001
 40
-6.0
 40
-6.0
 40
-6.0
 40
-5.0
 40
-4.0
 40
-3.0
 40
-2.0
 40
-1.0
 40
0.0
 40
0.0
 40
0.0
 10
8.053141655749727
 20
73.24765621644863
 30
0.0
 10
7.551618451616406
 20
73.76698894174496
 30
0.0
 10
6.310501029201362
 20
74.49969298894291
 30
0.0
 10
4.964941953562061
 20
75.00460292516037
 30
0.0
 10
3.56950817722236
 20
75.3440702748939
 30
0.0
 10
2.149451858238422
 20
75.55491106197395
 30
0.0
 10
0.7177153554767983
 20
75.65821171400194
 30
0.0
 10
0.0000049176082086
 20
75.65856733029464
 30
0.0
  0
SPLINE
  5
7D
330
1F
100
AcDbEntity
  8
0
370
    -3
100
AcDbSpline
210
0.0
220
0.0
230
1.0
 70
     8
 71
     2
 72
    11
 73
     8
 74
     0
 42
0.000000001
 43
0.0000000001
 40
0.0
 40
0.0
 40
0.0
 40
1.0
 40
2.0
 40
3.0
 40
4.0
 40
5.0
 40
6.0
 40
6.0
 40
6.0
 10
0.0000049176082086
 20
75.65856733029464
 30
0.0
 10
-0.717705520260381
 20
75.65821171400194
 30
0.0
 10
-2.149442023022004
 20
75.55491106197395
 30
0.0
 10
-3.569498342005943
 20
75.3440702748939
 30
0.0
 10
-4.964932118345644
 20
75.00460292516037
 30
0.0
 10
-6.310491193984944
 20
74.49969298894291
 30
0.0
 10
-7.551608616399989
 20
73.76698894174496
 30
0.0
 10
-8.05313182053331
 20
73.24765621644863
 30
0.0
  0
SPLINE
  5
7E
330
1F
100
AcDbEntity
  8
0
100
AcDbSpline
210
0.0
220
0.0
230
1.0
 70
     8
 71
     2
 72
    11
 73
     8
 74
     0
 42
0.000000001
 43
0.0000000001
 40
-6.0
 40
-6.0
 40
-6.0
 40
-5.0
 40
-4.0
 40
-3.0
 40
-2.0
 40
-1.0
 40
0.0
 40
0.0
 40
0.0
 10
7.138138243339085
 20
78.28995067200546
 30
0.0
 10
7.262986770478335
 20
78.24830961023912
 30
0.0
 10
7.505712844683757
 20
78.14636776124335
 30
0.0
 10
7.737168849091859
 20
78.02061949074144
 30
0.0
 10
7.949473559688414
 20
77.86427961210998
 30
0.0
 10
8.128058880400289
 20
77.66915520063515
 30
0.0
 10
8.2395872382846
 20
77.42748886058975
 30
0.0
 10
8.239766084711931
 20
77.29372628571119
 30
0.0
  0
LINE
  5
7F
330
1F
100
AcDbEntity
  8
0
100
AcDbLine
 10
8.239766084711931
 20
77.29372628571119
 30
0.0
 11
8.249363312269878
 21
59.28813710254306
 31
0.0
  0
SPLINE
  5
80
330
1F
100
AcDbEntity
  8
0
100
AcDbSpline
210
0.0
220
0.0
230
1.0
 70
     8
 71
     2
 72
    11
 73
     8
 74
     0
 42
0.000000001
 43
0.0000000001
 40
18.00559111365089
 40
18.00559111365089
 40
18.00559111365089
 40
19.00559111365089
 40
20.00559111365089
 40
21.00559111365089
 40
22.00559111365089
 40
23.00559111365089
 40
24.00559111365089
 40
24.00559111365089
 40
24.00559111365089
 10
8.249363312269878
 20
59.28813710254306
 30
0.0
 10
8.25048482461645
 20
59.08122075590437
 30
0.0
 10
8.165355546806097
 20
58.67519241423184
 30
0.0
 10
7.957840587263689
 20
58.31348831825721
 30
0.0
 10
7.633084937575802
 20
58.05404350602618
 30
0.0
 10
7.254381405725042
 20
57.88640862160443
 30
0.0
 10
6.850805345930041
 20
57.79663767863241
 30
0.0
 10
6.645339832877369
 20
57.77657988216359
 30
0.0
  0
SPLINE
  5
81
330
1F
100
AcDbEntity
  8
0
100
AcDbSpline
210
0.0
220
0.0
230
1.0
 70
     8
 71
     2
 72
    11
 73
     8
 74
     0
 42
0.000000001
 43
0.0000000001
 40
24.00559111365089
 40
24.00559111365089
 40
24.00559111365089
 40
25.00559111365089
 40
26.00559111365089
 40
27.00559111365089
 40
28.00559111365089
 40
29.00559111365089
 40
30.00559111365089
 40
30.00559111365089
 40
30.00559111365089
 10
6.645339832877369
 20
57.77657988216359
 30
0.0
 10
6.09375635966137
 20
57.7222147149501
 30
0.0
 10
4.986872263696142
 20
57.66327927332524
 30
0.0
 10
3.878999335220186
 20
57.63092238680331
 30
0.0
 10
2.770787663445446
 20
57.61451856445893
 30
0.0
 10
1.662484913479233
 20
57.60766067728272
 30
0.0
 10
0.5541650830355138
 20
57.60594370723297
 30
0.0
 10
0.0000049176082086
 20
57.606051709554
 30
0.0
  0
SPLINE
  5
82
330
1F
100
AcDbEntity
  8
0
100
AcDbSpline
210
0.0
220
0.0
230
1.0
 70
     8
 71
     2
 72
    11
 73
     8
 74
     0
 42
0.000000001
 43
0.0000000001
 40
30.00559111365089
 40
30.00559111365089
 40
30.00559111365089
 40
31.00559111365089
 40
32.00559111365089
 40
33.00559111365089
 40
34.00559111365089
 40
35.00559111365089
 40
36.00559111365089
 40
36.00559111365089
 40
36.00559111365089
 10
0.0000049176082086
 20
57.606051709554
 30
0.0
 10
-0.5541552478190965
 20
57.60594370723297
 30
0.0
 10
-1.662475078262815
 20
57.60766067728272
 30
0.0
 10
-2.770777828229029
 20
57.61451856445893
 30
0.0
 10
-3.878989500003769
 20
57.63092238680331
 30
0.0
 10
-4.986862428479725
 20
57.66327927332524
 30
0.0
 10
-6.093746524444953
 20
57.7222147149501
 30
0.0
 10
-6.645329997660951
 20
57.77657988216359
 30
0.0
  0
SPLINE
  5
83
330
1F
100
AcDbEntity
  8
0
100
AcDbSpline
210
0.0
220
0.0
230
1.0
 70
     8
 71
     2
 72
    11
 73
     8
 74
     0
 42
0.000000001
 43
0.0000000001
 40
36.00559111365089
 40
36.00559111365089
 40
36.00559111365089
 40
37.00559111365089
 40
38.00559111365089
 40
39.00559111365089
 40
40.00559111365089
 40
41.00559111365089
 40
42.00559111365089
 40
42.00559111365089
 40
42.00559111365089
 10
-6.645329997660951
 20
57.77657988216359
 30
0.0
 10
-6.850795510713624
 20
57.79663767863241
 30
0.0
 10
-7.254371570508624
 20
57.88640862160443
 30
0.0
 10
-7.633075102359385
 20
58.05404350602618
 30
0.0
 10
-7.957830752047272
 20
58.31348831825721
 30
0.0
 10
-8.16534571158968
 20
58.67519241423184
 30
0.0
 10
-8.250474989400033
 20
59.08122075590437
 30
0.0
 10
-8.249353477053461
 20
59.28813710254306
 30
0.0
  0
LINE
  5
84
330
1F
100
AcDbEntity
  8
0
100
AcDbLine
 10
-8.249353477053461
 20
59.28813710254306
 30
0.0
 11
-8.239756249495514
 21
77.29372628571119
 31
0.0
  0
SPLINE
  5
85
330
1F
100
AcDbEntity
  8
0
100
AcDbSpline
210
0.0
220
0.0
230
1.0
 70
     8
 71
     2
 72
    11
 73
     8
 74
     0
 42
0.000000001
 43
0.0000000001
 40
60.01118222730179
 40
60.01118222730179
 40
60.01118222730179
 40
61.01118222730179
 40
62.01118222730179
 40
63.01118222730179
 40
64.01118222730179
 40
65.01118222730179
 40
66.01118222730179
 40
66.01118222730179
 40
66.01118222730179
 10
-8.239756249495514
 20
77.29372628571119
 30
0.0
 10
-8.239577403068182
 20
77.42748886058975
 30
0.0
 10
-8.128049045183872
 20
77.66915520063515
 30
0.0
 10
-7.949463724471997
 20
77.86427961210998
 30
0.0
 10
-7.737159013875441
 20
78.02061949074144
 30
0.0
 10
-7.505703009467339
 20
78.14636776124335
 30
0.0
 10
-7.262976935261918
 20
78.24830961023912
 30
0.0
 10
-7.138128408122668
 20
78.28995067200546
 30
0.0
  0
SPLINE
  5
86
330
1F
100
AcDbEntity
  8
0
100
AcDbSpline
210
0.0
220
0.0
230
1.0
 70
     8
 71
     2
 72
    11
 73
     8
 74
     0
 42
0.000000001
 43
0.0000000001
 40
66.01118222730179
 40
66.01118222730179
 40
66.01118222730179
 40
67.01118222730179
 40
68.01118222730179
 40
69.01118222730179
 40
70.01118222730179
 40
71.01118222730179
 40
72.01118222730179
 40
72.01118222730179
 40
72.01118222730179
 10
-7.138128408122668
 20
78.28995067200546
 30
0.0
 10
-6.566894035687994
 20
78.47739672209588
 30
0.0
 10
-5.389228641772718
 20
78.71806375147946
 30
0.0
 10
-4.198237223137852
 20
78.87532119431141
 30
0.0
 10
-3.001141198285353
 20
78.97459799910226
 30
0.0
 10
-1.801362578538175
 20
79.03139556016754
 30
0.0
 10
-0.6005290613889258
 20
79.05588345609048
 30
0.0
 10
0.0000049176082086
 20
79.05562757700207
 30
0.0
  0
SPLINE
  5
87
330
1F
100
AcDbEntity
  8
0
100
AcDbSpline
210
0.0
220
0.0
230
1.0
 70
     8
 71
     2
 72
    11
 73
     8
 74
     0
 42
0.000000001
 43
0.0000000001
 40
72.01118222730179
 40
72.01118222730179
 40
72.01118222730179
 40
73.01118222730179
 40
74.01118222730179
 40
75.01118222730179
 40
76.01118222730179
 40
77.01118222730179
 40
78.01118222730179
 40
78.01118222730179
 40
78.01118222730179
 10
0.0000049176082086
 20
79.05562757700207
 30
0.0
 10
0.6005388966053431
 20
79.05588345609048
 30
0.0
 10
1.801372413754592
 20
79.03139556016754
 30
0.0
 10
3.00115103350177
 20
78.97459799910226
 30
0.0
 10
4.198247058354269
 20
78.87532119431141
 30
0.0
 10
5.389238476989135
 20
78.71806375147946
 30
0.0
 10
6.566903870904412
 20
78.47739672209588
 30
0.0
 10
7.138138243339085
 20
78.28995067200546
 30
0.0
  0
LINE
  5
88
330
1F
100
AcDbEntity
  8
0
100
AcDbLine
 10
-9.482343645280935
 20
59.03069680373628
 30
0.0
 11
-8.248910627601816
 21
61.13555679596163
 31
0.0
  0
LINE
  5
89
330
1F
100
AcDbEntity
  8
0
100
AcDbLine
 10
-9.894259401472283
 20
61.26364007686725
 30
0.0
 11
-9.189128552283705
 21
59.52377204218406
 31
0.0
  0
SPLINE
  5
8A
330
1F
100
AcDbEntity
  8
0
370
    -3
100
AcDbSpline
210
0.0
220
0.0
230
1.0
 70
    28
 71
     2
 72
     6
 73
     3
 74
     0
 42
0.000000001
 43
0.0000000001
 40
18.45400366062973
 40
18.45400366062973
 40
18.45400366062973
 40
29.08832799280652
 40
29.08832799280652
 40
29.08832799280652
 10
-8.604482175287298
 20
59.29257319337059
 30
0.0
 41
0.9446682392080945
 10
-8.773808480103133
 20
59.00364871072823
 30
0.0
 41
0.9446682392080945
 10
-8.943134784918968
 20
58.71472422808588
 30
0.0
 41
0.9446682392080945
  0
SPLINE
  5
8B
330
1F
100
AcDbEntity
  8
0
370
    -3
100
AcDbSpline
210
0.0
220
0.0
230
1.0
 70
     8
 71
     2
 72
    15
 73
    12
 74
     0
 42
0.000000001
 43
0.0000000001
 40
29.08832799280652
 40
29.08832799280652
 40
29.08832799280652
 40
30.08832799280652
 40
31.08832799280652
 40
32.08832799280651
 40
33.08832799280651
 40
34.08832799280651
 40
35.08832799280651
 40
36.08832799280651
 40
37.08832799280651
 40
38.08832799280651
 40
39.08832799280651
 40
39.08832799280651
 40
39.08832799280651
 10
-8.943134784918954
 20
58.71472422808587
 30
0.0
 10
-8.987647949450974
 20
58.63965396536543
 30
0.0
 10
-9.140674818384582
 20
58.5563210081482
 30
0.0
 10
-9.315240647804814
 20
58.56246611530763
 30
0.0
 10
-9.46027201437903
 20
58.65815320979863
 30
0.0
 10
-9.54809907398888
 20
58.80598615305044
 30
0.0
 10
-9.622138310553282
 20
58.9591397561828
 30
0.0
 10
-9.69265015376655
 20
59.11421381323365
 30
0.0
 10
-9.760734780115996
 20
59.27031947131459
 30
0.0
 10
-9.827109123951999
 20
59.42716669681263
 30
0.0
 10
-9.89204506431841
 20
59.5846132481929
 30
0.0
 10
-9.923844861683989
 20
59.66360887359858
 30
0.0
  0
SPLINE
  5
8C
330
1F
100
AcDbEntity
  8
0
370
    -3
100
AcDbSpline
210
0.0
220
0.0
230
1.0
 70
    28
 71
     2
 72
     6
 73
     3
 74
     0
 42
0.000000001
 43
0.0000000001
 40
39.08832799280651
 40
39.08832799280651
 40
39.08832799280651
 40
40.56153882323417
 40
40.56153882323417
 40
40.56153882323417
 10
-9.923844861684024
 20
59.66360887359858
 30
0.0
 41
0.8536807726429319
 10
-10.19894100084895
 20
60.34691674852677
 30
0.0
 41
0.8536807726429319
 10
-10.47403714001387
 20
61.03022462345498
 30
0.0
 41
0.8536807726429319
  0
SPLINE
  5
8D
330
1F
100
AcDbEntity
  8
0
370
    -3
100
AcDbSpline
210
0.0
220
0.0
230
1.0
 70
    12
 71
     3
 72
     8
 73
     4
 74
     0
 42
0.000000001
 43
0.0000000001
 40
40.56153882323417
 40
40.56153882323417
 40
40.56153882323417
 40
40.56153882323417
 40
41.06697289864544
 40
41.06697289864544
 40
41.06697289864544
 40
41.06697289864544
 10
-10.4740371400138
 20
61.03022462345498
 30
0.0
 41
0.8536807726429317
 10
-10.53665834816953
 20
61.18553959609761
 30
0.0
 41
0.8536807726429317
 10
-10.56908943802789
 20
61.35293352299455
 30
0.0
 41
0.853680772642932
 10
-10.56900388907225
 20
61.52039707562291
 30
0.0
 41
0.8536807726429317
  0
SPLINE
  5
8E
330
1F
100
AcDbEntity
  8
0
370
    -3
100
AcDbSpline
210
0.0
220
0.0
230
1.0
 70
    28
 71
     2
 72
     6
 73
     3
 74
     0
 42
0.000000001
 43
0.0000000001
 40
7.246203453588252
 40
7.246203453588252
 40
7.246203453588252
 40
15.5214087760171
 40
15.5214087760171
 40
15.5214087760171
 10
-8.247596291204744
 20
59.9016008490506
 30
0.0
 41
0.9446682392080945
 10
-8.379348459913299
 20
59.67676507375621
 30
0.0
 41
0.9446682392080945
 10
-8.511100628621854
 20
59.45192929846182
 30
0.0
 41
0.9446682392080945
  0
SPLINE
  5
8F
330
1F
100
AcDbEntity
  8
0
370
    -3
100
AcDbSpline
210
0.0
220
0.0
230
1.0
 70
     8
 71
     2
 72
     7
 73
     4
 74
     0
 42
0.000000001
 43
0.0000000001
 40
15.5214087760171
 40
15.5214087760171
 40
15.5214087760171
 40
16.5214087760171
 40
17.5214087760171
 40
17.5214087760171
 40
17.5214087760171
 10
-8.511100628621847
 20
59.45192929846182
 30
0.0
 10
-8.556097334863637
 20
59.3816219013293
 30
0.0
 10
-8.700393461671354
 20
59.29776647436989
 30
0.0
 10
-8.783660891863008
 20
59.29286538111909
 30
0.0
  0
LINE
  5
90
330
1F
100
AcDbEntity
  8
0
100
AcDbLine
 10
-8.783660891863008
 20
59.29286538111909
 30
0.0
 11
-8.249209005404168
 21
59.29286538111909
 31
0.0
  0
SPLINE
  5
91
330
1F
100
AcDbEntity
  8
0
370
    -3
100
AcDbSpline
210
0.0
220
0.0
230
1.0
 70
    12
 71
     3
 72
     8
 73
     4
 74
     0
 42
0.000000001
 43
0.0000000001
 40
0.0
 40
0.0
 40
0.0
 40
0.0
 40
0.2647511823589043
 40
0.2647511823589043
 40
0.2647511823589043
 40
0.2647511823589043
 10
9.94400388907227
 20
61.5203970756229
 30
0.0
 41
0.8536807726429321
 10
9.944048700429924
 20
61.43267807186525
 30
0.0
 41
0.8536807726429323
 10
9.927060986696851
 20
61.34499553872812
 30
0.0
 41
0.8536807726429321
 10
9.894259401472278
 20
61.26364007686725
 30
0.0
 41
0.8536807726429321
  0
SPLINE
  5
92
330
1F
100
AcDbEntity
  8
0
370
    -3
100
AcDbSpline
210
0.0
220
0.0
230
1.0
 70
    28
 71
     2
 72
     6
 73
     3
 74
     0
 42
0.000000001
 43
0.0000000001
 40
-2.344878717470501
 40
-2.344878717470501
 40
-2.344878717470501
 40
-2.172974505234492
 40
-2.172974505234492
 40
-2.172974505234492
 10
8.24938855462004
 20
59.60490319685687
 30
0.0
 41
1.000000000000006
 10
8.335340660738055
 20
59.60490319685687
 30
0.0
 41
1.000000000000006
 10
8.42129276685607
 20
59.60490319685687
 30
0.0
 41
1.000000000000006
  0
LINE
  5
93
330
1F
100
AcDbEntity
  8
0
370
    -3
100
AcDbLine
 10
10.47201073797967
 20
76.17843974619393
 30
0.0
 11
10.47201073797956
 21
78.16343974619386
 31
0.0
  0
LINE
  5
94
330
1F
100
AcDbEntity
  8
0
370
    -3
100
AcDbLine
 10
10.47201073797956
 20
78.16343974619386
 30
0.0
 11
10.66400388907226
 21
78.16343974619397
 31
0.0
  0
LINE
  5
95
330
1F
100
AcDbEntity
  8
0
370
    -3
100
AcDbLine
 10
10.66400388907226
 20
78.16343974619397
 30
0.0
 11
10.66400388907226
 21
76.17843974619396
 31
0.0
  0
LINE
  5
96
330
1F
100
AcDbEntity
  8
0
370
    -3
100
AcDbLine
 10
10.66400388907226
 20
76.17843974619396
 30
0.0
 11
10.47201073797967
 21
76.17843974619393
 31
0.0
  0
LINE
  5
97
330
1F
100
AcDbEntity
  8
0
100
AcDbLine
 10
9.482343645280935
 20
59.03069680373628
 30
0.0
 11
8.248910627601816
 21
61.13555679596163
 31
0.0
  0
LINE
  5
98
330
1F
100
AcDbEntity
  8
0
100
AcDbLine
 10
9.894259401472283
 20
61.26364007686725
 30
0.0
 11
9.189128552283705
 21
59.52377204218406
 31
0.0
  0
SPLINE
  5
99
330
1F
100
AcDbEntity
  8
0
370
    -3
100
AcDbSpline
210
0.0
220
0.0
230
1.0
 70
    28
 71
     2
 72
     6
 73
     3
 74
     0
 42
0.000000001
 43
0.0000000001
 40
18.45400366062973
 40
18.45400366062973
 40
18.45400366062973
 40
29.08832799280652
 40
29.08832799280652
 40
29.08832799280652
 10
8.604482175287298
 20
59.29257319337059
 30
0.0
 41
0.9446682392080945
 10
8.773808480103133
 20
59.00364871072823
 30
0.0
 41
0.9446682392080945
 10
8.943134784918968
 20
58.71472422808588
 30
0.0
 41
0.9446682392080945
  0
SPLINE
  5
9A
330
1F
100
AcDbEntity
  8
0
370
    -3
100
AcDbSpline
210
0.0
220
0.0
230
1.0
 70
     8
 71
     2
 72
    15
 73
    12
 74
     0
 42
0.000000001
 43
0.0000000001
 40
29.08832799280652
 40
29.08832799280652
 40
29.08832799280652
 40
30.08832799280652
 40
31.08832799280652
 40
32.08832799280651
 40
33.08832799280651
 40
34.08832799280651
 40
35.08832799280651
 40
36.08832799280651
 40
37.08832799280651
 40
38.08832799280651
 40
39.08832799280651
 40
39.08832799280651
 40
39.08832799280651
 10
8.943134784918954
 20
58.71472422808587
 30
0.0
 10
8.987647949450974
 20
58.63965396536543
 30
0.0
 10
9.140674818384582
 20
58.5563210081482
 30
0.0
 10
9.315240647804814
 20
58.56246611530763
 30
0.0
 10
9.46027201437903
 20
58.65815320979863
 30
0.0
 10
9.54809907398888
 20
58.80598615305044
 30
0.0
 10
9.622138310553282
 20
58.9591397561828
 30
0.0
 10
9.69265015376655
 20
59.11421381323365
 30
0.0
 10
9.760734780115996
 20
59.27031947131459
 30
0.0
 10
9.827109123951999
 20
59.42716669681263
 30
0.0
 10
9.89204506431841
 20
59.5846132481929
 30
0.0
 10
9.923844861683989
 20
59.66360887359858
 30
0.0
  0
SPLINE
  5
9B
330
1F
100
AcDbEntity
  8
0
370
    -3
100
AcDbSpline
210
0.0
220
0.0
230
1.0
 70
    28
 71
     2
 72
     6
 73
     3
 74
     0
 42
0.000000001
 43
0.0000000001
 40
39.08832799280651
 40
39.08832799280651
 40
39.08832799280651
 40
40.56153882323417
 40
40.56153882323417
 40
40.56153882323417
 10
9.923844861683925
 20
59.66360887359858
 30
0.0
 41
0.8536807726429319
 10
10.19894100084885
 20
60.34691674852677
 30
0.0
 41
0.8536807726429319
 10
10.47403714001377
 20
61.03022462345498
 30
0.0
 41
0.8536807726429319
  0
SPLINE
  5
9C
330
1F
100
AcDbEntity
  8
0
370
    -3
100
AcDbSpline
210
0.0
220
0.0
230
1.0
 70
    12
 71
     3
 72
     8
 73
     4
 74
     0
 42
0.000000001
 43
0.0000000001
 40
40.56153882323417
 40
40.56153882323417
 40
40.56153882323417
 40
40.56153882323417
 40
41.06697289864544
 40
41.06697289864544
 40
41.06697289864544
 40
41.06697289864544
 10
10.47403714001383
 20
61.03022462345498
 30
0.0
 41
0.8536807726429317
 10
10.53665834816956
 20
61.18553959609761
 30
0.0
 41
0.8536807726429317
 10
10.56908943802779
 20
61.35293352299455
 30
0.0
 41
0.853680772642932
 10
10.56900388907229
 20
61.52039707562291
 30
0.0
 41
0.8536807726429317
  0
SPLINE
  5
9D
330
1F
100
AcDbEntity
  8
0
370
    -3
100
AcDbSpline
210
0.0
220
0.0
230
1.0
 70
    28
 71
     2
 72
     6
 73
     3
 74
     0
 42
0.000000001
 43
0.0000000001
 40
7.246203453588252
 40
7.246203453588252
 40
7.246203453588252
 40
15.5214087760171
 40
15.5214087760171
 40
15.5214087760171
 10
8.247596291204744
 20
59.9016008490506
 30
0.0
 41
0.9446682392080945
 10
8.379348459913299
 20
59.67676507375621
 30
0.0
 41
0.9446682392080945
 10
8.511100628621854
 20
59.45192929846182
 30
0.0
 41
0.9446682392080945
  0
SPLINE
  5
9E
330
1F
100
AcDbEntity
  8
0
370
    -3
100
AcDbSpline
210
0.0
220
0.0
230
1.0
 70
     8
 71
     2
 72
     7
 73
     4
 74
     0
 42
0.000000001
 43
0.0000000001
 40
15.5214087760171
 40
15.5214087760171
 40
15.5214087760171
 40
16.5214087760171
 40
17.5214087760171
 40
17.5214087760171
 40
17.5214087760171
 10
8.511100628621847
 20
59.45192929846182
 30
0.0
 10
8.556097334863637
 20
59.3816219013293
 30
0.0
 10
8.700393461671354
 20
59.29776647436989
 30
0.0
 10
8.783660891863008
 20
59.29286538111909
 30
0.0
  0
LINE
  5
9F
330
1F
100
AcDbEntity
  8
0
100
AcDbLine
 10
8.783660891863008
 20
59.29286538111909
 30
0.0
 11
8.249209005404168
 21
59.29286538111909
 31
0.0
  0
SPLINE
  5
A0
330
1F
100
AcDbEntity
  8
0
370
    -3
100
AcDbSpline
210
0.0
220
0.0
230
1.0
 70
     8
 71
     2
 72
    11
 73
     8
 74
     0
 42
0.000000001
 43
0.0000000001
 40
0.0
 40
0.0
 40
0.0
 40
1.0
 40
2.0
 40
3.0
 40
4.0
 40
5.0
 40
6.0
 40
6.0
 40
6.0
 10
0.0000047993300996
 20
32.16731835866153
 30
0.0
 10
-0.6863447539351739
 20
32.166957365633
 30
0.0
 10
-2.059027704856618
 20
32.16617991483812
 30
0.0
 10
-3.431782275583771
 20
32.17839709951657
 30
0.0
 10
-4.803324979096431
 20
32.2270897441141
 30
0.0
 10
-6.173821304796718
 20
32.35003900390726
 30
0.0
 10
-7.506994194509389
 20
32.62179523306321
 30
0.0
 10
-8.19050277804331
 20
32.87136917060383
 30
0.0
  0
SPLINE
  5
A1
330
1F
100
AcDbEntity
  8
0
370
    -3
100
AcDbSpline
210
0.0
220
0.0
230
1.0
 70
    12
 71
     3
 72
     8
 73
     4
 74
     0
 42
0.000000001
 43
0.0000000001
 40
6.0
 40
6.0
 40
6.0
 40
6.0
 40
6.1095531143
 40
6.1095531143
 40
6.1095531143
 40
6.1095531143
 10
-8.190502778043303
 20
32.87136917060382
 30
0.0
 41
1.173246788037126
 10
-8.228704398171127
 20
32.88184015552874
 30
0.0
 41
0.9727685695181932
 10
-8.252349957215
 20
32.91431606511796
 30
0.0
 41
0.9462828239155063
 10
-8.249097929099097
 20
32.95489729598488
 30
0.0
 41
1.093789551229066
  0
LINE
  5
A2
330
1F
100
AcDbEntity
  8
0
370
    -3
100
AcDbLine
 10
-8.249097929099094
 20
32.95489729598488
 30
0.0
 11
-8.229834553516184
 21
33.02924433819337
 31
0.0
  0
SPLINE
  5
A3
330
1F
100
AcDbEntity
  8
0
370
    -3
100
AcDbSpline
210
0.0
220
0.0
230
1.0
 70
     8
 71
     2
 72
     9
 73
     6
 74
     0
 42
0.000000001
 43
0.0000000001
 40
6.186355199714383
 40
6.186355199714383
 40
6.186355199714383
 40
7.186355199714383
 40
8.186355199714383
 40
9.186355199714383
 40
10.18635519971438
 40
10.18635519971438
 40
10.18635519971438
 10
-8.229834553516184
 20
33.02924433819337
 30
0.0
 10
-8.224134828381722
 20
33.04816064107517
 30
0.0
 10
-8.19667410638607
 20
33.07656921279421
 30
0.0
 10
-8.159352012456338
 20
33.08931606051272
 30
0.0
 10
-8.120477092682108
 20
33.08458436970903
 30
0.0
 10
-8.10193171261841
 20
33.07890818986942
 30
0.0
  0
SPLINE
  5
A4
330
1F
100
AcDbEntity
  8
0
370
    -3
100
AcDbSpline
210
0.0
220
0.0
230
1.0
 70
     8
 71
     2
 72
    11
 73
     8
 74
     0
 42
0.000000001
 43
0.0000000001
 40
10.18635519971438
 40
10.18635519971438
 40
10.18635519971438
 40
11.18635519971438
 40
12.18635519971438
 40
13.18635519971438
 40
14.18635519971438
 40
15.18635519971438
 40
16.18635519971438
 40
16.18635519971438
 40
16.18635519971438
 10
-8.10193171261841
 20
33.07890818986942
 30
0.0
 10
-7.43740894856785
 20
32.89188867132864
 30
0.0
 10
-6.10205498830851
 20
32.66659122142744
 30
0.0
 10
-4.748698381733959
 20
32.55319770648333
 30
0.0
 10
-3.392353736279347
 20
32.51093264385098
 30
0.0
 10
-2.035408665793767
 20
32.50069007219076
 30
0.0
 10
-0.6784671756236094
 20
32.5009598929577
 30
0.0
 10
0.0000047993300996
 20
32.50141174690862
 30
0.0
  0
SPLINE
  5
A5
330
1F
100
AcDbEntity
  8
0
370
    -3
100
AcDbSpline
210
0.0
220
0.0
230
1.0
 70
     8
 71
     2
 72
    11
 73
     8
 74
     0
 42
0.000000001
 43
0.0000000001
 40
16.18635519971438
 40
16.18635519971438
 40
16.18635519971438
 40
17.18635519971438
 40
18.18635519971438
 40
19.18635519971438
 40
20.18635519971438
 40
21.18635519971438
 40
22.18635519971438
 40
22.18635519971438
 40
22.18635519971438
 10
0.0000047993300996
 20
32.50141174690862
 30
0.0
 10
0.6784767742838085
 20
32.5009598929577
 30
0.0
 10
2.035418264453966
 20
32.50069007219076
 30
0.0
 10
3.392363334939546
 20
32.51093264385098
 30
0.0
 10
4.748707980394158
 20
32.55319770648333
 30
0.0
 10
6.102064586968709
 20
32.66659122142744
 30
0.0
 10
7.437418547228049
 20
32.89188867132864
 30
0.0
 10
8.101941311278608
 20
33.07890818986942
 30
0.0
  0
SPLINE
  5
A6
330
1F
100
AcDbEntity
  8
0
370
    -3
100
AcDbSpline
210
0.0
220
0.0
230
1.0
 70
     8
 71
     2
 72
     9
 73
     6
 74
     0
 42
0.000000001
 43
0.0000000001
 40
22.18635519971438
 40
22.18635519971438
 40
22.18635519971438
 40
23.18635519971438
 40
24.18635519971438
 40
25.18635519971438
 40
26.18635519971438
 40
26.18635519971438
 40
26.18635519971438
 10
8.101941311278608
 20
33.07890818986942
 30
0.0
 10
8.120486691342307
 20
33.08458436970903
 30
0.0
 10
8.159361611116537
 20
33.08931606051272
 30
0.0
 10
8.196683705046269
 20
33.07656921279421
 30
0.0
 10
8.22414442704192
 20
33.04816064107517
 30
0.0
 10
8.229844152176383
 20
33.02924433819337
 30
0.0
  0
LINE
  5
A7
330
1F
100
AcDbEntity
  8
0
370
    -3
100
AcDbLine
 10
8.229844152176383
 20
33.02924433819337
 30
0.0
 11
8.249107527759293
 21
32.95489729598488
 31
0.0
  0
SPLINE
  5
A8
330
1F
100
AcDbEntity
  8
0
370
    -3
100
AcDbSpline
210
0.0
220
0.0
230
1.0
 70
    12
 71
     3
 72
     8
 73
     4
 74
     0
 42
0.000000001
 43
0.0000000001
 40
26.26315728512877
 40
26.26315728512877
 40
26.26315728512877
 40
26.26315728512877
 40
26.37271039942877
 40
26.37271039942877
 40
26.37271039942877
 40
26.37271039942877
 10
8.249107527759273
 20
32.95489729598488
 30
0.0
 41
1.093789551229066
 10
8.252359555875163
 20
32.91431606511796
 30
0.0
 41
0.9462828239155063
 10
8.22871399683132
 20
32.88184015552874
 30
0.0
 41
0.9727685695181932
 10
8.190512376703504
 20
32.87136917060382
 30
0.0
 41
1.173246788037126
  0
SPLINE
  5
A9
330
1F
100
AcDbEntity
  8
0
370
    -3
100
AcDbSpline
210
0.0
220
0.0
230
1.0
 70
     8
 71
     2
 72
    11
 73
     8
 74
     0
 42
0.000000001
 43
0.0000000001
 40
26.37271039942877
 40
26.37271039942877
 40
26.37271039942877
 40
27.37271039942877
 40
28.37271039942877
 40
29.37271039942877
 40
30.37271039942877
 40
31.37271039942877
 40
32.37271039942877
 40
32.37271039942877
 40
32.37271039942877
 10
8.19051237670351
 20
32.87136917060383
 30
0.0
 10
7.507003793169588
 20
32.62179523306321
 30
0.0
 10
6.173830903456917
 20
32.35003900390726
 30
0.0
 10
4.80333457775663
 20
32.2270897441141
 30
0.0
 10
3.43179187424397
 20
32.17839709951657
 30
0.0
 10
2.059037303516817
 20
32.16617991483812
 30
0.0
 10
0.686354352595373
 20
32.166957365633
 30
0.0
 10
0.0000047993300996
 20
32.16731835866153
 30
0.0
  0
SPLINE
  5
AA
330
1F
100
AcDbEntity
  8
0
370
    -3
100
AcDbSpline
210
0.0
220
0.0
230
1.0
 70
     8
 71
     2
 72
     7
 73
     4
 74
     0
 42
0.000000001
 43
0.0000000001
 40
0.0
 40
0.0
 40
0.0
 40
1.0
 40
2.0
 40
2.0
 40
2.0
 10
-8.234534154228584
 20
33.01249165839066
 30
0.0
 10
-8.23336722731429
 20
36.20299138183983
 30
0.0
 10
-8.240674083745432
 20
42.58398716545469
 30
0.0
 10
-8.239756290465607
 20
45.77448708211892
 30
0.0
  0
SPLINE
  5
AB
330
1F
100
AcDbEntity
  8
0
370
    -3
100
AcDbSpline
210
0.0
220
0.0
230
1.0
 70
     8
 71
     2
 72
    11
 73
     8
 74
     0
 42
0.000000001
 43
0.0000000001
 40
2.0
 40
2.0
 40
2.0
 40
3.000000039736431
 40
4.000000079472863
 40
5.000000119209294
 40
6.000000158945726
 40
7.000000198682157
 40
8.0
 40
8.0
 40
8.0
 10
-8.239756290465607
 20
45.77448708211892
 30
0.0
 10
-8.243217694891882
 20
45.90504737118561
 30
0.0
 10
-8.16237268256836
 20
46.15342255409136
 30
0.0
 10
-7.981297839649216
 20
46.34471677668694
 30
0.0
 10
-7.739972579415564
 20
46.44407285440833
 30
0.0
 10
-7.484678439553363
 20
46.48793492493962
 30
0.0
 10
-7.226445715245831
 20
46.50339354887972
 30
0.0
 10
-7.097135519613289
 20
46.50268013630604
 30
0.0
  0
SPLINE
  5
AC
330
1F
100
AcDbEntity
  8
0
370
    -3
100
AcDbSpline
210
0.0
220
0.0
230
1.0
 70
     8
 71
     2
 72
    11
 73
     8
 74
     0
 42
0.000000001
 43
0.0000000001
 40
8.0
 40
8.0
 40
8.0
 40
9.0
 40
10.0
 40
11.0
 40
12.0
 40
13.0
 40
14.0
 40
14.0
 40
14.0
 10
-7.097135519613289
 20
46.50268013630604
 30
0.0
 10
-6.505707638471989
 20
46.50048203555099
 30
0.0
 10
-5.322858648366378
 20
46.49451358972699
 30
0.0
 10
-4.140006950661643
 20
46.48913673850335
 30
0.0
 10
-2.957150460001742
 20
46.48490777824263
 30
0.0
 10
-1.774290117589914
 20
46.48195450751764
 30
0.0
 10
-0.5914270705325748
 20
46.480400583856
 30
0.0
 10
0.0000049677561833
 20
46.48038974292339
 30
0.0
  0
SPLINE
  5
AD
330
1F
100
AcDbEntity
  8
0
370
    -3
100
AcDbSpline
210
0.0
220
0.0
230
1.0
 70
     8
 71
     2
 72
    11
 73
     8
 74
     0
 42
0.000000001
 43
0.0000000001
 40
14.0
 40
14.0
 40
14.0
 40
15.0
 40
16.0
 40
17.0
 40
18.0
 40
19.0
 40
20.0
 40
20.0
 40
20.0
 10
0.0000049677561833
 20
46.48038974292339
 30
0.0
 10
0.5914370060449414
 20
46.480400583856
 30
0.0
 10
1.77430005310228
 20
46.48195450751764
 30
0.0
 10
2.957160395514109
 20
46.48490777824263
 30
0.0
 10
4.14001688617401
 20
46.48913673850335
 30
0.0
 10
5.322868583878744
 20
46.49451358972699
 30
0.0
 10
6.505717573984356
 20
46.50048203555099
 30
0.0
 10
7.097145455125656
 20
46.50268013630604
 30
0.0
  0
SPLINE
  5
AE
330
1F
100
AcDbEntity
  8
0
370
    -3
100
AcDbSpline
210
0.0
220
0.0
230
1.0
 70
     8
 71
     2
 72
    11
 73
     8
 74
     0
 42
0.000000001
 43
0.0000000001
 40
20.0
 40
20.0
 40
20.0
 40
20.99999980131784
 40
21.99999984105428
 40
22.99999988079071
 40
23.99999992052714
 40
24.99999996026357
 40
26.0
 40
26.0
 40
26.0
 10
7.097145455125656
 20
46.50268013630604
 30
0.0
 10
7.226455650758197
 20
46.50339354887972
 30
0.0
 10
7.48468837506573
 20
46.48793492493962
 30
0.0
 10
7.739982514927931
 20
46.44407285440833
 30
0.0
 10
7.981307775161582
 20
46.34471677668694
 30
0.0
 10
8.162382618080727
 20
46.15342255409136
 30
0.0
 10
8.243227630404249
 20
45.90504737118561
 30
0.0
 10
8.239766225977974
 20
45.77448708211892
 30
0.0
  0
SPLINE
  5
AF
330
1F
100
AcDbEntity
  8
0
370
    -3
100
AcDbSpline
210
0.0
220
0.0
230
1.0
 70
     8
 71
     2
 72
     7
 73
     4
 74
     0
 42
0.000000001
 43
0.0000000001
 40
26.0
 40
26.0
 40
26.0
 40
27.0
 40
28.0
 40
28.0
 40
28.0
 10
8.239766225977974
 20
45.77448708211892
 30
0.0
 10
8.240684019257799
 20
42.58398716545469
 30
0.0
 10
8.233377162826656
 20
36.20299138183983
 30
0.0
 10
8.23454408974095
 20
33.01249165839066
 30
0.0
  0
SPLINE
  5
B0
330
1F
100
AcDbEntity
  8
0
370
    -3
100
AcDbSpline
210
0.0
220
0.0
230
1.0
 70
    28
 71
     3
 72
     8
 73
     4
 74
     0
 42
0.000000001
 43
0.0000000001
 40
-5.859026358234914
 40
-5.859026358234914
 40
-5.859026358234914
 40
-5.859026358234914
 40
0.0
 40
0.0
 40
0.0
 40
0.0
 10
-6.364222392221974
 20
30.7784808726359
 30
0.0
 41
1.0
 10
-5.386128474127955
 20
30.51088825641386
 30
0.0
 41
1.0
 10
-4.40803455603398
 20
30.24329564019183
 30
0.0
 41
1.0
 10
-3.429940637939978
 20
29.97570302396979
 30
0.0
 41
1.0
  0
SPLINE
  5
B1
330
1F
100
AcDbEntity
  8
0
370
    -3
100
AcDbSpline
210
0.0
220
0.0
230
1.0
 70
     8
 71
     3
 72
     8
 73
     4
 74
     0
 42
0.000000001
 43
0.0000000001
 40
0.0
 40
0.0
 40
0.0
 40
0.0
 40
1.0
 40
1.0
 40
1.0
 40
1.0
 10
-3.429940637939978
 20
29.97570302396979
 30
0.0
 10
-3.202690985587878
 20
29.91353074390189
 30
0.0
 10
-2.798513180462095
 20
29.85083108000762
 30
0.0
 10
-2.563980737015015
 20
29.81954937379687
 30
0.0
  0
SPLINE
  5
B2
330
1F
100
AcDbEntity
  8
0
370
    -3
100
AcDbSpline
210
0.0
220
0.0
230
1.0
 70
    12
 71
     3
 72
     8
 73
     4
 74
     0
 42
0.000000001
 43
0.0000000001
 40
1.0
 40
1.0
 40
1.0
 40
1.0
 40
6.060246462763348
 40
6.060246462763348
 40
6.060246462763348
 40
6.060246462763348
 10
-2.563980737015015
 20
29.81954937379687
 30
0.0
 41
1.0
 10
-0.8646607356853762
 20
29.59289574644223
 30
0.0
 41
1.0
 10
0.8646873646716816
 20
29.59289595587913
 30
0.0
 41
0.9999999999999996
 10
2.564001966080212
 20
29.81954937379687
 30
0.0
 41
1.0
  0
SPLINE
  5
B3
330
1F
100
AcDbEntity
  8
0
370
    -3
100
AcDbSpline
210
0.0
220
0.0
230
1.0
 70
     8
 71
     3
 72
     8
 73
     4
 74
     0
 42
0.000000001
 43
0.0000000001
 40
6.060246462763348
 40
6.060246462763348
 40
6.060246462763348
 40
6.060246462763348
 40
7.060246462763348
 40
7.060246462763348
 40
7.060246462763348
 40
7.060246462763348
 10
2.564001966080212
 20
29.81954937379687
 30
0.0
 10
2.798535875472936
 20
29.85083307315949
 30
0.0
 10
3.202704444290049
 20
29.91353173209542
 30
0.0
 10
3.429950484636322
 20
29.97570302396979
 30
0.0
  0
SPLINE
  5
B4
330
1F
100
AcDbEntity
  8
0
370
    -3
100
AcDbSpline
210
0.0
220
0.0
230
1.0
 70
    28
 71
     3
 72
     8
 73
     4
 74
     0
 42
0.000000001
 43
0.0000000001
 40
7.060246462763348
 40
7.060246462763348
 40
7.060246462763348
 40
7.060246462763348
 40
12.91927282099826
 40
12.91927282099826
 40
12.91927282099826
 40
12.91927282099826
 10
3.429950484636322
 20
29.97570302396979
 30
0.0
 41
1.0
 10
4.408044402730324
 20
30.24329564019183
 30
0.0
 41
1.0
 10
5.386138320824299
 20
30.51088825641386
 30
0.0
 41
1.0
 10
6.364232238918232
 20
30.7784808726359
 30
0.0
 41
1.0
  0
SPLINE
  5
B5
330
1F
100
AcDbEntity
  8
0
370
    -3
100
AcDbSpline
210
0.0
220
0.0
230
1.0
 70
     8
 71
     3
 72
    11
 73
     7
 74
     0
 42
0.000000001
 43
0.0000000001
 40
-4.0
 40
-4.0
 40
-4.0
 40
-4.0
 40
-3.0
 40
-2.0
 40
-1.0
 40
0.0
 40
0.0
 40
0.0
 40
0.0
 10
-6.471554112362185
 20
30.47000847686814
 30
0.0
 10
-6.178551788238224
 20
30.35526520128622
 30
0.0
 10
-5.555490011161965
 20
30.27288393433092
 30
0.0
 10
-4.633180150049611
 20
30.1036843050087
 30
0.0
 10
-3.707494431719624
 20
29.94715764041058
 30
0.0
 10
-3.091184368050023
 20
29.83943044997078
 30
0.0
 10
-2.781892008982823
 20
29.79215177414639
 30
0.0
  0
SPLINE
  5
B6
330
1F
100
AcDbEntity
  8
0
370
    -3
100
AcDbSpline
210
0.0
220
0.0
230
1.0
 70
    12
 71
     3
 72
     8
 73
     4
 74
     0
 42
0.000000001
 43
0.0000000001
 40
0.0
 40
0.0
 40
0.0
 40
0.0
 40
5.489510829511583
 40
5.489510829511583
 40
5.489510829511583
 40
5.489510829511583
 10
-2.781892008982823
 20
29.79215177414639
 30
0.0
 41
1.0
 10
-0.942055876328169
 20
29.50544110549508
 30
0.0
 41
1.0
 10
0.9420837643534552
 20
29.50544154265719
 30
0.0
 41
1.0
 10
2.78191323804802
 20
29.79215177414639
 30
0.0
 41
1.0
  0
SPLINE
  5
B7
330
1F
100
AcDbEntity
  8
0
370
    -3
100
AcDbSpline
210
0.0
220
0.0
230
1.0
 70
     8
 71
     3
 72
    11
 73
     7
 74
     0
 42
0.000000001
 43
0.0000000001
 40
5.489510829511583
 40
5.489510829511583
 40
5.489510829511583
 40
5.489510829511583
 40
6.489501839224093
 40
7.48950483598659
 40
8.489507832749087
 40
9.489510829511584
 40
9.489510829511584
 40
9.489510829511584
 40
9.489510829511584
 10
2.78191323804802
 20
29.79215177414639
 30
0.0
 10
3.091201602463798
 20
29.839431741298
 30
0.0
 10
3.707507977151892
 20
29.94715826583969
 30
0.0
 10
4.633189996745955
 20
30.1036843050087
 30
0.0
 10
5.555499857858308
 20
30.27288393433092
 30
0.0
 10
6.178561634934567
 20
30.35526520128622
 30
0.0
 10
6.471563959058528
 20
30.47000847686814
 30
0.0
  0
SPLINE
  5
B8
330
1F
100
AcDbEntity
  8
0
370
    -3
100
AcDbSpline
210
0.0
220
0.0
230
1.0
 70
    24
 71
     3
 72
    11
 73
     7
 74
     0
 42
0.000000001
 43
0.0000000001
 40
0.0
 40
0.0
 40
0.0
 40
0.0
 40
1.0
 40
2.0
 40
3.0
 40
4.0
 40
4.0
 40
4.0
 40
4.0
 10
6.300404443238847
 20
31.40805622860175
 30
0.0
 10
6.04910144549396
 20
31.33930329456652
 30
0.0
 10
5.546495450004386
 20
31.20179742649604
 30
0.0
 10
4.792586456769754
 20
30.99553862439032
 30
0.0
 10
4.038677463535407
 20
30.78927982228461
 30
0.0
 10
3.53607146804552
 20
30.65177395421414
 30
0.0
 10
3.284768470300776
 20
30.5830210201789
 30
0.0
  0
SPLINE
  5
B9
330
1F
100
AcDbEntity
  8
0
370
    -3
100
AcDbSpline
210
0.0
220
0.0
230
1.0
 70
     8
 71
     3
 72
     8
 73
     4
 74
     0
 42
0.000000001
 43
0.0000000001
 40
4.0
 40
4.0
 40
4.0
 40
4.0
 40
5.0
 40
5.0
 40
5.0
 40
5.0
 10
3.284768470300776
 20
30.5830210201789
 30
0.0
 10
3.074017617034059
 20
30.52536257741238
 30
0.0
 10
2.699035321118799
 20
30.46809660238415
 30
0.0
 10
2.481477664424148
 20
30.43907720984313
 30
0.0
  0
SPLINE
  5
BA
330
1F
100
AcDbEntity
  8
0
370
    -3
100
AcDbSpline
210
0.0
220
0.0
230
1.0
 70
    12
 71
     3
 72
     8
 73
     4
 74
     0
 42
0.000000001
 43
0.0000000001
 40
5.0
 40
5.0
 40
5.0
 40
5.0
 40
10.06024646276335
 40
10.06024646276335
 40
10.06024646276335
 40
10.06024646276335
 10
2.481477664424148
 20
30.43907720984313
 30
0.0
 41
1.0
 10
0.8368569887950631
 20
30.21971881400218
 30
0.0
 41
0.9999999999999996
 10
-0.836830531447603
 20
30.2197186273094
 30
0.0
 41
1.0
 10
-2.48145643535895
 20
30.43907720984313
 30
0.0
 41
1.0
  0
SPLINE
  5
BB
330
1F
100
AcDbEntity
  8
0
370
    -3
100
AcDbSpline
210
0.0
220
0.0
230
1.0
 70
     8
 71
     3
 72
     8
 73
     4
 74
     0
 42
0.000000001
 43
0.0000000001
 40
10.06024646276335
 40
10.06024646276335
 40
10.06024646276335
 40
10.06024646276335
 40
11.06024646276335
 40
11.06024646276335
 40
11.06024646276335
 40
11.06024646276335
 10
-2.48145643535895
 20
30.43907720984313
 30
0.0
 10
-2.699012623741424
 20
30.46809463988089
 30
0.0
 10
-3.074004159124769
 20
30.52536158943576
 30
0.0
 10
-3.284758623604432
 20
30.5830210201789
 30
0.0
  0
SPLINE
  5
BC
330
1F
100
AcDbEntity
  8
0
370
    -3
100
AcDbSpline
210
0.0
220
0.0
230
1.0
 70
    24
 71
     3
 72
    11
 73
     7
 74
     0
 42
0.000000001
 43
0.0000000001
 40
11.06024646276335
 40
11.06024646276335
 40
11.06024646276335
 40
11.06024646276335
 40
12.06024646276335
 40
13.06024646276335
 40
14.06024646276335
 40
15.06024646276335
 40
15.06024646276335
 40
15.06024646276335
 40
15.06024646276335
 10
-3.284758623604432
 20
30.5830210201789
 30
0.0
 10
-3.536061621349177
 20
30.65177395421414
 30
0.0
 10
-4.038667616839064
 20
30.78927982228461
 30
0.0
 10
-4.792576610073411
 20
30.99553862439032
 30
0.0
 10
-5.546485603308042
 20
31.20179742649604
 30
0.0
 10
-6.049091598797617
 20
31.33930329456652
 30
0.0
 10
-6.300394596542503
 20
31.40805622860175
 30
0.0
  0
SPLINE
  5
BD
330
1F
100
AcDbEntity
  8
0
370
    -3
100
AcDbSpline
210
0.0
220
0.0
230
1.0
 70
     8
 71
     3
 72
    12
 73
     8
 74
     0
 42
0.000000001
 43
0.0000000001
 40
-5.0
 40
-5.0
 40
-5.0
 40
-5.0
 40
-4.0
 40
-3.0
 40
-2.0
 40
-1.0
 40
0.0
 40
0.0
 40
0.0
 40
0.0
 10
-7.173281725680283
 20
31.64703277290218
 30
0.0
 10
-7.140192514550733
 20
31.64891251876927
 30
0.0
 10
-7.073829755289523
 20
31.63804605106073
 30
0.0
 10
-6.985348676661715
 20
31.59077182826177
 30
0.0
 10
-6.91310790743745
 20
31.5214258913287
 30
0.0
 10
-6.864195248601675
 20
31.43337591055044
 30
0.0
 10
-6.858303641622058
 20
31.34889742096644
 30
0.0
 10
-6.863368453349182
 20
31.31615552607141
 30
0.0
  0
SPLINE
  5
BE
330
1F
100
AcDbEntity
  8
0
370
    -3
100
AcDbSpline
210
0.0
220
0.0
230
1.0
 70
     8
 71
     3
 72
    12
 73
     8
 74
     0
 42
0.000000001
 43
0.0000000001
 40
0.0
 40
0.0
 40
0.0
 40
0.0
 40
1.0
 40
2.0
 40
3.0
 40
4.0
 40
5.0
 40
5.0
 40
5.0
 40
5.0
 10
-6.863368453349182
 20
31.31615552607141
 30
0.0
 10
-6.869770160336202
 20
31.27477116104257
 30
0.0
 10
-6.91172557352192
 20
31.18144157269913
 30
0.0
 10
-7.004762206921242
 20
31.09562488838714
 30
0.0
 10
-7.115519287481504
 20
31.03599554262024
 30
0.0
 10
-7.238231385704239
 20
31.00468621498602
 30
0.0
 10
-7.323871595410793
 20
31.02220244660394
 30
0.0
 10
-7.356241397457893
 20
31.04986375896161
 30
0.0
  0
SPLINE
  5
BF
330
1F
100
AcDbEntity
  8
0
370
    -3
100
AcDbSpline
210
0.0
220
0.0
230
1.0
 70
     8
 71
     3
 72
    10
 73
     6
 74
     0
 42
0.000000001
 43
0.0000000001
 40
-3.0
 40
-3.0
 40
-3.0
 40
-3.0
 40
-2.0
 40
-1.0
 40
0.0
 40
0.0
 40
0.0
 40
0.0
 10
6.031644618024245
 20
31.48656721800256
 30
0.0
 10
5.386892449542898
 20
31.26080718864208
 30
0.0
 10
4.06999015492184
 20
30.88974281172392
 30
0.0
 10
2.048138573549522
 20
30.54103000112697
 30
0.0
 10
0.6832021174190572
 20
30.44658842186635
 30
0.0
 10
0.000004923017741
 20
30.44592520441311
 30
0.0
  0
SPLINE
  5
C0
330
1F
100
AcDbEntity
  8
0
370
    -3
100
AcDbSpline
210
0.0
220
0.0
230
1.0
 70
     8
 71
     3
 72
    10
 73
     6
 74
     0
 42
0.000000001
 43
0.0000000001
 40
0.0
 40
0.0
 40
0.0
 40
0.0
 40
1.0
 40
2.0
 40
3.0
 40
3.0
 40
3.0
 40
3.0
 10
0.000004923017741
 20
30.44592520441311
 30
0.0
 10
-0.6831922713835752
 20
30.44658842186635
 30
0.0
 10
-2.04812872751404
 20
30.54103000112697
 30
0.0
 10
-4.069980308886358
 20
30.88974281172392
 30
0.0
 10
-5.386882603507416
 20
31.26080718864208
 30
0.0
 10
-6.031634771988763
 20
31.48656721800256
 30
0.0
  0
SPLINE
  5
C1
330
1F
100
AcDbEntity
  8
0
370
    -3
100
AcDbSpline
210
0.0
220
0.0
230
1.0
 70
     8
 71
     3
 72
     8
 73
     4
 74
     0
 42
0.000000001
 43
0.0000000001
 40
-7.827057157783509
 40
-7.827057157783509
 40
-7.827057157783509
 40
-7.827057157783509
 40
-7.508943809248903
 40
-7.508943809248903
 40
-7.508943809248903
 40
-7.508943809248903
 10
-7.556967913258973
 20
31.10479912138179
 30
0.0
 10
-7.559767944916985
 20
31.0015381518126
 30
0.0
 10
-7.56256797847476
 20
30.89827719791845
 30
0.0
 10
-7.565368014128808
 20
30.79501625955729
 30
0.0
  0
SPLINE
  5
C2
330
1F
100
AcDbEntity
  8
0
370
    -3
100
AcDbSpline
210
0.0
220
0.0
230
1.0
 70
     8
 71
     3
 72
     8
 73
     4
 74
     0
 42
0.000000001
 43
0.0000000001
 40
-7.508943809248903
 40
-7.508943809248903
 40
-7.508943809248903
 40
-7.508943809248903
 40
-7.504257793518828
 40
-7.504257793518828
 40
-7.504257793518828
 40
-7.504257793518828
 10
-7.565368014128808
 20
30.79501625955729
 30
0.0
 10
-7.565408775981126
 20
30.7935130261549
 30
0.0
 10
-7.565449537833956
 20
30.79200979275581
 30
0.0
 10
-7.565652153438947
 20
30.79051094820534
 30
0.0
  0
SPLINE
  5
C3
330
1F
100
AcDbEntity
  8
0
370
    -3
100
AcDbSpline
210
0.0
220
0.0
230
1.0
 70
     8
 71
     3
 72
    14
 73
    10
 74
     0
 42
0.000000001
 43
0.0000000001
 40
-7.504257793518828
 40
-7.504257793518828
 40
-7.504257793518828
 40
-7.504257793518828
 40
-6.504448673814874
 40
-5.5044168604322
 40
-4.504385047049526
 40
-3.504353233666852
 40
-2.504321420284178
 40
-1.504289606901503
 40
-0.5042577935188287
 40
-0.5042577935188287
 40
-0.5042577935188287
 40
-0.5042577935188287
 10
-7.565652153438947
 20
30.79051094820534
 30
0.0
 10
-7.568088978470456
 20
30.7106316944997
 30
0.0
 10
-7.5294989018347
 20
30.54992756063329
 30
0.0
 10
-7.35927177307471
 20
30.36936133789345
 30
0.0
 10
-7.12773930207095
 20
30.29182759602023
 30
0.0
 10
-6.888189983435581
 20
30.27251388625885
 30
0.0
 10
-6.647196462421334
 20
30.31175396570022
 30
0.0
 10
-6.450248401521549
 20
30.46279468959003
 30
0.0
 10
-6.386303630413352
 20
30.61518306402388
 30
0.0
 10
-6.375710686763824
 20
30.69441838360484
 30
0.0
  0
LINE
  5
C4
330
1F
100
AcDbEntity
  8
0
370
    -3
100
AcDbLine
 10
-6.375710686763824
 20
30.69441838360484
 30
0.0
 11
-6.306144004532598
 21
31.20622879299228
 31
0.0
  0
LINE
  5
C5
330
1F
100
AcDbEntity
  8
0
370
    -3
100
AcDbLine
 10
-6.306144004532598
 20
31.20622879299228
 30
0.0
 11
-6.296090942009698
 21
31.57668810881762
 31
0.0
  0
SPLINE
  5
C6
330
1F
100
AcDbEntity
  8
0
370
    -3
100
AcDbSpline
210
0.0
220
0.0
230
1.0
 70
     8
 71
     3
 72
     8
 73
     4
 74
     0
 42
0.000000001
 43
0.0000000001
 40
0.3926791277885351
 40
0.3926791277885351
 40
0.3926791277885351
 40
0.3926791277885351
 40
1.392679127788535
 40
1.392679127788535
 40
1.392679127788535
 40
1.392679127788535
 10
-6.296090942009698
 20
31.57668810881762
 30
0.0
 10
-6.356254620848148
 20
31.68367334569285
 30
0.0
 10
-7.242117046711456
 20
31.79759080901906
 30
0.0
 10
-7.486325974641545
 20
31.7831220267293
 30
0.0
  0
LINE
  5
C7
330
1F
100
AcDbEntity
  8
0
370
    -3
100
AcDbLine
 10
-7.486325974641545
 20
31.7831220267293
 30
0.0
 11
-7.492925338666964
 21
31.73431571688499
 31
0.0
  0
SPLINE
  5
C8
330
1F
100
AcDbEntity
  8
0
370
    -3
100
AcDbSpline
210
0.0
220
0.0
230
1.0
 70
     8
 71
     3
 72
     8
 73
     4
 74
     0
 42
0.000000001
 43
0.0000000001
 40
-1.0
 40
-1.0
 40
-1.0
 40
-1.0
 40
0.0
 40
0.0
 40
0.0
 40
0.0
 10
6.298046944016107
 20
31.50364736998773
 30
0.0
 10
4.202599297722173
 20
31.34906099638384
 30
0.0
 10
2.101029092408226
 20
31.28371840689505
 30
0.0
 10
0.0000049250555776
 20
31.29815245577164
 30
0.0
  0
SPLINE
  5
C9
330
1F
100
AcDbEntity
  8
0
370
    -3
100
AcDbSpline
210
0.0
220
0.0
230
1.0
 70
     8
 71
     3
 72
     8
 73
     4
 74
     0
 42
0.000000001
 43
0.0000000001
 40
0.0
 40
0.0
 40
0.0
 40
0.0
 40
1.0
 40
1.0
 40
1.0
 40
1.0
 10
0.0000049250555776
 20
31.29815245577164
 30
0.0
 10
-2.10101924229707
 20
31.28371840689505
 30
0.0
 10
-4.202589447611018
 20
31.34906099638384
 30
0.0
 10
-6.298037093904952
 20
31.50364736998773
 30
0.0
  0
SPLINE
  5
CA
330
1F
100
AcDbEntity
  8
0
370
    -3
100
AcDbSpline
210
0.0
220
0.0
230
1.0
 70
     8
 71
     3
 72
    10
 73
     6
 74
     0
 42
0.000000001
 43
0.0000000001
 40
-9.0
 40
-9.0
 40
-9.0
 40
-9.0
 40
-8.0
 40
-7.0
 40
-6.0
 40
-6.0
 40
-6.0
 40
-6.0
 10
-7.755338677901392
 20
32.98633403518275
 30
0.0
 10
-7.768105864616217
 20
32.99282368301019
 30
0.0
 10
-7.790772888103447
 20
33.01140572980069
 30
0.0
 10
-7.810098578294401
 20
33.05088827254514
 30
0.0
 10
-7.810866261252187
 20
33.08018881758477
 30
0.0
 10
-7.808040564216412
 20
33.09485512328843
 30
0.0
  0
SPLINE
  5
CB
330
1F
100
AcDbEntity
  8
0
370
    -3
100
AcDbSpline
210
0.0
220
0.0
230
1.0
 70
     8
 71
     3
 72
    13
 73
     9
 74
     0
 42
0.000000001
 43
0.0000000001
 40
-6.0
 40
-6.0
 40
-6.0
 40
-6.0
 40
-5.0
 40
-4.0
 40
-3.0
 40
-2.0
 40
-1.0
 40
0.0
 40
0.0
 40
0.0
 40
0.0
 10
-7.808040564216412
 20
33.09485512328843
 30
0.0
 10
-7.789194510140902
 20
33.19463440211993
 30
0.0
 10
-7.692959741448192
 20
33.37856331926736
 30
0.0
 10
-7.447521745363815
 20
33.5626913042984
 30
0.0
 10
-7.160313382997913
 20
33.66599641023097
 30
0.0
 10
-6.856368820976854
 20
33.68005842706839
 30
0.0
 10
-6.557315090374914
 20
33.63566930280251
 30
0.0
 10
-6.359407723973163
 20
33.59990233333163
 30
0.0
 10
-6.2598825177501
 20
33.58496732364847
 30
0.0
  0
SPLINE
  5
CC
330
1F
100
AcDbEntity
  8
0
370
    -3
100
AcDbSpline
210
0.0
220
0.0
230
1.0
 70
     8
 71
     3
 72
    12
 73
     8
 74
     0
 42
0.000000001
 43
0.0000000001
 40
0.0
 40
0.0
 40
0.0
 40
0.0
 40
1.0
 40
2.0
 40
3.0
 40
4.0
 40
5.0
 40
5.0
 40
5.0
 40
5.0
 10
-6.2598825177501
 20
33.58496732364847
 30
0.0
 10
-5.847333959690673
 20
33.52305922073455
 30
0.0
 10
-5.00455171486152
 20
33.44218995406183
 30
0.0
 10
-3.7539535632921
 20
33.39234150850803
 30
0.0
 10
-2.502678229281912
 20
33.37693738591373
 30
0.0
 10
-1.251338883165261
 20
33.37546038648321
 30
0.0
 10
-0.4171177238050916
 20
33.37639507233183
 30
0.0
 10
-0.0000060954616856
 20
33.37638582175592
 30
0.0
  0
SPLINE
  5
CD
330
1F
100
AcDbEntity
  8
0
370
    -3
100
AcDbSpline
210
0.0
220
0.0
230
1.0
 70
     8
 71
     3
 72
    12
 73
     8
 74
     0
 42
0.000000001
 43
0.0000000001
 40
5.0
 40
5.0
 40
5.0
 40
5.0
 40
6.0
 40
7.0
 40
8.0
 40
9.0
 40
10.0
 40
10.0
 40
10.0
 40
10.0
 10
-0.0000060954616856
 20
33.37638582175592
 30
0.0
 10
0.4171055328817204
 20
33.37639507233183
 30
0.0
 10
1.251326692241889
 20
33.37546038648321
 30
0.0
 10
2.502666038358541
 20
33.37693738591373
 30
0.0
 10
3.753941372368729
 20
33.39234150850803
 30
0.0
 10
5.004539523938149
 20
33.44218995406183
 30
0.0
 10
5.847321768767301
 20
33.52305922073455
 30
0.0
 10
6.259870326826729
 20
33.58496732364847
 30
0.0
  0
SPLINE
  5
CE
330
1F
100
AcDbEntity
  8
0
370
    -3
100
AcDbSpline
210
0.0
220
0.0
230
1.0
 70
     8
 71
     3
 72
    13
 73
     9
 74
     0
 42
0.000000001
 43
0.0000000001
 40
10.0
 40
10.0
 40
10.0
 40
10.0
 40
11.0
 40
12.0
 40
13.0
 40
14.0
 40
15.0
 40
16.0
 40
16.0
 40
16.0
 40
16.0
 10
6.259870326826729
 20
33.58496732364847
 30
0.0
 10
6.359395533049792
 20
33.59990233333163
 30
0.0
 10
6.557302899451543
 20
33.63566930280251
 30
0.0
 10
6.856356630053483
 20
33.68005842706839
 30
0.0
 10
7.160301192074542
 20
33.66599641023097
 30
0.0
 10
7.447509554440444
 20
33.5626913042984
 30
0.0
 10
7.692947550524821
 20
33.37856331926736
 30
0.0
 10
7.789182319217531
 20
33.19463440211993
 30
0.0
 10
7.808028373293041
 20
33.09485512328843
 30
0.0
  0
SPLINE
  5
CF
330
1F
100
AcDbEntity
  8
0
370
    -3
100
AcDbSpline
210
0.0
220
0.0
230
1.0
 70
     8
 71
     3
 72
    10
 73
     6
 74
     0
 42
0.000000001
 43
0.0000000001
 40
16.0
 40
16.0
 40
16.0
 40
16.0
 40
17.0
 40
18.0
 40
19.0
 40
19.0
 40
19.0
 40
19.0
 10
7.808028373293041
 20
33.09485512328843
 30
0.0
 10
7.810854070328816
 20
33.08018881758477
 30
0.0
 10
7.81008638737103
 20
33.05088827254514
 30
0.0
 10
7.790760697180076
 20
33.01140572980069
 30
0.0
 10
7.768093673692846
 20
32.99282368301019
 30
0.0
 10
7.755326486978021
 20
32.98633403518275
 30
0.0
  0
SPLINE
  5
D0
330
1F
100
AcDbEntity
  8
0
370
    -3
100
AcDbSpline
210
0.0
220
0.0
230
1.0
 70
     8
 71
     3
 72
     8
 73
     4
 74
     0
 42
0.000000001
 43
0.0000000001
 40
0.0
 40
0.0
 40
0.0
 40
0.0
 40
1.0
 40
1.0
 40
1.0
 40
1.0
 10
-7.669252206296903
 20
31.78115222188026
 30
0.0
 10
-7.607368664139301
 20
31.79586492248032
 30
0.0
 10
-7.543465432050994
 20
31.79958983679188
 30
0.0
 10
-7.480040536967181
 20
31.79950575910412
 30
0.0
  0
SPLINE
  5
D1
330
1F
100
AcDbEntity
  8
0
370
    -3
100
AcDbSpline
210
0.0
220
0.0
230
1.0
 70
     8
 71
     3
 72
     8
 73
     4
 74
     0
 42
0.000000001
 43
0.0000000001
 40
1.0
 40
1.0
 40
1.0
 40
1.0
 40
2.0
 40
2.0
 40
2.0
 40
2.0
 10
-7.480040536967181
 20
31.79950575910412
 30
0.0
 10
-7.358979588284882
 20
31.7992749520829
 30
0.0
 10
-7.149148218123941
 20
31.78219920638917
 30
0.0
 10
-7.028714457702733
 20
31.76798063908923
 30
0.0
  0
SPLINE
  5
D2
330
1F
100
AcDbEntity
  8
0
370
    -3
100
AcDbSpline
210
0.0
220
0.0
230
1.0
 70
     8
 71
     3
 72
    14
 73
    10
 74
     0
 42
0.000000001
 43
0.0000000001
 40
2.0
 40
2.0
 40
2.0
 40
2.0
 40
3.0
 40
4.0
 40
5.0
 40
6.0
 40
7.0
 40
8.0
 40
9.0
 40
9.0
 40
9.0
 40
9.0
 10
-7.028714457702733
 20
31.76798063908923
 30
0.0
 10
-6.695325346954604
 20
31.72862028455361
 30
0.0
 10
-6.033173031518231
 20
31.61651489478729
 30
0.0
 10
-5.031865561654456
 20
31.50663045060185
 30
0.0
 10
-4.027138067822648
 20
31.4376544615469
 30
0.0
 10
-3.020740128976598
 20
31.40128848478508
 30
0.0
 10
-2.013900800748758
 20
31.38461811529665
 30
0.0
 10
-1.006952367847532
 20
31.37881901787887
 30
0.0
 10
-0.3356474532209859
 20
31.37835239370924
 30
0.0
 10
0.0000049233481718
 20
31.37834472397779
 30
0.0
  0
SPLINE
  5
D3
330
1F
100
AcDbEntity
  8
0
370
    -3
100
AcDbSpline
210
0.0
220
0.0
230
1.0
 70
     8
 71
     3
 72
    14
 73
    10
 74
     0
 42
0.000000001
 43
0.0000000001
 40
9.0
 40
9.0
 40
9.0
 40
9.0
 40
10.0
 40
11.0
 40
12.0
 40
13.0
 40
14.0
 40
15.0
 40
16.0
 40
16.0
 40
16.0
 40
16.0
 10
0.0000049233481718
 20
31.37834472397779
 30
0.0
 10
0.3356572999173295
 20
31.37835239370924
 30
0.0
 10
1.006962214543876
 20
31.37881901787887
 30
0.0
 10
2.013910647445101
 20
31.38461811529665
 30
0.0
 10
3.020749975672942
 20
31.40128848478508
 30
0.0
 10
4.027147914518991
 20
31.4376544615469
 30
0.0
 10
5.0318754083508
 20
31.50663045060185
 30
0.0
 10
6.033182878214575
 20
31.61651489478729
 30
0.0
 10
6.695335193650948
 20
31.72862028455361
 30
0.0
 10
7.028724304399077
 20
31.76798063908923
 30
0.0
  0
SPLINE
  5
D4
330
1F
100
AcDbEntity
  8
0
370
    -3
100
AcDbSpline
210
0.0
220
0.0
230
1.0
 70
     8
 71
     3
 72
     8
 73
     4
 74
     0
 42
0.000000001
 43
0.0000000001
 40
16.0
 40
16.0
 40
16.0
 40
16.0
 40
17.0
 40
17.0
 40
17.0
 40
17.0
 10
7.028724304399077
 20
31.76798063908923
 30
0.0
 10
7.149158064820284
 20
31.78219920638917
 30
0.0
 10
7.358989434981225
 20
31.7992749520829
 30
0.0
 10
7.480050383663524
 20
31.79950575910412
 30
0.0
  0
SPLINE
  5
D5
330
1F
100
AcDbEntity
  8
0
370
    -3
100
AcDbSpline
210
0.0
220
0.0
230
1.0
 70
     8
 71
     3
 72
     8
 73
     4
 74
     0
 42
0.000000001
 43
0.0000000001
 40
17.0
 40
17.0
 40
17.0
 40
17.0
 40
18.0
 40
18.0
 40
18.0
 40
18.0
 10
7.480050383663524
 20
31.79950575910412
 30
0.0
 10
7.543475278747337
 20
31.79958983679188
 30
0.0
 10
7.607378510835645
 20
31.79586492248032
 30
0.0
 10
7.669262052993247
 20
31.78115222188026
 30
0.0
  0
SPLINE
  5
D6
330
1F
100
AcDbEntity
  8
0
370
    -3
100
AcDbSpline
210
0.0
220
0.0
230
1.0
 70
     8
 71
     3
 72
    13
 73
     9
 74
     0
 42
0.000000001
 43
0.0000000001
 40
0.0
 40
0.0
 40
0.0
 40
0.0
 40
1.0
 40
2.0
 40
3.0
 40
4.0
 40
5.0
 40
6.0
 40
6.0
 40
6.0
 40
6.0
 10
-6.976273424620558
 20
30.28320462341938
 30
0.0
 10
-7.054963537541312
 20
30.25797119282888
 30
0.0
 10
-7.219960292683254
 20
30.24344300562839
 30
0.0
 10
-7.467224766017409
 20
30.27119195985259
 30
0.0
 10
-7.693887944109008
 20
30.38111580865734
 30
0.0
 10
-7.839589667116343
 20
30.59603349298561
 30
0.0
 10
-7.836137858197191
 20
30.84766639382414
 30
0.0
 10
-7.834736935490923
 20
31.01077227665877
 30
0.0
 10
-7.833887754975194
 20
31.09325541220909
 30
0.0
  0
SPLINE
  5
D7
330
1F
100
AcDbEntity
  8
0
370
    -3
100
AcDbSpline
210
0.0
220
0.0
230
1.0
 70
     8
 71
     3
 72
    10
 73
     6
 74
     0
 42
0.000000001
 43
0.0000000001
 40
0.0
 40
0.0
 40
0.0
 40
0.0
 40
1.0
 40
2.0
 40
3.0
 40
3.0
 40
3.0
 40
3.0
 10
-6.806071291443914
 20
31.31872360082563
 30
0.0
 10
-6.754973046101838
 20
31.31391452773597
 30
0.0
 10
-6.652872205146707
 20
31.30281941873284
 30
0.0
 10
-6.500679590854816
 20
31.2796585310537
 30
0.0
 10
-6.400068228213684
 20
31.25788865633527
 30
0.0
 10
-6.35204636996923
 20
31.23950319904091
 30
0.0
  0
SPLINE
  5
D8
330
1F
100
AcDbEntity
  8
0
370
    -3
100
AcDbSpline
210
0.0
220
0.0
230
1.0
 70
    28
 71
     2
 72
     6
 73
     3
 74
     0
 42
0.000000001
 43
0.0000000001
 40
-6.255576233813232
 40
-6.255576233813232
 40
-6.255576233813232
 40
-5.99999999999994
 40
-5.99999999999994
 40
-5.99999999999994
 10
-8.28962210619083
 20
31.52818639572909
 30
0.0
 41
0.9132703934651935
 10
-8.38396159568056
 20
31.58565040049605
 30
0.0
 41
0.9132703934651935
 10
-8.478301085170289
 20
31.643114405263
 30
0.0
 41
0.9132703934651935
  0
SPLINE
  5
D9
330
1F
100
AcDbEntity
  8
0
370
    -3
100
AcDbSpline
210
0.0
220
0.0
230
1.0
 70
     8
 71
     2
 72
    11
 73
     8
 74
     0
 42
0.000000001
 43
0.0000000001
 40
-5.99999999999994
 40
-5.99999999999994
 40
-5.99999999999994
 40
-4.99999999999994
 40
-3.99999999999994
 40
-2.99999999999994
 40
-1.99999999999994
 40
-0.9999999999999403
 40
0.0000000000000597
 40
0.0000000000000597
 40
0.0000000000000597
 10
-8.478301085170301
 20
31.64311440526299
 30
0.0
 10
-8.550193732554106
 20
31.6882596833694
 30
0.0
 10
-8.718953983701368
 20
31.714026038269
 30
0.0
 10
-8.877608270611574
 20
31.65033866981338
 30
0.0
 10
-8.992691168620127
 20
31.52585656037763
 30
0.0
 10
-9.065651075317362
 20
31.37410115302094
 30
0.0
 10
-9.102293418858324
 20
31.21001087904148
 30
0.0
 10
-9.104493461409845
 20
31.12603609537675
 30
0.0
  0
LINE
  5
DA
330
1F
100
AcDbEntity
  8
0
370
    -3
100
AcDbLine
 10
-9.104493461409845
 20
31.12603609537675
 30
0.0
 11
-9.93532596222488
 21
0.7876024259426941
 31
0.0
  0
SPLINE
  5
DB
330
1F
100
AcDbEntity
  8
0
370
    -3
100
AcDbSpline
210
0.0
220
0.0
230
1.0
 70
     8
 71
     3
 72
     9
 73
     5
 74
     0
 42
0.000000001
 43
0.0000000001
 40
0.0
 40
0.0
 40
0.0
 40
0.0
 40
1.0
 40
2.0
 40
2.0
 40
2.0
 40
2.0
 10
-10.53088759069573
 20
0.624565485557099
 30
0.0
 10
-10.53593606468633
 20
0.6466551540924428
 30
0.0
 10
-10.57797844065357
 20
0.6798496884861436
 30
0.0
 10
-10.62437715018299
 20
0.6530803296261638
 30
0.0
 10
-10.63256535548831
 20
0.6319522968197759
 30
0.0
  0
SPLINE
  5
DC
330
1F
100
AcDbEntity
  8
0
370
    -3
100
AcDbSpline
210
0.0
220
0.0
230
1.0
 70
     8
 71
     3
 72
     9
 73
     5
 74
     0
 42
0.000000001
 43
0.0000000001
 40
2.0
 40
2.0
 40
2.0
 40
2.0
 40
3.0
 40
4.0
 40
4.0
 40
4.0
 40
4.0
 10
-10.63256535548831
 20
0.6319522968197759
 30
0.0
 10
-10.65573470348116
 20
0.57662422481053
 30
0.0
 10
-10.67693688983644
 20
0.4555892119279719
 30
0.0
 10
-10.64467264323136
 20
0.3370226665074085
 30
0.0
 10
-10.61650388907225
 20
0.2840648015687037
 30
0.0
  0
LINE
  5
DD
330
1F
100
AcDbEntity
  8
0
370
    -3
100
AcDbLine
 10
-10.61650388907225
 20
0.2840648015687037
 30
0.0
 11
-10.61650388907225
 21
0.0
 31
0.0
  0
LINE
  5
DE
330
1F
100
AcDbEntity
  8
0
370
    -3
100
AcDbLine
 10
-10.61650388907225
 20
0.0
 30
0.0
 11
-9.89650388907225
 21
0.0
 31
0.0
  0
LINE
  5
DF
330
1F
100
AcDbEntity
  8
0
370
    -3
100
AcDbLine
 10
-9.89650388907225
 20
0.0
 30
0.0
 11
-9.89650388907225
 21
0.1625002793381896
 31
0.0
  0
SPLINE
  5
E0
330
1F
100
AcDbEntity
  8
0
370
    -3
100
AcDbSpline
210
0.0
220
0.0
230
1.0
 70
     8
 71
     3
 72
    12
 73
     8
 74
     0
 42
0.000000001
 43
0.0000000001
 40
-5.0
 40
-5.0
 40
-5.0
 40
-5.0
 40
-4.0
 40
-3.0
 40
-2.0
 40
-1.0
 40
0.0
 40
0.0
 40
0.0
 40
0.0
 10
7.173281725680283
 20
31.64703277290218
 30
0.0
 10
7.140192514550733
 20
31.64891251876927
 30
0.0
 10
7.073829755289523
 20
31.63804605106073
 30
0.0
 10
6.985348676661715
 20
31.59077182826177
 30
0.0
 10
6.91310790743745
 20
31.5214258913287
 30
0.0
 10
6.864195248601675
 20
31.43337591055044
 30
0.0
 10
6.858303641622058
 20
31.34889742096644
 30
0.0
 10
6.863368453349182
 20
31.31615552607141
 30
0.0
  0
SPLINE
  5
E1
330
1F
100
AcDbEntity
  8
0
370
    -3
100
AcDbSpline
210
0.0
220
0.0
230
1.0
 70
     8
 71
     3
 72
    12
 73
     8
 74
     0
 42
0.000000001
 43
0.0000000001
 40
0.0
 40
0.0
 40
0.0
 40
0.0
 40
1.0
 40
2.0
 40
3.0
 40
4.0
 40
5.0
 40
5.0
 40
5.0
 40
5.0
 10
6.863368453349182
 20
31.31615552607141
 30
0.0
 10
6.869770160336202
 20
31.27477116104257
 30
0.0
 10
6.91172557352192
 20
31.18144157269913
 30
0.0
 10
7.004762206921242
 20
31.09562488838714
 30
0.0
 10
7.115519287481504
 20
31.03599554262024
 30
0.0
 10
7.238231385704239
 20
31.00468621498602
 30
0.0
 10
7.323871595410793
 20
31.02220244660394
 30
0.0
 10
7.356241397457893
 20
31.04986375896161
 30
0.0
  0
SPLINE
  5
E2
330
1F
100
AcDbEntity
  8
0
370
    -3
100
AcDbSpline
210
0.0
220
0.0
230
1.0
 70
     8
 71
     3
 72
     8
 73
     4
 74
     0
 42
0.000000001
 43
0.0000000001
 40
-7.827057157783509
 40
-7.827057157783509
 40
-7.827057157783509
 40
-7.827057157783509
 40
-7.508943809248903
 40
-7.508943809248903
 40
-7.508943809248903
 40
-7.508943809248903
 10
7.556967913258973
 20
31.10479912138179
 30
0.0
 10
7.559767944916985
 20
31.0015381518126
 30
0.0
 10
7.56256797847476
 20
30.89827719791845
 30
0.0
 10
7.565368014128808
 20
30.79501625955729
 30
0.0
  0
SPLINE
  5
E3
330
1F
100
AcDbEntity
  8
0
370
    -3
100
AcDbSpline
210
0.0
220
0.0
230
1.0
 70
     8
 71
     3
 72
     8
 73
     4
 74
     0
 42
0.000000001
 43
0.0000000001
 40
-7.508943809248903
 40
-7.508943809248903
 40
-7.508943809248903
 40
-7.508943809248903
 40
-7.504257793518828
 40
-7.504257793518828
 40
-7.504257793518828
 40
-7.504257793518828
 10
7.565368014128808
 20
30.79501625955729
 30
0.0
 10
7.565408775981126
 20
30.7935130261549
 30
0.0
 10
7.565449537833956
 20
30.79200979275581
 30
0.0
 10
7.565652153438947
 20
30.79051094820534
 30
0.0
  0
SPLINE
  5
E4
330
1F
100
AcDbEntity
  8
0
370
    -3
100
AcDbSpline
210
0.0
220
0.0
230
1.0
 70
     8
 71
     3
 72
    14
 73
    10
 74
     0
 42
0.000000001
 43
0.0000000001
 40
-7.504257793518828
 40
-7.504257793518828
 40
-7.504257793518828
 40
-7.504257793518828
 40
-6.504448673814874
 40
-5.5044168604322
 40
-4.504385047049526
 40
-3.504353233666852
 40
-2.504321420284178
 40
-1.504289606901503
 40
-0.5042577935188287
 40
-0.5042577935188287
 40
-0.5042577935188287
 40
-0.5042577935188287
 10
7.565652153438947
 20
30.79051094820534
 30
0.0
 10
7.568088978470456
 20
30.7106316944997
 30
0.0
 10
7.5294989018347
 20
30.54992756063329
 30
0.0
 10
7.35927177307471
 20
30.36936133789345
 30
0.0
 10
7.12773930207095
 20
30.29182759602023
 30
0.0
 10
6.888189983435581
 20
30.27251388625885
 30
0.0
 10
6.647196462421334
 20
30.31175396570022
 30
0.0
 10
6.450248401521549
 20
30.46279468959003
 30
0.0
 10
6.386303630413352
 20
30.61518306402388
 30
0.0
 10
6.375710686763824
 20
30.69441838360484
 30
0.0
  0
LINE
  5
E5
330
1F
100
AcDbEntity
  8
0
370
    -3
100
AcDbLine
 10
6.375710686763824
 20
30.69441838360484
 30
0.0
 11
6.306144004532598
 21
31.20622879299228
 31
0.0
  0
LINE
  5
E6
330
1F
100
AcDbEntity
  8
0
370
    -3
100
AcDbLine
 10
6.306144004532598
 20
31.20622879299228
 30
0.0
 11
6.296090942009698
 21
31.57668810881762
 31
0.0
  0
SPLINE
  5
E7
330
1F
100
AcDbEntity
  8
0
370
    -3
100
AcDbSpline
210
0.0
220
0.0
230
1.0
 70
     8
 71
     3
 72
     8
 73
     4
 74
     0
 42
0.000000001
 43
0.0000000001
 40
0.3926791277885351
 40
0.3926791277885351
 40
0.3926791277885351
 40
0.3926791277885351
 40
1.392679127788535
 40
1.392679127788535
 40
1.392679127788535
 40
1.392679127788535
 10
6.296090942009698
 20
31.57668810881762
 30
0.0
 10
6.356254620848148
 20
31.68367334569285
 30
0.0
 10
7.242117046711456
 20
31.79759080901906
 30
0.0
 10
7.486325974641545
 20
31.7831220267293
 30
0.0
  0
LINE
  5
E8
330
1F
100
AcDbEntity
  8
0
370
    -3
100
AcDbLine
 10
7.486325974641545
 20
31.7831220267293
 30
0.0
 11
7.492925338666964
 21
31.73431571688499
 31
0.0
  0
SPLINE
  5
E9
330
1F
100
AcDbEntity
  8
0
370
    -3
100
AcDbSpline
210
0.0
220
0.0
230
1.0
 70
     8
 71
     3
 72
    13
 73
     9
 74
     0
 42
0.000000001
 43
0.0000000001
 40
0.0
 40
0.0
 40
0.0
 40
0.0
 40
1.0
 40
2.0
 40
3.0
 40
4.0
 40
5.0
 40
6.0
 40
6.0
 40
6.0
 40
6.0
 10
6.976273424620558
 20
30.28320462341938
 30
0.0
 10
7.054963537541312
 20
30.25797119282888
 30
0.0
 10
7.219960292683254
 20
30.24344300562839
 30
0.0
 10
7.467224766017409
 20
30.27119195985259
 30
0.0
 10
7.693887944109008
 20
30.38111580865734
 30
0.0
 10
7.839589667116343
 20
30.59603349298561
 30
0.0
 10
7.836137858197191
 20
30.84766639382414
 30
0.0
 10
7.834736935490923
 20
31.01077227665877
 30
0.0
 10
7.833887754975194
 20
31.09325541220909
 30
0.0
  0
SPLINE
  5
EA
330
1F
100
AcDbEntity
  8
0
370
    -3
100
AcDbSpline
210
0.0
220
0.0
230
1.0
 70
     8
 71
     3
 72
    10
 73
     6
 74
     0
 42
0.000000001
 43
0.0000000001
 40
0.0
 40
0.0
 40
0.0
 40
0.0
 40
1.0
 40
2.0
 40
3.0
 40
3.0
 40
3.0
 40
3.0
 10
6.806071291443914
 20
31.31872360082563
 30
0.0
 10
6.754973046101838
 20
31.31391452773597
 30
0.0
 10
6.652872205146707
 20
31.30281941873284
 30
0.0
 10
6.500679590854816
 20
31.2796585310537
 30
0.0
 10
6.400068228213684
 20
31.25788865633527
 30
0.0
 10
6.35204636996923
 20
31.23950319904091
 30
0.0
  0
SPLINE
  5
EB
330
1F
100
AcDbEntity
  8
0
370
    -3
100
AcDbSpline
210
0.0
220
0.0
230
1.0
 70
    28
 71
     2
 72
     6
 73
     3
 74
     0
 42
0.000000001
 43
0.0000000001
 40
-6.255576233813232
 40
-6.255576233813232
 40
-6.255576233813232
 40
-5.99999999999994
 40
-5.99999999999994
 40
-5.99999999999994
 10
8.28962210619086
 20
31.52818639572909
 30
0.0
 41
0.9132703934651935
 10
8.38396159568059
 20
31.58565040049605
 30
0.0
 41
0.9132703934651935
 10
8.47830108517032
 20
31.643114405263
 30
0.0
 41
0.9132703934651935
  0
SPLINE
  5
EC
330
1F
100
AcDbEntity
  8
0
370
    -3
100
AcDbSpline
210
0.0
220
0.0
230
1.0
 70
     8
 71
     2
 72
    11
 73
     8
 74
     0
 42
0.000000001
 43
0.0000000001
 40
-5.99999999999994
 40
-5.99999999999994
 40
-5.99999999999994
 40
-4.99999999999994
 40
-3.99999999999994
 40
-2.99999999999994
 40
-1.99999999999994
 40
-0.9999999999999403
 40
0.0000000000000597
 40
0.0000000000000597
 40
0.0000000000000597
 10
8.478301085170301
 20
31.64311440526299
 30
0.0
 10
8.550193732554106
 20
31.6882596833694
 30
0.0
 10
8.718953983701368
 20
31.714026038269
 30
0.0
 10
8.877608270611574
 20
31.65033866981338
 30
0.0
 10
8.992691168620127
 20
31.52585656037763
 30
0.0
 10
9.065651075317362
 20
31.37410115302094
 30
0.0
 10
9.102293418858324
 20
31.21001087904148
 30
0.0
 10
9.104493461409845
 20
31.12603609537675
 30
0.0
  0
LINE
  5
ED
330
1F
100
AcDbEntity
  8
0
370
    -3
100
AcDbLine
 10
9.104493461409845
 20
31.12603609537675
 30
0.0
 11
9.93532596222488
 21
0.7876024259426941
 31
0.0
  0
SPLINE
  5
EE
330
1F
100
AcDbEntity
  8
0
370
    -3
100
AcDbSpline
210
0.0
220
0.0
230
1.0
 70
     8
 71
     3
 72
     9
 73
     5
 74
     0
 42
0.000000001
 43
0.0000000001
 40
0.0
 40
0.0
 40
0.0
 40
0.0
 40
1.0
 40
2.0
 40
2.0
 40
2.0
 40
2.0
 10
10.53088759069573
 20
0.624565485557099
 30
0.0
 10
10.53593606468633
 20
0.6466551540924428
 30
0.0
 10
10.57797844065357
 20
0.6798496884861436
 30
0.0
 10
10.62437715018299
 20
0.6530803296261638
 30
0.0
 10
10.63256535548831
 20
0.6319522968197759
 30
0.0
  0
SPLINE
  5
EF
330
1F
100
AcDbEntity
  8
0
370
    -3
100
AcDbSpline
210
0.0
220
0.0
230
1.0
 70
     8
 71
     3
 72
     9
 73
     5
 74
     0
 42
0.000000001
 43
0.0000000001
 40
2.0
 40
2.0
 40
2.0
 40
2.0
 40
3.0
 40
4.0
 40
4.0
 40
4.0
 40
4.0
 10
10.63256535548831
 20
0.6319522968197759
 30
0.0
 10
10.65573470348116
 20
0.57662422481053
 30
0.0
 10
10.67693688983644
 20
0.4555892119279719
 30
0.0
 10
10.64467264323136
 20
0.3370226665074085
 30
0.0
 10
10.61650388907225
 20
0.2840648015687037
 30
0.0
  0
LINE
  5
F0
330
1F
100
AcDbEntity
  8
0
370
    -3
100
AcDbLine
 10
10.61650388907225
 20
0.2840648015687037
 30
0.0
 11
10.61650388907225
 21
0.0
 31
0.0
  0
LINE
  5
F1
330
1F
100
AcDbEntity
  8
0
370
    -3
100
AcDbLine
 10
10.61650388907225
 20
0.0
 30
0.0
 11
9.89650388907225
 21
0.0
 31
0.0
  0
LINE
  5
F2
330
1F
100
AcDbEntity
  8
0
370
    -3
100
AcDbLine
 10
9.89650388907225
 20
0.0
 30
0.0
 11
9.89650388907225
 21
0.1625002793381896
 31
0.0
  0
SPLINE
  5
F3
330
1F
100
AcDbEntity
  8
0
370
    -3
100
AcDbSpline
210
0.0
220
0.0
230
1.0
 70
    12
 71
     3
 72
     8
 73
     4
 74
     0
 42
0.000000001
 43
0.0000000001
 40
7.583888601110734
 40
7.583888601110734
 40
7.583888601110734
 40
7.583888601110734
 40
8.67665716278382
 40
8.67665716278382
 40
8.67665716278382
 40
8.67665716278382
 10
-7.228057353607085
 20
31.01481385970894
 30
0.0
 41
1.0
 10
-7.410293794237845
 20
31.06467116381569
 30
0.0
 41
1.0
 10
-7.592530234868661
 20
31.11452846792247
 30
0.0
 41
1.0
 10
-7.77473161004616
 20
31.1645139418836
 30
0.0
 41
1.0
  0
SPLINE
  5
F4
330
1F
100
AcDbEntity
  8
0
370
    -3
100
AcDbSpline
210
0.0
220
0.0
230
1.0
 70
     8
 71
     2
 72
     9
 73
     6
 74
     0
 42
0.000000001
 43
0.0000000001
 40
8.67665716278382
 40
8.67665716278382
 40
8.67665716278382
 40
9.6748365519468
 40
10.67544342222581
 40
11.67605029250482
 40
12.67665716278382
 40
12.67665716278382
 40
12.67665716278382
 10
-7.77473161004616
 20
31.1645139418836
 30
0.0
 10
-7.836096087410311
 20
31.10522423119704
 30
0.0
 10
-7.904742463143066
 20
30.94900573858357
 30
0.0
 10
-7.94844427234267
 20
30.78544619768111
 30
0.0
 10
-7.971414309177931
 20
30.61753000478799
 30
0.0
 10
-7.974123880207628
 20
30.5328843975596
 30
0.0
  0
LINE
  5
F5
330
1F
100
AcDbEntity
  8
0
370
    -3
100
AcDbLine
 10
-7.974123880207628
 20
30.5328843975596
 30
0.0
 11
-8.461024483298672
 21
15.2724840747083
 31
0.0
  0
LINE
  5
F6
330
1F
100
AcDbEntity
  8
0
370
    -3
100
AcDbLine
 10
-8.48096578862507
 20
14.64748525501295
 30
0.0
 11
-8.900379360772433
 21
1.502258136432161
 31
0.0
  0
SPLINE
  5
F7
330
1F
100
AcDbEntity
  8
0
370
    -3
100
AcDbSpline
210
0.0
220
0.0
230
1.0
 70
     8
 71
     2
 72
    11
 73
     8
 74
     0
 42
0.000000001
 43
0.0000000001
 40
14.52551604839587
 40
14.52551604839587
 40
14.52551604839587
 40
15.52551604839587
 40
16.52551604839587
 40
17.52551604839587
 40
18.52551604839587
 40
19.52551604839587
 40
20.52551604839587
 40
20.52551604839587
 40
20.52551604839587
 10
-8.900379360772433
 20
1.502258136432161
 30
0.0
 10
-8.904777468441637
 20
1.363368347027247
 30
0.0
 10
-8.9394378386923
 20
1.087601419500473
 30
0.0
 10
-9.002282245614822
 20
0.8167591909413261
 30
0.0
 10
-9.101233179647494
 20
0.5566179929639361
 30
0.0
 10
-9.254466661050259
 20
0.3222531083274589
 30
0.0
 10
-9.489905470322356
 20
0.1644964156632653
 30
0.0
 10
-9.632922063636784
 20
0.1625000493082212
 30
0.0
  0
LINE
  5
F8
330
1F
100
AcDbEntity
  8
0
370
    -3
100
AcDbLine
 10
-9.632922063636784
 20
0.1625000493082212
 30
0.0
 11
-10.25608605378258
 21
0.1625002793382464
 31
0.0
  0
SPLINE
  5
F9
330
1F
100
AcDbEntity
  8
0
370
    -3
100
AcDbSpline
210
0.0
220
0.0
230
1.0
 70
     8
 71
     3
 72
    10
 73
     6
 74
     0
 42
0.000000001
 43
0.0000000001
 40
21.1486800385417
 40
21.1486800385417
 40
21.1486800385417
 40
21.1486800385417
 40
22.1486800385417
 40
23.1486800385417
 40
24.1486800385417
 40
24.1486800385417
 40
24.1486800385417
 40
24.1486800385417
 10
-10.25608605378258
 20
0.1625002793382464
 30
0.0
 10
-10.36560466807384
 20
0.1606533564312258
 30
0.0
 10
-10.58073959580912
 20
0.2882026417904342
 30
0.0
 10
-10.58098906221693
 20
0.6613636655847159
 30
0.0
 10
-10.3660248838375
 20
0.7892004838080453
 30
0.0
 10
-10.25650388906612
 20
0.7875000000000085
 30
0.0
  0
LINE
  5
FA
330
1F
100
AcDbEntity
  8
0
370
    -3
100
AcDbLine
 10
-10.25650388906612
 20
0.7875000000000085
 30
0.0
 11
-9.697789723218449
 21
0.7876781779517046
 31
0.0
  0
SPLINE
  5
FB
330
1F
100
AcDbEntity
  8
0
370
    -3
100
AcDbSpline
210
0.0
220
0.0
230
1.0
 70
     8
 71
     3
 72
    10
 73
     6
 74
     0
 42
0.000000001
 43
0.0000000001
 40
24.70739423280049
 40
24.70739423280049
 40
24.70739423280049
 40
24.70739423280049
 40
25.70739423280049
 40
26.70739423280049
 40
27.70739423280049
 40
27.70739423280049
 40
27.70739423280049
 40
27.70739423280049
 10
-9.697789723218449
 20
0.7876781779517046
 30
0.0
 10
-9.651197008609358
 20
0.858866637765118
 30
0.0
 10
-9.592679366744505
 20
1.019193301044041
 30
0.0
 10
-9.542007315027234
 20
1.268419401688874
 30
0.0
 10
-9.527832601080632
 20
1.43755587703366
 30
0.0
 10
-9.525061497752688
 20
1.522188672097414
 30
0.0
  0
LINE
  5
FC
330
1F
100
AcDbEntity
  8
0
370
    -3
100
AcDbLine
 10
-9.525061497752688
 20
1.522188672097414
 30
0.0
 11
-8.59880609103567
 21
30.5528125840505
 31
0.0
  0
SPLINE
  5
FD
330
1F
100
AcDbEntity
  8
0
370
    -3
100
AcDbSpline
210
0.0
220
0.0
230
1.0
 70
     8
 71
     2
 72
    11
 73
     8
 74
     0
 42
0.000000001
 43
0.0000000001
 40
29.55614871395723
 40
29.55614871395723
 40
29.55614871395723
 40
30.55614871395723
 40
31.55614871395723
 40
32.55614871395723
 40
33.55614871395723
 40
34.55614871395723
 40
35.55614871395723
 40
35.55614871395723
 40
35.55614871395723
 10
-8.59880609103567
 20
30.5528125840505
 30
0.0
 10
-8.594215781138445
 20
30.70182898509294
 30
0.0
 10
-8.545000664327205
 20
30.99598446796078
 30
0.0
 10
-8.450430901801838
 20
31.27915127090667
 30
0.0
 10
-8.29796236122155
 20
31.53683403340027
 30
0.0
 10
-8.070760705138554
 20
31.73536828639591
 30
0.0
 10
-7.776819923813093
 20
31.81199658656971
 30
0.0
 10
-7.62976700340289
 20
31.77175349951341
 30
0.0
  0
SPLINE
  5
FE
330
1F
100
AcDbEntity
  8
0
370
    -3
100
AcDbSpline
210
0.0
220
0.0
230
1.0
 70
    12
 71
     3
 72
     8
 73
     4
 74
     0
 42
0.000000001
 43
0.0000000001
 40
35.55614871395723
 40
35.55614871395723
 40
35.55614871395723
 40
35.55614871395723
 40
36.7912674366561
 40
36.7912674366561
 40
36.7912674366561
 40
36.7912674366561
 10
-7.629767003402925
 20
31.77175349951342
 30
0.0
 41
0.9707016926536343
 10
-7.423553051800685
 20
31.7153364436348
 30
0.0
 41
0.9707016926536343
 10
-7.217364849711826
 20
31.65892627748368
 30
0.0
 41
0.9707016926536343
 10
-7.01117664762294
 20
31.60251611133256
 30
0.0
 41
0.9707016926536343
  0
SPLINE
  5
FF
330
1F
100
AcDbEntity
  8
0
370
    -3
100
AcDbSpline
210
0.0
220
0.0
230
1.0
 70
    12
 71
     3
 72
     8
 73
     4
 74
     0
 42
0.000000001
 43
0.0000000001
 40
7.583888601110734
 40
7.583888601110734
 40
7.583888601110734
 40
7.583888601110734
 40
8.67665716278382
 40
8.67665716278382
 40
8.67665716278382
 40
8.67665716278382
 10
7.228057353607085
 20
31.01481385970894
 30
0.0
 41
1.0
 10
7.410293794237845
 20
31.06467116381569
 30
0.0
 41
1.0
 10
7.592530234868661
 20
31.11452846792247
 30
0.0
 41
1.0
 10
7.77473161004616
 20
31.1645139418836
 30
0.0
 41
1.0
  0
SPLINE
  5
100
330
1F
100
AcDbEntity
  8
0
370
    -3
100
AcDbSpline
210
0.0
220
0.0
230
1.0
 70
     8
 71
     2
 72
     9
 73
     6
 74
     0
 42
0.000000001
 43
0.0000000001
 40
8.67665716278382
 40
8.67665716278382
 40
8.67665716278382
 40
9.6748365519468
 40
10.67544342222581
 40
11.67605029250482
 40
12.67665716278382
 40
12.67665716278382
 40
12.67665716278382
 10
7.77473161004616
 20
31.1645139418836
 30
0.0
 10
7.836096087410311
 20
31.10522423119704
 30
0.0
 10
7.904742463143066
 20
30.94900573858357
 30
0.0
 10
7.94844427234267
 20
30.78544619768111
 30
0.0
 10
7.971414309177931
 20
30.61753000478799
 30
0.0
 10
7.974123880207628
 20
30.5328843975596
 30
0.0
  0
LINE
  5
101
330
1F
100
AcDbEntity
  8
0
370
    -3
100
AcDbLine
 10
7.974123880207628
 20
30.5328843975596
 30
0.0
 11
8.461024483298672
 21
15.2724840747083
 31
0.0
  0
LINE
  5
102
330
1F
100
AcDbEntity
  8
0
370
    -3
100
AcDbLine
 10
8.48096578862507
 20
14.64748525501295
 30
0.0
 11
8.900379360772433
 21
1.502258136432161
 31
0.0
  0
SPLINE
  5
103
330
1F
100
AcDbEntity
  8
0
370
    -3
100
AcDbSpline
210
0.0
220
0.0
230
1.0
 70
     8
 71
     2
 72
    11
 73
     8
 74
     0
 42
0.000000001
 43
0.0000000001
 40
14.52551604839587
 40
14.52551604839587
 40
14.52551604839587
 40
15.52551604839587
 40
16.52551604839587
 40
17.52551604839587
 40
18.52551604839587
 40
19.52551604839587
 40
20.52551604839587
 40
20.52551604839587
 40
20.52551604839587
 10
8.900379360772433
 20
1.502258136432161
 30
0.0
 10
8.904777468441637
 20
1.363368347027247
 30
0.0
 10
8.9394378386923
 20
1.087601419500473
 30
0.0
 10
9.002282245614822
 20
0.8167591909413261
 30
0.0
 10
9.101233179647494
 20
0.5566179929639361
 30
0.0
 10
9.254466661050259
 20
0.3222531083274589
 30
0.0
 10
9.489905470322356
 20
0.1644964156632653
 30
0.0
 10
9.632922063636784
 20
0.1625000493082212
 30
0.0
  0
LINE
  5
104
330
1F
100
AcDbEntity
  8
0
370
    -3
100
AcDbLine
 10
9.632922063636784
 20
0.1625000493082212
 30
0.0
 11
10.25608605378258
 21
0.1625002793382464
 31
0.0
  0
SPLINE
  5
105
330
1F
100
AcDbEntity
  8
0
370
    -3
100
AcDbSpline
210
0.0
220
0.0
230
1.0
 70
     8
 71
     3
 72
    10
 73
     6
 74
     0
 42
0.000000001
 43
0.0000000001
 40
21.1486800385417
 40
21.1486800385417
 40
21.1486800385417
 40
21.1486800385417
 40
22.1486800385417
 40
23.1486800385417
 40
24.1486800385417
 40
24.1486800385417
 40
24.1486800385417
 40
24.1486800385417
 10
10.25608605378258
 20
0.1625002793382464
 30
0.0
 10
10.36560466807384
 20
0.1606533564312258
 30
0.0
 10
10.58073959580912
 20
0.2882026417904342
 30
0.0
 10
10.58098906221693
 20
0.6613636655847159
 30
0.0
 10
10.3660248838375
 20
0.7892004838080453
 30
0.0
 10
10.25650388906612
 20
0.7875000000000085
 30
0.0
  0
LINE
  5
106
330
1F
100
AcDbEntity
  8
0
370
    -3
100
AcDbLine
 10
10.25650388906612
 20
0.7875000000000085
 30
0.0
 11
9.697789723218449
 21
0.7876781779517046
 31
0.0
  0
SPLINE
  5
107
330
1F
100
AcDbEntity
  8
0
370
    -3
100
AcDbSpline
210
0.0
220
0.0
230
1.0
 70
     8
 71
     3
 72
    10
 73
     6
 74
     0
 42
0.000000001
 43
0.0000000001
 40
24.70739423280049
 40
24.70739423280049
 40
24.70739423280049
 40
24.70739423280049
 40
25.70739423280049
 40
26.70739423280049
 40
27.70739423280049
 40
27.70739423280049
 40
27.70739423280049
 40
27.70739423280049
 10
9.697789723218449
 20
0.7876781779517046
 30
0.0
 10
9.651197008609358
 20
0.858866637765118
 30
0.0
 10
9.592679366744505
 20
1.019193301044041
 30
0.0
 10
9.542007315027234
 20
1.268419401688874
 30
0.0
 10
9.527832601080632
 20
1.43755587703366
 30
0.0
 10
9.525061497752688
 20
1.522188672097414
 30
0.0
  0
LINE
  5
108
330
1F
100
AcDbEntity
  8
0
370
    -3
100
AcDbLine
 10
9.525061497752688
 20
1.522188672097414
 30
0.0
 11
8.59880609103567
 21
30.5528125840505
 31
0.0
  0
SPLINE
  5
109
330
1F
100
AcDbEntity
  8
0
370
    -3
100
AcDbSpline
210
0.0
220
0.0
230
1.0
 70
     8
 71
     2
 72
    11
 73
     8
 74
     0
 42
0.000000001
 43
0.0000000001
 40
29.55614871395723
 40
29.55614871395723
 40
29.55614871395723
 40
30.55614871395723
 40
31.55614871395723
 40
32.55614871395723
 40
33.55614871395723
 40
34.55614871395723
 40
35.55614871395723
 40
35.55614871395723
 40
35.55614871395723
 10
8.59880609103567
 20
30.5528125840505
 30
0.0
 10
8.594215781138445
 20
30.70182898509294
 30
0.0
 10
8.545000664327205
 20
30.99598446796078
 30
0.0
 10
8.450430901801838
 20
31.27915127090667
 30
0.0
 10
8.29796236122155
 20
31.53683403340027
 30
0.0
 10
8.070760705138554
 20
31.73536828639591
 30
0.0
 10
7.776819923813093
 20
31.81199658656971
 30
0.0
 10
7.62976700340289
 20
31.77175349951341
 30
0.0
  0
SPLINE
  5
10A
330
1F
100
AcDbEntity
  8
0
370
    -3
100
AcDbSpline
210
0.0
220
0.0
230
1.0
 70
    12
 71
     3
 72
     8
 73
     4
 74
     0
 42
0.000000001
 43
0.0000000001
 40
35.55614871395723
 40
35.55614871395723
 40
35.55614871395723
 40
35.55614871395723
 40
36.7912674366561
 40
36.7912674366561
 40
36.7912674366561
 40
36.7912674366561
 10
7.629767003402837
 20
31.77175349951342
 30
0.0
 41
0.9707016926536343
 10
7.423553051800597
 20
31.7153364436348
 30
0.0
 41
0.9707016926536343
 10
7.217364849711739
 20
31.65892627748368
 30
0.0
 41
0.9707016926536343
 10
7.011176647622852
 20
31.60251611133256
 30
0.0
 41
0.9707016926536343
  0
LINE
  5
10B
330
1F
100
AcDbEntity
  8
0
100
AcDbLine
 10
-8.461024483298672
 20
15.2724840747083
 30
0.0
 11
8.46127404791693
 21
15.27249203735416
 31
0.0
  0
LINE
  5
10C
330
1F
100
AcDbEntity
  8
0
100
AcDbLine
 10
8.46127404791693
 20
15.27249203735416
 30
0.0
 11
8.783660891863008
 21
14.97698974836763
 31
0.0
  0
LINE
  5
10D
330
1F
100
AcDbEntity
  8
0
100
AcDbLine
 10
8.783660891863008
 20
14.97698974836763
 30
0.0
 11
8.481196856736148
 21
14.64749262750647
 31
0.0
  0
LINE
  5
10E
330
1F
100
AcDbEntity
  8
0
100
AcDbLine
 10
8.481196856736148
 20
14.64749262750647
 30
0.0
 11
-8.481196856736148
 21
14.64749262750647
 31
0.0
  0
LINE
  5
10F
330
1F
100
AcDbEntity
  8
0
100
AcDbLine
 10
-8.481196856736148
 20
14.64749262750647
 30
0.0
 11
-8.783660891863008
 21
14.97698974836763
 31
0.0
  0
LINE
  5
110
330
1F
100
AcDbEntity
  8
0
100
AcDbLine
 10
-8.783660891863008
 20
14.97698974836763
 30
0.0
 11
-8.461024483298672
 21
15.2724840747083
 31
0.0
  0
SPLINE
  5
111
330
1F
100
AcDbEntity
  8
0
370
    -3
100
AcDbSpline
210
0.0
220
0.0
230
1.0
 70
     8
 71
     5
 72
    14
 73
     8
 74
     0
 42
0.000000001
 43
0.0000000001
 40
0.494008673394144
 40
0.494008673394144
 40
0.494008673394144
 40
0.494008673394144
 40
0.494008673394144
 40
0.494008673394144
 40
0.6458742737662996
 40
0.7344057059999994
 40
0.7745734792308949
 40
0.7745734792308949
 40
0.7745734792308949
 40
0.7745734792308949
 40
0.7745734792308949
 40
0.7745734792308949
 10
35.69940121679849
 20
31.52824259499799
 30
0.0
 10
35.29988408466636
 20
31.44055811039109
 30
0.0
 10
34.66581588050531
 20
31.29876912656476
 30
0.0
 10
33.9192404609621
 20
31.13115597739773
 30
0.0
 10
33.15788096881238
 20
30.96592079899148
 30
0.0
 10
32.38286997956067
 20
30.81660151938573
 30
0.0
 10
32.02491093582444
 20
30.75285208432516
 30
0.0
 10
31.91296483817928
 20
30.73346358717424
 30
0.0
  0
SPLINE
  5
112
330
1F
100
AcDbEntity
  8
0
370
    -3
100
AcDbSpline
210
0.0
220
0.0
230
1.0
 70
     8
 71
     5
 72
    13
 73
     7
 74
     0
 42
0.000000001
 43
0.0000000001
 40
2.471439808017385
 40
2.471439808017385
 40
2.471439808017385
 40
2.471439808017385
 40
2.471439808017385
 40
2.471439808017385
 40
2.878708620303483
 40
3.211343614209726
 40
3.211343614209726
 40
3.211343614209726
 40
3.211343614209726
 40
3.211343614209726
 40
3.211343614209726
 10
25.56286485503551
 20
31.13845732366966
 30
0.0
 10
25.63330225653777
 20
31.09798225573611
 30
0.0
 10
25.76333585174456
 20
31.02807237313348
 30
0.0
 10
25.89671382730279
 20
30.96459028187168
 30
0.0
 10
26.03272590161674
 20
30.90711712686124
 30
0.0
 10
26.17083688369559
 20
30.85521084922478
 30
0.0
 10
26.23330833240851
 20
30.83296027048527
 30
0.0
  0
SPLINE
  5
113
330
1F
100
AcDbEntity
  8
0
370
    -3
100
AcDbSpline
210
0.0
220
0.0
230
1.0
 70
     8
 71
     3
 72
    13
 73
     9
 74
     0
 42
0.000000001
 43
0.0000000001
 40
0.0
 40
0.0
 40
0.0
 40
0.0
 40
1.0
 40
2.0
 40
3.0
 40
4.0
 40
5.0
 40
6.0
 40
6.0
 40
6.0
 40
6.0
 10
23.38438890292349
 20
37.69738186994513
 30
0.0
 10
23.42182252192086
 20
37.33588845399333
 30
0.0
 10
23.48413232595351
 20
36.61176154319048
 30
0.0
 10
23.57000206801004
 20
35.52480627378779
 30
0.0
 10
23.70143965971397
 20
34.44231608940942
 30
0.0
 10
23.90418667464763
 20
33.36956385114439
 30
0.0
 10
24.29550115139295
 20
32.34315645217504
 30
0.0
 10
24.74965459437831
 20
31.76282067129321
 30
0.0
 10
25.02339723271407
 20
31.52326531868698
 30
0.0
  0
SPLINE
  5
114
330
1F
100
AcDbEntity
  8
0
370
    -3
100
AcDbSpline
210
0.0
220
0.0
230
1.0
 70
     8
 71
     3
 72
    19
 73
    15
 74
     0
 42
0.000000001
 43
0.0000000001
 40
0.0
 40
0.0
 40
0.0
 40
0.0
 40
1.0
 40
2.0
 40
3.0
 40
4.0
 40
5.0
 40
6.0
 40
7.0
 40
8.0
 40
9.0
 40
10.0
 40
11.0
 40
12.0
 40
12.0
 40
12.0
 40
12.0
 10
36.46546753387847
 20
31.49381283589727
 30
0.0
 10
36.21745045596765
 20
31.50672267529347
 30
0.0
 10
35.72079256150644
 20
31.51905709964484
 30
0.0
 10
34.97572612253916
 20
31.5086916783885
 30
0.0
 10
34.23133398385937
 20
31.47588550645764
 30
0.0
 10
33.48811964441617
 20
31.42326261259703
 30
0.0
 10
32.74583429508584
 20
31.35921006542577
 30
0.0
 10
32.00268840515318
 20
31.30573901446033
 30
0.0
 10
31.25878658868456
 20
31.26446581472439
 30
0.0
 10
30.5137992511699
 20
31.24445709304885
 30
0.0
 10
29.76895531956634
 20
31.25858252968172
 30
0.0
 10
29.02325758044103
 20
31.25202830447932
 30
0.0
 10
28.28187627191534
 20
31.18350108763389
 30
0.0
 10
27.79045335252658
 20
31.09094487985645
 30
0.0
 10
27.5416590358804
 20
31.12670328017019
 30
0.0
  0
SPLINE
  5
115
330
1F
100
AcDbEntity
  8
0
370
    -3
100
AcDbSpline
210
0.0
220
0.0
230
1.0
 70
     8
 71
     3
 72
     8
 73
     4
 74
     0
 42
0.000000001
 43
0.0000000001
 40
0.5266866010623173
 40
0.5266866010623173
 40
0.5266866010623173
 40
0.5266866010623173
 40
1.102729082821818
 40
1.102729082821818
 40
1.102729082821818
 40
1.102729082821818
 10
27.36387507383051
 20
30.49333461334385
 30
0.0
 10
27.48288958347078
 20
30.42776287997303
 30
0.0
 10
27.60842286213276
 20
30.37883851388904
 30
0.0
 10
27.73860883966927
 20
30.34852702924825
 30
0.0
  0
SPLINE
  5
116
330
1F
100
AcDbEntity
  8
0
370
    -3
100
AcDbSpline
210
0.0
220
0.0
230
1.0
 70
    12
 71
     3
 72
     8
 73
     4
 74
     0
 42
0.000000001
 43
0.0000000001
 40
1.102729082821818
 40
1.102729082821818
 40
1.102729082821818
 40
1.102729082821818
 40
4.346940304031026
 40
4.346940304031026
 40
4.346940304031026
 40
4.346940304031026
 10
27.73860883966922
 20
30.34852702924825
 30
0.0
 41
0.9105540511506127
 10
28.37511680886835
 20
30.19998173456846
 30
0.0
 41
0.9105540511506127
 10
29.01162478153114
 20
30.05143645473066
 30
0.0
 41
0.9105540511506132
 10
29.64813275419385
 20
29.90289117489287
 30
0.0
 41
0.9105540511506127
  0
SPLINE
  5
117
330
1F
100
AcDbEntity
  8
0
370
    -3
100
AcDbSpline
210
0.0
220
0.0
230
1.0
 70
     8
 71
     2
 72
    10
 73
     7
 74
     0
 42
0.000000001
 43
0.0000000001
 40
4.346940304031026
 40
4.346940304031026
 40
4.346940304031026
 40
5.346940304031026
 40
6.346940304031026
 40
7.346940304031026
 40
8.346940304031026
 40
9.346940304031026
 40
9.346940304031026
 40
9.346940304031026
 10
29.64813275419385
 20
29.90289117489287
 30
0.0
 10
29.64755882557873
 20
29.78269123457412
 30
0.0
 10
29.76696598446941
 20
29.62506925686567
 30
0.0
 10
29.95980451789023
 20
29.56129041885657
 30
0.0
 10
30.15272722369829
 20
29.62413799370711
 30
0.0
 10
30.27175774056585
 20
29.7881427678924
 30
0.0
 10
30.27232950708657
 20
29.88961789866002
 30
0.0
  0
LINE
  5
118
330
1F
100
AcDbEntity
  8
0
370
    -3
100
AcDbLine
 10
30.27232950708657
 20
29.88961789866002
 30
0.0
 11
30.27151617106796
 21
30.12505013113511
 31
0.0
  0
SPLINE
  5
119
330
1F
100
AcDbEntity
  8
0
370
    -3
100
AcDbSpline
210
0.0
220
0.0
230
1.0
 70
     8
 71
     2
 72
    10
 73
     7
 74
     0
 42
0.000000001
 43
0.0000000001
 40
9.582373941397654
 40
9.582373941397654
 40
9.582373941397654
 40
10.58237394139765
 40
11.58237394139765
 40
12.58237394139765
 40
13.58237394139765
 40
14.58237394139765
 40
14.58237394139765
 40
14.58237394139765
 10
30.27151617106796
 20
30.12505013113511
 30
0.0
 10
30.2671542983008
 20
30.1873822354349
 30
0.0
 10
30.21410438386306
 20
30.30037219896036
 30
0.0
 10
30.12627867917098
 20
30.38880237081095
 30
0.0
 10
30.01693628393309
 20
30.44746721075248
 30
0.0
 10
29.89955981337948
 20
30.48646805150972
 30
0.0
 10
29.83902100673595
 20
30.50013710918323
 30
0.0
  0
SPLINE
  5
11A
330
1F
100
AcDbEntity
  8
0
370
    -3
100
AcDbSpline
210
0.0
220
0.0
230
1.0
 70
    12
 71
     3
 72
     8
 73
     4
 74
     0
 42
0.000000001
 43
0.0000000001
 40
14.58237394139765
 40
14.58237394139765
 40
14.58237394139765
 40
14.58237394139765
 40
17.90914285521995
 40
17.90914285521995
 40
17.90914285521995
 40
17.90914285521995
 10
29.83902100673599
 20
30.50013710918323
 30
0.0
 41
0.9105540511506107
 10
29.18604452831285
 20
30.65252556083758
 30
0.0
 41
0.910554051150611
 10
28.53332059544076
 20
30.80485524629258
 30
0.0
 41
0.9105540511506107
 10
27.88054312019976
 20
30.95719741156705
 30
0.0
 41
0.9105540511506107
  0
SPLINE
  5
11B
330
1F
100
AcDbEntity
  8
0
370
    -3
100
AcDbSpline
210
0.0
220
0.0
230
1.0
 70
     8
 71
     3
 72
     8
 73
     4
 74
     0
 42
0.000000001
 43
0.0000000001
 40
17.90914285521995
 40
17.90914285521995
 40
17.90914285521995
 40
17.90914285521995
 40
18.65579743548038
 40
18.65579743548038
 40
18.65579743548038
 40
18.65579743548038
 10
27.88054312019975
 20
30.95719741156705
 30
0.0
 10
27.76559072148518
 20
30.98395728866697
 30
0.0
 10
27.65152797640525
 20
31.03774813793416
 30
0.0
 10
27.54112558737972
 20
31.1219752356393
 30
0.0
  0
SPLINE
  5
11C
330
1F
100
AcDbEntity
  8
0
370
    -3
100
AcDbSpline
210
0.0
220
0.0
230
1.0
 70
     8
 71
     2
 72
     6
 73
     3
 74
     0
 42
0.000000001
 43
0.0000000001
 40
0.0
 40
0.0
 40
0.0
 40
1.0
 40
1.0
 40
1.0
 10
36.47108401206097
 20
31.46421825711573
 30
0.0
 10
33.74509270792439
 20
31.0271891230088
 30
0.0
 10
31.01910140413165
 20
30.59015998675719
 30
0.0
  0
SPLINE
  5
11D
330
1F
100
AcDbEntity
  8
0
370
    -3
100
AcDbSpline
210
0.0
220
0.0
230
1.0
 70
     8
 71
     2
 72
    10
 73
     7
 74
     0
 42
0.000000001
 43
0.0000000001
 40
1.0
 40
1.0
 40
1.0
 40
1.999945861247162
 40
2.999959395935372
 40
3.999972930623581
 40
4.999986465311791
 40
6.0
 40
6.0
 40
6.0
 10
31.01910140413165
 20
30.59015998675719
 30
0.0
 10
30.92387603416739
 20
30.57517671570051
 30
0.0
 10
30.73497941176825
 20
30.53659332631207
 30
0.0
 10
30.54932166170823
 20
30.48374026213287
 30
0.0
 10
30.37787553348733
 20
30.39056865952412
 30
0.0
 10
30.27135241215763
 20
30.22411817524738
 30
0.0
 10
30.27236118327187
 20
30.12490290941274
 30
0.0
  0
LINE
  5
11E
330
1F
100
AcDbEntity
  8
0
370
    -3
100
AcDbLine
 10
30.27236118327187
 20
30.12490290941274
 30
0.0
 11
30.27232950708662
 21
29.9620586009321
 31
0.0
  0
SPLINE
  5
11F
330
1F
100
AcDbEntity
  8
0
370
    -3
100
AcDbSpline
210
0.0
220
0.0
230
1.0
 70
     8
 71
     2
 72
    10
 73
     7
 74
     0
 42
0.000000001
 43
0.0000000001
 40
6.162844311561436
 40
6.162844311561436
 40
6.162844311561436
 40
7.162844311561436
 40
8.162844311561436
 40
9.162844311561436
 40
10.16284431156144
 40
11.16284431156144
 40
11.16284431156144
 40
11.16284431156144
 10
30.27232950708662
 20
29.9620586009321
 30
0.0
 10
30.27282989683903
 20
29.86413047250448
 30
0.0
 10
30.3844218106733
 20
29.70347613009928
 30
0.0
 10
30.56793915350619
 20
29.63535791756385
 30
0.0
 10
30.7574588192351
 20
29.68418303846337
 30
0.0
 10
30.88525780022681
 20
29.83246173978024
 30
0.0
 10
30.89519108781067
 20
29.9298354409455
 30
0.0
  0
SPLINE
  5
120
330
1F
100
AcDbEntity
  8
0
370
    -3
100
AcDbSpline
210
0.0
220
0.0
230
1.0
 70
     8
 71
     2
 72
     6
 73
     3
 74
     0
 42
0.000000001
 43
0.0000000001
 40
11.16284431156144
 40
11.16284431156144
 40
11.16284431156144
 40
12.16284431156144
 40
12.16284431156144
 40
12.16284431156144
 10
30.89519108781067
 20
29.9298354409455
 30
0.0
 10
33.75391948888392
 20
30.39936237811972
 30
0.0
 10
36.61531275091062
 20
30.85435990479115
 30
0.0
  0
SPLINE
  5
121
330
1F
100
AcDbEntity
  8
0
370
    -3
100
AcDbSpline
210
0.0
220
0.0
230
1.0
 70
     8
 71
     3
 72
    11
 73
     7
 74
     0
 42
0.000000001
 43
0.0000000001
 40
-4.0
 40
-4.0
 40
-4.0
 40
-4.0
 40
-3.0
 40
-2.0
 40
-1.0
 40
0.0
 40
0.0
 40
0.0
 40
0.0
 10
26.46237242462178
 20
31.24337931425823
 30
0.0
 10
26.48204966374783
 20
31.19156080897525
 30
0.0
 10
26.58518096558839
 20
31.14361637861668
 30
0.0
 10
26.74315406134662
 20
31.16406543226394
 30
0.0
 10
26.88768091470894
 20
31.23356749150632
 30
0.0
 10
26.95167142717736
 20
31.3433485633854
 30
0.0
 10
26.96229671326395
 20
31.39481608513572
 30
0.0
  0
SPLINE
  5
122
330
1F
100
AcDbEntity
  8
0
370
    -3
100
AcDbSpline
210
0.0
220
0.0
230
1.0
 70
     8
 71
     3
 72
    11
 73
     7
 74
     0
 42
0.000000001
 43
0.0000000001
 40
-4.0
 40
-4.0
 40
-4.0
 40
-4.0
 40
-3.0
 40
-2.0
 40
-1.0
 40
0.0
 40
0.0
 40
0.0
 40
0.0
 10
26.96229671326395
 20
31.39481608513572
 30
0.0
 10
26.97050393870856
 20
31.43457083156207
 30
0.0
 10
26.96908153951495
 20
31.53499682587653
 30
0.0
 10
26.92612901462243
 20
31.64965857502352
 30
0.0
 10
26.85735472196961
 20
31.75068966369662
 30
0.0
 10
26.793501477635
 20
31.8026615001061
 30
0.0
 10
26.75606146225942
 20
31.81858079041898
 30
0.0
  0
LINE
  5
123
330
1F
100
AcDbEntity
  8
0
370
    -3
100
AcDbLine
 10
27.6227447282298
 20
31.57910816219434
 30
0.0
 11
27.51710413966072
 21
30.98970295586278
 31
0.0
  0
LINE
  5
124
330
1F
100
AcDbEntity
  8
0
370
    -3
100
AcDbLine
 10
27.51710413966072
 20
30.98970295586278
 30
0.0
 11
27.39787374451421
 21
30.57780241007669
 31
0.0
  0
SPLINE
  5
125
330
1F
100
AcDbEntity
  8
0
370
    -3
100
AcDbSpline
210
0.0
220
0.0
230
1.0
 70
     8
 71
     3
 72
    11
 73
     7
 74
     0
 42
0.000000001
 43
0.0000000001
 40
1.094349853670264
 40
1.094349853670264
 40
1.094349853670264
 40
1.094349853670264
 40
2.094349853670264
 40
3.094349853670264
 40
4.094349853670264
 40
5.094349853670264
 40
5.094349853670264
 40
5.094349853670264
 40
5.094349853670264
 10
27.39787374451421
 20
30.57780241007669
 30
0.0
 10
27.3786530130925
 20
30.51060882484126
 30
0.0
 10
27.30860842177907
 20
30.38680373440363
 30
0.0
 10
27.13173472140005
 20
30.26608434165578
 30
0.0
 10
26.92034615285826
 20
30.23993206495177
 30
0.0
 10
26.76169981731363
 20
30.27883513857974
 30
0.0
 10
26.69445997278163
 20
30.29490645824217
 30
0.0
  0
SPLINE
  5
126
330
1F
100
AcDbEntity
  8
0
370
    -3
100
AcDbSpline
210
0.0
220
0.0
230
1.0
 70
     8
 71
     3
 72
    11
 73
     7
 74
     0
 42
0.000000001
 43
0.0000000001
 40
5.094349853670264
 40
5.094349853670264
 40
5.094349853670264
 40
5.094349853670264
 40
6.094349853670264
 40
7.094349853670263
 40
8.094349853670263
 40
9.094349853670263
 40
9.094349853670263
 40
9.094349853670263
 40
9.094349853670263
 10
26.69445997278163
 20
30.29490645824217
 30
0.0
 10
26.63250361398704
 20
30.30971494648657
 30
0.0
 10
26.48465682929924
 20
30.34839871183019
 30
0.0
 10
26.32787962550387
 20
30.46646122175
 30
0.0
 10
26.23427558563333
 20
30.6390194174368
 30
0.0
 10
26.22469409342213
 20
30.76948033195886
 30
0.0
 10
26.2337228771068
 20
30.83281264278121
 30
0.0
  0
SPLINE
  5
127
330
1F
100
AcDbEntity
  8
0
370
    -3
100
AcDbSpline
210
0.0
220
0.0
230
1.0
 70
     8
 71
     3
 72
     8
 73
     4
 74
     0
 42
0.000000001
 43
0.0000000001
 40
9.094349853670263
 40
9.094349853670263
 40
9.094349853670263
 40
9.094349853670263
 40
9.616149003808129
 40
9.616149003808129
 40
9.616149003808129
 40
9.616149003808129
 10
26.2337228771068
 20
30.83281264278121
 30
0.0
 10
26.26996806940869
 20
31.03550832205451
 30
0.0
 10
26.29701820695308
 20
31.18613888731301
 30
0.0
 10
26.32866588679849
 20
31.36280235817556
 30
0.0
  0
SPLINE
  5
128
330
1F
100
AcDbEntity
  8
0
370
    -3
100
AcDbSpline
210
0.0
220
0.0
230
1.0
 70
     8
 71
     3
 72
    10
 73
     6
 74
     0
 42
0.000000001
 43
0.0000000001
 40
0.0
 40
0.0
 40
0.0
 40
0.0
 40
1.0
 40
2.0
 40
3.0
 40
3.0
 40
3.0
 40
3.0
 10
27.51502461741421
 20
30.99568351139028
 30
0.0
 10
27.50245850893779
 20
31.06956939697233
 30
0.0
 10
27.39304803867083
 20
31.17432279019869
 30
0.0
 10
27.21393920670982
 20
31.29536119720227
 30
0.0
 10
27.08364226507925
 20
31.36163195175712
 30
0.0
 10
27.01761864983411
 20
31.39165692993006
 30
0.0
  0
SPLINE
  5
129
330
1F
100
AcDbEntity
  8
0
370
    -3
100
AcDbSpline
210
0.0
220
0.0
230
1.0
 70
     8
 71
     3
 72
    10
 73
     6
 74
     0
 42
0.000000001
 43
0.0000000001
 40
0.0
 40
0.0
 40
0.0
 40
0.0
 40
1.0
 40
2.0
 40
3.0
 40
3.0
 40
3.0
 40
3.0
 10
37.7243797802268
 20
31.03216480201279
 30
0.0
 10
37.68232284066477
 20
30.99745953468205
 30
0.0
 10
37.57851017384459
 20
31.0409079940235
 30
0.0
 10
37.4548001516406
 20
31.12060665573392
 30
0.0
 10
37.38995246951765
 20
31.20206213987562
 30
0.0
 10
37.37071582427376
 20
31.24858927891731
 30
0.0
  0
SPLINE
  5
12A
330
1F
100
AcDbEntity
  8
0
370
    -3
100
AcDbSpline
210
0.0
220
0.0
230
1.0
 70
     8
 71
     3
 72
     8
 73
     4
 74
     0
 42
0.000000001
 43
0.0000000001
 40
3.0
 40
3.0
 40
3.0
 40
3.0
 40
4.0
 40
4.0
 40
4.0
 40
4.0
 10
37.37071582427376
 20
31.24858927891731
 30
0.0
 10
37.33842981631054
 20
31.32667854877494
 30
0.0
 10
37.34083752401719
 20
31.43075606969842
 30
0.0
 10
37.37880925864457
 20
31.50566692352982
 30
0.0
  0
SPLINE
  5
12B
330
1F
100
AcDbEntity
  8
0
370
    -3
100
AcDbSpline
210
0.0
220
0.0
230
1.0
 70
     8
 71
     3
 72
    10
 73
     6
 74
     0
 42
0.000000001
 43
0.0000000001
 40
4.0
 40
4.0
 40
4.0
 40
4.0
 40
5.0
 40
6.0
 40
7.0
 40
7.0
 40
7.0
 40
7.0
 10
37.37880925864457
 20
31.50566692352982
 30
0.0
 10
37.39148520956607
 20
31.53067411153351
 30
0.0
 10
37.42309970799818
 20
31.57738227589839
 30
0.0
 10
37.48367300886252
 20
31.63612136434229
 30
0.0
 10
37.54143997471095
 20
31.65458897610452
 30
0.0
 10
37.56754205035116
 20
31.64007006763674
 30
0.0
  0
SPLINE
  5
12C
330
1F
100
AcDbEntity
  8
0
370
    -3
100
AcDbSpline
210
0.0
220
0.0
230
1.0
 70
     8
 71
     3
 72
    10
 73
     6
 74
     0
 42
0.000000001
 43
0.0000000001
 40
0.0
 40
0.0
 40
0.0
 40
0.0
 40
1.0
 40
2.0
 40
3.0
 40
3.0
 40
3.0
 40
3.0
 10
37.32476474713675
 20
31.31801957217242
 30
0.0
 10
37.23747395133375
 20
31.30944808754582
 30
0.0
 10
37.06301456304766
 20
31.28997892347024
 30
0.0
 10
36.80287047406443
 20
31.2515052198449
 30
0.0
 10
36.62943240409044
 20
31.22172101971964
 30
0.0
 10
36.54658231779911
 20
31.19260373923953
 30
0.0
  0
ARC
  5
12D
330
1F
100
AcDbEntity
  8
0
100
AcDbCircle
 10
26.74194937654622
 20
30.4961993923404
 30
0.0
 40
1.395883897526574
100
AcDbArc
 50
50.87645155910602
 51
92.71754040389045
  0
LINE
  5
12E
330
1F
100
AcDbEntity
  8
0
370
    -3
100
AcDbLine
 10
37.67496740290886
 20
31.65722405103357
 30
0.0
 11
37.64057524573855
 21
31.77376837271471
 31
0.0
  0
LINE
  5
12F
330
1F
100
AcDbEntity
  8
0
370
    -3
100
AcDbLine
 10
37.64057524573855
 20
31.77376837271471
 30
0.0
 11
37.56851413000925
 21
31.7868862672476
 31
0.0
  0
SPLINE
  5
130
330
1F
100
AcDbEntity
  8
0
370
    -3
100
AcDbSpline
210
0.0
220
0.0
230
1.0
 70
     8
 71
     3
 72
    13
 73
     9
 74
     0
 42
0.000000001
 43
0.0000000001
 40
0.4992135494437177
 40
0.4992135494437177
 40
0.4992135494437177
 40
0.4992135494437177
 40
1.499213549443718
 40
2.499213549443718
 40
3.499213549443718
 40
4.499213549443717
 40
5.499213549443717
 40
6.499213549443717
 40
6.499213549443717
 40
6.499213549443717
 40
6.499213549443717
 10
37.56851413000925
 20
31.7868862672476
 30
0.0
 10
37.50491779850702
 20
31.7984632454956
 30
0.0
 10
37.37567671947534
 20
31.80509737067634
 30
0.0
 10
37.1819890306644
 20
31.79881335612372
 30
0.0
 10
36.98932084757826
 20
31.78087143496795
 30
0.0
 10
36.79657337016295
 20
31.75383342674675
 30
0.0
 10
36.61090837729682
 20
31.70986920807439
 30
0.0
 10
36.47912277667677
 20
31.67471307613881
 30
0.0
 10
36.44332254756941
 20
31.62046927063528
 30
0.0
  0
LINE
  5
131
330
1F
100
AcDbEntity
  8
0
370
    -3
100
AcDbLine
 10
36.44332254756941
 20
31.62046927063528
 30
0.0
 11
36.52085702779141
 21
31.18418991716916
 31
0.0
  0
LINE
  5
132
330
1F
100
AcDbEntity
  8
0
370
    -3
100
AcDbLine
 10
36.52085702779141
 20
31.18418991716916
 30
0.0
 11
36.68595842659494
 21
30.60887506100059
 31
0.0
  0
SPLINE
  5
133
330
1F
100
AcDbEntity
  8
0
370
    -3
100
AcDbSpline
210
0.0
220
0.0
230
1.0
 70
     8
 71
     3
 72
    14
 73
    10
 74
     0
 42
0.000000001
 43
0.0000000001
 40
7.540865224075112
 40
7.540865224075112
 40
7.540865224075112
 40
7.540865224075112
 40
8.540865224075112
 40
9.540865224075112
 40
10.54086522407511
 40
11.54086522407511
 40
12.54086522407511
 40
13.54086522407511
 40
14.54086522407511
 40
14.54086522407511
 40
14.54086522407511
 40
14.54086522407511
 10
36.68595842659494
 20
30.60887506100059
 30
0.0
 10
36.7078289909532
 20
30.53252173179827
 30
0.0
 10
36.79272403723377
 20
30.39297273356266
 30
0.0
 10
37.00979080915704
 20
30.27239156885935
 30
0.0
 10
37.25187150837525
 20
30.28725923668028
 30
0.0
 10
37.48270053340354
 20
30.34082550693613
 30
0.0
 10
37.70649243719981
 20
30.43427611803482
 30
0.0
 10
37.84825476037651
 20
30.63811629312792
 30
0.0
 10
37.86297870195284
 20
30.80080611458017
 30
0.0
 10
37.84877813119263
 20
30.8789768279407
 30
0.0
  0
SPLINE
  5
134
330
1F
100
AcDbEntity
  8
0
370
    -3
100
AcDbSpline
210
0.0
220
0.0
230
1.0
 70
     8
 71
     3
 72
     8
 73
     4
 74
     0
 42
0.000000001
 43
0.0000000001
 40
14.54086522407511
 40
14.54086522407511
 40
14.54086522407511
 40
14.54086522407511
 40
14.7123571053979
 40
14.7123571053979
 40
14.7123571053979
 40
14.7123571053979
 10
37.84877813119263
 20
30.8789768279407
 30
0.0
 10
37.83862333102167
 20
30.93508043015569
 30
0.0
 10
37.82866485561192
 20
30.99119059729853
 30
0.0
 10
37.81870638020473
 20
31.04730076448233
 30
0.0
  0
SPLINE
  5
135
330
1F
100
AcDbEntity
  8
0
370
    -3
100
AcDbSpline
210
0.0
220
0.0
230
1.0
 70
    12
 71
     3
 72
     8
 73
     4
 74
     0
 42
0.000000001
 43
0.0000000001
 40
1.152166011579844
 40
1.152166011579844
 40
1.152166011579844
 40
1.152166011579844
 40
2.12573434321113
 40
2.12573434321113
 40
2.12573434321113
 40
2.12573434321113
 10
26.89183406869917
 20
31.69748251625389
 30
0.0
 41
0.8565370630951956
 10
26.72852703082183
 20
31.84337874368129
 30
0.0
 41
0.8565370630951956
 10
26.56521999294455
 20
31.98927497110869
 30
0.0
 41
0.8565370630951956
 10
26.40168995357364
 20
32.13537059205275
 30
0.0
 41
0.8565370630951958
  0
SPLINE
  5
136
330
1F
100
AcDbEntity
  8
0
370
    -3
100
AcDbSpline
210
0.0
220
0.0
230
1.0
 70
     8
 71
     3
 72
    14
 73
    10
 74
     0
 42
0.000000001
 43
0.0000000001
 40
2.12573434321113
 40
2.12573434321113
 40
2.12573434321113
 40
2.12573434321113
 40
3.12573434321113
 40
4.12573434321113
 40
5.12573434321113
 40
6.12573434321113
 40
7.12573434321113
 40
8.12573434321113
 40
9.12573434321113
 40
9.12573434321113
 40
9.12573434321113
 40
9.12573434321113
 10
26.40168995357362
 20
32.13537059205275
 30
0.0
 10
26.32446486746451
 20
32.2046846590589
 30
0.0
 10
26.14180348105518
 20
32.31308672733567
 30
0.0
 10
25.82361583744947
 20
32.33842115808937
 30
0.0
 10
25.52734934343056
 20
32.22429685137794
 30
0.0
 10
25.29107112891836
 20
32.01701115729634
 30
0.0
 10
25.11633541521002
 20
31.75756821590396
 30
0.0
 10
24.99594119014827
 20
31.46963813711895
 30
0.0
 10
24.94873040245176
 20
31.26714449810225
 30
0.0
 10
24.93319984628312
 20
31.16439563102045
 30
0.0
  0
LINE
  5
137
330
1F
100
AcDbEntity
  8
0
370
    -3
100
AcDbLine
 10
24.93319984628312
 20
31.16439563102045
 30
0.0
 11
20.45555170970292
 21
1.671525551008259
 31
0.0
  0
SPLINE
  5
138
330
1F
100
AcDbEntity
  8
0
370
    -3
100
AcDbSpline
210
0.0
220
0.0
230
1.0
 70
     8
 71
     3
 72
    11
 73
     7
 74
     0
 42
0.000000001
 43
0.0000000001
 40
10.93762029168726
 40
10.93762029168726
 40
10.93762029168726
 40
10.93762029168726
 40
11.93762029168726
 40
12.93762029168726
 40
13.93762029168726
 40
14.93762029168726
 40
14.93762029168726
 40
14.93762029168726
 40
14.93762029168726
 10
20.45555170970292
 20
1.671525551008259
 30
0.0
 10
20.427125700874
 20
1.485424004355266
 30
0.0
 10
20.45227572164802
 20
1.100961734451772
 30
0.0
 10
20.72677462103232
 20
0.5923175785875827
 30
0.0
 10
21.18861412801388
 20
0.2448103846185887
 30
0.0
 10
21.56494732246705
 20
0.162314324424699
 30
0.0
 10
21.75320703642271
 20
0.1624999999999943
 30
0.0
  0
LINE
  5
139
330
1F
100
AcDbEntity
  8
0
370
    -3
100
AcDbLine
 10
37.64640492844291
 20
31.01966392496452
 30
0.0
 11
38.53349495757089
 21
31.16188163497107
 31
0.0
  0
SPLINE
  5
13A
330
1F
100
AcDbEntity
  8
0
370
    -3
100
AcDbSpline
210
0.0
220
0.0
230
1.0
 70
     8
 71
     3
 72
    10
 73
     6
 74
     0
 42
0.000000001
 43
0.0000000001
 40
0.0000000000000002
 40
0.0000000000000002
 40
0.0000000000000002
 40
0.0000000000000002
 40
1.0
 40
2.0
 40
3.0
 40
3.0
 40
3.0
 40
3.0
 10
38.53349495757089
 20
31.16188163497107
 30
0.0
 10
38.64350922052392
 20
31.18080504074223
 30
0.0
 10
38.87102477847549
 20
31.12162782130555
 30
0.0
 10
39.08986926604112
 20
30.85585627865666
 30
0.0
 10
39.1449400884448
 20
30.63715793948603
 30
0.0
 10
39.15120719758869
 20
30.52628483451011
 30
0.0
  0
SPLINE
  5
13B
330
1F
100
AcDbEntity
  8
0
370
    -3
100
AcDbSpline
210
0.0
220
0.0
230
1.0
 70
     8
 71
     3
 72
     8
 73
     4
 74
     0
 42
0.000000001
 43
0.0000000001
 40
3.0
 40
3.0
 40
3.0
 40
3.0
 40
3.000092559373677
 40
3.000092559373677
 40
3.000092559373677
 40
3.000092559373677
 10
39.15120719758869
 20
30.52628483451011
 30
0.0
 10
39.15122696325903
 20
30.52592005079666
 30
0.0
 10
39.15122860468662
 20
30.52588951498059
 30
0.0
 10
39.15123025080652
 20
30.52585886075998
 30
0.0
  0
LINE
  5
13C
330
1F
100
AcDbEntity
  8
0
370
    -3
100
AcDbLine
 10
39.15123025080652
 20
30.52585886075998
 30
0.0
 11
40.73189415991499
 21
1.495232895062784
 31
0.0
  0
SPLINE
  5
13D
330
1F
100
AcDbEntity
  8
0
370
    -3
100
AcDbSpline
210
0.0
220
0.0
230
1.0
 70
     8
 71
     3
 72
    11
 73
     7
 74
     0
 42
0.000000001
 43
0.0000000001
 40
4.848847190433819
 40
4.848847190433819
 40
4.848847190433819
 40
4.848847190433819
 40
5.848847190433819
 40
6.848847190433819
 40
7.848847190433819
 40
8.848847190433819
 40
8.848847190433819
 40
8.848847190433819
 40
8.848847190433819
 10
40.73189415991499
 20
1.495232895062784
 30
0.0
 10
40.73659838565095
 20
1.409107946966031
 30
0.0
 10
40.71675892908576
 20
1.235139974271235
 30
0.0
 10
40.59771928066456
 20
1.000176834726233
 30
0.0
 10
40.394938996333
 20
0.8296631279879421
 30
0.0
 10
40.22266759767936
 20
0.787295673707618
 30
0.0
 10
40.13636800152142
 20
0.7874999835923404
 30
0.0
  0
LINE
  5
13E
330
1F
100
AcDbEntity
  8
0
370
    -3
100
AcDbLine
 10
40.13636800152142
 20
0.7874999835923404
 30
0.0
 11
21.75320703642271
 21
0.7875000000000085
 31
0.0
  0
SPLINE
  5
13F
330
1F
100
AcDbEntity
  8
0
370
    -3
100
AcDbSpline
210
0.0
220
0.0
230
1.0
 70
     8
 71
     3
 72
    11
 73
     7
 74
     0
 42
0.000000001
 43
0.0000000001
 40
27.23200815553252
 40
27.23200815553252
 40
27.23200815553252
 40
27.23200815553252
 40
28.23200815553252
 40
29.23200815553252
 40
30.23200815553252
 40
31.23200815553252
 40
31.23200815553252
 40
31.23200815553252
 40
31.23200815553252
 10
21.75320703642271
 20
0.7875000000000085
 30
0.0
 10
21.65461105773031
 20
0.7874031434003257
 30
0.0
 10
21.45751560660756
 20
0.8305878206606394
 30
0.0
 10
21.21559962652358
 20
1.012529536753078
 30
0.0
 10
21.07177948319321
 20
1.278890003008129
 30
0.0
 10
21.05859118264857
 20
1.480244406842417
 30
0.0
 10
21.07347072343197
 20
1.577711413786332
 30
0.0
  0
LINE
  5
140
330
1F
100
AcDbEntity
  8
0
370
    -3
100
AcDbLine
 10
21.07347072343197
 20
1.577711413786332
 30
0.0
 11
25.55116295384292
 21
31.07087192441901
 31
0.0
  0
SPLINE
  5
141
330
1F
100
AcDbEntity
  8
0
370
    -3
100
AcDbSpline
210
0.0
220
0.0
230
1.0
 70
     8
 71
     3
 72
    14
 73
    10
 74
     0
 42
0.000000001
 43
0.0000000001
 40
33.04387966808645
 40
33.04387966808645
 40
33.04387966808645
 40
33.04387966808645
 40
34.04387966808645
 40
35.04387966808645
 40
36.04387966808645
 40
37.04387966808645
 40
38.04387966808645
 40
39.04387966808645
 40
40.04387966808645
 40
40.04387966808645
 40
40.04387966808645
 40
40.04387966808645
 10
25.55116295384292
 20
31.07087192441901
 30
0.0
 10
25.55708458785924
 20
31.11007177978871
 30
0.0
 10
25.57257498107742
 20
31.18791037885686
 30
0.0
 10
25.60626568005168
 20
31.30211031781593
 30
0.0
 10
25.65076097915261
 20
31.41253114506308
 30
0.0
 10
25.70825698893492
 20
31.51714864455916
 30
0.0
 10
25.78085117269794
 20
31.61112351938293
 30
0.0
 10
25.86909616977422
 20
31.6942967024673
 30
0.0
 10
25.95640039851889
 20
31.70383016827441
 30
0.0
 10
25.98493616379358
 20
31.66960083691311
 30
0.0
  0
SPLINE
  5
142
330
1F
100
AcDbEntity
  8
0
370
    -3
100
AcDbSpline
210
0.0
220
0.0
230
1.0
 70
    12
 71
     3
 72
     8
 73
     4
 74
     0
 42
0.000000001
 43
0.0000000001
 40
40.04387966808645
 40
40.04387966808645
 40
40.04387966808645
 40
40.04387966808645
 40
41.15858793554034
 40
41.15858793554034
 40
41.15858793554034
 40
41.15858793554034
 10
25.98493616379355
 20
31.66960083691312
 30
0.0
 41
0.8565370630951963
 10
26.17204049269772
 20
31.50244422945248
 30
0.0
 41
0.8565370630951961
 10
26.35902244285034
 20
31.33539716596474
 30
0.0
 41
0.8565370630951961
 10
26.54600439300299
 20
31.16835010247701
 30
0.0
 41
0.8565370630951961
  0
LINE
  5
143
330
1F
100
AcDbEntity
  8
0
100
AcDbLine
 10
21.75320703642276
 20
0.0
 30
0.0
 11
23.73820703642278
 21
0.0
 31
0.0
  0
LINE
  5
144
330
1F
100
AcDbEntity
  8
0
100
AcDbLine
 10
23.73820703642278
 20
0.0
 30
0.0
 11
23.73820703642278
 21
0.664999999999992
 31
0.0
  0
LINE
  5
145
330
1F
100
AcDbEntity
  8
0
100
AcDbLine
 10
23.73820703642278
 20
0.664999999999992
 30
0.0
 11
21.75320703642276
 21
0.664999999999992
 31
0.0
  0
LINE
  5
146
330
1F
100
AcDbEntity
  8
0
100
AcDbLine
 10
21.75320703642276
 20
0.664999999999992
 30
0.0
 11
21.75320703642276
 21
0.0
 31
0.0
  0
LINE
  5
147
330
1F
100
AcDbEntity
  8
0
100
AcDbLine
 10
36.41124970699377
 20
0.0
 30
0.0
 11
38.39624970699379
 21
0.0
 31
0.0
  0
LINE
  5
148
330
1F
100
AcDbEntity
  8
0
100
AcDbLine
 10
38.39624970699379
 20
0.0
 30
0.0
 11
38.39624970699379
 21
0.664999999999992
 31
0.0
  0
LINE
  5
149
330
1F
100
AcDbEntity
  8
0
100
AcDbLine
 10
38.39624970699379
 20
0.664999999999992
 30
0.0
 11
36.41124970699377
 21
0.664999999999992
 31
0.0
  0
LINE
  5
14A
330
1F
100
AcDbEntity
  8
0
100
AcDbLine
 10
36.41124970699377
 20
0.664999999999992
 30
0.0
 11
36.41124970699377
 21
0.0
 31
0.0
  0
LINE
  5
14B
330
1F
100
AcDbEntity
  8
0
370
    -3
100
AcDbLine
 10
38.39624970699379
 20
0.1625002793381469
 30
0.0
 11
40.13623324933616
 21
0.1625001478729189
 31
0.0
  0
SPLINE
  5
14C
330
1F
100
AcDbEntity
  8
0
370
    -3
100
AcDbSpline
210
0.0
220
0.0
230
1.0
 70
     8
 71
     3
 72
    11
 73
     7
 74
     0
 42
0.000000001
 43
0.0000000001
 40
-0.4951712032936558
 40
-0.4951712032936558
 40
-0.4951712032936558
 40
-0.4951712032936558
 40
0.5048287967063442
 40
1.504828796706344
 40
2.504828796706344
 40
3.504828796706344
 40
3.504828796706344
 40
3.504828796706344
 40
3.504828796706344
 10
40.13623324933616
 20
0.1625001478729189
 30
0.0
 10
40.30722991876848
 20
0.1622472085593216
 30
0.0
 10
40.64886635973343
 20
0.2388772739813163
 30
0.0
 10
41.06538024694186
 20
0.5573483908713825
 30
0.0
 10
41.32043929710127
 20
1.013665760917547
 30
0.0
 10
41.36534657226352
 20
1.358570114546922
 30
0.0
 10
41.35596976522569
 20
1.529212871363626
 30
0.0
  0
LINE
  5
14D
330
1F
100
AcDbEntity
  8
0
370
    -3
100
AcDbLine
 10
41.35596976522569
 20
1.529212871363626
 30
0.0
 11
39.77530589507825
 21
30.55983812085012
 31
0.0
  0
SPLINE
  5
14E
330
1F
100
AcDbEntity
  8
0
370
    -3
100
AcDbSpline
210
0.0
220
0.0
230
1.0
 70
     8
 71
     3
 72
    10
 73
     6
 74
     0
 42
0.000000001
 43
0.0000000001
 40
5.353583409995687
 40
5.353583409995687
 40
5.353583409995687
 40
5.353583409995687
 40
6.353583251049955
 40
7.35358333052282
 40
8.353583409995686
 40
8.353583409995686
 40
8.353583409995686
 40
8.353583409995686
 10
39.77530589507825
 20
30.55983812085012
 30
0.0
 10
39.76293447458193
 20
30.78647987933824
 30
0.0
 10
39.63302529480063
 20
31.23549701253896
 30
0.0
 10
39.12946512801363
 20
31.73375383731511
 30
0.0
 10
38.65891793659017
 20
31.81631903924021
 30
0.0
 10
38.43449603148028
 20
31.77899119465681
 30
0.0
  0
LINE
  5
14F
330
1F
100
AcDbEntity
  8
0
370
    -3
100
AcDbLine
 10
38.43449603148028
 20
31.77899119465681
 30
0.0
 11
37.48031344148396
 21
31.62601725588242
 31
0.0
  0
SPLINE
  5
150
330
1F
100
AcDbEntity
  8
0
370
    -3
100
AcDbSpline
210
0.0
220
0.0
230
1.0
 70
     8
 71
     3
 72
    10
 73
     6
 74
     0
 42
0.000000001
 43
0.0000000001
 40
0.0
 40
0.0
 40
0.0
 40
0.0
 40
1.0
 40
2.0
 40
3.0
 40
3.0
 40
3.0
 40
3.0
 10
-8.235339254044078
 20
74.74432116367672
 30
0.0
 10
-8.455853725526623
 20
74.6555361038766
 30
0.0
 10
-8.80445605259709
 20
74.31122673465298
 30
0.0
 10
-9.012518527443547
 20
73.6256248151661
 30
0.0
 10
-9.11522658194312
 20
73.16946812833223
 30
0.0
 10
-9.15803882322669
 20
72.9377176256997
 30
0.0
  0
SPLINE
  5
151
330
1F
100
AcDbEntity
  8
0
370
    -3
100
AcDbSpline
210
0.0
220
0.0
230
1.0
 70
     8
 71
     3
 72
    11
 73
     7
 74
     0
 42
0.000000001
 43
0.0000000001
 40
3.0
 40
3.0
 40
3.0
 40
3.0
 40
4.0
 40
5.0
 40
6.0
 40
7.0
 40
7.0
 40
7.0
 40
7.0
 10
-9.15803882322669
 20
72.9377176256997
 30
0.0
 10
-9.300838795767532
 20
72.15824260514927
 30
0.0
 10
-9.495569088307548
 20
70.58537611652027
 30
0.0
 10
-9.729622530532936
 20
68.21998387231795
 30
0.0
 10
-9.920125031317696
 20
65.85232501454287
 30
0.0
 10
-10.07908369597305
 20
64.27237895678235
 30
0.0
 10
-10.03788674520732
 20
63.48029669433639
 30
0.0
  0
SPLINE
  5
152
330
1F
100
AcDbEntity
  8
0
370
    -3
100
AcDbSpline
210
0.0
220
0.0
230
1.0
 70
     8
 71
     3
 72
    16
 73
    12
 74
     0
 42
0.000000001
 43
0.0000000001
 40
7.0
 40
7.0
 40
7.0
 40
7.0
 40
8.0
 40
9.0
 40
10.0
 40
11.0
 40
12.0
 40
13.0
 40
14.0
 40
15.0
 40
16.0
 40
16.0
 40
16.0
 40
16.0
 10
-10.03788674520732
 20
63.48029669433639
 30
0.0
 10
-10.0328321653916
 20
63.38378951632359
 30
0.0
 10
-9.881611928728347
 20
63.25558198038198
 30
0.0
 10
-9.606054394802243
 20
63.24863241041692
 30
0.0
 10
-9.337894719428334
 20
63.26106635540238
 30
0.0
 10
-9.072530991302443
 20
63.31627724839931
 30
0.0
 10
-8.820154076747372
 20
63.41306768045696
 30
0.0
 10
-8.590853857279086
 20
63.55977299628149
 30
0.0
 10
-8.417272579564724
 20
63.77025451794476
 30
0.0
 10
-8.311760656472444
 20
64.0204055349797
 30
0.0
 10
-8.266156703994938
 20
64.1943437426766
 30
0.0
 10
-8.248075528208943
 20
64.2824165311479
 30
0.0
  0
SPLINE
  5
153
330
1F
100
AcDbEntity
  8
0
370
    -3
100
AcDbSpline
210
0.0
220
0.0
230
1.0
 70
     8
 71
     3
 72
     8
 73
     4
 74
     0
 42
0.000000001
 43
0.0000000001
 40
-1.0
 40
-1.0
 40
-1.0
 40
-1.0
 40
0.0
 40
0.0
 40
0.0
 40
0.0
 10
-8.248668445352592
 20
61.7171740701511
 30
0.0
 10
-8.81380495232085
 20
61.8014020310276
 30
0.0
 10
-9.378576386320503
 20
61.89709497397156
 30
0.0
 10
-9.930319500603872
 20
62.04792294970807
 30
0.0
  0
SPLINE
  5
154
330
1F
100
AcDbEntity
  8
0
370
    -3
100
AcDbSpline
210
0.0
220
0.0
230
1.0
 70
     8
 71
     3
 72
    13
 73
     9
 74
     0
 42
0.000000001
 43
0.0000000001
 40
0.0
 40
0.0
 40
0.0
 40
0.0
 40
1.0
 40
2.0
 40
3.0
 40
4.0
 40
5.0
 40
6.0
 40
6.0
 40
6.0
 40
6.0
 10
-9.930319500603872
 20
62.04792294970807
 30
0.0
 10
-10.07619089185462
 20
62.08670162226544
 30
0.0
 10
-10.36302926950378
 20
62.17270671627116
 30
0.0
 10
-10.77929503603693
 20
62.37328127767108
 30
0.0
 10
-11.03592012147558
 20
62.76414184160696
 30
0.0
 10
-11.06763451307052
 20
63.2232453596348
 30
0.0
 10
-11.05009070249599
 20
63.67289367288726
 30
0.0
 10
-11.03276519964481
 20
63.97413869058601
 30
0.0
 10
-11.02355434240374
 20
64.12520522872612
 30
0.0
  0
SPLINE
  5
155
330
1F
100
AcDbEntity
  8
0
370
    -3
100
AcDbSpline
210
0.0
220
0.0
230
1.0
 70
     8
 71
     3
 72
     8
 73
     4
 74
     0
 42
0.000000001
 43
0.0000000001
 40
6.0
 40
6.0
 40
6.0
 40
6.0
 40
7.0
 40
7.0
 40
7.0
 40
7.0
 10
-11.02355434240374
 20
64.12520522872612
 30
0.0
 10
-10.76033258768746
 20
67.01248023980774
 30
0.0
 10
-10.45321149531227
 20
69.89713216211204
 30
0.0
 10
-10.01507521137827
 20
72.76315976289206
 30
0.0
  0
SPLINE
  5
156
330
1F
100
AcDbEntity
  8
0
370
    -3
100
AcDbSpline
210
0.0
220
0.0
230
1.0
 70
     8
 71
     3
 72
    11
 73
     7
 74
     0
 42
0.000000001
 43
0.0000000001
 40
7.0
 40
7.0
 40
7.0
 40
7.0
 40
8.0
 40
9.0
 40
10.0
 40
11.0
 40
11.0
 40
11.0
 40
11.0
 10
-10.01507521137827
 20
72.76315976289206
 30
0.0
 10
-9.980259262396714
 20
73.06154048430125
 30
0.0
 10
-9.82798220552445
 20
73.6421534362303
 30
0.0
 10
-9.541049962885978
 20
74.496183842899
 30
0.0
 10
-8.978852751160588
 20
75.2187092670225
 30
0.0
 10
-8.486869369849018
 20
75.56680453705985
 30
0.0
 10
-8.229903517185477
 20
75.72070851075046
 30
0.0
  0
SPLINE
  5
157
330
1F
100
AcDbEntity
  8
0
370
    -3
100
AcDbSpline
210
0.0
220
0.0
230
1.0
 70
     8
 71
     3
 72
    10
 73
     6
 74
     0
 42
0.000000001
 43
0.0000000001
 40
0.0
 40
0.0
 40
0.0
 40
0.0
 40
1.0
 40
2.0
 40
3.0
 40
3.0
 40
3.0
 40
3.0
 10
8.235349089260495
 20
74.74432116367672
 30
0.0
 10
8.45586356074304
 20
74.6555361038766
 30
0.0
 10
8.804465887813507
 20
74.31122673465298
 30
0.0
 10
9.012528362659964
 20
73.6256248151661
 30
0.0
 10
9.115236417159537
 20
73.16946812833223
 30
0.0
 10
9.158048658443107
 20
72.9377176256997
 30
0.0
  0
SPLINE
  5
158
330
1F
100
AcDbEntity
  8
0
370
    -3
100
AcDbSpline
210
0.0
220
0.0
230
1.0
 70
     8
 71
     3
 72
    11
 73
     7
 74
     0
 42
0.000000001
 43
0.0000000001
 40
3.0
 40
3.0
 40
3.0
 40
3.0
 40
4.0
 40
5.0
 40
6.0
 40
7.0
 40
7.0
 40
7.0
 40
7.0
 10
9.158048658443107
 20
72.9377176256997
 30
0.0
 10
9.30084863098395
 20
72.15824260514927
 30
0.0
 10
9.495578923523965
 20
70.58537611652027
 30
0.0
 10
9.729632365749353
 20
68.21998387231795
 30
0.0
 10
9.920134866534113
 20
65.85232501454287
 30
0.0
 10
10.07909353118947
 20
64.27237895678235
 30
0.0
 10
10.03789658042373
 20
63.48029669433639
 30
0.0
  0
SPLINE
  5
159
330
1F
100
AcDbEntity
  8
0
370
    -3
100
AcDbSpline
210
0.0
220
0.0
230
1.0
 70
     8
 71
     3
 72
    16
 73
    12
 74
     0
 42
0.000000001
 43
0.0000000001
 40
7.0
 40
7.0
 40
7.0
 40
7.0
 40
8.0
 40
9.0
 40
10.0
 40
11.0
 40
12.0
 40
13.0
 40
14.0
 40
15.0
 40
16.0
 40
16.0
 40
16.0
 40
16.0
 10
10.03789658042373
 20
63.48029669433639
 30
0.0
 10
10.03284200060801
 20
63.38378951632359
 30
0.0
 10
9.881621763944764
 20
63.25558198038198
 30
0.0
 10
9.60606423001866
 20
63.24863241041692
 30
0.0
 10
9.337904554644751
 20
63.26106635540238
 30
0.0
 10
9.07254082651886
 20
63.31627724839931
 30
0.0
 10
8.820163911963789
 20
63.41306768045696
 30
0.0
 10
8.590863692495503
 20
63.55977299628149
 30
0.0
 10
8.417282414781141
 20
63.77025451794476
 30
0.0
 10
8.311770491688861
 20
64.0204055349797
 30
0.0
 10
8.266166539211355
 20
64.1943437426766
 30
0.0
 10
8.24808536342536
 20
64.2824165311479
 30
0.0
  0
SPLINE
  5
15A
330
1F
100
AcDbEntity
  8
0
370
    -3
100
AcDbSpline
210
0.0
220
0.0
230
1.0
 70
     8
 71
     3
 72
     8
 73
     4
 74
     0
 42
0.000000001
 43
0.0000000001
 40
-1.0
 40
-1.0
 40
-1.0
 40
-1.0
 40
0.0
 40
0.0
 40
0.0
 40
0.0
 10
8.24867828056901
 20
61.7171740701511
 30
0.0
 10
8.813814787537268
 20
61.8014020310276
 30
0.0
 10
9.37858622153692
 20
61.89709497397156
 30
0.0
 10
9.93032933582029
 20
62.04792294970807
 30
0.0
  0
SPLINE
  5
15B
330
1F
100
AcDbEntity
  8
0
370
    -3
100
AcDbSpline
210
0.0
220
0.0
230
1.0
 70
     8
 71
     3
 72
    13
 73
     9
 74
     0
 42
0.000000001
 43
0.0000000001
 40
0.0
 40
0.0
 40
0.0
 40
0.0
 40
1.0
 40
2.0
 40
3.0
 40
4.0
 40
5.0
 40
6.0
 40
6.0
 40
6.0
 40
6.0
 10
9.93032933582029
 20
62.04792294970807
 30
0.0
 10
10.07620072707104
 20
62.08670162226544
 30
0.0
 10
10.3630391047202
 20
62.17270671627116
 30
0.0
 10
10.77930487125334
 20
62.37328127767108
 30
0.0
 10
11.035929956692
 20
62.76414184160696
 30
0.0
 10
11.06764434828693
 20
63.2232453596348
 30
0.0
 10
11.05010053771241
 20
63.67289367288726
 30
0.0
 10
11.03277503486123
 20
63.97413869058601
 30
0.0
 10
11.02356417762016
 20
64.12520522872612
 30
0.0
  0
SPLINE
  5
15C
330
1F
100
AcDbEntity
  8
0
370
    -3
100
AcDbSpline
210
0.0
220
0.0
230
1.0
 70
     8
 71
     3
 72
     8
 73
     4
 74
     0
 42
0.000000001
 43
0.0000000001
 40
6.0
 40
6.0
 40
6.0
 40
6.0
 40
7.0
 40
7.0
 40
7.0
 40
7.0
 10
11.02356417762016
 20
64.12520522872612
 30
0.0
 10
10.76034242290388
 20
67.01248023980774
 30
0.0
 10
10.45322133052869
 20
69.89713216211204
 30
0.0
 10
10.01508504659469
 20
72.76315976289206
 30
0.0
  0
SPLINE
  5
15D
330
1F
100
AcDbEntity
  8
0
370
    -3
100
AcDbSpline
210
0.0
220
0.0
230
1.0
 70
     8
 71
     3
 72
    11
 73
     7
 74
     0
 42
0.000000001
 43
0.0000000001
 40
7.0
 40
7.0
 40
7.0
 40
7.0
 40
8.0
 40
9.0
 40
10.0
 40
11.0
 40
11.0
 40
11.0
 40
11.0
 10
10.01508504659469
 20
72.76315976289206
 30
0.0
 10
9.980269097613132
 20
73.06154048430125
 30
0.0
 10
9.827992040740867
 20
73.6421534362303
 30
0.0
 10
9.541059798102395
 20
74.496183842899
 30
0.0
 10
8.978862586377005
 20
75.2187092670225
 30
0.0
 10
8.486879205065435
 20
75.56680453705985
 30
0.0
 10
8.229913352401894
 20
75.72070851075046
 30
0.0
  0
SPLINE
  5
15E
330
1F
100
AcDbEntity
  8
0
370
    -3
100
AcDbSpline
210
0.0
220
0.0
230
1.0
 70
    28
 71
     2
 72
     6
 73
     3
 74
     0
 42
0.000000001
 43
0.0000000001
 40
7.070442661005589
 40
7.070442661005589
 40
7.070442661005589
 40
14.65804267057099
 40
14.65804267057099
 40
14.65804267057099
 10
-10.56900388907227
 20
68.59083973662848
 30
0.0
 41
0.8536807726429321
 10
-10.56900388907226
 20
72.38463974141118
 30
0.0
 41
0.8536807726429321
 10
-10.56900388907225
 20
76.17843974619387
 30
0.0
 41
0.8536807726429322
  0
SPLINE
  5
15F
330
1F
100
AcDbEntity
  8
0
370
    -3
100
AcDbSpline
210
0.0
220
0.0
230
1.0
 70
    28
 71
     2
 72
     6
 73
     3
 74
     0
 42
0.000000001
 43
0.0000000001
 40
2.329671463627372
 40
2.329671463627372
 40
2.329671463627372
 40
4.993717243814574
 40
4.993717243814574
 40
4.993717243814574
 10
-9.944003889072317
 20
75.83376828256655
 30
0.0
 41
0.8536807726429323
 10
-9.944003889072317
 20
74.50174539247294
 30
0.0
 41
0.8536807726429323
 10
-9.944003889072317
 20
73.16972250237934
 30
0.0
 41
0.8536807726429323
  0
SPLINE
  5
160
330
1F
100
AcDbEntity
  8
0
370
    -3
100
AcDbSpline
210
0.0
220
0.0
230
1.0
 70
    28
 71
     2
 72
     6
 73
     3
 74
     0
 42
0.000000001
 43
0.0000000001
 40
12.4861270889913
 40
12.4861270889913
 40
12.4861270889913
 40
14.657925374468
 40
14.657925374468
 40
14.657925374468
 10
-9.944003889072317
 20
65.67731265720262
 30
0.0
 41
0.8536807726429323
 10
-9.944003889072317
 20
64.59141351446428
 30
0.0
 41
0.8536807726429323
 10
-9.944003889072317
 20
63.50551437172593
 30
0.0
 41
0.8536807726429323
  0
LINE
  5
161
330
1F
100
AcDbEntity
  8
0
370
    -3
100
AcDbLine
 10
-10.66400388907226
 20
62.33672819761142
 30
0.0
 11
-10.66400388907226
 21
61.52039707562291
 31
0.0
  0
LINE
  5
162
330
1F
100
AcDbEntity
  8
0
370
    -3
100
AcDbLine
 10
-10.66400388907226
 20
61.52039707562291
 30
0.0
 11
-10.47201073797967
 21
61.52039707562288
 31
0.0
  0
LINE
  5
163
330
1F
100
AcDbEntity
  8
0
370
    -3
100
AcDbLine
 10
-10.47201073797967
 20
61.52039707562288
 30
0.0
 11
-10.47201073797964
 21
62.23122706814318
 31
0.0
  0
LINE
  5
164
330
1F
100
AcDbEntity
  8
0
370
    -3
100
AcDbLine
 10
-9.849003889072236
 20
63.27769038750256
 30
0.0
 11
-9.849003889072208
 21
63.50539707562281
 31
0.0
  0
LINE
  5
165
330
1F
100
AcDbEntity
  8
0
370
    -3
100
AcDbLine
 10
-9.849003889072208
 20
63.50539707562281
 30
0.0
 11
-10.03915203167216
 21
63.5053970756229
 31
0.0
  0
LINE
  5
166
330
1F
100
AcDbEntity
  8
0
370
    -3
100
AcDbLine
 10
-10.04099704016491
 20
62.07841497398215
 30
0.0
 11
-10.04099704016491
 21
61.52039707562291
 31
0.0
  0
LINE
  5
167
330
1F
100
AcDbEntity
  8
0
370
    -3
100
AcDbLine
 10
-10.04099704016491
 20
61.52039707562291
 30
0.0
 11
-9.84900388907235
 21
61.52039707562288
 31
0.0
  0
LINE
  5
168
330
1F
100
AcDbEntity
  8
0
370
    -3
100
AcDbLine
 10
-9.84900388907235
 20
61.52039707562288
 30
0.0
 11
-9.849003889072321
 21
62.02611244185356
 31
0.0
  0
SPLINE
  5
169
330
1F
100
AcDbEntity
  8
0
370
    -3
100
AcDbSpline
210
0.0
220
0.0
230
1.0
 70
     8
 71
     2
 72
     9
 73
     6
 74
     0
 42
0.000000001
 43
0.0000000001
 40
0.0
 40
0.0
 40
0.0
 40
1.0
 40
2.0
 40
3.0
 40
3.495912995103288
 40
3.495912995103288
 40
3.495912995103288
 10
-8.234082173196214
 20
73.29805492586866
 30
0.0
 10
-8.34010959861584
 20
73.36631523772036
 30
0.0
 10
-8.548473130389908
 20
73.50840624255571
 30
0.0
 10
-8.752997562883564
 20
73.6559686082017
 30
0.0
 10
-8.902999965001356
 20
73.77035098128846
 30
0.0
 10
-8.9522158238739
 20
73.80891907268008
 30
0.0
  0
SPLINE
  5
16A
330
1F
100
AcDbEntity
  8
0
370
    -3
100
AcDbSpline
210
0.0
220
0.0
230
1.0
 70
     8
 71
     2
 72
     7
 73
     4
 74
     0
 42
0.000000001
 43
0.0000000001
 40
6.709069955655422
 40
6.709069955655422
 40
6.709069955655422
 40
7.0
 40
8.0
 40
8.0
 40
8.0
 10
-9.56169521298014
 20
74.34238123075055
 30
0.0
 10
-9.587003129483776
 20
74.36933213308325
 30
0.0
 10
-9.696495926633702
 20
74.49263171384217
 30
0.0
 10
-9.724748610351924
 20
74.6182587766358
 30
0.0
  0
SPLINE
  5
16B
330
1F
100
AcDbEntity
  8
0
370
    -3
100
AcDbSpline
210
0.0
220
0.0
230
1.0
 70
    28
 71
     2
 72
     6
 73
     3
 74
     0
 42
0.000000001
 43
0.0000000001
 40
8.0
 40
8.0
 40
8.0
 40
37.84657966394773
 40
37.84657966394773
 40
37.84657966394773
 10
-9.724748610351883
 20
74.6182587766358
 30
0.0
 41
0.8607770416645668
 10
-10.12865333520594
 20
76.8574521128263
 30
0.0
 41
0.8607770416645668
 10
-10.53255806005999
 20
79.09664544901679
 30
0.0
 41
0.8607770416645668
  0
SPLINE
  5
16C
330
1F
100
AcDbEntity
  8
0
370
    -3
100
AcDbSpline
210
0.0
220
0.0
230
1.0
 70
     8
 71
     2
 72
    15
 73
    12
 74
     0
 42
0.000000001
 43
0.0000000001
 40
0.0
 40
0.0
 40
0.0
 40
1.0
 40
2.0
 40
3.0
 40
4.0
 40
5.0
 40
6.0
 40
7.0
 40
8.0
 40
9.0
 40
10.0
 40
10.0
 40
10.0
 10
-10.56900388907226
 20
78.16343974619394
 30
0.0
 10
-10.56900590672083
 20
78.26041461152191
 30
0.0
 10
-10.56797580109543
 20
78.45436415706422
 30
0.0
 10
-10.56578054803938
 20
78.64829184826272
 30
0.0
 10
-10.56218757847518
 20
78.84227042465791
 30
0.0
 10
-10.55572562019211
 20
79.03577026466084
 30
0.0
 10
-10.54737448542764
 20
79.23154189894228
 30
0.0
 10
-10.45108359915747
 20
79.40539898026732
 30
0.0
 10
-10.26853729243871
 20
79.48876164070518
 30
0.0
 10
-10.07197201837471
 20
79.45115760268654
 30
0.0
 10
-9.93421127823757
 20
79.30640789087198
 30
0.0
 10
-9.917516744527177
 20
79.20777398172753
 30
0.0
  0
SPLINE
  5
16D
330
1F
100
AcDbEntity
  8
0
370
    -3
100
AcDbSpline
210
0.0
220
0.0
230
1.0
 70
    28
 71
     2
 72
     6
 73
     3
 74
     0
 42
0.000000001
 43
0.0000000001
 40
10.0
 40
10.0
 40
10.0
 40
38.2397164988835
 40
38.2397164988835
 40
38.2397164988835
 10
-9.91751674452716
 20
79.20777398172751
 30
0.0
 41
0.8607770416645655
 10
-9.535342981946675
 20
77.08904552401435
 30
0.0
 41
0.8607770416645655
 10
-9.153169219366191
 20
74.97031706630118
 30
0.0
 41
0.8607770416645655
  0
SPLINE
  5
16E
330
1F
100
AcDbEntity
  8
0
370
    -3
100
AcDbSpline
210
0.0
220
0.0
230
1.0
 70
     8
 71
     2
 72
     6
 73
     3
 74
     0
 42
0.000000001
 43
0.0000000001
 40
39.98551789745086
 40
39.98551789745086
 40
39.98551789745086
 40
40.47018579450346
 40
40.47018579450346
 40
40.47018579450346
 10
-8.679118416758541
 20
74.39085336930034
 30
0.0
 10
-8.464056259055582
 20
74.21449110587919
 30
0.0
 10
-8.234318630106515
 20
74.05563118266505
 30
0.0
  0
SPLINE
  5
16F
330
1F
100
AcDbEntity
  8
0
370
    -3
100
AcDbSpline
210
0.0
220
0.0
230
1.0
 70
    28
 71
     2
 72
     6
 73
     3
 74
     0
 42
0.000000001
 43
0.0000000001
 40
7.070528056906237
 40
7.070528056906237
 40
7.070528056906237
 40
14.65804267057099
 40
14.65804267057099
 40
14.65804267057099
 10
10.56900388907227
 20
68.59092513252914
 30
0.0
 41
0.8536807726429321
 10
10.56900388907228
 20
72.38468243936151
 30
0.0
 41
0.8536807726429321
 10
10.56900388907228
 20
76.17843974619387
 30
0.0
 41
0.8536807726429322
  0
SPLINE
  5
170
330
1F
100
AcDbEntity
  8
0
370
    -3
100
AcDbSpline
210
0.0
220
0.0
230
1.0
 70
    28
 71
     2
 72
     6
 73
     3
 74
     0
 42
0.000000001
 43
0.0000000001
 40
2.329671463627372
 40
2.329671463627372
 40
2.329671463627372
 40
4.993673797176561
 40
4.993673797176561
 40
4.993673797176561
 10
9.944003889072217
 20
75.83376828256655
 30
0.0
 41
0.8536807726429323
 10
9.944003889072217
 20
74.50176711579195
 30
0.0
 41
0.8536807726429323
 10
9.944003889072217
 20
73.16976594901736
 30
0.0
 41
0.8536807726429323
  0
SPLINE
  5
171
330
1F
100
AcDbEntity
  8
0
370
    -3
100
AcDbSpline
210
0.0
220
0.0
230
1.0
 70
    28
 71
     2
 72
     6
 73
     3
 74
     0
 42
0.000000001
 43
0.0000000001
 40
12.48601917436995
 40
12.48601917436995
 40
12.48601917436995
 40
14.657925374468
 40
14.657925374468
 40
14.657925374468
 10
9.944003889072217
 20
65.67742057182397
 30
0.0
 41
0.8536807726429323
 10
9.944003889072217
 20
64.59146747177496
 30
0.0
 41
0.8536807726429323
 10
9.944003889072217
 20
63.50551437172593
 30
0.0
 41
0.8536807726429323
  0
LINE
  5
172
330
1F
100
AcDbEntity
  8
0
370
    -3
100
AcDbLine
 10
10.66400388907226
 20
62.33672153479484
 30
0.0
 11
10.66400388907226
 21
61.52039707562291
 31
0.0
  0
LINE
  5
173
330
1F
100
AcDbEntity
  8
0
370
    -3
100
AcDbLine
 10
10.66400388907226
 20
61.52039707562291
 30
0.0
 11
10.47201073797967
 21
61.52039707562288
 31
0.0
  0
LINE
  5
174
330
1F
100
AcDbEntity
  8
0
370
    -3
100
AcDbLine
 10
10.47201073797967
 20
61.52039707562288
 30
0.0
 11
10.47201073797964
 21
62.2312226077981
 31
0.0
  0
LINE
  5
175
330
1F
100
AcDbEntity
  8
0
370
    -3
100
AcDbLine
 10
9.849003889072236
 20
63.27768721372502
 30
0.0
 11
9.849003889072208
 21
63.50539707562281
 31
0.0
  0
LINE
  5
176
330
1F
100
AcDbEntity
  8
0
370
    -3
100
AcDbLine
 10
9.849003889072208
 20
63.50539707562281
 30
0.0
 11
10.03916186688858
 21
63.50539707562291
 31
0.0
  0
LINE
  5
177
330
1F
100
AcDbEntity
  8
0
370
    -3
100
AcDbLine
 10
10.04099704016491
 20
62.07841215730282
 30
0.0
 11
10.04099704016491
 21
61.52039707562291
 31
0.0
  0
LINE
  5
178
330
1F
100
AcDbEntity
  8
0
370
    -3
100
AcDbLine
 10
10.04099704016491
 20
61.52039707562291
 30
0.0
 11
9.84900388907235
 21
61.52039707562288
 31
0.0
  0
LINE
  5
179
330
1F
100
AcDbEntity
  8
0
370
    -3
100
AcDbLine
 10
9.84900388907235
 20
61.52039707562288
 30
0.0
 11
9.849003889072321
 21
62.0261098536783
 31
0.0
  0
SPLINE
  5
17A
330
1F
100
AcDbEntity
  8
0
370
    -3
100
AcDbSpline
210
0.0
220
0.0
230
1.0
 70
     8
 71
     2
 72
     9
 73
     6
 74
     0
 42
0.000000001
 43
0.0000000001
 40
0.0
 40
0.0
 40
0.0
 40
1.0
 40
2.0
 40
3.0
 40
3.495953071207538
 40
3.495953071207538
 40
3.495953071207538
 10
8.234082173196214
 20
73.29805492586866
 30
0.0
 10
8.34010959861584
 20
73.36631523772036
 30
0.0
 10
8.548473130389908
 20
73.50840624255571
 30
0.0
 10
8.752997562883564
 20
73.6559686082017
 30
0.0
 10
8.903003983625382
 20
73.77035404563773
 30
0.0
 10
8.952223778410598
 20
73.80892530627314
 30
0.0
  0
SPLINE
  5
17B
330
1F
100
AcDbEntity
  8
0
370
    -3
100
AcDbSpline
210
0.0
220
0.0
230
1.0
 70
     8
 71
     2
 72
     7
 73
     4
 74
     0
 42
0.000000001
 43
0.0000000001
 40
6.709107560739433
 40
6.709107560739433
 40
6.709107560739433
 40
7.0
 40
8.0
 40
8.0
 40
8.0
 10
9.561701755479334
 20
74.34238819801294
 30
0.0
 10
9.58700631903369
 20
74.3693357248279
 30
0.0
 10
9.696495926633702
 20
74.49263171384217
 30
0.0
 10
9.724748610351924
 20
74.6182587766358
 30
0.0
  0
SPLINE
  5
17C
330
1F
100
AcDbEntity
  8
0
370
    -3
100
AcDbSpline
210
0.0
220
0.0
230
1.0
 70
    28
 71
     2
 72
     6
 73
     3
 74
     0
 42
0.000000001
 43
0.0000000001
 40
8.0
 40
8.0
 40
8.0
 40
37.84657966394773
 40
37.84657966394773
 40
37.84657966394773
 10
9.724748610351917
 20
74.6182587766358
 30
0.0
 41
0.8607770416645668
 10
10.12865333520597
 20
76.8574521128263
 30
0.0
 41
0.8607770416645668
 10
10.53255806006002
 20
79.09664544901679
 30
0.0
 41
0.8607770416645668
  0
SPLINE
  5
17D
330
1F
100
AcDbEntity
  8
0
370
    -3
100
AcDbSpline
210
0.0
220
0.0
230
1.0
 70
     8
 71
     2
 72
    15
 73
    12
 74
     0
 42
0.000000001
 43
0.0000000001
 40
0.0
 40
0.0
 40
0.0
 40
1.0
 40
2.0
 40
3.0
 40
4.0
 40
5.0
 40
6.0
 40
7.0
 40
8.0
 40
9.0
 40
10.0
 40
10.0
 40
10.0
 10
10.56900388907226
 20
78.16343974619394
 30
0.0
 10
10.56900590672083
 20
78.26041461152191
 30
0.0
 10
10.56797580109543
 20
78.45436415706422
 30
0.0
 10
10.56578054803938
 20
78.64829184826272
 30
0.0
 10
10.56218757847518
 20
78.84227042465791
 30
0.0
 10
10.55572562019211
 20
79.03577026466084
 30
0.0
 10
10.54737448542764
 20
79.23154189894228
 30
0.0
 10
10.45108359915747
 20
79.40539898026732
 30
0.0
 10
10.26853729243871
 20
79.48876164070518
 30
0.0
 10
10.07197201837471
 20
79.45115760268654
 30
0.0
 10
9.93421127823757
 20
79.30640789087198
 30
0.0
 10
9.917516744527177
 20
79.20777398172753
 30
0.0
  0
SPLINE
  5
17E
330
1F
100
AcDbEntity
  8
0
370
    -3
100
AcDbSpline
210
0.0
220
0.0
230
1.0
 70
    28
 71
     2
 72
     6
 73
     3
 74
     0
 42
0.000000001
 43
0.0000000001
 40
10.0
 40
10.0
 40
10.0
 40
38.23965334492959
 40
38.23965334492959
 40
38.23965334492959
 10
9.91751674452716
 20
79.20777398172751
 30
0.0
 41
0.8607770416645655
 10
9.535343836621829
 20
77.08905026223752
 30
0.0
 41
0.8607770416645655
 10
9.153170928716499
 20
74.97032654274756
 30
0.0
 41
0.8607770416645655
  0
SPLINE
  5
17F
330
1F
100
AcDbEntity
  8
0
370
    -3
100
AcDbSpline
210
0.0
220
0.0
230
1.0
 70
     8
 71
     2
 72
     6
 73
     3
 74
     0
 42
0.000000001
 43
0.0000000001
 40
39.98551103494228
 40
39.98551103494228
 40
39.98551103494228
 40
40.47018579450346
 40
40.47018579450346
 40
40.47018579450346
 10
8.679124506970822
 20
74.39085836360019
 30
0.0
 10
8.464059511956094
 20
74.21449335520825
 30
0.0
 10
8.234318630106515
 20
74.05563118266505
 30
0.0
  0
SPLINE
  5
180
330
1F
100
AcDbEntity
  8
0
370
    -3
100
AcDbSpline
210
0.0
220
0.0
230
1.0
 70
     8
 71
     2
 72
     7
 73
     4
 74
     0
 42
0.000000001
 43
0.0000000001
 40
15.53508026151438
 40
15.53508026151438
 40
15.53508026151438
 40
16.45235323737369
 40
17.45235323737369
 40
17.45235323737369
 40
17.45235323737369
 10
-8.250579729250177
 20
32.74341301523032
 30
0.0
 10
-8.251300112575194
 20
32.79413657458149
 30
0.0
 10
-8.251524898420485
 20
32.90018876747901
 30
0.0
 10
-8.249052601224662
 20
32.95543973850633
 30
0.0
  0
SPLINE
  5
181
330
1F
100
AcDbEntity
  8
0
370
    -3
100
AcDbSpline
210
0.0
220
0.0
230
1.0
 70
     8
 71
     2
 72
     7
 73
     4
 74
     0
 42
0.000000001
 43
0.0000000001
 40
15.53505907761717
 40
15.53505907761717
 40
15.53505907761717
 40
16.45235323737369
 40
17.45235323737369
 40
17.45235323737369
 40
17.45235323737369
 10
8.250579695976171
 20
32.74341067236686
 30
0.0
 10
8.251300110091535
 20
32.79413540281368
 30
0.0
 10
8.251524898420485
 20
32.90018876747901
 30
0.0
 10
8.249052601224662
 20
32.95543973850633
 30
0.0
  0
SPLINE
  5
182
330
1F
100
AcDbEntity
  8
Make2D$Visible$Tangents
 62
    18
420
        0
370
    -3
100
AcDbSpline
210
0.0
220
0.0
230
1.0
 70
     8
 71
     3
 72
    25
 73
    21
 74
     0
 42
0.000000001
 43
0.0000000001
 40
-7.0
 40
-7.0
 40
-7.0
 40
-7.0
 40
-5.999992802600457
 40
-4.999985605200914
 40
-3.999978407801371
 40
-2.999971210401828
 40
-1.999964013002285
 40
-0.9999568156027417
 40
0.0
 40
0.0
 40
0.0
 40
0.9999719122290828
 40
1.999975423200448
 40
2.999978934171812
 40
3.999982445143177
 40
4.999985956114541
 40
5.999989467085905
 40
6.99999297805727
 40
7.999996489028636
 40
9.0
 40
9.0
 40
9.0
 40
9.0
 10
-8.234948421056401
 20
37.16873655795445
 30
0.0
 10
-8.282622239296074
 20
37.26273372247095
 30
0.0
 10
-8.402170356601033
 20
37.43944257774532
 30
0.0
 10
-8.65196336280772
 20
37.63884584733956
 30
0.0
 10
-8.933108489789674
 20
37.78286187199504
 30
0.0
 10
-9.220531095906068
 20
37.92099359818261
 30
0.0
 10
-9.550807843351038
 20
37.93290983773129
 30
0.0
 10
-9.799921375262642
 20
37.71370376857622
 30
0.0
 10
-9.929535251374205
 20
37.54960514928686
 30
0.0
 10
-9.972788004717387
 20
37.45214639051309
 30
0.0
 10
-10.0225552472788
 20
37.2554361931608
 30
0.0
 10
-10.04955535409488
 20
36.8502610317237
 30
0.0
 10
-10.05863902466493
 20
36.24365996259365
 30
0.0
 10
-10.05355008112613
 20
35.63637186103571
 30
0.0
 10
-10.04342148108043
 20
35.02977281660731
 30
0.0
 10
-10.01796883463294
 20
34.42172437628878
 30
0.0
 10
-9.921217536703125
 20
33.82501036752303
 30
0.0
 10
-9.663041176422297
 20
33.24523805350746
 30
0.0
 10
-9.091769404828625
 20
32.97770397044258
 30
0.0
 10
-8.692045034699902
 20
32.85144994968289
 30
0.0
 10
-8.494519046975768
 20
32.80253871823031
 30
0.0
  0
SPLINE
  5
183
330
1F
100
AcDbEntity
  8
Make2D$Visible$Tangents
 62
    18
420
        0
370
    -3
100
AcDbSpline
210
0.0
220
0.0
230
1.0
 70
     8
 71
     2
 72
     6
 73
     3
 74
     0
 42
0.000000001
 43
0.0000000001
 40
9.0
 40
9.0
 40
9.0
 40
10.0
 40
10.0
 40
10.0
 10
-8.494519046975768
 20
32.80253871823029
 30
0.0
 10
-7.412662421976961
 20
32.53465022217209
 30
0.0
 10
-6.311550432444108
 20
32.36296294323432
 30
0.0
  0
SPLINE
  5
184
330
1F
100
AcDbEntity
  8
Make2D$Visible$Tangents
 62
    18
420
        0
370
    -3
100
AcDbSpline
210
0.0
220
0.0
230
1.0
 70
     8
 71
     3
 72
    14
 73
    10
 74
     0
 42
0.000000001
 43
0.0000000001
 40
10.0
 40
10.0
 40
10.0
 40
10.0
 40
10.54165293249129
 40
11.54165293249129
 40
12.54165293249129
 40
13.54165293249129
 40
14.54165293249129
 40
15.54165293249129
 40
16.54165293249129
 40
16.54165293249129
 40
16.54165293249129
 40
16.54165293249129
 10
-6.311550432444108
 20
32.36296294323432
 30
0.0
 10
-6.138798166047337
 20
32.33755607699833
 30
0.0
 10
-5.646924435248962
 20
32.26783338887924
 30
0.0
 10
-4.831576860216643
 20
32.18738978688611
 30
0.0
 10
-3.866427370163763
 20
32.13039278013575
 30
0.0
 10
-2.900079393393469
 20
32.10118202142225
 30
0.0
 10
-1.933431158442431
 20
32.08828452669188
 30
0.0
 10
-0.9667151056040666
 20
32.08411107110496
 30
0.0
 10
-0.3222350745612061
 20
32.0838459948731
 30
0.0
 10
0.0000049233481718
 20
32.08384143958151
 30
0.0
  0
SPLINE
  5
185
330
1F
100
AcDbEntity
  8
Make2D$Visible$Tangents
 62
    18
420
        0
370
    -3
100
AcDbSpline
210
0.0
220
0.0
230
1.0
 70
     8
 71
     3
 72
    14
 73
    10
 74
     0
 42
0.000000001
 43
0.0000000001
 40
16.54165293249129
 40
16.54165293249129
 40
16.54165293249129
 40
16.54165293249129
 40
17.54165293249129
 40
18.54165293249129
 40
19.54165293249129
 40
20.54165293249129
 40
21.54165293249129
 40
22.54165293249129
 40
23.08330586430662
 40
23.08330586430662
 40
23.08330586430662
 40
23.08330586430662
 10
0.0000049233481718
 20
32.08384143958151
 30
0.0
 10
0.3222449212575498
 20
32.0838459948731
 30
0.0
 10
0.9667249523004102
 20
32.08411107110496
 30
0.0
 10
1.933441005138775
 20
32.08828452669188
 30
0.0
 10
2.900089240089812
 20
32.10118202142225
 30
0.0
 10
3.866437216860106
 20
32.13039278013575
 30
0.0
 10
4.831586706912987
 20
32.18738978688611
 30
0.0
 10
5.646934281728477
 20
32.26783338885785
 30
0.0
 10
6.138808012312353
 20
32.33755607693719
 30
0.0
 10
6.311560278486695
 20
32.36296294318642
 30
0.0
  0
SPLINE
  5
186
330
1F
100
AcDbEntity
  8
Make2D$Visible$Tangents
 62
    18
420
        0
370
    -3
100
AcDbSpline
210
0.0
220
0.0
230
1.0
 70
     8
 71
     2
 72
     6
 73
     3
 74
     0
 42
0.000000001
 43
0.0000000001
 40
23.08330586430662
 40
23.08330586430662
 40
23.08330586430662
 40
24.08330586430662
 40
24.08330586430662
 40
24.08330586430662
 10
6.311560278486695
 20
32.36296294318642
 30
0.0
 10
7.412672268012273
 20
32.53465022217205
 30
0.0
 10
8.49452889301125
 20
32.80253871823029
 30
0.0
  0
SPLINE
  5
187
330
1F
100
AcDbEntity
  8
Make2D$Visible$Tangents
 62
    18
420
        0
370
    -3
100
AcDbSpline
210
0.0
220
0.0
230
1.0
 70
     8
 71
     3
 72
    25
 73
    21
 74
     0
 42
0.000000001
 43
0.0000000001
 40
24.08330586430662
 40
24.08330586430662
 40
24.08330586430662
 40
24.08330586430662
 40
25.08330937527799
 40
26.08331288624935
 40
27.08331639722072
 40
28.08331990819208
 40
29.08332341916345
 40
30.08332693013481
 40
31.08333044110618
 40
32.08333395207754
 40
33.08330586430662
 40
33.08330586430662
 40
33.08330586430662
 40
34.08326267990937
 40
35.08326987730891
 40
36.08327707470845
 40
37.083284272108
 40
38.08329146950754
 40
39.08329866690708
 40
40.08330586430662
 40
40.08330586430662
 40
40.08330586430662
 40
40.08330586430662
 10
8.49452889301125
 20
32.80253871823031
 30
0.0
 10
8.692054880735384
 20
32.85144994968289
 30
0.0
 10
9.091779250864107
 20
32.97770397044258
 30
0.0
 10
9.663051022457779
 20
33.24523805350746
 30
0.0
 10
9.921227382738607
 20
33.82501036752303
 30
0.0
 10
10.01797868066842
 20
34.42172437628878
 30
0.0
 10
10.04343132711591
 20
35.02977281660731
 30
0.0
 10
10.05355992716161
 20
35.63637186103571
 30
0.0
 10
10.05864887070041
 20
36.24365996259365
 30
0.0
 10
10.04956520013036
 20
36.8502610317237
 30
0.0
 10
10.02256509331428
 20
37.2554361931608
 30
0.0
 10
9.972797850752869
 20
37.45214639051309
 30
0.0
 10
9.929545097409687
 20
37.54960514928686
 30
0.0
 10
9.799931221298124
 20
37.71370376857622
 30
0.0
 10
9.55081768938652
 20
37.93290983773129
 30
0.0
 10
9.22054094194155
 20
37.92099359818261
 30
0.0
 10
8.933118335825156
 20
37.78286187199504
 30
0.0
 10
8.651973208843202
 20
37.63884584733956
 30
0.0
 10
8.402180202636515
 20
37.43944257774532
 30
0.0
 10
8.282632085331556
 20
37.26273372247095
 30
0.0
 10
8.234958267091883
 20
37.16873655795445
 30
0.0
  0
LINE
  5
188
330
1F
100
AcDbEntity
  8
0
370
    -3
100
AcDbLine
 10
-10.56401232190495
 20
0.661548770267359
 30
0.0
 11
-9.729259441610537
 21
31.14313768815408
 31
0.0
  0
SPLINE
  5
189
330
1F
100
AcDbEntity
  8
0
370
    -3
100
AcDbSpline
210
0.0
220
0.0
230
1.0
 70
     8
 71
     2
 72
     9
 73
     6
 74
     0
 42
0.000000001
 43
0.0000000001
 40
29.85907283507615
 40
29.85907283507615
 40
29.85907283507615
 40
30.85906431058556
 40
31.85906601548367
 40
32.85906772038179
 40
33.33877089726909
 40
33.33877089726909
 40
33.33877089726909
 10
-9.729259441610537
 20
31.14313768815408
 30
0.0
 10
-9.724304029335997
 20
31.33661196408178
 30
0.0
 10
-9.614532155377418
 20
31.70819348563734
 30
0.0
 10
-9.399240583141903
 20
32.03149685563707
 30
0.0
 10
-9.166340550681156
 20
32.2012260764369
 30
0.0
 10
-9.083309088872767
 20
32.24004088641776
 30
0.0
  0
LINE
  5
18A
330
1F
100
AcDbEntity
  8
0
370
    -3
100
AcDbLine
 10
10.56401232190495
 20
0.661548770267359
 30
0.0
 11
9.729259441610537
 21
31.14313768815408
 31
0.0
  0
SPLINE
  5
18B
330
1F
100
AcDbEntity
  8
0
370
    -3
100
AcDbSpline
210
0.0
220
0.0
230
1.0
 70
     8
 71
     2
 72
     9
 73
     6
 74
     0
 42
0.000000001
 43
0.0000000001
 40
29.85907283507615
 40
29.85907283507615
 40
29.85907283507615
 40
30.85906431058556
 40
31.85906601548367
 40
32.85906772038179
 40
33.33875753084334
 40
33.33875753084334
 40
33.33875753084334
 10
9.729259441610537
 20
31.14313768815408
 30
0.0
 10
9.724304029335997
 20
31.33661196408178
 30
0.0
 10
9.614532155377418
 20
31.70819348563734
 30
0.0
 10
9.399240583141903
 20
32.03149685563707
 30
0.0
 10
9.166342654506735
 20
32.201224543244
 30
0.0
 10
9.08331371603606
 20
32.24003872333725
 30
0.0
  0
SPLINE
  5
18C
330
1F
100
AcDbEntity
  8
Make2D$Visible$Tangents
 62
    18
420
        0
370
    -3
100
AcDbSpline
210
0.0
220
0.0
230
1.0
 70
     8
 71
     3
 72
     8
 73
     4
 74
     0
 42
0.000000001
 43
0.0000000001
 40
0.0
 40
0.0
 40
0.0
 40
0.0
 40
0.8698122571304998
 40
0.8698122571304998
 40
0.8698122571304998
 40
0.8698122571304998
 10
-8.018613350283317
 20
31.74155261903766
 30
0.0
 10
-8.038444185029164
 20
31.78599378612947
 30
0.0
 10
-8.054689057867535
 20
31.83218107850244
 30
0.0
 10
-8.068268010653753
 20
31.8788990259164
 30
0.0
  0
SPLINE
  5
18D
330
1F
100
AcDbEntity
  8
Make2D$Visible$Tangents
 62
    18
420
        0
370
    -3
100
AcDbSpline
210
0.0
220
0.0
230
1.0
 70
     8
 71
     3
 72
    10
 73
     6
 74
     0
 42
0.000000001
 43
0.0000000001
 40
0.8698122571304998
 40
0.8698122571304998
 40
0.8698122571304998
 40
0.8698122571304998
 40
1.125850314679689
 40
1.125850314679689
 40
1.379638189967468
 40
1.379638189967468
 40
1.379638189967468
 40
1.379638189967468
 10
-8.068268010653753
 20
31.8788990259164
 30
0.0
 10
-8.106353129817307
 20
31.89440507948586
 30
0.0
 10
-8.149629450664918
 20
31.91091677094526
 30
0.0
 10
-8.239980717274733
 20
31.94459784823619
 30
0.0
 10
-8.29535726831665
 20
31.9649247536431
 30
0.0
 10
-8.36918931465138
 20
31.98754428514377
 30
0.0
  0
SPLINE
  5
18E
330
1F
100
AcDbEntity
  8
Make2D$Visible$Tangents
 62
    18
420
        0
370
    -3
100
AcDbSpline
210
0.0
220
0.0
230
1.0
 70
     8
 71
     2
 72
    10
 73
     7
 74
     0
 42
0.000000001
 43
0.0000000001
 40
1.379638189967468
 40
1.379638189967468
 40
1.379638189967468
 40
2.379638189967468
 40
3.379638189967468
 40
4.379638189967467
 40
5.379638189967467
 40
6.379638189967467
 40
6.379638189967467
 40
6.379638189967467
 10
-8.36918931465138
 20
31.98754428514377
 30
0.0
 10
-8.596236771102099
 20
32.05611316517113
 30
0.0
 10
-9.041981203911007
 20
32.21839435442016
 30
0.0
 10
-9.474808551985063
 20
32.41290013557094
 30
0.0
 10
-9.879893676541371
 20
32.66268902296238
 30
0.0
 10
-10.24285249371675
 20
33.03815090715247
 30
0.0
 10
-10.3784535653586
 20
33.2333304080091
 30
0.0
  0
SPLINE
  5
18F
330
1F
100
AcDbEntity
  8
Make2D$Visible$Tangents
 62
    18
420
        0
370
    -3
100
AcDbSpline
210
0.0
220
0.0
230
1.0
 70
     8
 71
     3
 72
    10
 73
     6
 74
     0
 42
0.000000001
 43
0.0000000001
 40
6.379638189967467
 40
6.379638189967467
 40
6.379638189967467
 40
6.379638189967467
 40
7.379638189967467
 40
8.379638189967467
 40
9.379638189967467
 40
9.379638189967467
 40
9.379638189967467
 40
9.379638189967467
 10
-10.3784535653586
 20
33.2333304080091
 30
0.0
 10
-10.65037010485648
 20
33.62471768696821
 30
0.0
 10
-10.94526040028822
 20
34.53935728715379
 30
0.0
 10
-11.06190909019415
 20
35.95648441707357
 30
0.0
 10
-11.07380754227819
 20
36.90582326605468
 30
0.0
 10
-11.02129976876702
 20
37.37682765153921
 30
0.0
  0
SPLINE
  5
190
330
1F
100
AcDbEntity
  8
Make2D$Visible$Tangents
 62
    18
420
        0
370
    -3
100
AcDbSpline
210
0.0
220
0.0
230
1.0
 70
     8
 71
     3
 72
    21
 73
    17
 74
     0
 42
0.000000001
 43
0.0000000001
 40
9.379638189967467
 40
9.379638189967467
 40
9.379638189967467
 40
9.379638189967467
 40
10.37963818996747
 40
11.37963818996747
 40
12.37963818996747
 40
12.37963818996747
 40
12.37963818996747
 40
13.37963818996747
 40
14.37963818996747
 40
15.37963818996747
 40
15.37963818996747
 40
15.37963818996747
 40
16.37963818996747
 40
16.37963818996747
 40
16.37963818996747
 40
17.37963818996747
 40
17.37963818996747
 40
17.37963818996747
 40
17.37963818996747
 10
-11.02129976876702
 20
37.37682765153921
 30
0.0
 10
-11.02026101249925
 20
37.38614548630643
 30
0.0
 10
-11.01774572814395
 20
37.40588655699418
 30
0.0
 10
-11.01396366958963
 20
37.43375818045072
 30
0.0
 10
-11.01123513367219
 20
37.45231002203878
 30
0.0
 10
-11.00975070017225
 20
37.46195867216257
 30
0.0
 10
-10.99087118257398
 20
37.60802149025594
 30
0.0
 10
-10.90601133504811
 20
37.89627497726527
 30
0.0
 10
-10.605558513929
 20
38.23153313886652
 30
0.0
 10
-10.36685477850634
 20
38.40337103319881
 30
0.0
 10
-10.2373895129073
 20
38.47408527477217
 30
0.0
 10
-10.08205149859006
 20
38.56107105493274
 30
0.0
 10
-9.807227477715088
 20
38.6568189964764
 30
0.0
 10
-9.631391902463974
 20
38.68318237583441
 30
0.0
 10
-9.164481593172496
 20
38.75614761287971
 30
0.0
 10
-8.693645197452696
 20
38.79888148704202
 30
0.0
 10
-8.223236532509162
 20
38.84142018129477
 30
0.0
  0
SPLINE
  5
191
330
1F
100
AcDbEntity
  8
Make2D$Visible$Tangents
 62
    18
420
        0
370
    -3
100
AcDbSpline
210
0.0
220
0.0
230
1.0
 70
     8
 71
     3
 72
     8
 73
     4
 74
     0
 42
0.000000001
 43
0.0000000001
 40
-36.0
 40
-36.0
 40
-36.0
 40
-36.0
 40
-35.13018774097519
 40
-35.13018774097519
 40
-35.13018774097519
 40
-35.13018774097519
 10
8.01862319697966
 20
31.74155261903766
 30
0.0
 10
8.038454031734574
 20
31.78599378614983
 30
0.0
 10
8.054698904578771
 20
31.83218107854478
 30
0.0
 10
8.06827785706406
 20
31.87889902606901
 30
0.0
  0
SPLINE
  5
192
330
1F
100
AcDbEntity
  8
Make2D$Visible$Tangents
 62
    18
420
        0
370
    -3
100
AcDbSpline
210
0.0
220
0.0
230
1.0
 70
     8
 71
     3
 72
    10
 73
     6
 74
     0
 42
0.000000001
 43
0.0000000001
 40
-35.13018774097519
 40
-35.13018774097519
 40
-35.13018774097519
 40
-35.13018774097519
 40
-34.87414968384416
 40
-34.87414968384416
 40
-34.62036180813822
 40
-34.62036180813822
 40
-34.62036180813822
 40
-34.62036180813822
 10
8.06827785706406
 20
31.87889902606901
 30
0.0
 10
8.10636297613675
 20
31.89440507959421
 30
0.0
 10
8.149639296849273
 20
31.91091677100076
 30
0.0
 10
8.239990563310215
 20
31.94459784823619
 30
0.0
 10
8.295367114352132
 20
31.9649247536431
 30
0.0
 10
8.369199160686861
 20
31.98754428514377
 30
0.0
  0
SPLINE
  5
193
330
1F
100
AcDbEntity
  8
Make2D$Visible$Tangents
 62
    18
420
        0
370
    -3
100
AcDbSpline
210
0.0
220
0.0
230
1.0
 70
     8
 71
     2
 72
    10
 73
     7
 74
     0
 42
0.000000001
 43
0.0000000001
 40
-34.62036180813822
 40
-34.62036180813822
 40
-34.62036180813822
 40
-33.62036180813822
 40
-32.62036180813822
 40
-31.62036180813822
 40
-30.62036180813822
 40
-29.62036180813822
 40
-29.62036180813822
 40
-29.62036180813822
 10
8.369199160686861
 20
31.98754428514377
 30
0.0
 10
8.59624661713758
 20
32.05611316517113
 30
0.0
 10
9.041991049946489
 20
32.21839435442016
 30
0.0
 10
9.474818398020545
 20
32.41290013557094
 30
0.0
 10
9.879903522576853
 20
32.66268902296238
 30
0.0
 10
10.24286233975224
 20
33.03815090715247
 30
0.0
 10
10.37846341139408
 20
33.2333304080091
 30
0.0
  0
SPLINE
  5
194
330
1F
100
AcDbEntity
  8
Make2D$Visible$Tangents
 62
    18
420
        0
370
    -3
100
AcDbSpline
210
0.0
220
0.0
230
1.0
 70
     8
 71
     3
 72
    10
 73
     6
 74
     0
 42
0.000000001
 43
0.0000000001
 40
-29.62036180813822
 40
-29.62036180813822
 40
-29.62036180813822
 40
-29.62036180813822
 40
-28.62036180813822
 40
-27.62036180813822
 40
-26.62036180813822
 40
-26.62036180813822
 40
-26.62036180813822
 40
-26.62036180813822
 10
10.37846341139408
 20
33.2333304080091
 30
0.0
 10
10.65037995089196
 20
33.62471768696821
 30
0.0
 10
10.9452702463237
 20
34.53935728715379
 30
0.0
 10
11.06191893622963
 20
35.95648441707357
 30
0.0
 10
11.07381738831367
 20
36.90582326605468
 30
0.0
 10
11.0213096148025
 20
37.37682765153921
 30
0.0
  0
SPLINE
  5
195
330
1F
100
AcDbEntity
  8
Make2D$Visible$Tangents
 62
    18
420
        0
370
    -3
100
AcDbSpline
210
0.0
220
0.0
230
1.0
 70
     8
 71
     3
 72
    21
 73
    17
 74
     0
 42
0.000000001
 43
0.0000000001
 40
-26.62036180813822
 40
-26.62036180813822
 40
-26.62036180813822
 40
-26.62036180813822
 40
-25.62036180813822
 40
-24.62036180813822
 40
-23.62036180813822
 40
-23.62036180813822
 40
-23.62036180813822
 40
-22.62036180813822
 40
-21.62036180813822
 40
-20.62036180813822
 40
-20.62036180813822
 40
-20.62036180813822
 40
-19.62036180813822
 40
-19.62036180813822
 40
-19.62036180813822
 40
-18.62036180813822
 40
-18.62036180813822
 40
-18.62036180813822
 40
-18.62036180813822
 10
11.0213096148025
 20
37.37682765153921
 30
0.0
 10
11.02027085853473
 20
37.38614548630643
 30
0.0
 10
11.01775557417943
 20
37.40588655699418
 30
0.0
 10
11.01397351562511
 20
37.43375818045072
 30
0.0
 10
11.01124497970767
 20
37.45231002203878
 30
0.0
 10
11.00976054620773
 20
37.46195867216257
 30
0.0
 10
10.99088102860946
 20
37.60802149025594
 30
0.0
 10
10.90602118108359
 20
37.89627497726527
 30
0.0
 10
10.60556835996448
 20
38.23153313886652
 30
0.0
 10
10.36686462454182
 20
38.40337103319881
 30
0.0
 10
10.23739935894278
 20
38.47408527477217
 30
0.0
 10
10.08206134462554
 20
38.56107105493274
 30
0.0
 10
9.80723732375057
 20
38.6568189964764
 30
0.0
 10
9.631401748499457
 20
38.68318237583441
 30
0.0
 10
9.164491439207978
 20
38.75614761287971
 30
0.0
 10
8.693655043488178
 20
38.79888148704202
 30
0.0
 10
8.223246378544644
 20
38.84142018129477
 30
0.0
  0
SPLINE
  5
197
330
1F
100
AcDbEntity
  8
Make2D$Visible$Curves
 62
    18
420
        0
370
    -3
100
AcDbSpline
210
0.0
220
0.0
230
1.0
 70
    11
 71
     3
 72
    72
 73
    68
 74
     0
 42
0.000000001
 43
0.0000000001
 40
0.0
 40
0.0
 40
0.0
 40
0.0
 40
1.0
 40
1.0
 40
2.0
 40
2.0
 40
3.0
 40
3.0
 40
4.0
 40
4.0
 40
5.0
 40
5.0
 40
6.0
 40
6.0
 40
7.0
 40
7.0
 40
8.0
 40
8.0
 40
9.0
 40
9.0
 40
10.0
 40
10.0
 40
10.0
 40
11.0
 40
11.0
 40
11.0
 40
12.0
 40
12.0
 40
13.0
 40
13.0
 40
14.0
 40
14.0
 40
15.0
 40
15.0
 40
16.0
 40
16.0
 40
17.0
 40
17.0
 40
18.0
 40
18.0
 40
19.0
 40
19.0
 40
20.0
 40
20.0
 40
21.0
 40
21.0
 40
21.0
 40
22.0
 40
22.0
 40
23.0
 40
23.0
 40
24.0
 40
24.0
 40
25.0
 40
25.0
 40
25.9440454171427
 40
25.9440454171427
 40
25.9440454171427
 40
26.94171228193566
 40
26.94171228193566
 40
27.94171228193566
 40
27.94171228193566
 40
28.94171228193566
 40
28.94171228193566
 40
29.94171228193566
 40
29.94171228193566
 40
30.94171228193566
 40
30.94171228193566
 40
30.94171228193566
 40
30.94171228193566
 10
33.3232036492019
 20
37.35006199173446
 30
0.0
 10
33.52385332350428
 20
37.32617642596714
 30
0.0
 10
33.72411996580024
 20
37.29918547480561
 30
0.0
 10
34.12388718637939
 20
37.23899280169412
 30
0.0
 10
34.32226342018981
 20
37.20095010190933
 30
0.0
 10
34.71600113485235
 20
37.10897197588171
 30
0.0
 10
34.9081380602845
 20
37.0456216843459
 30
0.0
 10
35.28294804735057
 20
36.88419864423027
 30
0.0
 10
35.44643923245889
 20
36.76925186040473
 30
0.0
 10
35.72559398582604
 20
36.47088776521819
 30
0.0
 10
35.83746356575813
 20
36.30382341703101
 30
0.0
 10
36.00578713211922
 20
35.9339301194688
 30
0.0
 10
36.0763059311621
 20
35.74446713309298
 30
0.0
 10
36.19005756097243
 20
35.35650848515196
 30
0.0
 10
36.24085919680806
 20
35.16097238490329
 30
0.0
 10
36.33031411034034
 20
34.76678663184968
 30
0.0
 10
36.37505953723439
 20
34.56972686654233
 30
0.0
 10
36.4645863312783
 20
34.17567355836653
 30
0.0
 10
36.50930673202242
 20
33.97858741208307
 30
0.0
 10
36.59866154095505
 20
33.58429613512511
 30
0.0
 10
36.6356018652711
 20
33.38572444449659
 30
0.0
 10
36.66480510943688
 20
33.18572670171852
 30
0.0
 10
36.69594162173786
 20
32.91144524295116
 30
0.0
 10
36.55329860727858
 20
32.73976713493849
 30
0.0
 10
36.27766740801255
 20
32.67830910571492
 30
0.0
 10
35.84848899310418
 20
32.58261435259624
 30
0.0
 10
35.41436111922519
 20
32.52189543041573
 30
0.0
 10
34.53620645352612
 20
32.47040924793104
 30
0.0
 10
34.09731480242289
 20
32.44890644020835
 30
0.0
 10
33.21990286370885
 20
32.41438139180224
 30
0.0
 10
32.78099352406778
 20
32.40115542319306
 30
0.0
 10
31.9027681042175
 20
32.38277659716243
 30
0.0
 10
31.46362466186156
 20
32.38362904355652
 30
0.0
 10
30.58527631228799
 20
32.40541765516352
 30
0.0
 10
30.14730729141436
 20
32.43568038035427
 30
0.0
 10
29.27377955749347
 20
32.53494266951029
 30
0.0
 10
28.84233954464355
 20
32.61618721160937
 30
0.0
 10
27.99010722716477
 20
32.84190309084971
 30
0.0
 10
27.58565554281603
 20
33.01028824692483
 30
0.0
 10
26.82008112289981
 20
33.4581129919849
 30
0.0
 10
26.49567531857193
 20
33.7476240556494
 30
0.0
 10
25.96362652117665
 20
34.45784356524733
 30
0.0
 10
25.74915299939593
 20
34.84008624771138
 30
0.0
 10
25.42330770966845
 20
35.65883746796968
 30
0.0
 10
25.29162974006172
 20
36.07760287497955
 30
0.0
 10
25.19119644571202
 20
36.50575807887017
 30
0.0
 10
25.17165991591372
 20
36.5876757267561
 30
0.0
 10
25.1573429994549
 20
36.67050519990683
 30
0.0
 10
25.13914839321606
 20
36.83798779673786
 30
0.0
 10
25.13532959363698
 20
36.92193827265545
 30
0.0
 10
25.1382490015595
 20
37.09025757949475
 30
0.0
 10
25.14602663210468
 20
37.17408806091873
 30
0.0
 10
25.1742177463629
 20
37.34109067977538
 30
0.0
 10
25.20263927384289
 20
37.41977639939651
 30
0.0
 10
25.28574235109537
 20
37.56338328672506
 30
0.0
 10
25.34176116086047
 20
37.6175397135877
 30
0.0
 10
25.41344320096914
 20
37.65611580979839
 30
0.0
 10
25.93228684257062
 20
37.73826274714921
 30
0.0
 10
26.45533290225112
 20
37.78494967109923
 30
0.0
 10
27.51106287655605
 20
37.80742974735477
 30
0.0
 10
28.03886625446617
 20
37.8007189469499
 30
0.0
 10
29.09311677301582
 20
37.75136941391779
 30
0.0
 10
29.61970929851969
 20
37.71814151941366
 30
0.0
 10
30.67182888198568
 20
37.63457947442923
 30
0.0
 10
31.19734452552484
 20
37.58689079301617
 30
0.0
 10
32.24728751621555
 20
37.47969811234834
 30
0.0
 10
32.79919899756624
 20
37.41244010230226
 30
0.0
 10
33.3232036492019
 20
37.35006199173446
 30
0.0
  0
SPLINE
  5
198
330
1F
100
AcDbEntity
  8
0
370
    -3
100
AcDbSpline
210
0.0
220
0.0
230
1.0
 70
     8
 71
     5
 72
    12
 73
     6
 74
     0
 42
0.000000001
 43
0.0000000001
 40
-37.79274481442121
 40
-37.79274481442121
 40
-37.79274481442121
 40
-37.79274481442121
 40
-37.79274481442121
 40
-37.79274481442121
 40
-37.78047231557851
 40
-37.78047231557851
 40
-37.78047231557851
 40
-37.78047231557851
 40
-37.78047231557851
 40
-37.78047231557851
 10
23.20687350194999
 20
39.15439263784997
 30
0.0
 10
23.20654311371899
 20
39.1566801684251
 30
0.0
 10
23.20621251635498
 20
39.1589675736605
 30
0.0
 10
23.20588170968458
 20
39.16125485397013
 30
0.0
 10
23.20555069353435
 20
39.16354200976728
 30
0.0
 10
23.20521946773073
 20
39.16582904146468
 30
0.0
  0
SPLINE
  5
199
330
1F
100
AcDbEntity
  8
0
370
    -3
100
AcDbSpline
210
0.0
220
0.0
230
1.0
 70
     8
 71
     5
 72
    16
 73
    10
 74
     0
 42
0.000000001
 43
0.0000000001
 40
-37.78047231557851
 40
-37.78047231557851
 40
-37.78047231557851
 40
-37.78047231557851
 40
-37.78047231557851
 40
-37.78047231557851
 40
-37.19390305355908
 40
-34.79715286859543
 40
-33.60228520264785
 40
-32.40741751985176
 40
-30.096572061219
 40
-30.096572061219
 40
-30.096572061219
 40
-30.096572061219
 40
-30.096572061219
 40
-30.096572061219
 10
23.20521946773073
 20
39.16582904146468
 30
0.0
 10
23.18938839064748
 20
39.27513868672543
 30
0.0
 10
23.10643489753971
 20
39.82965093108881
 30
0.0
 10
22.97221979769108
 20
40.59761626964464
 30
0.0
 10
22.76068945482285
 20
41.58355408447815
 30
0.0
 10
22.33885942819569
 20
43.05978119140688
 30
0.0
 10
21.81333619307128
 20
44.40601020366621
 30
0.0
 10
21.41099294679077
 20
45.28311113433928
 30
0.0
 10
21.089542784515
 20
45.92162499477085
 30
0.0
 10
20.87035541006895
 20
46.33459993239134
 30
0.0
  0
SPLINE
  5
19A
330
1F
100
AcDbEntity
  8
0
370
    -3
100
AcDbSpline
210
0.0
220
0.0
230
1.0
 70
     8
 71
     3
 72
     8
 73
     4
 74
     0
 42
0.000000001
 43
0.0000000001
 40
-30.096572061219
 40
-30.096572061219
 40
-30.096572061219
 40
-30.096572061219
 40
-29.096572061219
 40
-29.096572061219
 40
-29.096572061219
 40
-29.096572061219
 10
20.87035541006895
 20
46.33459993239134
 30
0.0
 10
20.82188221466708
 20
46.42592916564641
 30
0.0
 10
20.88050671501583
 20
46.47362215808961
 30
0.0
 10
20.98845871814825
 20
46.48020460645743
 30
0.0
  0
SPLINE
  5
19B
330
1F
100
AcDbEntity
  8
0
370
    -3
100
AcDbSpline
210
0.0
220
0.0
230
1.0
 70
     8
 71
     3
 72
     9
 73
     5
 74
     0
 42
0.000000001
 43
0.0000000001
 40
-29.096572061219
 40
-29.096572061219
 40
-29.096572061219
 40
-29.096572061219
 40
-28.09657066896912
 40
-27.096572061219
 40
-27.096572061219
 40
-27.096572061219
 40
-27.096572061219
 10
20.98845871814825
 20
46.48020460645743
 30
0.0
 10
21.11484489405356
 20
46.48791109131334
 30
0.0
 10
21.36795286428693
 20
46.49670879296791
 30
0.0
 10
21.6211417108361
 20
46.50143889801121
 30
0.0
 10
21.74775373551032
 20
46.50267671762364
 30
0.0
  0
SPLINE
  5
19C
330
1F
100
AcDbEntity
  8
0
370
    -3
100
AcDbSpline
210
0.0
220
0.0
230
1.0
 70
     8
 71
     3
 72
    10
 73
     6
 74
     0
 42
0.000000001
 43
0.0000000001
 40
-27.096572061219
 40
-27.096572061219
 40
-27.096572061219
 40
-27.096572061219
 40
-26.09657377324559
 40
-25.09657291723229
 40
-24.096572061219
 40
-24.096572061219
 40
-24.096572061219
 40
-24.096572061219
 10
21.74775373551032
 20
46.50267671762364
 30
0.0
 10
21.88504002484001
 20
46.50296813522325
 30
0.0
 10
22.15268766983397
 20
46.42353591266259
 30
0.0
 10
22.4865282622936
 20
46.17830766152244
 30
0.0
 10
22.65718023828845
 20
45.96245587107838
 30
0.0
 10
22.73323205461782
 20
45.8491462268141
 30
0.0
  0
SPLINE
  5
19D
330
1F
100
AcDbEntity
  8
0
370
    -3
100
AcDbSpline
210
0.0
220
0.0
230
1.0
 70
     8
 71
     3
 72
    12
 73
     8
 74
     0
 42
0.000000001
 43
0.0000000001
 40
-24.096572061219
 40
-24.096572061219
 40
-24.096572061219
 40
-24.096572061219
 40
-23.096572061219
 40
-22.096572061219
 40
-21.096572061219
 40
-20.096572061219
 40
-19.36798764571857
 40
-19.36798764571857
 40
-19.36798764571857
 40
-19.36798764571857
 10
22.73323205461782
 20
45.8491462268141
 30
0.0
 10
23.02691055402329
 20
45.41179447399902
 30
0.0
 10
23.53412169046106
 20
44.48509720082838
 30
0.0
 10
24.09795862996177
 20
43.00641905808808
 30
0.0
 10
24.52384612502053
 20
41.4838466725508
 30
0.0
 10
24.82901487763579
 20
40.07930161216433
 30
0.0
 10
25.00403984762255
 20
39.18595261749771
 30
0.0
 10
25.07464489707084
 20
38.80877869335977
 30
0.0
  0
SPLINE
  5
19E
330
1F
100
AcDbEntity
  8
0
370
    -3
100
AcDbSpline
210
0.0
220
0.0
230
1.0
 70
     8
 71
     3
 72
    17
 73
    13
 74
     0
 42
0.000000001
 43
0.0000000001
 40
-18.56992794498782
 40
-18.56992794498782
 40
-18.56992794498782
 40
-18.56992794498782
 40
-18.096572061219
 40
-17.096572061219
 40
-16.096572061219
 40
-15.096572061219
 40
-14.096572061219
 40
-13.096572061219
 40
-12.096572061219
 40
-11.096572061219
 40
-10.096572061219
 40
-9.666593041362031
 40
-9.666593041362031
 40
-9.666593041362031
 40
-9.666593041362031
 10
25.29957890025068
 20
37.56794178117097
 30
0.0
 10
25.3447911146512
 20
37.32277172168248
 30
0.0
 10
25.49205835161661
 20
36.56101234582267
 30
0.0
 10
25.82351783024703
 20
35.29955435785124
 30
0.0
 10
26.63323676186019
 20
33.89859878925132
 30
0.0
 10
28.02640655944325
 20
33.069973258114
 30
0.0
 10
29.58029962322217
 20
32.73960555214424
 30
0.0
 10
31.157961597054
 20
32.63083945811175
 30
0.0
 10
32.7385029286643
 20
32.64691000285445
 30
0.0
 10
34.31753405974052
 20
32.70012773046163
 30
0.0
 10
35.59544461054523
 20
32.77066890068672
 30
0.0
 10
36.3469064722826
 20
32.82046221864005
 30
0.0
 10
36.57282816996076
 20
32.83593878795972
 30
0.0
  0
SPLINE
  5
19F
330
1F
100
AcDbEntity
  8
0
370
    -3
100
AcDbSpline
210
0.0
220
0.0
230
1.0
 70
     8
 71
     3
 72
     9
 73
     5
 74
     0
 42
0.000000001
 43
0.0000000001
 40
-8.732355162413183
 40
-8.732355162413183
 40
-8.732355162413183
 40
-8.732355162413183
 40
-8.096572061218996
 40
-7.096572061218996
 40
-7.096572061218996
 40
-7.096572061218996
 40
-7.096572061218996
 10
38.04512356366178
 20
32.94132843111493
 30
0.0
 10
38.37908511789567
 20
32.96552910300483
 30
0.0
 10
39.23840494551376
 20
33.0266682603466
 30
0.0
 10
40.09866161547012
 20
33.07530380604383
 30
0.0
 10
40.62526451616793
 20
33.08630062828361
 30
0.0
  0
SPLINE
  5
1A0
330
1F
100
AcDbEntity
  8
0
370
    -3
100
AcDbSpline
210
0.0
220
0.0
230
1.0
 70
     8
 71
     3
 72
    14
 73
    10
 74
     0
 42
0.000000001
 43
0.0000000001
 40
-7.096572061218996
 40
-7.096572061218996
 40
-7.096572061218996
 40
-7.096572061218996
 40
-6.096474197351765
 40
-5.096376333484534
 40
-4.096278469617303
 40
-3.096180605750073
 40
-2.096082741882842
 40
-1.095984878015611
 40
-0.0965720612189963
 40
-0.0965720612189963
 40
-0.0965720612189963
 40
-0.0965720612189963
 10
40.62526451616793
 20
33.08630062828361
 30
0.0
 10
40.71690109394407
 20
33.0881476037618
 30
0.0
 10
40.90030949881577
 20
33.08782493379361
 30
0.0
 10
41.17482730353564
 20
33.06963179445171
 30
0.0
 10
41.44704203712652
 20
33.02683273453846
 30
0.0
 10
41.71078602821265
 20
32.9481107547997
 30
0.0
 10
41.95979544345511
 20
32.8241470412807
 30
0.0
 10
42.1511174189354
 20
32.62181543939357
 30
0.0
 10
42.22047406279404
 20
32.44892369798748
 30
0.0
 10
42.27303744682396
 20
32.37383245871621
 30
0.0
  0
SPLINE
  5
1A1
330
1F
100
AcDbEntity
  8
0
370
    -3
100
AcDbSpline
210
0.0
220
0.0
230
1.0
 70
    12
 71
     3
 72
     8
 73
     4
 74
     0
 42
0.000000001
 43
0.0000000001
 40
-0.0965720612189963
 40
-0.0965720612189963
 40
-0.0965720612189963
 40
-0.0965720612189963
 40
0.0
 40
0.0
 40
0.0
 40
0.0
 10
42.27303744682396
 20
32.37383245871622
 30
0.0
 41
1.047463827611573
 10
42.30313929833557
 20
32.35499280094539
 30
0.0
 41
0.955098980548187
 10
42.31591593789069
 20
32.32264405555336
 30
0.0
 41
0.9975409759113065
 10
42.3088468777931
 20
32.28938659360648
 30
0.0
 41
1.174789813700933
  0
LINE
  5
1A2
330
1F
100
AcDbEntity
  8
0
370
    -3
100
AcDbLine
 10
42.30884687779309
 20
32.28938659360648
 30
0.0
 11
42.29618936996033
 21
32.23003558269991
 31
0.0
  0
SPLINE
  5
1A3
330
1F
100
AcDbEntity
  8
0
370
    -3
100
AcDbSpline
210
0.0
220
0.0
230
1.0
 70
     8
 71
     3
 72
     9
 73
     5
 74
     0
 42
0.000000001
 43
0.0000000001
 40
0.0606857067205103
 40
0.0606857067205103
 40
0.0606857067205103
 40
0.0606857067205103
 40
1.06068570672051
 40
2.06068570672051
 40
2.06068570672051
 40
2.06068570672051
 40
2.06068570672051
 10
42.29618936996033
 20
32.23003558269991
 30
0.0
 10
42.29183081729727
 20
32.20956099538252
 30
0.0
 10
42.26588418250878
 20
32.17256142361865
 30
0.0
 10
42.2224107689668
 20
32.16493457202021
 30
0.0
 10
42.20186550963302
 20
32.16898289687512
 30
0.0
  0
SPLINE
  5
1A4
330
1F
100
AcDbEntity
  8
0
370
    -3
100
AcDbSpline
210
0.0
220
0.0
230
1.0
 70
     8
 71
     3
 72
    12
 73
     8
 74
     0
 42
0.000000001
 43
0.0000000001
 40
2.06068570672051
 40
2.06068570672051
 40
2.06068570672051
 40
2.06068570672051
 40
3.06068570672051
 40
4.060685706720511
 40
5.060685706720511
 40
6.060685706720511
 40
7.059326857812475
 40
7.059326857812475
 40
7.059326857812475
 40
7.059326857812475
 10
42.20186550963302
 20
32.16898289687512
 30
0.0
 10
41.96565243382142
 20
32.21552732108168
 30
0.0
 10
41.48723252345775
 20
32.27856337094153
 30
0.0
 10
40.76418858782887
 20
32.28714652913169
 30
0.0
 10
40.04275337449374
 20
32.24862264871064
 30
0.0
 10
39.3235927905132
 20
32.18350707773678
 30
0.0
 10
38.84651351623768
 20
32.11980699761764
 30
0.0
 10
38.60866084028908
 20
32.08468709825073
 30
0.0
  0
SPLINE
  5
1A5
330
1F
100
AcDbEntity
  8
0
370
    -3
100
AcDbSpline
210
0.0
220
0.0
230
1.0
 70
     8
 71
     3
 72
     8
 73
     4
 74
     0
 42
0.000000001
 43
0.0000000001
 40
7.059326857812475
 40
7.059326857812475
 40
7.059326857812475
 40
7.059326857812475
 40
7.060685706720511
 40
7.060685706720511
 40
7.060685706720511
 40
7.060685706720511
 10
38.60866084028908
 20
32.08468709825073
 30
0.0
 10
38.60833719465458
 20
32.08463931067773
 30
0.0
 10
38.60801354999171
 20
32.08459151701049
 30
0.0
 10
38.60768990630038
 20
32.08454371725351
 30
0.0
  0
SPLINE
  5
1A6
330
1F
100
AcDbEntity
  8
0
370
    -3
100
AcDbSpline
210
0.0
220
0.0
230
1.0
 70
     8
 71
     3
 72
    12
 73
     8
 74
     0
 42
0.000000001
 43
0.0000000001
 40
-10.0
 40
-10.0
 40
-10.0
 40
-10.0
 40
-9.0
 40
-8.0
 40
-7.0
 40
-6.0
 40
-5.0
 40
-5.0
 40
-5.0
 40
-5.0
 10
42.24553312926813
 20
32.41692124016549
 30
0.0
 10
42.27598697338908
 20
32.43778287606528
 30
0.0
 10
42.29423828682852
 20
32.50806382797869
 30
0.0
 10
42.30428451118507
 20
32.61160018883615
 30
0.0
 10
42.29272432202862
 20
32.71645503729252
 30
0.0
 10
42.26286365446569
 20
32.81705097821025
 30
0.0
 10
42.15881776469718
 20
32.9849942803036
 30
0.0
 10
42.14072781470279
 20
33.01481535486222
 30
0.0
  0
SPLINE
  5
1A7
330
1F
100
AcDbEntity
  8
0
370
    -3
100
AcDbSpline
210
0.0
220
0.0
230
1.0
 70
     8
 71
     3
 72
    12
 73
     8
 74
     0
 42
0.000000001
 43
0.0000000001
 40
-5.0
 40
-5.0
 40
-5.0
 40
-5.0
 40
-3.999999895167561
 40
-2.999999790335123
 40
-1.999999685502685
 40
-0.999999580670246
 40
0.0
 40
0.0
 40
0.0
 40
0.0
 10
42.14072781470279
 20
33.01481535486222
 30
0.0
 10
42.07983165172917
 20
33.11520197931034
 30
0.0
 10
41.84033453859053
 20
33.39338175037801
 30
0.0
 10
41.52210566406478
 20
33.55434040936382
 30
0.0
 10
41.17754763372108
 20
33.63473583033291
 30
0.0
 10
40.82641883207168
 20
33.66997402994301
 30
0.0
 10
40.59129923545163
 20
33.67351471676213
 30
0.0
 10
40.47381745336227
 20
33.67237820659469
 30
0.0
  0
SPLINE
  5
1A8
330
1F
100
AcDbEntity
  8
0
370
    -3
100
AcDbSpline
210
0.0
220
0.0
230
1.0
 70
     8
 71
     3
 72
     9
 73
     5
 74
     0
 42
0.000000001
 43
0.0000000001
 40
0.0
 40
0.0
 40
0.0
 40
0.0
 40
1.0
 40
1.130190443376115
 40
1.130190443376115
 40
1.130190443376115
 40
1.130190443376115
 10
40.47381745336227
 20
33.67237820659469
 30
0.0
 10
39.69749596835481
 20
33.66601213471723
 30
0.0
 10
38.82160890603893
 20
33.61123410458504
 30
0.0
 10
37.94736900519314
 20
33.53877111994338
 30
0.0
 10
37.8466813194826
 20
33.53022032132804
 30
0.0
  0
SPLINE
  5
1A9
330
1F
100
AcDbEntity
  8
0
370
    -3
100
AcDbSpline
210
0.0
220
0.0
230
1.0
 70
     8
 71
     3
 72
    11
 73
     7
 74
     0
 42
0.000000001
 43
0.0000000001
 40
1.656119473581992
 40
1.656119473581992
 40
1.656119473581992
 40
1.656119473581992
 40
2.0
 40
3.0
 40
4.0
 40
5.0
 40
5.0
 40
5.0
 40
5.0
 10
36.62717661956805
 20
33.41867970485822
 30
0.0
 10
36.36150292629276
 20
33.39309191938612
 30
0.0
 10
35.32345052171971
 20
33.29097399350283
 30
0.0
 10
33.5128851567878
 20
33.11369014129006
 30
0.0
 10
31.19277586319527
 20
32.91543906627902
 30
0.0
 10
29.6357839396498
 20
32.92573291189078
 30
0.0
 10
28.86723976940496
 20
33.04407025342779
 30
0.0
  0
ARC
  5
1AA
330
1F
100
AcDbEntity
  8
0
370
    -3
100
AcDbCircle
 10
27.32544971745736
 20
23.03088472149584
 30
0.0
 40
10.13118951856968
100
AcDbArc
 50
81.24657139498426
 51
85.56110944028453
  0
SPLINE
  5
1AB
330
1F
100
AcDbEntity
  8
Make2D$Visible$Curves
 62
    18
420
        0
370
    -3
100
AcDbSpline
210
0.0
220
0.0
230
1.0
 70
     8
 71
     3
 72
    12
 73
     8
 74
     0
 42
0.000000001
 43
0.0000000001
 40
0.0000021196836461
 40
0.0000021196836461
 40
0.0000021196836461
 40
0.0000021196836461
 40
1.0
 40
2.0
 40
3.0
 40
4.0
 40
4.976469524593298
 40
4.976469524593298
 40
4.976469524593298
 40
4.976469524593298
 10
25.62589479794048
 20
32.25538877960656
 30
0.0
 10
25.40306631196495
 20
32.57641285150073
 30
0.0
 10
25.00982891490293
 20
33.25336931472407
 30
0.0
 10
24.54607274083006
 20
34.33191177104618
 30
0.0
 10
24.20700595207114
 20
35.4553522298948
 30
0.0
 10
23.93260128528397
 20
36.58343007297857
 30
0.0
 10
23.7167135512509
 20
37.32980460419324
 30
0.0
 10
23.52371403834343
 20
37.66034870917606
 30
0.0
  0
SPLINE
  5
1AC
330
1F
100
AcDbEntity
  8
Make2D$Visible$Curves
 62
    18
420
        0
370
    -3
100
AcDbSpline
210
0.0
220
0.0
230
1.0
 70
     8
 71
     3
 72
     8
 73
     4
 74
     0
 42
0.000000001
 43
0.0000000001
 40
4.976469524593298
 40
4.976469524593298
 40
4.976469524593298
 40
4.976469524593298
 40
5.970409187098653
 40
5.970409187098653
 40
5.970409187098653
 40
5.970409187098653
 10
23.52371403834343
 20
37.66034870917606
 30
0.0
 10
23.39129757312151
 20
37.69489494804296
 30
0.0
 10
23.28055791160702
 20
37.72781948911013
 30
0.0
 10
23.12418836982118
 20
37.75836593479746
 30
0.0
  0
SPLINE
  5
1AD
330
1F
100
AcDbEntity
  8
Make2D$Visible$Curves
 62
    18
420
        0
370
    -3
100
AcDbSpline
210
0.0
220
0.0
230
1.0
 70
     8
 71
     3
 72
    10
 73
     6
 74
     0
 42
0.000000001
 43
0.0000000001
 40
5.970409187098653
 40
5.970409187098653
 40
5.970409187098653
 40
5.970409187098653
 40
6.970409187098653
 40
7.970409187098657
 40
8.970409187098657
 40
8.970409187098657
 40
8.970409187098657
 40
8.970409187098657
 10
23.12418836982118
 20
37.75836593479746
 30
0.0
 10
23.04238520961508
 20
37.78002361888259
 30
0.0
 10
22.88769531191247
 20
37.85649631556502
 30
0.0
 10
22.71775048445144
 20
38.05175267801957
 30
0.0
 10
22.66373837718146
 20
38.2157044122884
 30
0.0
 10
22.6537247127188
 20
38.29971886933841
 30
0.0
  0
SPLINE
  5
1AE
330
1F
100
AcDbEntity
  8
Make2D$Visible$Curves
 62
    18
420
        0
370
    -3
100
AcDbSpline
210
0.0
220
0.0
230
1.0
 70
     8
 71
     3
 72
     8
 73
     4
 74
     0
 42
0.000000001
 43
0.0000000001
 40
8.970409187098657
 40
8.970409187098657
 40
8.970409187098657
 40
8.970409187098657
 40
9.354498396894783
 40
9.354498396894783
 40
9.354498396894783
 40
9.354498396894783
 10
22.6537247127188
 20
38.29971886933841
 30
0.0
 10
22.63838070040964
 20
38.42771482724501
 30
0.0
 10
22.62246962296382
 20
38.55465687314789
 30
0.0
 10
22.6058927398937
 20
38.68081395051439
 30
0.0
  0
SPLINE
  5
1AF
330
1F
100
AcDbEntity
  8
Make2D$Visible$Curves
 62
    18
420
        0
370
    -3
100
AcDbSpline
210
0.0
220
0.0
230
1.0
 70
     8
 71
     3
 72
     8
 73
     4
 74
     0
 42
0.000000001
 43
0.0000000001
 40
9.354498396894783
 40
9.354498396894783
 40
9.354498396894783
 40
9.354498396894783
 40
10.35449839689478
 40
10.35449839689478
 40
10.35449839689478
 40
10.35449839689478
 10
22.6058927398937
 20
38.68081395051439
 30
0.0
 10
22.56449362091305
 20
38.99587872077647
 30
0.0
 10
22.98912967243024
 20
39.21054255044155
 30
0.0
 10
23.16098511430516
 20
39.17515376424905
 30
0.0
  0
SPLINE
  5
1B0
330
1F
100
AcDbEntity
  8
Make2D$Visible$Curves
 62
    18
420
        0
370
    -3
100
AcDbSpline
210
0.0
220
0.0
230
1.0
 70
     8
 71
     3
 72
     8
 73
     4
 74
     0
 42
0.000000001
 43
0.0000000001
 40
10.35449839689478
 40
10.35449839689478
 40
10.35449839689478
 40
10.35449839689478
 40
11.35449839689479
 40
11.35449839689479
 40
11.35449839689479
 40
11.35449839689479
 10
23.16098511430516
 20
39.17515376424905
 30
0.0
 10
23.42707414136058
 20
39.12036022623884
 30
0.0
 10
23.68770141702734
 20
39.04257497357273
 30
0.0
 10
23.95186413654611
 20
38.97944184679179
 30
0.0
  0
SPLINE
  5
1B1
330
1F
100
AcDbEntity
  8
Make2D$Visible$Curves
 62
    18
420
        0
370
    -3
100
AcDbSpline
210
0.0
220
0.0
230
1.0
 70
     8
 71
     3
 72
     8
 73
     4
 74
     0
 42
0.000000001
 43
0.0000000001
 40
11.35449839689479
 40
11.35449839689479
 40
11.35449839689479
 40
11.35449839689479
 40
12.35449839689479
 40
12.35449839689479
 40
12.35449839689479
 40
12.35449839689479
 10
23.95186413654611
 20
38.97944184679179
 30
0.0
 10
24.24692222655403
 20
38.90892493267859
 30
0.0
 10
24.77068484787867
 20
38.84443838707387
 30
0.0
 10
25.07329743245495
 20
38.80893676622459
 30
0.0
  0
SPLINE
  5
1B2
330
1F
100
AcDbEntity
  8
Make2D$Visible$Curves
 62
    18
420
        0
370
    -3
100
AcDbSpline
210
0.0
220
0.0
230
1.0
 70
     8
 71
     2
 72
    13
 73
    10
 74
     0
 42
0.000000001
 43
0.0000000001
 40
12.35449839689479
 40
12.35449839689479
 40
12.35449839689479
 40
13.35449839689479
 40
14.35449839689479
 40
15.35449839689478
 40
16.35449839689478
 40
17.35449839689478
 40
18.35449839689478
 40
19.35449839689478
 40
20.35449839689478
 40
20.35449839689478
 40
20.35449839689478
 10
25.07329743245495
 20
38.80893676622459
 30
0.0
 10
25.53558111868585
 20
38.75470300005006
 30
0.0
 10
26.46096123252889
 20
38.65342044123515
 30
0.0
 10
27.38980893004288
 20
38.58989162301013
 30
0.0
 10
28.31821860764111
 20
38.52198184740196
 30
0.0
 10
29.24658710278504
 20
38.45322255190757
 30
0.0
 10
30.17456134531844
 20
38.37933595523198
 30
0.0
 10
31.10183990473865
 20
38.29712489265452
 30
0.0
 10
32.11523818387121
 20
38.19465525290939
 30
0.0
 10
32.57754036943328
 20
38.14050539246355
 30
0.0
  0
SPLINE
  5
1B3
330
1F
100
AcDbEntity
  8
Make2D$Visible$Curves
 62
    18
420
        0
370
    -3
100
AcDbSpline
210
0.0
220
0.0
230
1.0
 70
     8
 71
     2
 72
    15
 73
    12
 74
     0
 42
0.000000001
 43
0.0000000001
 40
20.35449839689478
 40
20.35449839689478
 40
20.35449839689478
 40
21.35449839689478
 40
22.35449839689478
 40
23.35449839689478
 40
24.35449839689478
 40
25.35449839689478
 40
26.35449839689478
 40
27.35449839689478
 40
28.35449839689478
 40
29.35449839689478
 40
30.35449839689478
 40
30.35449839689478
 40
30.35449839689478
 10
32.57754036943328
 20
38.14050539246355
 30
0.0
 10
32.89459913468852
 20
38.10336802122049
 30
0.0
 10
33.52802381472981
 20
38.02337216496673
 30
0.0
 10
34.16012183956224
 20
37.93328766731204
 30
0.0
 10
34.78861030158413
 20
37.82035861423739
 30
0.0
 10
35.40995037631797
 20
37.67199682263271
 30
0.0
 10
36.01077555662664
 20
37.45210745143194
 30
0.0
 10
36.55705853999245
 20
37.11523815093329
 30
0.0
 10
36.98725605836427
 20
36.63775413277393
 30
0.0
 10
37.27466556458108
 20
36.06450123807644
 30
0.0
 10
37.45377553631923
 20
35.45055577651343
 30
0.0
 10
37.50908899578565
 20
35.13511491909213
 30
0.0
  0
SPLINE
  5
1B4
330
1F
100
AcDbEntity
  8
Make2D$Visible$Curves
 62
    18
420
        0
370
    -3
100
AcDbSpline
210
0.0
220
0.0
230
1.0
 70
     8
 71
     2
 72
    12
 73
     9
 74
     0
 42
0.000000001
 43
0.0000000001
 40
30.35449839689478
 40
30.35449839689478
 40
30.35449839689478
 40
31.35449839689478
 40
32.35449839689478
 40
33.35449839689478
 40
34.35449839689478
 40
35.35449839689478
 40
36.35449839689478
 40
37.35449839689478
 40
37.35449839689478
 40
37.35449839689478
 10
37.50908899578565
 20
35.13511491909213
 30
0.0
 10
37.53959151077797
 20
34.96260667213163
 30
0.0
 10
37.60357978242192
 20
34.61969738573171
 30
0.0
 10
37.67164652588667
 20
34.27757162285465
 30
0.0
 10
37.74504250582996
 20
33.93654707759319
 30
0.0
 10
37.82683239894672
 20
33.59739919300652
 30
0.0
 10
37.92258223571991
 20
33.26196869319101
 30
0.0
 10
38.04065540911853
 20
32.93307329322931
 30
0.0
 10
38.1269693320337
 20
32.78109664940081
 30
0.0
  0
SPLINE
  5
1B5
330
1F
100
AcDbEntity
  8
Make2D$Visible$Curves
 62
    18
420
        0
370
    -3
100
AcDbSpline
210
0.0
220
0.0
230
1.0
 70
     8
 71
     3
 72
     8
 73
     4
 74
     0
 42
0.000000001
 43
0.0000000001
 40
37.35449839689478
 40
37.35449839689478
 40
37.35449839689478
 40
37.35449839689478
 40
38.35449839689478
 40
38.35449839689478
 40
38.35449839689478
 40
38.35449839689478
 10
38.1269693320337
 20
32.78109664940081
 30
0.0
 10
38.19461595176182
 20
32.66198833077266
 30
0.0
 10
38.31292828263082
 20
32.45352796429412
 30
0.0
 10
38.38165934071179
 20
32.33504704152737
 30
0.0
  0
SPLINE
  5
1B6
330
1F
100
AcDbEntity
  8
Make2D$Visible$Curves
 62
    18
420
        0
370
    -3
100
AcDbSpline
210
0.0
220
0.0
230
1.0
 70
     8
 71
     3
 72
     9
 73
     5
 74
     0
 42
0.000000001
 43
0.0000000001
 40
38.35449839689478
 40
38.35449839689478
 40
38.35449839689478
 40
38.35449839689478
 40
39.35467420477084
 40
40.35449839689478
 40
40.35449839689478
 40
40.35449839689478
 40
40.35449839689478
 10
38.38165934071179
 20
32.33504704152737
 30
0.0
 10
38.41123555934675
 20
32.28406255542079
 30
0.0
 10
38.472939071658
 20
32.18693382255469
 30
0.0
 10
38.55521426685465
 20
32.09943678322936
 30
0.0
 10
38.61247464288013
 20
32.08358303880883
 30
0.0
  0
SPLINE
  5
1B7
330
1F
100
AcDbEntity
  8
Make2D$Visible$Curves
 62
    18
420
        0
370
    -3
100
AcDbSpline
210
0.0
220
0.0
230
1.0
 70
     8
 71
     3
 72
     9
 73
     5
 74
     0
 42
0.000000001
 43
0.0000000001
 40
40.35449839689478
 40
40.35449839689478
 40
40.35449839689478
 40
40.35449839689478
 40
41.35365884756742
 40
42.35449839689478
 40
42.35449839689478
 40
42.35449839689478
 40
42.35449839689478
 10
38.61247464288013
 20
32.08358303880883
 30
0.0
 10
38.62495698176696
 20
32.08244477210862
 30
0.0
 10
38.6489891256459
 20
32.07137095188619
 30
0.0
 10
38.6612542189043
 20
32.04791917529292
 30
0.0
 10
38.66301339421153
 20
32.03548758152746
 30
0.0
  0
SPLINE
  5
1B8
330
1F
100
AcDbEntity
  8
Make2D$Visible$Curves
 62
    18
420
        0
370
    -3
100
AcDbSpline
210
0.0
220
0.0
230
1.0
 70
     8
 71
     3
 72
     9
 73
     5
 74
     0
 42
0.000000001
 43
0.0000000001
 40
42.35449839689478
 40
42.35449839689478
 40
42.35449839689478
 40
42.35449839689478
 40
43.35449839689478
 40
44.35449839689478
 40
44.35449839689478
 40
44.35449839689478
 40
44.35449839689478
 10
38.66301339421153
 20
32.03548758152746
 30
0.0
 10
38.66964903626553
 20
31.9950130182069
 30
0.0
 10
38.67932862541164
 20
31.91305521180301
 30
0.0
 10
38.66906237565775
 20
31.83098657764347
 30
0.0
 10
38.66169573450082
 20
31.7906702696736
 30
0.0
  0
SPLINE
  5
1B9
330
1F
100
AcDbEntity
  8
Make2D$Visible$Curves
 62
    18
420
        0
370
    -3
100
AcDbSpline
210
0.0
220
0.0
230
1.0
 70
    24
 71
     3
 72
     8
 73
     4
 74
     0
 42
0.000000001
 43
0.0000000001
 40
44.35449839689478
 40
44.35449839689478
 40
44.35449839689478
 40
44.35449839689478
 40
44.35450656707094
 40
44.35450656707094
 40
44.35450656707094
 40
44.35450656707094
 10
38.66169573450082
 20
31.7906702696736
 30
0.0
 10
38.66169559277765
 20
31.79066954635512
 30
0.0
 10
38.66169545105367
 20
31.79066882303678
 30
0.0
 10
38.66169530932893
 20
31.79066809971862
 30
0.0
  0
SPLINE
  5
1BA
330
1F
100
AcDbEntity
  8
0
370
    -3
100
AcDbSpline
210
0.0
220
0.0
230
1.0
 70
     8
 71
     3
 72
    10
 73
     6
 74
     0
 42
0.000000001
 43
0.0000000001
 40
0.0
 40
0.0
 40
0.0
 40
0.0
 40
1.0
 40
2.0
 40
3.0
 40
3.0
 40
3.0
 40
3.0
 10
31.23691198845728
 20
30.6250801815801
 30
0.0
 10
31.09132376443691
 20
30.6037813177694
 30
0.0
 10
30.79973472793273
 20
30.56397711898998
 30
0.0
 10
30.36109080918891
 20
30.51429023625116
 30
0.0
 10
30.06786932885959
 20
30.48904119685696
 30
0.0
 10
29.92109453999859
 20
30.47869509305207
 30
0.0
  0
ENDSEC
  0
SECTION
  2
OBJECTS
  0
DICTIONARY
  5
C
330
0
100
AcDbDictionary
281
     1
  3
ACAD_DETAILVIEWSTYLE
350
1F6
  3
ACAD_GROUP
350
D
  3
ACAD_LAYOUT
350
1A
  3
ACAD_MATERIAL
350
43
  3
ACAD_MLEADERSTYLE
350
6B
  3
ACAD_MLINESTYLE
350
17
  3
ACAD_PLOTSETTINGS
350
19
  3
ACAD_PLOTSTYLENAME
350
E
  3
ACAD_SCALELIST
350
47
  3
ACAD_SECTIONVIEWSTYLE
350
1F7
  3
ACAD_TABLESTYLE
350
69
  3
ACAD_VISUALSTYLE
350
2A
  3
ACDB_RECOMPOSE_DATA
350
1F3
  3
AcDbVariableDictionary
350
1BB
  0
SUN
  5
6D
330
29
100
AcDbSun
 90
        1
290
     0
 63
     7
421
 16777215
 40
1.0
291
     1
 91
  2455826
 92
 54000000
292
     0
 70
     2
 71
   256
280
     1
  0
DICTIONARY
  5
1F6
102
{ACAD_REACTORS
330
C
102
}
330
C
100
AcDbDictionary
281
     1
  0
DICTIONARY
  5
D
102
{ACAD_REACTORS
330
C
102
}
330
C
100
AcDbDictionary
281
     1
  0
DICTIONARY
  5
1A
102
{ACAD_REACTORS
330
C
102
}
330
C
100
AcDbDictionary
281
     1
  3
Layout1
350
1E
  3
Layout2
350
26
  3
Model
350
22
  0
DICTIONARY
  5
43
102
{ACAD_REACTORS
330
C
102
}
330
C
100
AcDbDictionary
281
     1
  3
ByBlock
350
45
  3
ByLayer
350
44
  3
Global
350
46
  0
DICTIONARY
  5
6B
102
{ACAD_REACTORS
330
C
102
}
330
C
100
AcDbDictionary
281
     1
  3
Standard
350
6C
  0
DICTIONARY
  5
17
102
{ACAD_REACTORS
330
C
102
}
330
C
100
AcDbDictionary
281
     1
  3
Standard
350
18
  0
DICTIONARY
  5
19
102
{ACAD_REACTORS
330
C
102
}
330
C
100
AcDbDictionary
281
     1
  0
ACDBDICTIONARYWDFLT
  5
E
102
{ACAD_REACTORS
330
C
102
}
330
C
100
AcDbDictionary
281
     1
  3
Normal
350
F
100
AcDbDictionaryWithDefault
340
F
  0
DICTIONARY
  5
47
102
{ACAD_REACTORS
330
C
102
}
330
C
100
AcDbDictionary
281
     1
  3
A0
350
48
  3
A1
350
49
  3
A2
350
4A
  3
A3
350
4B
  3
A4
350
4C
  3
A5
350
4D
  3
A6
350
4E
  3
A7
350
4F
  3
A8
350
50
  3
A9
350
51
  3
B0
350
52
  3
B1
350
53
  3
B2
350
54
  3
B3
350
55
  3
B4
350
56
  3
B5
350
57
  3
B6
350
58
  3
B7
350
59
  3
B8
350
5A
  3
B9
350
5B
  3
C0
350
5C
  3
C1
350
5D
  3
C2
350
5E
  3
C3
350
5F
  3
C4
350
60
  3
C5
350
61
  3
C6
350
62
  3
C7
350
63
  3
C8
350
64
  3
C9
350
65
  3
D0
350
66
  3
D1
350
67
  3
D2
350
68
  0
DICTIONARY
  5
1F7
102
{ACAD_REACTORS
330
C
102
}
330
C
100
AcDbDictionary
281
     1
  0
DICTIONARY
  5
69
102
{ACAD_REACTORS
330
C
102
}
330
C
100
AcDbDictionary
281
     1
  3
Standard
350
6A
  0
DICTIONARY
  5
2A
102
{ACAD_REACTORS
330
C
102
}
330
C
100
AcDbDictionary
281
     1
  3
2dWireframe
350
2F
  3
Basic
350
32
  3
Brighten
350
36
  3
ColorChange
350
3A
  3
Conceptual
350
34
  3
Dim
350
35
  3
EdgeColorOff
350
3D
  3
Facepattern
350
39
  3
Flat
350
2B
  3
FlatWithEdges
350
2C
  3
Gouraud
350
2D
  3
GouraudWithEdges
350
2E
  3
Hidden
350
31
  3
JitterOff
350
3B
  3
Linepattern
350
38
  3
OverhangOff
350
3C
  3
Realistic
350
33
  3
Shaded
350
42
  3
Shaded with edges
350
41
  3
Shades of Gray
350
3E
  3
Sketchy
350
3F
  3
Thicken
350
37
  3
Wireframe
350
30
  3
X-Ray
350
40
  0
XRECORD
  5
1F3
102
{ACAD_REACTORS
330
C
102
}
330
C
100
AcDbXrecord
280
     1
 90
        1
330
6A
  0
DICTIONARY
  5
1BB
102
{ACAD_REACTORS
330
C
102
}
330
C
100
AcDbDictionary
281
     1
  3
CANNOSCALE
350
1BC
  3
CMLEADERSTYLE
350
1F5
  3
CTABLESTYLE
350
1F4
  3
XCLIPFRAME
350
1BD
  0
LAYOUT
  5
1E
102
{ACAD_REACTORS
330
1A
102
}
330
1A
100
AcDbPlotSettings
  1

  2
none_device
  4

  6

 40
0.0
 41
0.0
 42
0.0
 43
0.0
 44
0.0
 45
0.0
 46
0.0
 47
0.0
 48
0.0
 49
0.0
140
0.0
141
0.0
142
1.0
143
1.0
 70
   688
 72
     0
 73
     0
 74
     5
  7

 75
    16
 76
     0
 77
     2
 78
   300
147
1.0
148
0.0
149
0.0
100
AcDbLayout
  1
Layout1
 70
     1
 71
     1
 10
0.0
 20
0.0
 11
12.0
 21
9.0
 12
0.0
 22
0.0
 32
0.0
 14
1.000000000000000E+20
 24
1.000000000000000E+20
 34
1.000000000000000E+20
 15
-1.000000000000000E+20
 25
-1.000000000000000E+20
 35
-1.000000000000000E+20
146
0.0
 13
0.0
 23
0.0
 33
0.0
 16
1.0
 26
0.0
 36
0.0
 17
0.0
 27
1.0
 37
0.0
 76
     0
330
1B
  0
LAYOUT
  5
26
102
{ACAD_REACTORS
330
1A
102
}
330
1A
100
AcDbPlotSettings
  1

  2
none_device
  4

  6

 40
0.0
 41
0.0
 42
0.0
 43
0.0
 44
0.0
 45
0.0
 46
0.0
 47
0.0
 48
0.0
 49
0.0
140
0.0
141
0.0
142
1.0
143
1.0
 70
   688
 72
     0
 73
     0
 74
     5
  7

 75
    16
 76
     0
 77
     2
 78
   300
147
1.0
148
0.0
149
0.0
100
AcDbLayout
  1
Layout2
 70
     1
 71
     2
 10
0.0
 20
0.0
 11
0.0
 21
0.0
 12
0.0
 22
0.0
 32
0.0
 14
0.0
 24
0.0
 34
0.0
 15
0.0
 25
0.0
 35
0.0
146
0.0
 13
0.0
 23
0.0
 33
0.0
 16
1.0
 26
0.0
 36
0.0
 17
0.0
 27
1.0
 37
0.0
 76
     0
330
23
  0
LAYOUT
  5
22
102
{ACAD_REACTORS
330
1A
102
}
330
1A
100
AcDbPlotSettings
  1

  2
none_device
  4
Letter_(8.50_x_11.00_Inches)
  6

 40
6.35
 41
6.35
 42
6.35000508
 43
6.35000508
 44
215.9
 45
279.4
 46
0.0
 47
0.0
 48
0.0
 49
0.0
140
0.0
141
0.0
142
1.0
143
1.0
 70
  1712
 72
     0
 73
     0
 74
     0
  7

 75
     0
 76
     0
 77
     2
 78
   300
147
1.0
148
0.0
149
0.0
100
AcDbLayout
  1
Model
 70
     1
 71
     0
 10
0.0
 20
0.0
 11
12.0
 21
9.0
 12
0.0
 22
0.0
 32
0.0
 14
1.000000000000000E+20
 24
1.000000000000000E+20
 34
1.000000000000000E+20
 15
-1.000000000000000E+20
 25
-1.000000000000000E+20
 35
-1.000000000000000E+20
146
0.0
 13
0.0
 23
0.0
 33
0.0
 16
1.0
 26
0.0
 36
0.0
 17
0.0
 27
1.0
 37
0.0
 76
     0
330
1F
331
29
  0
MATERIAL
  5
45
102
{ACAD_REACTORS
330
43
102
}
330
43
100
AcDbMaterial
  1
ByBlock
 72
     1
 94
      127
  0
MATERIAL
  5
44
102
{ACAD_REACTORS
330
43
102
}
330
43
100
AcDbMaterial
  1
ByLayer
 72
     1
 94
      127
  0
MATERIAL
  5
46
102
{ACAD_REACTORS
330
43
102
}
330
43
100
AcDbMaterial
  1
Global
 72
     1
 94
      127
  0
MLEADERSTYLE
  5
6C
102
{ACAD_REACTORS
330
6B
102
}
102
{ACAD_XDICTIONARY
360
1F1
102
}
330
6B
100
AcDbMLeaderStyle
170
     2
171
     1
172
     0
 90
        2
 40
0.0
 41
0.0
173
     1
 91
-1056964608
340
14
 92
       -2
290
     1
 42
0.09
291
     1
 43
0.36
  3
Standard
341
0
 44
0.18
300

342
11
174
     1
178
     6
175
     1
176
     0
 93
-1056964608
 45
0.18
292
     0
297
     0
 46
0.18
343
0
 94
-1056964608
 47
1.0
 49
1.0
140
1.0
293
     1
141
0.0
294
     1
177
     0
142
1.0
295
     0
296
     0
143
0.125
1001
ACAD_MLEADERVER
1070
     2
  0
MLINESTYLE
  5
18
102
{ACAD_REACTORS
330
17
102
}
330
17
100
AcDbMlineStyle
  2
Standard
 70
     0
  3

 62
   256
 51
90.0
 52
90.0
 71
     2
 49
0.5
 62
   256
  6
BYLAYER
 49
-0.5
 62
   256
  6
BYLAYER
  0
ACDBPLACEHOLDER
  5
F
102
{ACAD_REACTORS
330
E
102
}
330
E
  0
SCALE
  5
48
102
{ACAD_REACTORS
330
47
102
}
330
47
100
AcDbScale
 70
     0
300
1:1
140
1.0
141
1.0
290
     1
  0
SCALE
  5
49
102
{ACAD_REACTORS
330
47
102
}
330
47
100
AcDbScale
 70
     0
300
1:2
140
1.0
141
2.0
290
     0
  0
SCALE
  5
4A
102
{ACAD_REACTORS
330
47
102
}
330
47
100
AcDbScale
 70
     0
300
1:4
140
1.0
141
4.0
290
     0
  0
SCALE
  5
4B
102
{ACAD_REACTORS
330
47
102
}
330
47
100
AcDbScale
 70
     0
300
1:5
140
1.0
141
5.0
290
     0
  0
SCALE
  5
4C
102
{ACAD_REACTORS
330
47
102
}
330
47
100
AcDbScale
 70
     0
300
1:8
140
1.0
141
8.0
290
     0
  0
SCALE
  5
4D
102
{ACAD_REACTORS
330
47
102
}
330
47
100
AcDbScale
 70
     0
300
1:10
140
1.0
141
10.0
290
     0
  0
SCALE
  5
4E
102
{ACAD_REACTORS
330
47
102
}
330
47
100
AcDbScale
 70
     0
300
1:16
140
1.0
141
16.0
290
     0
  0
SCALE
  5
4F
102
{ACAD_REACTORS
330
47
102
}
330
47
100
AcDbScale
 70
     0
300
1:20
140
1.0
141
20.0
290
     0
  0
SCALE
  5
50
102
{ACAD_REACTORS
330
47
102
}
330
47
100
AcDbScale
 70
     0
300
1:30
140
1.0
141
30.0
290
     0
  0
SCALE
  5
51
102
{ACAD_REACTORS
330
47
102
}
330
47
100
AcDbScale
 70
     0
300
1:40
140
1.0
141
40.0
290
     0
  0
SCALE
  5
52
102
{ACAD_REACTORS
330
47
102
}
330
47
100
AcDbScale
 70
     0
300
1:50
140
1.0
141
50.0
290
     0
  0
SCALE
  5
53
102
{ACAD_REACTORS
330
47
102
}
330
47
100
AcDbScale
 70
     0
300
1:100
140
1.0
141
100.0
290
     0
  0
SCALE
  5
54
102
{ACAD_REACTORS
330
47
102
}
330
47
100
AcDbScale
 70
     0
300
2:1
140
2.0
141
1.0
290
     0
  0
SCALE
  5
55
102
{ACAD_REACTORS
330
47
102
}
330
47
100
AcDbScale
 70
     0
300
4:1
140
4.0
141
1.0
290
     0
  0
SCALE
  5
56
102
{ACAD_REACTORS
330
47
102
}
330
47
100
AcDbScale
 70
     0
300
8:1
140
8.0
141
1.0
290
     0
  0
SCALE
  5
57
102
{ACAD_REACTORS
330
47
102
}
330
47
100
AcDbScale
 70
     0
300
10:1
140
10.0
141
1.0
290
     0
  0
SCALE
  5
58
102
{ACAD_REACTORS
330
47
102
}
330
47
100
AcDbScale
 70
     0
300
100:1
140
100.0
141
1.0
290
     0
  0
SCALE
  5
59
102
{ACAD_REACTORS
330
47
102
}
330
47
100
AcDbScale
 70
     0
300
1/128" = 1'-0"
140
0.0078125
141
12.0
290
     0
  0
SCALE
  5
5A
102
{ACAD_REACTORS
330
47
102
}
330
47
100
AcDbScale
 70
     0
300
1/64" = 1'-0"
140
0.015625
141
12.0
290
     0
  0
SCALE
  5
5B
102
{ACAD_REACTORS
330
47
102
}
330
47
100
AcDbScale
 70
     0
300
1/32" = 1'-0"
140
0.03125
141
12.0
290
     0
  0
SCALE
  5
5C
102
{ACAD_REACTORS
330
47
102
}
330
47
100
AcDbScale
 70
     0
300
1/16" = 1'-0"
140
0.0625
141
12.0
290
     0
  0
SCALE
  5
5D
102
{ACAD_REACTORS
330
47
102
}
330
47
100
AcDbScale
 70
     0
300
3/32" = 1'-0"
140
0.09375
141
12.0
290
     0
  0
SCALE
  5
5E
102
{ACAD_REACTORS
330
47
102
}
330
47
100
AcDbScale
 70
     0
300
1/8" = 1'-0"
140
0.125
141
12.0
290
     0
  0
SCALE
  5
5F
102
{ACAD_REACTORS
330
47
102
}
330
47
100
AcDbScale
 70
     0
300
3/16" = 1'-0"
140
0.1875
141
12.0
290
     0
  0
SCALE
  5
60
102
{ACAD_REACTORS
330
47
102
}
330
47
100
AcDbScale
 70
     0
300
1/4" = 1'-0"
140
0.25
141
12.0
290
     0
  0
SCALE
  5
61
102
{ACAD_REACTORS
330
47
102
}
330
47
100
AcDbScale
 70
     0
300
3/8" = 1'-0"
140
0.375
141
12.0
290
     0
  0
SCALE
  5
62
102
{ACAD_REACTORS
330
47
102
}
330
47
100
AcDbScale
 70
     0
300
1/2" = 1'-0"
140
0.5
141
12.0
290
     0
  0
SCALE
  5
63
102
{ACAD_REACTORS
330
47
102
}
330
47
100
AcDbScale
 70
     0
300
3/4" = 1'-0"
140
0.75
141
12.0
290
     0
  0
SCALE
  5
64
102
{ACAD_REACTORS
330
47
102
}
330
47
100
AcDbScale
 70
     0
300
1" = 1'-0"
140
1.0
141
12.0
290
     0
  0
SCALE
  5
65
102
{ACAD_REACTORS
330
47
102
}
330
47
100
AcDbScale
 70
     0
300
1-1/2" = 1'-0"
140
1.5
141
12.0
290
     0
  0
SCALE
  5
66
102
{ACAD_REACTORS
330
47
102
}
330
47
100
AcDbScale
 70
     0
300
3" = 1'-0"
140
3.0
141
12.0
290
     0
  0
SCALE
  5
67
102
{ACAD_REACTORS
330
47
102
}
330
47
100
AcDbScale
 70
     0
300
6" = 1'-0"
140
6.0
141
12.0
290
     0
  0
SCALE
  5
68
102
{ACAD_REACTORS
330
47
102
}
330
47
100
AcDbScale
 70
     0
300
1'-0" = 1'-0"
140
12.0
141
12.0
290
     0
  0
TABLESTYLE
  5
6A
102
{ACAD_REACTORS
330
69
102
}
102
{ACAD_XDICTIONARY
360
1EE
102
}
330
69
100
AcDbTableStyle
  3
Standard
 70
     0
 71
     0
 40
0.06
 41
0.06
280
     0
281
     0
  7
Standard
140
0.18
170
     2
 62
     0
 63
   257
283
     0
 90
        4
 91
        0
  1

274
    -2
284
     1
 64
     0
275
    -2
285
     1
 65
     0
276
    -2
286
     1
 66
     0
277
    -2
287
     1
 67
     0
278
    -2
288
     1
 68
     0
279
    -2
289
     1
 69
     0
  7
Standard
140
0.25
170
     5
 62
     0
 63
   257
283
     0
 90
        4
 91
        0
  1

274
    -2
284
     1
 64
     0
275
    -2
285
     1
 65
     0
276
    -2
286
     1
 66
     0
277
    -2
287
     1
 67
     0
278
    -2
288
     1
 68
     0
279
    -2
289
     1
 69
     0
  7
Standard
140
0.18
170
     5
 62
     0
 63
   257
283
     0
 90
        4
 91
        0
  1

274
    -2
284
     1
 64
     0
275
    -2
285
     1
 65
     0
276
    -2
286
     1
 66
     0
277
    -2
287
     1
 67
     0
278
    -2
288
     1
 68
     0
279
    -2
289
     1
 69
     0
  0
VISUALSTYLE
  5
2F
102
{ACAD_REACTORS
330
2A
102
}
102
{ACAD_XDICTIONARY
360
1C6
102
}
330
2A
100
AcDbVisualStyle
  2
2dWireframe
 70
     4
 71
     0
 72
     2
 73
     0
 90
        0
 40
0.6
 41
30.0
 62
     5
 63
     7
421
 16777215
 74
     1
 91
        4
 64
     7
 65
   257
 75
     1
175
     1
 42
1.0
 92
        0
 66
   257
 43
1.0
 76
     1
 77
     6
 78
     2
 67
     7
 79
     5
170
     0
171
     0
290
     0
174
     0
 93
        1
 44
0.0
173
     0
291
     0
 45
0.0
  0
VISUALSTYLE
  5
32
102
{ACAD_REACTORS
330
2A
102
}
102
{ACAD_XDICTIONARY
360
1CC
102
}
330
2A
100
AcDbVisualStyle
  2
Basic
 70
     7
 71
     1
 72
     0
 73
     1
 90
        0
 40
0.6
 41
30.0
 62
     5
 63
     7
421
 16777215
 74
     0
 91
        4
 64
     7
 65
   257
 75
     1
175
     1
 42
1.0
 92
        8
 66
     7
 43
1.0
 76
     1
 77
     6
 78
     2
 67
     7
 79
     5
170
     0
171
     0
290
     0
174
     0
 93
        1
 44
0.0
173
     0
291
     1
 45
0.0
  0
VISUALSTYLE
  5
36
102
{ACAD_REACTORS
330
2A
102
}
102
{ACAD_XDICTIONARY
360
1D4
102
}
330
2A
100
AcDbVisualStyle
  2
Brighten
 70
    12
 71
     2
 72
     2
 73
     0
 90
        0
 40
0.6
 41
30.0
 62
     5
 63
     7
421
 16777215
 74
     1
 91
        4
 64
     7
 65
   257
 75
     1
175
     1
 42
1.0
 92
        8
 66
     7
 43
1.0
 76
     1
 77
     6
 78
     2
 67
     7
 79
     5
170
     0
171
     0
290
     0
174
     0
 93
        1
 44
50.0
173
     0
291
     1
 45
0.0
  0
VISUALSTYLE
  5
3A
102
{ACAD_REACTORS
330
2A
102
}
102
{ACAD_XDICTIONARY
360
1DC
102
}
330
2A
100
AcDbVisualStyle
  2
ColorChange
 70
    16
 71
     2
 72
     2
 73
     3
 90
        0
 40
0.6
 41
30.0
 62
     5
 63
     8
421
  8421504
 74
     1
 91
        4
 64
     7
 65
   257
 75
     1
175
     1
 42
1.0
 92
        8
 66
     8
424
  8421504
 43
1.0
 76
     1
 77
     6
 78
     2
 67
     7
 79
     5
170
     0
171
     0
290
     0
174
     0
 93
        1
 44
0.0
173
     0
291
     1
 45
0.0
  0
VISUALSTYLE
  5
34
102
{ACAD_REACTORS
330
2A
102
}
102
{ACAD_XDICTIONARY
360
1D0
102
}
330
2A
100
AcDbVisualStyle
  2
Conceptual
 70
     9
 71
     3
 72
     2
 73
     0
 90
        0
 40
0.6
 41
30.0
 62
     5
 63
     7
421
 16777215
 74
     2
 91
        2
 64
     7
 65
   257
 75
     1
175
     1
 42
179.0
 92
        8
 66
     7
 43
1.0
 76
     1
 77
     6
 78
     2
 67
     7
 79
     3
170
     0
171
     0
290
     0
174
     0
 93
        1
 44
0.0
173
     0
291
     0
 45
0.0
  0
VISUALSTYLE
  5
35
102
{ACAD_REACTORS
330
2A
102
}
102
{ACAD_XDICTIONARY
360
1D2
102
}
330
2A
100
AcDbVisualStyle
  2
Dim
 70
    11
 71
     2
 72
     2
 73
     0
 90
        0
 40
0.6
 41
30.0
 62
     5
 63
     7
421
 16777215
 74
     1
 91
        4
 64
     7
 65
   257
 75
     1
175
     1
 42
1.0
 92
        8
 66
     7
 43
1.0
 76
     1
 77
     6
 78
     2
 67
     7
 79
     5
170
     0
171
     0
290
     0
174
     0
 93
        1
 44
-50.0
173
     0
291
     1
 45
0.0
  0
VISUALSTYLE
  5
3D
102
{ACAD_REACTORS
330
2A
102
}
102
{ACAD_XDICTIONARY
360
1E2
102
}
330
2A
100
AcDbVisualStyle
  2
EdgeColorOff
 70
    22
 71
     2
 72
     2
 73
     0
 90
        0
 40
0.6
 41
30.0
 62
     5
 63
     7
421
 16777215
 74
     1
 91
        4
 64
     7
 65
   257
 75
     1
175
     1
 42
1.0
 92
        8
 66
     7
 43
1.0
 76
     1
 77
     6
 78
     2
 67
     7
 79
     5
170
     0
171
     0
290
     0
174
     0
 93
        1
 44
0.0
173
     0
291
     1
 45
0.0
  0
VISUALSTYLE
  5
39
102
{ACAD_REACTORS
330
2A
102
}
102
{ACAD_XDICTIONARY
360
1DA
102
}
330
2A
100
AcDbVisualStyle
  2
Facepattern
 70
    15
 71
     2
 72
     2
 73
     0
 90
        0
 40
0.6
 41
30.0
 62
     5
 63
     7
421
 16777215
 74
     1
 91
        4
 64
     7
 65
   257
 75
     1
175
     1
 42
1.0
 92
        8
 66
     7
 43
1.0
 76
     1
 77
     6
 78
     2
 67
     7
 79
     5
170
     0
171
     0
290
     0
174
     0
 93
        1
 44
0.0
173
     0
291
     1
 45
0.0
  0
VISUALSTYLE
  5
2B
102
{ACAD_REACTORS
330
2A
102
}
102
{ACAD_XDICTIONARY
360
1BE
102
}
330
2A
100
AcDbVisualStyle
  2
Flat
 70
     0
 71
     2
 72
     1
 73
     1
 90
        2
 40
0.6
 41
30.0
 62
     5
 63
     7
421
 16777215
 74
     0
 91
        0
 64
     7
 65
   257
 75
     1
175
     1
 42
1.0
 92
        8
 66
     7
 43
1.0
 76
     1
 77
     6
 78
     2
 67
     7
 79
     5
170
     0
171
     0
290
     0
174
     0
 93
       13
 44
0.0
173
     0
291
     1
 45
0.0
  0
VISUALSTYLE
  5
2C
102
{ACAD_REACTORS
330
2A
102
}
102
{ACAD_XDICTIONARY
360
1C0
102
}
330
2A
100
AcDbVisualStyle
  2
FlatWithEdges
 70
     1
 71
     2
 72
     1
 73
     1
 90
        2
 40
0.6
 41
30.0
 62
     5
 63
     7
421
 16777215
 74
     1
 91
        0
 64
     7
 65
   257
 75
     1
175
     1
 42
1.0
 92
        0
 66
   257
 43
1.0
 76
     1
 77
     6
 78
     2
 67
     7
 79
     5
170
     0
171
     0
290
     0
174
     0
 93
       13
 44
0.0
173
     0
291
     1
 45
0.0
  0
VISUALSTYLE
  5
2D
102
{ACAD_REACTORS
330
2A
102
}
102
{ACAD_XDICTIONARY
360
1C2
102
}
330
2A
100
AcDbVisualStyle
  2
Gouraud
 70
     2
 71
     2
 72
     2
 73
     1
 90
        2
 40
0.6
 41
30.0
 62
     5
 63
     7
421
 16777215
 74
     0
 91
        0
 64
     7
 65
   257
 75
     1
175
     1
 42
1.0
 92
        0
 66
     7
 43
1.0
 76
     1
 77
     6
 78
     2
 67
     7
 79
     5
170
     0
171
     0
290
     0
174
     0
 93
       13
 44
0.0
173
     0
291
     1
 45
0.0
  0
VISUALSTYLE
  5
2E
102
{ACAD_REACTORS
330
2A
102
}
102
{ACAD_XDICTIONARY
360
1C4
102
}
330
2A
100
AcDbVisualStyle
  2
GouraudWithEdges
 70
     3
 71
     2
 72
     2
 73
     1
 90
        2
 40
0.6
 41
30.0
 62
     5
 63
     7
421
 16777215
 74
     1
 91
        0
 64
     7
 65
   257
 75
     1
175
     1
 42
1.0
 92
        0
 66
   257
 43
1.0
 76
     1
 77
     6
 78
     2
 67
     7
 79
     5
170
     0
171
     0
290
     0
174
     0
 93
       13
 44
0.0
173
     0
291
     1
 45
0.0
  0
VISUALSTYLE
  5
31
102
{ACAD_REACTORS
330
2A
102
}
102
{ACAD_XDICTIONARY
360
1CA
102
}
330
2A
100
AcDbVisualStyle
  2
Hidden
 70
     6
 71
     1
 72
     2
 73
     2
 90
        0
 40
0.6
 41
30.0
 62
     5
 63
     7
421
 16777215
 74
     2
 91
        2
 64
     7
 65
   257
 75
     2
175
     1
 42
40.0
 92
        0
 66
   257
 43
1.0
 76
     1
 77
     6
 78
     2
 67
     7
 79
     3
170
     0
171
     0
290
     0
174
     0
 93
        1
 44
0.0
173
     0
291
     0
 45
0.0
  0
VISUALSTYLE
  5
3B
102
{ACAD_REACTORS
330
2A
102
}
102
{ACAD_XDICTIONARY
360
1DE
102
}
330
2A
100
AcDbVisualStyle
  2
JitterOff
 70
    20
 71
     2
 72
     2
 73
     0
 90
        0
 40
0.6
 41
30.0
 62
     5
 63
     7
421
 16777215
 74
     1
 91
        4
 64
     7
 65
   257
 75
     1
175
     1
 42
1.0
 92
       10
 66
     7
 43
1.0
 76
     1
 77
     6
 78
     2
 67
     7
 79
     5
170
     0
171
     0
290
     0
174
     0
 93
        1
 44
0.0
173
     0
291
     1
 45
0.0
  0
VISUALSTYLE
  5
38
102
{ACAD_REACTORS
330
2A
102
}
102
{ACAD_XDICTIONARY
360
1D8
102
}
330
2A
100
AcDbVisualStyle
  2
Linepattern
 70
    14
 71
     2
 72
     2
 73
     0
 90
        0
 40
0.6
 41
30.0
 62
     5
 63
     7
421
 16777215
 74
     1
 91
        4
 64
     7
 65
   257
 75
     7
175
     7
 42
1.0
 92
        8
 66
     7
 43
1.0
 76
     1
 77
     6
 78
     2
 67
     7
 79
     5
170
     0
171
     0
290
     0
174
     0
 93
        1
 44
0.0
173
     0
291
     1
 45
0.0
  0
VISUALSTYLE
  5
3C
102
{ACAD_REACTORS
330
2A
102
}
102
{ACAD_XDICTIONARY
360
1E0
102
}
330
2A
100
AcDbVisualStyle
  2
OverhangOff
 70
    21
 71
     2
 72
     2
 73
     0
 90
        0
 40
0.6
 41
30.0
 62
     5
 63
     7
421
 16777215
 74
     1
 91
        4
 64
     7
 65
   257
 75
     1
175
     1
 42
1.0
 92
        9
 66
     7
 43
1.0
 76
     1
 77
     6
 78
     2
 67
     7
 79
     5
170
     0
171
     0
290
     0
174
     0
 93
        1
 44
0.0
173
     0
291
     1
 45
0.0
  0
VISUALSTYLE
  5
33
102
{ACAD_REACTORS
330
2A
102
}
102
{ACAD_XDICTIONARY
360
1CE
102
}
330
2A
100
AcDbVisualStyle
  2
Realistic
 70
     8
 71
     2
 72
     3
 73
     0
 90
        2
 40
0.6
 41
30.0
 62
     5
 63
     7
421
 16777215
 74
     0
 91
        0
 64
     7
 65
   257
 75
     1
175
     1
 42
1.0
 92
        8
 66
   257
 43
1.0
 76
     1
 77
     6
 78
     2
 67
     7
 79
     3
170
     0
171
     0
290
     0
174
     0
 93
       13
 44
0.0
173
     0
291
     0
 45
0.0
  0
VISUALSTYLE
  5
42
102
{ACAD_REACTORS
330
2A
102
}
102
{ACAD_XDICTIONARY
360
1EC
102
}
330
2A
100
AcDbVisualStyle
  2
Shaded
 70
    27
 71
     2
 72
     2
 73
     1
 90
        2
 40
0.6
 41
30.0
 62
     5
 63
     7
421
 16777215
 74
     0
 91
        4
 64
     7
 65
   257
 75
     1
175
     1
 42
1.0
 92
        8
 66
   257
 43
1.0
 76
     1
 77
     6
 78
     2
 67
     8
425
  7895160
 79
     3
170
     0
171
     0
290
     0
174
     0
 93
        5
 44
0.0
173
     0
291
     0
 45
0.0
  0
VISUALSTYLE
  5
41
102
{ACAD_REACTORS
330
2A
102
}
102
{ACAD_XDICTIONARY
360
1EA
102
}
330
2A
100
AcDbVisualStyle
  2
Shaded with edges
 70
    26
 71
     2
 72
     2
 73
     1
 90
        2
 40
0.6
 41
30.0
 62
     5
 63
     7
421
 16777215
 74
     1
 91
       10
 64
     7
 65
   257
 75
     2
175
     1
 42
1.0
 92
        8
 66
   257
 43
1.0
 76
     1
 77
     6
 78
     2
 67
     7
 79
     3
170
     0
171
     0
290
     0
174
     0
 93
        5
 44
0.0
173
     0
291
     0
 45
0.0
  0
VISUALSTYLE
  5
3E
102
{ACAD_REACTORS
330
2A
102
}
102
{ACAD_XDICTIONARY
360
1E4
102
}
330
2A
100
AcDbVisualStyle
  2
Shades of Gray
 70
    23
 71
     2
 72
     2
 73
     3
 90
        0
 40
0.6
 41
30.0
 62
     5
 63
     7
421
 16777215
 74
     2
 91
        2
 64
     7
 65
     7
 75
     1
175
     1
 42
40.0
 92
        8
 66
     7
 43
1.0
 76
     1
 77
     6
 78
     2
 67
     7
 79
     3
170
     0
171
     0
290
     0
174
     0
 93
        1
 44
0.0
173
     0
291
     0
 45
0.0
  0
VISUALSTYLE
  5
3F
102
{ACAD_REACTORS
330
2A
102
}
102
{ACAD_XDICTIONARY
360
1E6
102
}
330
2A
100
AcDbVisualStyle
  2
Sketchy
 70
    24
 71
     1
 72
     2
 73
     2
 90
        0
 40
0.6
 41
30.0
 62
     5
 63
     7
421
 16777215
 74
     2
 91
        2
 64
     7
 65
     7
 75
     1
175
     1
 42
40.0
 92
       11
 66
     7
 43
1.0
 76
     1
 77
     6
 78
     2
 67
     7
 79
     6
170
     0
171
     0
290
     0
174
     0
 93
        1
 44
0.0
173
     0
291
     0
 45
0.0
  0
VISUALSTYLE
  5
37
102
{ACAD_REACTORS
330
2A
102
}
102
{ACAD_XDICTIONARY
360
1D6
102
}
330
2A
100
AcDbVisualStyle
  2
Thicken
 70
    13
 71
     2
 72
     2
 73
     0
 90
        0
 40
0.6
 41
30.0
 62
     5
 63
     7
421
 16777215
 74
     1
 91
        4
 64
     7
 65
   257
 75
     1
175
     1
 42
1.0
 92
       12
 66
     7
 43
1.0
 76
     1
 77
     6
 78
     2
 67
     7
 79
     5
170
     0
171
     0
290
     0
174
     0
 93
        1
 44
0.0
173
     0
291
     1
 45
0.0
  0
VISUALSTYLE
  5
30
102
{ACAD_REACTORS
330
2A
102
}
102
{ACAD_XDICTIONARY
360
1C8
102
}
330
2A
100
AcDbVisualStyle
  2
Wireframe
 70
     5
 71
     0
 72
     2
 73
     0
 90
        0
 40
0.6
 41
30.0
 62
     5
 63
     7
421
 16777215
 74
     1
 91
        4
 64
     7
 65
   257
 75
     1
175
     1
 42
1.0
 92
        0
 66
   257
 43
1.0
 76
     1
 77
     6
 78
     2
 67
     7
 79
     3
170
     0
171
     0
290
     0
174
     0
 93
        1
 44
0.0
173
     0
291
     0
 45
0.0
  0
VISUALSTYLE
  5
40
102
{ACAD_REACTORS
330
2A
102
}
102
{ACAD_XDICTIONARY
360
1E8
102
}
330
2A
100
AcDbVisualStyle
  2
X-Ray
 70
    25
 71
     2
 72
     2
 73
     1
 90
        1
 40
0.5
 41
30.0
 62
     5
 63
     7
421
 16777215
 74
     1
 91
        0
 64
     7
 65
   257
 75
     1
175
     1
 42
1.0
 92
        8
 66
     7
 43
1.0
 76
     1
 77
     6
 78
     2
 67
     7
 79
     3
170
     0
171
     0
290
     0
174
     0
 93
       13
 44
0.0
173
     0
291
     0
 45
0.0
  0
DICTIONARYVAR
  5
1BC
102
{ACAD_REACTORS
330
1BB
102
}
330
1BB
100
DictionaryVariables
280
     0
  1
1:1
  0
DICTIONARYVAR
  5
1F5
102
{ACAD_REACTORS
330
1BB
102
}
330
1BB
100
DictionaryVariables
280
     0
  1
Standard
  0
DICTIONARYVAR
  5
1F4
102
{ACAD_REACTORS
330
1BB
102
}
330
1BB
100
DictionaryVariables
280
     0
  1
Standard
  0
DICTIONARYVAR
  5
1BD
102
{ACAD_REACTORS
330
1BB
102
}
330
1BB
100
DictionaryVariables
280
     0
  1
2
  0
DICTIONARY
  5
1F1
330
6C
100
AcDbDictionary
280
     1
281
     1
  3
ACAD_XREC_ROUNDTRIP
360
1F2
  0
DICTIONARY
  5
1EE
330
6A
100
AcDbDictionary
280
     1
281
     1
  3
ACAD_ROUNDTRIP_2008_TABLESTYLE_CELLSTYLEMAP
360
1EF
  0
DICTIONARY
  5
1C6
330
2F
100
AcDbDictionary
280
     1
281
     1
  3
ACAD_XREC_ROUNDTRIP
360
1C7
  0
DICTIONARY
  5
1CC
330
32
100
AcDbDictionary
280
     1
281
     1
  3
ACAD_XREC_ROUNDTRIP
360
1CD
  0
DICTIONARY
  5
1D4
330
36
100
AcDbDictionary
280
     1
281
     1
  3
ACAD_XREC_ROUNDTRIP
360
1D5
  0
DICTIONARY
  5
1DC
330
3A
100
AcDbDictionary
280
     1
281
     1
  3
ACAD_XREC_ROUNDTRIP
360
1DD
  0
DICTIONARY
  5
1D0
330
34
100
AcDbDictionary
280
     1
281
     1
  3
ACAD_XREC_ROUNDTRIP
360
1D1
  0
DICTIONARY
  5
1D2
330
35
100
AcDbDictionary
280
     1
281
     1
  3
ACAD_XREC_ROUNDTRIP
360
1D3
  0
DICTIONARY
  5
1E2
330
3D
100
AcDbDictionary
280
     1
281
     1
  3
ACAD_XREC_ROUNDTRIP
360
1E3
  0
DICTIONARY
  5
1DA
330
39
100
AcDbDictionary
280
     1
281
     1
  3
ACAD_XREC_ROUNDTRIP
360
1DB
  0
DICTIONARY
  5
1BE
330
2B
100
AcDbDictionary
280
     1
281
     1
  3
ACAD_XREC_ROUNDTRIP
360
1BF
  0
DICTIONARY
  5
1C0
330
2C
100
AcDbDictionary
280
     1
281
     1
  3
ACAD_XREC_ROUNDTRIP
360
1C1
  0
DICTIONARY
  5
1C2
330
2D
100
AcDbDictionary
280
     1
281
     1
  3
ACAD_XREC_ROUNDTRIP
360
1C3
  0
DICTIONARY
  5
1C4
330
2E
100
AcDbDictionary
280
     1
281
     1
  3
ACAD_XREC_ROUNDTRIP
360
1C5
  0
DICTIONARY
  5
1CA
330
31
100
AcDbDictionary
280
     1
281
     1
  3
ACAD_XREC_ROUNDTRIP
360
1CB
  0
DICTIONARY
  5
1DE
330
3B
100
AcDbDictionary
280
     1
281
     1
  3
ACAD_XREC_ROUNDTRIP
360
1DF
  0
DICTIONARY
  5
1D8
330
38
100
AcDbDictionary
280
     1
281
     1
  3
ACAD_XREC_ROUNDTRIP
360
1D9
  0
DICTIONARY
  5
1E0
330
3C
100
AcDbDictionary
280
     1
281
     1
  3
ACAD_XREC_ROUNDTRIP
360
1E1
  0
DICTIONARY
  5
1CE
330
33
100
AcDbDictionary
280
     1
281
     1
  3
ACAD_XREC_ROUNDTRIP
360
1CF
  0
DICTIONARY
  5
1EC
330
42
100
AcDbDictionary
280
     1
281
     1
  3
ACAD_XREC_ROUNDTRIP
360
1ED
  0
DICTIONARY
  5
1EA
330
41
100
AcDbDictionary
280
     1
281
     1
  3
ACAD_XREC_ROUNDTRIP
360
1EB
  0
DICTIONARY
  5
1E4
330
3E
100
AcDbDictionary
280
     1
281
     1
  3
ACAD_XREC_ROUNDTRIP
360
1E5
  0
DICTIONARY
  5
1E6
330
3F
100
AcDbDictionary
280
     1
281
     1
  3
ACAD_XREC_ROUNDTRIP
360
1E7
  0
DICTIONARY
  5
1D6
330
37
100
AcDbDictionary
280
     1
281
     1
  3
ACAD_XREC_ROUNDTRIP
360
1D7
  0
DICTIONARY
  5
1C8
330
30
100
AcDbDictionary
280
     1
281
     1
  3
ACAD_XREC_ROUNDTRIP
360
1C9
  0
DICTIONARY
  5
1E8
330
40
100
AcDbDictionary
280
     1
281
     1
  3
ACAD_XREC_ROUNDTRIP
360
1E9
  0
XRECORD
  5
1F2
102
{ACAD_REACTORS
330
1F1
102
}
330
1F1
100
AcDbXrecord
280
     1
102
ACAD_ROUNDTRIP_2010_MLEADER_STYLE
  0
CELLSTYLEMAP
  5
1EF
102
{ACAD_REACTORS
330
1EE
102
}
330
1EE
100
AcDbCellStyleMap
 90
        3
300
CELLSTYLE
  1
TABLEFORMAT_BEGIN
 90
        5
170
     1
 91
        0
 92
    32768
 62
   257
 93
        1
300
CONTENTFORMAT
  1
CONTENTFORMAT_BEGIN
 90
        0
 91
        0
 92
        4
 93
        0
300

 40
0.0
140
1.0
 94
        5
 62
     0
340
11
144
0.25
309
CONTENTFORMAT_END
171
     1
301
MARGIN
  1
CELLMARGIN_BEGIN
 40
0.06
 40
0.06
 40
0.06
 40
0.06
 40
0.06
 40
0.06
309
CELLMARGIN_END
 94
        6
 95
        1
302
GRIDFORMAT
  1
GRIDFORMAT_BEGIN
 90
        0
 91
        1
 62
     0
 92
       -2
340
14
 93
        0
 40
0.045
309
GRIDFORMAT_END
 95
        2
302
GRIDFORMAT
  1
GRIDFORMAT_BEGIN
 90
        0
 91
        1
 62
     0
 92
       -2
340
14
 93
        0
 40
0.045
309
GRIDFORMAT_END
 95
        4
302
GRIDFORMAT
  1
GRIDFORMAT_BEGIN
 90
        0
 91
        1
 62
     0
 92
       -2
340
14
 93
        0
 40
0.045
309
GRIDFORMAT_END
 95
        8
302
GRIDFORMAT
  1
GRIDFORMAT_BEGIN
 90
        0
 91
        1
 62
     0
 92
       -2
340
14
 93
        0
 40
0.045
309
GRIDFORMAT_END
 95
       16
302
GRIDFORMAT
  1
GRIDFORMAT_BEGIN
 90
        0
 91
        1
 62
     0
 92
       -2
340
14
 93
        0
 40
0.045
309
GRIDFORMAT_END
 95
       32
302
GRIDFORMAT
  1
GRIDFORMAT_BEGIN
 90
        0
 91
        1
 62
     0
 92
       -2
340
14
 93
        0
 40
0.045
309
GRIDFORMAT_END
309
TABLEFORMAT_END
  1
CELLSTYLE_BEGIN
 90
        1
 91
        1
300
_TITLE
309
CELLSTYLE_END
300
CELLSTYLE
  1
TABLEFORMAT_BEGIN
 90
        5
170
     1
 91
        0
 92
        0
 62
   257
 93
        1
300
CONTENTFORMAT
  1
CONTENTFORMAT_BEGIN
 90
        0
 91
        0
 92
        4
 93
        0
300

 40
0.0
140
1.0
 94
        5
 62
     0
340
11
144
0.18
309
CONTENTFORMAT_END
171
     1
301
MARGIN
  1
CELLMARGIN_BEGIN
 40
0.06
 40
0.06
 40
0.06
 40
0.06
 40
0.06
 40
0.06
309
CELLMARGIN_END
 94
        6
 95
        1
302
GRIDFORMAT
  1
GRIDFORMAT_BEGIN
 90
        0
 91
        1
 62
     0
 92
       -2
340
14
 93
        0
 40
0.045
309
GRIDFORMAT_END
 95
        2
302
GRIDFORMAT
  1
GRIDFORMAT_BEGIN
 90
        0
 91
        1
 62
     0
 92
       -2
340
14
 93
        0
 40
0.045
309
GRIDFORMAT_END
 95
        4
302
GRIDFORMAT
  1
GRIDFORMAT_BEGIN
 90
        0
 91
        1
 62
     0
 92
       -2
340
14
 93
        0
 40
0.045
309
GRIDFORMAT_END
 95
        8
302
GRIDFORMAT
  1
GRIDFORMAT_BEGIN
 90
        0
 91
        1
 62
     0
 92
       -2
340
14
 93
        0
 40
0.045
309
GRIDFORMAT_END
 95
       16
302
GRIDFORMAT
  1
GRIDFORMAT_BEGIN
 90
        0
 91
        1
 62
     0
 92
       -2
340
14
 93
        0
 40
0.045
309
GRIDFORMAT_END
 95
       32
302
GRIDFORMAT
  1
GRIDFORMAT_BEGIN
 90
        0
 91
        1
 62
     0
 92
       -2
340
14
 93
        0
 40
0.045
309
GRIDFORMAT_END
309
TABLEFORMAT_END
  1
CELLSTYLE_BEGIN
 90
        2
 91
        1
300
_HEADER
309
CELLSTYLE_END
300
CELLSTYLE
  1
TABLEFORMAT_BEGIN
 90
        5
170
     1
 91
        0
 92
        0
 62
   257
 93
        1
300
CONTENTFORMAT
  1
CONTENTFORMAT_BEGIN
 90
        0
 91
        0
 92
        4
 93
        0
300

 40
0.0
140
1.0
 94
        2
 62
     0
340
11
144
0.18
309
CONTENTFORMAT_END
171
     1
301
MARGIN
  1
CELLMARGIN_BEGIN
 40
0.06
 40
0.06
 40
0.06
 40
0.06
 40
0.06
 40
0.06
309
CELLMARGIN_END
 94
        6
 95
        1
302
GRIDFORMAT
  1
GRIDFORMAT_BEGIN
 90
        0
 91
        1
 62
     0
 92
       -2
340
14
 93
        0
 40
0.045
309
GRIDFORMAT_END
 95
        2
302
GRIDFORMAT
  1
GRIDFORMAT_BEGIN
 90
        0
 91
        1
 62
     0
 92
       -2
340
14
 93
        0
 40
0.045
309
GRIDFORMAT_END
 95
        4
302
GRIDFORMAT
  1
GRIDFORMAT_BEGIN
 90
        0
 91
        1
 62
     0
 92
       -2
340
14
 93
        0
 40
0.045
309
GRIDFORMAT_END
 95
        8
302
GRIDFORMAT
  1
GRIDFORMAT_BEGIN
 90
        0
 91
        1
 62
     0
 92
       -2
340
14
 93
        0
 40
0.045
309
GRIDFORMAT_END
 95
       16
302
GRIDFORMAT
  1
GRIDFORMAT_BEGIN
 90
        0
 91
        1
 62
     0
 92
       -2
340
14
 93
        0
 40
0.045
309
GRIDFORMAT_END
 95
       32
302
GRIDFORMAT
  1
GRIDFORMAT_BEGIN
 90
        0
 91
        1
 62
     0
 92
       -2
340
14
 93
        0
 40
0.045
309
GRIDFORMAT_END
309
TABLEFORMAT_END
  1
CELLSTYLE_BEGIN
 90
        3
 91
        2
300
_DATA
309
CELLSTYLE_END
  0
XRECORD
  5
1C7
102
{ACAD_REACTORS
330
1C6
102
}
330
1C6
100
AcDbXrecord
280
     1
102
RTVSPropertyOp0
 70
     1
102
RTVSPropertyOp1
 70
     1
102
RTVSPropertyOp2
 70
     1
102
RTVSPropertyOp3
 70
     1
102
RTVSPropertyOp4
 70
     1
102
RTVSPropertyOp5
 70
     1
102
RTVSPropertyOp6
 70
     1
102
RTVSPropertyOp7
 70
     1
102
RTVSPropertyOp8
 70
     1
102
RTVSPropertyOp9
 70
     1
102
RTVSPropertyOp10
 70
     1
102
RTVSPropertyOp11
 70
     1
102
RTVSPropertyOp12
 70
     1
102
RTVSPropertyOp13
 70
     1
102
RTVSPropertyOp14
 70
     1
102
RTVSPropertyOp15
 70
     1
102
RTVSPropertyOp16
 70
     1
102
RTVSPropertyOp17
 70
     1
102
RTVSPropertyOp18
 70
     1
102
RTVSPropertyOp19
 70
     1
102
RTVSPropertyOp20
 70
     1
102
RTVSPropertyOp21
 70
     1
102
RTVSPropertyOp22
 70
     1
102
RTVSPropertyOp23
 70
     1
102
RTVSPropertyOp24
 70
     1
102
RTVSPropertyOp25
 70
     1
102
RTVSPropertyOp26
 70
     1
102
RTVSPropertyOp27
 70
     1
102
RTVSPropertyOp28
 70
     1
102
RTVSPropertyOp29
 70
     1
102
RTVSPropertyOp30
 70
     1
102
RTVSPropertyOp31
 70
     1
102
RTVSPropertyOp32
 70
     1
102
RTVSPropertyOp33
 70
     1
102
RTVSPropertyOp34
 70
     1
102
RTVSPropertyOp35
 70
     1
102
RTVSPropertyOp36
 70
     1
102
RTVSPropertyOp37
 70
     1
102
RTVSPropertyOp38
 70
     1
102
RTVSPropertyOp39
 70
     1
102
RTVSPropertyOp40
 70
     1
102
RTVSPropertyOp41
 70
     1
102
RTVSPropertyOp42
 70
     1
102
RTVSPropertyOp43
 70
     1
102
RTVSPropertyOp44
 70
     1
102
RTVSPropertyOp45
 70
     1
102
RTVSPropertyOp46
 70
     1
102
RTVSPropertyOp47
 70
     1
102
RTVSPropertyOp48
 70
     1
102
RTVSPropertyOp49
 70
     1
102
RTVSPropertyOp50
 70
     1
102
RTVSPropertyOp51
 70
     0
102
RTVSPropertyOp52
 70
     0
102
RTVSPropertyOp53
 70
     1
102
RTVSPropertyOp54
 70
     1
102
RTVSPropertyOp55
 70
     1
102
RTVSPropertyOp56
 70
     1
102
RTVSPropertyOp57
 70
     1
102
RTVSPost2010Prop28
280
     1
102
RTVSPost2010PropOp28
 70
     1
102
RTVSPost2010Prop29
280
     1
102
RTVSPost2010PropOp29
 70
     1
102
RTVSPost2010Prop30
280
     0
102
RTVSPost2010PropOp30
 70
     1
102
RTVSPost2010Prop31
280
     0
102
RTVSPost2010PropOp31
 70
     1
102
RTVSPost2010Prop32
280
     0
102
RTVSPost2010PropOp32
 70
     1
102
RTVSPost2010Prop33
280
     0
102
RTVSPost2010PropOp33
 70
     1
102
RTVSPost2010Prop34
280
     0
102
RTVSPost2010PropOp34
 70
     1
102
RTVSPost2010Prop35
280
     0
102
RTVSPost2010PropOp35
 70
     1
102
RTVSPost2010Prop36
280
     0
102
RTVSPost2010PropOp36
 70
     1
102
RTVSPost2010Prop37
 90
       50
102
RTVSPost2010PropOp37
 70
     1
102
RTVSPost2010Prop38
140
0.0
102
RTVSPost2010PropOp38
 70
     1
102
RTVSPost2010Prop39
140
1.0
102
RTVSPost2010PropOp39
 70
     1
102
RTVSPost2010Prop40
 90
        0
102
RTVSPost2010PropOp40
 70
     1
102
RTVSPost2010Prop41ColorIndex
 90
       18
102
RTVSPost2010Prop41ColorRGB
 90
        0
102
RTVSPost2010PropOp41
 70
     1
102
RTVSPost2010Prop42
 90
       50
102
RTVSPost2010PropOp42
 70
     1
102
RTVSPost2010Prop43
 90
        3
102
RTVSPost2010PropOp43
 70
     1
102
RTVSPost2010Prop44ColorIndex
 90
        5
102
RTVSPost2010Prop44ColorRGB
 90
      255
102
RTVSPost2010PropOp44
 70
     1
102
RTVSPost2010Prop45
280
     0
102
RTVSPost2010PropOp45
 70
     1
102
RTVSPost2010Prop46
 90
       50
102
RTVSPost2010PropOp46
 70
     1
102
RTVSPost2010Prop47
 90
       50
102
RTVSPost2010PropOp47
 70
     1
102
RTVSPost2010Prop48
 90
       50
102
RTVSPost2010PropOp48
 70
     1
102
RTVSPost2010Prop49
280
     0
102
RTVSPost2010PropOp49
 70
     1
102
RTVSPost2010Prop50
 90
       50
102
RTVSPost2010PropOp50
 70
     1
102
RTVSPost2010Prop51ColorIndex
 90
      256
102
RTVSPost2010Prop51ColorRGB
 90
-16777216
102
RTVSPost2010PropOp51
 70
     0
102
RTVSPost2010Prop52
140
1.0
102
RTVSPost2010PropOp52
 70
     0
102
RTVSPost2010Prop53
 90
        2
102
RTVSPost2010PropOp53
 70
     1
102
RTVSPost2010Prop54
  1
strokes_ogs.tif
102
RTVSPost2010PropOp54
 70
     1
102
RTVSPost2010Prop55
280
     0
102
RTVSPost2010PropOp55
 70
     1
102
RTVSPost2010Prop56
140
1.0
102
RTVSPost2010PropOp56
 70
     1
102
RTVSPost2010Prop57
140
1.0
102
RTVSPost2010PropOp57
 70
     1
  0
XRECORD
  5
1CD
102
{ACAD_REACTORS
330
1CC
102
}
330
1CC
100
AcDbXrecord
280
     1
102
RTVSPropertyOp0
 70
     1
102
RTVSPropertyOp1
 70
     1
102
RTVSPropertyOp2
 70
     1
102
RTVSPropertyOp3
 70
     1
102
RTVSPropertyOp4
 70
     1
102
RTVSPropertyOp5
 70
     1
102
RTVSPropertyOp6
 70
     1
102
RTVSPropertyOp7
 70
     1
102
RTVSPropertyOp8
 70
     1
102
RTVSPropertyOp9
 70
     1
102
RTVSPropertyOp10
 70
     1
102
RTVSPropertyOp11
 70
     1
102
RTVSPropertyOp12
 70
     1
102
RTVSPropertyOp13
 70
     1
102
RTVSPropertyOp14
 70
     1
102
RTVSPropertyOp15
 70
     1
102
RTVSPropertyOp16
 70
     1
102
RTVSPropertyOp17
 70
     1
102
RTVSPropertyOp18
 70
     1
102
RTVSPropertyOp19
 70
     1
102
RTVSPropertyOp20
 70
     1
102
RTVSPropertyOp21
 70
     1
102
RTVSPropertyOp22
 70
     1
102
RTVSPropertyOp23
 70
     1
102
RTVSPropertyOp24
 70
     1
102
RTVSPropertyOp25
 70
     1
102
RTVSPropertyOp26
 70
     1
102
RTVSPropertyOp27
 70
     1
102
RTVSPropertyOp28
 70
     1
102
RTVSPropertyOp29
 70
     1
102
RTVSPropertyOp30
 70
     1
102
RTVSPropertyOp31
 70
     1
102
RTVSPropertyOp32
 70
     1
102
RTVSPropertyOp33
 70
     1
102
RTVSPropertyOp34
 70
     1
102
RTVSPropertyOp35
 70
     1
102
RTVSPropertyOp36
 70
     1
102
RTVSPropertyOp37
 70
     1
102
RTVSPropertyOp38
 70
     1
102
RTVSPropertyOp39
 70
     1
102
RTVSPropertyOp40
 70
     1
102
RTVSPropertyOp41
 70
     1
102
RTVSPropertyOp42
 70
     1
102
RTVSPropertyOp43
 70
     1
102
RTVSPropertyOp44
 70
     1
102
RTVSPropertyOp45
 70
     1
102
RTVSPropertyOp46
 70
     1
102
RTVSPropertyOp47
 70
     1
102
RTVSPropertyOp48
 70
     1
102
RTVSPropertyOp49
 70
     1
102
RTVSPropertyOp50
 70
     1
102
RTVSPropertyOp51
 70
     0
102
RTVSPropertyOp52
 70
     0
102
RTVSPropertyOp53
 70
     1
102
RTVSPropertyOp54
 70
     1
102
RTVSPropertyOp55
 70
     1
102
RTVSPropertyOp56
 70
     1
102
RTVSPropertyOp57
 70
     1
102
RTVSPost2010Prop28
280
     0
102
RTVSPost2010PropOp28
 70
     1
102
RTVSPost2010Prop29
280
     1
102
RTVSPost2010PropOp29
 70
     1
102
RTVSPost2010Prop30
280
     1
102
RTVSPost2010PropOp30
 70
     1
102
RTVSPost2010Prop31
280
     0
102
RTVSPost2010PropOp31
 70
     1
102
RTVSPost2010Prop32
280
     0
102
RTVSPost2010PropOp32
 70
     1
102
RTVSPost2010Prop33
280
     0
102
RTVSPost2010PropOp33
 70
     1
102
RTVSPost2010Prop34
280
     0
102
RTVSPost2010PropOp34
 70
     1
102
RTVSPost2010Prop35
280
     0
102
RTVSPost2010PropOp35
 70
     1
102
RTVSPost2010Prop36
280
     0
102
RTVSPost2010PropOp36
 70
     1
102
RTVSPost2010Prop37
 90
       50
102
RTVSPost2010PropOp37
 70
     1
102
RTVSPost2010Prop38
140
0.0
102
RTVSPost2010PropOp38
 70
     1
102
RTVSPost2010Prop39
140
1.0
102
RTVSPost2010PropOp39
 70
     1
102
RTVSPost2010Prop40
 90
        0
102
RTVSPost2010PropOp40
 70
     1
102
RTVSPost2010Prop41ColorIndex
 90
       18
102
RTVSPost2010Prop41ColorRGB
 90
        0
102
RTVSPost2010PropOp41
 70
     1
102
RTVSPost2010Prop42
 90
       50
102
RTVSPost2010PropOp42
 70
     1
102
RTVSPost2010Prop43
 90
        3
102
RTVSPost2010PropOp43
 70
     1
102
RTVSPost2010Prop44ColorIndex
 90
        5
102
RTVSPost2010Prop44ColorRGB
 90
      255
102
RTVSPost2010PropOp44
 70
     1
102
RTVSPost2010Prop45
280
     0
102
RTVSPost2010PropOp45
 70
     1
102
RTVSPost2010Prop46
 90
       50
102
RTVSPost2010PropOp46
 70
     1
102
RTVSPost2010Prop47
 90
       50
102
RTVSPost2010PropOp47
 70
     1
102
RTVSPost2010Prop48
 90
       50
102
RTVSPost2010PropOp48
 70
     1
102
RTVSPost2010Prop49
280
     0
102
RTVSPost2010PropOp49
 70
     1
102
RTVSPost2010Prop50
 90
       50
102
RTVSPost2010PropOp50
 70
     1
102
RTVSPost2010Prop51ColorIndex
 90
      256
102
RTVSPost2010Prop51ColorRGB
 90
-16777216
102
RTVSPost2010PropOp51
 70
     0
102
RTVSPost2010Prop52
140
1.0
102
RTVSPost2010PropOp52
 70
     0
102
RTVSPost2010Prop53
 90
        2
102
RTVSPost2010PropOp53
 70
     1
102
RTVSPost2010Prop54
  1
strokes_ogs.tif
102
RTVSPost2010PropOp54
 70
     1
102
RTVSPost2010Prop55
280
     0
102
RTVSPost2010PropOp55
 70
     1
102
RTVSPost2010Prop56
140
1.0
102
RTVSPost2010PropOp56
 70
     1
102
RTVSPost2010Prop57
140
1.0
102
RTVSPost2010PropOp57
 70
     1
  0
XRECORD
  5
1D5
102
{ACAD_REACTORS
330
1D4
102
}
330
1D4
100
AcDbXrecord
280
     1
102
RTVSPropertyOp0
 70
     1
102
RTVSPropertyOp1
 70
     1
102
RTVSPropertyOp2
 70
     1
102
RTVSPropertyOp3
 70
     1
102
RTVSPropertyOp4
 70
     1
102
RTVSPropertyOp5
 70
     1
102
RTVSPropertyOp6
 70
     1
102
RTVSPropertyOp7
 70
     1
102
RTVSPropertyOp8
 70
     1
102
RTVSPropertyOp9
 70
     1
102
RTVSPropertyOp10
 70
     1
102
RTVSPropertyOp11
 70
     1
102
RTVSPropertyOp12
 70
     1
102
RTVSPropertyOp13
 70
     1
102
RTVSPropertyOp14
 70
     1
102
RTVSPropertyOp15
 70
     1
102
RTVSPropertyOp16
 70
     1
102
RTVSPropertyOp17
 70
     1
102
RTVSPropertyOp18
 70
     1
102
RTVSPropertyOp19
 70
     1
102
RTVSPropertyOp20
 70
     1
102
RTVSPropertyOp21
 70
     1
102
RTVSPropertyOp22
 70
     1
102
RTVSPropertyOp23
 70
     1
102
RTVSPropertyOp24
 70
     1
102
RTVSPropertyOp25
 70
     1
102
RTVSPropertyOp26
 70
     1
102
RTVSPropertyOp27
 70
     1
102
RTVSPropertyOp28
 70
     1
102
RTVSPropertyOp29
 70
     1
102
RTVSPropertyOp30
 70
     1
102
RTVSPropertyOp31
 70
     1
102
RTVSPropertyOp32
 70
     1
102
RTVSPropertyOp33
 70
     1
102
RTVSPropertyOp34
 70
     1
102
RTVSPropertyOp35
 70
     1
102
RTVSPropertyOp36
 70
     1
102
RTVSPropertyOp37
 70
     1
102
RTVSPropertyOp38
 70
     1
102
RTVSPropertyOp39
 70
     1
102
RTVSPropertyOp40
 70
     1
102
RTVSPropertyOp41
 70
     1
102
RTVSPropertyOp42
 70
     1
102
RTVSPropertyOp43
 70
     1
102
RTVSPropertyOp44
 70
     1
102
RTVSPropertyOp45
 70
     1
102
RTVSPropertyOp46
 70
     1
102
RTVSPropertyOp47
 70
     1
102
RTVSPropertyOp48
 70
     1
102
RTVSPropertyOp49
 70
     1
102
RTVSPropertyOp50
 70
     1
102
RTVSPropertyOp51
 70
     0
102
RTVSPropertyOp52
 70
     0
102
RTVSPropertyOp53
 70
     1
102
RTVSPropertyOp54
 70
     1
102
RTVSPropertyOp55
 70
     1
102
RTVSPropertyOp56
 70
     1
102
RTVSPropertyOp57
 70
     1
102
RTVSPost2010Prop28
280
     0
102
RTVSPost2010PropOp28
 70
     1
102
RTVSPost2010Prop29
280
     1
102
RTVSPost2010PropOp29
 70
     1
102
RTVSPost2010Prop30
280
     1
102
RTVSPost2010PropOp30
 70
     1
102
RTVSPost2010Prop31
280
     0
102
RTVSPost2010PropOp31
 70
     1
102
RTVSPost2010Prop32
280
     0
102
RTVSPost2010PropOp32
 70
     1
102
RTVSPost2010Prop33
280
     0
102
RTVSPost2010PropOp33
 70
     1
102
RTVSPost2010Prop34
280
     0
102
RTVSPost2010PropOp34
 70
     1
102
RTVSPost2010Prop35
280
     0
102
RTVSPost2010PropOp35
 70
     1
102
RTVSPost2010Prop36
280
     0
102
RTVSPost2010PropOp36
 70
     1
102
RTVSPost2010Prop37
 90
       50
102
RTVSPost2010PropOp37
 70
     1
102
RTVSPost2010Prop38
140
0.0
102
RTVSPost2010PropOp38
 70
     1
102
RTVSPost2010Prop39
140
1.0
102
RTVSPost2010PropOp39
 70
     1
102
RTVSPost2010Prop40
 90
        0
102
RTVSPost2010PropOp40
 70
     1
102
RTVSPost2010Prop41ColorIndex
 90
       18
102
RTVSPost2010Prop41ColorRGB
 90
        0
102
RTVSPost2010PropOp41
 70
     1
102
RTVSPost2010Prop42
 90
       50
102
RTVSPost2010PropOp42
 70
     1
102
RTVSPost2010Prop43
 90
        3
102
RTVSPost2010PropOp43
 70
     1
102
RTVSPost2010Prop44ColorIndex
 90
        5
102
RTVSPost2010Prop44ColorRGB
 90
      255
102
RTVSPost2010PropOp44
 70
     1
102
RTVSPost2010Prop45
280
     0
102
RTVSPost2010PropOp45
 70
     1
102
RTVSPost2010Prop46
 90
       50
102
RTVSPost2010PropOp46
 70
     1
102
RTVSPost2010Prop47
 90
       50
102
RTVSPost2010PropOp47
 70
     1
102
RTVSPost2010Prop48
 90
       50
102
RTVSPost2010PropOp48
 70
     1
102
RTVSPost2010Prop49
280
     0
102
RTVSPost2010PropOp49
 70
     1
102
RTVSPost2010Prop50
 90
       50
102
RTVSPost2010PropOp50
 70
     1
102
RTVSPost2010Prop51ColorIndex
 90
      256
102
RTVSPost2010Prop51ColorRGB
 90
-16777216
102
RTVSPost2010PropOp51
 70
     0
102
RTVSPost2010Prop52
140
1.0
102
RTVSPost2010PropOp52
 70
     0
102
RTVSPost2010Prop53
 90
        2
102
RTVSPost2010PropOp53
 70
     1
102
RTVSPost2010Prop54
  1
strokes_ogs.tif
102
RTVSPost2010PropOp54
 70
     1
102
RTVSPost2010Prop55
280
     0
102
RTVSPost2010PropOp55
 70
     1
102
RTVSPost2010Prop56
140
1.0
102
RTVSPost2010PropOp56
 70
     1
102
RTVSPost2010Prop57
140
1.0
102
RTVSPost2010PropOp57
 70
     1
  0
XRECORD
  5
1DD
102
{ACAD_REACTORS
330
1DC
102
}
330
1DC
100
AcDbXrecord
280
     1
102
RTVSPropertyOp0
 70
     1
102
RTVSPropertyOp1
 70
     1
102
RTVSPropertyOp2
 70
     1
102
RTVSPropertyOp3
 70
     1
102
RTVSPropertyOp4
 70
     1
102
RTVSPropertyOp5
 70
     1
102
RTVSPropertyOp6
 70
     1
102
RTVSPropertyOp7
 70
     1
102
RTVSPropertyOp8
 70
     1
102
RTVSPropertyOp9
 70
     1
102
RTVSPropertyOp10
 70
     1
102
RTVSPropertyOp11
 70
     1
102
RTVSPropertyOp12
 70
     1
102
RTVSPropertyOp13
 70
     1
102
RTVSPropertyOp14
 70
     1
102
RTVSPropertyOp15
 70
     1
102
RTVSPropertyOp16
 70
     1
102
RTVSPropertyOp17
 70
     1
102
RTVSPropertyOp18
 70
     1
102
RTVSPropertyOp19
 70
     1
102
RTVSPropertyOp20
 70
     1
102
RTVSPropertyOp21
 70
     1
102
RTVSPropertyOp22
 70
     1
102
RTVSPropertyOp23
 70
     1
102
RTVSPropertyOp24
 70
     1
102
RTVSPropertyOp25
 70
     1
102
RTVSPropertyOp26
 70
     1
102
RTVSPropertyOp27
 70
     1
102
RTVSPropertyOp28
 70
     1
102
RTVSPropertyOp29
 70
     1
102
RTVSPropertyOp30
 70
     1
102
RTVSPropertyOp31
 70
     1
102
RTVSPropertyOp32
 70
     1
102
RTVSPropertyOp33
 70
     1
102
RTVSPropertyOp34
 70
     1
102
RTVSPropertyOp35
 70
     1
102
RTVSPropertyOp36
 70
     1
102
RTVSPropertyOp37
 70
     1
102
RTVSPropertyOp38
 70
     1
102
RTVSPropertyOp39
 70
     1
102
RTVSPropertyOp40
 70
     1
102
RTVSPropertyOp41
 70
     1
102
RTVSPropertyOp42
 70
     1
102
RTVSPropertyOp43
 70
     1
102
RTVSPropertyOp44
 70
     1
102
RTVSPropertyOp45
 70
     1
102
RTVSPropertyOp46
 70
     1
102
RTVSPropertyOp47
 70
     1
102
RTVSPropertyOp48
 70
     1
102
RTVSPropertyOp49
 70
     1
102
RTVSPropertyOp50
 70
     1
102
RTVSPropertyOp51
 70
     0
102
RTVSPropertyOp52
 70
     0
102
RTVSPropertyOp53
 70
     1
102
RTVSPropertyOp54
 70
     1
102
RTVSPropertyOp55
 70
     1
102
RTVSPropertyOp56
 70
     1
102
RTVSPropertyOp57
 70
     1
102
RTVSPost2010Prop28
280
     0
102
RTVSPost2010PropOp28
 70
     1
102
RTVSPost2010Prop29
280
     1
102
RTVSPost2010PropOp29
 70
     1
102
RTVSPost2010Prop30
280
     1
102
RTVSPost2010PropOp30
 70
     1
102
RTVSPost2010Prop31
280
     0
102
RTVSPost2010PropOp31
 70
     1
102
RTVSPost2010Prop32
280
     0
102
RTVSPost2010PropOp32
 70
     1
102
RTVSPost2010Prop33
280
     0
102
RTVSPost2010PropOp33
 70
     1
102
RTVSPost2010Prop34
280
     0
102
RTVSPost2010PropOp34
 70
     1
102
RTVSPost2010Prop35
280
     0
102
RTVSPost2010PropOp35
 70
     1
102
RTVSPost2010Prop36
280
     0
102
RTVSPost2010PropOp36
 70
     1
102
RTVSPost2010Prop37
 90
       50
102
RTVSPost2010PropOp37
 70
     1
102
RTVSPost2010Prop38
140
0.0
102
RTVSPost2010PropOp38
 70
     1
102
RTVSPost2010Prop39
140
1.0
102
RTVSPost2010PropOp39
 70
     1
102
RTVSPost2010Prop40
 90
        0
102
RTVSPost2010PropOp40
 70
     1
102
RTVSPost2010Prop41ColorIndex
 90
       18
102
RTVSPost2010Prop41ColorRGB
 90
        0
102
RTVSPost2010PropOp41
 70
     1
102
RTVSPost2010Prop42
 90
       50
102
RTVSPost2010PropOp42
 70
     1
102
RTVSPost2010Prop43
 90
        3
102
RTVSPost2010PropOp43
 70
     1
102
RTVSPost2010Prop44ColorIndex
 90
        5
102
RTVSPost2010Prop44ColorRGB
 90
      255
102
RTVSPost2010PropOp44
 70
     1
102
RTVSPost2010Prop45
280
     0
102
RTVSPost2010PropOp45
 70
     1
102
RTVSPost2010Prop46
 90
       50
102
RTVSPost2010PropOp46
 70
     1
102
RTVSPost2010Prop47
 90
       50
102
RTVSPost2010PropOp47
 70
     1
102
RTVSPost2010Prop48
 90
       50
102
RTVSPost2010PropOp48
 70
     1
102
RTVSPost2010Prop49
280
     0
102
RTVSPost2010PropOp49
 70
     1
102
RTVSPost2010Prop50
 90
       50
102
RTVSPost2010PropOp50
 70
     1
102
RTVSPost2010Prop51ColorIndex
 90
      256
102
RTVSPost2010Prop51ColorRGB
 90
-16777216
102
RTVSPost2010PropOp51
 70
     0
102
RTVSPost2010Prop52
140
1.0
102
RTVSPost2010PropOp52
 70
     0
102
RTVSPost2010Prop53
 90
        2
102
RTVSPost2010PropOp53
 70
     1
102
RTVSPost2010Prop54
  1
strokes_ogs.tif
102
RTVSPost2010PropOp54
 70
     1
102
RTVSPost2010Prop55
280
     0
102
RTVSPost2010PropOp55
 70
     1
102
RTVSPost2010Prop56
140
1.0
102
RTVSPost2010PropOp56
 70
     1
102
RTVSPost2010Prop57
140
1.0
102
RTVSPost2010PropOp57
 70
     1
  0
XRECORD
  5
1D1
102
{ACAD_REACTORS
330
1D0
102
}
330
1D0
100
AcDbXrecord
280
     1
102
RTVSPropertyOp0
 70
     1
102
RTVSPropertyOp1
 70
     1
102
RTVSPropertyOp2
 70
     1
102
RTVSPropertyOp3
 70
     1
102
RTVSPropertyOp4
 70
     1
102
RTVSPropertyOp5
 70
     1
102
RTVSPropertyOp6
 70
     1
102
RTVSPropertyOp7
 70
     1
102
RTVSPropertyOp8
 70
     1
102
RTVSPropertyOp9
 70
     1
102
RTVSPropertyOp10
 70
     1
102
RTVSPropertyOp11
 70
     1
102
RTVSPropertyOp12
 70
     1
102
RTVSPropertyOp13
 70
     1
102
RTVSPropertyOp14
 70
     1
102
RTVSPropertyOp15
 70
     1
102
RTVSPropertyOp16
 70
     1
102
RTVSPropertyOp17
 70
     1
102
RTVSPropertyOp18
 70
     1
102
RTVSPropertyOp19
 70
     1
102
RTVSPropertyOp20
 70
     1
102
RTVSPropertyOp21
 70
     1
102
RTVSPropertyOp22
 70
     1
102
RTVSPropertyOp23
 70
     1
102
RTVSPropertyOp24
 70
     1
102
RTVSPropertyOp25
 70
     1
102
RTVSPropertyOp26
 70
     1
102
RTVSPropertyOp27
 70
     1
102
RTVSPropertyOp28
 70
     1
102
RTVSPropertyOp29
 70
     1
102
RTVSPropertyOp30
 70
     1
102
RTVSPropertyOp31
 70
     1
102
RTVSPropertyOp32
 70
     1
102
RTVSPropertyOp33
 70
     1
102
RTVSPropertyOp34
 70
     1
102
RTVSPropertyOp35
 70
     1
102
RTVSPropertyOp36
 70
     1
102
RTVSPropertyOp37
 70
     1
102
RTVSPropertyOp38
 70
     1
102
RTVSPropertyOp39
 70
     1
102
RTVSPropertyOp40
 70
     1
102
RTVSPropertyOp41
 70
     1
102
RTVSPropertyOp42
 70
     1
102
RTVSPropertyOp43
 70
     1
102
RTVSPropertyOp44
 70
     1
102
RTVSPropertyOp45
 70
     1
102
RTVSPropertyOp46
 70
     1
102
RTVSPropertyOp47
 70
     1
102
RTVSPropertyOp48
 70
     1
102
RTVSPropertyOp49
 70
     1
102
RTVSPropertyOp50
 70
     1
102
RTVSPropertyOp51
 70
     0
102
RTVSPropertyOp52
 70
     0
102
RTVSPropertyOp53
 70
     1
102
RTVSPropertyOp54
 70
     1
102
RTVSPropertyOp55
 70
     1
102
RTVSPropertyOp56
 70
     1
102
RTVSPropertyOp57
 70
     1
102
RTVSPost2010Prop28
280
     0
102
RTVSPost2010PropOp28
 70
     1
102
RTVSPost2010Prop29
280
     1
102
RTVSPost2010PropOp29
 70
     1
102
RTVSPost2010Prop30
280
     1
102
RTVSPost2010PropOp30
 70
     1
102
RTVSPost2010Prop31
280
     0
102
RTVSPost2010PropOp31
 70
     1
102
RTVSPost2010Prop32
280
     0
102
RTVSPost2010PropOp32
 70
     1
102
RTVSPost2010Prop33
280
     0
102
RTVSPost2010PropOp33
 70
     1
102
RTVSPost2010Prop34
280
     0
102
RTVSPost2010PropOp34
 70
     1
102
RTVSPost2010Prop35
280
     0
102
RTVSPost2010PropOp35
 70
     1
102
RTVSPost2010Prop36
280
     0
102
RTVSPost2010PropOp36
 70
     1
102
RTVSPost2010Prop37
 90
       50
102
RTVSPost2010PropOp37
 70
     1
102
RTVSPost2010Prop38
140
0.0
102
RTVSPost2010PropOp38
 70
     1
102
RTVSPost2010Prop39
140
1.0
102
RTVSPost2010PropOp39
 70
     1
102
RTVSPost2010Prop40
 90
        0
102
RTVSPost2010PropOp40
 70
     1
102
RTVSPost2010Prop41ColorIndex
 90
       18
102
RTVSPost2010Prop41ColorRGB
 90
        0
102
RTVSPost2010PropOp41
 70
     1
102
RTVSPost2010Prop42
 90
       50
102
RTVSPost2010PropOp42
 70
     1
102
RTVSPost2010Prop43
 90
        3
102
RTVSPost2010PropOp43
 70
     1
102
RTVSPost2010Prop44ColorIndex
 90
        5
102
RTVSPost2010Prop44ColorRGB
 90
      255
102
RTVSPost2010PropOp44
 70
     1
102
RTVSPost2010Prop45
280
     0
102
RTVSPost2010PropOp45
 70
     1
102
RTVSPost2010Prop46
 90
       50
102
RTVSPost2010PropOp46
 70
     1
102
RTVSPost2010Prop47
 90
       50
102
RTVSPost2010PropOp47
 70
     1
102
RTVSPost2010Prop48
 90
       50
102
RTVSPost2010PropOp48
 70
     1
102
RTVSPost2010Prop49
280
     0
102
RTVSPost2010PropOp49
 70
     1
102
RTVSPost2010Prop50
 90
       50
102
RTVSPost2010PropOp50
 70
     1
102
RTVSPost2010Prop51ColorIndex
 90
      256
102
RTVSPost2010Prop51ColorRGB
 90
-16777216
102
RTVSPost2010PropOp51
 70
     0
102
RTVSPost2010Prop52
140
1.0
102
RTVSPost2010PropOp52
 70
     0
102
RTVSPost2010Prop53
 90
        2
102
RTVSPost2010PropOp53
 70
     1
102
RTVSPost2010Prop54
  1
strokes_ogs.tif
102
RTVSPost2010PropOp54
 70
     1
102
RTVSPost2010Prop55
280
     0
102
RTVSPost2010PropOp55
 70
     1
102
RTVSPost2010Prop56
140
1.0
102
RTVSPost2010PropOp56
 70
     1
102
RTVSPost2010Prop57
140
1.0
102
RTVSPost2010PropOp57
 70
     1
  0
XRECORD
  5
1D3
102
{ACAD_REACTORS
330
1D2
102
}
330
1D2
100
AcDbXrecord
280
     1
102
RTVSPropertyOp0
 70
     1
102
RTVSPropertyOp1
 70
     1
102
RTVSPropertyOp2
 70
     1
102
RTVSPropertyOp3
 70
     1
102
RTVSPropertyOp4
 70
     1
102
RTVSPropertyOp5
 70
     1
102
RTVSPropertyOp6
 70
     1
102
RTVSPropertyOp7
 70
     1
102
RTVSPropertyOp8
 70
     1
102
RTVSPropertyOp9
 70
     1
102
RTVSPropertyOp10
 70
     1
102
RTVSPropertyOp11
 70
     1
102
RTVSPropertyOp12
 70
     1
102
RTVSPropertyOp13
 70
     1
102
RTVSPropertyOp14
 70
     1
102
RTVSPropertyOp15
 70
     1
102
RTVSPropertyOp16
 70
     1
102
RTVSPropertyOp17
 70
     1
102
RTVSPropertyOp18
 70
     1
102
RTVSPropertyOp19
 70
     1
102
RTVSPropertyOp20
 70
     1
102
RTVSPropertyOp21
 70
     1
102
RTVSPropertyOp22
 70
     1
102
RTVSPropertyOp23
 70
     1
102
RTVSPropertyOp24
 70
     1
102
RTVSPropertyOp25
 70
     1
102
RTVSPropertyOp26
 70
     1
102
RTVSPropertyOp27
 70
     1
102
RTVSPropertyOp28
 70
     1
102
RTVSPropertyOp29
 70
     1
102
RTVSPropertyOp30
 70
     1
102
RTVSPropertyOp31
 70
     1
102
RTVSPropertyOp32
 70
     1
102
RTVSPropertyOp33
 70
     1
102
RTVSPropertyOp34
 70
     1
102
RTVSPropertyOp35
 70
     1
102
RTVSPropertyOp36
 70
     1
102
RTVSPropertyOp37
 70
     1
102
RTVSPropertyOp38
 70
     1
102
RTVSPropertyOp39
 70
     1
102
RTVSPropertyOp40
 70
     1
102
RTVSPropertyOp41
 70
     1
102
RTVSPropertyOp42
 70
     1
102
RTVSPropertyOp43
 70
     1
102
RTVSPropertyOp44
 70
     1
102
RTVSPropertyOp45
 70
     1
102
RTVSPropertyOp46
 70
     1
102
RTVSPropertyOp47
 70
     1
102
RTVSPropertyOp48
 70
     1
102
RTVSPropertyOp49
 70
     1
102
RTVSPropertyOp50
 70
     1
102
RTVSPropertyOp51
 70
     0
102
RTVSPropertyOp52
 70
     0
102
RTVSPropertyOp53
 70
     1
102
RTVSPropertyOp54
 70
     1
102
RTVSPropertyOp55
 70
     1
102
RTVSPropertyOp56
 70
     1
102
RTVSPropertyOp57
 70
     1
102
RTVSPost2010Prop28
280
     0
102
RTVSPost2010PropOp28
 70
     1
102
RTVSPost2010Prop29
280
     1
102
RTVSPost2010PropOp29
 70
     1
102
RTVSPost2010Prop30
280
     1
102
RTVSPost2010PropOp30
 70
     1
102
RTVSPost2010Prop31
280
     0
102
RTVSPost2010PropOp31
 70
     1
102
RTVSPost2010Prop32
280
     0
102
RTVSPost2010PropOp32
 70
     1
102
RTVSPost2010Prop33
280
     0
102
RTVSPost2010PropOp33
 70
     1
102
RTVSPost2010Prop34
280
     0
102
RTVSPost2010PropOp34
 70
     1
102
RTVSPost2010Prop35
280
     0
102
RTVSPost2010PropOp35
 70
     1
102
RTVSPost2010Prop36
280
     0
102
RTVSPost2010PropOp36
 70
     1
102
RTVSPost2010Prop37
 90
       50
102
RTVSPost2010PropOp37
 70
     1
102
RTVSPost2010Prop38
140
0.0
102
RTVSPost2010PropOp38
 70
     1
102
RTVSPost2010Prop39
140
1.0
102
RTVSPost2010PropOp39
 70
     1
102
RTVSPost2010Prop40
 90
        0
102
RTVSPost2010PropOp40
 70
     1
102
RTVSPost2010Prop41ColorIndex
 90
       18
102
RTVSPost2010Prop41ColorRGB
 90
        0
102
RTVSPost2010PropOp41
 70
     1
102
RTVSPost2010Prop42
 90
       50
102
RTVSPost2010PropOp42
 70
     1
102
RTVSPost2010Prop43
 90
        3
102
RTVSPost2010PropOp43
 70
     1
102
RTVSPost2010Prop44ColorIndex
 90
        5
102
RTVSPost2010Prop44ColorRGB
 90
      255
102
RTVSPost2010PropOp44
 70
     1
102
RTVSPost2010Prop45
280
     0
102
RTVSPost2010PropOp45
 70
     1
102
RTVSPost2010Prop46
 90
       50
102
RTVSPost2010PropOp46
 70
     1
102
RTVSPost2010Prop47
 90
       50
102
RTVSPost2010PropOp47
 70
     1
102
RTVSPost2010Prop48
 90
       50
102
RTVSPost2010PropOp48
 70
     1
102
RTVSPost2010Prop49
280
     0
102
RTVSPost2010PropOp49
 70
     1
102
RTVSPost2010Prop50
 90
       50
102
RTVSPost2010PropOp50
 70
     1
102
RTVSPost2010Prop51ColorIndex
 90
      256
102
RTVSPost2010Prop51ColorRGB
 90
-16777216
102
RTVSPost2010PropOp51
 70
     0
102
RTVSPost2010Prop52
140
1.0
102
RTVSPost2010PropOp52
 70
     0
102
RTVSPost2010Prop53
 90
        2
102
RTVSPost2010PropOp53
 70
     1
102
RTVSPost2010Prop54
  1
strokes_ogs.tif
102
RTVSPost2010PropOp54
 70
     1
102
RTVSPost2010Prop55
280
     0
102
RTVSPost2010PropOp55
 70
     1
102
RTVSPost2010Prop56
140
1.0
102
RTVSPost2010PropOp56
 70
     1
102
RTVSPost2010Prop57
140
1.0
102
RTVSPost2010PropOp57
 70
     1
  0
XRECORD
  5
1E3
102
{ACAD_REACTORS
330
1E2
102
}
330
1E2
100
AcDbXrecord
280
     1
102
RTVSPropertyOp0
 70
     0
102
RTVSPropertyOp1
 70
     0
102
RTVSPropertyOp2
 70
     0
102
RTVSPropertyOp3
 70
     0
102
RTVSPropertyOp4
 70
     0
102
RTVSPropertyOp5
 70
     0
102
RTVSPropertyOp6
 70
     0
102
RTVSPropertyOp7
 70
     0
102
RTVSPropertyOp8
 70
     0
102
RTVSPropertyOp9
 70
     0
102
RTVSPropertyOp10
 70
     0
102
RTVSPropertyOp11
 70
     0
102
RTVSPropertyOp12
 70
     0
102
RTVSPropertyOp13
 70
     0
102
RTVSPropertyOp14
 70
     2
102
RTVSPropertyOp15
 70
     0
102
RTVSPropertyOp16
 70
     0
102
RTVSPropertyOp17
 70
     0
102
RTVSPropertyOp18
 70
     0
102
RTVSPropertyOp19
 70
     0
102
RTVSPropertyOp20
 70
     0
102
RTVSPropertyOp21
 70
     0
102
RTVSPropertyOp22
 70
     0
102
RTVSPropertyOp23
 70
     0
102
RTVSPropertyOp24
 70
     0
102
RTVSPropertyOp25
 70
     0
102
RTVSPropertyOp26
 70
     0
102
RTVSPropertyOp27
 70
     0
102
RTVSPropertyOp28
 70
     0
102
RTVSPropertyOp29
 70
     0
102
RTVSPropertyOp30
 70
     0
102
RTVSPropertyOp31
 70
     0
102
RTVSPropertyOp32
 70
     0
102
RTVSPropertyOp33
 70
     0
102
RTVSPropertyOp34
 70
     0
102
RTVSPropertyOp35
 70
     0
102
RTVSPropertyOp36
 70
     0
102
RTVSPropertyOp37
 70
     0
102
RTVSPropertyOp38
 70
     0
102
RTVSPropertyOp39
 70
     0
102
RTVSPropertyOp40
 70
     0
102
RTVSPropertyOp41
 70
     0
102
RTVSPropertyOp42
 70
     0
102
RTVSPropertyOp43
 70
     0
102
RTVSPropertyOp44
 70
     0
102
RTVSPropertyOp45
 70
     0
102
RTVSPropertyOp46
 70
     0
102
RTVSPropertyOp47
 70
     0
102
RTVSPropertyOp48
 70
     0
102
RTVSPropertyOp49
 70
     0
102
RTVSPropertyOp50
 70
     0
102
RTVSPropertyOp51
 70
     0
102
RTVSPropertyOp52
 70
     0
102
RTVSPropertyOp53
 70
     0
102
RTVSPropertyOp54
 70
     0
102
RTVSPropertyOp55
 70
     0
102
RTVSPropertyOp56
 70
     0
102
RTVSPropertyOp57
 70
     0
102
RTVSPost2010Prop28
280
     0
102
RTVSPost2010PropOp28
 70
     0
102
RTVSPost2010Prop29
280
     1
102
RTVSPost2010PropOp29
 70
     0
102
RTVSPost2010Prop30
280
     1
102
RTVSPost2010PropOp30
 70
     0
102
RTVSPost2010Prop31
280
     0
102
RTVSPost2010PropOp31
 70
     0
102
RTVSPost2010Prop32
280
     0
102
RTVSPost2010PropOp32
 70
     0
102
RTVSPost2010Prop33
280
     0
102
RTVSPost2010PropOp33
 70
     0
102
RTVSPost2010Prop34
280
     0
102
RTVSPost2010PropOp34
 70
     0
102
RTVSPost2010Prop35
280
     0
102
RTVSPost2010PropOp35
 70
     0
102
RTVSPost2010Prop36
280
     0
102
RTVSPost2010PropOp36
 70
     0
102
RTVSPost2010Prop37
 90
       50
102
RTVSPost2010PropOp37
 70
     0
102
RTVSPost2010Prop38
140
0.0
102
RTVSPost2010PropOp38
 70
     0
102
RTVSPost2010Prop39
140
1.0
102
RTVSPost2010PropOp39
 70
     0
102
RTVSPost2010Prop40
 90
        0
102
RTVSPost2010PropOp40
 70
     0
102
RTVSPost2010Prop41ColorIndex
 90
       18
102
RTVSPost2010Prop41ColorRGB
 90
        0
102
RTVSPost2010PropOp41
 70
     0
102
RTVSPost2010Prop42
 90
       50
102
RTVSPost2010PropOp42
 70
     0
102
RTVSPost2010Prop43
 90
        3
102
RTVSPost2010PropOp43
 70
     0
102
RTVSPost2010Prop44ColorIndex
 90
        5
102
RTVSPost2010Prop44ColorRGB
 90
      255
102
RTVSPost2010PropOp44
 70
     0
102
RTVSPost2010Prop45
280
     0
102
RTVSPost2010PropOp45
 70
     0
102
RTVSPost2010Prop46
 90
       50
102
RTVSPost2010PropOp46
 70
     0
102
RTVSPost2010Prop47
 90
       50
102
RTVSPost2010PropOp47
 70
     0
102
RTVSPost2010Prop48
 90
       50
102
RTVSPost2010PropOp48
 70
     0
102
RTVSPost2010Prop49
280
     0
102
RTVSPost2010PropOp49
 70
     0
102
RTVSPost2010Prop50
 90
       50
102
RTVSPost2010PropOp50
 70
     0
102
RTVSPost2010Prop51ColorIndex
 90
      256
102
RTVSPost2010Prop51ColorRGB
 90
-16777216
102
RTVSPost2010PropOp51
 70
     0
102
RTVSPost2010Prop52
140
1.0
102
RTVSPost2010PropOp52
 70
     0
102
RTVSPost2010Prop53
 90
        2
102
RTVSPost2010PropOp53
 70
     0
102
RTVSPost2010Prop54
  1
strokes_ogs.tif
102
RTVSPost2010PropOp54
 70
     0
102
RTVSPost2010Prop55
280
     0
102
RTVSPost2010PropOp55
 70
     0
102
RTVSPost2010Prop56
140
1.0
102
RTVSPost2010PropOp56
 70
     0
102
RTVSPost2010Prop57
140
1.0
102
RTVSPost2010PropOp57
 70
     0
  0
XRECORD
  5
1DB
102
{ACAD_REACTORS
330
1DA
102
}
330
1DA
100
AcDbXrecord
280
     1
102
RTVSPropertyOp0
 70
     1
102
RTVSPropertyOp1
 70
     1
102
RTVSPropertyOp2
 70
     1
102
RTVSPropertyOp3
 70
     1
102
RTVSPropertyOp4
 70
     1
102
RTVSPropertyOp5
 70
     1
102
RTVSPropertyOp6
 70
     1
102
RTVSPropertyOp7
 70
     1
102
RTVSPropertyOp8
 70
     1
102
RTVSPropertyOp9
 70
     1
102
RTVSPropertyOp10
 70
     1
102
RTVSPropertyOp11
 70
     1
102
RTVSPropertyOp12
 70
     1
102
RTVSPropertyOp13
 70
     1
102
RTVSPropertyOp14
 70
     1
102
RTVSPropertyOp15
 70
     1
102
RTVSPropertyOp16
 70
     1
102
RTVSPropertyOp17
 70
     1
102
RTVSPropertyOp18
 70
     1
102
RTVSPropertyOp19
 70
     1
102
RTVSPropertyOp20
 70
     1
102
RTVSPropertyOp21
 70
     1
102
RTVSPropertyOp22
 70
     1
102
RTVSPropertyOp23
 70
     1
102
RTVSPropertyOp24
 70
     1
102
RTVSPropertyOp25
 70
     1
102
RTVSPropertyOp26
 70
     1
102
RTVSPropertyOp27
 70
     1
102
RTVSPropertyOp28
 70
     1
102
RTVSPropertyOp29
 70
     1
102
RTVSPropertyOp30
 70
     1
102
RTVSPropertyOp31
 70
     1
102
RTVSPropertyOp32
 70
     1
102
RTVSPropertyOp33
 70
     1
102
RTVSPropertyOp34
 70
     1
102
RTVSPropertyOp35
 70
     1
102
RTVSPropertyOp36
 70
     1
102
RTVSPropertyOp37
 70
     1
102
RTVSPropertyOp38
 70
     1
102
RTVSPropertyOp39
 70
     1
102
RTVSPropertyOp40
 70
     1
102
RTVSPropertyOp41
 70
     1
102
RTVSPropertyOp42
 70
     1
102
RTVSPropertyOp43
 70
     1
102
RTVSPropertyOp44
 70
     1
102
RTVSPropertyOp45
 70
     1
102
RTVSPropertyOp46
 70
     1
102
RTVSPropertyOp47
 70
     1
102
RTVSPropertyOp48
 70
     1
102
RTVSPropertyOp49
 70
     1
102
RTVSPropertyOp50
 70
     1
102
RTVSPropertyOp51
 70
     0
102
RTVSPropertyOp52
 70
     0
102
RTVSPropertyOp53
 70
     1
102
RTVSPropertyOp54
 70
     1
102
RTVSPropertyOp55
 70
     1
102
RTVSPropertyOp56
 70
     1
102
RTVSPropertyOp57
 70
     1
102
RTVSPost2010Prop28
280
     0
102
RTVSPost2010PropOp28
 70
     1
102
RTVSPost2010Prop29
280
     1
102
RTVSPost2010PropOp29
 70
     1
102
RTVSPost2010Prop30
280
     1
102
RTVSPost2010PropOp30
 70
     1
102
RTVSPost2010Prop31
280
     0
102
RTVSPost2010PropOp31
 70
     1
102
RTVSPost2010Prop32
280
     0
102
RTVSPost2010PropOp32
 70
     1
102
RTVSPost2010Prop33
280
     0
102
RTVSPost2010PropOp33
 70
     1
102
RTVSPost2010Prop34
280
     0
102
RTVSPost2010PropOp34
 70
     1
102
RTVSPost2010Prop35
280
     0
102
RTVSPost2010PropOp35
 70
     1
102
RTVSPost2010Prop36
280
     0
102
RTVSPost2010PropOp36
 70
     1
102
RTVSPost2010Prop37
 90
       50
102
RTVSPost2010PropOp37
 70
     1
102
RTVSPost2010Prop38
140
0.0
102
RTVSPost2010PropOp38
 70
     1
102
RTVSPost2010Prop39
140
1.0
102
RTVSPost2010PropOp39
 70
     1
102
RTVSPost2010Prop40
 90
        0
102
RTVSPost2010PropOp40
 70
     1
102
RTVSPost2010Prop41ColorIndex
 90
       18
102
RTVSPost2010Prop41ColorRGB
 90
        0
102
RTVSPost2010PropOp41
 70
     1
102
RTVSPost2010Prop42
 90
       50
102
RTVSPost2010PropOp42
 70
     1
102
RTVSPost2010Prop43
 90
        3
102
RTVSPost2010PropOp43
 70
     1
102
RTVSPost2010Prop44ColorIndex
 90
        5
102
RTVSPost2010Prop44ColorRGB
 90
      255
102
RTVSPost2010PropOp44
 70
     1
102
RTVSPost2010Prop45
280
     0
102
RTVSPost2010PropOp45
 70
     1
102
RTVSPost2010Prop46
 90
       50
102
RTVSPost2010PropOp46
 70
     1
102
RTVSPost2010Prop47
 90
       50
102
RTVSPost2010PropOp47
 70
     1
102
RTVSPost2010Prop48
 90
       50
102
RTVSPost2010PropOp48
 70
     1
102
RTVSPost2010Prop49
280
     0
102
RTVSPost2010PropOp49
 70
     1
102
RTVSPost2010Prop50
 90
       50
102
RTVSPost2010PropOp50
 70
     1
102
RTVSPost2010Prop51ColorIndex
 90
      256
102
RTVSPost2010Prop51ColorRGB
 90
-16777216
102
RTVSPost2010PropOp51
 70
     0
102
RTVSPost2010Prop52
140
1.0
102
RTVSPost2010PropOp52
 70
     0
102
RTVSPost2010Prop53
 90
        2
102
RTVSPost2010PropOp53
 70
     1
102
RTVSPost2010Prop54
  1
strokes_ogs.tif
102
RTVSPost2010PropOp54
 70
     1
102
RTVSPost2010Prop55
280
     0
102
RTVSPost2010PropOp55
 70
     1
102
RTVSPost2010Prop56
140
1.0
102
RTVSPost2010PropOp56
 70
     1
102
RTVSPost2010Prop57
140
1.0
102
RTVSPost2010PropOp57
 70
     1
  0
XRECORD
  5
1BF
102
{ACAD_REACTORS
330
1BE
102
}
330
1BE
100
AcDbXrecord
280
     1
102
RTVSPropertyOp0
 70
     1
102
RTVSPropertyOp1
 70
     1
102
RTVSPropertyOp2
 70
     1
102
RTVSPropertyOp3
 70
     1
102
RTVSPropertyOp4
 70
     1
102
RTVSPropertyOp5
 70
     1
102
RTVSPropertyOp6
 70
     1
102
RTVSPropertyOp7
 70
     1
102
RTVSPropertyOp8
 70
     1
102
RTVSPropertyOp9
 70
     1
102
RTVSPropertyOp10
 70
     1
102
RTVSPropertyOp11
 70
     1
102
RTVSPropertyOp12
 70
     1
102
RTVSPropertyOp13
 70
     1
102
RTVSPropertyOp14
 70
     1
102
RTVSPropertyOp15
 70
     1
102
RTVSPropertyOp16
 70
     1
102
RTVSPropertyOp17
 70
     1
102
RTVSPropertyOp18
 70
     1
102
RTVSPropertyOp19
 70
     1
102
RTVSPropertyOp20
 70
     1
102
RTVSPropertyOp21
 70
     1
102
RTVSPropertyOp22
 70
     1
102
RTVSPropertyOp23
 70
     1
102
RTVSPropertyOp24
 70
     1
102
RTVSPropertyOp25
 70
     1
102
RTVSPropertyOp26
 70
     1
102
RTVSPropertyOp27
 70
     1
102
RTVSPropertyOp28
 70
     1
102
RTVSPropertyOp29
 70
     1
102
RTVSPropertyOp30
 70
     1
102
RTVSPropertyOp31
 70
     1
102
RTVSPropertyOp32
 70
     1
102
RTVSPropertyOp33
 70
     1
102
RTVSPropertyOp34
 70
     1
102
RTVSPropertyOp35
 70
     1
102
RTVSPropertyOp36
 70
     1
102
RTVSPropertyOp37
 70
     1
102
RTVSPropertyOp38
 70
     1
102
RTVSPropertyOp39
 70
     1
102
RTVSPropertyOp40
 70
     1
102
RTVSPropertyOp41
 70
     1
102
RTVSPropertyOp42
 70
     1
102
RTVSPropertyOp43
 70
     1
102
RTVSPropertyOp44
 70
     1
102
RTVSPropertyOp45
 70
     1
102
RTVSPropertyOp46
 70
     1
102
RTVSPropertyOp47
 70
     1
102
RTVSPropertyOp48
 70
     1
102
RTVSPropertyOp49
 70
     1
102
RTVSPropertyOp50
 70
     1
102
RTVSPropertyOp51
 70
     0
102
RTVSPropertyOp52
 70
     0
102
RTVSPropertyOp53
 70
     1
102
RTVSPropertyOp54
 70
     1
102
RTVSPropertyOp55
 70
     1
102
RTVSPropertyOp56
 70
     1
102
RTVSPropertyOp57
 70
     1
102
RTVSPost2010Prop28
280
     0
102
RTVSPost2010PropOp28
 70
     1
102
RTVSPost2010Prop29
280
     1
102
RTVSPost2010PropOp29
 70
     1
102
RTVSPost2010Prop30
280
     1
102
RTVSPost2010PropOp30
 70
     1
102
RTVSPost2010Prop31
280
     0
102
RTVSPost2010PropOp31
 70
     1
102
RTVSPost2010Prop32
280
     0
102
RTVSPost2010PropOp32
 70
     1
102
RTVSPost2010Prop33
280
     0
102
RTVSPost2010PropOp33
 70
     1
102
RTVSPost2010Prop34
280
     0
102
RTVSPost2010PropOp34
 70
     1
102
RTVSPost2010Prop35
280
     0
102
RTVSPost2010PropOp35
 70
     1
102
RTVSPost2010Prop36
280
     0
102
RTVSPost2010PropOp36
 70
     1
102
RTVSPost2010Prop37
 90
       50
102
RTVSPost2010PropOp37
 70
     1
102
RTVSPost2010Prop38
140
0.0
102
RTVSPost2010PropOp38
 70
     1
102
RTVSPost2010Prop39
140
1.0
102
RTVSPost2010PropOp39
 70
     1
102
RTVSPost2010Prop40
 90
        0
102
RTVSPost2010PropOp40
 70
     1
102
RTVSPost2010Prop41ColorIndex
 90
       18
102
RTVSPost2010Prop41ColorRGB
 90
        0
102
RTVSPost2010PropOp41
 70
     1
102
RTVSPost2010Prop42
 90
       50
102
RTVSPost2010PropOp42
 70
     1
102
RTVSPost2010Prop43
 90
        3
102
RTVSPost2010PropOp43
 70
     1
102
RTVSPost2010Prop44ColorIndex
 90
        5
102
RTVSPost2010Prop44ColorRGB
 90
      255
102
RTVSPost2010PropOp44
 70
     1
102
RTVSPost2010Prop45
280
     0
102
RTVSPost2010PropOp45
 70
     1
102
RTVSPost2010Prop46
 90
       50
102
RTVSPost2010PropOp46
 70
     1
102
RTVSPost2010Prop47
 90
       50
102
RTVSPost2010PropOp47
 70
     1
102
RTVSPost2010Prop48
 90
       50
102
RTVSPost2010PropOp48
 70
     1
102
RTVSPost2010Prop49
280
     0
102
RTVSPost2010PropOp49
 70
     1
102
RTVSPost2010Prop50
 90
       50
102
RTVSPost2010PropOp50
 70
     1
102
RTVSPost2010Prop51ColorIndex
 90
      256
102
RTVSPost2010Prop51ColorRGB
 90
-16777216
102
RTVSPost2010PropOp51
 70
     0
102
RTVSPost2010Prop52
140
1.0
102
RTVSPost2010PropOp52
 70
     0
102
RTVSPost2010Prop53
 90
        2
102
RTVSPost2010PropOp53
 70
     1
102
RTVSPost2010Prop54
  1
strokes_ogs.tif
102
RTVSPost2010PropOp54
 70
     1
102
RTVSPost2010Prop55
280
     0
102
RTVSPost2010PropOp55
 70
     1
102
RTVSPost2010Prop56
140
1.0
102
RTVSPost2010PropOp56
 70
     1
102
RTVSPost2010Prop57
140
1.0
102
RTVSPost2010PropOp57
 70
     1
  0
XRECORD
  5
1C1
102
{ACAD_REACTORS
330
1C0
102
}
330
1C0
100
AcDbXrecord
280
     1
102
RTVSPropertyOp0
 70
     1
102
RTVSPropertyOp1
 70
     1
102
RTVSPropertyOp2
 70
     1
102
RTVSPropertyOp3
 70
     1
102
RTVSPropertyOp4
 70
     1
102
RTVSPropertyOp5
 70
     1
102
RTVSPropertyOp6
 70
     1
102
RTVSPropertyOp7
 70
     1
102
RTVSPropertyOp8
 70
     1
102
RTVSPropertyOp9
 70
     1
102
RTVSPropertyOp10
 70
     1
102
RTVSPropertyOp11
 70
     1
102
RTVSPropertyOp12
 70
     1
102
RTVSPropertyOp13
 70
     1
102
RTVSPropertyOp14
 70
     1
102
RTVSPropertyOp15
 70
     1
102
RTVSPropertyOp16
 70
     1
102
RTVSPropertyOp17
 70
     1
102
RTVSPropertyOp18
 70
     1
102
RTVSPropertyOp19
 70
     1
102
RTVSPropertyOp20
 70
     1
102
RTVSPropertyOp21
 70
     1
102
RTVSPropertyOp22
 70
     1
102
RTVSPropertyOp23
 70
     1
102
RTVSPropertyOp24
 70
     1
102
RTVSPropertyOp25
 70
     1
102
RTVSPropertyOp26
 70
     1
102
RTVSPropertyOp27
 70
     1
102
RTVSPropertyOp28
 70
     1
102
RTVSPropertyOp29
 70
     1
102
RTVSPropertyOp30
 70
     1
102
RTVSPropertyOp31
 70
     1
102
RTVSPropertyOp32
 70
     1
102
RTVSPropertyOp33
 70
     1
102
RTVSPropertyOp34
 70
     1
102
RTVSPropertyOp35
 70
     1
102
RTVSPropertyOp36
 70
     1
102
RTVSPropertyOp37
 70
     1
102
RTVSPropertyOp38
 70
     1
102
RTVSPropertyOp39
 70
     1
102
RTVSPropertyOp40
 70
     1
102
RTVSPropertyOp41
 70
     1
102
RTVSPropertyOp42
 70
     1
102
RTVSPropertyOp43
 70
     1
102
RTVSPropertyOp44
 70
     1
102
RTVSPropertyOp45
 70
     1
102
RTVSPropertyOp46
 70
     1
102
RTVSPropertyOp47
 70
     1
102
RTVSPropertyOp48
 70
     1
102
RTVSPropertyOp49
 70
     1
102
RTVSPropertyOp50
 70
     1
102
RTVSPropertyOp51
 70
     0
102
RTVSPropertyOp52
 70
     0
102
RTVSPropertyOp53
 70
     1
102
RTVSPropertyOp54
 70
     1
102
RTVSPropertyOp55
 70
     1
102
RTVSPropertyOp56
 70
     1
102
RTVSPropertyOp57
 70
     1
102
RTVSPost2010Prop28
280
     0
102
RTVSPost2010PropOp28
 70
     1
102
RTVSPost2010Prop29
280
     1
102
RTVSPost2010PropOp29
 70
     1
102
RTVSPost2010Prop30
280
     1
102
RTVSPost2010PropOp30
 70
     1
102
RTVSPost2010Prop31
280
     0
102
RTVSPost2010PropOp31
 70
     1
102
RTVSPost2010Prop32
280
     0
102
RTVSPost2010PropOp32
 70
     1
102
RTVSPost2010Prop33
280
     0
102
RTVSPost2010PropOp33
 70
     1
102
RTVSPost2010Prop34
280
     0
102
RTVSPost2010PropOp34
 70
     1
102
RTVSPost2010Prop35
280
     0
102
RTVSPost2010PropOp35
 70
     1
102
RTVSPost2010Prop36
280
     0
102
RTVSPost2010PropOp36
 70
     1
102
RTVSPost2010Prop37
 90
       50
102
RTVSPost2010PropOp37
 70
     1
102
RTVSPost2010Prop38
140
0.0
102
RTVSPost2010PropOp38
 70
     1
102
RTVSPost2010Prop39
140
1.0
102
RTVSPost2010PropOp39
 70
     1
102
RTVSPost2010Prop40
 90
        0
102
RTVSPost2010PropOp40
 70
     1
102
RTVSPost2010Prop41ColorIndex
 90
       18
102
RTVSPost2010Prop41ColorRGB
 90
        0
102
RTVSPost2010PropOp41
 70
     1
102
RTVSPost2010Prop42
 90
       50
102
RTVSPost2010PropOp42
 70
     1
102
RTVSPost2010Prop43
 90
        3
102
RTVSPost2010PropOp43
 70
     1
102
RTVSPost2010Prop44ColorIndex
 90
        5
102
RTVSPost2010Prop44ColorRGB
 90
      255
102
RTVSPost2010PropOp44
 70
     1
102
RTVSPost2010Prop45
280
     0
102
RTVSPost2010PropOp45
 70
     1
102
RTVSPost2010Prop46
 90
       50
102
RTVSPost2010PropOp46
 70
     1
102
RTVSPost2010Prop47
 90
       50
102
RTVSPost2010PropOp47
 70
     1
102
RTVSPost2010Prop48
 90
       50
102
RTVSPost2010PropOp48
 70
     1
102
RTVSPost2010Prop49
280
     0
102
RTVSPost2010PropOp49
 70
     1
102
RTVSPost2010Prop50
 90
       50
102
RTVSPost2010PropOp50
 70
     1
102
RTVSPost2010Prop51ColorIndex
 90
      256
102
RTVSPost2010Prop51ColorRGB
 90
-16777216
102
RTVSPost2010PropOp51
 70
     0
102
RTVSPost2010Prop52
140
1.0
102
RTVSPost2010PropOp52
 70
     0
102
RTVSPost2010Prop53
 90
        2
102
RTVSPost2010PropOp53
 70
     1
102
RTVSPost2010Prop54
  1
strokes_ogs.tif
102
RTVSPost2010PropOp54
 70
     1
102
RTVSPost2010Prop55
280
     0
102
RTVSPost2010PropOp55
 70
     1
102
RTVSPost2010Prop56
140
1.0
102
RTVSPost2010PropOp56
 70
     1
102
RTVSPost2010Prop57
140
1.0
102
RTVSPost2010PropOp57
 70
     1
  0
XRECORD
  5
1C3
102
{ACAD_REACTORS
330
1C2
102
}
330
1C2
100
AcDbXrecord
280
     1
102
RTVSPropertyOp0
 70
     1
102
RTVSPropertyOp1
 70
     1
102
RTVSPropertyOp2
 70
     1
102
RTVSPropertyOp3
 70
     1
102
RTVSPropertyOp4
 70
     1
102
RTVSPropertyOp5
 70
     1
102
RTVSPropertyOp6
 70
     1
102
RTVSPropertyOp7
 70
     1
102
RTVSPropertyOp8
 70
     1
102
RTVSPropertyOp9
 70
     1
102
RTVSPropertyOp10
 70
     1
102
RTVSPropertyOp11
 70
     1
102
RTVSPropertyOp12
 70
     1
102
RTVSPropertyOp13
 70
     1
102
RTVSPropertyOp14
 70
     1
102
RTVSPropertyOp15
 70
     1
102
RTVSPropertyOp16
 70
     1
102
RTVSPropertyOp17
 70
     1
102
RTVSPropertyOp18
 70
     1
102
RTVSPropertyOp19
 70
     1
102
RTVSPropertyOp20
 70
     1
102
RTVSPropertyOp21
 70
     1
102
RTVSPropertyOp22
 70
     1
102
RTVSPropertyOp23
 70
     1
102
RTVSPropertyOp24
 70
     1
102
RTVSPropertyOp25
 70
     1
102
RTVSPropertyOp26
 70
     1
102
RTVSPropertyOp27
 70
     1
102
RTVSPropertyOp28
 70
     1
102
RTVSPropertyOp29
 70
     1
102
RTVSPropertyOp30
 70
     1
102
RTVSPropertyOp31
 70
     1
102
RTVSPropertyOp32
 70
     1
102
RTVSPropertyOp33
 70
     1
102
RTVSPropertyOp34
 70
     1
102
RTVSPropertyOp35
 70
     1
102
RTVSPropertyOp36
 70
     1
102
RTVSPropertyOp37
 70
     1
102
RTVSPropertyOp38
 70
     1
102
RTVSPropertyOp39
 70
     1
102
RTVSPropertyOp40
 70
     1
102
RTVSPropertyOp41
 70
     1
102
RTVSPropertyOp42
 70
     1
102
RTVSPropertyOp43
 70
     1
102
RTVSPropertyOp44
 70
     1
102
RTVSPropertyOp45
 70
     1
102
RTVSPropertyOp46
 70
     1
102
RTVSPropertyOp47
 70
     1
102
RTVSPropertyOp48
 70
     1
102
RTVSPropertyOp49
 70
     1
102
RTVSPropertyOp50
 70
     1
102
RTVSPropertyOp51
 70
     0
102
RTVSPropertyOp52
 70
     0
102
RTVSPropertyOp53
 70
     1
102
RTVSPropertyOp54
 70
     1
102
RTVSPropertyOp55
 70
     1
102
RTVSPropertyOp56
 70
     1
102
RTVSPropertyOp57
 70
     1
102
RTVSPost2010Prop28
280
     0
102
RTVSPost2010PropOp28
 70
     1
102
RTVSPost2010Prop29
280
     1
102
RTVSPost2010PropOp29
 70
     1
102
RTVSPost2010Prop30
280
     1
102
RTVSPost2010PropOp30
 70
     1
102
RTVSPost2010Prop31
280
     0
102
RTVSPost2010PropOp31
 70
     1
102
RTVSPost2010Prop32
280
     0
102
RTVSPost2010PropOp32
 70
     1
102
RTVSPost2010Prop33
280
     0
102
RTVSPost2010PropOp33
 70
     1
102
RTVSPost2010Prop34
280
     0
102
RTVSPost2010PropOp34
 70
     1
102
RTVSPost2010Prop35
280
     0
102
RTVSPost2010PropOp35
 70
     1
102
RTVSPost2010Prop36
280
     0
102
RTVSPost2010PropOp36
 70
     1
102
RTVSPost2010Prop37
 90
       50
102
RTVSPost2010PropOp37
 70
     1
102
RTVSPost2010Prop38
140
0.0
102
RTVSPost2010PropOp38
 70
     1
102
RTVSPost2010Prop39
140
1.0
102
RTVSPost2010PropOp39
 70
     1
102
RTVSPost2010Prop40
 90
        0
102
RTVSPost2010PropOp40
 70
     1
102
RTVSPost2010Prop41ColorIndex
 90
       18
102
RTVSPost2010Prop41ColorRGB
 90
        0
102
RTVSPost2010PropOp41
 70
     1
102
RTVSPost2010Prop42
 90
       50
102
RTVSPost2010PropOp42
 70
     1
102
RTVSPost2010Prop43
 90
        3
102
RTVSPost2010PropOp43
 70
     1
102
RTVSPost2010Prop44ColorIndex
 90
        5
102
RTVSPost2010Prop44ColorRGB
 90
      255
102
RTVSPost2010PropOp44
 70
     1
102
RTVSPost2010Prop45
280
     0
102
RTVSPost2010PropOp45
 70
     1
102
RTVSPost2010Prop46
 90
       50
102
RTVSPost2010PropOp46
 70
     1
102
RTVSPost2010Prop47
 90
       50
102
RTVSPost2010PropOp47
 70
     1
102
RTVSPost2010Prop48
 90
       50
102
RTVSPost2010PropOp48
 70
     1
102
RTVSPost2010Prop49
280
     0
102
RTVSPost2010PropOp49
 70
     1
102
RTVSPost2010Prop50
 90
       50
102
RTVSPost2010PropOp50
 70
     1
102
RTVSPost2010Prop51ColorIndex
 90
      256
102
RTVSPost2010Prop51ColorRGB
 90
-16777216
102
RTVSPost2010PropOp51
 70
     0
102
RTVSPost2010Prop52
140
1.0
102
RTVSPost2010PropOp52
 70
     0
102
RTVSPost2010Prop53
 90
        2
102
RTVSPost2010PropOp53
 70
     1
102
RTVSPost2010Prop54
  1
strokes_ogs.tif
102
RTVSPost2010PropOp54
 70
     1
102
RTVSPost2010Prop55
280
     0
102
RTVSPost2010PropOp55
 70
     1
102
RTVSPost2010Prop56
140
1.0
102
RTVSPost2010PropOp56
 70
     1
102
RTVSPost2010Prop57
140
1.0
102
RTVSPost2010PropOp57
 70
     1
  0
XRECORD
  5
1C5
102
{ACAD_REACTORS
330
1C4
102
}
330
1C4
100
AcDbXrecord
280
     1
102
RTVSPropertyOp0
 70
     1
102
RTVSPropertyOp1
 70
     1
102
RTVSPropertyOp2
 70
     1
102
RTVSPropertyOp3
 70
     1
102
RTVSPropertyOp4
 70
     1
102
RTVSPropertyOp5
 70
     1
102
RTVSPropertyOp6
 70
     1
102
RTVSPropertyOp7
 70
     1
102
RTVSPropertyOp8
 70
     1
102
RTVSPropertyOp9
 70
     1
102
RTVSPropertyOp10
 70
     1
102
RTVSPropertyOp11
 70
     1
102
RTVSPropertyOp12
 70
     1
102
RTVSPropertyOp13
 70
     1
102
RTVSPropertyOp14
 70
     1
102
RTVSPropertyOp15
 70
     1
102
RTVSPropertyOp16
 70
     1
102
RTVSPropertyOp17
 70
     1
102
RTVSPropertyOp18
 70
     1
102
RTVSPropertyOp19
 70
     1
102
RTVSPropertyOp20
 70
     1
102
RTVSPropertyOp21
 70
     1
102
RTVSPropertyOp22
 70
     1
102
RTVSPropertyOp23
 70
     1
102
RTVSPropertyOp24
 70
     1
102
RTVSPropertyOp25
 70
     1
102
RTVSPropertyOp26
 70
     1
102
RTVSPropertyOp27
 70
     1
102
RTVSPropertyOp28
 70
     1
102
RTVSPropertyOp29
 70
     1
102
RTVSPropertyOp30
 70
     1
102
RTVSPropertyOp31
 70
     1
102
RTVSPropertyOp32
 70
     1
102
RTVSPropertyOp33
 70
     1
102
RTVSPropertyOp34
 70
     1
102
RTVSPropertyOp35
 70
     1
102
RTVSPropertyOp36
 70
     1
102
RTVSPropertyOp37
 70
     1
102
RTVSPropertyOp38
 70
     1
102
RTVSPropertyOp39
 70
     1
102
RTVSPropertyOp40
 70
     1
102
RTVSPropertyOp41
 70
     1
102
RTVSPropertyOp42
 70
     1
102
RTVSPropertyOp43
 70
     1
102
RTVSPropertyOp44
 70
     1
102
RTVSPropertyOp45
 70
     1
102
RTVSPropertyOp46
 70
     1
102
RTVSPropertyOp47
 70
     1
102
RTVSPropertyOp48
 70
     1
102
RTVSPropertyOp49
 70
     1
102
RTVSPropertyOp50
 70
     1
102
RTVSPropertyOp51
 70
     0
102
RTVSPropertyOp52
 70
     0
102
RTVSPropertyOp53
 70
     1
102
RTVSPropertyOp54
 70
     1
102
RTVSPropertyOp55
 70
     1
102
RTVSPropertyOp56
 70
     1
102
RTVSPropertyOp57
 70
     1
102
RTVSPost2010Prop28
280
     0
102
RTVSPost2010PropOp28
 70
     1
102
RTVSPost2010Prop29
280
     1
102
RTVSPost2010PropOp29
 70
     1
102
RTVSPost2010Prop30
280
     1
102
RTVSPost2010PropOp30
 70
     1
102
RTVSPost2010Prop31
280
     0
102
RTVSPost2010PropOp31
 70
     1
102
RTVSPost2010Prop32
280
     0
102
RTVSPost2010PropOp32
 70
     1
102
RTVSPost2010Prop33
280
     0
102
RTVSPost2010PropOp33
 70
     1
102
RTVSPost2010Prop34
280
     0
102
RTVSPost2010PropOp34
 70
     1
102
RTVSPost2010Prop35
280
     0
102
RTVSPost2010PropOp35
 70
     1
102
RTVSPost2010Prop36
280
     0
102
RTVSPost2010PropOp36
 70
     1
102
RTVSPost2010Prop37
 90
       50
102
RTVSPost2010PropOp37
 70
     1
102
RTVSPost2010Prop38
140
0.0
102
RTVSPost2010PropOp38
 70
     1
102
RTVSPost2010Prop39
140
1.0
102
RTVSPost2010PropOp39
 70
     1
102
RTVSPost2010Prop40
 90
        0
102
RTVSPost2010PropOp40
 70
     1
102
RTVSPost2010Prop41ColorIndex
 90
       18
102
RTVSPost2010Prop41ColorRGB
 90
        0
102
RTVSPost2010PropOp41
 70
     1
102
RTVSPost2010Prop42
 90
       50
102
RTVSPost2010PropOp42
 70
     1
102
RTVSPost2010Prop43
 90
        3
102
RTVSPost2010PropOp43
 70
     1
102
RTVSPost2010Prop44ColorIndex
 90
        5
102
RTVSPost2010Prop44ColorRGB
 90
      255
102
RTVSPost2010PropOp44
 70
     1
102
RTVSPost2010Prop45
280
     0
102
RTVSPost2010PropOp45
 70
     1
102
RTVSPost2010Prop46
 90
       50
102
RTVSPost2010PropOp46
 70
     1
102
RTVSPost2010Prop47
 90
       50
102
RTVSPost2010PropOp47
 70
     1
102
RTVSPost2010Prop48
 90
       50
102
RTVSPost2010PropOp48
 70
     1
102
RTVSPost2010Prop49
280
     0
102
RTVSPost2010PropOp49
 70
     1
102
RTVSPost2010Prop50
 90
       50
102
RTVSPost2010PropOp50
 70
     1
102
RTVSPost2010Prop51ColorIndex
 90
      256
102
RTVSPost2010Prop51ColorRGB
 90
-16777216
102
RTVSPost2010PropOp51
 70
     0
102
RTVSPost2010Prop52
140
1.0
102
RTVSPost2010PropOp52
 70
     0
102
RTVSPost2010Prop53
 90
        2
102
RTVSPost2010PropOp53
 70
     1
102
RTVSPost2010Prop54
  1
strokes_ogs.tif
102
RTVSPost2010PropOp54
 70
     1
102
RTVSPost2010Prop55
280
     0
102
RTVSPost2010PropOp55
 70
     1
102
RTVSPost2010Prop56
140
1.0
102
RTVSPost2010PropOp56
 70
     1
102
RTVSPost2010Prop57
140
1.0
102
RTVSPost2010PropOp57
 70
     1
  0
XRECORD
  5
1CB
102
{ACAD_REACTORS
330
1CA
102
}
330
1CA
100
AcDbXrecord
280
     1
102
RTVSPropertyOp0
 70
     1
102
RTVSPropertyOp1
 70
     1
102
RTVSPropertyOp2
 70
     1
102
RTVSPropertyOp3
 70
     1
102
RTVSPropertyOp4
 70
     1
102
RTVSPropertyOp5
 70
     1
102
RTVSPropertyOp6
 70
     1
102
RTVSPropertyOp7
 70
     1
102
RTVSPropertyOp8
 70
     1
102
RTVSPropertyOp9
 70
     1
102
RTVSPropertyOp10
 70
     1
102
RTVSPropertyOp11
 70
     1
102
RTVSPropertyOp12
 70
     1
102
RTVSPropertyOp13
 70
     1
102
RTVSPropertyOp14
 70
     1
102
RTVSPropertyOp15
 70
     1
102
RTVSPropertyOp16
 70
     1
102
RTVSPropertyOp17
 70
     1
102
RTVSPropertyOp18
 70
     1
102
RTVSPropertyOp19
 70
     1
102
RTVSPropertyOp20
 70
     1
102
RTVSPropertyOp21
 70
     1
102
RTVSPropertyOp22
 70
     1
102
RTVSPropertyOp23
 70
     1
102
RTVSPropertyOp24
 70
     1
102
RTVSPropertyOp25
 70
     1
102
RTVSPropertyOp26
 70
     1
102
RTVSPropertyOp27
 70
     1
102
RTVSPropertyOp28
 70
     1
102
RTVSPropertyOp29
 70
     1
102
RTVSPropertyOp30
 70
     1
102
RTVSPropertyOp31
 70
     1
102
RTVSPropertyOp32
 70
     1
102
RTVSPropertyOp33
 70
     1
102
RTVSPropertyOp34
 70
     1
102
RTVSPropertyOp35
 70
     1
102
RTVSPropertyOp36
 70
     1
102
RTVSPropertyOp37
 70
     1
102
RTVSPropertyOp38
 70
     1
102
RTVSPropertyOp39
 70
     1
102
RTVSPropertyOp40
 70
     1
102
RTVSPropertyOp41
 70
     1
102
RTVSPropertyOp42
 70
     1
102
RTVSPropertyOp43
 70
     1
102
RTVSPropertyOp44
 70
     1
102
RTVSPropertyOp45
 70
     1
102
RTVSPropertyOp46
 70
     1
102
RTVSPropertyOp47
 70
     1
102
RTVSPropertyOp48
 70
     1
102
RTVSPropertyOp49
 70
     1
102
RTVSPropertyOp50
 70
     1
102
RTVSPropertyOp51
 70
     0
102
RTVSPropertyOp52
 70
     0
102
RTVSPropertyOp53
 70
     1
102
RTVSPropertyOp54
 70
     1
102
RTVSPropertyOp55
 70
     1
102
RTVSPropertyOp56
 70
     1
102
RTVSPropertyOp57
 70
     1
102
RTVSPost2010Prop28
280
     0
102
RTVSPost2010PropOp28
 70
     1
102
RTVSPost2010Prop29
280
     1
102
RTVSPost2010PropOp29
 70
     1
102
RTVSPost2010Prop30
280
     1
102
RTVSPost2010PropOp30
 70
     1
102
RTVSPost2010Prop31
280
     0
102
RTVSPost2010PropOp31
 70
     1
102
RTVSPost2010Prop32
280
     0
102
RTVSPost2010PropOp32
 70
     1
102
RTVSPost2010Prop33
280
     0
102
RTVSPost2010PropOp33
 70
     1
102
RTVSPost2010Prop34
280
     0
102
RTVSPost2010PropOp34
 70
     1
102
RTVSPost2010Prop35
280
     0
102
RTVSPost2010PropOp35
 70
     1
102
RTVSPost2010Prop36
280
     0
102
RTVSPost2010PropOp36
 70
     1
102
RTVSPost2010Prop37
 90
       50
102
RTVSPost2010PropOp37
 70
     1
102
RTVSPost2010Prop38
140
0.0
102
RTVSPost2010PropOp38
 70
     1
102
RTVSPost2010Prop39
140
1.0
102
RTVSPost2010PropOp39
 70
     1
102
RTVSPost2010Prop40
 90
        0
102
RTVSPost2010PropOp40
 70
     1
102
RTVSPost2010Prop41ColorIndex
 90
       18
102
RTVSPost2010Prop41ColorRGB
 90
        0
102
RTVSPost2010PropOp41
 70
     1
102
RTVSPost2010Prop42
 90
       50
102
RTVSPost2010PropOp42
 70
     1
102
RTVSPost2010Prop43
 90
        3
102
RTVSPost2010PropOp43
 70
     1
102
RTVSPost2010Prop44ColorIndex
 90
        5
102
RTVSPost2010Prop44ColorRGB
 90
      255
102
RTVSPost2010PropOp44
 70
     1
102
RTVSPost2010Prop45
280
     0
102
RTVSPost2010PropOp45
 70
     1
102
RTVSPost2010Prop46
 90
       50
102
RTVSPost2010PropOp46
 70
     1
102
RTVSPost2010Prop47
 90
       50
102
RTVSPost2010PropOp47
 70
     1
102
RTVSPost2010Prop48
 90
       50
102
RTVSPost2010PropOp48
 70
     1
102
RTVSPost2010Prop49
280
     0
102
RTVSPost2010PropOp49
 70
     1
102
RTVSPost2010Prop50
 90
       50
102
RTVSPost2010PropOp50
 70
     1
102
RTVSPost2010Prop51ColorIndex
 90
      256
102
RTVSPost2010Prop51ColorRGB
 90
-16777216
102
RTVSPost2010PropOp51
 70
     0
102
RTVSPost2010Prop52
140
1.0
102
RTVSPost2010PropOp52
 70
     0
102
RTVSPost2010Prop53
 90
        2
102
RTVSPost2010PropOp53
 70
     1
102
RTVSPost2010Prop54
  1
strokes_ogs.tif
102
RTVSPost2010PropOp54
 70
     1
102
RTVSPost2010Prop55
280
     0
102
RTVSPost2010PropOp55
 70
     1
102
RTVSPost2010Prop56
140
1.0
102
RTVSPost2010PropOp56
 70
     1
102
RTVSPost2010Prop57
140
1.0
102
RTVSPost2010PropOp57
 70
     1
  0
XRECORD
  5
1DF
102
{ACAD_REACTORS
330
1DE
102
}
330
1DE
100
AcDbXrecord
280
     1
102
RTVSPropertyOp0
 70
     0
102
RTVSPropertyOp1
 70
     0
102
RTVSPropertyOp2
 70
     0
102
RTVSPropertyOp3
 70
     0
102
RTVSPropertyOp4
 70
     0
102
RTVSPropertyOp5
 70
     0
102
RTVSPropertyOp6
 70
     0
102
RTVSPropertyOp7
 70
     0
102
RTVSPropertyOp8
 70
     0
102
RTVSPropertyOp9
 70
     0
102
RTVSPropertyOp10
 70
     0
102
RTVSPropertyOp11
 70
     0
102
RTVSPropertyOp12
 70
     0
102
RTVSPropertyOp13
 70
     0
102
RTVSPropertyOp14
 70
     2
102
RTVSPropertyOp15
 70
     0
102
RTVSPropertyOp16
 70
     0
102
RTVSPropertyOp17
 70
     0
102
RTVSPropertyOp18
 70
     0
102
RTVSPropertyOp19
 70
     0
102
RTVSPropertyOp20
 70
     0
102
RTVSPropertyOp21
 70
     0
102
RTVSPropertyOp22
 70
     0
102
RTVSPropertyOp23
 70
     0
102
RTVSPropertyOp24
 70
     0
102
RTVSPropertyOp25
 70
     0
102
RTVSPropertyOp26
 70
     0
102
RTVSPropertyOp27
 70
     0
102
RTVSPropertyOp28
 70
     0
102
RTVSPropertyOp29
 70
     0
102
RTVSPropertyOp30
 70
     0
102
RTVSPropertyOp31
 70
     0
102
RTVSPropertyOp32
 70
     0
102
RTVSPropertyOp33
 70
     0
102
RTVSPropertyOp34
 70
     0
102
RTVSPropertyOp35
 70
     0
102
RTVSPropertyOp36
 70
     0
102
RTVSPropertyOp37
 70
     0
102
RTVSPropertyOp38
 70
     0
102
RTVSPropertyOp39
 70
     0
102
RTVSPropertyOp40
 70
     0
102
RTVSPropertyOp41
 70
     0
102
RTVSPropertyOp42
 70
     0
102
RTVSPropertyOp43
 70
     0
102
RTVSPropertyOp44
 70
     0
102
RTVSPropertyOp45
 70
     0
102
RTVSPropertyOp46
 70
     0
102
RTVSPropertyOp47
 70
     0
102
RTVSPropertyOp48
 70
     0
102
RTVSPropertyOp49
 70
     0
102
RTVSPropertyOp50
 70
     0
102
RTVSPropertyOp51
 70
     0
102
RTVSPropertyOp52
 70
     0
102
RTVSPropertyOp53
 70
     0
102
RTVSPropertyOp54
 70
     0
102
RTVSPropertyOp55
 70
     0
102
RTVSPropertyOp56
 70
     0
102
RTVSPropertyOp57
 70
     0
102
RTVSPost2010Prop28
280
     0
102
RTVSPost2010PropOp28
 70
     0
102
RTVSPost2010Prop29
280
     1
102
RTVSPost2010PropOp29
 70
     0
102
RTVSPost2010Prop30
280
     1
102
RTVSPost2010PropOp30
 70
     0
102
RTVSPost2010Prop31
280
     0
102
RTVSPost2010PropOp31
 70
     0
102
RTVSPost2010Prop32
280
     0
102
RTVSPost2010PropOp32
 70
     0
102
RTVSPost2010Prop33
280
     0
102
RTVSPost2010PropOp33
 70
     0
102
RTVSPost2010Prop34
280
     0
102
RTVSPost2010PropOp34
 70
     0
102
RTVSPost2010Prop35
280
     0
102
RTVSPost2010PropOp35
 70
     0
102
RTVSPost2010Prop36
280
     0
102
RTVSPost2010PropOp36
 70
     0
102
RTVSPost2010Prop37
 90
       50
102
RTVSPost2010PropOp37
 70
     0
102
RTVSPost2010Prop38
140
0.0
102
RTVSPost2010PropOp38
 70
     0
102
RTVSPost2010Prop39
140
1.0
102
RTVSPost2010PropOp39
 70
     0
102
RTVSPost2010Prop40
 90
        0
102
RTVSPost2010PropOp40
 70
     0
102
RTVSPost2010Prop41ColorIndex
 90
       18
102
RTVSPost2010Prop41ColorRGB
 90
        0
102
RTVSPost2010PropOp41
 70
     0
102
RTVSPost2010Prop42
 90
       50
102
RTVSPost2010PropOp42
 70
     0
102
RTVSPost2010Prop43
 90
        3
102
RTVSPost2010PropOp43
 70
     0
102
RTVSPost2010Prop44ColorIndex
 90
        5
102
RTVSPost2010Prop44ColorRGB
 90
      255
102
RTVSPost2010PropOp44
 70
     0
102
RTVSPost2010Prop45
280
     0
102
RTVSPost2010PropOp45
 70
     0
102
RTVSPost2010Prop46
 90
       50
102
RTVSPost2010PropOp46
 70
     0
102
RTVSPost2010Prop47
 90
       50
102
RTVSPost2010PropOp47
 70
     0
102
RTVSPost2010Prop48
 90
       50
102
RTVSPost2010PropOp48
 70
     0
102
RTVSPost2010Prop49
280
     0
102
RTVSPost2010PropOp49
 70
     0
102
RTVSPost2010Prop50
 90
       50
102
RTVSPost2010PropOp50
 70
     0
102
RTVSPost2010Prop51ColorIndex
 90
      256
102
RTVSPost2010Prop51ColorRGB
 90
-16777216
102
RTVSPost2010PropOp51
 70
     0
102
RTVSPost2010Prop52
140
1.0
102
RTVSPost2010PropOp52
 70
     0
102
RTVSPost2010Prop53
 90
        2
102
RTVSPost2010PropOp53
 70
     0
102
RTVSPost2010Prop54
  1
strokes_ogs.tif
102
RTVSPost2010PropOp54
 70
     0
102
RTVSPost2010Prop55
280
     0
102
RTVSPost2010PropOp55
 70
     0
102
RTVSPost2010Prop56
140
1.0
102
RTVSPost2010PropOp56
 70
     0
102
RTVSPost2010Prop57
140
1.0
102
RTVSPost2010PropOp57
 70
     0
  0
XRECORD
  5
1D9
102
{ACAD_REACTORS
330
1D8
102
}
330
1D8
100
AcDbXrecord
280
     1
102
RTVSPropertyOp0
 70
     1
102
RTVSPropertyOp1
 70
     1
102
RTVSPropertyOp2
 70
     1
102
RTVSPropertyOp3
 70
     1
102
RTVSPropertyOp4
 70
     1
102
RTVSPropertyOp5
 70
     1
102
RTVSPropertyOp6
 70
     1
102
RTVSPropertyOp7
 70
     1
102
RTVSPropertyOp8
 70
     1
102
RTVSPropertyOp9
 70
     1
102
RTVSPropertyOp10
 70
     1
102
RTVSPropertyOp11
 70
     1
102
RTVSPropertyOp12
 70
     1
102
RTVSPropertyOp13
 70
     1
102
RTVSPropertyOp14
 70
     1
102
RTVSPropertyOp15
 70
     1
102
RTVSPropertyOp16
 70
     1
102
RTVSPropertyOp17
 70
     1
102
RTVSPropertyOp18
 70
     1
102
RTVSPropertyOp19
 70
     1
102
RTVSPropertyOp20
 70
     1
102
RTVSPropertyOp21
 70
     1
102
RTVSPropertyOp22
 70
     1
102
RTVSPropertyOp23
 70
     1
102
RTVSPropertyOp24
 70
     1
102
RTVSPropertyOp25
 70
     1
102
RTVSPropertyOp26
 70
     1
102
RTVSPropertyOp27
 70
     1
102
RTVSPropertyOp28
 70
     1
102
RTVSPropertyOp29
 70
     1
102
RTVSPropertyOp30
 70
     1
102
RTVSPropertyOp31
 70
     1
102
RTVSPropertyOp32
 70
     1
102
RTVSPropertyOp33
 70
     1
102
RTVSPropertyOp34
 70
     1
102
RTVSPropertyOp35
 70
     1
102
RTVSPropertyOp36
 70
     1
102
RTVSPropertyOp37
 70
     1
102
RTVSPropertyOp38
 70
     1
102
RTVSPropertyOp39
 70
     1
102
RTVSPropertyOp40
 70
     1
102
RTVSPropertyOp41
 70
     1
102
RTVSPropertyOp42
 70
     1
102
RTVSPropertyOp43
 70
     1
102
RTVSPropertyOp44
 70
     1
102
RTVSPropertyOp45
 70
     1
102
RTVSPropertyOp46
 70
     1
102
RTVSPropertyOp47
 70
     1
102
RTVSPropertyOp48
 70
     1
102
RTVSPropertyOp49
 70
     1
102
RTVSPropertyOp50
 70
     1
102
RTVSPropertyOp51
 70
     0
102
RTVSPropertyOp52
 70
     0
102
RTVSPropertyOp53
 70
     1
102
RTVSPropertyOp54
 70
     1
102
RTVSPropertyOp55
 70
     1
102
RTVSPropertyOp56
 70
     1
102
RTVSPropertyOp57
 70
     1
102
RTVSPost2010Prop28
280
     0
102
RTVSPost2010PropOp28
 70
     1
102
RTVSPost2010Prop29
280
     1
102
RTVSPost2010PropOp29
 70
     1
102
RTVSPost2010Prop30
280
     1
102
RTVSPost2010PropOp30
 70
     1
102
RTVSPost2010Prop31
280
     0
102
RTVSPost2010PropOp31
 70
     1
102
RTVSPost2010Prop32
280
     0
102
RTVSPost2010PropOp32
 70
     1
102
RTVSPost2010Prop33
280
     0
102
RTVSPost2010PropOp33
 70
     1
102
RTVSPost2010Prop34
280
     0
102
RTVSPost2010PropOp34
 70
     1
102
RTVSPost2010Prop35
280
     0
102
RTVSPost2010PropOp35
 70
     1
102
RTVSPost2010Prop36
280
     0
102
RTVSPost2010PropOp36
 70
     1
102
RTVSPost2010Prop37
 90
       50
102
RTVSPost2010PropOp37
 70
     1
102
RTVSPost2010Prop38
140
0.0
102
RTVSPost2010PropOp38
 70
     1
102
RTVSPost2010Prop39
140
1.0
102
RTVSPost2010PropOp39
 70
     1
102
RTVSPost2010Prop40
 90
        0
102
RTVSPost2010PropOp40
 70
     1
102
RTVSPost2010Prop41ColorIndex
 90
       18
102
RTVSPost2010Prop41ColorRGB
 90
        0
102
RTVSPost2010PropOp41
 70
     1
102
RTVSPost2010Prop42
 90
       50
102
RTVSPost2010PropOp42
 70
     1
102
RTVSPost2010Prop43
 90
        3
102
RTVSPost2010PropOp43
 70
     1
102
RTVSPost2010Prop44ColorIndex
 90
        5
102
RTVSPost2010Prop44ColorRGB
 90
      255
102
RTVSPost2010PropOp44
 70
     1
102
RTVSPost2010Prop45
280
     0
102
RTVSPost2010PropOp45
 70
     1
102
RTVSPost2010Prop46
 90
       50
102
RTVSPost2010PropOp46
 70
     1
102
RTVSPost2010Prop47
 90
       50
102
RTVSPost2010PropOp47
 70
     1
102
RTVSPost2010Prop48
 90
       50
102
RTVSPost2010PropOp48
 70
     1
102
RTVSPost2010Prop49
280
     0
102
RTVSPost2010PropOp49
 70
     1
102
RTVSPost2010Prop50
 90
       50
102
RTVSPost2010PropOp50
 70
     1
102
RTVSPost2010Prop51ColorIndex
 90
      256
102
RTVSPost2010Prop51ColorRGB
 90
-16777216
102
RTVSPost2010PropOp51
 70
     0
102
RTVSPost2010Prop52
140
1.0
102
RTVSPost2010PropOp52
 70
     0
102
RTVSPost2010Prop53
 90
        2
102
RTVSPost2010PropOp53
 70
     1
102
RTVSPost2010Prop54
  1
strokes_ogs.tif
102
RTVSPost2010PropOp54
 70
     1
102
RTVSPost2010Prop55
280
     0
102
RTVSPost2010PropOp55
 70
     1
102
RTVSPost2010Prop56
140
1.0
102
RTVSPost2010PropOp56
 70
     1
102
RTVSPost2010Prop57
140
1.0
102
RTVSPost2010PropOp57
 70
     1
  0
XRECORD
  5
1E1
102
{ACAD_REACTORS
330
1E0
102
}
330
1E0
100
AcDbXrecord
280
     1
102
RTVSPropertyOp0
 70
     0
102
RTVSPropertyOp1
 70
     0
102
RTVSPropertyOp2
 70
     0
102
RTVSPropertyOp3
 70
     0
102
RTVSPropertyOp4
 70
     0
102
RTVSPropertyOp5
 70
     0
102
RTVSPropertyOp6
 70
     0
102
RTVSPropertyOp7
 70
     0
102
RTVSPropertyOp8
 70
     0
102
RTVSPropertyOp9
 70
     0
102
RTVSPropertyOp10
 70
     0
102
RTVSPropertyOp11
 70
     0
102
RTVSPropertyOp12
 70
     0
102
RTVSPropertyOp13
 70
     0
102
RTVSPropertyOp14
 70
     2
102
RTVSPropertyOp15
 70
     0
102
RTVSPropertyOp16
 70
     0
102
RTVSPropertyOp17
 70
     0
102
RTVSPropertyOp18
 70
     0
102
RTVSPropertyOp19
 70
     0
102
RTVSPropertyOp20
 70
     0
102
RTVSPropertyOp21
 70
     0
102
RTVSPropertyOp22
 70
     0
102
RTVSPropertyOp23
 70
     0
102
RTVSPropertyOp24
 70
     0
102
RTVSPropertyOp25
 70
     0
102
RTVSPropertyOp26
 70
     0
102
RTVSPropertyOp27
 70
     0
102
RTVSPropertyOp28
 70
     0
102
RTVSPropertyOp29
 70
     0
102
RTVSPropertyOp30
 70
     0
102
RTVSPropertyOp31
 70
     0
102
RTVSPropertyOp32
 70
     0
102
RTVSPropertyOp33
 70
     0
102
RTVSPropertyOp34
 70
     0
102
RTVSPropertyOp35
 70
     0
102
RTVSPropertyOp36
 70
     0
102
RTVSPropertyOp37
 70
     0
102
RTVSPropertyOp38
 70
     0
102
RTVSPropertyOp39
 70
     0
102
RTVSPropertyOp40
 70
     0
102
RTVSPropertyOp41
 70
     0
102
RTVSPropertyOp42
 70
     0
102
RTVSPropertyOp43
 70
     0
102
RTVSPropertyOp44
 70
     0
102
RTVSPropertyOp45
 70
     0
102
RTVSPropertyOp46
 70
     0
102
RTVSPropertyOp47
 70
     0
102
RTVSPropertyOp48
 70
     0
102
RTVSPropertyOp49
 70
     0
102
RTVSPropertyOp50
 70
     0
102
RTVSPropertyOp51
 70
     0
102
RTVSPropertyOp52
 70
     0
102
RTVSPropertyOp53
 70
     0
102
RTVSPropertyOp54
 70
     0
102
RTVSPropertyOp55
 70
     0
102
RTVSPropertyOp56
 70
     0
102
RTVSPropertyOp57
 70
     0
102
RTVSPost2010Prop28
280
     0
102
RTVSPost2010PropOp28
 70
     0
102
RTVSPost2010Prop29
280
     1
102
RTVSPost2010PropOp29
 70
     0
102
RTVSPost2010Prop30
280
     1
102
RTVSPost2010PropOp30
 70
     0
102
RTVSPost2010Prop31
280
     0
102
RTVSPost2010PropOp31
 70
     0
102
RTVSPost2010Prop32
280
     0
102
RTVSPost2010PropOp32
 70
     0
102
RTVSPost2010Prop33
280
     0
102
RTVSPost2010PropOp33
 70
     0
102
RTVSPost2010Prop34
280
     0
102
RTVSPost2010PropOp34
 70
     0
102
RTVSPost2010Prop35
280
     0
102
RTVSPost2010PropOp35
 70
     0
102
RTVSPost2010Prop36
280
     0
102
RTVSPost2010PropOp36
 70
     0
102
RTVSPost2010Prop37
 90
       50
102
RTVSPost2010PropOp37
 70
     0
102
RTVSPost2010Prop38
140
0.0
102
RTVSPost2010PropOp38
 70
     0
102
RTVSPost2010Prop39
140
1.0
102
RTVSPost2010PropOp39
 70
     0
102
RTVSPost2010Prop40
 90
        0
102
RTVSPost2010PropOp40
 70
     0
102
RTVSPost2010Prop41ColorIndex
 90
       18
102
RTVSPost2010Prop41ColorRGB
 90
        0
102
RTVSPost2010PropOp41
 70
     0
102
RTVSPost2010Prop42
 90
       50
102
RTVSPost2010PropOp42
 70
     0
102
RTVSPost2010Prop43
 90
        3
102
RTVSPost2010PropOp43
 70
     0
102
RTVSPost2010Prop44ColorIndex
 90
        5
102
RTVSPost2010Prop44ColorRGB
 90
      255
102
RTVSPost2010PropOp44
 70
     0
102
RTVSPost2010Prop45
280
     0
102
RTVSPost2010PropOp45
 70
     0
102
RTVSPost2010Prop46
 90
       50
102
RTVSPost2010PropOp46
 70
     0
102
RTVSPost2010Prop47
 90
       50
102
RTVSPost2010PropOp47
 70
     0
102
RTVSPost2010Prop48
 90
       50
102
RTVSPost2010PropOp48
 70
     0
102
RTVSPost2010Prop49
280
     0
102
RTVSPost2010PropOp49
 70
     0
102
RTVSPost2010Prop50
 90
       50
102
RTVSPost2010PropOp50
 70
     0
102
RTVSPost2010Prop51ColorIndex
 90
      256
102
RTVSPost2010Prop51ColorRGB
 90
-16777216
102
RTVSPost2010PropOp51
 70
     0
102
RTVSPost2010Prop52
140
1.0
102
RTVSPost2010PropOp52
 70
     0
102
RTVSPost2010Prop53
 90
        2
102
RTVSPost2010PropOp53
 70
     0
102
RTVSPost2010Prop54
  1
strokes_ogs.tif
102
RTVSPost2010PropOp54
 70
     0
102
RTVSPost2010Prop55
280
     0
102
RTVSPost2010PropOp55
 70
     0
102
RTVSPost2010Prop56
140
1.0
102
RTVSPost2010PropOp56
 70
     0
102
RTVSPost2010Prop57
140
1.0
102
RTVSPost2010PropOp57
 70
     0
  0
XRECORD
  5
1CF
102
{ACAD_REACTORS
330
1CE
102
}
330
1CE
100
AcDbXrecord
280
     1
102
RTVSPropertyOp0
 70
     1
102
RTVSPropertyOp1
 70
     1
102
RTVSPropertyOp2
 70
     1
102
RTVSPropertyOp3
 70
     1
102
RTVSPropertyOp4
 70
     1
102
RTVSPropertyOp5
 70
     1
102
RTVSPropertyOp6
 70
     1
102
RTVSPropertyOp7
 70
     1
102
RTVSPropertyOp8
 70
     1
102
RTVSPropertyOp9
 70
     1
102
RTVSPropertyOp10
 70
     1
102
RTVSPropertyOp11
 70
     1
102
RTVSPropertyOp12
 70
     1
102
RTVSPropertyOp13
 70
     1
102
RTVSPropertyOp14
 70
     1
102
RTVSPropertyOp15
 70
     1
102
RTVSPropertyOp16
 70
     1
102
RTVSPropertyOp17
 70
     1
102
RTVSPropertyOp18
 70
     1
102
RTVSPropertyOp19
 70
     1
102
RTVSPropertyOp20
 70
     1
102
RTVSPropertyOp21
 70
     1
102
RTVSPropertyOp22
 70
     1
102
RTVSPropertyOp23
 70
     1
102
RTVSPropertyOp24
 70
     1
102
RTVSPropertyOp25
 70
     1
102
RTVSPropertyOp26
 70
     1
102
RTVSPropertyOp27
 70
     1
102
RTVSPropertyOp28
 70
     1
102
RTVSPropertyOp29
 70
     1
102
RTVSPropertyOp30
 70
     1
102
RTVSPropertyOp31
 70
     1
102
RTVSPropertyOp32
 70
     1
102
RTVSPropertyOp33
 70
     1
102
RTVSPropertyOp34
 70
     1
102
RTVSPropertyOp35
 70
     1
102
RTVSPropertyOp36
 70
     1
102
RTVSPropertyOp37
 70
     1
102
RTVSPropertyOp38
 70
     1
102
RTVSPropertyOp39
 70
     1
102
RTVSPropertyOp40
 70
     1
102
RTVSPropertyOp41
 70
     1
102
RTVSPropertyOp42
 70
     1
102
RTVSPropertyOp43
 70
     1
102
RTVSPropertyOp44
 70
     1
102
RTVSPropertyOp45
 70
     1
102
RTVSPropertyOp46
 70
     1
102
RTVSPropertyOp47
 70
     1
102
RTVSPropertyOp48
 70
     1
102
RTVSPropertyOp49
 70
     1
102
RTVSPropertyOp50
 70
     1
102
RTVSPropertyOp51
 70
     0
102
RTVSPropertyOp52
 70
     0
102
RTVSPropertyOp53
 70
     1
102
RTVSPropertyOp54
 70
     1
102
RTVSPropertyOp55
 70
     1
102
RTVSPropertyOp56
 70
     1
102
RTVSPropertyOp57
 70
     1
102
RTVSPost2010Prop28
280
     0
102
RTVSPost2010PropOp28
 70
     1
102
RTVSPost2010Prop29
280
     1
102
RTVSPost2010PropOp29
 70
     1
102
RTVSPost2010Prop30
280
     1
102
RTVSPost2010PropOp30
 70
     1
102
RTVSPost2010Prop31
280
     0
102
RTVSPost2010PropOp31
 70
     1
102
RTVSPost2010Prop32
280
     0
102
RTVSPost2010PropOp32
 70
     1
102
RTVSPost2010Prop33
280
     0
102
RTVSPost2010PropOp33
 70
     1
102
RTVSPost2010Prop34
280
     0
102
RTVSPost2010PropOp34
 70
     1
102
RTVSPost2010Prop35
280
     0
102
RTVSPost2010PropOp35
 70
     1
102
RTVSPost2010Prop36
280
     0
102
RTVSPost2010PropOp36
 70
     1
102
RTVSPost2010Prop37
 90
       50
102
RTVSPost2010PropOp37
 70
     1
102
RTVSPost2010Prop38
140
0.0
102
RTVSPost2010PropOp38
 70
     1
102
RTVSPost2010Prop39
140
1.0
102
RTVSPost2010PropOp39
 70
     1
102
RTVSPost2010Prop40
 90
        0
102
RTVSPost2010PropOp40
 70
     1
102
RTVSPost2010Prop41ColorIndex
 90
       18
102
RTVSPost2010Prop41ColorRGB
 90
        0
102
RTVSPost2010PropOp41
 70
     1
102
RTVSPost2010Prop42
 90
       50
102
RTVSPost2010PropOp42
 70
     1
102
RTVSPost2010Prop43
 90
        3
102
RTVSPost2010PropOp43
 70
     1
102
RTVSPost2010Prop44ColorIndex
 90
        5
102
RTVSPost2010Prop44ColorRGB
 90
      255
102
RTVSPost2010PropOp44
 70
     1
102
RTVSPost2010Prop45
280
     0
102
RTVSPost2010PropOp45
 70
     1
102
RTVSPost2010Prop46
 90
       50
102
RTVSPost2010PropOp46
 70
     1
102
RTVSPost2010Prop47
 90
       50
102
RTVSPost2010PropOp47
 70
     1
102
RTVSPost2010Prop48
 90
       50
102
RTVSPost2010PropOp48
 70
     1
102
RTVSPost2010Prop49
280
     0
102
RTVSPost2010PropOp49
 70
     1
102
RTVSPost2010Prop50
 90
       50
102
RTVSPost2010PropOp50
 70
     1
102
RTVSPost2010Prop51ColorIndex
 90
      256
102
RTVSPost2010Prop51ColorRGB
 90
-16777216
102
RTVSPost2010PropOp51
 70
     0
102
RTVSPost2010Prop52
140
1.0
102
RTVSPost2010PropOp52
 70
     0
102
RTVSPost2010Prop53
 90
        2
102
RTVSPost2010PropOp53
 70
     1
102
RTVSPost2010Prop54
  1
strokes_ogs.tif
102
RTVSPost2010PropOp54
 70
     1
102
RTVSPost2010Prop55
280
     0
102
RTVSPost2010PropOp55
 70
     1
102
RTVSPost2010Prop56
140
1.0
102
RTVSPost2010PropOp56
 70
     1
102
RTVSPost2010Prop57
140
1.0
102
RTVSPost2010PropOp57
 70
     1
  0
XRECORD
  5
1ED
102
{ACAD_REACTORS
330
1EC
102
}
330
1EC
100
AcDbXrecord
280
     1
102
RTVSPropertyOp0
 70
     1
102
RTVSPropertyOp1
 70
     1
102
RTVSPropertyOp2
 70
     1
102
RTVSPropertyOp3
 70
     1
102
RTVSPropertyOp4
 70
     1
102
RTVSPropertyOp5
 70
     1
102
RTVSPropertyOp6
 70
     1
102
RTVSPropertyOp7
 70
     1
102
RTVSPropertyOp8
 70
     1
102
RTVSPropertyOp9
 70
     1
102
RTVSPropertyOp10
 70
     1
102
RTVSPropertyOp11
 70
     1
102
RTVSPropertyOp12
 70
     1
102
RTVSPropertyOp13
 70
     1
102
RTVSPropertyOp14
 70
     1
102
RTVSPropertyOp15
 70
     1
102
RTVSPropertyOp16
 70
     1
102
RTVSPropertyOp17
 70
     1
102
RTVSPropertyOp18
 70
     1
102
RTVSPropertyOp19
 70
     1
102
RTVSPropertyOp20
 70
     1
102
RTVSPropertyOp21
 70
     1
102
RTVSPropertyOp22
 70
     1
102
RTVSPropertyOp23
 70
     1
102
RTVSPropertyOp24
 70
     1
102
RTVSPropertyOp25
 70
     1
102
RTVSPropertyOp26
 70
     1
102
RTVSPropertyOp27
 70
     1
102
RTVSPropertyOp28
 70
     1
102
RTVSPropertyOp29
 70
     1
102
RTVSPropertyOp30
 70
     1
102
RTVSPropertyOp31
 70
     1
102
RTVSPropertyOp32
 70
     1
102
RTVSPropertyOp33
 70
     1
102
RTVSPropertyOp34
 70
     1
102
RTVSPropertyOp35
 70
     1
102
RTVSPropertyOp36
 70
     1
102
RTVSPropertyOp37
 70
     1
102
RTVSPropertyOp38
 70
     1
102
RTVSPropertyOp39
 70
     1
102
RTVSPropertyOp40
 70
     1
102
RTVSPropertyOp41
 70
     1
102
RTVSPropertyOp42
 70
     1
102
RTVSPropertyOp43
 70
     1
102
RTVSPropertyOp44
 70
     1
102
RTVSPropertyOp45
 70
     1
102
RTVSPropertyOp46
 70
     1
102
RTVSPropertyOp47
 70
     1
102
RTVSPropertyOp48
 70
     1
102
RTVSPropertyOp49
 70
     1
102
RTVSPropertyOp50
 70
     1
102
RTVSPropertyOp51
 70
     0
102
RTVSPropertyOp52
 70
     0
102
RTVSPropertyOp53
 70
     1
102
RTVSPropertyOp54
 70
     1
102
RTVSPropertyOp55
 70
     1
102
RTVSPropertyOp56
 70
     1
102
RTVSPropertyOp57
 70
     1
102
RTVSPost2010Prop28
280
     0
102
RTVSPost2010PropOp28
 70
     1
102
RTVSPost2010Prop29
280
     1
102
RTVSPost2010PropOp29
 70
     1
102
RTVSPost2010Prop30
280
     1
102
RTVSPost2010PropOp30
 70
     1
102
RTVSPost2010Prop31
280
     0
102
RTVSPost2010PropOp31
 70
     1
102
RTVSPost2010Prop32
280
     0
102
RTVSPost2010PropOp32
 70
     1
102
RTVSPost2010Prop33
280
     0
102
RTVSPost2010PropOp33
 70
     1
102
RTVSPost2010Prop34
280
     0
102
RTVSPost2010PropOp34
 70
     1
102
RTVSPost2010Prop35
280
     0
102
RTVSPost2010PropOp35
 70
     1
102
RTVSPost2010Prop36
280
     0
102
RTVSPost2010PropOp36
 70
     1
102
RTVSPost2010Prop37
 90
       50
102
RTVSPost2010PropOp37
 70
     1
102
RTVSPost2010Prop38
140
0.0
102
RTVSPost2010PropOp38
 70
     1
102
RTVSPost2010Prop39
140
1.0
102
RTVSPost2010PropOp39
 70
     1
102
RTVSPost2010Prop40
 90
        0
102
RTVSPost2010PropOp40
 70
     1
102
RTVSPost2010Prop41ColorIndex
 90
       18
102
RTVSPost2010Prop41ColorRGB
 90
        0
102
RTVSPost2010PropOp41
 70
     1
102
RTVSPost2010Prop42
 90
       50
102
RTVSPost2010PropOp42
 70
     1
102
RTVSPost2010Prop43
 90
        3
102
RTVSPost2010PropOp43
 70
     1
102
RTVSPost2010Prop44ColorIndex
 90
        5
102
RTVSPost2010Prop44ColorRGB
 90
      255
102
RTVSPost2010PropOp44
 70
     1
102
RTVSPost2010Prop45
280
     0
102
RTVSPost2010PropOp45
 70
     1
102
RTVSPost2010Prop46
 90
       50
102
RTVSPost2010PropOp46
 70
     1
102
RTVSPost2010Prop47
 90
       50
102
RTVSPost2010PropOp47
 70
     1
102
RTVSPost2010Prop48
 90
       50
102
RTVSPost2010PropOp48
 70
     1
102
RTVSPost2010Prop49
280
     0
102
RTVSPost2010PropOp49
 70
     1
102
RTVSPost2010Prop50
 90
       50
102
RTVSPost2010PropOp50
 70
     1
102
RTVSPost2010Prop51ColorIndex
 90
      256
102
RTVSPost2010Prop51ColorRGB
 90
-16777216
102
RTVSPost2010PropOp51
 70
     0
102
RTVSPost2010Prop52
140
1.0
102
RTVSPost2010PropOp52
 70
     0
102
RTVSPost2010Prop53
 90
        2
102
RTVSPost2010PropOp53
 70
     1
102
RTVSPost2010Prop54
  1
strokes_ogs.tif
102
RTVSPost2010PropOp54
 70
     1
102
RTVSPost2010Prop55
280
     0
102
RTVSPost2010PropOp55
 70
     1
102
RTVSPost2010Prop56
140
1.0
102
RTVSPost2010PropOp56
 70
     1
102
RTVSPost2010Prop57
140
1.0
102
RTVSPost2010PropOp57
 70
     1
  0
XRECORD
  5
1EB
102
{ACAD_REACTORS
330
1EA
102
}
330
1EA
100
AcDbXrecord
280
     1
102
RTVSPropertyOp0
 70
     1
102
RTVSPropertyOp1
 70
     1
102
RTVSPropertyOp2
 70
     1
102
RTVSPropertyOp3
 70
     1
102
RTVSPropertyOp4
 70
     1
102
RTVSPropertyOp5
 70
     1
102
RTVSPropertyOp6
 70
     1
102
RTVSPropertyOp7
 70
     1
102
RTVSPropertyOp8
 70
     1
102
RTVSPropertyOp9
 70
     1
102
RTVSPropertyOp10
 70
     1
102
RTVSPropertyOp11
 70
     1
102
RTVSPropertyOp12
 70
     1
102
RTVSPropertyOp13
 70
     1
102
RTVSPropertyOp14
 70
     1
102
RTVSPropertyOp15
 70
     1
102
RTVSPropertyOp16
 70
     1
102
RTVSPropertyOp17
 70
     1
102
RTVSPropertyOp18
 70
     1
102
RTVSPropertyOp19
 70
     1
102
RTVSPropertyOp20
 70
     1
102
RTVSPropertyOp21
 70
     1
102
RTVSPropertyOp22
 70
     1
102
RTVSPropertyOp23
 70
     1
102
RTVSPropertyOp24
 70
     1
102
RTVSPropertyOp25
 70
     1
102
RTVSPropertyOp26
 70
     1
102
RTVSPropertyOp27
 70
     1
102
RTVSPropertyOp28
 70
     1
102
RTVSPropertyOp29
 70
     1
102
RTVSPropertyOp30
 70
     1
102
RTVSPropertyOp31
 70
     1
102
RTVSPropertyOp32
 70
     1
102
RTVSPropertyOp33
 70
     1
102
RTVSPropertyOp34
 70
     1
102
RTVSPropertyOp35
 70
     1
102
RTVSPropertyOp36
 70
     1
102
RTVSPropertyOp37
 70
     1
102
RTVSPropertyOp38
 70
     1
102
RTVSPropertyOp39
 70
     1
102
RTVSPropertyOp40
 70
     1
102
RTVSPropertyOp41
 70
     1
102
RTVSPropertyOp42
 70
     1
102
RTVSPropertyOp43
 70
     1
102
RTVSPropertyOp44
 70
     1
102
RTVSPropertyOp45
 70
     1
102
RTVSPropertyOp46
 70
     1
102
RTVSPropertyOp47
 70
     1
102
RTVSPropertyOp48
 70
     1
102
RTVSPropertyOp49
 70
     1
102
RTVSPropertyOp50
 70
     1
102
RTVSPropertyOp51
 70
     0
102
RTVSPropertyOp52
 70
     0
102
RTVSPropertyOp53
 70
     1
102
RTVSPropertyOp54
 70
     1
102
RTVSPropertyOp55
 70
     1
102
RTVSPropertyOp56
 70
     1
102
RTVSPropertyOp57
 70
     1
102
RTVSPost2010Prop28
280
     0
102
RTVSPost2010PropOp28
 70
     1
102
RTVSPost2010Prop29
280
     1
102
RTVSPost2010PropOp29
 70
     1
102
RTVSPost2010Prop30
280
     1
102
RTVSPost2010PropOp30
 70
     1
102
RTVSPost2010Prop31
280
     0
102
RTVSPost2010PropOp31
 70
     1
102
RTVSPost2010Prop32
280
     0
102
RTVSPost2010PropOp32
 70
     1
102
RTVSPost2010Prop33
280
     0
102
RTVSPost2010PropOp33
 70
     1
102
RTVSPost2010Prop34
280
     0
102
RTVSPost2010PropOp34
 70
     1
102
RTVSPost2010Prop35
280
     0
102
RTVSPost2010PropOp35
 70
     1
102
RTVSPost2010Prop36
280
     0
102
RTVSPost2010PropOp36
 70
     1
102
RTVSPost2010Prop37
 90
       50
102
RTVSPost2010PropOp37
 70
     1
102
RTVSPost2010Prop38
140
0.0
102
RTVSPost2010PropOp38
 70
     1
102
RTVSPost2010Prop39
140
1.0
102
RTVSPost2010PropOp39
 70
     1
102
RTVSPost2010Prop40
 90
        0
102
RTVSPost2010PropOp40
 70
     1
102
RTVSPost2010Prop41ColorIndex
 90
       18
102
RTVSPost2010Prop41ColorRGB
 90
        0
102
RTVSPost2010PropOp41
 70
     1
102
RTVSPost2010Prop42
 90
       50
102
RTVSPost2010PropOp42
 70
     1
102
RTVSPost2010Prop43
 90
        3
102
RTVSPost2010PropOp43
 70
     1
102
RTVSPost2010Prop44ColorIndex
 90
        5
102
RTVSPost2010Prop44ColorRGB
 90
      255
102
RTVSPost2010PropOp44
 70
     1
102
RTVSPost2010Prop45
280
     0
102
RTVSPost2010PropOp45
 70
     1
102
RTVSPost2010Prop46
 90
       50
102
RTVSPost2010PropOp46
 70
     1
102
RTVSPost2010Prop47
 90
       50
102
RTVSPost2010PropOp47
 70
     1
102
RTVSPost2010Prop48
 90
       50
102
RTVSPost2010PropOp48
 70
     1
102
RTVSPost2010Prop49
280
     0
102
RTVSPost2010PropOp49
 70
     1
102
RTVSPost2010Prop50
 90
       50
102
RTVSPost2010PropOp50
 70
     1
102
RTVSPost2010Prop51ColorIndex
 90
      256
102
RTVSPost2010Prop51ColorRGB
 90
-16777216
102
RTVSPost2010PropOp51
 70
     0
102
RTVSPost2010Prop52
140
1.0
102
RTVSPost2010PropOp52
 70
     0
102
RTVSPost2010Prop53
 90
        2
102
RTVSPost2010PropOp53
 70
     1
102
RTVSPost2010Prop54
  1
strokes_ogs.tif
102
RTVSPost2010PropOp54
 70
     1
102
RTVSPost2010Prop55
280
     0
102
RTVSPost2010PropOp55
 70
     1
102
RTVSPost2010Prop56
140
1.0
102
RTVSPost2010PropOp56
 70
     1
102
RTVSPost2010Prop57
140
1.0
102
RTVSPost2010PropOp57
 70
     1
  0
XRECORD
  5
1E5
102
{ACAD_REACTORS
330
1E4
102
}
330
1E4
100
AcDbXrecord
280
     1
102
RTVSPropertyOp0
 70
     1
102
RTVSPropertyOp1
 70
     1
102
RTVSPropertyOp2
 70
     1
102
RTVSPropertyOp3
 70
     1
102
RTVSPropertyOp4
 70
     1
102
RTVSPropertyOp5
 70
     1
102
RTVSPropertyOp6
 70
     1
102
RTVSPropertyOp7
 70
     1
102
RTVSPropertyOp8
 70
     1
102
RTVSPropertyOp9
 70
     1
102
RTVSPropertyOp10
 70
     1
102
RTVSPropertyOp11
 70
     1
102
RTVSPropertyOp12
 70
     1
102
RTVSPropertyOp13
 70
     1
102
RTVSPropertyOp14
 70
     1
102
RTVSPropertyOp15
 70
     1
102
RTVSPropertyOp16
 70
     1
102
RTVSPropertyOp17
 70
     1
102
RTVSPropertyOp18
 70
     1
102
RTVSPropertyOp19
 70
     1
102
RTVSPropertyOp20
 70
     1
102
RTVSPropertyOp21
 70
     1
102
RTVSPropertyOp22
 70
     1
102
RTVSPropertyOp23
 70
     1
102
RTVSPropertyOp24
 70
     1
102
RTVSPropertyOp25
 70
     1
102
RTVSPropertyOp26
 70
     1
102
RTVSPropertyOp27
 70
     1
102
RTVSPropertyOp28
 70
     1
102
RTVSPropertyOp29
 70
     1
102
RTVSPropertyOp30
 70
     1
102
RTVSPropertyOp31
 70
     1
102
RTVSPropertyOp32
 70
     1
102
RTVSPropertyOp33
 70
     1
102
RTVSPropertyOp34
 70
     1
102
RTVSPropertyOp35
 70
     1
102
RTVSPropertyOp36
 70
     1
102
RTVSPropertyOp37
 70
     1
102
RTVSPropertyOp38
 70
     1
102
RTVSPropertyOp39
 70
     1
102
RTVSPropertyOp40
 70
     1
102
RTVSPropertyOp41
 70
     1
102
RTVSPropertyOp42
 70
     1
102
RTVSPropertyOp43
 70
     1
102
RTVSPropertyOp44
 70
     1
102
RTVSPropertyOp45
 70
     1
102
RTVSPropertyOp46
 70
     1
102
RTVSPropertyOp47
 70
     1
102
RTVSPropertyOp48
 70
     1
102
RTVSPropertyOp49
 70
     1
102
RTVSPropertyOp50
 70
     1
102
RTVSPropertyOp51
 70
     0
102
RTVSPropertyOp52
 70
     0
102
RTVSPropertyOp53
 70
     1
102
RTVSPropertyOp54
 70
     1
102
RTVSPropertyOp55
 70
     1
102
RTVSPropertyOp56
 70
     1
102
RTVSPropertyOp57
 70
     1
102
RTVSPost2010Prop28
280
     0
102
RTVSPost2010PropOp28
 70
     1
102
RTVSPost2010Prop29
280
     1
102
RTVSPost2010PropOp29
 70
     1
102
RTVSPost2010Prop30
280
     1
102
RTVSPost2010PropOp30
 70
     1
102
RTVSPost2010Prop31
280
     0
102
RTVSPost2010PropOp31
 70
     1
102
RTVSPost2010Prop32
280
     0
102
RTVSPost2010PropOp32
 70
     1
102
RTVSPost2010Prop33
280
     0
102
RTVSPost2010PropOp33
 70
     1
102
RTVSPost2010Prop34
280
     0
102
RTVSPost2010PropOp34
 70
     1
102
RTVSPost2010Prop35
280
     0
102
RTVSPost2010PropOp35
 70
     1
102
RTVSPost2010Prop36
280
     0
102
RTVSPost2010PropOp36
 70
     1
102
RTVSPost2010Prop37
 90
       50
102
RTVSPost2010PropOp37
 70
     1
102
RTVSPost2010Prop38
140
0.0
102
RTVSPost2010PropOp38
 70
     1
102
RTVSPost2010Prop39
140
1.0
102
RTVSPost2010PropOp39
 70
     1
102
RTVSPost2010Prop40
 90
        0
102
RTVSPost2010PropOp40
 70
     1
102
RTVSPost2010Prop41ColorIndex
 90
       18
102
RTVSPost2010Prop41ColorRGB
 90
        0
102
RTVSPost2010PropOp41
 70
     1
102
RTVSPost2010Prop42
 90
       50
102
RTVSPost2010PropOp42
 70
     1
102
RTVSPost2010Prop43
 90
        3
102
RTVSPost2010PropOp43
 70
     1
102
RTVSPost2010Prop44ColorIndex
 90
        5
102
RTVSPost2010Prop44ColorRGB
 90
      255
102
RTVSPost2010PropOp44
 70
     1
102
RTVSPost2010Prop45
280
     0
102
RTVSPost2010PropOp45
 70
     1
102
RTVSPost2010Prop46
 90
       50
102
RTVSPost2010PropOp46
 70
     1
102
RTVSPost2010Prop47
 90
       50
102
RTVSPost2010PropOp47
 70
     1
102
RTVSPost2010Prop48
 90
       50
102
RTVSPost2010PropOp48
 70
     1
102
RTVSPost2010Prop49
280
     0
102
RTVSPost2010PropOp49
 70
     1
102
RTVSPost2010Prop50
 90
       50
102
RTVSPost2010PropOp50
 70
     1
102
RTVSPost2010Prop51ColorIndex
 90
      256
102
RTVSPost2010Prop51ColorRGB
 90
-16777216
102
RTVSPost2010PropOp51
 70
     0
102
RTVSPost2010Prop52
140
1.0
102
RTVSPost2010PropOp52
 70
     0
102
RTVSPost2010Prop53
 90
        2
102
RTVSPost2010PropOp53
 70
     1
102
RTVSPost2010Prop54
  1
strokes_ogs.tif
102
RTVSPost2010PropOp54
 70
     1
102
RTVSPost2010Prop55
280
     0
102
RTVSPost2010PropOp55
 70
     1
102
RTVSPost2010Prop56
140
1.0
102
RTVSPost2010PropOp56
 70
     1
102
RTVSPost2010Prop57
140
1.0
102
RTVSPost2010PropOp57
 70
     1
  0
XRECORD
  5
1E7
102
{ACAD_REACTORS
330
1E6
102
}
330
1E6
100
AcDbXrecord
280
     1
102
RTVSPropertyOp0
 70
     1
102
RTVSPropertyOp1
 70
     1
102
RTVSPropertyOp2
 70
     1
102
RTVSPropertyOp3
 70
     1
102
RTVSPropertyOp4
 70
     1
102
RTVSPropertyOp5
 70
     1
102
RTVSPropertyOp6
 70
     1
102
RTVSPropertyOp7
 70
     1
102
RTVSPropertyOp8
 70
     1
102
RTVSPropertyOp9
 70
     1
102
RTVSPropertyOp10
 70
     1
102
RTVSPropertyOp11
 70
     1
102
RTVSPropertyOp12
 70
     1
102
RTVSPropertyOp13
 70
     1
102
RTVSPropertyOp14
 70
     1
102
RTVSPropertyOp15
 70
     1
102
RTVSPropertyOp16
 70
     1
102
RTVSPropertyOp17
 70
     1
102
RTVSPropertyOp18
 70
     1
102
RTVSPropertyOp19
 70
     1
102
RTVSPropertyOp20
 70
     1
102
RTVSPropertyOp21
 70
     1
102
RTVSPropertyOp22
 70
     1
102
RTVSPropertyOp23
 70
     1
102
RTVSPropertyOp24
 70
     1
102
RTVSPropertyOp25
 70
     1
102
RTVSPropertyOp26
 70
     1
102
RTVSPropertyOp27
 70
     1
102
RTVSPropertyOp28
 70
     1
102
RTVSPropertyOp29
 70
     1
102
RTVSPropertyOp30
 70
     1
102
RTVSPropertyOp31
 70
     1
102
RTVSPropertyOp32
 70
     1
102
RTVSPropertyOp33
 70
     1
102
RTVSPropertyOp34
 70
     1
102
RTVSPropertyOp35
 70
     1
102
RTVSPropertyOp36
 70
     1
102
RTVSPropertyOp37
 70
     1
102
RTVSPropertyOp38
 70
     1
102
RTVSPropertyOp39
 70
     1
102
RTVSPropertyOp40
 70
     1
102
RTVSPropertyOp41
 70
     1
102
RTVSPropertyOp42
 70
     1
102
RTVSPropertyOp43
 70
     1
102
RTVSPropertyOp44
 70
     1
102
RTVSPropertyOp45
 70
     1
102
RTVSPropertyOp46
 70
     1
102
RTVSPropertyOp47
 70
     1
102
RTVSPropertyOp48
 70
     1
102
RTVSPropertyOp49
 70
     1
102
RTVSPropertyOp50
 70
     1
102
RTVSPropertyOp51
 70
     0
102
RTVSPropertyOp52
 70
     0
102
RTVSPropertyOp53
 70
     1
102
RTVSPropertyOp54
 70
     1
102
RTVSPropertyOp55
 70
     1
102
RTVSPropertyOp56
 70
     1
102
RTVSPropertyOp57
 70
     1
102
RTVSPost2010Prop28
280
     0
102
RTVSPost2010PropOp28
 70
     1
102
RTVSPost2010Prop29
280
     1
102
RTVSPost2010PropOp29
 70
     1
102
RTVSPost2010Prop30
280
     1
102
RTVSPost2010PropOp30
 70
     1
102
RTVSPost2010Prop31
280
     0
102
RTVSPost2010PropOp31
 70
     1
102
RTVSPost2010Prop32
280
     0
102
RTVSPost2010PropOp32
 70
     1
102
RTVSPost2010Prop33
280
     0
102
RTVSPost2010PropOp33
 70
     1
102
RTVSPost2010Prop34
280
     0
102
RTVSPost2010PropOp34
 70
     1
102
RTVSPost2010Prop35
280
     0
102
RTVSPost2010PropOp35
 70
     1
102
RTVSPost2010Prop36
280
     0
102
RTVSPost2010PropOp36
 70
     1
102
RTVSPost2010Prop37
 90
       50
102
RTVSPost2010PropOp37
 70
     1
102
RTVSPost2010Prop38
140
0.0
102
RTVSPost2010PropOp38
 70
     1
102
RTVSPost2010Prop39
140
1.0
102
RTVSPost2010PropOp39
 70
     1
102
RTVSPost2010Prop40
 90
        0
102
RTVSPost2010PropOp40
 70
     1
102
RTVSPost2010Prop41ColorIndex
 90
       18
102
RTVSPost2010Prop41ColorRGB
 90
        0
102
RTVSPost2010PropOp41
 70
     1
102
RTVSPost2010Prop42
 90
       50
102
RTVSPost2010PropOp42
 70
     1
102
RTVSPost2010Prop43
 90
        3
102
RTVSPost2010PropOp43
 70
     1
102
RTVSPost2010Prop44ColorIndex
 90
        5
102
RTVSPost2010Prop44ColorRGB
 90
      255
102
RTVSPost2010PropOp44
 70
     1
102
RTVSPost2010Prop45
280
     0
102
RTVSPost2010PropOp45
 70
     1
102
RTVSPost2010Prop46
 90
       50
102
RTVSPost2010PropOp46
 70
     1
102
RTVSPost2010Prop47
 90
       50
102
RTVSPost2010PropOp47
 70
     1
102
RTVSPost2010Prop48
 90
       50
102
RTVSPost2010PropOp48
 70
     1
102
RTVSPost2010Prop49
280
     0
102
RTVSPost2010PropOp49
 70
     1
102
RTVSPost2010Prop50
 90
       50
102
RTVSPost2010PropOp50
 70
     1
102
RTVSPost2010Prop51ColorIndex
 90
      256
102
RTVSPost2010Prop51ColorRGB
 90
-16777216
102
RTVSPost2010PropOp51
 70
     0
102
RTVSPost2010Prop52
140
1.0
102
RTVSPost2010PropOp52
 70
     0
102
RTVSPost2010Prop53
 90
        2
102
RTVSPost2010PropOp53
 70
     1
102
RTVSPost2010Prop54
  1
strokes_ogs.tif
102
RTVSPost2010PropOp54
 70
     1
102
RTVSPost2010Prop55
280
     0
102
RTVSPost2010PropOp55
 70
     1
102
RTVSPost2010Prop56
140
1.0
102
RTVSPost2010PropOp56
 70
     1
102
RTVSPost2010Prop57
140
1.0
102
RTVSPost2010PropOp57
 70
     1
  0
XRECORD
  5
1D7
102
{ACAD_REACTORS
330
1D6
102
}
330
1D6
100
AcDbXrecord
280
     1
102
RTVSPropertyOp0
 70
     1
102
RTVSPropertyOp1
 70
     1
102
RTVSPropertyOp2
 70
     1
102
RTVSPropertyOp3
 70
     1
102
RTVSPropertyOp4
 70
     1
102
RTVSPropertyOp5
 70
     1
102
RTVSPropertyOp6
 70
     1
102
RTVSPropertyOp7
 70
     1
102
RTVSPropertyOp8
 70
     1
102
RTVSPropertyOp9
 70
     1
102
RTVSPropertyOp10
 70
     1
102
RTVSPropertyOp11
 70
     1
102
RTVSPropertyOp12
 70
     1
102
RTVSPropertyOp13
 70
     1
102
RTVSPropertyOp14
 70
     1
102
RTVSPropertyOp15
 70
     1
102
RTVSPropertyOp16
 70
     1
102
RTVSPropertyOp17
 70
     1
102
RTVSPropertyOp18
 70
     1
102
RTVSPropertyOp19
 70
     1
102
RTVSPropertyOp20
 70
     1
102
RTVSPropertyOp21
 70
     1
102
RTVSPropertyOp22
 70
     1
102
RTVSPropertyOp23
 70
     1
102
RTVSPropertyOp24
 70
     1
102
RTVSPropertyOp25
 70
     1
102
RTVSPropertyOp26
 70
     1
102
RTVSPropertyOp27
 70
     1
102
RTVSPropertyOp28
 70
     1
102
RTVSPropertyOp29
 70
     1
102
RTVSPropertyOp30
 70
     1
102
RTVSPropertyOp31
 70
     1
102
RTVSPropertyOp32
 70
     1
102
RTVSPropertyOp33
 70
     1
102
RTVSPropertyOp34
 70
     1
102
RTVSPropertyOp35
 70
     1
102
RTVSPropertyOp36
 70
     1
102
RTVSPropertyOp37
 70
     1
102
RTVSPropertyOp38
 70
     1
102
RTVSPropertyOp39
 70
     1
102
RTVSPropertyOp40
 70
     1
102
RTVSPropertyOp41
 70
     1
102
RTVSPropertyOp42
 70
     1
102
RTVSPropertyOp43
 70
     1
102
RTVSPropertyOp44
 70
     1
102
RTVSPropertyOp45
 70
     1
102
RTVSPropertyOp46
 70
     1
102
RTVSPropertyOp47
 70
     1
102
RTVSPropertyOp48
 70
     1
102
RTVSPropertyOp49
 70
     1
102
RTVSPropertyOp50
 70
     1
102
RTVSPropertyOp51
 70
     0
102
RTVSPropertyOp52
 70
     0
102
RTVSPropertyOp53
 70
     1
102
RTVSPropertyOp54
 70
     1
102
RTVSPropertyOp55
 70
     1
102
RTVSPropertyOp56
 70
     1
102
RTVSPropertyOp57
 70
     1
102
RTVSPost2010Prop28
280
     0
102
RTVSPost2010PropOp28
 70
     1
102
RTVSPost2010Prop29
280
     1
102
RTVSPost2010PropOp29
 70
     1
102
RTVSPost2010Prop30
280
     1
102
RTVSPost2010PropOp30
 70
     1
102
RTVSPost2010Prop31
280
     0
102
RTVSPost2010PropOp31
 70
     1
102
RTVSPost2010Prop32
280
     0
102
RTVSPost2010PropOp32
 70
     1
102
RTVSPost2010Prop33
280
     0
102
RTVSPost2010PropOp33
 70
     1
102
RTVSPost2010Prop34
280
     0
102
RTVSPost2010PropOp34
 70
     1
102
RTVSPost2010Prop35
280
     0
102
RTVSPost2010PropOp35
 70
     1
102
RTVSPost2010Prop36
280
     0
102
RTVSPost2010PropOp36
 70
     1
102
RTVSPost2010Prop37
 90
       50
102
RTVSPost2010PropOp37
 70
     1
102
RTVSPost2010Prop38
140
0.0
102
RTVSPost2010PropOp38
 70
     1
102
RTVSPost2010Prop39
140
1.0
102
RTVSPost2010PropOp39
 70
     1
102
RTVSPost2010Prop40
 90
        0
102
RTVSPost2010PropOp40
 70
     1
102
RTVSPost2010Prop41ColorIndex
 90
       18
102
RTVSPost2010Prop41ColorRGB
 90
        0
102
RTVSPost2010PropOp41
 70
     1
102
RTVSPost2010Prop42
 90
       50
102
RTVSPost2010PropOp42
 70
     1
102
RTVSPost2010Prop43
 90
        3
102
RTVSPost2010PropOp43
 70
     1
102
RTVSPost2010Prop44ColorIndex
 90
        5
102
RTVSPost2010Prop44ColorRGB
 90
      255
102
RTVSPost2010PropOp44
 70
     1
102
RTVSPost2010Prop45
280
     0
102
RTVSPost2010PropOp45
 70
     1
102
RTVSPost2010Prop46
 90
       50
102
RTVSPost2010PropOp46
 70
     1
102
RTVSPost2010Prop47
 90
       50
102
RTVSPost2010PropOp47
 70
     1
102
RTVSPost2010Prop48
 90
       50
102
RTVSPost2010PropOp48
 70
     1
102
RTVSPost2010Prop49
280
     0
102
RTVSPost2010PropOp49
 70
     1
102
RTVSPost2010Prop50
 90
       50
102
RTVSPost2010PropOp50
 70
     1
102
RTVSPost2010Prop51ColorIndex
 90
      256
102
RTVSPost2010Prop51ColorRGB
 90
-16777216
102
RTVSPost2010PropOp51
 70
     0
102
RTVSPost2010Prop52
140
1.0
102
RTVSPost2010PropOp52
 70
     0
102
RTVSPost2010Prop53
 90
        2
102
RTVSPost2010PropOp53
 70
     1
102
RTVSPost2010Prop54
  1
strokes_ogs.tif
102
RTVSPost2010PropOp54
 70
     1
102
RTVSPost2010Prop55
280
     0
102
RTVSPost2010PropOp55
 70
     1
102
RTVSPost2010Prop56
140
1.0
102
RTVSPost2010PropOp56
 70
     1
102
RTVSPost2010Prop57
140
1.0
102
RTVSPost2010PropOp57
 70
     1
  0
XRECORD
  5
1C9
102
{ACAD_REACTORS
330
1C8
102
}
330
1C8
100
AcDbXrecord
280
     1
102
RTVSPropertyOp0
 70
     1
102
RTVSPropertyOp1
 70
     1
102
RTVSPropertyOp2
 70
     1
102
RTVSPropertyOp3
 70
     1
102
RTVSPropertyOp4
 70
     1
102
RTVSPropertyOp5
 70
     1
102
RTVSPropertyOp6
 70
     1
102
RTVSPropertyOp7
 70
     1
102
RTVSPropertyOp8
 70
     1
102
RTVSPropertyOp9
 70
     1
102
RTVSPropertyOp10
 70
     1
102
RTVSPropertyOp11
 70
     1
102
RTVSPropertyOp12
 70
     1
102
RTVSPropertyOp13
 70
     1
102
RTVSPropertyOp14
 70
     1
102
RTVSPropertyOp15
 70
     1
102
RTVSPropertyOp16
 70
     1
102
RTVSPropertyOp17
 70
     1
102
RTVSPropertyOp18
 70
     1
102
RTVSPropertyOp19
 70
     1
102
RTVSPropertyOp20
 70
     1
102
RTVSPropertyOp21
 70
     1
102
RTVSPropertyOp22
 70
     1
102
RTVSPropertyOp23
 70
     1
102
RTVSPropertyOp24
 70
     1
102
RTVSPropertyOp25
 70
     1
102
RTVSPropertyOp26
 70
     1
102
RTVSPropertyOp27
 70
     1
102
RTVSPropertyOp28
 70
     1
102
RTVSPropertyOp29
 70
     1
102
RTVSPropertyOp30
 70
     1
102
RTVSPropertyOp31
 70
     1
102
RTVSPropertyOp32
 70
     1
102
RTVSPropertyOp33
 70
     1
102
RTVSPropertyOp34
 70
     1
102
RTVSPropertyOp35
 70
     1
102
RTVSPropertyOp36
 70
     1
102
RTVSPropertyOp37
 70
     1
102
RTVSPropertyOp38
 70
     1
102
RTVSPropertyOp39
 70
     1
102
RTVSPropertyOp40
 70
     1
102
RTVSPropertyOp41
 70
     1
102
RTVSPropertyOp42
 70
     1
102
RTVSPropertyOp43
 70
     1
102
RTVSPropertyOp44
 70
     1
102
RTVSPropertyOp45
 70
     1
102
RTVSPropertyOp46
 70
     1
102
RTVSPropertyOp47
 70
     1
102
RTVSPropertyOp48
 70
     1
102
RTVSPropertyOp49
 70
     1
102
RTVSPropertyOp50
 70
     1
102
RTVSPropertyOp51
 70
     0
102
RTVSPropertyOp52
 70
     0
102
RTVSPropertyOp53
 70
     1
102
RTVSPropertyOp54
 70
     1
102
RTVSPropertyOp55
 70
     1
102
RTVSPropertyOp56
 70
     1
102
RTVSPropertyOp57
 70
     1
102
RTVSPost2010Prop28
280
     0
102
RTVSPost2010PropOp28
 70
     1
102
RTVSPost2010Prop29
280
     1
102
RTVSPost2010PropOp29
 70
     1
102
RTVSPost2010Prop30
280
     1
102
RTVSPost2010PropOp30
 70
     1
102
RTVSPost2010Prop31
280
     0
102
RTVSPost2010PropOp31
 70
     1
102
RTVSPost2010Prop32
280
     0
102
RTVSPost2010PropOp32
 70
     1
102
RTVSPost2010Prop33
280
     0
102
RTVSPost2010PropOp33
 70
     1
102
RTVSPost2010Prop34
280
     0
102
RTVSPost2010PropOp34
 70
     1
102
RTVSPost2010Prop35
280
     0
102
RTVSPost2010PropOp35
 70
     1
102
RTVSPost2010Prop36
280
     0
102
RTVSPost2010PropOp36
 70
     1
102
RTVSPost2010Prop37
 90
       50
102
RTVSPost2010PropOp37
 70
     1
102
RTVSPost2010Prop38
140
0.0
102
RTVSPost2010PropOp38
 70
     1
102
RTVSPost2010Prop39
140
1.0
102
RTVSPost2010PropOp39
 70
     1
102
RTVSPost2010Prop40
 90
        0
102
RTVSPost2010PropOp40
 70
     1
102
RTVSPost2010Prop41ColorIndex
 90
       18
102
RTVSPost2010Prop41ColorRGB
 90
        0
102
RTVSPost2010PropOp41
 70
     1
102
RTVSPost2010Prop42
 90
       50
102
RTVSPost2010PropOp42
 70
     1
102
RTVSPost2010Prop43
 90
        3
102
RTVSPost2010PropOp43
 70
     1
102
RTVSPost2010Prop44ColorIndex
 90
        5
102
RTVSPost2010Prop44ColorRGB
 90
      255
102
RTVSPost2010PropOp44
 70
     1
102
RTVSPost2010Prop45
280
     0
102
RTVSPost2010PropOp45
 70
     1
102
RTVSPost2010Prop46
 90
       50
102
RTVSPost2010PropOp46
 70
     1
102
RTVSPost2010Prop47
 90
       50
102
RTVSPost2010PropOp47
 70
     1
102
RTVSPost2010Prop48
 90
       50
102
RTVSPost2010PropOp48
 70
     1
102
RTVSPost2010Prop49
280
     0
102
RTVSPost2010PropOp49
 70
     1
102
RTVSPost2010Prop50
 90
       50
102
RTVSPost2010PropOp50
 70
     1
102
RTVSPost2010Prop51ColorIndex
 90
      256
102
RTVSPost2010Prop51ColorRGB
 90
-16777216
102
RTVSPost2010PropOp51
 70
     0
102
RTVSPost2010Prop52
140
1.0
102
RTVSPost2010PropOp52
 70
     0
102
RTVSPost2010Prop53
 90
        2
102
RTVSPost2010PropOp53
 70
     1
102
RTVSPost2010Prop54
  1
strokes_ogs.tif
102
RTVSPost2010PropOp54
 70
     1
102
RTVSPost2010Prop55
280
     0
102
RTVSPost2010PropOp55
 70
     1
102
RTVSPost2010Prop56
140
1.0
102
RTVSPost2010PropOp56
 70
     1
102
RTVSPost2010Prop57
140
1.0
102
RTVSPost2010PropOp57
 70
     1
  0
XRECORD
  5
1E9
102
{ACAD_REACTORS
330
1E8
102
}
330
1E8
100
AcDbXrecord
280
     1
102
RTVSPropertyOp0
 70
     1
102
RTVSPropertyOp1
 70
     1
102
RTVSPropertyOp2
 70
     1
102
RTVSPropertyOp3
 70
     1
102
RTVSPropertyOp4
 70
     1
102
RTVSPropertyOp5
 70
     1
102
RTVSPropertyOp6
 70
     1
102
RTVSPropertyOp7
 70
     1
102
RTVSPropertyOp8
 70
     1
102
RTVSPropertyOp9
 70
     1
102
RTVSPropertyOp10
 70
     1
102
RTVSPropertyOp11
 70
     1
102
RTVSPropertyOp12
 70
     1
102
RTVSPropertyOp13
 70
     1
102
RTVSPropertyOp14
 70
     1
102
RTVSPropertyOp15
 70
     1
102
RTVSPropertyOp16
 70
     1
102
RTVSPropertyOp17
 70
     1
102
RTVSPropertyOp18
 70
     1
102
RTVSPropertyOp19
 70
     1
102
RTVSPropertyOp20
 70
     1
102
RTVSPropertyOp21
 70
     1
102
RTVSPropertyOp22
 70
     1
102
RTVSPropertyOp23
 70
     1
102
RTVSPropertyOp24
 70
     1
102
RTVSPropertyOp25
 70
     1
102
RTVSPropertyOp26
 70
     1
102
RTVSPropertyOp27
 70
     1
102
RTVSPropertyOp28
 70
     1
102
RTVSPropertyOp29
 70
     1
102
RTVSPropertyOp30
 70
     1
102
RTVSPropertyOp31
 70
     1
102
RTVSPropertyOp32
 70
     1
102
RTVSPropertyOp33
 70
     1
102
RTVSPropertyOp34
 70
     1
102
RTVSPropertyOp35
 70
     1
102
RTVSPropertyOp36
 70
     1
102
RTVSPropertyOp37
 70
     1
102
RTVSPropertyOp38
 70
     1
102
RTVSPropertyOp39
 70
     1
102
RTVSPropertyOp40
 70
     1
102
RTVSPropertyOp41
 70
     1
102
RTVSPropertyOp42
 70
     1
102
RTVSPropertyOp43
 70
     1
102
RTVSPropertyOp44
 70
     1
102
RTVSPropertyOp45
 70
     1
102
RTVSPropertyOp46
 70
     1
102
RTVSPropertyOp47
 70
     1
102
RTVSPropertyOp48
 70
     1
102
RTVSPropertyOp49
 70
     1
102
RTVSPropertyOp50
 70
     1
102
RTVSPropertyOp51
 70
     0
102
RTVSPropertyOp52
 70
     0
102
RTVSPropertyOp53
 70
     1
102
RTVSPropertyOp54
 70
     1
102
RTVSPropertyOp55
 70
     1
102
RTVSPropertyOp56
 70
     1
102
RTVSPropertyOp57
 70
     1
102
RTVSPost2010Prop28
280
     0
102
RTVSPost2010PropOp28
 70
     1
102
RTVSPost2010Prop29
280
     1
102
RTVSPost2010PropOp29
 70
     1
102
RTVSPost2010Prop30
280
     1
102
RTVSPost2010PropOp30
 70
     1
102
RTVSPost2010Prop31
280
     0
102
RTVSPost2010PropOp31
 70
     1
102
RTVSPost2010Prop32
280
     0
102
RTVSPost2010PropOp32
 70
     1
102
RTVSPost2010Prop33
280
     0
102
RTVSPost2010PropOp33
 70
     1
102
RTVSPost2010Prop34
280
     0
102
RTVSPost2010PropOp34
 70
     1
102
RTVSPost2010Prop35
280
     0
102
RTVSPost2010PropOp35
 70
     1
102
RTVSPost2010Prop36
280
     0
102
RTVSPost2010PropOp36
 70
     1
102
RTVSPost2010Prop37
 90
       50
102
RTVSPost2010PropOp37
 70
     1
102
RTVSPost2010Prop38
140
0.0
102
RTVSPost2010PropOp38
 70
     1
102
RTVSPost2010Prop39
140
1.0
102
RTVSPost2010PropOp39
 70
     1
102
RTVSPost2010Prop40
 90
        0
102
RTVSPost2010PropOp40
 70
     1
102
RTVSPost2010Prop41ColorIndex
 90
       18
102
RTVSPost2010Prop41ColorRGB
 90
        0
102
RTVSPost2010PropOp41
 70
     1
102
RTVSPost2010Prop42
 90
       50
102
RTVSPost2010PropOp42
 70
     1
102
RTVSPost2010Prop43
 90
        3
102
RTVSPost2010PropOp43
 70
     1
102
RTVSPost2010Prop44ColorIndex
 90
        5
102
RTVSPost2010Prop44ColorRGB
 90
      255
102
RTVSPost2010PropOp44
 70
     1
102
RTVSPost2010Prop45
280
     0
102
RTVSPost2010PropOp45
 70
     1
102
RTVSPost2010Prop46
 90
       50
102
RTVSPost2010PropOp46
 70
     1
102
RTVSPost2010Prop47
 90
       50
102
RTVSPost2010PropOp47
 70
     1
102
RTVSPost2010Prop48
 90
       50
102
RTVSPost2010PropOp48
 70
     1
102
RTVSPost2010Prop49
280
     0
102
RTVSPost2010PropOp49
 70
     1
102
RTVSPost2010Prop50
 90
       50
102
RTVSPost2010PropOp50
 70
     1
102
RTVSPost2010Prop51ColorIndex
 90
      256
102
RTVSPost2010Prop51ColorRGB
 90
-16777216
102
RTVSPost2010PropOp51
 70
     0
102
RTVSPost2010Prop52
140
1.0
102
RTVSPost2010PropOp52
 70
     0
102
RTVSPost2010Prop53
 90
        2
102
RTVSPost2010PropOp53
 70
     1
102
RTVSPost2010Prop54
  1
strokes_ogs.tif
102
RTVSPost2010PropOp54
 70
     1
102
RTVSPost2010Prop55
280
     0
102
RTVSPost2010PropOp55
 70
     1
102
RTVSPost2010Prop56
140
1.0
102
RTVSPost2010PropOp56
 70
     1
102
RTVSPost2010Prop57
140
1.0
102
RTVSPost2010PropOp57
 70
     1
  0
ENDSEC
  0
EOF
