  0
SECTION
  2
HEADER
  9
$ACADVER
  1
AC1014
  9
$ACADMAINTVER
 70
     9
  9
$DWGCODEPAGE
  3
ANSI_1252
  9
$INSBASE
 10
0.0
 20
0.0
 30
0.0
  9
$EXTMIN
 10
1.000000000000000E+20
 20
1.000000000000000E+20
 30
1.000000000000000E+20
  9
$EXTMAX
 10
-1.000000000000000E+20
 20
-1.000000000000000E+20
 30
-1.000000000000000E+20
  9
$LIMMIN
 10
0.0
 20
0.0
  9
$LIMMAX
 10
12.0
 20
9.0
  9
$ORTHOMODE
 70
     0
  9
$REGENMODE
 70
     1
  9
$FILLMODE
 70
     1
  9
$QTEXTMODE
 70
     0
  9
$MIRRTEXT
 70
     1
  9
$DRAGMODE
 70
     2
  9
$LTSCALE
 40
1.0
  9
$OSMODE
 70
    37
  9
$ATTMODE
 70
     1
  9
$TEXTSIZE
 40
0.2
  9
$TRACEWID
 40
0.05
  9
$TEXTSTYLE
  7
STANDARD
  9
$CLAYER
  8
DEFAULT
  9
$CELTYPE
  6
BYLAYER
  9
$CECOLOR
 62
   256
  9
$CELTSCALE
 40
1.0
  9
$DELOBJ
 70
     1
  9
$DISPSILH
 70
     0
  9
$DIMSCALE
 40
1.0
  9
$DIMASZ
 40
0.18
  9
$DIMEXO
 40
0.0625
  9
$DIMDLI
 40
0.38
  9
$DIMRND
 40
0.0
  9
$DIMDLE
 40
0.0
  9
$DIMEXE
 40
0.18
  9
$DIMTP
 40
0.0
  9
$DIMTM
 40
0.0
  9
$DIMTXT
 40
0.18
  9
$DIMCEN
 40
0.09
  9
$DIMTSZ
 40
0.0
  9
$DIMTOL
 70
     0
  9
$DIMLIM
 70
     0
  9
$DIMTIH
 70
     1
  9
$DIMTOH
 70
     1
  9
$DIMSE1
 70
     0
  9
$DIMSE2
 70
     0
  9
$DIMTAD
 70
     0
  9
$DIMZIN
 70
     0
  9
$DIMBLK
  1

  9
$DIMASO
 70
     1
  9
$DIMSHO
 70
     1
  9
$DIMPOST
  1

  9
$DIMAPOST
  1

  9
$DIMALT
 70
     0
  9
$DIMALTD
 70
     2
  9
$DIMALTF
 40
25.4
  9
$DIMLFAC
 40
1.0
  9
$DIMTOFL
 70
     0
  9
$DIMTVP
 40
0.0
  9
$DIMTIX
 70
     0
  9
$DIMSOXD
 70
     0
  9
$DIMSAH
 70
     0
  9
$DIMBLK1
  1

  9
$DIMBLK2
  1

  9
$DIMSTYLE
  2
STANDARD
  9
$DIMCLRD
 70
     0
  9
$DIMCLRE
 70
     0
  9
$DIMCLRT
 70
     0
  9
$DIMTFAC
 40
1.0
  9
$DIMGAP
 40
0.09
  9
$DIMJUST
 70
     0
  9
$DIMSD1
 70
     0
  9
$DIMSD2
 70
     0
  9
$DIMTOLJ
 70
     1
  9
$DIMTZIN
 70
     0
  9
$DIMALTZ
 70
     0
  9
$DIMALTTZ
 70
     0
  9
$DIMFIT
 70
     3
  9
$DIMUPT
 70
     0
  9
$DIMUNIT
 70
     2
  9
$DIMDEC
 70
     4
  9
$DIMTDEC
 70
     4
  9
$DIMALTU
 70
     2
  9
$DIMALTTD
 70
     2
  9
$DIMTXSTY
  7
STANDARD
  9
$DIMAUNIT
 70
     0
  9
$LUNITS
 70
     2
  9
$LUPREC
 70
     3
  9
$SKETCHINC
 40
0.1
  9
$FILLETRAD
 40
0.5
  9
$AUNITS
 70
     0
  9
$AUPREC
 70
     0
  9
$MENU
  1
.
  9
$ELEVATION
 40
0.0
  9
$PELEVATION
 40
0.0
  9
$THICKNESS
 40
0.0
  9
$LIMCHECK
 70
     0
  9
$CHAMFERA
 40
0.5
  9
$CHAMFERB
 40
0.5
  9
$CHAMFERC
 40
1.0
  9
$CHAMFERD
 40
0.0
  9
$SKPOLY
 70
     0
  9
$TDCREATE
 40
2453774.419878681
  9
$TDUPDATE
 40
2453774.419878692
  9
$TDINDWG
 40
0.0000000116
  9
$TDUSRTIMER
 40
0.0000000116
  9
$USRTIMER
 70
     1
  9
$ANGBASE
 50
0.0
  9
$ANGDIR
 70
     0
  9
$PDMODE
 70
     0
  9
$PDSIZE
 40
0.0
  9
$PLINEWID
 40
0.0
  9
$COORDS
 70
     1
  9
$SPLFRAME
 70
     0
  9
$SPLINETYPE
 70
     6
  9
$SPLINESEGS
 70
     8
  9
$ATTDIA
 70
     0
  9
$ATTREQ
 70
     1
  9
$HANDLING
 70
     1
  9
$HANDSEED
  5
345
  9
$SURFTAB1
 70
     6
  9
$SURFTAB2
 70
     6
  9
$SURFTYPE
 70
     6
  9
$SURFU
 70
     6
  9
$SURFV
 70
     6
  9
$UCSNAME
  2

  9
$UCSORG
 10
0.0
 20
0.0
 30
0.0
  9
$UCSXDIR
 10
1.0
 20
0.0
 30
0.0
  9
$UCSYDIR
 10
0.0
 20
1.0
 30
0.0
  9
$PUCSNAME
  2

  9
$PUCSORG
 10
0.0
 20
0.0
 30
0.0
  9
$PUCSXDIR
 10
1.0
 20
0.0
 30
0.0
  9
$PUCSYDIR
 10
0.0
 20
1.0
 30
0.0
  9
$USERI1
 70
     0
  9
$USERI2
 70
     0
  9
$USERI3
 70
     0
  9
$USERI4
 70
     0
  9
$USERI5
 70
     0
  9
$USERR1
 40
0.0
  9
$USERR2
 40
0.0
  9
$USERR3
 40
0.0
  9
$USERR4
 40
0.0
  9
$USERR5
 40
0.0
  9
$WORLDVIEW
 70
     1
  9
$SHADEDGE
 70
     3
  9
$SHADEDIF
 70
    70
  9
$TILEMODE
 70
     1
  9
$MAXACTVP
 70
    64
  9
$PINSBASE
 10
0.0
 20
0.0
 30
0.0
  9
$PLIMCHECK
 70
     0
  9
$PEXTMIN
 10
1.000000000000000E+20
 20
1.000000000000000E+20
 30
1.000000000000000E+20
  9
$PEXTMAX
 10
-1.000000000000000E+20
 20
-1.000000000000000E+20
 30
-1.000000000000000E+20
  9
$PLIMMIN
 10
0.0
 20
0.0
  9
$PLIMMAX
 10
12.0
 20
9.0
  9
$UNITMODE
 70
     0
  9
$VISRETAIN
 70
     1
  9
$PLINEGEN
 70
     0
  9
$PSLTSCALE
 70
     1
  9
$TREEDEPTH
 70
  3020
  9
$PICKSTYLE
 70
     1
  9
$CMLSTYLE
  2
STANDARD
  9
$CMLJUST
 70
     0
  9
$CMLSCALE
 40
1.0
  9
$PROXYGRAPHICS
 70
     1
  9
$MEASUREMENT
 70
     0
  0
ENDSEC
  0
SECTION
  2
CLASSES
  0
CLASS
  1
ACDBDICTIONARYWDFLT
  2
AcDbDictionaryWithDefault
  3
ObjectDBX Classes
 90
        0
280
     0
281
     0
  0
CLASS
  1
XRECORD
  2
AcDbXrecord
  3
AutoCAD 2000
 90
        0
280
     0
281
     0
  0
CLASS
  1
LWPOLYLINE
  2
AcDbPolyline
  3
AutoCAD 2000
 90
        0
280
     0
281
     1
  0
CLASS
  1
HATCH
  2
AcDbHatch
  3
AutoCAD 2000
 90
        0
280
     0
281
     1
  0
CLASS
  1
ACDBPLACEHOLDER
  2
AcDbPlaceHolder
  3
ObjectDBX Classes
 90
        0
280
     0
281
     0
  0
CLASS
  1
LAYOUT
  2
AcDbLayout
  3
ObjectDBX Classes
 90
        0
280
     0
281
     0
  0
ENDSEC
  0
SECTION
  2
TABLES
  0
TABLE
  2
VPORT
  5
8
330
0
100
AcDbSymbolTable
 70
     2
  0
VPORT
  5
29
102
{ACAD_XDICTIONARY
360
343
102
}
330
8
100
AcDbSymbolTableRecord
100
AcDbViewportTableRecord
  2
*ACTIVE
 70
     0
 10
0.0
 20
0.0
 11
1.0
 21
1.0
 12
30.91365616753127
 22
34.9312946812252
 13
0.0
 23
0.0
 14
0.5
 24
0.5
 15
0.5
 25
0.5
 16
0.0
 26
0.0
 36
80.21230066091221
 17
0.0
 27
0.0
 37
0.0
 40
69.85394618838926
 41
1.972972972850329
 42
50.0
 43
0.0
 44
0.0
 50
0.0
 51
0.0
 71
     0
 72
   100
 73
     1
 74
     3
 75
     0
 76
     0
 77
     0
 78
     0
  0
ENDTAB
  0
TABLE
  2
LTYPE
  5
5
330
0
100
AcDbSymbolTable
 70
     1
  0
LTYPE
  5
14
330
5
100
AcDbSymbolTableRecord
100
AcDbLinetypeTableRecord
  2
BYBLOCK
 70
     0
  3

 72
    65
 73
     0
 40
0.0
  0
LTYPE
  5
15
330
5
100
AcDbSymbolTableRecord
100
AcDbLinetypeTableRecord
  2
BYLAYER
 70
     0
  3

 72
    65
 73
     0
 40
0.0
  0
LTYPE
  5
16
330
5
100
AcDbSymbolTableRecord
100
AcDbLinetypeTableRecord
  2
CONTINUOUS
 70
     0
  3
Solid line
 72
    65
 73
     0
 40
0.0
  0
ENDTAB
  0
TABLE
  2
LAYER
  5
2
330
0
100
AcDbSymbolTable
 70
     3
  0
LAYER
  5
10
330
2
100
AcDbSymbolTableRecord
100
AcDbLayerTableRecord
  2
0
 70
     0
 62
     7
  6
CONTINUOUS
  0
LAYER
  5
2A
330
2
100
AcDbSymbolTableRecord
100
AcDbLayerTableRecord
  2
IGES_LEVEL_0
 70
     0
 62
   255
  6
CONTINUOUS
  0
LAYER
  5
EE
330
2
100
AcDbSymbolTableRecord
100
AcDbLayerTableRecord
  2
DEFAULT
 70
     0
 62
     7
  6
CONTINUOUS
  0
ENDTAB
  0
TABLE
  2
STYLE
  5
3
330
0
100
AcDbSymbolTable
 70
     1
  0
STYLE
  5
11
330
3
100
AcDbSymbolTableRecord
100
AcDbTextStyleTableRecord
  2
STANDARD
 70
     0
 40
0.0
 41
1.0
 50
0.0
 71
     0
 42
0.2
  3
txt
  4

  0
ENDTAB
  0
TABLE
  2
VIEW
  5
6
330
0
100
AcDbSymbolTable
 70
     0
  0
ENDTAB
  0
TABLE
  2
UCS
  5
7
330
0
100
AcDbSymbolTable
 70
     0
  0
ENDTAB
  0
TABLE
  2
APPID
  5
9
330
0
100
AcDbSymbolTable
 70
     1
  0
APPID
  5
12
330
9
100
AcDbSymbolTableRecord
100
AcDbRegAppTableRecord
  2
ACAD
 70
     0
  0
ENDTAB
  0
TABLE
  2
DIMSTYLE
  5
A
330
0
100
AcDbSymbolTable
 70
     1
  0
DIMSTYLE
105
27
330
A
100
AcDbSymbolTableRecord
100
AcDbDimStyleTableRecord
  2
STANDARD
 70
     0
  3

  4

  5

  6

  7

 40
1.0
 41
0.18
 42
0.0625
 43
0.38
 44
0.18
 45
0.0
 46
0.0
 47
0.0
 48
0.0
140
0.18
141
0.09
142
0.0
143
25.4
144
1.0
145
0.0
146
1.0
147
0.09
 71
     0
 72
     0
 73
     1
 74
     1
 75
     0
 76
     0
 77
     0
 78
     0
170
     0
171
     2
172
     0
173
     0
174
     0
175
     0
176
     0
177
     0
178
     0
270
     2
271
     4
272
     4
273
     2
274
     2
340
11
275
     0
280
     0
281
     0
282
     0
283
     1
284
     0
285
     0
286
     0
287
     3
288
     0
  0
ENDTAB
  0
TABLE
  2
BLOCK_RECORD
  5
1
330
0
100
AcDbSymbolTable
 70
     1
  0
BLOCK_RECORD
  5
1F
330
1
100
AcDbSymbolTableRecord
100
AcDbBlockTableRecord
  2
*MODEL_SPACE
  0
BLOCK_RECORD
  5
1B
330
1
100
AcDbSymbolTableRecord
100
AcDbBlockTableRecord
  2
*PAPER_SPACE
  0
ENDTAB
  0
ENDSEC
  0
SECTION
  2
BLOCKS
  0
BLOCK
  5
20
330
1F
100
AcDbEntity
  8
0
100
AcDbBlockBegin
  2
*MODEL_SPACE
 70
     0
 71
     0
 10
0.0
 20
0.0
 30
0.0
  3
*MODEL_SPACE
  1

  0
ENDBLK
  5
21
330
1F
100
AcDbEntity
  8
0
100
AcDbBlockEnd
  0
BLOCK
  5
1C
330
1B
100
AcDbEntity
 67
     1
  8
0
100
AcDbBlockBegin
  2
*PAPER_SPACE
 70
     0
 71
     0
 10
0.0
 20
0.0
 30
0.0
  3
*PAPER_SPACE
  1

  0
ENDBLK
  5
1D
330
1B
100
AcDbEntity
 67
     1
  8
0
100
AcDbBlockEnd
  0
ENDSEC
  0
SECTION
  2
ENTITIES
  0
ARC
  5
2B
330
1F
100
AcDbEntity
  8
IGES_LEVEL_0
 62
     7
100
AcDbCircle
 10
43.187675736548
 20
16.33464408351081
 30
0.0
 40
0.5399741942397359
100
AcDbArc
 50
4.017339524651885
 51
58.587509705486
  0
LINE
  5
2C
330
1F
100
AcDbEntity
  8
IGES_LEVEL_0
 62
     7
100
AcDbLine
 10
39.31448469499318
 20
15.48436135590985
 30
0.0
 11
39.32768747302318
 21
15.48315727042786
 31
0.0
  0
LINE
  5
2D
330
1F
100
AcDbEntity
  8
IGES_LEVEL_0
 62
     7
100
AcDbLine
 10
37.86654160892317
 20
17.05358406380385
 30
0.0
 11
37.86662813776317
 21
17.04825970621685
 31
0.0
  0
SPLINE
  5
2E
330
1F
100
AcDbEntity
  8
IGES_LEVEL_0
 62
     7
100
AcDbSpline
210
0.0
220
0.0
230
1.0
 70
     8
 71
     3
 72
    19
 73
    15
 74
     0
 42
0.0000000001
 43
0.0000000001
 40
0.0
 40
0.0
 40
0.0
 40
0.0
 40
0.06221370948638
 40
0.09415751637027
 40
0.1262869312161
 40
0.1748700653616
 40
0.2236943120745
 40
0.3219291319075
 40
0.4208115521158
 40
0.5201103370856
 40
0.6197576647304
 40
0.7530809937216
 40
0.8868546758576
 40
1.0
 40
1.0
 40
1.0
 40
1.0
 10
37.25573831906318
 20
4.561033122398854
 30
0.0
 10
37.22993983807318
 20
4.528062999288855
 30
0.0
 10
37.19328395201318
 20
4.476259399788855
 30
0.0
 10
37.14818140486318
 20
4.404230022408854
 30
0.0
 10
37.11011050227317
 20
4.338661468738854
 30
0.0
 10
37.06909297407317
 20
4.261720112858855
 30
0.0
 10
37.01188446117318
 20
4.143121504668855
 30
0.0
 10
36.94838373810318
 20
3.990130902828854
 30
0.0
 10
36.88422005933317
 20
3.801147870898853
 30
0.0
 10
36.83099978174317
 20
3.607819434758854
 30
0.0
 10
36.78391059468318
 20
3.389142311948854
 30
0.0
 10
36.74738135804319
 20
3.144846052128855
 30
0.0
 10
36.72833075782317
 20
2.889462146368853
 30
0.0
 10
36.72755752800318
 20
2.723169777278855
 30
0.0
 10
36.72989238391318
 20
2.647070435478856
 30
0.0
  0
SPLINE
  5
2F
330
1F
100
AcDbEntity
  8
IGES_LEVEL_0
 62
     7
100
AcDbSpline
210
0.0
220
0.0
230
1.0
 70
     8
 71
     3
 72
    18
 73
    14
 74
     0
 42
0.0000000001
 43
0.0000000001
 40
0.0
 40
0.0
 40
0.0
 40
0.0
 40
0.06463702827276
 40
0.1303918311269
 40
0.179838729236
 40
0.2292811055819
 40
0.3281760560028
 40
0.4271456393897
 40
0.5261217914674
 40
0.625105121111
 40
0.7570597074482
 40
0.8889066132001
 40
1.0
 40
1.0
 40
1.0
 40
1.0
 10
58.84973845777319
 20
4.561067866088855
 30
0.0
 10
58.87973742879318
 20
4.528394901668854
 30
0.0
 10
58.93688888251317
 20
4.459342476988855
 30
0.0
 10
59.00752850019318
 20
4.358033810698855
 30
0.0
 10
59.06702158730317
 20
4.261941964818854
 30
0.0
 10
59.13342366668319
 20
4.143530049358855
 30
0.0
 10
59.20754667404319
 20
3.990670987338854
 30
0.0
 10
59.28354429344319
 20
3.801537384588854
 30
0.0
 10
59.34810854277318
 20
3.608153608448853
 30
0.0
 10
59.40744650981318
 20
3.389561153948854
 30
0.0
 10
59.45729927366318
 20
3.145409715848854
 30
0.0
 10
59.48960945496319
 20
2.889938346838853
 30
0.0
 10
59.49843047709318
 20
2.723295812728853
 30
0.0
 10
59.49952133652317
 20
2.647068665608856
 30
0.0
  0
SPLINE
  5
30
330
1F
100
AcDbEntity
  8
IGES_LEVEL_0
 62
     7
100
AcDbSpline
210
0.0
220
0.0
230
1.0
 70
     8
 71
     3
 72
    15
 73
    11
 74
     0
 42
0.0000000001
 43
0.0000000001
 40
0.0
 40
0.0
 40
0.0
 40
0.0
 40
0.07243976244041
 40
0.149842827113
 40
0.2293199429562
 40
0.3104839740771
 40
0.4349529396352
 40
0.5619652771497
 40
0.822258700165
 40
1.0
 40
1.0
 40
1.0
 40
1.0
 10
50.12020099086318
 20
4.560984060818855
 30
0.0
 10
50.12587827591318
 20
4.544667561428854
 30
0.0
 10
50.13716796851318
 20
4.510757421388854
 30
0.0
 10
50.15322777521318
 20
4.458474456548855
 30
0.0
 10
50.16876996268319
 20
4.403869063608854
 30
0.0
 10
50.18618985853318
 20
4.338140198128855
 30
0.0
 10
50.20495541536317
 20
4.261051818498855
 30
0.0
 10
50.23114512455318
 20
4.141834738158854
 30
0.0
 10
50.25586373964318
 20
4.009323938478854
 30
0.0
 10
50.27176650852319
 20
3.906062677318853
 30
0.0
 10
50.27771339594318
 20
3.864090643418855
 30
0.0
  0
LINE
  5
31
330
1F
100
AcDbEntity
  8
IGES_LEVEL_0
 62
     7
100
AcDbLine
 10
50.30266784626318
 20
3.655427624568854
 30
0.0
 11
50.30525568638318
 21
3.628473403878853
 31
0.0
  0
LINE
  5
32
330
1F
100
AcDbEntity
  8
IGES_LEVEL_0
 62
     7
100
AcDbLine
 10
50.29224069647319
 20
3.751596176218853
 30
0.0
 11
50.30266784626318
 21
3.655427624568854
 31
0.0
  0
ARC
  5
33
330
1F
100
AcDbEntity
  8
IGES_LEVEL_0
 62
     7
100
AcDbCircle
 10
49.95188284958571
 20
3.332782564670751
 30
0.0
 40
0.4143672231979693
100
AcDbArc
 50
29.328793357746
 51
38.47992418796428
  0
SPLINE
  5
34
330
1F
100
AcDbEntity
  8
IGES_LEVEL_0
 62
     7
100
AcDbSpline
210
0.0
220
0.0
230
1.0
 70
     8
 71
     3
 72
    23
 73
    19
 74
     0
 42
0.0000000001
 43
0.0000000001
 40
0.0
 40
0.0
 40
0.0
 40
0.0
 40
0.04447405361677
 40
0.08877696561021
 40
0.1330446011088
 40
0.1774131493128
 40
0.222017875098
 40
0.2669919123925
 40
0.3124651514931
 40
0.3585632630986
 40
0.4530830145091
 40
0.5514771310722
 40
0.6545398525117
 40
0.7629628691438
 40
0.8385281420546
 40
0.916894968312
 40
0.9982015016778
 40
1.0
 40
1.0
 40
1.0
 40
1.0
 10
37.32551280236318
 20
3.590618583558853
 30
0.0
 10
37.31300079056318
 20
3.584682390688854
 30
0.0
 10
37.28834244755318
 20
3.572149125218853
 30
0.0
 10
37.25248701020318
 20
3.551354667508855
 30
0.0
 10
37.21786787594319
 20
3.528618691858854
 30
0.0
 10
37.18448746519317
 20
3.503942596648855
 30
0.0
 10
37.15234612663318
 20
3.477326996028853
 30
0.0
 10
37.12144465158318
 20
3.448773193018855
 30
0.0
 10
37.09178282687319
 20
3.418281257498854
 30
0.0
 10
37.05357350533318
 20
3.374687264498854
 30
0.0
 10
37.00884925739318
 20
3.315034898738854
 30
0.0
 10
36.96065701324318
 20
3.236333541658854
 30
0.0
 10
36.91746492051318
 20
3.149926086298855
 30
0.0
 10
36.88380742704318
 20
3.067029035858855
 30
0.0
 10
36.85749805901318
 20
2.989661289808854
 30
0.0
 10
36.83694647489318
 20
2.919329062528856
 30
0.0
 10
36.82480219998318
 20
2.870524144598853
 30
0.0
 10
36.81902689224317
 20
2.845297125128855
 30
0.0
 10
36.81890212925318
 20
2.844751129878854
 30
0.0
  0
LINE
  5
35
330
1F
100
AcDbEntity
  8
IGES_LEVEL_0
 62
     7
100
AcDbLine
 10
50.25514148546318
 20
3.616828990238854
 30
0.0
 11
47.32972370816319
 21
7.249093647368854
 31
0.0
  0
LINE
  5
36
330
1F
100
AcDbEntity
  8
IGES_LEVEL_0
 62
     7
100
AcDbLine
 10
50.27625004290319
 20
3.590610260248855
 30
0.0
 11
50.25514148546318
 21
3.616828990238854
 31
0.0
  0
ARC
  5
37
330
1F
100
AcDbEntity
  8
IGES_LEVEL_0
 62
     7
100
AcDbCircle
 10
7563.573953827168
 20
-15855.96150932789
 30
0.0
 40
17554.76597503366
100
AcDbArc
 50
115.3591011682091
 51
115.3869666500586
  0
LINE
  5
38
330
1F
100
AcDbEntity
  8
IGES_LEVEL_0
 62
     7
100
AcDbLine
 10
58.58078677510318
 20
3.590593445338854
 30
0.0
 11
49.35938875607317
 21
7.128900622588855
 31
0.0
  0
SPLINE
  5
39
330
1F
100
AcDbEntity
  8
IGES_LEVEL_0
 62
     7
100
AcDbSpline
210
0.0
220
0.0
230
1.0
 70
     8
 71
     3
 72
    13
 73
     9
 74
     0
 42
0.0000000001
 43
0.0000000001
 40
0.0
 40
0.0
 40
0.0
 40
0.0
 40
0.03753264280137
 40
0.2247363577095
 40
0.4309809440269
 40
0.6458002367629
 40
0.8445603532954
 40
1.0
 40
1.0
 40
1.0
 40
1.0
 10
39.60815706738318
 20
24.42500913215286
 30
0.0
 10
39.60887558764318
 20
24.43555363790386
 30
0.0
 10
39.61287940010318
 20
24.49871229562286
 30
0.0
 10
39.61699142876317
 20
24.62004903072285
 30
0.0
 10
39.61214941103317
 20
24.79139330490786
 30
0.0
 10
39.59327043008318
 20
24.96512703024185
 30
0.0
 10
39.56123535101318
 20
25.12235648523885
 30
0.0
 10
39.53260693642318
 20
25.21802329107186
 30
0.0
 10
39.51830254803318
 20
25.25938648020286
 30
0.0
  0
LINE
  5
3A
330
1F
100
AcDbEntity
  8
IGES_LEVEL_0
 62
     7
100
AcDbLine
 10
38.21347979803318
 20
17.79412623496285
 30
0.0
 11
38.22326846804317
 21
17.81653513400086
 31
0.0
  0
LINE
  5
3B
330
1F
100
AcDbEntity
  8
IGES_LEVEL_0
 62
     7
100
AcDbLine
 10
38.21007870977319
 20
17.78649737355385
 30
0.0
 11
38.21347979803318
 21
17.79412623496285
 31
0.0
  0
LINE
  5
3C
330
1F
100
AcDbEntity
  8
IGES_LEVEL_0
 62
     7
100
AcDbLine
 10
38.40567449486318
 20
18.37894882602415
 30
0.0
 11
38.36194833769318
 21
18.22045695157055
 31
0.0
  0
ARC
  5
3D
330
1F
100
AcDbEntity
  8
IGES_LEVEL_0
 62
     7
100
AcDbCircle
 10
34.63658837371831
 20
19.27375741318424
 30
0.0
 40
3.871414750779118
100
AcDbArc
 50
337.8882794329675
 51
344.2123899700994
  0
LINE
  5
3E
330
1F
100
AcDbEntity
  8
IGES_LEVEL_0
 62
     7
100
AcDbLine
 10
39.62731058491318
 20
15.91712245699786
 30
0.0
 11
39.70919320840318
 21
15.88735925501786
 31
0.0
  0
ARC
  5
3F
330
1F
100
AcDbEntity
  8
IGES_LEVEL_0
 62
     7
100
AcDbCircle
 10
40.88485477292976
 20
19.34902294640204
 30
0.0
 40
3.655045602176113
100
AcDbArc
 50
238.7782204922405
 51
249.8757550999017
  0
SPLINE
  5
40
330
1F
100
AcDbEntity
  8
IGES_LEVEL_0
 62
     7
100
AcDbSpline
210
0.0
220
0.0
230
1.0
 70
     8
 71
     3
 72
    14
 73
    10
 74
     0
 42
0.0000000001
 43
0.0000000001
 40
0.0
 40
0.0
 40
0.0
 40
0.0
 40
0.08790901913171
 40
0.2316047631995
 40
0.3913592722187
 40
0.5705010371285
 40
0.7724041106733
 40
0.9976264757205
 40
1.0
 40
1.0
 40
1.0
 40
1.0
 10
38.22038245134318
 20
17.32241966964185
 30
0.0
 10
38.22568699487317
 20
17.28202996976185
 30
0.0
 10
38.24434147917317
 20
17.17622701953586
 30
0.0
 10
38.29583481957317
 20
17.00182553842986
 30
0.0
 10
38.39099909196318
 20
16.79860686661685
 30
0.0
 10
38.53431462263318
 20
16.59146492982585
 30
0.0
 10
38.73679311769318
 20
16.39469814341386
 30
0.0
 10
38.89975992846318
 20
16.27962811120685
 30
0.0
 10
38.98931981095318
 20
16.22392783422485
 30
0.0
 10
38.99025414904318
 20
16.22334752659986
 30
0.0
  0
LINE
  5
41
330
1F
100
AcDbEntity
  8
IGES_LEVEL_0
 62
     7
100
AcDbLine
 10
38.21404489141318
 20
17.37998734993785
 30
0.0
 11
38.22038245134318
 21
17.32241966964185
 31
0.0
  0
ARC
  5
42
330
1F
100
AcDbEntity
  8
IGES_LEVEL_0
 62
     7
100
AcDbCircle
 10
39.62458101571431
 20
17.4987490242628
 30
0.0
 40
1.415526931303994
100
AcDbArc
 50
163.9532264482652
 51
184.8127315072192
  0
ARC
  5
43
330
1F
100
AcDbEntity
  8
IGES_LEVEL_0
 62
     7
100
AcDbCircle
 10
54.08181924068104
 20
13.39083126952833
 30
0.0
 40
16.44504866016656
100
AcDbArc
 50
162.9214391221299
 51
164.1219962262507
  0
ARC
  5
44
330
1F
100
AcDbEntity
  8
IGES_LEVEL_0
 62
     7
100
AcDbCircle
 10
30.08406255518534
 20
20.58875643651314
 30
0.0
 40
8.610078940321246
100
AcDbArc
 50
345.3569209505634
 51
348.2125663937683
  0
LINE
  5
45
330
1F
100
AcDbEntity
  8
IGES_LEVEL_0
 62
     7
100
AcDbLine
 10
38.40733160448318
 20
18.38440406032625
 30
0.0
 11
38.41448073531318
 21
18.41215534702545
 31
0.0
  0
ARC
  5
46
330
1F
100
AcDbEntity
  8
IGES_LEVEL_0
 62
     7
100
AcDbCircle
 10
43.20644077869862
 20
16.07574790611053
 30
0.0
 40
0.5075439152989499
100
AcDbArc
 50
264.1231428239576
 51
271.8062244983751
  0
ARC
  5
47
330
1F
100
AcDbEntity
  8
IGES_LEVEL_0
 62
     7
100
AcDbCircle
 10
43.20751469041763
 20
16.08178822605603
 30
0.0
 40
0.5136626444276501
100
AcDbArc
 50
218.7102626008136
 51
264.07297110651
  0
LINE
  5
48
330
1F
100
AcDbEntity
  8
IGES_LEVEL_0
 62
     7
100
AcDbLine
 10
42.78231143767319
 20
15.79368793950386
 30
0.0
 11
42.80669427565319
 21
15.76055263122185
 31
0.0
  0
LINE
  5
49
330
1F
100
AcDbEntity
  8
IGES_LEVEL_0
 62
     7
100
AcDbLine
 10
42.77379365491318
 20
15.80672438944085
 30
0.0
 11
42.78231143767319
 21
15.79368793950386
 31
0.0
  0
ARC
  5
4A
330
1F
100
AcDbEntity
  8
IGES_LEVEL_0
 62
     7
100
AcDbCircle
 10
43.21008048314362
 20
16.05784259011513
 30
0.0
 40
0.4892239534901351
100
AcDbArc
 50
279.2932064021418
 51
320.0770063481833
  0
LINE
  5
4B
330
1F
100
AcDbEntity
  8
IGES_LEVEL_0
 62
     7
100
AcDbLine
 10
43.24335814793318
 20
15.56955878756486
 30
0.0
 11
43.28908369771318
 21
15.57503976415385
 31
0.0
  0
LINE
  5
4C
330
1F
100
AcDbEntity
  8
IGES_LEVEL_0
 62
     7
100
AcDbLine
 10
43.22243815118318
 20
15.56845863866385
 30
0.0
 11
43.24335814793318
 21
15.56955878756486
 31
0.0
  0
LINE
  5
4D
330
1F
100
AcDbEntity
  8
IGES_LEVEL_0
 62
     7
100
AcDbLine
 10
43.59022334721318
 20
15.75137751963985
 30
0.0
 11
43.58534417261318
 21
15.74392987175085
 31
0.0
  0
ARC
  5
4E
330
1F
100
AcDbEntity
  8
IGES_LEVEL_0
 62
     7
100
AcDbCircle
 10
39.93796481338907
 20
24.06353922848503
 30
0.0
 40
0.4494922175971727
100
AcDbArc
 50
205.5910434938737
 51
214.669543391244
  0
LINE
  5
4F
330
1F
100
AcDbEntity
  8
IGES_LEVEL_0
 62
     7
100
AcDbLine
 10
39.51205639272318
 20
23.91833093355985
 30
0.0
 11
39.53256775570318
 21
23.86938341657086
 31
0.0
  0
ARC
  5
50
330
1F
100
AcDbEntity
  8
IGES_LEVEL_0
 62
     7
100
AcDbCircle
 10
39.98176668891185
 20
24.09131597980604
 30
0.0
 40
0.5005512846556655
100
AcDbArc
 50
131.3458269284477
 51
200.2177581115174
  0
LINE
  5
51
330
1F
100
AcDbEntity
  8
IGES_LEVEL_0
 62
     7
100
AcDbLine
 10
39.66602694844318
 20
24.47949179045585
 30
0.0
 11
39.65110133849318
 21
24.46709785084686
 31
0.0
  0
LINE
  5
52
330
1F
100
AcDbEntity
  8
IGES_LEVEL_0
 62
     7
100
AcDbLine
 10
39.68415329625317
 20
24.49461830951985
 30
0.0
 11
39.66624488628318
 21
24.47928877371886
 31
0.0
  0
LINE
  5
53
330
1F
100
AcDbEntity
  8
IGES_LEVEL_0
 62
     7
100
AcDbLine
 10
39.53160553411318
 20
23.85865171006785
 30
0.0
 11
39.47057459854318
 21
23.54790171652585
 31
0.0
  0
LINE
  5
54
330
1F
100
AcDbEntity
  8
IGES_LEVEL_0
 62
     7
100
AcDbLine
 10
39.53348920674318
 20
23.86891054210685
 30
0.0
 11
39.53160553411318
 21
23.85865171006785
 31
0.0
  0
LINE
  5
55
330
1F
100
AcDbEntity
  8
IGES_LEVEL_0
 62
     7
100
AcDbLine
 10
39.47057259005318
 20
23.54790199955185
 30
0.0
 11
39.02670185517317
 21
21.36264990507685
 31
0.0
  0
ARC
  5
56
330
1F
100
AcDbEntity
  8
IGES_LEVEL_0
 62
     7
100
AcDbCircle
 10
37.83776981880864
 20
17.740355311022
 30
0.0
 40
0.3041724186887054
100
AcDbArc
 50
305.0055253782772
 51
321.6158495976345
  0
SPLINE
  5
57
330
1F
100
AcDbEntity
  8
IGES_LEVEL_0
 62
     7
100
AcDbSpline
210
0.0
220
0.0
230
1.0
 70
     8
 71
     3
 72
    10
 73
     6
 74
     0
 42
0.0000000001
 43
0.0000000001
 40
0.0
 40
0.0
 40
0.0
 40
0.0
 40
0.5080924221987
 40
0.8427810696644
 40
1.0
 40
1.0
 40
1.0
 40
1.0
 10
38.21008892033318
 20
17.78649283701785
 30
0.0
 10
38.19134855897318
 20
17.74456851609785
 30
0.0
 10
38.15799385168317
 20
17.67602814310785
 30
0.0
 10
38.11174265658318
 20
17.59823417173886
 30
0.0
 10
38.08520813424318
 20
17.56247903965485
 30
0.0
 10
38.07620000904318
 20
17.55148523749086
 30
0.0
  0
LINE
  5
58
330
1F
100
AcDbEntity
  8
IGES_LEVEL_0
 62
     7
100
AcDbLine
 10
38.21348263386318
 20
17.79412500816085
 30
0.0
 11
38.21008892033318
 21
17.78649283701785
 31
0.0
  0
LINE
  5
59
330
1F
100
AcDbEntity
  8
IGES_LEVEL_0
 62
     7
100
AcDbLine
 10
38.22381409705318
 20
17.81786023713585
 30
0.0
 11
38.21348263386318
 21
17.79412500816085
 31
0.0
  0
ARC
  5
5A
330
1F
100
AcDbEntity
  8
IGES_LEVEL_0
 62
     7
100
AcDbCircle
 10
35.63603906796097
 20
18.91628986682653
 30
0.0
 40
2.81127211658074
100
AcDbArc
 50
337.0002931721517
 51
342.1534292442152
  0
LINE
  5
5B
330
1F
100
AcDbEntity
  8
IGES_LEVEL_0
 62
     7
100
AcDbLine
 10
38.01233788647318
 20
17.49125562141186
 30
0.0
 11
38.00940470484318
 21
17.48930051145885
 31
0.0
  0
ARC
  5
5C
330
1F
100
AcDbEntity
  8
IGES_LEVEL_0
 62
     7
100
AcDbCircle
 10
37.94403997733721
 20
17.40220610750524
 30
0.0
 40
0.0519020595985035
100
AcDbArc
 50
123.4458554524311
 51
162.2632307803547
  0
ARC
  5
5D
330
1F
100
AcDbEntity
  8
IGES_LEVEL_0
 62
     7
100
AcDbCircle
 10
37.97670501497723
 20
17.34501107907115
 30
0.0
 40
0.1177066552892281
100
AcDbArc
 50
105.7077774419821
 51
121.3683488082602
  0
LINE
  5
5E
330
1F
100
AcDbEntity
  8
IGES_LEVEL_0
 62
     7
100
AcDbLine
 10
37.94832086147318
 20
17.45946989481785
 30
0.0
 11
37.94483816022319
 21
17.45832197999186
 31
0.0
  0
ARC
  5
5F
330
1F
100
AcDbEntity
  8
IGES_LEVEL_0
 62
     7
100
AcDbCircle
 10
37.87903713002899
 20
17.67894856725138
 30
0.0
 40
0.2301545634916079
100
AcDbArc
 50
287.5195569589931
 51
304.5017022779776
  0
LINE
  5
60
330
1F
100
AcDbEntity
  8
IGES_LEVEL_0
 62
     7
100
AcDbLine
 10
37.84230405409318
 20
32.73712388404886
 30
0.0
 11
37.82494448022318
 21
32.76426756803885
 31
0.0
  0
ARC
  5
61
330
1F
100
AcDbEntity
  8
IGES_LEVEL_0
 62
     7
100
AcDbCircle
 10
36.1471548257289
 20
24.18181646049521
 30
0.0
 40
4.461224203193625
100
AcDbArc
 50
3.142296753598908
 51
18.58543206038186
  0
LINE
  5
62
330
1F
100
AcDbEntity
  8
IGES_LEVEL_0
 62
     7
100
AcDbLine
 10
40.37572815659318
 20
25.60368756994986
 30
0.0
 11
38.24335160959318
 21
31.89110398581886
 31
0.0
  0
ARC
  5
63
330
1F
100
AcDbEntity
  8
IGES_LEVEL_0
 62
     7
100
AcDbCircle
 10
34.48378556707031
 20
30.62685740434536
 30
0.0
 40
3.966439858694082
100
AcDbArc
 50
18.58649465349042
 51
32.14218706281921
  0
LINE
  5
64
330
1F
100
AcDbEntity
  8
IGES_LEVEL_0
 62
     7
100
AcDbLine
 10
37.43535894355318
 20
32.57361588470886
 30
0.0
 11
37.46671660766317
 21
32.52678015548885
 31
0.0
  0
SPLINE
  5
65
330
1F
100
AcDbEntity
  8
IGES_LEVEL_0
 62
     7
100
AcDbSpline
210
0.0
220
0.0
230
1.0
 70
     8
 71
     3
 72
    12
 73
     8
 74
     0
 42
0.0000000001
 43
0.0000000001
 40
0.0
 40
0.0
 40
0.0
 40
0.0
 40
0.2004207981933
 40
0.4201522615629
 40
0.6467713411566
 40
0.8661066483918
 40
1.0
 40
1.0
 40
1.0
 40
1.0
 10
35.88566229504318
 20
33.82641453375885
 30
0.0
 10
36.00522261553319
 20
33.76507169225886
 30
0.0
 10
36.25181303165319
 20
33.62850904457886
 30
0.0
 10
36.61523358848318
 20
33.39113108516885
 30
0.0
 10
36.96518924100317
 20
33.11281524278886
 30
0.0
 10
37.23940677761318
 20
32.83577451927886
 30
0.0
 10
37.38450819307317
 20
32.64767194429886
 30
0.0
 10
37.43535894355318
 20
32.57361588470886
 30
0.0
  0
LINE
  5
66
330
1F
100
AcDbEntity
  8
IGES_LEVEL_0
 62
     7
100
AcDbLine
 10
37.81169814270318
 20
31.82468426746885
 30
0.0
 11
37.82716777752317
 21
31.78018826707886
 31
0.0
  0
ARC
  5
67
330
1F
100
AcDbEntity
  8
IGES_LEVEL_0
 62
     7
100
AcDbCircle
 10
34.67980919331703
 20
30.72175478159008
 30
0.0
 40
3.320418925694145
100
AcDbArc
 50
19.40028131503472
 51
32.36333621767385
  0
LINE
  5
68
330
1F
100
AcDbEntity
  8
IGES_LEVEL_0
 62
     7
100
AcDbLine
 10
37.46671214201318
 20
32.52677848082885
 30
0.0
 11
37.48446953971317
 21
32.49912986396885
 31
0.0
  0
LINE
  5
69
330
1F
100
AcDbEntity
  8
IGES_LEVEL_0
 62
     7
100
AcDbLine
 10
39.96322966203317
 20
25.50461339599585
 30
0.0
 11
39.96708183846317
 21
25.49327172151385
 31
0.0
  0
ARC
  5
6A
330
1F
100
AcDbEntity
  8
IGES_LEVEL_0
 62
     7
100
AcDbCircle
 10
35.97255304167652
 20
24.14505751863522
 30
0.0
 40
4.215927430118762
100
AcDbArc
 50
3.201869999483901
 51
17.41561535651093
  0
LINE
  5
6B
330
1F
100
AcDbEntity
  8
IGES_LEVEL_0
 62
     7
100
AcDbLine
 10
39.96708074935317
 20
25.49327129151286
 30
0.0
 11
39.99521726844318
 21
25.40688817871585
 31
0.0
  0
SPLINE
  5
6C
330
1F
100
AcDbEntity
  8
IGES_LEVEL_0
 62
     7
100
AcDbSpline
210
0.0
220
0.0
230
1.0
 70
     8
 71
     3
 72
    12
 73
     8
 74
     0
 42
0.0000000001
 43
0.0000000001
 40
0.0
 40
0.0
 40
0.0
 40
0.0
 40
0.1821569049085
 40
0.4437740683745
 40
0.6914336286586
 40
0.9251981377946
 40
1.0
 40
1.0
 40
1.0
 40
1.0
 10
39.13781079915317
 20
18.60965554120696
 30
0.0
 10
39.12298559962318
 20
18.52662623205335
 30
0.0
 10
39.09721069634318
 20
18.32238902374276
 30
0.0
 10
39.10353085409318
 20
18.00080752844086
 30
0.0
 10
39.17868147327317
 20
17.66284779454486
 30
0.0
 10
39.28744605956318
 20
17.42753280771085
 30
0.0
 10
39.36543130408317
 20
17.30756021072785
 30
0.0
 10
39.38528258975317
 20
17.27914053683486
 30
0.0
  0
LINE
  5
6D
330
1F
100
AcDbEntity
  8
IGES_LEVEL_0
 62
     7
100
AcDbLine
 10
39.14897026061318
 20
18.66812356119046
 30
0.0
 11
39.13781079915317
 21
18.60965554120696
 31
0.0
  0
LINE
  5
6E
330
1F
100
AcDbEntity
  8
IGES_LEVEL_0
 62
     7
100
AcDbLine
 10
45.15067415352318
 20
13.82057746073885
 30
0.0
 11
45.08354420741318
 21
13.63163307139585
 31
0.0
  0
LINE
  5
6F
330
1F
100
AcDbEntity
  8
IGES_LEVEL_0
 62
     7
100
AcDbLine
 10
48.00643455386319
 20
13.63163307139585
 30
0.0
 11
47.89412503718319
 21
13.95567107060285
 31
0.0
  0
SPLINE
  5
70
330
1F
100
AcDbEntity
  8
IGES_LEVEL_0
 62
     7
100
AcDbSpline
210
0.0
220
0.0
230
1.0
 70
     8
 71
     3
 72
    22
 73
    18
 74
     0
 42
0.0000000001
 43
0.0000000001
 40
0.0
 40
0.0
 40
0.0
 40
0.0
 40
0.007485005284967
 40
0.04378704323106
 40
0.0849702713159
 40
0.1316508620395
 40
0.1837117710514
 40
0.2411821463524
 40
0.3041261035361
 40
0.37220453799
 40
0.4454324668357
 40
0.5239745334875
 40
0.6077734707646
 40
0.6972996683437001
 40
0.792397685622
 40
0.8933091313656
 40
1.0
 40
1.0
 40
1.0
 40
1.0
 10
48.01791338889318
 20
13.46656890814285
 30
0.0
 10
48.01825974267318
 20
13.46682366028286
 30
0.0
 10
48.02023213722318
 20
13.46838575854886
 30
0.0
 10
48.02339557978318
 20
13.47215057547986
 30
0.0
 10
48.02657887856319
 20
13.47854231830186
 30
0.0
 10
48.02889485155318
 20
13.48622276748985
 30
0.0
 10
48.03040657495318
 20
13.49503614236186
 30
0.0
 10
48.03116559288318
 20
13.50487271024285
 30
0.0
 10
48.03120770792319
 20
13.51565045998085
 30
0.0
 10
48.03055798456317
 20
13.52730858703785
 30
0.0
 10
48.02923118075319
 20
13.53980459837985
 30
0.0
 10
48.02722966347318
 20
13.55311872423786
 30
0.0
 10
48.02454179172318
 20
13.56726002817586
 30
0.0
 10
48.02114865036317
 20
13.58222021828885
 30
0.0
 10
48.01701931299319
 20
13.59800690156486
 30
0.0
 10
48.01212222478318
 20
13.61459760948586
 30
0.0
 10
48.00842077464318
 20
13.62586958596885
 30
0.0
 10
48.00643455386319
 20
13.63163307139585
 30
0.0
  0
LINE
  5
71
330
1F
100
AcDbEntity
  8
IGES_LEVEL_0
 62
     7
100
AcDbLine
 10
44.44638175905318
 20
15.44340130758685
 30
0.0
 11
44.18254771960318
 21
15.79117929157385
 31
0.0
  0
LINE
  5
72
330
1F
100
AcDbEntity
  8
IGES_LEVEL_0
 62
     7
100
AcDbLine
 10
44.45136907581318
 20
15.43682400949986
 30
0.0
 11
44.44638175905318
 21
15.44340130758685
 31
0.0
  0
LINE
  5
73
330
1F
100
AcDbEntity
  8
IGES_LEVEL_0
 62
     7
100
AcDbLine
 10
43.08081875838319
 20
15.43839275110685
 30
0.0
 11
42.97304997742319
 21
15.62519244917186
 31
0.0
  0
LINE
  5
74
330
1F
100
AcDbEntity
  8
IGES_LEVEL_0
 62
     7
100
AcDbLine
 10
57.84494195274318
 20
15.04857902364785
 30
0.0
 11
57.84455822286319
 21
15.05502711549985
 31
0.0
  0
LINE
  5
75
330
1F
100
AcDbEntity
  8
IGES_LEVEL_0
 62
     7
100
AcDbLine
 10
57.64195240178319
 20
15.61035070932486
 30
0.0
 11
57.58970847978318
 21
15.69284281063185
 31
0.0
  0
ARC
  5
76
330
1F
100
AcDbEntity
  8
IGES_LEVEL_0
 62
     7
100
AcDbCircle
 10
56.01805316817567
 20
14.63187779732212
 30
0.0
 40
1.89590557793214
100
AcDbArc
 50
21.50212608837901
 51
31.07086929035789
  0
ARC
  5
77
330
1F
100
AcDbEntity
  8
IGES_LEVEL_0
 62
     7
100
AcDbCircle
 10
56.78853283876382
 20
14.94548280727942
 30
0.0
 40
1.064142049525279
100
AcDbArc
 50
13.64969374093967
 51
20.99756402856644
  0
LINE
  5
78
330
1F
100
AcDbEntity
  8
IGES_LEVEL_0
 62
     7
100
AcDbLine
 10
57.83459303208318
 20
15.13852474799285
 30
0.0
 11
57.82261999632318
 21
15.19660439563586
 31
0.0
  0
ARC
  5
79
330
1F
100
AcDbEntity
  8
IGES_LEVEL_0
 62
     7
100
AcDbCircle
 10
57.04390914722468
 20
15.00188966678748
 30
0.0
 40
0.8024027362808044
100
AcDbArc
 50
3.797041059388235
 51
9.80424005811857
  0
LINE
  5
7A
330
1F
100
AcDbEntity
  8
IGES_LEVEL_0
 62
     7
100
AcDbLine
 10
57.84463698880317
 20
15.05368078903885
 30
0.0
 11
57.84455052088318
 21
15.05502667815586
 31
0.0
  0
SPLINE
  5
7B
330
1F
100
AcDbEntity
  8
IGES_LEVEL_0
 62
     7
100
AcDbSpline
210
0.0
220
0.0
230
1.0
 70
     8
 71
     3
 72
    16
 73
    12
 74
     0
 42
0.0000000001
 43
0.0000000001
 40
0.0
 40
0.0
 40
0.0
 40
0.0
 40
0.01775874803559
 40
0.07193802444752
 40
0.1551293396469
 40
0.2662417293957
 40
0.4068502988465
 40
0.5712527516063
 40
0.7517796354084
 40
0.9440588219613
 40
1.0
 40
1.0
 40
1.0
 40
1.0
 10
57.58887175466317
 20
15.69423587876186
 30
0.0
 10
57.58077428194318
 20
15.70716842117285
 30
0.0
 10
57.54880298343318
 20
15.76004168930385
 30
0.0
 10
57.48514256681318
 20
15.87714655737186
 30
0.0
 10
57.38095031186317
 20
16.06340202871785
 30
0.0
 10
57.23301473073317
 20
16.31023054953186
 30
0.0
 10
57.03009499127317
 20
16.60492596198986
 30
0.0
 10
56.75946564140318
 20
16.92360806470486
 30
0.0
 10
56.41517261869318
 20
17.23302585383186
 30
0.0
 10
56.10775606720318
 20
17.43856861692785
 30
0.0
 10
55.91837253336318
 20
17.53715631578286
 30
0.0
 10
55.87517396588318
 20
17.55833084876186
 30
0.0
  0
SPLINE
  5
7C
330
1F
100
AcDbEntity
  8
IGES_LEVEL_0
 62
     7
100
AcDbSpline
210
0.0
220
0.0
230
1.0
 70
     8
 71
     3
 72
    21
 73
    17
 74
     0
 42
0.0000000001
 43
0.0000000001
 40
0.0
 40
0.0
 40
0.0
 40
0.0
 40
0.0975693897908
 40
0.2087572187117
 40
0.3099430858296
 40
0.40354093697
 40
0.4899862707426
 40
0.5685668273401
 40
0.6404761891833
 40
0.7065531767817
 40
0.7671675320469
 40
0.8226505217585
 40
0.8733383155792001
 40
0.9195683267917
 40
0.9616770911869
 40
1.0
 40
1.0
 40
1.0
 40
1.0
 10
55.87521474479318
 20
17.55841125050285
 30
0.0
 10
55.81510647789318
 20
17.58791705313785
 30
0.0
 10
55.68428086103319
 20
17.64651497018786
 30
0.0
 10
55.48420373974318
 20
17.71908882562486
 30
0.0
 10
55.28231718946319
 20
17.77705326488086
 30
0.0
 10
55.09404465115318
 20
17.81962016170485
 30
0.0
 10
54.91921170580318
 20
17.85020440640885
 30
0.0
 10
54.75801873817318
 20
17.87146015012485
 30
0.0
 10
54.61008041923319
 20
17.88549710258786
 30
0.0
 10
54.47407702398319
 20
17.89400193151685
 30
0.0
 10
54.34915533008318
 20
17.89825282873085
 30
0.0
 10
54.23472803982318
 20
17.89928261103685
 30
0.0
 10
54.13017611000318
 20
17.89794544445086
 30
0.0
 10
54.03484139133317
 20
17.89490750968286
 30
0.0
 10
53.94804531298318
 20
17.89068713472386
 30
0.0
 10
53.89297434419318
 20
17.88719605866585
 30
0.0
 10
53.86674782102318
 20
17.88535427343485
 30
0.0
  0
LINE
  5
7D
330
1F
100
AcDbEntity
  8
IGES_LEVEL_0
 62
     7
100
AcDbLine
 10
57.61693114457319
 20
14.85495934372386
 30
0.0
 11
57.65983119164318
 21
14.78760118465786
 31
0.0
  0
LINE
  5
7E
330
1F
100
AcDbEntity
  8
IGES_LEVEL_0
 62
     7
100
AcDbLine
 10
57.59759536992318
 20
14.88434325985486
 30
0.0
 11
57.61693114457319
 21
14.85495934372386
 31
0.0
  0
LINE
  5
7F
330
1F
100
AcDbEntity
  8
IGES_LEVEL_0
 62
     7
100
AcDbLine
 10
57.57325489536318
 20
14.92030469321585
 30
0.0
 11
57.59759536992318
 21
14.88434325985486
 31
0.0
  0
LINE
  5
80
330
1F
100
AcDbEntity
  8
IGES_LEVEL_0
 62
     7
100
AcDbLine
 10
57.54195287583318
 20
14.96467872226086
 30
0.0
 11
57.57325489536318
 21
14.92030469321585
 31
0.0
  0
LINE
  5
81
330
1F
100
AcDbEntity
  8
IGES_LEVEL_0
 62
     7
100
AcDbLine
 10
57.50603604869318
 20
15.01277625975686
 30
0.0
 11
57.54195287583318
 21
14.96467872226086
 31
0.0
  0
ARC
  5
82
330
1F
100
AcDbEntity
  8
IGES_LEVEL_0
 62
     7
100
AcDbCircle
 10
58.04811306999341
 20
15.429581733017
 30
0.0
 40
0.6838019794561029
100
AcDbArc
 50
211.4437882086112
 51
217.5626497749554
  0
ARC
  5
83
330
1F
100
AcDbEntity
  8
IGES_LEVEL_0
 62
     7
100
AcDbCircle
 10
59.72319317900381
 20
16.43036739541614
 30
0.0
 40
2.635048115530304
100
AcDbArc
 50
207.4086904096327
 51
211.00885165938
  0
LINE
  5
84
330
1F
100
AcDbEntity
  8
IGES_LEVEL_0
 62
     7
100
AcDbLine
 10
57.35469395289319
 20
15.27360865906585
 30
0.0
 11
57.38394087837318
 21
15.21736399675885
 31
0.0
  0
LINE
  5
85
330
1F
100
AcDbEntity
  8
IGES_LEVEL_0
 62
     7
100
AcDbLine
 10
57.35288451778318
 20
15.27711697586485
 30
0.0
 11
57.35469395289319
 21
15.27360865906585
 31
0.0
  0
LINE
  5
86
330
1F
100
AcDbEntity
  8
IGES_LEVEL_0
 62
     7
100
AcDbLine
 10
57.33946133775318
 20
15.30319250236686
 30
0.0
 11
57.35288451778318
 21
15.27711697586485
 31
0.0
  0
LINE
  5
87
330
1F
100
AcDbEntity
  8
IGES_LEVEL_0
 62
     7
100
AcDbLine
 10
57.33622511047318
 20
15.30948960369386
 30
0.0
 11
57.33946133775318
 21
15.30319250236686
 31
0.0
  0
LINE
  5
88
330
1F
100
AcDbEntity
  8
IGES_LEVEL_0
 62
     7
100
AcDbLine
 10
57.32813487306318
 20
15.32524390271585
 30
0.0
 11
57.33622511047318
 21
15.30948960369386
 31
0.0
  0
LINE
  5
89
330
1F
100
AcDbEntity
  8
IGES_LEVEL_0
 62
     7
100
AcDbLine
 10
57.31919025829318
 20
15.34267447233185
 30
0.0
 11
57.32813487306318
 21
15.32524390271585
 31
0.0
  0
LINE
  5
8A
330
1F
100
AcDbEntity
  8
IGES_LEVEL_0
 62
     7
100
AcDbLine
 10
57.28259904550318
 20
15.41389280849385
 30
0.0
 11
57.31919025829318
 21
15.34267447233185
 31
0.0
  0
LINE
  5
8B
330
1F
100
AcDbEntity
  8
IGES_LEVEL_0
 62
     7
100
AcDbLine
 10
57.28119388366318
 20
15.41661863555185
 30
0.0
 11
57.28259904550318
 21
15.41389280849385
 31
0.0
  0
LINE
  5
8C
330
1F
100
AcDbEntity
  8
IGES_LEVEL_0
 62
     7
100
AcDbLine
 10
57.24264019800319
 20
15.49086127260386
 30
0.0
 11
57.28119388366318
 21
15.41661863555185
 31
0.0
  0
ARC
  5
8D
330
1F
100
AcDbEntity
  8
IGES_LEVEL_0
 62
     7
100
AcDbCircle
 10
51.09046113286161
 20
12.28209858348436
 30
0.0
 40
6.938693338421269
100
AcDbArc
 50
27.54497917640671
 51
30.0241400602768
  0
LINE
  5
8E
330
1F
100
AcDbEntity
  8
IGES_LEVEL_0
 62
     7
100
AcDbLine
 10
57.03999924635318
 20
15.85163211102286
 30
0.0
 11
57.09808358230318
 21
15.75397671349085
 31
0.0
  0
LINE
  5
8F
330
1F
100
AcDbEntity
  8
IGES_LEVEL_0
 62
     7
100
AcDbLine
 10
57.02347269675317
 20
15.87854202259086
 30
0.0
 11
57.03999924635318
 21
15.85163211102286
 31
0.0
  0
SPLINE
  5
90
330
1F
100
AcDbEntity
  8
IGES_LEVEL_0
 62
     7
100
AcDbSpline
210
0.0
220
0.0
230
1.0
 70
     8
 71
     3
 72
    12
 73
     8
 74
     0
 42
0.0000000001
 43
0.0000000001
 40
0.0
 40
0.0
 40
0.0
 40
0.0
 40
0.09456511076484
 40
0.3701241777303
 40
0.6330565178557001
 40
0.874426157611
 40
1.0
 40
1.0
 40
1.0
 40
1.0
 10
55.81945131740318
 20
17.07016273849085
 30
0.0
 10
55.86687486725317
 20
17.04424935666386
 30
0.0
 10
56.04959912569318
 20
16.93755795988986
 30
0.0
 10
56.34054290851319
 20
16.72055335431486
 30
0.0
 10
56.65343474701318
 20
16.40186947295386
 30
0.0
 10
56.87163687295318
 20
16.11525470319685
 30
0.0
 10
56.98575949116318
 20
15.93951123522185
 30
0.0
 10
57.02347269675317
 20
15.87854202259086
 30
0.0
  0
LINE
  5
91
330
1F
100
AcDbEntity
  8
IGES_LEVEL_0
 62
     7
100
AcDbLine
 10
55.80751430556317
 20
17.07664857632285
 30
0.0
 11
55.81945131740318
 21
17.07016273849085
 31
0.0
  0
ARC
  5
92
330
1F
100
AcDbEntity
  8
IGES_LEVEL_0
 62
     7
100
AcDbCircle
 10
54.39713373610467
 20
14.45040336170254
 30
0.0
 40
2.980996021134915
100
AcDbArc
 50
61.76273021190515
 51
77.73678743712979
  0
SPLINE
  5
93
330
1F
100
AcDbEntity
  8
IGES_LEVEL_0
 62
     7
100
AcDbSpline
210
0.0
220
0.0
230
1.0
 70
     8
 71
     3
 72
    10
 73
     6
 74
     0
 42
0.0000000001
 43
0.0000000001
 40
0.0
 40
0.0
 40
0.0
 40
0.0
 40
0.4938216841874
 40
0.9922362818616
 40
1.0
 40
1.0
 40
1.0
 40
1.0
 10
53.89831048691318
 20
17.43577877216486
 30
0.0
 10
54.08510078536318
 20
17.44889948422485
 30
0.0
 10
54.46239209678318
 20
17.45403414178286
 30
0.0
 10
54.83984804535318
 20
17.40529405136985
 30
0.0
 10
55.02743000686319
 20
17.36401649067285
 30
0.0
 10
55.03030628963317
 20
17.36337946793486
 30
0.0
  0
LINE
  5
94
330
1F
100
AcDbEntity
  8
IGES_LEVEL_0
 62
     7
100
AcDbLine
 10
50.62500044687317
 20
17.20590683620285
 30
0.0
 11
50.69259206383318
 21
17.21065429266985
 31
0.0
  0
LINE
  5
95
330
1F
100
AcDbEntity
  8
IGES_LEVEL_0
 62
     7
100
AcDbLine
 10
40.60093158682318
 20
24.42640138780286
 30
0.0
 11
40.59628546358317
 21
24.42593070224686
 31
0.0
  0
ARC
  5
96
330
1F
100
AcDbEntity
  8
IGES_LEVEL_0
 62
     7
100
AcDbCircle
 10
54.27286571069438
 20
12.44368706191707
 30
0.0
 40
4.441771018640613
100
AcDbArc
 50
85.09222403883472
 51
94.32553116721292
  0
SPLINE
  5
97
330
1F
100
AcDbEntity
  8
IGES_LEVEL_0
 62
     7
100
AcDbSpline
210
0.0
220
0.0
230
1.0
 70
     8
 71
     3
 72
    10
 73
     6
 74
     0
 42
0.0000000001
 43
0.0000000001
 40
0.0
 40
0.0
 40
0.0
 40
0.0
 40
0.3750663396226
 40
0.7358726084264
 40
1.0
 40
1.0
 40
1.0
 40
1.0
 10
43.31577294277318
 20
15.86201887123185
 30
0.0
 10
43.36957433443318
 20
15.87402392786485
 30
0.0
 10
43.47052737185318
 20
15.91532067542585
 30
0.0
 10
43.59354819569319
 20
15.99453638879286
 30
0.0
 10
43.67689343742319
 20
16.03378835573385
 30
0.0
 10
43.71324145140318
 20
16.04705349395686
 30
0.0
  0
ARC
  5
98
330
1F
100
AcDbEntity
  8
IGES_LEVEL_0
 62
     7
100
AcDbCircle
 10
45.06955554380921
 20
15.20128489830307
 30
0.0
 40
0.3078486964788918
100
AcDbArc
 50
196.0954778210702
 51
225.0402410522218
  0
SPLINE
  5
99
330
1F
100
AcDbEntity
  8
IGES_LEVEL_0
 62
     7
100
AcDbSpline
210
0.0
220
0.0
230
1.0
 70
     8
 71
     3
 72
    79
 73
    75
 74
     0
 42
0.0000000001
 43
0.0000000001
 40
0.0
 40
0.0
 40
0.0
 40
0.0
 40
0.174605027951
 40
0.2223545211009
 40
0.2510876162211
 40
0.2716941830904
 40
0.2877650014511
 40
0.3009378408502
 40
0.312096861239
 40
0.3217749522138
 40
0.3303180793198
 40
0.3379639560786
 40
0.3448824925777
 40
0.3511985746973
 40
0.3570091537106
 40
0.3623880657343
 40
0.3673949030388
 40
0.3720771331041
 40
0.3764744482727
 40
0.3806183586457
 40
0.384537472966
 40
0.3882532914446
 40
0.3917858876679
 40
0.3951529328609
 40
0.3983690689575
 40
0.4014486873502
 40
0.4044031039659
 40
0.4072388911641
 40
0.4099623475795
 40
0.4125800521568
 40
0.41510362492
 40
0.417543865854
 40
0.4199136340204
 40
0.4222389785525
 40
0.4245158823683
 40
0.426703641478
 40
0.4287188388904
 40
0.4304178476848
 40
0.4315649589955
 40
0.4337878702565
 40
0.4366702995421
 40
0.4401955564239
 40
0.4446238222318
 40
0.4496449376718
 40
0.4556020662528
 40
0.4619727561613
 40
0.4686018721997
 40
0.4754709306962
 40
0.4824315332021
 40
0.4886567404867
 40
0.4942107260074
 40
0.4986921662766
 40
0.5020241186134
 40
0.5059751907771
 40
0.5102069361208
 40
0.5147119205516
 40
0.5194895334659
 40
0.5245652770674
 40
0.52997390289
 40
0.5357490705983
 40
0.5419265048083
 40
0.5485847698317
 40
0.555824715328
 40
0.5637516245747
 40
0.5725025512683
 40
0.5822678798019
 40
0.5933213951388
 40
0.6060607414606
 40
0.6210960118971
 40
0.6394451757701
 40
0.6630058481589
 40
0.6959887481729
 40
0.7514939102529
 40
1.0
 40
1.0
 40
1.0
 40
1.0
 10
47.86044889412318
 20
15.13462387505986
 30
0.0
 10
47.74017325960318
 20
14.85765200652886
 30
0.0
 10
47.58705276416318
 20
14.50491572286185
 30
0.0
 10
47.41375625425319
 20
14.10676749174485
 30
0.0
 10
47.34665502630318
 20
13.95285379857685
 30
0.0
 10
47.30139583911318
 20
13.84918244443385
 30
0.0
 10
47.26686692179318
 20
13.77018892728285
 30
0.0
 10
47.23885431938318
 20
13.70617820695986
 30
0.0
 10
47.21525189950319
 20
13.65230529066086
 30
0.0
 10
47.19484399716318
 20
13.60577407753786
 30
0.0
 10
47.17686068081318
 20
13.56481372187986
 30
0.0
 10
47.16078236269318
 20
13.52822903008686
 30
0.0
 10
47.14624177317317
 20
13.49517549028986
 30
0.0
 10
47.13296855447318
 20
13.46503190184686
 30
0.0
 10
47.12075856297318
 20
13.43732944974686
 30
0.0
 10
47.10945279249319
 20
13.41170282264086
 30
0.0
 10
47.09892657494318
 20
13.38786509360086
 30
0.0
 10
47.08907875388319
 20
13.36558350080285
 30
0.0
 10
47.07982753296318
 20
13.34466982170186
 30
0.0
 10
47.07110402762318
 20
13.32496578381885
 30
0.0
 10
47.06285098777317
 20
13.30634237021986
 30
0.0
 10
47.05501918902318
 20
13.28868864129585
 30
0.0
 10
47.04756705228319
 20
13.27191095930185
 30
0.0
 10
47.04045768591318
 20
13.25592658313386
 30
0.0
 10
47.03365824924318
 20
13.24066172574885
 30
0.0
 10
47.02714101231318
 20
13.22605235583385
 30
0.0
 10
47.02088411989318
 20
13.21204710147086
 30
0.0
 10
47.01487103224318
 20
13.19860754386686
 30
0.0
 10
47.00908994301318
 20
13.18570212062186
 30
0.0
 10
47.00352595943318
 20
13.17329108088385
 30
0.0
 10
46.99816026227317
 20
13.16132790974385
 30
0.0
 10
46.99297014217318
 20
13.14975590125586
 30
0.0
 10
46.98789986982318
 20
13.13850592737586
 30
0.0
 10
46.98292160635317
 20
13.12752414230085
 30
0.0
 10
46.97810895882319
 20
13.11681369953985
 30
0.0
 10
46.97366296723318
 20
13.10652402602586
 30
0.0
 10
46.96954729598318
 20
13.09719349178285
 30
0.0
 10
46.96612023132317
 20
13.08948933761186
 30
0.0
 10
46.96089901114318
 20
13.08234598185085
 30
0.0
 10
46.95197900519318
 20
13.07599302066685
 30
0.0
 10
46.93923980223318
 20
13.06825969152185
 30
0.0
 10
46.92189098438318
 20
13.06094522901486
 30
0.0
 10
46.90034197345318
 20
13.05467031475785
 30
0.0
 10
46.87429734671318
 20
13.04873563301985
 30
0.0
 10
46.84428017015318
 20
13.04679640840785
 30
0.0
 10
46.81152757179318
 20
13.04567011241186
 30
0.0
 10
46.77714789041318
 20
13.04640900615286
 30
0.0
 10
46.74185050136319
 20
13.04874934980485
 30
0.0
 10
46.70730627788318
 20
13.05247706384686
 30
0.0
 10
46.67579340237319
 20
13.06051512572686
 30
0.0
 10
46.64943283511319
 20
13.07028036373385
 30
0.0
 10
46.62884206321319
 20
13.08142488875286
 30
0.0
 10
46.61463665864318
 20
13.09621711549486
 30
0.0
 10
46.60245838655318
 20
13.11194585992585
 30
0.0
 10
46.58824853927318
 20
13.12868094814585
 30
0.0
 10
46.57295917337318
 20
13.14635412141086
 30
0.0
 10
46.55639187251319
 20
13.16485266191285
 30
0.0
 10
46.53867679195318
 20
13.18441782275086
 30
0.0
 10
46.51968058308319
 20
13.20515036373185
 30
0.0
 10
46.49933051720318
 20
13.22722589596485
 30
0.0
 10
46.47754663895319
 20
13.25091906006485
 30
0.0
 10
46.45413783869319
 20
13.27655903422685
 30
0.0
 10
46.42863300834318
 20
13.30438207101386
 30
0.0
 10
46.40061539839319
 20
13.33481103041386
 30
0.0
 10
46.36960121464318
 20
13.36841751717385
 30
0.0
 10
46.33491120232318
 20
13.40598951471885
 30
0.0
 10
46.29551566699318
 20
13.44860483465186
 30
0.0
 10
46.24987684378318
 20
13.49785999120985
 30
0.0
 10
46.19559838666318
 20
13.55631035631286
 30
0.0
 10
46.12850906616318
 20
13.62840309215686
 30
0.0
 10
46.04017028188318
 20
13.72312012231485
 30
0.0
 10
45.90781438042318
 20
13.86465081575885
 30
0.0
 10
45.50902169013318
 20
14.28963643267485
 30
0.0
 10
45.14776843308319
 20
14.67162512465785
 30
0.0
 10
44.85202833740318
 20
14.98344917147685
 30
0.0
  0
SPLINE
  5
9A
330
1F
100
AcDbEntity
  8
IGES_LEVEL_0
 62
     7
100
AcDbSpline
210
0.0
220
0.0
230
1.0
 70
     8
 71
     3
 72
    13
 73
     9
 74
     0
 42
0.0000000001
 43
0.0000000001
 40
0.0
 40
0.0
 40
0.0
 40
0.0
 40
0.1427006252644
 40
0.432508940824
 40
0.6862234134512
 40
0.8793018867415
 40
0.9905993693411
 40
1.0
 40
1.0
 40
1.0
 40
1.0
 10
47.91927274972318
 20
15.36500604897885
 30
0.0
 10
47.92750734010318
 20
15.36559031355385
 30
0.0
 10
47.95249780324318
 20
15.36715889530986
 30
0.0
 10
47.99255024973319
 20
15.36837888877586
 30
0.0
 10
48.03394351434318
 20
15.36915746837686
 30
0.0
 10
48.06926826901318
 20
15.36321973112186
 30
0.0
 10
48.08210355166318
 20
15.36376795095185
 30
0.0
 10
48.09185559445318
 20
15.35797661273485
 30
0.0
 10
48.09255856765319
 20
15.35756098906385
 30
0.0
  0
SPLINE
  5
9B
330
1F
100
AcDbEntity
  8
IGES_LEVEL_0
 62
     7
100
AcDbSpline
210
0.0
220
0.0
230
1.0
 70
     8
 71
     3
 72
    12
 73
     8
 74
     0
 42
0.0000000001
 43
0.0000000001
 40
0.0
 40
0.0
 40
0.0
 40
0.0
 40
0.09129158676938
 40
0.2857420682641
 40
0.5423920574417001
 40
0.8383158327965
 40
1.0
 40
1.0
 40
1.0
 40
1.0
 10
44.55703360724318
 20
15.11533354149685
 30
0.0
 10
44.56235563048318
 20
15.11852718440485
 30
0.0
 10
44.57395072960318
 20
15.11999195806486
 30
0.0
 10
44.60557725591318
 20
15.12971281731285
 30
0.0
 10
44.64535773170319
 20
15.13454341248685
 30
0.0
 10
44.68489467540319
 20
15.13882601190385
 30
0.0
 10
44.71007884137318
 20
15.14076932193586
 30
0.0
 10
44.71897690288319
 20
15.14138315602386
 30
0.0
  0
ARC
  5
9C
330
1F
100
AcDbEntity
  8
IGES_LEVEL_0
 62
     7
100
AcDbCircle
 10
44.44558041957668
 20
15.27064674645137
 30
0.0
 40
0.1911648625513293
100
AcDbArc
 50
302.6874336460335
 51
305.6633269451714
  0
ARC
  5
9D
330
1F
100
AcDbEntity
  8
IGES_LEVEL_0
 62
     7
100
AcDbCircle
 10
48.42823241151318
 20
10.17148385326886
 30
0.0
 40
0.5000005885361487
100
AcDbArc
 50
185.0000081820922
 51
244.4999709446402
  0
ARC
  5
9E
330
1F
100
AcDbEntity
  8
IGES_LEVEL_0
 62
     7
100
AcDbCircle
 10
45.80321341151318
 20
10.79774385326886
 30
0.0
 40
0.1500000943748414
100
AcDbArc
 50
7.124921593527463
 51
80.30131361781831
  0
ARC
  5
9F
330
1F
100
AcDbEntity
  8
IGES_LEVEL_0
 62
     7
100
AcDbCircle
 10
47.75599441151319
 20
10.79417085326885
 30
0.0
 40
0.1499996488425137
100
AcDbArc
 50
90.0
 51
172.8750310290985
  0
ARC
  5
A0
330
1F
100
AcDbEntity
  8
IGES_LEVEL_0
 62
     7
100
AcDbCircle
 10
46.11224441151319
 20
10.74417085326886
 30
0.0
 40
0.1499996488425119
100
AcDbArc
 50
187.1249689709019
 51
270.0
  0
ARC
  5
A1
330
1F
100
AcDbEntity
  8
IGES_LEVEL_0
 62
     7
100
AcDbCircle
 10
47.44741041151318
 20
10.74417085326886
 30
0.0
 40
0.1499996488425137
100
AcDbArc
 50
270.0
 51
352.8750310290985
  0
CIRCLE
  5
A2
330
1F
100
AcDbEntity
  8
IGES_LEVEL_0
 62
     7
100
AcDbCircle
 10
51.65677141151318
 20
1.254670853268855
 30
0.0
 40
1.25
  0
CIRCLE
  5
A3
330
1F
100
AcDbEntity
  8
IGES_LEVEL_0
 62
     7
100
AcDbCircle
 10
51.65677141151318
 20
1.254670853268855
 30
0.0
 40
1.0
  0
CIRCLE
  5
A4
330
1F
100
AcDbEntity
  8
IGES_LEVEL_0
 62
     7
100
AcDbCircle
 10
51.65677141151318
 20
1.254670853268855
 30
0.0
 40
1.0625
  0
CIRCLE
  5
A5
330
1F
100
AcDbEntity
  8
IGES_LEVEL_0
 62
     7
100
AcDbCircle
 10
37.23413341151318
 20
1.254670853268855
 30
0.0
 40
1.0
  0
CIRCLE
  5
A6
330
1F
100
AcDbEntity
  8
IGES_LEVEL_0
 62
     7
100
AcDbCircle
 10
37.23413341151318
 20
1.254670853268855
 30
0.0
 40
1.25
  0
CIRCLE
  5
A7
330
1F
100
AcDbEntity
  8
IGES_LEVEL_0
 62
     7
100
AcDbCircle
 10
37.23413341151318
 20
1.254670853268855
 30
0.0
 40
1.0625
  0
CIRCLE
  5
A8
330
1F
100
AcDbEntity
  8
IGES_LEVEL_0
 62
     7
100
AcDbCircle
 10
60.57045241151317
 20
1.254670853268855
 30
0.0
 40
1.0
  0
CIRCLE
  5
A9
330
1F
100
AcDbEntity
  8
IGES_LEVEL_0
 62
     7
100
AcDbCircle
 10
60.57045241151317
 20
1.254670853268855
 30
0.0
 40
1.25
  0
CIRCLE
  5
AA
330
1F
100
AcDbEntity
  8
IGES_LEVEL_0
 62
     7
100
AcDbCircle
 10
60.57045241151317
 20
1.254670853268855
 30
0.0
 40
1.0625
  0
LINE
  5
AB
330
1F
100
AcDbEntity
  8
IGES_LEVEL_0
 62
     7
100
AcDbLine
 10
59.32045241151317
 20
2.504670853268855
 30
0.0
 11
59.32045241151317
 21
1.254670853268855
 31
0.0
  0
LINE
  5
AC
330
1F
100
AcDbEntity
  8
IGES_LEVEL_0
 62
     7
100
AcDbLine
 10
50.40677141151318
 20
2.504670853268855
 30
0.0
 11
50.40677141151318
 21
1.254670853268855
 31
0.0
  0
LINE
  5
AD
330
1F
100
AcDbEntity
  8
IGES_LEVEL_0
 62
     7
100
AcDbLine
 10
47.59625141151318
 20
10.72556585326885
 30
0.0
 11
47.60715341151318
 21
10.81277585326886
 31
0.0
  0
LINE
  5
AE
330
1F
100
AcDbEntity
  8
IGES_LEVEL_0
 62
     7
100
AcDbLine
 10
47.86250241151318
 20
10.59417085326886
 30
0.0
 11
47.86250241151318
 21
10.41717085326886
 31
0.0
  0
LINE
  5
AF
330
1F
100
AcDbEntity
  8
IGES_LEVEL_0
 62
     7
100
AcDbLine
 10
50.84044841151318
 20
17.67292685326886
 30
0.0
 11
53.86674141151318
 21
17.88544985326886
 31
0.0
  0
LINE
  5
B0
330
1F
100
AcDbEntity
  8
IGES_LEVEL_0
 62
     7
100
AcDbLine
 10
50.69259241151318
 20
17.21065385326886
 30
0.0
 11
53.89832041151318
 21
17.43577885326885
 31
0.0
  0
LINE
  5
B1
330
1F
100
AcDbEntity
  8
IGES_LEVEL_0
 62
     7
100
AcDbLine
 10
43.74312241151318
 20
16.72066585326886
 30
0.0
 11
49.17612041151318
 21
17.10383385326885
 31
0.0
  0
LINE
  5
B2
330
1F
100
AcDbEntity
  8
IGES_LEVEL_0
 62
     7
100
AcDbLine
 10
47.56722741151319
 20
6.954561853268855
 30
0.0
 11
47.56722741151319
 21
1.539170853268853
 31
0.0
  0
LINE
  5
B3
330
1F
100
AcDbEntity
  8
IGES_LEVEL_0
 62
     7
100
AcDbLine
 10
45.96340341151318
 20
10.72556585326885
 30
0.0
 11
45.95205541151319
 21
10.81634885326885
 31
0.0
  0
LINE
  5
B4
330
1F
100
AcDbEntity
  8
IGES_LEVEL_0
 62
     7
100
AcDbLine
 10
43.58920841151318
 20
15.74968885326885
 30
0.0
 11
48.75709441151318
 21
16.11106185326885
 31
0.0
  0
LINE
  5
B5
330
1F
100
AcDbEntity
  8
IGES_LEVEL_0
 62
     7
100
AcDbLine
 10
44.46077641151318
 20
15.12711885326885
 30
0.0
 11
48.17115941151317
 21
15.38668285326886
 31
0.0
  0
LINE
  5
B6
330
1F
100
AcDbEntity
  8
IGES_LEVEL_0
 62
     7
100
AcDbLine
 10
45.99242741151318
 20
7.577012853268855
 30
0.0
 11
45.99242741151318
 21
1.539170853268853
 31
0.0
  0
LINE
  5
B7
330
1F
100
AcDbEntity
  8
IGES_LEVEL_0
 62
     7
100
AcDbLine
 10
45.69715241151319
 20
10.59417085326886
 30
0.0
 11
45.69715241151319
 21
10.41717085326886
 31
0.0
  0
LINE
  5
B8
330
1F
100
AcDbEntity
  8
IGES_LEVEL_0
 62
     7
100
AcDbLine
 10
43.72632341151318
 20
16.37247385326885
 30
0.0
 11
43.73152941151318
 21
16.29833685326885
 31
0.0
  0
LINE
  5
B9
330
1F
100
AcDbEntity
  8
IGES_LEVEL_0
 62
     7
100
AcDbLine
 10
42.32198741151318
 20
16.52754385326885
 30
0.0
 11
42.32211941151319
 21
16.52566585326886
 31
0.0
  0
LINE
  5
BA
330
1F
100
AcDbEntity
  8
IGES_LEVEL_0
 62
     7
100
AcDbLine
 10
47.77215541151318
 20
10.94417085326885
 30
0.0
 11
47.75599441151319
 21
10.94417085326885
 31
0.0
  0
LINE
  5
BB
330
1F
100
AcDbEntity
  8
IGES_LEVEL_0
 62
     7
100
AcDbLine
 10
45.69715241151319
 20
10.59417085326886
 30
0.0
 11
47.86250241151318
 21
10.59417085326886
 31
0.0
  0
LINE
  5
BC
330
1F
100
AcDbEntity
  8
IGES_LEVEL_0
 62
     7
100
AcDbLine
 10
38.22327441151317
 20
17.81653285326885
 30
0.0
 11
38.22383941151318
 21
17.81784985326885
 31
0.0
  0
LINE
  5
BD
330
1F
100
AcDbEntity
  8
IGES_LEVEL_0
 62
     7
100
AcDbLine
 10
38.40598941151318
 20
18.37918185326885
 30
0.0
 11
38.40733141151318
 21
18.38440385326885
 31
0.0
  0
LINE
  5
BE
330
1F
100
AcDbEntity
  8
IGES_LEVEL_0
 62
     7
100
AcDbLine
 10
39.02670641151318
 20
21.36264885326886
 30
0.0
 11
38.51237841151318
 21
18.83002185326885
 31
0.0
  0
LINE
  5
BF
330
1F
100
AcDbEntity
  8
IGES_LEVEL_0
 62
     7
100
AcDbLine
 10
35.98413341151318
 20
2.504670853268855
 30
0.0
 11
35.98413341151318
 21
1.254670853268855
 31
0.0
  0
LINE
  5
C0
330
1F
100
AcDbEntity
  8
IGES_LEVEL_0
 62
     7
100
AcDbLine
 10
59.32045241151317
 20
2.504670853268855
 30
0.0
 11
60.57045241151317
 21
2.504670853268855
 31
0.0
  0
LINE
  5
C1
330
1F
100
AcDbEntity
  8
IGES_LEVEL_0
 62
     7
100
AcDbLine
 10
50.40677141151318
 20
2.504670853268855
 30
0.0
 11
51.65677141151318
 21
2.504670853268855
 31
0.0
  0
LINE
  5
C2
330
1F
100
AcDbEntity
  8
IGES_LEVEL_0
 62
     7
100
AcDbLine
 10
35.98413341151318
 20
2.504670853268855
 30
0.0
 11
37.23413341151318
 21
2.504670853268855
 31
0.0
  0
LINE
  5
C3
330
1F
100
AcDbEntity
  8
IGES_LEVEL_0
 62
     7
100
AcDbLine
 10
45.99246241151319
 20
1.539170853268853
 30
0.0
 11
47.56719241151318
 21
1.539170853268853
 31
0.0
  0
LINE
  5
C4
330
1F
100
AcDbEntity
  8
IGES_LEVEL_0
 62
     7
100
AcDbLine
 10
41.05600975581318
 20
16.50712695819885
 30
0.0
 11
42.54747282072319
 21
16.61224951086386
 31
0.0
  0
LINE
  5
C5
330
1F
100
AcDbEntity
  8
IGES_LEVEL_0
 62
     7
100
AcDbLine
 10
59.32045206837056
 20
2.604670853268839
 30
0.0
 11
59.33607741151317
 21
2.504670853268855
 31
0.0
  0
LINE
  5
C6
330
1F
100
AcDbEntity
  8
IGES_LEVEL_0
 62
     7
100
AcDbLine
 10
60.03920275465582
 20
2.604670853268849
 30
0.0
 11
60.02357741151317
 21
2.504670853268855
 31
0.0
  0
LINE
  5
C7
330
1F
100
AcDbEntity
  8
IGES_LEVEL_0
 62
     7
100
AcDbLine
 10
51.12552175465582
 20
2.60467085326886
 30
0.0
 11
51.10989641151318
 21
2.504670853268855
 31
0.0
  0
LINE
  5
C8
330
1F
100
AcDbEntity
  8
IGES_LEVEL_0
 62
     7
100
AcDbLine
 10
50.40677106837055
 20
2.604670853268853
 30
0.0
 11
50.42239641151318
 21
2.504670853268855
 31
0.0
  0
LINE
  5
C9
330
1F
100
AcDbEntity
  8
IGES_LEVEL_0
 62
     7
100
AcDbLine
 10
36.7028825345931
 20
2.604670853268853
 30
0.0
 11
36.68725841151318
 21
2.504670853268855
 31
0.0
  0
LINE
  5
CA
330
1F
100
AcDbEntity
  8
IGES_LEVEL_0
 62
     7
100
AcDbLine
 10
35.98413306837054
 20
2.604670853268849
 30
0.0
 11
35.99975841151318
 21
2.504670853268855
 31
0.0
  0
LINE
  5
CB
330
1F
100
AcDbEntity
  8
IGES_LEVEL_0
 62
     7
100
AcDbLine
 10
48.21297641151318
 20
9.720190853268855
 30
0.0
 11
60.07899276731425
 21
4.060391837894933
 31
0.0
  0
LINE
  5
CC
330
1F
100
AcDbEntity
  8
IGES_LEVEL_0
 62
     7
100
AcDbLine
 10
60.07899276731425
 20
4.060391837894933
 30
0.0
 11
60.12982697200138
 21
2.604670853268849
 31
0.0
  0
LINE
  5
CD
330
1F
100
AcDbEntity
  8
IGES_LEVEL_0
 62
     7
100
AcDbLine
 10
60.12982697200138
 20
2.604670853268849
 30
0.0
 11
59.25910685815268
 21
2.604670853268842
 31
0.0
  0
LINE
  5
CE
330
1F
100
AcDbEntity
  8
IGES_LEVEL_0
 62
     7
100
AcDbLine
 10
59.25910685815268
 20
2.604670853268842
 30
0.0
 11
59.25299882558318
 21
2.638470776248855
 31
0.0
  0
SPLINE
  5
CF
330
1F
100
AcDbEntity
  8
IGES_LEVEL_0
 62
     7
100
AcDbSpline
210
0.0
220
0.0
230
1.0
 70
     8
 71
     3
 72
    14
 73
    10
 74
     0
 42
0.0000000001
 43
0.0000000001
 40
3.131954925201695
 40
3.131954925201695
 40
3.131954925201695
 40
3.131954925201695
 40
3.222997257043695
 40
3.450236674083195
 40
3.620666236862795
 40
3.791095799642395
 40
3.876310581032295
 40
4.046740143811875
 40
4.131954925201695
 40
4.131954925201695
 40
4.131954925201695
 40
4.131954925201695
 10
59.25299882558318
 20
2.638470776248855
 30
0.0
 10
59.24534737880317
 20
2.683538171708853
 30
0.0
 10
59.21454059701318
 20
2.835945377768855
 30
0.0
 10
59.14545723043318
 20
3.042331230078854
 30
0.0
 10
59.03351811494318
 20
3.242112767538854
 30
0.0
 10
58.92922782166318
 20
3.366151037518854
 30
0.0
 10
58.80968556087318
 20
3.470840895138854
 30
0.0
 10
58.70185017825318
 20
3.539114051368853
 30
0.0
 10
58.61182246078317
 20
3.578709871128854
 30
0.0
 10
58.58079642380318
 20
3.590618583558853
 30
0.0
  0
SPLINE
  5
D0
330
1F
100
AcDbEntity
  8
IGES_LEVEL_0
 62
     7
100
AcDbSpline
210
0.0
220
0.0
230
1.0
 70
     8
 71
     3
 72
    14
 73
    10
 74
     0
 42
0.0000000001
 43
0.0000000001
 40
-0.1627999607543706
 40
-0.1627999607543706
 40
-0.1627999607543706
 40
-0.1627999607543706
 40
0.0
 40
0.1607706981311
 40
0.3227658519533
 40
0.4852231860304
 40
0.6499586703301
 40
0.8198825064526
 40
1.0
 40
1.0
 40
1.0
 40
1.0
 10
47.32972370816319
 20
7.249093647368854
 30
0.0
 10
47.30011405316832
 20
7.285974457580853
 30
0.0
 10
47.22819623032535
 20
7.352675675966083
 30
0.0
 10
47.10493188313318
 20
7.433456332788854
 30
0.0
 10
46.97316024658318
 20
7.498439232618852
 30
0.0
 10
46.83420308721318
 20
7.549729162278858
 30
0.0
 10
46.68856330760318
 20
7.587673660718853
 30
0.0
 10
46.5345847703632
 20
7.611774990928852
 30
0.0
 10
46.42868549813316
 20
7.617170659428862
 30
0.0
 10
46.37424251139318
 20
7.617170659758854
 30
0.0
  0
SPLINE
  5
D1
330
1F
100
AcDbEntity
  8
IGES_LEVEL_0
 62
     7
100
AcDbSpline
210
0.0
220
0.0
230
1.0
 70
     8
 71
     3
 72
    14
 73
    10
 74
     0
 42
0.0000000001
 43
0.0000000001
 40
-0.2186935400824879
 40
-0.2186935400824879
 40
-0.2186935400824879
 40
-0.2186935400824879
 40
0.0
 40
0.196447192327
 40
0.37690253778
 40
0.5437339591823001
 40
0.7008090111347
 40
0.8516268634832001
 40
1.0
 40
1.0
 40
1.0
 40
1.0
 10
45.03961748841319
 20
7.249069602678855
 30
0.0
 10
45.11451303014661
 20
7.284585199382523
 30
0.0
 10
45.25956045016818
 20
7.34826649864374
 30
0.0
 10
45.47165220312319
 20
7.430100108558857
 30
0.0
 10
45.66841043114317
 20
7.496085429648851
 30
0.0
 10
45.85378476262319
 20
7.548077521518856
 30
0.0
 10
46.03091165802317
 20
7.586554634318855
 30
0.0
 10
46.20342134341317
 20
7.611139365118852
 30
0.0
 10
46.31763218062319
 20
7.617170660578857
 30
0.0
 10
46.37424250081318
 20
7.617170660498854
 30
0.0
  0
LINE
  5
D2
330
1F
100
AcDbEntity
  8
IGES_LEVEL_0
 62
     7
100
AcDbLine
 10
35.94549359807209
 20
4.133882371549857
 30
0.0
 11
35.89361407019753
 21
2.604670853268849
 31
0.0
  0
LINE
  5
D3
330
1F
100
AcDbEntity
  8
IGES_LEVEL_0
 62
     7
100
AcDbLine
 10
35.89361407019753
 20
2.604670853268849
 30
0.0
 11
36.79298643374825
 21
2.604670853268857
 31
0.0
  0
LINE
  5
D4
330
1F
100
AcDbEntity
  8
IGES_LEVEL_0
 62
     7
100
AcDbLine
 10
36.79298643374825
 20
2.604670853268857
 30
0.0
 11
36.79494053937317
 21
2.642607239558852
 31
0.0
  0
ARC
  5
D5
330
1F
100
AcDbEntity
  8
IGES_LEVEL_0
 62
     7
100
AcDbCircle
 10
38.12511399167262
 20
2.587554871214486
 30
0.0
 40
1.331312200974113
100
AcDbArc
 50
168.8607977224995
 51
177.6300314780885
  0
SPLINE
  5
D6
330
1F
100
AcDbEntity
  8
IGES_LEVEL_0
 62
     7
100
AcDbSpline
210
0.0
220
0.0
230
1.0
 70
     8
 71
     3
 72
    12
 73
     8
 74
     0
 42
0.0000000001
 43
0.0000000001
 40
-0.052341667614236
 40
-0.052341667614236
 40
-0.052341667614236
 40
-0.052341667614236
 40
0.0
 40
0.3002530943239
 40
0.6376521738147
 40
1.0
 40
1.133029112101641
 40
1.133029112101641
 40
1.133029112101641
 40
1.133029112101641
 10
45.34667844214469
 20
9.720190789048649
 30
0.0
 10
45.21284045493268
 20
9.631859102584903
 30
0.0
 10
44.26793810460151
 20
9.099743028895738
 30
0.0
 10
42.44606786768321
 20
8.011138943488856
 30
0.0
 10
39.80392996497318
 20
6.437241723308841
 30
0.0
 10
37.60642072383725
 20
5.121618673518983
 30
0.0
 10
36.2990615409755
 20
4.339352719006349
 30
0.0
 10
35.94549359807209
 20
4.133882371549857
 30
0.0
  0
SPLINE
  5
D7
330
1F
100
AcDbEntity
  8
IGES_LEVEL_0
 62
     7
100
AcDbSpline
210
0.0
220
0.0
230
1.0
 70
     8
 71
     3
 72
    12
 73
     8
 74
     0
 42
0.0000000001
 43
0.0000000001
 40
-0.1288520962326392
 40
-0.1288520962326392
 40
-0.1288520962326392
 40
-0.1288520962326392
 40
0.0
 40
0.3597556903362
 40
0.6998984845854001
 40
1.0
 40
1.022711678012756
 40
1.022711678012756
 40
1.022711678012756
 40
1.022711678012756
 10
51.16586360503436
 20
4.173656796471738
 30
0.0
 10
51.03207769464821
 20
4.366356998452297
 30
0.0
 10
50.56968464229493
 20
5.130538540804851
 30
0.0
 10
49.78573248284316
 20
6.426931480758872
 30
0.0
 10
48.83630805200319
 20
7.988997748038846
 30
0.0
 10
48.20873736521232
 20
9.025921031945641
 30
0.0
 10
47.891344376063
 20
9.523411833380882
 30
0.0
 10
47.88044459971319
 20
9.562776558194855
 30
0.0
  0
ARC
  5
D8
330
1F
100
AcDbEntity
  8
IGES_LEVEL_0
 62
     7
100
AcDbCircle
 10
43.46917556858926
 20
3.042536779146551
 30
0.0
 40
6.861145174466141
100
AcDbArc
 50
356.6949328548394
 51
4.898983461396322
  0
LINE
  5
D9
330
1F
100
AcDbEntity
  8
IGES_LEVEL_0
 62
     7
100
AcDbLine
 10
50.31890875014318
 20
2.646975852588855
 30
0.0
 11
50.31646570538722
 21
2.604670853268849
 31
0.0
  0
LINE
  5
DA
330
1F
100
AcDbEntity
  8
IGES_LEVEL_0
 62
     7
100
AcDbLine
 10
50.31646570538722
 20
2.604670853268849
 30
0.0
 11
51.21601771904426
 21
2.604670853268864
 31
0.0
  0
LINE
  5
DB
330
1F
100
AcDbEntity
  8
IGES_LEVEL_0
 62
     7
100
AcDbLine
 10
51.21601771904426
 20
2.604670853268864
 30
0.0
 11
51.16586360503436
 21
4.173656796471738
 31
0.0
  0
LINE
  5
DC
330
1F
100
AcDbEntity
  8
IGES_LEVEL_0
 62
     7
100
AcDbLine
 10
47.93013441151318
 20
10.12790585326886
 30
0.0
 11
47.90482770227969
 21
10.41717085326886
 31
0.0
  0
LINE
  5
DD
330
1F
100
AcDbEntity
  8
IGES_LEVEL_0
 62
     7
100
AcDbLine
 10
47.90482770227969
 20
10.41717085326886
 30
0.0
 11
45.6548271374291
 21
10.41717085326885
 31
0.0
  0
LINE
  5
DE
330
1F
100
AcDbEntity
  8
IGES_LEVEL_0
 62
     7
100
AcDbLine
 10
45.6548271374291
 20
10.41717085326885
 30
0.0
 11
45.62952034063252
 21
10.12790585947012
 31
0.0
  0
ARC
  5
DF
330
1F
100
AcDbEntity
  8
IGES_LEVEL_0
 62
     7
100
AcDbCircle
 10
45.13142426497271
 20
10.17148256747873
 30
0.0
 40
0.4999986300666937
100
AcDbArc
 50
295.4999007861002
 51
355.0001200871668
  0
SPLINE
  5
E0
330
1F
100
AcDbEntity
  8
IGES_LEVEL_0
 62
     7
100
AcDbSpline
210
0.0
220
0.0
230
1.0
 70
     8
 71
     2
 72
     7
 73
     4
 74
     0
 42
0.0000000001
 43
0.0000000001
 40
0.0
 40
0.0
 40
0.0
 40
1.0
 40
1.017584782680613
 40
1.017584782680613
 40
1.017584782680613
 10
50.66098741151318
 20
17.28673485326885
 30
0.0
 10
49.26224841151317
 20
14.14511585326886
 30
0.0
 10
47.83891289017127
 20
10.94825216588857
 30
0.0
 10
47.77215541151318
 20
10.94417085326885
 30
0.0
  0
SPLINE
  5
E1
330
1F
100
AcDbEntity
  8
IGES_LEVEL_0
 62
     7
100
AcDbSpline
210
0.0
220
0.0
230
1.0
 70
     8
 71
     3
 72
    46
 73
    42
 74
     0
 42
0.0000000001
 43
0.0000000001
 40
0.0
 40
0.0
 40
0.0
 40
0.0
 40
0.04490899440663
 40
0.0889211557295
 40
0.1315167616663
 40
0.1727621552502
 40
0.2127235943794
 40
0.2514672596867
 40
0.2890592783396
 40
0.3255657265331
 40
0.3610526440615
 40
0.395583904127
 40
0.429215578388
 40
0.4620019366289
 40
0.4939972313955
 40
0.5252556946249
 40
0.5558300109931
 40
0.5857394468951001
 40
0.6149708763472001
 40
0.6435097279149
 40
0.6713414453982
 40
0.6984514992742
 40
0.7248255914918
 40
0.7504456716172
 40
0.775281594038
 40
0.7993007005019001
 40
0.8224895008138
 40
0.8448082150147001
 40
0.8660902496606
 40
0.8861790408639
 40
0.9049433056140001
 40
0.9222725898284
 40
0.938081043556
 40
0.9522965004997001
 40
0.9648406318885
 40
0.9756475754136
 40
0.9846701034868
 40
0.9918897524617
 40
0.9973282458991
 40
1.0
 40
1.021252800069934
 40
1.021252800069934
 40
1.021252800069934
 40
1.021252800069934
 10
43.08233772760318
 20
15.43582176775385
 30
0.0
 10
43.12237517030317
 20
15.36964255205685
 30
0.0
 10
43.20163659988319
 20
15.23859730589586
 30
0.0
 10
43.3188295754332
 20
15.04475564215386
 30
0.0
 10
43.43272629794318
 20
14.85629459566185
 30
0.0
 10
43.54298735694317
 20
14.67378810189286
 30
0.0
 10
43.64979444463317
 20
14.49694593801185
 30
0.0
 10
43.75332820338318
 20
14.32547767953986
 30
0.0
 10
43.85376849784318
 20
14.15909279654385
 30
0.0
 10
43.95129447551319
 20
13.99750060840085
 30
0.0
 10
44.04608286894317
 20
13.84041351045686
 30
0.0
 10
44.13830110011318
 20
13.68755840430286
 30
0.0
 10
44.22810583832317
 20
13.53867937918485
 30
0.0
 10
44.31564492014319
 20
13.39353454701586
 30
0.0
 10
44.40106434726319
 20
13.25188461305985
 30
0.0
 10
44.48450851257317
 20
13.11349250021186
 30
0.0
 10
44.56609054764319
 20
12.97817264547885
 30
0.0
 10
44.64586358183318
 20
12.84583877602285
 30
0.0
 10
44.72382087559318
 20
12.71650378480385
 30
0.0
 10
44.79992543290318
 20
12.59023034476086
 30
0.0
 10
44.87413896692317
 20
12.46708317323485
 30
0.0
 10
44.9464238996032
 20
12.34712686488786
 30
0.0
 10
45.01673916552318
 20
12.23043093917785
 30
0.0
 10
45.08502786449319
 20
12.11708677553185
 30
0.0
 10
45.15122003801318
 20
12.00721480413285
 30
0.0
 10
45.2152544491732
 20
11.90093153960286
 30
0.0
 10
45.27704304238318
 20
11.79835671209185
 30
0.0
 10
45.33637750657319
 20
11.69980691261586
 30
0.0
 10
45.39290694067319
 20
11.60580054131285
 30
0.0
 10
45.4462270299732
 20
11.51700782708386
 30
0.0
 10
45.49600294818316
 20
11.43402793017386
 30
0.0
 10
45.54195008474318
 20
11.35734808388486
 30
0.0
 10
45.58383670433318
 20
11.28736850459286
 30
0.0
 10
45.62146011790317
 20
11.22444230378385
 30
0.0
 10
45.65463708772317
 20
11.16889410794085
 30
0.0
 10
45.68320937826319
 20
11.12101343414685
 30
0.0
 10
45.70706485870319
 20
11.08099723315186
 30
0.0
 10
45.72617035530317
 20
11.04891390202085
 30
0.0
 10
45.73966791723318
 20
11.02622168872286
 30
0.0
 10
45.76550588607721
 20
10.98274762484066
 30
0.0
 10
45.7865384322582
 20
10.94731383995627
 30
0.0
 10
45.8284834444633
 20
10.94560004606159
 30
0.0
  0
SPLINE
  5
E2
330
1F
100
AcDbEntity
  8
IGES_LEVEL_0
 62
     7
100
AcDbSpline
210
0.0
220
0.0
230
1.0
 70
     8
 71
     3
 72
    20
 73
    16
 74
     0
 42
0.0000000001
 43
0.0000000001
 40
0.0
 40
0.0
 40
0.0
 40
0.0
 40
0.1108530318162
 40
0.2150088321109
 40
0.3131071143411
 40
0.4049839344693
 40
0.4908573237442
 40
0.5717391287842
 40
0.6482357528046
 40
0.7207011186513
 40
0.789926058418
 40
0.8560261707186
 40
0.9193795930350001
 40
0.9802287725510001
 40
1.0
 40
1.0
 40
1.0
 40
1.0
 10
45.08354420741318
 20
13.63163307139585
 30
0.0
 10
45.08159975740318
 20
13.62615076928985
 30
0.0
 10
45.07806259806318
 20
13.61543226095585
 30
0.0
 10
45.07363755063318
 20
13.59960343293086
 30
0.0
 10
45.07019309696318
 20
13.58455209756786
 30
0.0
 10
45.06767135530318
 20
13.57029210053885
 30
0.0
 10
45.06601894019319
 20
13.55681472525085
 30
0.0
 10
45.06519402193318
 20
13.54406930292985
 30
0.0
 10
45.06518014926319
 20
13.53199939340185
 30
0.0
 10
45.06598837204318
 20
13.52056759584286
 30
0.0
 10
45.06765819988318
 20
13.50977778921985
 30
0.0
 10
45.07026054598319
 20
13.49966174329386
 30
0.0
 10
45.07388503232318
 20
13.49032641762885
 30
0.0
 10
45.07762406103318
 20
13.48372464769685
 30
0.0
 10
45.08013759897318
 20
13.48031062876985
 30
0.0
 10
45.08077958939319
 20
13.47949351127186
 30
0.0
  0
LINE
  5
E3
330
1F
100
AcDbEntity
  8
IGES_LEVEL_0
 62
     7
100
AcDbLine
 10
45.08077958939319
 20
13.47949351127186
 30
0.0
 11
45.08985349901866
 21
13.4679443508808
 31
0.0
  0
LINE
  5
E4
330
1F
100
AcDbEntity
  8
IGES_LEVEL_0
 62
     7
100
AcDbLine
 10
45.08985349901866
 20
13.4679443508808
 30
0.0
 11
45.43872287263224
 21
13.47098862739216
 31
0.0
  0
LINE
  5
E5
330
1F
100
AcDbEntity
  8
IGES_LEVEL_0
 62
     7
100
AcDbLine
 10
47.70808222294619
 20
13.47199439477382
 30
0.0
 11
48.01790041151318
 21
13.46658685326885
 31
0.0
  0
LINE
  5
E6
330
1F
100
AcDbEntity
  8
IGES_LEVEL_0
 62
     7
100
AcDbLine
 10
44.77377419645318
 20
15.11593728861186
 30
0.0
 11
44.76933778264318
 21
15.13713587326586
 31
0.0
  0
LINE
  5
E7
330
1F
100
AcDbEntity
  8
IGES_LEVEL_0
 62
     7
100
AcDbLine
 10
44.76933778264318
 20
15.13713587326586
 30
0.0
 11
44.76749877382585
 21
15.14857595978625
 31
0.0
  0
LINE
  5
E8
330
1F
100
AcDbEntity
  8
IGES_LEVEL_0
 62
     7
100
AcDbLine
 10
47.91410178958682
 20
15.36870009931119
 30
0.0
 11
47.91379801659318
 21
15.36039416456185
 31
0.0
  0
ARC
  5
E9
330
1F
100
AcDbEntity
  8
IGES_LEVEL_0
 62
     7
100
AcDbCircle
 10
47.29153614505842
 20
15.38824567866365
 30
0.0
 40
0.6228848558150258
100
AcDbArc
 50
335.972543929311
 51
357.4372367240094
  0
SPLINE
  5
EA
330
1F
100
AcDbEntity
  8
IGES_LEVEL_0
 62
     7
100
AcDbSpline
210
0.0
220
0.0
230
1.0
 70
     8
 71
     3
 72
    23
 73
    19
 74
     0
 42
0.0000000001
 43
0.0000000001
 40
0.0
 40
0.0
 40
0.0
 40
0.0
 40
0.0803135977331
 40
0.1709667609036
 40
0.2599225888144
 40
0.3415012502062
 40
0.4137152028659
 40
0.4778920247371
 40
0.5347959627514
 40
0.5871474602539
 40
0.6376733819027
 40
0.6869864618337001
 40
0.7355002424263
 40
0.7834039629669
 40
0.8303271812601
 40
0.8771341397701
 40
0.9251553071942
 40
1.0
 40
1.0
 40
1.0
 40
1.0
 10
54.65286929914318
 20
16.86917755972186
 30
0.0
 10
54.72529924515318
 20
16.86280582435985
 30
0.0
 10
54.87909743762317
 20
16.84495507589686
 30
0.0
 10
55.11047601346319
 20
16.80041376183085
 30
0.0
 10
55.33665808522318
 20
16.72956017178586
 30
0.0
 10
55.53729880245318
 20
16.63894526705985
 30
0.0
 10
55.70879550230318
 20
16.54093199078185
 30
0.0
 10
55.85280939253318
 20
16.44117178781985
 30
0.0
 10
55.97317674771318
 20
16.34006490893086
 30
0.0
 10
56.07563296504318
 20
16.23781018616685
 30
0.0
 10
56.16694658817318
 20
16.13459672639986
 30
0.0
 10
56.25144759855319
 20
16.03020219229886
 30
0.0
 10
56.33099315046319
 20
15.92496245871785
 30
0.0
 10
56.40682315657318
 20
15.81968202854385
 30
0.0
 10
56.48034098301318
 20
15.71466089917385
 30
0.0
 10
56.55352781613318
 20
15.60928238093085
 30
0.0
 10
56.62944688437318
 20
15.50238728473286
 30
0.0
 10
56.69631625280319
 20
15.41350901942185
 30
0.0
 10
56.86046136161318
 20
15.16402725141685
 30
0.0
  0
LINE
  5
EB
330
1F
100
AcDbEntity
  8
IGES_LEVEL_0
 62
     7
100
AcDbLine
 10
53.93785441151319
 20
16.87280285326886
 30
0.0
 11
50.36498155764083
 21
16.62189486908553
 31
0.0
  0
SPLINE
  5
EC
330
1F
100
AcDbEntity
  8
IGES_LEVEL_0
 62
     7
100
AcDbSpline
210
0.0
220
0.0
230
1.0
 70
     8
 71
     2
 72
     7
 73
     4
 74
     0
 42
0.0000000001
 43
0.0000000001
 40
0.0
 40
0.0
 40
0.0
 40
1.0
 40
1.112418867557221
 40
1.112418867557221
 40
1.112418867557221
 10
48.43207541151318
 20
16.08833485326885
 30
0.0
 10
48.48316991151319
 20
15.89727185326886
 30
0.0
 10
48.54000839734158
 20
15.68472976717677
 30
0.0
 10
48.55410652625319
 20
15.66853542842585
 30
0.0
  0
LINE
  5
ED
330
1F
100
AcDbEntity
  8
IGES_LEVEL_0
 62
     7
100
AcDbLine
 10
48.55410652625319
 20
15.66853542842585
 30
0.0
 11
48.28545668230318
 21
15.07101039712086
 31
0.0
  0
LINE
  5
EF
330
1F
100
AcDbEntity
  8
DEFAULT
 62
     7
100
AcDbLine
 10
49.21018304336317
 20
17.18528481309986
 30
0.0
 11
48.75709441151318
 21
16.11106185326885
 31
0.0
  0
ARC
  5
F0
330
1F
100
AcDbEntity
  8
IGES_LEVEL_0
 62
     7
100
AcDbCircle
 10
393.0133129637253
 20
-159.5580801678401
 30
0.0
 40
386.5731463657664
100
AcDbArc
 50
152.3809434514862
 51
152.7888169055241
  0
SPLINE
  5
F1
330
1F
100
AcDbEntity
  8
IGES_LEVEL_0
 62
     7
100
AcDbSpline
210
0.0
220
0.0
230
1.0
 70
     8
 71
     3
 72
    15
 73
    11
 74
     0
 42
0.0000000001
 43
0.0000000001
 40
0.0
 40
0.0
 40
0.0
 40
0.0
 40
0.8495813516926889
 40
1.345194162890591
 40
1.73419835378829
 40
2.113276044591291
 40
2.34519416289059
 40
2.832659190469192
 40
3.707235741563428
 40
4.112102718855062
 40
4.112102718855062
 40
4.112102718855062
 40
4.112102718855062
 10
50.49039381079318
 20
19.65365869455176
 30
0.0
 10
50.71915300570485
 20
19.74429018339897
 30
0.0
 10
51.06195313580442
 20
19.8671513173449
 30
0.0
 10
51.48244006078687
 20
20.17428197567905
 30
0.0
 10
51.74234817643323
 20
20.45115422240885
 30
0.0
 10
51.91589830706313
 20
20.69556158517785
 30
0.0
 10
52.08260064250339
 20
20.97902451672758
 30
0.0
 10
52.28799410897878
 20
21.41017476277966
 30
0.0
 10
52.44897225083858
 20
21.88568661080887
 30
0.0
 10
52.52839272672701
 20
22.26164222027705
 30
0.0
 10
52.54009397883318
 20
22.37578754945385
 30
0.0
  0
SPLINE
  5
F2
330
1F
100
AcDbEntity
  8
IGES_LEVEL_0
 62
     7
100
AcDbSpline
210
0.0
220
0.0
230
1.0
 70
     8
 71
     3
 72
    18
 73
    14
 74
     0
 42
0.0000000001
 43
0.0000000001
 40
4.112102718855062
 40
4.112102718855062
 40
4.112102718855062
 40
4.112102718855062
 40
4.170120076411862
 40
4.261347109073662
 40
4.356683139833362
 40
4.455273009237862
 40
4.557743474188462
 40
4.664637425159962
 40
4.776346761887362
 40
4.893302155987162
 40
5.015983437893622
 40
5.112102718855063
 40
5.25389848574809
 40
5.25389848574809
 40
5.25389848574809
 40
5.25389848574809
 10
52.54009397883318
 20
22.37578754945385
 30
0.0
 10
52.54586508582317
 20
22.43208450819886
 30
0.0
 10
52.55520023220319
 20
22.57751941209686
 30
0.0
 10
52.54603852503318
 20
22.81643740890085
 30
0.0
 10
52.49784251043319
 20
23.09119197522185
 30
0.0
 10
52.40645104591319
 20
23.36650195923686
 30
0.0
 10
52.26797036752318
 20
23.63436386767485
 30
0.0
 10
52.07953563797318
 20
23.88620472952286
 30
0.0
 10
51.84012807775318
 20
24.11164387721185
 30
0.0
 10
51.55162734704318
 20
24.29970735374085
 30
0.0
 10
51.24851758925317
 20
24.42767500915386
 30
0.0
 10
50.90604448059615
 20
24.51325575136836
 30
0.0
 10
50.67411159379434
 20
24.53374581693186
 30
0.0
 10
50.53931409323317
 20
24.56045976321185
 30
0.0
  0
SPLINE
  5
F3
330
1F
100
AcDbEntity
  8
IGES_LEVEL_0
 62
     7
100
AcDbSpline
210
0.0
220
0.0
230
1.0
 70
     8
 71
     3
 72
    16
 73
    12
 74
     0
 42
0.0000000001
 43
0.0000000001
 40
5.25389848574809
 40
5.25389848574809
 40
5.25389848574809
 40
5.25389848574809
 40
5.39631829493759
 40
5.53578888522679
 40
5.67195503396839
 40
5.80448063087639
 40
5.933037081038791
 40
6.05728711789989
 40
6.17690130917237
 40
6.25389848574809
 40
7.344573577982258
 40
7.344573577982258
 40
7.344573577982258
 40
7.344573577982258
 10
50.53931409323317
 20
24.56045976321185
 30
0.0
 10
50.48993461911319
 20
24.56707238959186
 30
0.0
 10
50.39203805224318
 20
24.57895035149885
 30
0.0
 10
50.24648249119319
 20
24.59317643290286
 30
0.0
 10
50.10410596583319
 20
24.60398056701785
 30
0.0
 10
49.96535470916319
 20
24.61171043084186
 30
0.0
 10
49.83065111746318
 20
24.61671613266585
 30
0.0
 10
49.70039879772317
 20
24.61934297827085
 30
0.0
 10
49.58815832415318
 20
24.61986623479285
 30
0.0
 10
49.13786800221679
 20
24.61664124085337
 30
0.0
 10
48.72953499223662
 20
24.58797356841891
 30
0.0
 10
48.35745587077318
 20
24.54745174662185
 30
0.0
  0
ARC
  5
F4
330
1F
100
AcDbEntity
  8
IGES_LEVEL_0
 62
     7
100
AcDbCircle
 10
52.83988064271489
 20
-16.37680311615486
 30
0.0
 40
41.16900251292981
100
AcDbArc
 50
96.25067779974413
 51
97.16436044062547
  0
LINE
  5
F5
330
1F
100
AcDbEntity
  8
IGES_LEVEL_0
 62
     7
100
AcDbLine
 10
47.70544376106318
 20
24.47077117924185
 30
0.0
 11
46.96336940161818
 21
24.37749430721735
 31
0.0
  0
SPLINE
  5
F6
330
1F
100
AcDbEntity
  8
IGES_LEVEL_0
 62
     7
100
AcDbSpline
210
0.0
220
0.0
230
1.0
 70
     8
 71
     3
 72
    12
 73
     8
 74
     0
 42
0.0000000001
 43
0.0000000001
 40
9.344573577982258
 40
9.344573577982258
 40
9.344573577982258
 40
9.344573577982258
 40
9.411774956830518
 40
9.615097290820643
 40
9.836139111012654
 40
10.07804884760354
 40
10.34457357798226
 40
10.34457357798226
 40
10.34457357798226
 40
10.34457357798226
 10
46.96336940161818
 20
24.37749430721735
 30
0.0
 10
46.82617934488319
 20
24.35894765503186
 30
0.0
 10
46.27354813380319
 20
24.28718871355985
 30
0.0
 10
45.26833987681319
 20
24.16428638509385
 30
0.0
 10
43.90648208603318
 20
23.99319548371186
 30
0.0
 10
42.41523311862409
 20
23.80740013960348
 30
0.0
 10
41.37541748869344
 20
23.68126945589446
 30
0.0
 10
40.83101620909818
 20
23.60996456378985
 30
0.0
  0
SPLINE
  5
F7
330
1F
100
AcDbEntity
  8
IGES_LEVEL_0
 62
     7
100
AcDbSpline
210
0.0
220
0.0
230
1.0
 70
     8
 71
     3
 72
    14
 73
    10
 74
     0
 42
0.0000000001
 43
0.0000000001
 40
10.34457357798226
 40
10.34457357798226
 40
10.34457357798226
 40
10.34457357798226
 40
10.52754974942
 40
10.71970921360421
 40
10.91626629903498
 40
11.10095587856964
 40
11.24989837706502
 40
11.34449120325347
 40
11.47677961149652
 40
11.47677961149652
 40
11.47677961149652
 40
11.47677961149652
 10
40.83101620909818
 20
23.60996456378985
 30
0.0
 10
40.7895084782096
 20
23.60452794124055
 30
0.0
 10
40.70463213993907
 20
23.59163408988293
 30
0.0
 10
40.57608407395318
 20
23.56736358471085
 30
0.0
 10
40.44797461021318
 20
23.53906218621086
 30
0.0
 10
40.33006146952317
 20
23.51053055254786
 30
0.0
 10
40.23569060621318
 20
23.48413839140585
 30
0.0
 10
40.15318203021673
 20
23.46002221259078
 30
0.0
 10
40.10335269820543
 20
23.44529965562675
 30
0.0
 10
40.07358319681318
 20
23.44442849905886
 30
0.0
  0
LINE
  5
F8
330
1F
100
AcDbEntity
  8
IGES_LEVEL_0
 62
     7
100
AcDbLine
 10
40.07358319681318
 20
23.44442849905886
 30
0.0
 11
40.03345273664199
 21
23.44325414570002
 31
0.0
  0
LINE
  5
F9
330
1F
100
AcDbEntity
  8
IGES_LEVEL_0
 62
     7
100
AcDbLine
 10
40.03345273664199
 20
23.44325414570002
 30
0.0
 11
40.02249410771317
 21
23.44373329725486
 31
0.0
  0
ARC
  5
FA
330
1F
100
AcDbEntity
  8
IGES_LEVEL_0
 62
     7
100
AcDbCircle
 10
40.04445435117319
 20
23.93349007967975
 30
0.0
 40
0.4902488737610725
100
AcDbArc
 50
240.7344585889139
 51
267.4326296503826
  0
ARC
  5
FB
330
1F
100
AcDbEntity
  8
IGES_LEVEL_0
 62
     7
100
AcDbCircle
 10
40.03585968953119
 20
23.92386376213085
 30
0.0
 40
0.4776578167609273
100
AcDbArc
 50
219.9016217150226
 51
241.0693372186753
  0
ARC
  5
FC
330
1F
100
AcDbEntity
  8
IGES_LEVEL_0
 62
     7
100
AcDbCircle
 10
40.0468268423862
 20
23.9380014771341
 30
0.0
 40
0.4951548370983696
100
AcDbArc
 50
179.8782661285623
 51
220.342560462735
  0
ARC
  5
FD
330
1F
100
AcDbEntity
  8
IGES_LEVEL_0
 62
     7
100
AcDbCircle
 10
40.05434023312859
 20
23.937985513733
 30
0.0
 40
0.5026682447991362
100
AcDbArc
 50
150.3867957953453
 51
179.8782661285807
  0
LINE
  5
FE
330
1F
100
AcDbEntity
  8
IGES_LEVEL_0
 62
     7
100
AcDbLine
 10
39.61732997453318
 20
24.18637512344285
 30
0.0
 11
39.65227330030342
 21
24.24785350753821
 31
0.0
  0
LINE
  5
FF
330
1F
100
AcDbEntity
  8
IGES_LEVEL_0
 62
     7
100
AcDbLine
 10
39.65227330030342
 20
24.24785350753821
 30
0.0
 11
39.66790776847319
 21
24.25846759149086
 31
0.0
  0
SPLINE
  5
100
330
1F
100
AcDbEntity
  8
IGES_LEVEL_0
 62
     7
100
AcDbSpline
210
0.0
220
0.0
230
1.0
 70
     8
 71
     3
 72
    27
 73
    23
 74
     0
 42
0.0000000001
 43
0.0000000001
 40
15.85984021952429
 40
15.85984021952429
 40
15.85984021952429
 40
15.85984021952429
 40
15.90793894315497
 40
16.00704414503897
 40
16.09918282573307
 40
16.18459544064697
 40
16.26358274738617
 40
16.30076272979077
 40
16.33643765883687
 40
16.37062990745127
 40
16.40336186894937
 40
16.46464113912267
 40
16.52098781062557
 40
16.57331141484397
 40
16.62288493761967
 40
16.67096521723787
 40
16.71838021832207
 40
16.76572501068337
 40
16.81309617131976
 40
16.86048395570382
 40
16.90793894315497
 40
16.92612217968541
 40
16.92612217968541
 40
16.92612217968541
 40
16.92612217968541
 10
39.66790776847319
 20
24.25846759149086
 30
0.0
 10
39.79303833862703
 20
24.34341748311688
 30
0.0
 10
40.25681142847358
 20
24.39161987219516
 30
0.0
 10
41.01106167257318
 20
24.46816301212885
 30
0.0
 10
41.8832066260032
 20
24.55356954461086
 30
0.0
 10
42.69221581390318
 20
24.62980219071085
 30
0.0
 10
43.32812840181319
 20
24.68733612641586
 30
0.0
 10
43.80725751743317
 20
24.72930246587885
 30
0.0
 10
44.14509773208322
 20
24.75820470658086
 30
0.0
 10
44.46896014532317
 20
24.78519472205385
 30
0.0
 10
44.87372396493316
 20
24.81795454778886
 30
0.0
 10
45.34857916642319
 20
24.85456145949485
 30
0.0
 10
45.88552759165316
 20
24.89298154972486
 30
0.0
 10
46.38568566543319
 20
24.92594806474385
 30
0.0
 10
46.85990647904318
 20
24.95416984107085
 30
0.0
 10
47.31877912118316
 20
24.97839814991085
 30
0.0
 10
47.77074277367319
 20
24.99938864607985
 30
0.0
 10
48.22057668308317
 20
25.01771953646985
 30
0.0
 10
48.67051598775318
 20
25.03087445406186
 30
0.0
 10
49.12098082108321
 20
25.03621862473586
 30
0.0
 10
49.47902784510519
 20
25.03029528622635
 30
0.0
 10
49.68662739377085
 20
25.01938623405259
 30
0.0
 10
49.74380163565319
 20
25.01576976520085
 30
0.0
  0
SPLINE
  5
101
330
1F
100
AcDbEntity
  8
IGES_LEVEL_0
 62
     7
100
AcDbSpline
210
0.0
220
0.0
230
1.0
 70
     8
 71
     3
 72
    48
 73
    44
 74
     0
 42
0.0000000001
 43
0.0000000001
 40
16.92612217968541
 40
16.92612217968541
 40
16.92612217968541
 40
16.92612217968541
 40
16.96054907322911
 40
17.03231365440221
 40
17.06823127479331
 40
17.10416133481281
 40
17.14010265691461
 40
17.17606992483141
 40
17.21210434130921
 40
17.24830509002711
 40
17.26651208143651
 40
17.28481625071241
 40
17.30324074924901
 40
17.32181102005841
 40
17.34055442185731
 40
17.35949962821621
 40
17.37867840803001
 40
17.39812602339551
 40
17.41787155126751
 40
17.43791002717831
 40
17.45823291774231
 40
17.47883834060431
 40
17.49971557853281
 40
17.52079469291271
 40
17.54199110166521
 40
17.56322239591361
 40
17.58442014502751
 40
17.60555892320401
 40
17.62662052839661
 40
17.64758357775261
 40
17.66844053159571
 40
17.68924849035611
 40
17.71008090615931
 40
17.73101064988361
 40
17.75210533586811
 40
17.77341560286151
 40
17.79498852258821
 40
17.81687154111421
 40
17.83911155164596
 40
17.86175437687409
 40
17.88484883638645
 40
17.90844734140112
 40
17.92612217968541
 40
17.92612217968541
 40
17.92612217968541
 40
17.92612217968541
 10
49.74380163565319
 20
25.01576976520085
 30
0.0
 10
49.79686248408318
 20
25.01241348273386
 30
0.0
 10
49.96047794719318
 20
25.00120731839785
 30
0.0
 10
50.17910396578319
 20
24.98136334610986
 30
0.0
 10
50.39916042332318
 20
24.95355327815685
 30
0.0
 10
50.56368517029318
 20
24.92807332026085
 30
0.0
 10
50.72737946920319
 20
24.89725155858686
 30
0.0
 10
50.88998833278318
 20
24.86035945115685
 30
0.0
 10
51.05132278374317
 20
24.81664371221686
 30
0.0
 10
51.18428874602319
 20
24.77366585124685
 30
0.0
 10
51.28966611863318
 20
24.73483875582786
 30
0.0
 10
51.36842125103318
 20
24.70325970579486
 30
0.0
 10
51.44672188391319
 20
24.66913862820886
 30
0.0
 10
51.52455018707317
 20
24.63233487217886
 30
0.0
 10
51.60188610538319
 20
24.59270846800085
 30
0.0
 10
51.67867894682318
 20
24.55006502164886
 30
0.0
 10
51.75487379730318
 20
24.50421228991186
 30
0.0
 10
51.83040217278318
 20
24.45496619072786
 30
0.0
 10
51.90513966281318
 20
24.40218779433485
 30
0.0
 10
51.97883280562319
 20
24.34570502780685
 30
0.0
 10
52.05116074363318
 20
24.28538452591685
 30
0.0
 10
52.12177162856318
 20
24.22111651915785
 30
0.0
 10
52.19022837936318
 20
24.15289200017385
 30
0.0
 10
52.25617913526318
 20
24.08099921342786
 30
0.0
 10
52.31918106678317
 20
24.00579283102985
 30
0.0
 10
52.37878618614317
 20
23.92763322627685
 30
0.0
 10
52.43458048904319
 20
23.84681707379686
 30
0.0
 10
52.48645365358318
 20
23.76374149005985
 30
0.0
 10
52.53435781933318
 20
23.67873301810786
 30
0.0
 10
52.57826576668317
 20
23.59208240273586
 30
0.0
 10
52.61819475246318
 20
23.50395787995285
 30
0.0
 10
52.65413841385318
 20
23.41435109014585
 30
0.0
 10
52.68615549894318
 20
23.32314868687885
 30
0.0
 10
52.71431251557318
 20
23.23021984006686
 30
0.0
 10
52.73867170363317
 20
23.13546231567885
 30
0.0
 10
52.75919065317318
 20
23.03878389473286
 30
0.0
 10
52.77581464862318
 20
22.94012547596086
 30
0.0
 10
52.78848800967317
 20
22.83943554626486
 30
0.0
 10
52.79715441394318
 20
22.73666311705386
 30
0.0
 10
52.80159495199318
 20
22.63174723722685
 30
0.0
 10
52.80159001141318
 20
22.52463833567185
 30
0.0
 10
52.79734730621318
 20
22.42529418118485
 30
0.0
 10
52.79227933865101
 20
22.36174420481327
 30
0.0
 10
52.78968843518318
 20
22.33456973276385
 30
0.0
  0
LINE
  5
102
330
1F
100
AcDbEntity
  8
IGES_LEVEL_0
 62
     7
100
AcDbLine
 10
52.78968843518318
 20
22.33456973276385
 30
0.0
 11
52.7891806768645
 21
22.32924415255216
 31
0.0
  0
LINE
  5
103
330
1F
100
AcDbEntity
  8
IGES_LEVEL_0
 62
     7
100
AcDbLine
 10
52.7891806768645
 20
22.32924415255216
 30
0.0
 11
52.78865093574318
 21
22.32391596463786
 31
0.0
  0
SPLINE
  5
104
330
1F
100
AcDbEntity
  8
IGES_LEVEL_0
 62
     7
100
AcDbSpline
210
0.0
220
0.0
230
1.0
 70
     8
 71
     3
 72
    20
 73
    16
 74
     0
 42
0.0000000001
 43
0.0000000001
 40
17.93120172411452
 40
17.93120172411452
 40
17.93120172411452
 40
17.93120172411452
 40
17.94537493625672
 40
18.02952360714052
 40
18.11597944006542
 40
18.20495684983082
 40
18.25045907248142
 40
18.29665543887642
 40
18.39115150571492
 40
18.48847720070212
 40
18.58863134318162
 40
18.69161765540192
 40
18.79752940738292
 40
18.90645902185285
 40
18.93120172411452
 40
18.93120172411452
 40
18.93120172411452
 40
18.93120172411452
 10
52.78865093574318
 20
22.32391596463786
 30
0.0
 10
52.78801328972318
 20
22.31750245810085
 30
0.0
 10
52.78342768138317
 20
22.27302704743385
 30
0.0
 10
52.77270764795318
 20
22.18966889500186
 30
0.0
 10
52.75272798474317
 20
22.07330472119486
 30
0.0
 10
52.73162176663318
 20
21.97505486404386
 30
0.0
 10
52.71193593196318
 20
21.89528945040485
 30
0.0
 10
52.69007624700318
 20
21.81349174082686
 30
0.0
 10
52.65929263181317
 20
21.70970998035486
 30
0.0
 10
52.61751962733318
 20
21.58367057883486
 30
0.0
 10
52.57094777076318
 20
21.45521295082585
 30
0.0
 10
52.51986512097318
 20
21.32428733075786
 30
0.0
 10
52.46493231816318
 20
21.19061129396386
 30
0.0
 10
52.42230840922318
 20
21.09035424531286
 30
0.0
 10
52.39830011640319
 20
21.03451517876085
 30
0.0
 10
52.39384968724318
 20
21.02418219142585
 30
0.0
  0
LINE
  5
105
330
1F
100
AcDbEntity
  8
IGES_LEVEL_0
 62
     7
100
AcDbLine
 10
52.39384968724318
 20
21.02418219142585
 30
0.0
 11
52.34436412668977
 21
20.90928682918558
 31
0.0
  0
LINE
  5
106
330
1F
100
AcDbEntity
  8
IGES_LEVEL_0
 62
     7
100
AcDbLine
 10
52.34436412668977
 20
20.90928682918558
 30
0.0
 11
50.66098741151318
 21
17.28673485326885
 31
0.0
  0
LINE
  5
107
330
1F
100
AcDbEntity
  8
IGES_LEVEL_0
 62
     7
100
AcDbLine
 10
50.66098741151318
 20
17.28673485326885
 30
0.0
 11
49.21018304336317
 21
17.18528481309986
 31
0.0
  0
LINE
  5
108
330
1F
100
AcDbEntity
  8
DEFAULT
 62
     7
100
AcDbLine
 10
39.51714373228555
 20
17.10431274610348
 30
0.0
 11
39.80826942396178
 21
17.29702006399408
 31
0.0
  0
LINE
  5
109
330
1F
100
AcDbEntity
  8
IGES_LEVEL_0
 62
     7
100
AcDbLine
 10
39.14896941151318
 20
18.66812385326886
 30
0.0
 11
40.12030635929945
 21
23.45113037840666
 31
0.0
  0
SPLINE
  5
10A
330
1F
100
AcDbEntity
  8
IGES_LEVEL_0
 62
     7
100
AcDbSpline
210
0.0
220
0.0
230
1.0
 70
     8
 71
     3
 72
    15
 73
    11
 74
     0
 42
0.0000000001
 43
0.0000000001
 40
-0.0895565447295789
 40
-0.0895565447295789
 40
-0.0895565447295789
 40
-0.0895565447295789
 40
0.0
 40
0.06746382003504
 40
0.2509235852836
 40
0.4179474185843
 40
0.5764722083118
 40
0.7420009367751
 40
0.9205855995836
 40
1.0
 40
1.0
 40
1.0
 40
1.0
 10
57.63423312040962
 20
14.82857295118643
 30
0.0
 10
57.61045643384766
 20
14.82054808586605
 30
0.0
 10
57.56629428267925
 20
14.81312658531896
 30
0.0
 10
57.47004434203319
 20
14.80031117990385
 30
0.0
 10
57.35088249986316
 20
14.79235738180786
 30
0.0
 10
57.20510095687318
 20
14.81166107137586
 30
0.0
 10
57.07804130724318
 20
14.87715698740986
 30
0.0
 10
56.97702388790317
 20
14.98093693570785
 30
0.0
 10
56.90905170707318
 20
15.08099180206385
 30
0.0
 10
56.87166289005319
 20
15.14434926373185
 30
0.0
 10
56.86046136161318
 20
15.16402725141685
 30
0.0
  0
SPLINE
  5
10B
330
1F
100
AcDbEntity
  8
IGES_LEVEL_0
 62
     7
100
AcDbSpline
210
0.0
220
0.0
230
1.0
 70
     8
 71
     3
 72
    10
 73
     6
 74
     0
 42
0.0000000001
 43
0.0000000001
 40
-3.364636872098152
 40
-3.364636872098152
 40
-3.364636872098152
 40
-3.364636872098152
 40
0.0
 40
0.5014207789055
 40
1.0
 40
1.0
 40
1.0
 40
1.0
 10
57.65983119164318
 20
14.78760118465786
 30
0.0
 10
57.81570832380241
 20
14.77401223810832
 30
0.0
 10
57.8424811194753
 20
14.88228398323801
 30
0.0
 10
57.84643952139321
 20
15.00608648440485
 30
0.0
 10
57.84571852873319
 20
15.03445724859585
 30
0.0
 10
57.84494195274318
 20
15.04857902364785
 30
0.0
  0
ARC
  5
10C
330
1F
100
AcDbEntity
  8
IGES_LEVEL_0
 62
     7
100
AcDbCircle
 10
39.46645024501359
 20
17.07721273770493
 30
0.0
 40
1.600084076815801
100
AcDbArc
 50
181.036806172014
 51
264.5502066827655
  0
LINE
  5
10D
330
1F
100
AcDbEntity
  8
IGES_LEVEL_0
 62
     7
100
AcDbLine
 10
39.31448469499318
 20
15.48436135590985
 30
0.0
 11
39.45957619766764
 21
15.47051894081752
 31
0.0
  0
LINE
  5
10E
330
1F
100
AcDbEntity
  8
IGES_LEVEL_0
 62
     7
100
AcDbLine
 10
39.45957619766764
 20
15.47051894081752
 30
0.0
 11
42.71021321785318
 21
15.68181721796485
 31
0.0
  0
SPLINE
  5
10F
330
1F
100
AcDbEntity
  8
IGES_LEVEL_0
 62
     7
100
AcDbSpline
210
0.0
220
0.0
230
1.0
 70
     8
 71
     3
 72
     9
 73
     5
 74
     0
 42
0.0000000001
 43
0.0000000001
 40
-0.9048701588965777
 40
-0.9048701588965777
 40
-0.9048701588965777
 40
-0.9048701588965777
 40
0.0
 40
1.0
 40
1.0
 40
1.0
 40
1.0
 10
37.89460502122319
 20
17.41801777739086
 30
0.0
 10
37.8905562736897
 20
17.36021369032967
 30
0.0
 10
37.87118351455888
 20
17.23973772017741
 30
0.0
 10
37.86560812481316
 20
17.11761030577885
 30
0.0
 10
37.86654160892317
 20
17.05358406380385
 30
0.0
  0
LINE
  5
110
330
1F
100
AcDbEntity
  8
IGES_LEVEL_0
 62
     7
100
AcDbLine
 10
39.56255041151317
 20
18.59623785326885
 30
0.0
 11
40.57176910134996
 21
23.56577770637146
 31
0.0
  0
SPLINE
  5
111
330
1F
100
AcDbEntity
  8
IGES_LEVEL_0
 62
     7
100
AcDbSpline
210
0.0
220
0.0
230
1.0
 70
     8
 71
     3
 72
    36
 73
    32
 74
     0
 42
0.0000000001
 43
0.0000000001
 40
-0.3106129919507767
 40
-0.3106129919507767
 40
-0.3106129919507767
 40
-0.3106129919507767
 40
0.0
 40
0.05348603474989
 40
0.1049887774215
 40
0.1549716359448
 40
0.2034200717099
 40
0.2502547850204
 40
0.2957126072699
 40
0.3397984511486
 40
0.3824422748345
 40
0.4237229924865
 40
0.4637468129909
 40
0.5026624725923
 40
0.5403082967051001
 40
0.5767026575209
 40
0.6120750545836
 40
0.6466416805287
 40
0.6804127481151
 40
0.7134085240587
 40
0.7456800659269
 40
0.7772623747585
 40
0.8081117485701
 40
0.8381443983645001
 40
0.8673328613647
 40
0.895527985213
 40
0.9225415694653
 40
0.9482287558595
 40
0.9724461327785
 40
0.9947104443498001
 40
1.0
 40
1.0
 40
1.0
 40
1.0
 10
39.80826942396178
 20
17.29702006399408
 30
0.0
 10
39.72695526709158
 20
17.3626912100505
 30
0.0
 10
39.64347420120861
 20
17.46639365547494
 30
0.0
 10
39.57097371105319
 20
17.59802892788686
 30
0.0
 10
39.54630928081318
 20
17.64834267711485
 30
0.0
 10
39.52465840322319
 20
17.69804396622185
 30
0.0
 10
39.50596036629318
 20
17.74712988230586
 30
0.0
 10
39.49030322004319
 20
17.79555963713985
 30
0.0
 10
39.47802311370319
 20
17.84333338660986
 30
0.0
 10
39.46913641260318
 20
17.89031598141886
 30
0.0
 10
39.46368931804319
 20
17.93629890544585
 30
0.0
 10
39.46120403015318
 20
17.98105497665285
 30
0.0
 10
39.4610202603232
 20
18.02452391466466
 30
0.0
 10
39.46265007692317
 20
18.06664256356886
 30
0.0
 10
39.46563378714318
 20
18.10736788689955
 30
0.0
 10
39.46966937648318
 20
18.14671354576456
 30
0.0
 10
39.47456356245317
 20
18.18483835147136
 30
0.0
 10
39.48010934357318
 20
18.22191398876996
 30
0.0
 10
39.48609986347319
 20
18.25804877273415
 30
0.0
 10
39.49233838087318
 20
18.29329909567736
 30
0.0
 10
39.49883915065318
 20
18.32769739347936
 30
0.0
 10
39.50560557986319
 20
18.36125326451895
 30
0.0
 10
39.51257544767317
 20
18.39394027831066
 30
0.0
 10
39.51966339394318
 20
18.42571565828095
 30
0.0
 10
39.52679065818317
 20
18.45649850234456
 30
0.0
 10
39.53394127143318
 20
18.48615372858255
 30
0.0
 10
39.54103228996318
 20
18.51452329571745
 30
0.0
 10
39.54811948742318
 20
18.54140071115225
 30
0.0
 10
39.55424485666319
 20
18.56678243222295
 30
0.0
 10
39.55992437352317
 20
18.58458515144766
 30
0.0
 10
39.56215981142319
 20
18.59434422275265
 30
0.0
 10
39.56253983775318
 20
18.59622647078545
 30
0.0
  0
LINE
  5
112
330
1F
100
AcDbEntity
  8
DEFAULT
 62
     7
100
AcDbLine
 10
49.40955241151318
 20
17.57219185326886
 30
0.0
 11
41.04321596446457
 21
16.98251046328207
 31
0.0
  0
LINE
  5
113
330
1F
100
AcDbEntity
  8
DEFAULT
 62
     7
100
AcDbLine
 10
41.04321596446457
 20
16.98251046328207
 30
0.0
 11
41.04060745548318
 21
16.98211263043086
 31
0.0
  0
SPLINE
  5
114
330
1F
100
AcDbEntity
  8
DEFAULT
 62
     7
100
AcDbSpline
210
0.0
220
0.0
230
1.0
 70
     8
 71
     3
 72
    11
 73
     7
 74
     0
 42
0.0000000001
 43
0.0000000001
 40
0.0610814440299414
 40
0.0610814440299414
 40
0.0610814440299414
 40
0.0610814440299414
 40
19.66231023086538
 40
20.66231023086538
 40
27.78028470288208
 40
28.14197153018025
 40
28.14197153018025
 40
28.14197153018025
 40
28.14197153018025
 10
41.04060745548318
 20
16.98211263043086
 30
0.0
 10
40.77309530250476
 20
16.94131341408303
 30
0.0
 10
40.42573059710075
 20
16.96996493216353
 30
0.0
 10
40.01742349715801
 20
17.14939927848875
 30
0.0
 10
39.89995702598445
 20
17.22050493424256
 30
0.0
 10
39.81246802844139
 20
17.29342670119286
 30
0.0
 10
39.80826942396178
 20
17.29702006399408
 30
0.0
  0
SPLINE
  5
115
330
1F
100
AcDbEntity
  8
IGES_LEVEL_0
 62
     7
100
AcDbSpline
210
0.0
220
0.0
230
1.0
 70
     8
 71
     3
 72
    21
 73
    17
 74
     0
 42
0.0000000001
 43
0.0000000001
 40
-0.0935912548950633
 40
-0.0935912548950633
 40
-0.0935912548950633
 40
-0.0935912548950633
 40
0.0
 40
0.1137171277302
 40
0.2274983206687
 40
0.2700793463409
 40
0.3127046835432
 40
0.398089953344
 40
0.4408657933962
 40
0.4836921376318
 40
0.6124000320784
 40
0.7414355337288
 40
0.7845114538709
 40
0.8276025038113
 40
0.9137980915983001
 40
1.0
 40
1.0
 40
1.0
 40
1.0
 10
39.51714373228555
 20
17.10431274610348
 30
0.0
 10
39.53561138636835
 20
17.06041160353524
 30
0.0
 10
39.61236584107739
 20
16.98365350364056
 30
0.0
 10
39.74232750078319
 20
16.87654783744385
 30
0.0
 10
39.86014977513318
 20
16.79800028274086
 30
0.0
 10
39.95048205050318
 20
16.74612133327985
 30
0.0
 10
40.02946683661318
 20
16.70444546926986
 30
0.0
 10
40.11070618840317
 20
16.66694311007585
 30
0.0
 10
40.1938072263732
 20
16.63367986428985
 30
0.0
 10
40.29932512984317
 20
16.59557090071085
 30
0.0
 10
40.45084674247319
 20
16.55218831518685
 30
0.0
 10
40.60605178583317
 20
16.52406934801486
 30
0.0
 10
40.71798389900319
 20
16.51133670291786
 30
0.0
 10
40.80792577800317
 20
16.50410803311885
 30
0.0
 10
40.92074815414318
 20
16.50066765251986
 30
0.0
 10
41.01100225722318
 20
16.50395575355886
 30
0.0
 10
41.05600975581318
 20
16.50712695819885
 30
0.0
  0
SPLINE
  5
116
330
1F
100
AcDbEntity
  8
IGES_LEVEL_0
 62
     7
100
AcDbSpline
210
0.0
220
0.0
230
1.0
 70
     8
 71
     3
 72
     9
 73
     5
 74
     0
 42
0.0000000001
 43
0.0000000001
 40
0.0
 40
0.0
 40
0.0
 40
0.0
 40
1.0
 40
1.607732275313915
 40
1.607732275313915
 40
1.607732275313915
 40
1.607732275313915
 10
39.38528258975317
 20
17.27914053683486
 30
0.0
 10
39.41137810346318
 20
17.24178144573085
 30
0.0
 10
39.45596175369764
 20
17.18356214301192
 30
0.0
 10
39.50423903018684
 20
17.12855844637474
 30
0.0
 10
39.51714373228555
 20
17.10431274610348
 30
0.0
  0
LINE
  5
117
330
1F
100
AcDbEntity
  8
IGES_LEVEL_0
 62
     7
100
AcDbLine
 10
37.82716905131318
 20
31.78018869347886
 30
0.0
 11
39.96321999852317
 21
25.50461020886885
 31
0.0
  0
SPLINE
  5
118
330
1F
100
AcDbEntity
  8
IGES_LEVEL_0
 62
     7
100
AcDbSpline
210
0.0
220
0.0
230
1.0
 70
     8
 71
     3
 72
    27
 73
    23
 74
     0
 42
0.0000000001
 43
0.0000000001
 40
0.0
 40
0.0
 40
0.0
 40
0.0
 40
0.04455490396058
 40
0.1065847915292
 40
0.1631449126079
 40
0.2145504558904
 40
0.2611086829991
 40
0.303588901265
 40
0.3426605700249
 40
0.3787710605565
 40
0.4124133660916
 40
0.4441209887723
 40
0.4745317687647
 40
0.5045019613179
 40
0.5354866427862
 40
0.5695872390393
 40
0.6100274625244
 40
0.6627740924575
 40
0.7387870398916
 40
0.8507509932589
 40
1.0
 40
1.187648067329817
 40
1.187648067329817
 40
1.187648067329817
 40
1.187648067329817
 10
35.60763870356318
 20
34.40251542374885
 30
0.0
 10
35.59157770534317
 20
34.40772855753885
 30
0.0
 10
35.55309143623319
 20
34.41999903545885
 30
0.0
 10
35.49394435234318
 20
34.43802196953886
 30
0.0
 10
35.43203941930318
 20
34.45587611504885
 30
0.0
 10
35.37554274013317
 20
34.47130002538886
 30
0.0
 10
35.32400930935319
 20
34.48462303582885
 30
0.0
 10
35.27684837549317
 20
34.49616726867886
 30
0.0
 10
35.23339363102319
 20
34.50618190650886
 30
0.0
 10
35.19307410465318
 20
34.51486743613886
 30
0.0
 10
35.15536264754319
 20
34.52238623732886
 30
0.0
 10
35.11965548727318
 20
34.52888538966885
 30
0.0
 10
35.08520692284318
 20
34.53449620845885
 30
0.0
 10
35.05091869776317
 20
34.53934347734885
 30
0.0
 10
35.01513148088318
 20
34.54351013372886
 30
0.0
 10
34.97527755321318
 20
34.54692780341885
 30
0.0
 10
34.92707539585318
 20
34.54918628973886
 30
0.0
 10
34.86291528452318
 20
34.54891097315885
 30
0.0
 10
34.77184267204318
 20
34.54216407440885
 30
0.0
 10
34.64552069220318
 20
34.52134982544885
 30
0.0
 10
34.48130685787817
 20
34.47565985307668
 30
0.0
 10
34.36234315210769
 20
34.42868409789042
 30
0.0
 10
34.37448616465489
 20
34.33381998811022
 30
0.0
  0
ARC
  5
119
330
1F
100
AcDbEntity
  8
IGES_LEVEL_0
 62
     7
100
AcDbCircle
 10
34.42441196166613
 20
34.34051475439743
 30
0.0
 40
0.0503726622569022
100
AcDbArc
 50
187.6374793677966
 51
265.0527364806319
  0
ARC
  5
11A
330
1F
100
AcDbEntity
  8
IGES_LEVEL_0
 62
     7
100
AcDbCircle
 10
34.12613005404563
 20
30.89460971982697
 30
0.0
 40
3.408418109630251
100
AcDbArc
 50
75.05477731823035
 51
85.05273648062919
  0
SPLINE
  5
11B
330
1F
100
AcDbEntity
  8
IGES_LEVEL_0
 62
     7
100
AcDbSpline
210
0.0
220
0.0
230
1.0
 70
     8
 71
     3
 72
    25
 73
    21
 74
     0
 42
0.0000000001
 43
0.0000000001
 40
-1.08257413917306
 40
-1.08257413917306
 40
-1.08257413917306
 40
-1.08257413917306
 40
-1.0
 40
-0.9878277391312
 40
-0.957215275567
 40
-0.9268063153083
 40
-0.8963936316834
 40
-0.8658482298368
 40
-0.8351007045844001
 40
-0.7729015627054001
 40
-0.7095914949867002
 40
-0.6450782138042002
 40
-0.5793117708446001
 40
-0.4439113900765999
 40
-0.3741080157951999
 40
-0.3028270692148
 40
-0.2299906393185
 40
-0.1554027439828
 40
-0.07882379962607
 40
-0.0629413483088789
 40
-0.0629413483088789
 40
-0.0629413483088789
 40
-0.0629413483088789
 10
34.44330684488961
 20
34.29073863718563
 30
0.0
 10
34.44182158588393
 20
34.26011768506178
 30
0.0
 10
34.44108941523149
 20
34.22242492192534
 30
0.0
 10
34.44875855960318
 20
34.17370810303886
 30
0.0
 10
34.45536397760318
 20
34.14564265441885
 30
0.0
 10
34.46649701041318
 20
34.11141794362886
 30
0.0
 10
34.48009178994317
 20
34.07812778488885
 30
0.0
 10
34.49579755155317
 20
34.04564170214886
 30
0.0
 10
34.51917583842318
 20
34.00305788880885
 30
0.0
 10
34.55205800575318
 20
33.95106965217885
 30
0.0
 10
34.59632414296318
 20
33.89080629499885
 30
0.0
 10
34.64486267135318
 20
33.83210760455886
 30
0.0
 10
34.71540213599319
 20
33.75499207795885
 30
0.0
 10
34.79238582381318
 20
33.68111189376886
 30
0.0
 10
34.87496094435318
 20
33.61035393502885
 30
0.0
 10
34.94076146696318
 20
33.55790906356885
 30
0.0
 10
35.00978030556318
 20
33.50656403217886
 30
0.0
 10
35.08225771914317
 20
33.45646128462886
 30
0.0
 10
35.13760771138769
 20
33.42105315355216
 30
0.0
 10
35.16865701380353
 20
33.40212500306318
 30
0.0
 10
35.17400243857864
 20
33.39889342754859
 30
0.0
  0
LINE
  5
11C
330
1F
100
AcDbEntity
  8
IGES_LEVEL_0
 62
     7
100
AcDbLine
 10
35.17400243857864
 20
33.39889342754859
 30
0.0
 11
35.27228641151318
 21
33.38490885326885
 31
0.0
  0
ARC
  5
11D
330
1F
100
AcDbEntity
  8
IGES_LEVEL_0
 62
     7
100
AcDbCircle
 10
35.05735111281463
 20
31.87433765836138
 30
0.0
 40
1.525785868826564
100
AcDbArc
 50
60.87841856839626
 51
81.90188928750867
  0
ARC
  5
11E
330
1F
100
AcDbEntity
  8
IGES_LEVEL_0
 62
     7
100
AcDbCircle
 10
32.74487424553178
 20
27.72331692092095
 30
0.0
 40
6.277472140496735
100
AcDbArc
 50
51.82672949210974
 51
60.8784185683953
  0
ARC
  5
11F
330
1F
100
AcDbEntity
  8
IGES_LEVEL_0
 62
     7
100
AcDbCircle
 10
35.53548388184233
 20
31.27295543914917
 30
0.0
 40
1.762227324060011
100
AcDbArc
 50
30.90213996115946
 51
51.82672949211231
  0
ARC
  5
120
330
1F
100
AcDbEntity
  8
IGES_LEVEL_0
 62
     7
100
AcDbCircle
 10
34.13533280706344
 20
30.43491128005474
 30
0.0
 40
3.394018071918562
100
AcDbArc
 50
19.58917711315034
 51
30.90213996115582
  0
LINE
  5
121
330
1F
100
AcDbEntity
  8
IGES_LEVEL_0
 62
     7
100
AcDbLine
 10
37.33290783195318
 20
31.57283598437886
 30
0.0
 11
37.40117537217972
 21
31.38100380004404
 31
0.0
  0
LINE
  5
122
330
1F
100
AcDbEntity
  8
IGES_LEVEL_0
 62
     7
100
AcDbLine
 10
37.40117537217972
 20
31.38100380004404
 30
0.0
 11
39.51830452057318
 21
25.25938730776386
 31
0.0
  0
SPLINE
  5
123
330
1F
100
AcDbEntity
  8
IGES_LEVEL_0
 62
     7
100
AcDbSpline
210
0.0
220
0.0
230
1.0
 70
     8
 71
     3
 72
    17
 73
    13
 74
     0
 42
0.0000000001
 43
0.0000000001
 40
0.0
 40
0.0
 40
0.0
 40
0.0
 40
0.1400382285241
 40
0.301021047085
 40
0.4484442282151
 40
0.5817713510471
 40
0.7005939909833
 40
0.8041214130073
 40
0.8917865503181
 40
0.9585107337232
 40
1.0
 40
1.036295123862823
 40
1.036295123862823
 40
1.036295123862823
 40
1.036295123862823
 10
37.82494448022318
 20
32.76426756803885
 30
0.0
 10
37.75631478734317
 20
32.86998294092885
 30
0.0
 10
37.59054385887318
 20
33.08582265444886
 30
0.0
 10
37.30561961925319
 20
33.37240535635885
 30
0.0
 10
36.99896768263318
 20
33.62587839416885
 30
0.0
 10
36.70598982111318
 20
33.83449403429886
 30
0.0
 10
36.43523658942317
 20
34.00523251878886
 30
0.0
 10
36.19260522679319
 20
34.14287158630886
 30
0.0
 10
35.98612654822318
 20
34.24888428839886
 30
0.0
 10
35.82616331350317
 20
34.32274601481886
 30
0.0
 10
35.70540318459014
 20
34.37145419803608
 30
0.0
 10
35.63826466610703
 20
34.3913074107105
 30
0.0
 10
35.60763870356318
 20
34.40251542374885
 30
0.0
  0
SPLINE
  5
124
330
1F
100
AcDbEntity
  8
IGES_LEVEL_0
 62
     7
100
AcDbSpline
210
0.0
220
0.0
230
1.0
 70
     8
 71
     3
 72
    12
 73
     8
 74
     0
 42
0.0000000001
 43
0.0000000001
 40
-0.0805812899559775
 40
-0.0805812899559775
 40
-0.0805812899559775
 40
-0.0805812899559775
 40
0.0
 40
0.0541952109661
 40
0.2846452022021
 40
0.6049448282069
 40
1.0
 40
1.0
 40
1.0
 40
1.0
 10
35.00514560631318
 20
34.18773068160886
 30
0.0
 10
35.02806008267413
 20
34.18246926421663
 30
0.0
 10
35.06629386193349
 20
34.17198134063513
 30
0.0
 10
35.16854816006318
 20
34.13859777251885
 30
0.0
 10
35.33583402002319
 20
34.07816598488886
 30
0.0
 10
35.59245172381317
 20
33.97036466809885
 30
0.0
 10
35.78227617134319
 20
33.87945887633885
 30
0.0
 10
35.88566229504318
 20
33.82641453375885
 30
0.0
  0
LINE
  5
125
330
1F
100
AcDbEntity
  8
IGES_LEVEL_0
 62
     7
100
AcDbLine
 10
48.28918041151319
 20
15.14797985326885
 30
0.0
 11
48.28918041151319
 21
15.37053216506815
 31
0.0
  0
ARC
  5
126
330
1F
100
AcDbEntity
  8
IGES_LEVEL_0
 62
     7
100
AcDbCircle
 10
48.23918041151325
 20
15.37053216506814
 30
0.0
 40
0.0499999999999332
100
AcDbArc
 50
0.0000000000040711
 51
5.07121753879613
  0
LINE
  5
127
330
1F
100
AcDbEntity
  8
IGES_LEVEL_0
 62
     7
100
AcDbLine
 10
48.28898469129653
 20
15.37495186135423
 30
0.0
 11
48.26842403168405
 21
15.60664399076383
 31
0.0
  0
ARC
  5
128
330
1F
100
AcDbEntity
  8
IGES_LEVEL_0
 62
     7
100
AcDbCircle
 10
48.21861986800391
 20
15.6022229863357
 30
0.0
 40
0.0500000000003073
100
AcDbArc
 50
5.072722451700022
 51
15.472574724217
  0
LINE
  5
129
330
1F
100
AcDbEntity
  8
IGES_LEVEL_0
 62
     7
100
AcDbLine
 10
48.26680778097904
 20
15.61556184097666
 30
0.0
 11
48.26437203685318
 21
15.62436120412485
 31
0.0
  0
SPLINE
  5
12A
330
1F
100
AcDbEntity
  8
IGES_LEVEL_0
 62
     7
100
AcDbSpline
210
0.0
220
0.0
230
1.0
 70
     8
 71
     3
 72
    12
 73
     8
 74
     0
 42
0.0000000001
 43
0.0000000001
 40
3.137712889703094
 40
3.137712889703094
 40
3.137712889703094
 40
3.137712889703094
 40
3.223264000520464
 40
3.478436034901194
 40
3.720058242708794
 40
3.953216328386394
 40
4.137712889703094
 40
4.137712889703094
 40
4.137712889703094
 40
4.137712889703094
 10
48.26437203685318
 20
15.62436120412485
 30
0.0
 10
48.26322853520318
 20
15.62849221533086
 30
0.0
 10
48.25763923749318
 20
15.64465733505585
 30
0.0
 10
48.24075568756318
 20
15.66921599407085
 30
0.0
 10
48.20935453535319
 20
15.68916068759086
 30
0.0
 10
48.17688769991318
 20
15.69644570922285
 30
0.0
 10
48.15600605870677
 20
15.69641589772241
 30
0.0
 10
48.14683504028318
 20
15.69577431614385
 30
0.0
  0
LINE
  5
12B
330
1F
100
AcDbEntity
  8
IGES_LEVEL_0
 62
     7
100
AcDbLine
 10
48.14683504028318
 20
15.69577431614385
 30
0.0
 11
44.46143374213318
 21
15.43795283184685
 31
0.0
  0
ARC
  5
12C
330
1F
100
AcDbEntity
  8
IGES_LEVEL_0
 62
     7
100
AcDbCircle
 10
44.46023262650569
 20
15.34522057717478
 30
0.0
 40
0.0927400330780464
100
AcDbArc
 50
89.25791723419818
 51
178.5926009693868
  0
LINE
  5
12D
330
1F
100
AcDbEntity
  8
IGES_LEVEL_0
 62
     7
100
AcDbLine
 10
44.36752057065318
 20
15.34749839080186
 30
0.0
 11
44.3645410965751
 21
15.22622720168667
 31
0.0
  0
LINE
  5
12E
330
1F
100
AcDbEntity
  8
IGES_LEVEL_0
 62
     7
100
AcDbLine
 10
44.3645410965751
 20
15.22622720168667
 30
0.0
 11
44.39293646601819
 21
14.87252834710485
 31
0.0
  0
ARC
  5
12F
330
1F
100
AcDbEntity
  8
IGES_LEVEL_0
 62
     7
100
AcDbCircle
 10
44.93837078719297
 20
14.94123003071338
 30
0.0
 40
0.5497440495776621
100
AcDbArc
 50
187.1790411530077
 51
219.5252259844026
  0
LINE
  5
130
330
1F
100
AcDbEntity
  8
IGES_LEVEL_0
 62
     7
100
AcDbLine
 10
44.51432876105318
 20
14.59136308441335
 30
0.0
 11
46.32464143534729
 21
12.39724711412121
 31
0.0
  0
SPLINE
  5
131
330
1F
100
AcDbEntity
  8
IGES_LEVEL_0
 62
     7
100
AcDbSpline
210
0.0
220
0.0
230
1.0
 70
     8
 71
     3
 72
    19
 73
    15
 74
     0
 42
0.0000000001
 43
0.0000000001
 40
14.91727820627971
 40
14.91727820627971
 40
14.91727820627971
 40
14.91727820627971
 40
14.9299717058018
 40
14.9619809342923
 40
14.99719927386761
 40
15.03678631719433
 40
15.07641655419434
 40
15.11347533604615
 40
15.14717611947846
 40
15.17821737498577
 40
15.20966962606127
 40
15.23825303397208
 40
15.26495973952929
 40
15.27288407746583
 40
15.27288407746583
 40
15.27288407746583
 40
15.27288407746583
 10
46.32464143534729
 20
12.39724711412121
 30
0.0
 10
46.33541093971516
 20
12.38888318869761
 30
0.0
 10
46.37535799256087
 20
12.36180327244334
 30
0.0
 10
46.45330755461318
 20
12.32615011446286
 30
0.0
 10
46.56359155770318
 20
12.29479667498985
 30
0.0
 10
46.68523791418318
 20
12.27922514463785
 30
0.0
 10
46.80956263424318
 20
12.27455199654185
 30
0.0
 10
46.92758948578317
 20
12.28029816042185
 30
0.0
 10
47.03542286329318
 20
12.29671747037286
 30
0.0
 10
47.13426620818318
 20
12.32668696036786
 30
0.0
 10
47.22202802703318
 20
12.36918367820185
 30
0.0
 10
47.29710301564317
 20
12.42715768642585
 30
0.0
 10
47.32866711985641
 20
12.48842025049427
 30
0.0
 10
47.34250234784476
 20
12.52282405744845
 30
0.0
 10
47.34554659552565
 20
12.53072954943206
 30
0.0
  0
LINE
  5
132
330
1F
100
AcDbEntity
  8
IGES_LEVEL_0
 62
     7
100
AcDbLine
 10
47.34554659552565
 20
12.53072954943206
 30
0.0
 11
48.22477696861319
 21
14.81396974365885
 31
0.0
  0
ARC
  5
133
330
1F
100
AcDbEntity
  8
IGES_LEVEL_0
 62
     7
100
AcDbCircle
 10
47.3633348598293
 20
15.15328616790296
 30
0.0
 40
0.9258607576454637
100
AcDbArc
 50
338.5008433152416
 51
359.6716233027246
  0
LINE
  5
134
330
1F
100
AcDbEntity
  8
IGES_LEVEL_0
 62
     7
100
AcDbLine
 10
43.71324145140318
 20
16.04705349395686
 30
0.0
 11
43.73425342422262
 21
16.05430026927225
 31
0.0
  0
ARC
  5
135
330
1F
100
AcDbEntity
  8
IGES_LEVEL_0
 62
     7
100
AcDbCircle
 10
43.73113574807138
 20
16.03494201039358
 30
0.0
 40
0.0196077048987789
100
AcDbArc
 50
23.80305909815074
 51
80.85099141593639
  0
LINE
  5
136
330
1F
100
AcDbEntity
  8
IGES_LEVEL_0
 62
     7
100
AcDbLine
 10
43.74907558474318
 20
16.04285556532086
 30
0.0
 11
43.75089835088529
 21
16.0395619461134
 31
0.0
  0
ARC
  5
137
330
1F
100
AcDbEntity
  8
IGES_LEVEL_0
 62
     7
100
AcDbCircle
 10
45.03260116994719
 20
15.76022695522976
 30
0.0
 40
1.311788913477753
100
AcDbArc
 50
167.7051814729088
 51
171.6692820454731
  0
ARC
  5
138
330
1F
100
AcDbEntity
  8
IGES_LEVEL_0
 62
     7
100
AcDbCircle
 10
43.77448207986241
 20
15.95300029256681
 30
0.0
 40
0.0399204249631488
100
AcDbArc
 50
183.8962294062798
 51
274.081638052225
  0
LINE
  5
139
330
1F
100
AcDbEntity
  8
IGES_LEVEL_0
 62
     7
100
AcDbLine
 10
43.77732352726318
 20
15.91318111997486
 30
0.0
 11
48.82658141151318
 21
16.27003285326886
 31
0.0
  0
SPLINE
  5
13A
330
1F
100
AcDbEntity
  8
IGES_LEVEL_0
 62
     7
100
AcDbSpline
210
0.0
220
0.0
230
1.0
 70
     8
 71
     3
 72
     9
 73
     5
 74
     0
 42
0.0000000001
 43
0.0000000001
 40
-1.97996406340513
 40
-1.97996406340513
 40
-1.97996406340513
 40
-1.97996406340513
 40
0.0
 40
1.0
 40
1.0
 40
1.0
 40
1.0
 10
43.56950741363318
 20
15.81945116002185
 30
0.0
 10
43.59887090890952
 20
15.86167867445697
 30
0.0
 10
43.64659680015303
 20
15.9312733957352
 30
0.0
 10
43.67413318302317
 20
16.00966287256786
 30
0.0
 10
43.68106370550318
 20
16.03657700894885
 30
0.0
  0
LINE
  5
13B
330
1F
100
AcDbEntity
  8
IGES_LEVEL_0
 62
     7
100
AcDbLine
 10
43.56950741363318
 20
15.81945116002185
 30
0.0
 11
43.59292207769113
 21
15.78392535513454
 31
0.0
  0
LINE
  5
13C
330
1F
100
AcDbEntity
  8
IGES_LEVEL_0
 62
     7
100
AcDbLine
 10
43.59292207769113
 20
15.78392535513454
 30
0.0
 11
43.59417768099318
 21
15.77494627773685
 31
0.0
  0
ARC
  5
13D
330
1F
100
AcDbEntity
  8
IGES_LEVEL_0
 62
     7
100
AcDbCircle
 10
43.55474681067594
 20
15.76944582947669
 30
0.0
 40
0.0398126671429807
100
AcDbArc
 50
333.0101151086998
 51
7.941285867469829
  0
SPLINE
  5
13E
330
1F
100
AcDbEntity
  8
IGES_LEVEL_0
 62
     7
100
AcDbSpline
210
0.0
220
0.0
230
1.0
 70
     8
 71
     3
 72
    10
 73
     6
 74
     0
 42
0.0000000001
 43
0.0000000001
 40
0.0
 40
0.0
 40
0.0
 40
0.0
 40
0.7505363978315
 40
1.0
 40
4.24036104247441
 40
4.24036104247441
 40
4.24036104247441
 40
4.24036104247441
 10
42.71021321785318
 20
15.68181721796485
 30
0.0
 10
42.72103005988318
 20
15.64643540122386
 30
0.0
 10
42.74069291094317
 20
15.60072433492286
 30
0.0
 10
42.85049487253583
 20
15.42216057618867
 30
0.0
 10
43.0130552055289
 20
15.32374795283042
 30
0.0
 10
43.15092362623318
 20
15.32208362676485
 30
0.0
  0
SPLINE
  5
13F
330
1F
100
AcDbEntity
  8
DEFAULT
 62
     7
100
AcDbSpline
210
0.0
220
0.0
230
1.0
 70
     8
 71
     3
 72
     8
 73
     4
 74
     0
 42
0.0000000001
 43
0.0000000001
 40
0.0
 40
0.0
 40
0.0
 40
0.0
 40
1.0
 40
1.0
 40
1.0
 40
1.0
 10
42.84454727095319
 20
16.75161533206985
 30
0.0
 10
43.00602874828779
 20
16.8838245907772
 30
0.0
 10
43.29073124855019
 20
16.90381698840529
 30
0.0
 10
43.46910795971319
 20
16.79547814714886
 30
0.0
  0
ARC
  5
140
330
1F
100
AcDbEntity
  8
IGES_LEVEL_0
 62
     7
100
AcDbCircle
 10
42.71732340598704
 20
15.76755563989873
 30
0.0
 40
0.0686957244435719
100
AcDbArc
 50
34.74705706610259
 51
94.01710891892176
  0
LINE
  5
141
330
1F
100
AcDbEntity
  8
IGES_LEVEL_0
 62
     7
100
AcDbLine
 10
42.71251097164929
 20
15.83608259103893
 30
0.0
 11
42.62868641151319
 21
15.83019585326885
 31
0.0
  0
ARC
  5
142
330
1F
100
AcDbEntity
  8
IGES_LEVEL_0
 62
     7
100
AcDbCircle
 10
40.61853129350243
 20
18.32129909654615
 30
0.0
 40
2.598260746189796
100
AcDbArc
 50
249.5139366732642
 51
267.8124100394383
  0
LINE
  5
143
330
1F
100
AcDbEntity
  8
IGES_LEVEL_0
 62
     7
100
AcDbLine
 10
40.51935211655318
 20
15.72493194299285
 30
0.0
 11
40.95824869518823
 21
15.70816643994168
 31
0.0
  0
ARC
  5
144
330
1F
100
AcDbEntity
  8
IGES_LEVEL_0
 62
     7
100
AcDbCircle
 10
40.96015727644453
 20
15.75812921359113
 30
0.0
 40
0.0499992143254178
100
AcDbArc
 50
267.8123611215949
 51
274.0324644061342
  0
LINE
  5
145
330
1F
100
AcDbEntity
  8
IGES_LEVEL_0
 62
     7
100
AcDbLine
 10
40.96367330584745
 20
15.70825377905271
 30
0.0
 11
42.60126275603318
 21
15.82369763854086
 31
0.0
  0
ARC
  5
146
330
1F
100
AcDbEntity
  8
IGES_LEVEL_0
 62
     7
100
AcDbCircle
 10
42.59558728498841
 20
15.90876469511345
 30
0.0
 40
0.0852561732984995
100
AcDbArc
 50
273.8169809755548
 51
292.8444988130976
  0
SPLINE
  5
147
330
1F
100
AcDbEntity
  8
IGES_LEVEL_0
 62
     7
100
AcDbSpline
210
0.0
220
0.0
230
1.0
 70
     8
 71
     3
 72
    16
 73
    12
 74
     0
 42
0.0000000001
 43
0.0000000001
 40
-1.730512944999143
 40
-1.730512944999143
 40
-1.730512944999143
 40
-1.730512944999143
 40
0.0
 40
0.1233799418267
 40
0.2483995558965
 40
0.3741997667816
 40
0.5001961491768
 40
0.6261537432931
 40
0.7518456754779
 40
0.8767299816529
 40
1.0
 40
1.0
 40
1.0
 40
1.0
 10
43.31577294277318
 20
15.86201887123185
 30
0.0
 10
42.94608862448085
 20
15.72794011070432
 30
0.0
 10
42.65081904165567
 20
16.02058080769704
 30
0.0
 10
42.64695980341318
 20
16.36057388532586
 30
0.0
 10
42.65387588155316
 20
16.42445583548085
 30
0.0
 10
42.66841518217319
 20
16.48751524640586
 30
0.0
 10
42.69040480626319
 20
16.54855174131086
 30
0.0
 10
42.71959217483317
 20
16.60647124932985
 30
0.0
 10
42.75534870632319
 20
16.66035109085586
 30
0.0
 10
42.79692623664317
 20
16.70926133193985
 30
0.0
 10
42.82820577371318
 20
16.73823610572185
 30
0.0
 10
42.84454727095319
 20
16.75161533206985
 30
0.0
  0
LINE
  5
148
330
1F
100
AcDbEntity
  8
DEFAULT
 62
     7
100
AcDbLine
 10
3.903716200011435
 20
17.79981746987441
 30
0.0
 11
22.39726164708731
 21
17.79981746987441
 31
0.0
  0
LINE
  5
149
330
1F
100
AcDbEntity
  8
DEFAULT
 62
     7
100
AcDbLine
 10
1.537328510838368
 20
4.632156663978854
 30
0.0
 11
0.4837464542496643
 21
4.101729493218773
 31
0.0
  0
LINE
  5
14A
330
1F
100
AcDbEntity
  8
DEFAULT
 62
     7
100
AcDbLine
 10
0.4837464542496643
 20
4.101729493218773
 30
0.0
 11
0.4319883690291106
 21
2.604670853268857
 31
0.0
  0
LINE
  5
14B
330
1F
100
AcDbEntity
  8
DEFAULT
 62
     7
100
AcDbLine
 10
0.4319883690291106
 20
2.604670853268857
 30
0.0
 11
1.331164847228589
 21
2.604670853268849
 31
0.0
  0
LINE
  5
14C
330
1F
100
AcDbEntity
  8
DEFAULT
 62
     7
100
AcDbLine
 10
1.331164847228589
 20
2.604670853268849
 30
0.0
 11
1.336622796002368
 21
2.638472651618855
 31
0.0
  0
SPLINE
  5
14D
330
1F
100
AcDbEntity
  8
DEFAULT
 62
     7
100
AcDbSpline
210
0.0
220
0.0
230
1.0
 70
     8
 71
     3
 72
    24
 73
    20
 74
     0
 42
0.0000000001
 43
0.0000000001
 40
3.531366024468461
 40
3.531366024468461
 40
3.531366024468461
 40
3.531366024468461
 40
3.642099935008961
 40
3.708159896512561
 40
3.772017159126561
 40
3.893613405272261
 40
3.980097057600361
 40
4.063173596722462
 40
4.143506466210061
 40
4.182882894666661
 40
4.221853616872961
 40
4.260519064549361
 40
4.298982060820961
 40
4.337347056635061
 40
4.375719303231661
 40
4.414203992361161
 40
4.452905398916212
 40
4.491926060427042
 40
4.531366024468461
 40
4.531366024468461
 40
4.531366024468461
 40
4.531366024468461
 10
1.336622796002368
 20
2.638472651618855
 30
0.0
 10
1.343699189017368
 20
2.682297689128855
 30
0.0
 10
1.356970335600368
 20
2.751977726338854
 30
0.0
 10
1.380034864284369
 20
2.845683609978856
 30
0.0
 10
1.408357667529368
 20
2.942478410518855
 30
0.0
 10
1.446111451720369
 20
3.044965188718855
 30
0.0
 10
1.496484501539368
 20
3.150399063838854
 30
0.0
 10
1.547349083737369
 20
3.236858898538853
 30
0.0
 10
1.594970769130368
 20
3.302915211518854
 30
0.0
 10
1.635916466372368
 20
3.351629318168854
 30
0.0
 10
1.667881594090368
 20
3.385990918498855
 30
0.0
 10
1.701302596212368
 20
3.418413895868854
 30
0.0
 10
1.736179566735369
 20
3.448898430968855
 30
0.0
 10
1.772511759111368
 20
3.477443393308854
 30
0.0
 10
1.810298460326368
 20
3.504048173078853
 30
0.0
 10
1.849538663531368
 20
3.528712189278854
 30
0.0
 10
1.890231750972369
 20
3.551435275668854
 30
0.0
 10
1.932375366973368
 20
3.572216768228854
 30
0.0
 10
1.961262740681368
 20
3.584701167368853
 30
0.0
 10
1.975924967674368
 20
3.590618583558853
 30
0.0
  0
LINE
  5
14E
330
1F
100
AcDbEntity
  8
DEFAULT
 62
     7
100
AcDbLine
 10
5.638728583963368
 20
4.549232321418854
 30
0.0
 11
5.169867401106745
 21
4.158401996905866
 31
0.0
  0
LINE
  5
14F
330
1F
100
AcDbEntity
  8
DEFAULT
 62
     7
100
AcDbLine
 10
5.169867401106745
 20
4.158401996905866
 30
0.0
 11
5.11816519811924
 21
2.604670853268871
 31
0.0
  0
LINE
  5
150
330
1F
100
AcDbEntity
  8
DEFAULT
 62
     7
100
AcDbLine
 10
5.11816519811924
 20
2.604670853268871
 30
0.0
 11
6.017804728462632
 21
2.604670853268853
 31
0.0
  0
LINE
  5
151
330
1F
100
AcDbEntity
  8
DEFAULT
 62
     7
100
AcDbLine
 10
6.017804728462632
 20
2.604670853268853
 30
0.0
 11
6.016446813188368
 21
2.645983650258855
 31
0.0
  0
ARC
  5
152
330
1F
100
AcDbEntity
  8
DEFAULT
 62
     7
100
AcDbCircle
 10
9.354775031279932
 20
2.760938544771807
 30
0.0
 40
3.340306860077211
100
AcDbArc
 50
176.1350378723278
 51
181.972193385869
  0
ARC
  5
153
330
1F
100
AcDbEntity
  8
DEFAULT
 62
     7
100
AcDbCircle
 10
37.72473877806708
 20
26.48361069513077
 30
0.0
 40
27.78922557633746
100
AcDbArc
 50
231.5430050882828
 51
232.1137843776166
  0
ARC
  5
154
330
1F
100
AcDbEntity
  8
DEFAULT
 62
     7
100
AcDbCircle
 10
16.85481252614136
 20
2.75872538677617
 30
0.0
 40
3.431570945884769
100
AcDbArc
 50
358.117289589473
 51
4.00315816769712
  0
LINE
  5
155
330
1F
100
AcDbEntity
  8
DEFAULT
 62
     7
100
AcDbLine
 10
20.28453102544937
 20
2.645985987518855
 30
0.0
 11
20.28317294214996
 21
2.604670853268849
 31
0.0
  0
LINE
  5
156
330
1F
100
AcDbEntity
  8
DEFAULT
 62
     7
100
AcDbLine
 10
20.28317294214996
 20
2.604670853268849
 30
0.0
 11
21.18281253081901
 21
2.604670853268853
 31
0.0
  0
LINE
  5
157
330
1F
100
AcDbEntity
  8
DEFAULT
 62
     7
100
AcDbLine
 10
21.18281253081901
 20
2.604670853268853
 30
0.0
 11
21.13111337178316
 21
4.15839926388229
 31
0.0
  0
LINE
  5
158
330
1F
100
AcDbEntity
  8
DEFAULT
 62
     7
100
AcDbLine
 10
21.13111337178316
 20
4.15839926388229
 30
0.0
 11
20.65950478593937
 21
4.551468826938855
 31
0.0
  0
ARC
  5
159
330
1F
100
AcDbEntity
  8
DEFAULT
 62
     7
100
AcDbCircle
 10
24.67798015415366
 20
2.454430492354994
 30
0.0
 40
1.983920946345694
100
AcDbArc
 50
59.50016585005912
 51
63.68371527709377
  0
LINE
  5
15A
330
1F
100
AcDbEntity
  8
DEFAULT
 62
     7
100
AcDbLine
 10
25.68489119540937
 20
4.163837546378854
 30
0.0
 11
25.81778806202839
 21
4.085555827561803
 31
0.0
  0
LINE
  5
15B
330
1F
100
AcDbEntity
  8
DEFAULT
 62
     7
100
AcDbLine
 10
25.81778806202839
 20
4.085555827561803
 30
0.0
 11
25.86898935968865
 21
2.604670853268857
 31
0.0
  0
LINE
  5
15C
330
1F
100
AcDbEntity
  8
DEFAULT
 62
     7
100
AcDbLine
 10
25.86898935968865
 20
2.604670853268857
 30
0.0
 11
24.96981282167982
 21
2.60467085326886
 31
0.0
  0
LINE
  5
15D
330
1F
100
AcDbEntity
  8
DEFAULT
 62
     7
100
AcDbLine
 10
24.96981282167982
 20
2.60467085326886
 30
0.0
 11
24.96435558199937
 21
2.638468630718854
 31
0.0
  0
SPLINE
  5
15E
330
1F
100
AcDbEntity
  8
DEFAULT
 62
     7
100
AcDbSpline
210
0.0
220
0.0
230
1.0
 70
     8
 71
     3
 72
    24
 73
    20
 74
     0
 42
0.0000000001
 43
0.0000000001
 40
3.25709462565306
 40
3.25709462565306
 40
3.25709462565306
 40
3.25709462565306
 40
3.36783154640696
 40
3.43389128429396
 40
3.49774833074766
 40
3.61934416528356
 40
3.70582752485986
 40
3.78890378276346
 40
3.869236380319959
 40
3.90861267548526
 40
3.947583265773659
 40
3.98624858256546
 40
4.02471144863776
 40
4.06307631458426
 40
4.10144843128876
 40
4.13993299014546
 40
4.17863426569423
 40
4.217654795118039
 40
4.25709462565306
 40
4.25709462565306
 40
4.25709462565306
 40
4.25709462565306
 10
24.96435558199937
 20
2.638468630718854
 30
0.0
 10
24.95727904828937
 20
2.682295020148853
 30
0.0
 10
24.94400771748937
 20
2.751976408418855
 30
0.0
 10
24.92094286448937
 20
2.845683609948853
 30
0.0
 10
24.89262006120937
 20
2.942478410538854
 30
0.0
 10
24.85486627703937
 20
3.044965188718855
 30
0.0
 10
24.80449322720937
 20
3.150399063838854
 30
0.0
 10
24.75362864501937
 20
3.236858898538853
 30
0.0
 10
24.70600695961937
 20
3.302915211518854
 30
0.0
 10
24.66506126237937
 20
3.351629318168854
 30
0.0
 10
24.63309613465937
 20
3.385990918498855
 30
0.0
 10
24.59967513253937
 20
3.418413895868854
 30
0.0
 10
24.56479816201937
 20
3.448898430968855
 30
0.0
 10
24.52846596963937
 20
3.477443393308854
 30
0.0
 10
24.49067926842937
 20
3.504048173078853
 30
0.0
 10
24.45143906521937
 20
3.528712189278854
 30
0.0
 10
24.41074597777937
 20
3.551435275668854
 30
0.0
 10
24.36860236177937
 20
3.572216768228854
 30
0.0
 10
24.33971498806937
 20
3.584701167368853
 30
0.0
 10
24.32505276107937
 20
3.590618583558853
 30
0.0
  0
LINE
  5
15F
330
1F
100
AcDbEntity
  8
DEFAULT
 62
     7
100
AcDbLine
 10
13.96691292354937
 20
10.72556585326885
 30
0.0
 11
14.01095102970206
 21
11.07786674649814
 31
0.0
  0
LINE
  5
160
330
1F
100
AcDbEntity
  8
DEFAULT
 62
     7
100
AcDbLine
 10
12.33406492354937
 20
10.72556585326885
 30
0.0
 11
12.29002682185959
 21
11.07786671079523
 31
0.0
  0
ARC
  5
161
330
1F
100
AcDbEntity
  8
DEFAULT
 62
     7
100
AcDbCircle
 10
9.885613494629496
 20
25.19792787711893
 30
0.0
 40
12.99820879234366
100
AcDbArc
 50
291.084775692614
 51
294.5669657794298
  0
LINE
  5
162
330
1F
100
AcDbEntity
  8
DEFAULT
 62
     7
100
AcDbLine
 10
15.28970325777319
 20
13.37636936560085
 30
0.0
 11
18.6856048862165
 21
14.92876681040756
 31
0.0
  0
ARC
  5
163
330
1F
100
AcDbEntity
  8
DEFAULT
 62
     7
100
AcDbCircle
 10
16.41440033045612
 20
25.19792787711444
 30
0.0
 40
12.99820879233876
100
AcDbArc
 50
245.4330342205697
 51
248.9152243073868
  0
LINE
  5
164
330
1F
100
AcDbEntity
  8
DEFAULT
 62
     7
100
AcDbLine
 10
11.01031056731437
 20
13.37636936560085
 30
0.0
 11
7.614408938871058
 21
14.92876681040756
 31
0.0
  0
LINE
  5
165
330
1F
100
AcDbEntity
  8
DEFAULT
 62
     7
100
AcDbLine
 10
6.538283339497904
 20
15.06883820945453
 30
0.0
 11
8.947713957484368
 21
14.12588611697986
 31
0.0
  0
LINE
  5
166
330
1F
100
AcDbEntity
  8
DEFAULT
 62
     7
100
AcDbLine
 10
8.947713957484368
 20
14.12588611697986
 30
0.0
 11
9.345234150616367
 21
13.97031855863386
 31
0.0
  0
SPLINE
  5
167
330
1F
100
AcDbEntity
  8
DEFAULT
 62
     7
100
AcDbSpline
210
0.0
220
0.0
230
1.0
 70
     8
 71
     3
 72
    13
 73
     9
 74
     0
 42
0.0000000001
 43
0.0000000001
 40
1.0
 40
1.0
 40
1.0
 40
1.0
 40
1.1847462084461
 40
1.3637930921773
 40
1.5350150699416
 40
1.6983211866636
 40
1.8538940033147
 40
2.0
 40
2.0
 40
2.0
 40
2.0
 10
9.345234150616367
 20
13.97031855863386
 30
0.0
 10
9.469853798651368
 20
13.92154939981386
 30
0.0
 10
9.715249621586368
 20
13.82551829246586
 30
0.0
 10
10.07613751741937
 20
13.68427454967285
 30
0.0
 10
10.42258189381637
 20
13.54874268499085
 30
0.0
 10
10.75312551019037
 20
13.41922339958686
 30
0.0
 10
11.06696259738037
 20
13.29698504938785
 30
0.0
 10
11.2711682077082
 20
13.21906531792846
 30
0.0
 10
11.36965808205237
 20
13.18041222038685
 30
0.0
  0
SPLINE
  5
168
330
1F
100
AcDbEntity
  8
DEFAULT
 62
     7
100
AcDbSpline
210
0.0
220
0.0
230
1.0
 70
     8
 71
     3
 72
     9
 73
     5
 74
     0
 42
0.0000000001
 43
0.0000000001
 40
2.0
 40
2.0
 40
2.0
 40
2.0
 40
2.503543752948401
 40
3.503543752948401
 40
3.503543752948401
 40
3.503543752948401
 40
3.503543752948401
 10
11.36965808205237
 20
13.18041222038685
 30
0.0
 10
11.44268120129264
 20
13.15175374387258
 30
0.0
 10
11.6698176297441
 20
13.0843235203708
 30
0.0
 10
11.9004686068362
 20
13.03004245736992
 30
0.0
 10
12.05334118285937
 20
12.99201267734685
 30
0.0
  0
ARC
  5
169
330
1F
100
AcDbEntity
  8
DEFAULT
 62
     7
100
AcDbCircle
 10
13.1323259922727
 20
17.17885718308687
 30
0.0
 40
4.323641420630309
100
AcDbArc
 50
255.5488399240838
 51
270.2406903984149
  0
ARC
  5
16A
330
1F
100
AcDbEntity
  8
DEFAULT
 62
     7
100
AcDbCircle
 10
13.11671138881466
 20
17.59554880753478
 30
0.0
 40
4.74041523633311
100
AcDbArc
 50
270.4082602625818
 51
283.8022094149194
  0
SPLINE
  5
16B
330
1F
100
AcDbEntity
  8
DEFAULT
 62
     7
100
AcDbSpline
210
0.0
220
0.0
230
1.0
 70
     8
 71
     3
 72
     9
 73
     5
 74
     0
 42
0.0000000001
 43
0.0000000001
 40
5.503543752948401
 40
5.503543752948401
 40
5.503543752948401
 40
5.503543752948401
 40
6.503543752948401
 40
7.007087505896802
 40
7.007087505896802
 40
7.007087505896802
 40
7.007087505896802
 10
14.24763654589337
 20
12.99201267734685
 30
0.0
 10
14.40062034587224
 20
13.02959535794907
 30
0.0
 10
14.63116009900863
 20
13.0843235203708
 30
0.0
 10
14.85766028592565
 20
13.15349481608757
 30
0.0
 10
14.93131964670037
 20
13.18041222038685
 30
0.0
  0
SPLINE
  5
16C
330
1F
100
AcDbEntity
  8
DEFAULT
 62
     7
100
AcDbSpline
210
0.0
220
0.0
230
1.0
 70
     8
 71
     3
 72
    13
 73
     9
 74
     0
 42
0.0000000001
 43
0.0000000001
 40
7.007087505896802
 40
7.007087505896802
 40
7.007087505896802
 40
7.007087505896802
 40
7.153193502582102
 40
7.308766319233202
 40
7.472072435955202
 40
7.643294413719502
 40
7.822341297450702
 40
8.007087505896802
 40
8.007087505896802
 40
8.007087505896802
 40
8.007087505896802
 10
14.93131964670037
 20
13.18041222038685
 30
0.0
 10
15.03072315691437
 20
13.21673733161585
 30
0.0
 10
15.23401513137237
 20
13.29698504938785
 30
0.0
 10
15.54785221856237
 20
13.41922339958686
 30
0.0
 10
15.87839583493637
 20
13.54874268499085
 30
0.0
 10
16.22484021133337
 20
13.68427454967285
 30
0.0
 10
16.58572810716637
 20
13.82551829246586
 30
0.0
 10
16.83112397187698
 20
13.92154929306506
 30
0.0
 10
16.95574357813637
 20
13.97031855863386
 30
0.0
  0
LINE
  5
16D
330
1F
100
AcDbEntity
  8
DEFAULT
 62
     7
100
AcDbLine
 10
16.95574357813637
 20
13.97031855863386
 30
0.0
 11
17.35326377126837
 21
14.12588611697986
 31
0.0
  0
LINE
  5
16E
330
1F
100
AcDbEntity
  8
DEFAULT
 62
     7
100
AcDbLine
 10
17.35326377126837
 20
14.12588611697986
 30
0.0
 11
19.76269438925483
 21
15.06883820945453
 31
0.0
  0
LINE
  5
16F
330
1F
100
AcDbEntity
  8
DEFAULT
 62
     7
100
AcDbLine
 10
6.36827346979999
 20
15.1031046640065
 30
0.0
 11
6.548214500515369
 21
15.02500456156685
 31
0.0
  0
LINE
  5
170
330
1F
100
AcDbEntity
  8
DEFAULT
 62
     7
100
AcDbLine
 10
6.548214500515369
 20
15.02500456156685
 30
0.0
 11
6.605629361331368
 21
15.00021345115735
 31
0.0
  0
LINE
  5
171
330
1F
100
AcDbEntity
  8
DEFAULT
 62
     7
100
AcDbLine
 10
6.605629361331368
 20
15.00021345115735
 30
0.0
 11
9.045627570755368
 21
13.95204805213835
 31
0.0
  0
SPLINE
  5
172
330
1F
100
AcDbEntity
  8
DEFAULT
 62
     7
100
AcDbSpline
210
0.0
220
0.0
230
1.0
 70
     8
 71
     3
 72
    32
 73
    28
 74
     0
 42
0.0000000001
 43
0.0000000001
 40
2.0
 40
2.0
 40
2.0
 40
2.0
 40
2.028323029740755
 40
2.085977159721145
 40
2.138930590436282
 40
2.187181618487166
 40
2.230574608690013
 40
2.26884628109161
 40
2.3022239678707
 40
2.33216343887258
 40
2.360294808189067
 40
2.38811237984251
 40
2.416058034754558
 40
2.444012722701088
 40
2.471891364432637
 40
2.499924619809134
 40
2.529524791421896
 40
2.562408266956221
 40
2.600213244158041
 40
2.643317829467583
 40
2.691060435408643
 40
2.742382097706495
 40
2.795206238379659
 40
2.847797269763947
 40
2.899644715277261
 40
2.950479712972943
 40
3.0
 40
3.0
 40
3.0
 40
3.0
 10
9.045627570755368
 20
13.95204805213835
 30
0.0
 10
9.083229091271653
 20
13.93588947041625
 30
0.0
 10
9.197371767441394
 20
13.88683815680021
 30
0.0
 10
9.381814105131367
 20
13.80757388910686
 30
0.0
 10
9.592711233096367
 20
13.71693694078086
 30
0.0
 10
9.784674492439367
 20
13.63443415021886
 30
0.0
 10
9.957145744109367
 20
13.56030611721985
 30
0.0
 10
10.10987034327437
 20
13.49466144563785
 30
0.0
 10
10.24473498651937
 20
13.43669417154885
 30
0.0
 10
10.36613892240237
 20
13.38451557665585
 30
0.0
 10
10.48015731407537
 20
13.33549981593185
 30
0.0
 10
10.59152370110337
 20
13.28761005162285
 30
0.0
 10
10.70268990915737
 20
13.23990035982085
 30
0.0
 10
10.81384029160937
 20
13.19193307132385
 30
0.0
 10
10.92533640386037
 20
13.14443964552385
 30
0.0
 10
11.03993085838737
 20
13.09820129108185
 30
0.0
 10
11.16201622059337
 20
13.05125220898086
 30
0.0
 10
11.29825113915437
 20
13.00181667815286
 30
0.0
 10
11.45413214018137
 20
12.94943160376085
 30
0.0
 10
11.63194148253137
 20
12.89508898953686
 30
0.0
 10
11.83024722202037
 20
12.84129913470085
 30
0.0
 10
12.04402919750137
 20
12.79139929606786
 30
0.0
 10
12.26646991546637
 20
12.74847972951686
 30
0.0
 10
12.49122757579737
 20
12.71452925313086
 30
0.0
 10
12.71435943885337
 20
12.69035714332786
 30
0.0
 10
12.93389551679337
 20
12.67611765744385
 30
0.0
 10
13.07893325670903
 20
12.6733713118095
 30
0.0
 10
13.15048886437637
 20
12.67323709791685
 30
0.0
  0
SPLINE
  5
173
330
1F
100
AcDbEntity
  8
DEFAULT
 62
     7
100
AcDbSpline
210
0.0
220
0.0
230
1.0
 70
     8
 71
     3
 72
    32
 73
    28
 74
     0
 42
0.0000000001
 43
0.0000000001
 40
3.0
 40
3.0
 40
3.0
 40
3.0
 40
3.049520287027057
 40
3.100355284722739
 40
3.152202730236053
 40
3.204793761620341
 40
3.257617902293505
 40
3.308939564591357
 40
3.356682170532417
 40
3.399786755841959
 40
3.437591733043779
 40
3.470475208578105
 40
3.500075380190866
 40
3.528108635567363
 40
3.555987277298912
 40
3.583941965245442
 40
3.611887620157491
 40
3.639705191810934
 40
3.66783656112742
 40
3.6977760321293
 40
3.731153718908391
 40
3.769425391309988
 40
3.812818381512834
 40
3.861069409563718
 40
3.914022840278856
 40
3.971676970259245
 40
4.0
 40
4.0
 40
4.0
 40
4.0
 10
13.15048886437637
 20
12.67323709791685
 30
0.0
 10
13.22204497552437
 20
12.67310288307986
 30
0.0
 10
13.36708221195937
 20
12.67611765744385
 30
0.0
 10
13.58661828989937
 20
12.69035714332786
 30
0.0
 10
13.80975015295537
 20
12.71452925313086
 30
0.0
 10
14.03450781328637
 20
12.74847972951686
 30
0.0
 10
14.25694853125137
 20
12.79139929606786
 30
0.0
 10
14.47073050673237
 20
12.84129913470085
 30
0.0
 10
14.66903624622137
 20
12.89508898953686
 30
0.0
 10
14.84684558857137
 20
12.94943160376085
 30
0.0
 10
15.00272658959837
 20
13.00181667815286
 30
0.0
 10
15.13896150815937
 20
13.05125220898086
 30
0.0
 10
15.26104687036537
 20
13.09820129108185
 30
0.0
 10
15.37564132489237
 20
13.14443964552385
 30
0.0
 10
15.48713743714337
 20
13.19193307132385
 30
0.0
 10
15.59828781959537
 20
13.23990035982085
 30
0.0
 10
15.70945402764937
 20
13.28761005162285
 30
0.0
 10
15.82082041467737
 20
13.33549981593185
 30
0.0
 10
15.93483880635037
 20
13.38451557665585
 30
0.0
 10
16.05624274223337
 20
13.43669417154885
 30
0.0
 10
16.19110738547837
 20
13.49466144563785
 30
0.0
 10
16.34383198464337
 20
13.56030611721985
 30
0.0
 10
16.51630323631337
 20
13.63443415021886
 30
0.0
 10
16.70826649565637
 20
13.71693694078086
 30
0.0
 10
16.91916362362137
 20
13.80757388910686
 30
0.0
 10
17.10360596131134
 20
13.88683815680021
 30
0.0
 10
17.21774651243089
 20
13.93589441726783
 30
0.0
 10
17.25535015799737
 20
13.95204805213835
 30
0.0
  0
LINE
  5
174
330
1F
100
AcDbEntity
  8
DEFAULT
 62
     7
100
AcDbLine
 10
17.25535015799737
 20
13.95204805213835
 30
0.0
 11
19.69534836742137
 21
15.00021345115735
 31
0.0
  0
LINE
  5
175
330
1F
100
AcDbEntity
  8
DEFAULT
 62
     7
100
AcDbLine
 10
19.69534836742137
 20
15.00021345115735
 30
0.0
 11
19.75276322823737
 21
15.02500456156685
 31
0.0
  0
LINE
  5
176
330
1F
100
AcDbEntity
  8
DEFAULT
 62
     7
100
AcDbLine
 10
19.75276322823737
 20
15.02500456156685
 30
0.0
 11
19.93270425895275
 21
15.1031046640065
 31
0.0
  0
SPLINE
  5
177
330
1F
100
AcDbEntity
  8
DEFAULT
 62
     7
100
AcDbSpline
210
0.0
220
0.0
230
1.0
 70
     8
 71
     2
 72
     8
 73
     5
 74
     0
 42
0.0000000001
 43
0.0000000001
 40
-3.258011009881577
 40
-3.258011009881577
 40
-3.258011009881577
 40
-2.388950656360888
 40
-1.0
 40
-0.0000000000000007
 40
-0.0000000000000007
 40
-0.0000000000000007
 10
4.321702082776815
 20
17.79981746987436
 30
0.0
 10
4.267560590007078
 20
19.42852639452263
 30
0.0
 10
4.183236228723493
 20
23.66451521546773
 30
0.0
 10
4.410915457800825
 20
28.16952047672986
 30
0.0
 10
4.506220114727182
 20
30.05528789732566
 30
0.0
  0
LINE
  5
178
330
1F
100
AcDbEntity
  8
DEFAULT
 62
     7
100
AcDbLine
 10
4.506220114727182
 20
30.05528789732566
 30
0.0
 11
4.586390217358324
 21
31.64159199329913
 31
0.0
  0
LINE
  5
179
330
1F
100
AcDbEntity
  8
DEFAULT
 62
     7
100
AcDbLine
 10
4.586390217358324
 20
31.64159199329913
 30
0.0
 11
4.58888973370546
 21
31.69080445581047
 31
0.0
  0
LINE
  5
17A
330
1F
100
AcDbEntity
  8
DEFAULT
 62
     7
100
AcDbLine
 10
4.58888973370546
 20
31.69080445581047
 30
0.0
 11
4.596813717244253
 21
31.84366481877747
 31
0.0
  0
LINE
  5
17B
330
1F
100
AcDbEntity
  8
DEFAULT
 62
     7
100
AcDbLine
 10
4.596813717244253
 20
31.84366481877747
 30
0.0
 11
4.599601224342501
 21
31.89630207014721
 31
0.0
  0
LINE
  5
17C
330
1F
100
AcDbEntity
  8
DEFAULT
 62
     7
100
AcDbLine
 10
4.599601224342501
 20
31.89630207014721
 30
0.0
 11
4.60243120433863
 21
31.94914378078301
 31
0.0
  0
LINE
  5
17D
330
1F
100
AcDbEntity
  8
DEFAULT
 62
     7
100
AcDbLine
 10
4.60243120433863
 20
31.94914378078301
 30
0.0
 11
4.611142406598749
 21
32.10808920569012
 31
0.0
  0
LINE
  5
17E
330
1F
100
AcDbEntity
  8
DEFAULT
 62
     7
100
AcDbLine
 10
4.611142406598749
 20
32.10808920569012
 30
0.0
 11
4.624187334371485
 21
32.33600268155256
 31
0.0
  0
SPLINE
  5
17F
330
1F
100
AcDbEntity
  8
DEFAULT
 62
     7
100
AcDbSpline
210
0.0
220
0.0
230
1.0
 70
     8
 71
     3
 72
     8
 73
     4
 74
     0
 42
0.0000000001
 43
0.0000000001
 40
7.449333101527561
 40
7.449333101527561
 40
7.449333101527561
 40
7.449333101527561
 40
8.449333101527561
 40
8.449333101527561
 40
8.449333101527561
 40
8.449333101527561
 10
4.624187334371485
 20
32.33600268155256
 30
0.0
 10
4.633222416064518
 20
32.48980782748349
 30
0.0
 10
4.67999189024094
 20
32.63907416641546
 30
0.0
 10
4.711172008699732
 20
32.78995484530589
 30
0.0
  0
ARC
  5
180
330
1F
100
AcDbEntity
  8
DEFAULT
 62
     7
100
AcDbCircle
 10
6.58682509201525
 20
32.35724782843204
 30
0.0
 40
1.924918141481053
100
AcDbArc
 50
156.8827960572354
 51
167.0093276915495
  0
ARC
  5
181
330
1F
100
AcDbEntity
  8
DEFAULT
 62
     7
100
AcDbCircle
 10
5.80245080023157
 20
32.72374295052076
 30
0.0
 40
1.060035192863281
100
AcDbArc
 50
142.1429424110113
 51
158.4564746198134
  0
SPLINE
  5
182
330
1F
100
AcDbEntity
  8
DEFAULT
 62
     7
100
AcDbSpline
210
0.0
220
0.0
230
1.0
 70
     8
 71
     3
 72
    14
 73
    10
 74
     0
 42
0.0000000001
 43
0.0000000001
 40
10.44933310152756
 40
10.44933310152756
 40
10.44933310152756
 40
10.44933310152756
 40
10.57949231333606
 40
10.76583910655016
 40
10.94840839922156
 40
11.13279982261786
 40
11.32143957031996
 40
11.44933310152756
 40
11.49124683601489
 40
11.49124683601489
 40
11.49124683601489
 40
11.49124683601489
 10
4.965506096605837
 20
33.37427978512855
 30
0.0
 10
5.005201817151303
 20
33.42535010321003
 30
0.0
 10
5.110719398545935
 20
33.54282144821625
 30
0.0
 10
5.30470171168605
 20
33.69850281514847
 30
0.0
 10
5.544793521576396
 20
33.83396940722317
 30
0.0
 10
5.804388604115526
 20
33.92965141736957
 30
0.0
 10
6.047336192310221
 20
33.9840641816154
 30
0.0
 10
6.223817898057166
 20
34.00808779701668
 30
0.0
 10
6.307797258797874
 20
34.01499004425453
 30
0.0
 10
6.328499665554229
 20
34.01666408409
 30
0.0
  0
ARC
  5
183
330
1F
100
AcDbEntity
  8
DEFAULT
 62
     7
100
AcDbCircle
 10
10.04960431385351
 20
-13.28757175098895
 30
0.0
 40
47.45036720347233
100
AcDbArc
 50
92.3195717134122
 51
94.49780980494396
  0
SPLINE
  5
184
330
1F
100
AcDbEntity
  8
DEFAULT
 62
     7
100
AcDbSpline
210
0.0
220
0.0
230
1.0
 70
     8
 71
     3
 72
    10
 73
     6
 74
     0
 42
0.0000000001
 43
0.0000000001
 40
13.83395197867755
 40
13.83395197867755
 40
13.83395197867755
 40
13.83395197867755
 40
14.12915635060865
 40
14.47303693409725
 40
14.83395197867755
 40
14.83395197867755
 40
14.83395197867755
 40
14.83395197867755
 10
8.129140580041961
 20
34.12391595812515
 30
0.0
 10
8.569221077792983
 20
34.14174198883471
 30
0.0
 10
9.522383356263759
 20
34.16983100822999
 30
0.0
 10
11.01427796216019
 20
34.18974972838191
 30
0.0
 10
12.06584904437686
 20
34.18874843077472
 30
0.0
 10
12.60432611776233
 20
34.18874843077472
 30
0.0
  0
LINE
  5
185
330
1F
100
AcDbEntity
  8
DEFAULT
 62
     7
100
AcDbLine
 10
12.60432611776233
 20
34.18874843077472
 30
0.0
 11
13.69665172933641
 21
34.18874843077472
 31
0.0
  0
SPLINE
  5
186
330
1F
100
AcDbEntity
  8
DEFAULT
 62
     7
100
AcDbSpline
210
0.0
220
0.0
230
1.0
 70
     8
 71
     3
 72
    10
 73
     6
 74
     0
 42
0.0000000001
 43
0.0000000001
 40
15.92627759025163
 40
15.92627759025163
 40
15.92627759025163
 40
15.92627759025163
 40
16.28719263483193
 40
16.63107321832053
 40
16.92627759025163
 40
16.92627759025163
 40
16.92627759025163
 40
16.92627759025163
 10
13.69665172933641
 20
34.18874843077472
 30
0.0
 10
14.23512880272187
 20
34.19079887749093
 30
0.0
 10
15.28669988493854
 20
34.18974972838191
 30
0.0
 10
16.77859449083498
 20
34.16983100822999
 30
0.0
 10
17.73171992151125
 20
34.14078035632872
 30
0.0
 10
18.17183726705673
 20
34.12391595812515
 30
0.0
  0
ARC
  5
187
330
1F
100
AcDbEntity
  8
DEFAULT
 62
     7
100
AcDbCircle
 10
16.62808761523445
 20
-6.962956958046448
 30
0.0
 40
41.1158642012683
100
AcDbArc
 50
85.33437027835593
 51
87.84824820328805
  0
SPLINE
  5
188
330
1F
100
AcDbEntity
  8
DEFAULT
 62
     7
100
AcDbSpline
210
0.0
220
0.0
230
1.0
 70
     8
 71
     3
 72
    14
 73
    10
 74
     0
 42
0.0000000001
 43
0.0000000001
 40
19.26898273291429
 40
19.26898273291429
 40
19.26898273291429
 40
19.26898273291429
 40
19.31089646740162
 40
19.43878999860922
 40
19.62742974631132
 40
19.81182116970762
 40
19.99439046237902
 40
20.18073725559312
 40
20.31089646740162
 40
20.31089646740162
 40
20.31089646740162
 40
20.31089646740162
 10
19.97247818154448
 20
34.01666408409001
 30
0.0
 10
19.99317934270139
 20
34.01497464025612
 30
0.0
 10
20.07715994904157
 20
34.00808779701668
 30
0.0
 10
20.25364165478852
 20
33.9840641816154
 30
0.0
 10
20.49658924298321
 20
33.92965141736957
 30
0.0
 10
20.75618432552234
 20
33.83396940722317
 30
0.0
 10
20.99627613541269
 20
33.69850281514847
 30
0.0
 10
21.1902584485528
 20
33.54282144821625
 30
0.0
 10
21.29720795334785
 20
33.4264013161248
 30
0.0
 10
21.3354717504929
 20
33.37427978512855
 30
0.0
  0
ARC
  5
189
330
1F
100
AcDbEntity
  8
DEFAULT
 62
     7
100
AcDbCircle
 10
19.99323655051722
 20
32.43552693290545
 30
0.0
 40
1.637941467089334
100
AcDbArc
 50
24.4318261943351
 51
34.96875677483994
  0
ARC
  5
18A
330
1F
100
AcDbEntity
  8
DEFAULT
 62
     7
100
AcDbCircle
 10
20.03103441669754
 20
32.4605388280069
 30
0.0
 40
1.593199064011252
100
AcDbArc
 50
11.93277432651428
 51
24.17510192469876
  0
SPLINE
  5
18B
330
1F
100
AcDbEntity
  8
DEFAULT
 62
     7
100
AcDbSpline
210
0.0
220
0.0
230
1.0
 70
     8
 71
     3
 72
     8
 73
     4
 74
     0
 42
0.0000000001
 43
0.0000000001
 40
22.31089646740162
 40
22.31089646740162
 40
22.31089646740162
 40
22.31089646740162
 40
23.31089646740162
 40
23.31089646740162
 40
23.31089646740162
 40
23.31089646740162
 10
21.58980583839901
 20
32.78995484530589
 30
0.0
 10
21.62166200999193
 20
32.6392138756013
 30
0.0
 10
21.66798651572768
 20
32.48982105392008
 30
0.0
 10
21.67679051272725
 20
32.33600268155256
 30
0.0
  0
LINE
  5
18C
330
1F
100
AcDbEntity
  8
DEFAULT
 62
     7
100
AcDbLine
 10
21.67679051272725
 20
32.33600268155256
 30
0.0
 11
21.68983544049999
 21
32.10808920569012
 31
0.0
  0
LINE
  5
18D
330
1F
100
AcDbEntity
  8
DEFAULT
 62
     7
100
AcDbLine
 10
21.68983544049999
 20
32.10808920569012
 30
0.0
 11
21.69854664276011
 21
31.94914378078301
 31
0.0
  0
LINE
  5
18E
330
1F
100
AcDbEntity
  8
DEFAULT
 62
     7
100
AcDbLine
 10
21.69854664276011
 20
31.94914378078301
 30
0.0
 11
21.70137662275624
 21
31.89630207014721
 31
0.0
  0
LINE
  5
18F
330
1F
100
AcDbEntity
  8
DEFAULT
 62
     7
100
AcDbLine
 10
21.70137662275624
 20
31.89630207014721
 30
0.0
 11
21.70416412985449
 21
31.84366481877747
 31
0.0
  0
LINE
  5
190
330
1F
100
AcDbEntity
  8
DEFAULT
 62
     7
100
AcDbLine
 10
21.70416412985449
 20
31.84366481877747
 30
0.0
 11
21.71208811339328
 21
31.69080445581047
 31
0.0
  0
LINE
  5
191
330
1F
100
AcDbEntity
  8
DEFAULT
 62
     7
100
AcDbLine
 10
21.71208811339328
 20
31.69080445581047
 30
0.0
 11
21.71458762974041
 21
31.64159199329913
 31
0.0
  0
LINE
  5
192
330
1F
100
AcDbEntity
  8
DEFAULT
 62
     7
100
AcDbLine
 10
21.71458762974041
 20
31.64159199329913
 30
0.0
 11
21.79475773237156
 21
30.05528789732566
 31
0.0
  0
SPLINE
  5
193
330
1F
100
AcDbEntity
  8
DEFAULT
 62
     7
100
AcDbSpline
210
0.0
220
0.0
230
1.0
 70
     8
 71
     2
 72
     8
 73
     5
 74
     0
 42
0.0000000001
 43
0.0000000001
 40
30.76022956892918
 40
30.76022956892918
 40
30.76022956892918
 40
31.76022956892918
 40
33.14918022529007
 40
34.01824057881075
 40
34.01824057881075
 40
34.01824057881075
 10
21.79475773237156
 20
30.05528789732566
 30
0.0
 10
21.89006238929792
 20
28.16952047672986
 30
0.0
 10
22.11774161837525
 20
23.66451521546773
 30
0.0
 10
22.03341725709166
 20
19.42852639452263
 30
0.0
 10
21.97927576432192
 20
17.79981746987436
 30
0.0
  0
SPLINE
  5
194
330
1F
100
AcDbEntity
  8
DEFAULT
 62
     7
100
AcDbSpline
210
0.0
220
0.0
230
1.0
 70
     8
 71
     3
 72
    10
 73
     6
 74
     0
 42
0.0000000001
 43
0.0000000001
 40
0.0
 40
0.0
 40
0.0
 40
0.0
 40
0.3609307149841
 40
0.702271024648
 40
1.0
 40
1.0
 40
1.0
 40
1.0
 10
13.15048892046282
 20
15.58874089337504
 30
0.0
 10
13.83545743145267
 20
15.59444319511616
 30
0.0
 10
15.16822384941728
 20
15.61482273498418
 30
0.0
 10
17.06478905829316
 20
15.68439456806216
 30
0.0
 10
18.27465517910811
 20
15.77836626977723
 30
0.0
 10
18.83696341364875
 20
15.83324853459392
 30
0.0
  0
ARC
  5
195
330
1F
100
AcDbEntity
  8
DEFAULT
 62
     7
100
AcDbCircle
 10
18.12294164494506
 20
23.14891456121141
 30
0.0
 40
7.350428320797916
100
AcDbArc
 50
275.5745116745725
 51
286.1341743319617
  0
SPLINE
  5
196
330
1F
100
AcDbEntity
  8
DEFAULT
 62
     7
100
AcDbSpline
210
0.0
220
0.0
230
1.0
 70
     8
 71
     3
 72
    21
 73
    17
 74
     0
 42
0.0000000001
 43
0.0000000001
 40
2.052070143611595
 40
2.052070143611595
 40
2.052070143611595
 40
2.052070143611595
 40
2.122714720388245
 40
2.226619603870495
 40
2.327977627250295
 40
2.426707126059695
 40
2.522635949804095
 40
2.615597538126295
 40
2.705457193392595
 40
2.791966909181795
 40
2.874798062694996
 40
2.953650735698895
 40
3.028218142162895
 40
3.052070143611595
 40
3.449241943453135
 40
3.710166533419774
 40
3.710166533419774
 40
3.710166533419774
 40
3.710166533419774
 10
20.16553500848128
 20
16.08799331462993
 30
0.0
 10
20.20378610760524
 20
16.09905864711135
 30
0.0
 10
20.29803527845073
 20
16.12730475089488
 30
0.0
 10
20.44586729852577
 20
16.17565076645065
 30
0.0
 10
20.6069891660269
 20
16.23402869142693
 30
0.0
 10
20.7619200464328
 20
16.29603461672814
 30
0.0
 10
20.9102818389978
 20
16.36146088437064
 30
0.0
 10
21.05167277080095
 20
16.43005453112319
 30
0.0
 10
21.18563650583564
 20
16.50154101551492
 30
0.0
 10
21.31176555237363
 20
16.57534016504662
 30
0.0
 10
21.42964580838624
 20
16.6507358608529
 30
0.0
 10
21.53880832923701
 20
16.72706050883869
 30
0.0
 10
21.61827600923458
 20
16.78767378475872
 30
0.0
 10
21.83561582997523
 20
16.96319199341944
 30
0.0
 10
22.10496277641506
 20
17.24096480976969
 30
0.0
 10
22.27572582519393
 20
17.53821407749945
 30
0.0
 10
22.33388557090451
 20
17.66396388011391
 30
0.0
  0
SPLINE
  5
197
330
1F
100
AcDbEntity
  8
DEFAULT
 62
     7
100
AcDbSpline
210
0.0
220
0.0
230
1.0
 70
     8
 71
     3
 72
    21
 73
    17
 74
     0
 42
0.0000000001
 43
0.0000000001
 40
3.710166533419774
 40
3.710166533419774
 40
3.710166533419774
 40
3.710166533419774
 40
3.797894163296364
 40
3.915398924554174
 40
4.017473252110774
 40
4.105590556697374
 40
4.181223455700875
 40
4.245759855748974
 40
4.300591515940974
 40
4.347251576039374
 40
4.387512188956874
 40
4.423634194980874
 40
4.460277297921675
 40
4.508679503428374
 40
4.601695574414374
 40
4.710166533419774
 40
4.710166533419774
 40
4.710166533419774
 40
4.710166533419774
 10
22.33388557090451
 20
17.66396388011391
 30
0.0
 10
22.33618227022854
 20
17.66892967704327
 30
0.0
 10
22.34150958065527
 20
17.68056790413193
 30
0.0
 10
22.3493313090531
 20
17.69806477795293
 30
0.0
 10
22.35700491378867
 20
17.71565350258657
 30
0.0
 10
22.36353407394768
 20
17.73089195388016
 30
0.0
 10
22.36908489576823
 20
17.74400247369411
 30
0.0
 10
22.37381380505024
 20
17.75520668426854
 30
0.0
 10
22.37786804170133
 20
17.76473441686602
 30
0.0
 10
22.38140066190189
 20
17.77283855794306
 30
0.0
 10
22.38458924290616
 20
17.77981909019562
 30
0.0
 10
22.38772188903707
 20
17.7861355828567
 30
0.0
 10
22.39147666025539
 20
17.79270251992053
 30
0.0
 10
22.39814470498875
 20
17.8016370471843
 30
0.0
 10
22.41087900697318
 20
17.81131135858835
 30
0.0
 10
22.42403264116026
 20
17.81363725767342
 30
0.0
 10
22.43098493428172
 20
17.81313690934923
 30
0.0
  0
ARC
  5
198
330
1F
100
AcDbEntity
  8
DEFAULT
 62
     7
100
AcDbCircle
 10
22.40838773966306
 20
16.84794887915843
 30
0.0
 40
0.9654525191992727
100
AcDbArc
 50
46.09589331817525
 51
88.65882360962036
  0
ARC
  5
199
330
1F
100
AcDbEntity
  8
DEFAULT
 62
     7
100
AcDbCircle
 10
23.04525133644317
 20
17.50965314345353
 30
0.0
 40
0.0470583912291457
100
AcDbArc
 50
354.8729927101678
 51
46.0958933181731
  0
LINE
  5
19A
330
1F
100
AcDbEntity
  8
DEFAULT
 62
     7
100
AcDbLine
 10
23.09212144954303
 20
17.50544782740338
 30
0.0
 11
23.09259685969735
 21
17.43100243595086
 31
0.0
  0
LINE
  5
19B
330
1F
100
AcDbEntity
  8
DEFAULT
 62
     7
100
AcDbLine
 10
23.09259685969735
 20
17.43100243595086
 30
0.0
 11
23.09207020729895
 21
17.42483990451233
 31
0.0
  0
SPLINE
  5
19C
330
1F
100
AcDbEntity
  8
DEFAULT
 62
     7
100
AcDbSpline
210
0.0
220
0.0
230
1.0
 70
     8
 71
     3
 72
    40
 73
    36
 74
     0
 42
0.0000000001
 43
0.0000000001
 40
8.487928336757719
 40
8.487928336757719
 40
8.487928336757719
 40
8.487928336757719
 40
8.522524739245517
 40
8.524918174014488
 40
8.533056260613478
 40
8.542724217189758
 40
8.554078327613048
 40
8.567279518037388
 40
8.582493211081598
 40
8.599872894230657
 40
8.619530231188907
 40
8.641521826235818
 40
8.665829930961419
 40
8.692399597290018
 40
8.721128043406118
 40
8.751894417817917
 40
8.784555346266219
 40
8.818958672279218
 40
8.854952880272519
 40
8.892395216271119
 40
8.931156165463317
 40
8.971122121899919
 40
9.012217404678317
 40
9.054420470059318
 40
9.097727259424618
 40
9.142145165304818
 40
9.187691594004019
 40
9.234391878875318
 40
9.282276463933819
 40
9.331378699596419
 40
9.381738768174419
 40
9.433400160245519
 40
9.48641003823812
 40
9.522524739245519
 40
9.527744005918329
 40
9.527744005918329
 40
9.527744005918329
 40
9.527744005918329
 10
23.09207020729895
 20
17.42483990451233
 30
0.0
 10
23.08735535962747
 20
17.36966993455667
 30
0.0
 10
23.06767022054833
 20
17.3121958371571
 30
0.0
 10
23.04080887891468
 20
17.24303776098516
 30
0.0
 10
23.0284420879097
 20
17.21223744748697
 30
0.0
 10
23.00969585518572
 20
17.16812925133811
 30
0.0
 10
22.98653184464242
 20
17.11687540107989
 30
0.0
 10
22.9580779563601
 20
17.05803088497008
 30
0.0
 10
22.92335933203722
 20
16.99124864343258
 30
0.0
 10
22.88134080191001
 20
16.91634759051521
 30
0.0
 10
22.83093038139214
 20
16.83344453961782
 30
0.0
 10
22.77110401720547
 20
16.74302706692462
 30
0.0
 10
22.70102574011656
 20
16.64588063324935
 30
0.0
 10
22.6199420050284
 20
16.54316431087649
 30
0.0
 10
22.52739069012971
 20
16.43615141825632
 30
0.0
 10
22.42305149832999
 20
16.32630743274397
 30
0.0
 10
22.30686662377732
 20
16.21509700569669
 30
0.0
 10
22.17898414126742
 20
16.1039601800732
 30
0.0
 10
22.03973259855807
 20
15.99423562538715
 30
0.0
 10
21.88957857486559
 20
15.88711430901379
 30
0.0
 10
21.72908997787701
 20
15.78360250607804
 30
0.0
 10
21.55886512556288
 20
15.6844919465499
 30
0.0
 10
21.3794257131195
 20
15.5903630772279
 30
0.0
 10
21.19117993403725
 20
15.50161577630883
 30
0.0
 10
20.99443321825112
 20
15.41852291078839
 30
0.0
 10
20.78944027512171
 20
15.34127551569513
 30
0.0
 10
20.57640667963379
 20
15.27000941138391
 30
0.0
 10
20.35549266097096
 20
15.2048202348448
 30
0.0
 10
20.12682036437224
 20
15.14577667759409
 30
0.0
 10
19.89047347948333
 20
15.09292881287789
 30
0.0
 10
19.6464995154298
 20
15.04631516346183
 30
0.0
 10
19.39490774686102
 20
15.0059670432305
 30
0.0
 10
19.16548996576334
 20
14.97583046626143
 30
0.0
 10
19.011342369299
 20
14.95910253507291
 30
0.0
 10
18.94374177118481
 20
14.95244320314677
 30
0.0
 10
18.93520541588855
 20
14.95161195590891
 30
0.0
  0
SPLINE
  5
19D
330
1F
100
AcDbEntity
  8
DEFAULT
 62
     7
100
AcDbSpline
210
0.0
220
0.0
230
1.0
 70
     8
 71
     3
 72
    10
 73
     6
 74
     0
 42
0.0000000001
 43
0.0000000001
 40
9.527744005918329
 40
9.527744005918329
 40
9.527744005918329
 40
9.527744005918329
 40
9.825483983521229
 40
10.16668779263813
 40
10.52774400591833
 40
10.52774400591833
 40
10.52774400591833
 40
10.52774400591833
 10
18.93520541588855
 20
14.95161195590891
 30
0.0
 10
18.36330799701669
 20
14.89592212889554
 30
0.0
 10
17.13151788767315
 20
14.82394520932586
 30
0.0
 10
15.20220429946361
 20
14.77604141282222
 30
0.0
 10
13.84680975249504
 20
14.77042867903421
 30
0.0
 10
13.15000691254378
 20
14.77218434385237
 30
0.0
  0
SPLINE
  5
19E
330
1F
100
AcDbEntity
  8
DEFAULT
 62
     7
100
AcDbSpline
210
0.0
220
0.0
230
1.0
 70
     8
 71
     3
 72
    10
 73
     6
 74
     0
 42
0.0000000001
 43
0.0000000001
 40
0.0
 40
0.0
 40
0.0
 40
0.0
 40
0.3609307149841
 40
0.702271024648
 40
1.0
 40
1.0
 40
1.0
 40
1.0
 10
13.15048892663592
 20
15.58874089337504
 30
0.0
 10
12.46552041564607
 20
15.59444319511616
 30
0.0
 10
11.13275399768146
 20
15.61482273498418
 30
0.0
 10
9.236188788805583
 20
15.68439456806216
 30
0.0
 10
8.026322667990629
 20
15.77836626977723
 30
0.0
 10
7.464014433449997
 20
15.83324853459393
 30
0.0
  0
ARC
  5
19F
330
1F
100
AcDbEntity
  8
DEFAULT
 62
     7
100
AcDbCircle
 10
8.178036202153546
 20
23.14891456121082
 30
0.0
 40
7.350428320797306
100
AcDbArc
 50
253.865825668038
 51
264.4254883254281
  0
SPLINE
  5
1A0
330
1F
100
AcDbEntity
  8
DEFAULT
 62
     7
100
AcDbSpline
210
0.0
220
0.0
230
1.0
 70
     8
 71
     3
 72
    21
 73
    17
 74
     0
 42
0.0000000001
 43
0.0000000001
 40
2.052070143611595
 40
2.052070143611595
 40
2.052070143611595
 40
2.052070143611595
 40
2.122714720388245
 40
2.226619603870495
 40
2.327977627250295
 40
2.426707126059695
 40
2.522635949804095
 40
2.615597538126295
 40
2.705457193392595
 40
2.791966909181795
 40
2.874798062694996
 40
2.953650735698895
 40
3.028218142162895
 40
3.052070143611595
 40
3.449241943453135
 40
3.710166533419774
 40
3.710166533419774
 40
3.710166533419774
 40
3.710166533419774
 10
6.135442838617456
 20
16.08799331462993
 30
0.0
 10
6.097191739493496
 20
16.09905864711135
 30
0.0
 10
6.002942568648009
 20
16.12730475089488
 30
0.0
 10
5.855110548572971
 20
16.17565076645065
 30
0.0
 10
5.693988681071839
 20
16.23402869142693
 30
0.0
 10
5.539057800665937
 20
16.29603461672814
 30
0.0
 10
5.390696008100933
 20
16.36146088437064
 30
0.0
 10
5.24930507629779
 20
16.43005453112319
 30
0.0
 10
5.115341341263103
 20
16.50154101551492
 30
0.0
 10
4.989212294725111
 20
16.57534016504662
 30
0.0
 10
4.8713320387125
 20
16.6507358608529
 30
0.0
 10
4.762169517861732
 20
16.72706050883869
 30
0.0
 10
4.682701837864152
 20
16.78767378475872
 30
0.0
 10
4.465362017123512
 20
16.96319199341944
 30
0.0
 10
4.196015070683683
 20
17.24096480976969
 30
0.0
 10
4.025252021904789
 20
17.53821407749944
 30
0.0
 10
3.967092276194232
 20
17.66396388011391
 30
0.0
  0
SPLINE
  5
1A1
330
1F
100
AcDbEntity
  8
DEFAULT
 62
     7
100
AcDbSpline
210
0.0
220
0.0
230
1.0
 70
     8
 71
     3
 72
    21
 73
    17
 74
     0
 42
0.0000000001
 43
0.0000000001
 40
3.710166533419774
 40
3.710166533419774
 40
3.710166533419774
 40
3.710166533419774
 40
3.797894163296364
 40
3.915398924554174
 40
4.017473252110774
 40
4.105590556697374
 40
4.181223455700875
 40
4.245759855748974
 40
4.300591515940974
 40
4.347251576039374
 40
4.387512188956874
 40
4.423634194980874
 40
4.460277297921675
 40
4.508679503428374
 40
4.601695574414374
 40
4.710166533419774
 40
4.710166533419774
 40
4.710166533419774
 40
4.710166533419774
 10
3.967092276194232
 20
17.66396388011391
 30
0.0
 10
3.964795576870201
 20
17.66892967704327
 30
0.0
 10
3.95946826644347
 20
17.68056790413193
 30
0.0
 10
3.951646538045636
 20
17.69806477795293
 30
0.0
 10
3.943972933310071
 20
17.71565350258657
 30
0.0
 10
3.937443773151064
 20
17.73089195388016
 30
0.0
 10
3.931892951330515
 20
17.74400247369411
 30
0.0
 10
3.927164042048497
 20
17.75520668426854
 30
0.0
 10
3.923109805397414
 20
17.76473441686602
 30
0.0
 10
3.91957718519685
 20
17.77283855794306
 30
0.0
 10
3.916388604192584
 20
17.77981909019562
 30
0.0
 10
3.913255958061673
 20
17.7861355828567
 30
0.0
 10
3.909501186843348
 20
17.79270251992053
 30
0.0
 10
3.902833142109993
 20
17.8016370471843
 30
0.0
 10
3.890098840125559
 20
17.81131135858835
 30
0.0
 10
3.876945205938481
 20
17.81363725767342
 30
0.0
 10
3.869992912817014
 20
17.81313690934923
 30
0.0
  0
ARC
  5
1A2
330
1F
100
AcDbEntity
  8
DEFAULT
 62
     7
100
AcDbCircle
 10
3.892590107435675
 20
16.84794887915844
 30
0.0
 40
0.9654525191992691
100
AcDbArc
 50
91.3411763903796
 51
133.9041066818248
  0
ARC
  5
1A3
330
1F
100
AcDbEntity
  8
DEFAULT
 62
     7
100
AcDbCircle
 10
3.255726510655571
 20
17.50965314345353
 30
0.0
 40
0.0470583912291457
100
AcDbArc
 50
133.9041066818253
 51
185.1270072898322
  0
LINE
  5
1A4
330
1F
100
AcDbEntity
  8
DEFAULT
 62
     7
100
AcDbLine
 10
3.208856397555711
 20
17.50544782740338
 30
0.0
 11
3.208380987401388
 21
17.43100243595086
 31
0.0
  0
LINE
  5
1A5
330
1F
100
AcDbEntity
  8
DEFAULT
 62
     7
100
AcDbLine
 10
3.208380987401388
 20
17.43100243595086
 30
0.0
 11
3.208907639799789
 21
17.42483990451233
 31
0.0
  0
SPLINE
  5
1A6
330
1F
100
AcDbEntity
  8
DEFAULT
 62
     7
100
AcDbSpline
210
0.0
220
0.0
230
1.0
 70
     8
 71
     3
 72
    40
 73
    36
 74
     0
 42
0.0000000001
 43
0.0000000001
 40
8.487928336757719
 40
8.487928336757719
 40
8.487928336757719
 40
8.487928336757719
 40
8.522524739245517
 40
8.524918174014488
 40
8.533056260613478
 40
8.542724217189758
 40
8.554078327613048
 40
8.567279518037388
 40
8.582493211081598
 40
8.599872894230657
 40
8.619530231188907
 40
8.641521826235818
 40
8.665829930961419
 40
8.692399597290018
 40
8.721128043406118
 40
8.751894417817917
 40
8.784555346266219
 40
8.818958672279218
 40
8.854952880272519
 40
8.892395216271119
 40
8.931156165463317
 40
8.971122121899919
 40
9.012217404678317
 40
9.054420470059318
 40
9.097727259424618
 40
9.142145165304818
 40
9.187691594004019
 40
9.234391878875318
 40
9.282276463933819
 40
9.331378699596419
 40
9.381738768174419
 40
9.433400160245519
 40
9.48641003823812
 40
9.522524739245519
 40
9.527744005918329
 40
9.527744005918329
 40
9.527744005918329
 40
9.527744005918329
 10
3.208907639799789
 20
17.42483990451233
 30
0.0
 10
3.213622487471272
 20
17.36966993455667
 30
0.0
 10
3.233307626550406
 20
17.3121958371571
 30
0.0
 10
3.260168968184062
 20
17.24303776098516
 30
0.0
 10
3.272535759189041
 20
17.21223744748697
 30
0.0
 10
3.291281991913018
 20
17.16812925133811
 30
0.0
 10
3.314446002456318
 20
17.11687540107989
 30
0.0
 10
3.342899890738638
 20
17.05803088497008
 30
0.0
 10
3.377618515061518
 20
16.99124864343258
 30
0.0
 10
3.419637045188734
 20
16.91634759051521
 30
0.0
 10
3.470047465706595
 20
16.83344453961782
 30
0.0
 10
3.529873829893263
 20
16.74302706692462
 30
0.0
 10
3.599952106982177
 20
16.64588063324935
 30
0.0
 10
3.68103584207034
 20
16.54316431087649
 30
0.0
 10
3.773587156969033
 20
16.43615141825632
 30
0.0
 10
3.87792634876875
 20
16.32630743274397
 30
0.0
 10
3.994111223321418
 20
16.21509700569669
 30
0.0
 10
4.121993705831317
 20
16.1039601800732
 30
0.0
 10
4.261245248540668
 20
15.99423562538715
 30
0.0
 10
4.411399272233154
 20
15.88711430901379
 30
0.0
 10
4.571887869221728
 20
15.78360250607804
 30
0.0
 10
4.742112721535864
 20
15.6844919465499
 30
0.0
 10
4.921552133979239
 20
15.5903630772279
 30
0.0
 10
5.109797913061487
 20
15.50161577630883
 30
0.0
 10
5.306544628847619
 20
15.41852291078839
 30
0.0
 10
5.51153757197703
 20
15.34127551569513
 30
0.0
 10
5.72457116746495
 20
15.27000941138391
 30
0.0
 10
5.945485186127775
 20
15.2048202348448
 30
0.0
 10
6.1741574827265
 20
15.14577667759409
 30
0.0
 10
6.410504367615414
 20
15.09292881287789
 30
0.0
 10
6.65447833166894
 20
15.04631516346183
 30
0.0
 10
6.906070100237722
 20
15.0059670432305
 30
0.0
 10
7.135487881335401
 20
14.97583046626143
 30
0.0
 10
7.289635477799736
 20
14.95910253507291
 30
0.0
 10
7.357236075913926
 20
14.95244320314677
 30
0.0
 10
7.365772431210193
 20
14.95161195590891
 30
0.0
  0
SPLINE
  5
1A7
330
1F
100
AcDbEntity
  8
DEFAULT
 62
     7
100
AcDbSpline
210
0.0
220
0.0
230
1.0
 70
     8
 71
     3
 72
    10
 73
     6
 74
     0
 42
0.0000000001
 43
0.0000000001
 40
9.527744005918329
 40
9.527744005918329
 40
9.527744005918329
 40
9.527744005918329
 40
9.825483983521229
 40
10.16668779263813
 40
10.52774400591833
 40
10.52774400591833
 40
10.52774400591833
 40
10.52774400591833
 10
7.365772431210193
 20
14.95161195590891
 30
0.0
 10
7.937669850082048
 20
14.89592212889554
 30
0.0
 10
9.169459959425588
 20
14.82394520932586
 30
0.0
 10
11.09877354763513
 20
14.77604141282222
 30
0.0
 10
12.45416809460369
 20
14.77042867903421
 30
0.0
 10
13.15097093455496
 20
14.77218434385237
 30
0.0
  0
ARC
  5
1A8
330
1F
100
AcDbEntity
  8
DEFAULT
 62
     7
100
AcDbCircle
 10
-13.80148077827257
 20
17.9975574476731
 30
0.0
 40
17.42426664469
100
AcDbArc
 50
359.2354853770414
 51
1.806039812720833
  0
LINE
  5
1A9
330
1F
100
AcDbEntity
  8
DEFAULT
 62
     7
100
AcDbLine
 10
3.614130251477598
 20
18.54670275239736
 30
0.0
 11
3.533379099094219
 21
21.10764727475665
 31
0.0
  0
ARC
  5
1AA
330
1F
100
AcDbEntity
  8
DEFAULT
 62
     7
100
AcDbCircle
 10
64.0976883182587
 20
23.06107097402014
 30
0.0
 40
60.59580361166454
100
AcDbArc
 50
179.7344613454297
 51
181.8473610614396
  0
ARC
  5
1AB
330
1F
100
AcDbEntity
  8
DEFAULT
 62
     7
100
AcDbCircle
 10
30.14803676581022
 20
23.21962706365571
 30
0.0
 40
26.64578185597233
100
AcDbArc
 50
178.8594239389547
 51
179.7370728156037
  0
ARC
  5
1AC
330
1F
100
AcDbEntity
  8
DEFAULT
 62
     7
100
AcDbCircle
 10
32.63232192248361
 20
23.22881587389566
 30
0.0
 40
29.12945090305705
100
AcDbArc
 50
178.0455770807089
 51
178.9747610611546
  0
ARC
  5
1AD
330
1F
100
AcDbEntity
  8
DEFAULT
 62
     7
100
AcDbCircle
 10
193.5267134563328
 20
17.27711572601447
 30
0.0
 40
190.1337843858436
100
AcDbArc
 50
177.533789593929
 51
177.9066525660027
  0
LINE
  5
1AE
330
1F
100
AcDbEntity
  8
DEFAULT
 62
     7
100
AcDbLine
 10
3.569036318181868
 20
25.45861077034974
 30
0.0
 11
3.837951623212515
 21
31.70227729018708
 31
0.0
  0
SPLINE
  5
1AF
330
1F
100
AcDbEntity
  8
DEFAULT
 62
     7
100
AcDbSpline
210
0.0
220
0.0
230
1.0
 70
     8
 71
     3
 72
     8
 73
     4
 74
     0
 42
0.0000000001
 43
0.0000000001
 40
-9.0
 40
-9.0
 40
-9.0
 40
-9.0
 40
-8.0
 40
-8.0
 40
-8.0
 40
-8.0
 10
3.837951623212515
 20
31.70227729018708
 30
0.0
 10
3.850772775369216
 20
31.99995888122555
 30
0.0
 10
3.854654503270094
 20
32.2982110530647
 30
0.0
 10
3.878007109165276
 20
32.59525207276353
 30
0.0
  0
SPLINE
  5
1B0
330
1F
100
AcDbEntity
  8
DEFAULT
 62
     7
100
AcDbSpline
210
0.0
220
0.0
230
1.0
 70
     8
 71
     3
 72
    12
 73
     8
 74
     0
 42
0.0000000001
 43
0.0000000001
 40
-8.0
 40
-8.0
 40
-8.0
 40
-8.0
 40
-7.8648094453357
 40
-7.660474449257301
 40
-7.4377620972458
 40
-7.1938416961038
 40
-7.0
 40
-7.0
 40
-7.0
 40
-7.0
 10
3.878007109165276
 20
32.59525207276353
 30
0.0
 10
3.884230913325096
 20
32.67441776169506
 30
0.0
 10
3.91296866720207
 20
32.87240337004515
 30
0.0
 10
4.020163746123318
 20
33.18723414398302
 30
0.0
 10
4.236362843263355
 20
33.52110426418905
 30
0.0
 10
4.524081633327296
 20
33.78610553830263
 30
0.0
 10
4.743633614043955
 20
33.92147111356005
 30
0.0
 10
4.845275801105037
 20
33.97285706156109
 30
0.0
  0
LINE
  5
1B1
330
1F
100
AcDbEntity
  8
DEFAULT
 62
     7
100
AcDbLine
 10
4.845275801105037
 20
33.97285706156109
 30
0.0
 11
4.846389979969774
 21
33.97342034280152
 31
0.0
  0
ARC
  5
1B2
330
1F
100
AcDbEntity
  8
DEFAULT
 62
     7
100
AcDbCircle
 10
6.417262336194376
 20
30.9406752819656
 30
0.0
 40
3.415432997963109
100
AcDbArc
 50
94.45936255862873
 51
117.3828221958344
  0
SPLINE
  5
1B3
330
1F
100
AcDbEntity
  8
DEFAULT
 62
     7
100
AcDbSpline
210
0.0
220
0.0
230
1.0
 70
     8
 71
     3
 72
    10
 73
     6
 74
     0
 42
0.0000000001
 43
0.0000000001
 40
-5.0
 40
-5.0
 40
-5.0
 40
-5.0
 40
-4.701046295273223
 40
-4.36085473514363
 40
-4.00001512847126
 40
-4.00001512847126
 40
-4.00001512847126
 40
-4.00001512847126
 10
6.151705571619748
 20
34.34576884431656
 30
0.0
 10
6.847448027930615
 20
34.4000284739837
 30
0.0
 10
8.337962286408763
 20
34.47637600996082
 30
0.0
 10
10.67168533131569
 20
34.53143840692633
 30
0.0
 10
12.30816987756713
 20
34.54318265991563
 30
0.0
 10
13.15048892354937
 20
34.54259218875486
 30
0.0
  0
SPLINE
  5
1B4
330
1F
100
AcDbEntity
  8
DEFAULT
 62
     7
100
AcDbSpline
210
0.0
220
0.0
230
1.0
 70
     8
 71
     3
 72
    10
 73
     6
 74
     0
 42
0.0000000001
 43
0.0000000001
 40
-4.00001512847126
 40
-4.00001512847126
 40
-4.00001512847126
 40
-4.00001512847126
 40
-3.639175521798889
 40
-3.298983961669297
 40
-3.00003025694252
 40
-3.00003025694252
 40
-3.00003025694252
 40
-3.00003025694252
 10
13.15048892354937
 20
34.54259218875486
 30
0.0
 10
13.99280879738031
 20
34.54200171701376
 30
0.0
 10
15.62929251578304
 20
34.53143840692633
 30
0.0
 10
17.96301556068998
 20
34.47637600996082
 30
0.0
 10
19.45346962026256
 20
34.39924520151471
 30
0.0
 10
20.14927227547899
 20
34.34576884431656
 30
0.0
  0
ARC
  5
1B5
330
1F
100
AcDbEntity
  8
DEFAULT
 62
     7
100
AcDbCircle
 10
19.83496995844707
 20
30.76979147449169
 30
0.0
 40
3.589763236759665
100
AcDbArc
 50
63.18078834869799
 51
84.97702689683889
  0
LINE
  5
1B6
330
1F
100
AcDbEntity
  8
DEFAULT
 62
     7
100
AcDbLine
 10
21.45458786712896
 20
33.97342034280152
 30
0.0
 11
21.4557020459937
 21
33.97285706156109
 31
0.0
  0
SPLINE
  5
1B7
330
1F
100
AcDbEntity
  8
DEFAULT
 62
     7
100
AcDbSpline
210
0.0
220
0.0
230
1.0
 70
     8
 71
     3
 72
    12
 73
     8
 74
     0
 42
0.0000000001
 43
0.0000000001
 40
-1.00003025694252
 40
-1.00003025694252
 40
-1.00003025694252
 40
-1.00003025694252
 40
-0.8061885608387195
 40
-0.5622681596967194
 40
-0.3395558076852194
 40
-0.1352208116068194
 40
-0.0000302569425195
 40
-0.0000302569425195
 40
-0.0000302569425195
 40
-0.0000302569425195
 10
21.4557020459937
 20
33.97285706156109
 30
0.0
 10
21.55692243263514
 20
33.92063678591167
 30
0.0
 10
21.77689621377144
 20
33.78610553830263
 30
0.0
 10
22.06461500383539
 20
33.52110426418905
 30
0.0
 10
22.28081410097542
 20
33.18723414398302
 30
0.0
 10
22.38800917989667
 20
32.87240337004515
 30
0.0
 10
22.41674693377364
 20
32.67441776169506
 30
0.0
 10
22.42297073793346
 20
32.59525207276353
 30
0.0
  0
SPLINE
  5
1B8
330
1F
100
AcDbEntity
  8
DEFAULT
 62
     7
100
AcDbSpline
210
0.0
220
0.0
230
1.0
 70
     8
 71
     3
 72
     8
 73
     4
 74
     0
 42
0.0000000001
 43
0.0000000001
 40
-0.0000302569425195
 40
-0.0000302569425195
 40
-0.0000302569425195
 40
-0.0000302569425195
 40
0.9999697430574805
 40
0.9999697430574805
 40
0.9999697430574805
 40
0.9999697430574805
 10
22.42297073793346
 20
32.59525207276353
 30
0.0
 10
22.44632334382865
 20
32.2982110530647
 30
0.0
 10
22.45020504976564
 20
31.99995888027956
 30
0.0
 10
22.46302622388622
 20
31.70227729018708
 30
0.0
  0
LINE
  5
1B9
330
1F
100
AcDbEntity
  8
DEFAULT
 62
     7
100
AcDbLine
 10
22.46302622388622
 20
31.70227729018708
 30
0.0
 11
22.73194152891687
 21
25.45861077034974
 31
0.0
  0
ARC
  5
1BA
330
1F
100
AcDbEntity
  8
DEFAULT
 62
     7
100
AcDbCircle
 10
-57.61254165677474
 20
21.64088934568144
 30
0.0
 40
80.43513520379173
100
AcDbArc
 50
1.839085797086536
 51
2.720472042980369
  0
ARC
  5
1BB
330
1F
100
AcDbEntity
  8
DEFAULT
 62
     7
100
AcDbCircle
 10
-15.66029796908765
 20
22.98618548447712
 30
0.0
 40
38.46132711225282
100
AcDbArc
 50
1.137964590873289
 51
1.84169726726267
  0
ARC
  5
1BC
330
1F
100
AcDbEntity
  8
DEFAULT
 62
     7
100
AcDbCircle
 10
-1.687241302753819
 20
23.24608156557883
 30
0.0
 40
24.4858711716397
100
AcDbArc
 50
0.2242174058517538
 51
1.179285839595975
  0
ARC
  5
1BD
330
1F
100
AcDbEntity
  8
DEFAULT
 62
     7
100
AcDbCircle
 10
-40.26318266629619
 20
23.09512033026124
 30
0.0
 40
63.06210791627341
100
AcDbArc
 50
358.1939601872785
 51
0.2242174058503776
  0
LINE
  5
1BE
330
1F
100
AcDbEntity
  8
DEFAULT
 62
     7
100
AcDbLine
 10
22.76759874800452
 20
21.10764727475665
 30
0.0
 11
22.68684759562114
 21
18.54670275239736
 31
0.0
  0
ARC
  5
1BF
330
1F
100
AcDbEntity
  8
DEFAULT
 62
     7
100
AcDbCircle
 10
40.07008120261239
 20
17.99785173488142
 30
0.0
 40
17.39189604599389
100
AcDbArc
 50
178.1915675676053
 51
180.7669072426323
  0
SPLINE
  5
1C0
330
1F
100
AcDbEntity
  8
DEFAULT
 62
     7
100
AcDbSpline
210
0.0
220
0.0
230
1.0
 70
     8
 71
     3
 72
    14
 73
    10
 74
     0
 42
0.0000000001
 43
0.0000000001
 40
-1.068262612449791
 40
-1.068262612449791
 40
-1.068262612449791
 40
-1.068262612449791
 40
-1.0
 40
-0.9701342605367
 40
-0.8605829731305
 40
-0.724297038374
 40
-0.5651209772701
 40
-0.3863256411177
 40
-0.2032877124894413
 40
-0.2032877124894413
 40
-0.2032877124894413
 40
-0.2032877124894413
 10
23.07054439917937
 20
24.75276063276685
 30
0.0
 10
23.08935730599119
 20
24.70610979943469
 30
0.0
 10
23.09788960043244
 20
24.63256813494734
 30
0.0
 10
23.11244221799737
 20
24.47681373220286
 30
0.0
 10
23.12587213015637
 20
24.26914432345185
 30
0.0
 10
23.14108888886937
 20
23.96411914012585
 30
0.0
 10
23.15398086990037
 20
23.60663319234585
 30
0.0
 10
23.1650368109367
 20
23.21384547948156
 30
0.0
 10
23.17077268401348
 20
22.94100572066044
 30
0.0
 10
23.17323476204268
 20
22.80297887244045
 30
0.0
  0
ARC
  5
1C1
330
1F
100
AcDbEntity
  8
DEFAULT
 62
     7
100
AcDbCircle
 10
18.17403002889728
 20
22.71380468426082
 30
0.0
 40
4.999999999974094
100
AcDbArc
 50
359.999999999999
 51
1.0219151050984
  0
LINE
  5
1C2
330
1F
100
AcDbEntity
  8
DEFAULT
 62
     7
100
AcDbLine
 10
23.17403002887137
 20
22.71380468426073
 30
0.0
 11
23.17403002887137
 21
17.27756631431085
 31
0.0
  0
ARC
  5
1C3
330
1F
100
AcDbEntity
  8
DEFAULT
 62
     7
100
AcDbCircle
 10
22.81257401124968
 20
24.21588359471322
 30
0.0
 40
0.0596745791358666
100
AcDbArc
 50
240.2580440286247
 51
255.6526520929527
  0
ARC
  5
1C4
330
1F
100
AcDbEntity
  8
DEFAULT
 62
     7
100
AcDbCircle
 10
23.53984564029914
 20
27.05926460384189
 30
0.0
 40
2.994591883847167
100
AcDbArc
 50
255.652652092954
 51
262.2209527740403
  0
SPLINE
  5
1C5
330
1F
100
AcDbEntity
  8
DEFAULT
 62
     7
100
AcDbSpline
210
0.0
220
0.0
230
1.0
 70
     8
 71
     3
 72
    13
 73
     9
 74
     0
 42
0.0000000001
 43
0.0000000001
 40
0.1946477391319426
 40
0.1946477391319426
 40
0.1946477391319426
 40
0.1946477391319426
 40
0.331372965356
 40
0.5131147268091
 40
0.6803240394962
 40
0.8304849626221
 40
0.9614248565211
 40
1.0
 40
1.0
 40
1.0
 40
1.0
 10
22.77456392001052
 20
24.41850599644248
 30
0.0
 10
22.78319240635018
 20
24.44462904273035
 30
0.0
 10
22.8036238263115
 20
24.50536565364103
 30
0.0
 10
22.83620323185037
 20
24.59750052154585
 30
0.0
 10
22.87170880984137
 20
24.69146903266886
 30
0.0
 10
22.90683709759237
 20
24.77454747470986
 30
0.0
 10
22.93479163600837
 20
24.83260776078685
 30
0.0
 10
22.95213495584037
 20
24.86196951640286
 30
0.0
 10
22.95618899207937
 20
24.86858821321586
 30
0.0
  0
SPLINE
  5
1C6
330
1F
100
AcDbEntity
  8
DEFAULT
 62
     7
100
AcDbSpline
210
0.0
220
0.0
230
1.0
 70
     8
 71
     3
 72
     8
 73
     4
 74
     0
 42
0.0000000001
 43
0.0000000001
 40
1.0
 40
1.0
 40
1.0
 40
1.0
 40
2.0
 40
2.0
 40
2.0
 40
2.0
 10
22.95618899207937
 20
24.86858821321586
 30
0.0
 10
22.98247858441118
 20
24.91150910260202
 30
0.0
 10
23.01597117286234
 20
24.96436759638467
 30
0.0
 10
23.06562061507337
 20
24.97263064967785
 30
0.0
  0
ARC
  5
1C7
330
1F
100
AcDbEntity
  8
DEFAULT
 62
     7
100
AcDbCircle
 10
23.80980495490103
 20
20.50111920425315
 30
0.0
 40
4.533014994262516
100
AcDbArc
 50
80.50920826398388
 51
99.44901210822032
  0
ARC
  5
1C8
330
1F
100
AcDbEntity
  8
DEFAULT
 62
     7
100
AcDbCircle
 10
24.52082135891016
 20
24.85923475675696
 30
0.0
 40
0.1185858696820866
100
AcDbArc
 50
27.93968560060376
 51
72.11006480459896
  0
SPLINE
  5
1C9
330
1F
100
AcDbEntity
  8
DEFAULT
 62
     7
100
AcDbSpline
210
0.0
220
0.0
230
1.0
 70
     8
 71
     3
 72
    17
 73
    13
 74
     0
 42
0.0000000001
 43
0.0000000001
 40
4.0
 40
4.0
 40
4.0
 40
4.0
 40
4.008328522191795
 40
4.04000816381882
 40
4.08973443841195
 40
4.16490891059
 40
4.2645372936855
 40
4.3843910330504
 40
4.5213257398088
 40
4.6733629505883
 40
4.8402521009361
 40
5.0
 40
5.0
 40
5.0
 40
5.0
 10
24.62558501486937
 20
24.91479719801286
 30
0.0
 10
24.62896712646837
 20
24.90842018562886
 30
0.0
 10
24.64353955284437
 20
24.87684270491986
 30
0.0
 10
24.66046879449937
 20
24.80121384202485
 30
0.0
 10
24.67844241296037
 20
24.66777949479685
 30
0.0
 10
24.69463827625637
 20
24.47528651418185
 30
0.0
 10
24.70999150454037
 20
24.22236727142485
 30
0.0
 10
24.72361999482137
 20
23.91614797548285
 30
0.0
 10
24.73576223526737
 20
23.56478137581786
 30
0.0
 10
24.74611714524637
 20
23.17288940704886
 30
0.0
 10
24.75416146441137
 20
22.76132352740486
 30
0.0
 10
24.75813019788637
 20
22.48045354827686
 30
0.0
 10
24.75964855982037
 20
22.34308448037585
 30
0.0
  0
LINE
  5
1CA
330
1F
100
AcDbEntity
  8
DEFAULT
 62
     7
100
AcDbLine
 10
24.75964855982037
 20
22.34308448037585
 30
0.0
 11
24.77641859893878
 21
20.82586741191944
 31
0.0
  0
ARC
  5
1CB
330
1F
100
AcDbEntity
  8
DEFAULT
 62
     7
100
AcDbCircle
 10
19.77672400170286
 20
20.77060500041648
 30
0.0
 40
4.999999999975511
100
AcDbArc
 50
0.0000000000019134
 51
0.6332734825863218
  0
LINE
  5
1CC
330
1F
100
AcDbEntity
  8
DEFAULT
 62
     7
100
AcDbLine
 10
24.77672400167837
 20
20.77060500041665
 30
0.0
 11
24.77672400167837
 21
17.28270998966486
 31
0.0
  0
ARC
  5
1CD
330
1F
100
AcDbEntity
  8
DEFAULT
 62
     7
100
AcDbCircle
 10
22.75408352996955
 20
25.27538468192456
 30
0.0
 40
1.826675886840271
100
AcDbArc
 50
273.5934613023193
 51
282.7431257305123
  0
LINE
  5
1CE
330
1F
100
AcDbEntity
  8
DEFAULT
 62
     7
100
AcDbLine
 10
22.86857340497837
 20
23.45230024501986
 30
0.0
 11
22.79775626477237
 21
23.44785292191921
 31
0.0
  0
ARC
  5
1CF
330
1F
100
AcDbEntity
  8
DEFAULT
 62
     7
100
AcDbCircle
 10
3.546894317129201
 20
25.27538468192456
 30
0.0
 40
1.826675886840272
100
AcDbArc
 50
257.2568742694874
 51
266.4065386976803
  0
LINE
  5
1D0
330
1F
100
AcDbEntity
  8
DEFAULT
 62
     7
100
AcDbLine
 10
3.432404442120369
 20
23.45230024501986
 30
0.0
 11
3.503221582326364
 21
23.44785292191921
 31
0.0
  0
SPLINE
  5
1D1
330
1F
100
AcDbEntity
  8
DEFAULT
 62
     7
100
AcDbSpline
210
0.0
220
0.0
230
1.0
 70
     8
 71
     3
 72
    13
 73
     9
 74
     0
 42
0.0000000001
 43
0.0000000001
 40
0.1946477391319426
 40
0.1946477391319426
 40
0.1946477391319426
 40
0.1946477391319426
 40
0.331372965356
 40
0.5131147268091
 40
0.6803240394962
 40
0.8304849626221
 40
0.9614248565211
 40
1.0
 40
1.0
 40
1.0
 40
1.0
 10
3.52641392708822
 20
24.41850599644248
 30
0.0
 10
3.517785440748565
 20
24.44462904273035
 30
0.0
 10
3.497354020787239
 20
24.50536565364103
 30
0.0
 10
3.464774615248368
 20
24.59750052154585
 30
0.0
 10
3.429269037257368
 20
24.69146903266886
 30
0.0
 10
3.394140749506368
 20
24.77454747470986
 30
0.0
 10
3.366186211090368
 20
24.83260776078685
 30
0.0
 10
3.348842891258368
 20
24.86196951640286
 30
0.0
 10
3.344788855019369
 20
24.86858821321586
 30
0.0
  0
SPLINE
  5
1D2
330
1F
100
AcDbEntity
  8
DEFAULT
 62
     7
100
AcDbSpline
210
0.0
220
0.0
230
1.0
 70
     8
 71
     3
 72
     8
 73
     4
 74
     0
 42
0.0000000001
 43
0.0000000001
 40
1.0
 40
1.0
 40
1.0
 40
1.0
 40
2.0
 40
2.0
 40
2.0
 40
2.0
 10
3.344788855019369
 20
24.86858821321586
 30
0.0
 10
3.318499262687559
 20
24.91150910260202
 30
0.0
 10
3.2850066742364
 20
24.96436759638467
 30
0.0
 10
3.235357232025368
 20
24.97263064967785
 30
0.0
  0
ARC
  5
1D3
330
1F
100
AcDbEntity
  8
DEFAULT
 62
     7
100
AcDbCircle
 10
2.491172892197714
 20
20.50111920425317
 30
0.0
 40
4.533014994262503
100
AcDbArc
 50
80.55098789177966
 51
99.49079173601622
  0
ARC
  5
1D4
330
1F
100
AcDbEntity
  8
DEFAULT
 62
     7
100
AcDbCircle
 10
1.78015648818846
 20
24.85923475675711
 30
0.0
 40
0.1185858696819034
100
AcDbArc
 50
107.889935195367
 51
152.0603143994328
  0
SPLINE
  5
1D5
330
1F
100
AcDbEntity
  8
DEFAULT
 62
     7
100
AcDbSpline
210
0.0
220
0.0
230
1.0
 70
     8
 71
     3
 72
    17
 73
    13
 74
     0
 42
0.0000000001
 43
0.0000000001
 40
4.0
 40
4.0
 40
4.0
 40
4.0
 40
4.008328522191795
 40
4.04000816381882
 40
4.08973443841195
 40
4.16490891059
 40
4.2645372936855
 40
4.3843910330504
 40
4.5213257398088
 40
4.6733629505883
 40
4.8402521009361
 40
5.0
 40
5.0
 40
5.0
 40
5.0
 10
1.675392832229368
 20
24.91479719801286
 30
0.0
 10
1.672010720630368
 20
24.90842018562886
 30
0.0
 10
1.657438294254368
 20
24.87684270491986
 30
0.0
 10
1.640509052599368
 20
24.80121384202485
 30
0.0
 10
1.622535434138368
 20
24.66777949479685
 30
0.0
 10
1.606339570842368
 20
24.47528651418185
 30
0.0
 10
1.590986342558368
 20
24.22236727142485
 30
0.0
 10
1.577357852277369
 20
23.91614797548285
 30
0.0
 10
1.565215611831368
 20
23.56478137581786
 30
0.0
 10
1.554860701852369
 20
23.17288940704886
 30
0.0
 10
1.546816382687368
 20
22.76132352740486
 30
0.0
 10
1.542847649212368
 20
22.48045354827686
 30
0.0
 10
1.541329287278368
 20
22.34308448037585
 30
0.0
  0
LINE
  5
1D6
330
1F
100
AcDbEntity
  8
DEFAULT
 62
     7
100
AcDbLine
 10
1.541329287278368
 20
22.34308448037585
 30
0.0
 11
1.524559248159962
 21
20.82586741191944
 31
0.0
  0
ARC
  5
1D7
330
1F
100
AcDbEntity
  8
DEFAULT
 62
     7
100
AcDbCircle
 10
6.524253845396032
 20
20.77060500041648
 30
0.0
 40
4.999999999975667
100
AcDbArc
 50
179.3667265174137
 51
179.9999999999981
  0
LINE
  5
1D8
330
1F
100
AcDbEntity
  8
DEFAULT
 62
     7
100
AcDbLine
 10
1.524253845420366
 20
20.77060500041665
 30
0.0
 11
1.524253845420368
 21
17.28270998966486
 31
0.0
  0
ARC
  5
1D9
330
1F
100
AcDbEntity
  8
DEFAULT
 62
     7
100
AcDbCircle
 10
3.488403835849084
 20
24.21588359471313
 30
0.0
 40
0.0596745791357819
100
AcDbArc
 50
284.3473479070456
 51
299.741955971397
  0
ARC
  5
1DA
330
1F
100
AcDbEntity
  8
DEFAULT
 62
     7
100
AcDbCircle
 10
2.761132206799601
 20
27.05926460384189
 30
0.0
 40
2.994591883847167
100
AcDbArc
 50
277.7790472259597
 51
284.347347907046
  0
LINE
  5
1DB
330
1F
100
AcDbEntity
  8
DEFAULT
 62
     7
100
AcDbLine
 10
21.45260717221605
 20
33.9861493003741
 30
0.0
 11
21.45439976033239
 21
33.98522883698801
 31
0.0
  0
LINE
  5
1DC
330
1F
100
AcDbEntity
  8
DEFAULT
 62
     7
100
AcDbLine
 10
22.60245589549518
 20
16.96425413770862
 30
0.0
 11
22.60086351679776
 21
16.96093527117259
 31
0.0
  0
SPLINE
  5
1DD
330
1F
100
AcDbEntity
  8
DEFAULT
 62
     7
100
AcDbSpline
210
0.0
220
0.0
230
1.0
 70
     8
 71
     3
 72
    14
 73
    10
 74
     0
 42
0.0000000001
 43
0.0000000001
 40
-1.068262612449791
 40
-1.068262612449791
 40
-1.068262612449791
 40
-1.068262612449791
 40
-1.0
 40
-0.9701342605367
 40
-0.8605829731305
 40
-0.724297038374
 40
-0.5651209772701
 40
-0.3863256411177
 40
-0.2032877124894413
 40
-0.2032877124894413
 40
-0.2032877124894413
 40
-0.2032877124894413
 10
3.230433447919369
 20
24.75276063276685
 30
0.0
 10
3.211620541107544
 20
24.70610979943469
 30
0.0
 10
3.2030882466663
 20
24.63256813494734
 30
0.0
 10
3.188535629101367
 20
24.47681373220286
 30
0.0
 10
3.175105716942368
 20
24.26914432345185
 30
0.0
 10
3.159888958229369
 20
23.96411914012585
 30
0.0
 10
3.146996977198368
 20
23.60663319234585
 30
0.0
 10
3.135941036162039
 20
23.21384547948156
 30
0.0
 10
3.130205163085256
 20
22.94100572066044
 30
0.0
 10
3.127743085056054
 20
22.80297887244045
 30
0.0
  0
ARC
  5
1DE
330
1F
100
AcDbEntity
  8
DEFAULT
 62
     7
100
AcDbCircle
 10
8.126947818239017
 20
22.7138046842606
 30
0.0
 40
5.000000000011646
100
AcDbArc
 50
178.9780848949067
 51
179.9999999999984
  0
LINE
  5
1DF
330
1F
100
AcDbEntity
  8
DEFAULT
 62
     7
100
AcDbLine
 10
3.126947818227372
 20
22.71380468426073
 30
0.0
 11
3.126947818227368
 21
17.27756631431085
 31
0.0
  0
LINE
  5
1E0
330
1F
100
AcDbEntity
  8
DEFAULT
 62
     7
100
AcDbLine
 10
23.17402991052537
 20
17.27756631431085
 30
0.0
 11
24.77688426360137
 21
17.27587543177786
 31
0.0
  0
SPLINE
  5
1E1
330
1F
100
AcDbEntity
  8
DEFAULT
 62
     7
100
AcDbSpline
210
0.0
220
0.0
230
1.0
 70
     8
 71
     3
 72
    20
 73
    16
 74
     0
 42
0.0000000001
 43
0.0000000001
 40
0.0
 40
0.0
 40
0.0
 40
0.0
 40
0.1139816912484
 40
0.219128709193
 40
0.3289788567593
 40
0.4389139700462
 40
0.5363772642527001
 40
0.6230597855735
 40
0.7002649302914
 40
0.7690721799152001
 40
0.8302303287712
 40
0.8845594935342001
 40
0.9333418258067
 40
0.9781248791641
 40
1.0
 40
1.0
 40
1.0
 40
1.0
 10
24.77688426360137
 20
17.27587543177786
 30
0.0
 10
24.77683959143237
 20
17.22628956525385
 30
0.0
 10
24.77672547110237
 20
17.13096075629386
 30
0.0
 10
24.77688038957237
 20
16.98784571245486
 30
0.0
 10
24.77564126474137
 20
16.84648245586385
 30
0.0
 10
24.76982901534837
 20
16.70855917517286
 30
0.0
 10
24.75976568785037
 20
16.58098789108086
 30
0.0
 10
24.74590613401737
 20
16.46809755986686
 30
0.0
 10
24.72857127777037
 20
16.36831459908285
 30
0.0
 10
24.70810858055537
 20
16.28048498494185
 30
0.0
 10
24.68495874809637
 20
16.20366581554885
 30
0.0
 10
24.65979040674337
 20
16.13672075954285
 30
0.0
 10
24.63288187847237
 20
16.07821684406985
 30
0.0
 10
24.60857926043537
 20
16.03421514897286
 30
0.0
 10
24.59308511849284
 20
16.00968850328904
 30
0.0
 10
24.58787098587837
 20
16.00172500184986
 30
0.0
  0
ARC
  5
1E2
330
1F
100
AcDbEntity
  8
DEFAULT
 62
     7
100
AcDbCircle
 10
24.04463932076452
 20
16.35165652298008
 30
0.0
 40
0.6461831872332111
100
AcDbArc
 50
309.4925927524103
 51
327.2117310358569
  0
ARC
  5
1E3
330
1F
100
AcDbEntity
  8
DEFAULT
 62
     7
100
AcDbCircle
 10
23.91809731841582
 20
16.51618355758365
 30
0.0
 40
0.8536563636219926
100
AcDbArc
 50
294.750000018655
 51
309.0239472540682
  0
LINE
  5
1E4
330
1F
100
AcDbEntity
  8
DEFAULT
 62
     7
100
AcDbLine
 10
24.27548886780937
 20
15.74094135828435
 30
0.0
 11
23.32470466715337
 21
15.30262383774885
 31
0.0
  0
LINE
  5
1E5
330
1F
100
AcDbEntity
  8
DEFAULT
 62
     7
100
AcDbLine
 10
23.32470466715337
 20
15.30262383774885
 30
0.0
 11
22.78888785703737
 21
15.05560890251885
 31
0.0
  0
LINE
  5
1E6
330
1F
100
AcDbEntity
  8
DEFAULT
 62
     7
100
AcDbLine
 10
22.78888785703737
 20
15.05560890251885
 30
0.0
 11
22.19344869540737
 21
14.78110769076385
 31
0.0
  0
SPLINE
  5
1E7
330
1F
100
AcDbEntity
  8
DEFAULT
 62
     7
100
AcDbSpline
210
0.0
220
0.0
230
1.0
 70
     8
 71
     3
 72
    21
 73
    17
 74
     0
 42
0.0000000001
 43
0.0000000001
 40
6.002462833383612
 40
6.002462833383612
 40
6.002462833383612
 40
6.002462833383612
 40
6.088637961155732
 40
6.203940724708213
 40
6.311206733561912
 40
6.410994156508912
 40
6.503817787610712
 40
6.590156661048012
 40
6.670461274876413
 40
6.745152286906112
 40
6.814607223521513
 40
6.879150901930113
 40
6.939024083126713
 40
6.994377209219612
 40
7.002462833383612
 40
7.127909299242074
 40
7.127909299242074
 40
7.127909299242074
 40
7.127909299242074
 10
22.19344869540737
 20
14.78110769076385
 30
0.0
 10
22.00309773219737
 20
14.69335469646686
 30
0.0
 10
21.55805620181237
 20
14.48818774674886
 30
0.0
 10
20.87607637443937
 20
14.17379074542386
 30
0.0
 10
20.16402855229437
 20
13.84553220260285
 30
0.0
 10
19.50163458576197
 20
13.54016431371285
 30
0.0
 10
18.88546616286327
 20
13.25610694381986
 30
0.0
 10
18.31233310947157
 20
12.99188893759385
 30
0.0
 10
17.77925281215367
 20
12.74613581332386
 30
0.0
 10
17.28346794206537
 20
12.51757414687685
 30
0.0
 10
16.82249424539937
 20
12.30506833491986
 30
0.0
 10
16.39425928526437
 20
12.10763465778385
 30
0.0
 10
15.99715917545837
 20
11.92459224196485
 30
0.0
 10
15.72478142395137
 20
11.79901357719486
 30
0.0
 10
15.30754871036836
 20
11.6066846884897
 30
0.0
 10
15.01429946512839
 20
11.46677402391507
 30
0.0
 10
14.73434710064237
 20
11.34572936039785
 30
0.0
  0
SPLINE
  5
1E8
330
1F
100
AcDbEntity
  8
DEFAULT
 62
     7
100
AcDbSpline
210
0.0
220
0.0
230
1.0
 70
     8
 71
     3
 72
    15
 73
    11
 74
     0
 42
0.0000000001
 43
0.0000000001
 40
7.127909299242074
 40
7.127909299242074
 40
7.127909299242074
 40
7.127909299242074
 40
7.148569780262294
 40
7.364426690230173
 40
7.555910444137374
 40
7.724762803694474
 40
7.874695403635774
 40
8.009836636495574
 40
8.127909299242074
 40
8.211429337822178
 40
8.211429337822178
 40
8.211429337822178
 40
8.211429337822178
 10
14.73434710064237
 20
11.34572936039785
 30
0.0
 10
14.72655063711337
 20
11.34235835724086
 30
0.0
 10
14.63725188010837
 20
11.30387394510486
 30
0.0
 10
14.47466057441037
 20
11.23652678816485
 30
0.0
 10
14.25262096105837
 20
11.15382374050985
 30
0.0
 10
14.05309970452937
 20
11.08881623303985
 30
0.0
 10
13.87318764926737
 20
11.03900474485486
 30
0.0
 10
13.71151324064137
 20
11.00224641328886
 30
0.0
 10
13.57518331524265
 20
10.97790254765809
 30
0.0
 10
13.49303818611659
 20
10.96675076346635
 30
0.0
 10
13.45907603289837
 20
10.96270269210485
 30
0.0
  0
ARC
  5
1E9
330
1F
100
AcDbEntity
  8
DEFAULT
 62
     7
100
AcDbCircle
 10
13.14697923047268
 20
13.58110500677574
 30
0.0
 40
2.636936687817547
100
AcDbArc
 50
270.0762579058554
 51
276.7972217358871
  0
LINE
  5
1EA
330
1F
100
AcDbEntity
  8
DEFAULT
 62
     7
100
AcDbLine
 10
3.126947818227368
 20
17.27756631431085
 30
0.0
 11
1.524093465151369
 21
17.27587543177786
 31
0.0
  0
SPLINE
  5
1EB
330
1F
100
AcDbEntity
  8
DEFAULT
 62
     7
100
AcDbSpline
210
0.0
220
0.0
230
1.0
 70
     8
 71
     3
 72
    20
 73
    16
 74
     0
 42
0.0000000001
 43
0.0000000001
 40
0.0
 40
0.0
 40
0.0
 40
0.0
 40
0.1139816912484
 40
0.219128709193
 40
0.3289788567593
 40
0.4389139700462
 40
0.5363772642527001
 40
0.6230597855735
 40
0.7002649302914
 40
0.7690721799152001
 40
0.8302303287712
 40
0.8845594935342001
 40
0.9333418258067
 40
0.9781248791641
 40
1.0
 40
1.0
 40
1.0
 40
1.0
 10
1.524093465151369
 20
17.27587543177786
 30
0.0
 10
1.524138137320368
 20
17.22628956525385
 30
0.0
 10
1.524252257650368
 20
17.13096075629386
 30
0.0
 10
1.524097339180368
 20
16.98784571245486
 30
0.0
 10
1.525336464011368
 20
16.84648245586385
 30
0.0
 10
1.531148713404368
 20
16.70855917517286
 30
0.0
 10
1.541212040902368
 20
16.58098789108086
 30
0.0
 10
1.555071594735368
 20
16.46809755986686
 30
0.0
 10
1.572406450982369
 20
16.36831459908285
 30
0.0
 10
1.592869148197368
 20
16.28048498494185
 30
0.0
 10
1.616018980656368
 20
16.20366581554885
 30
0.0
 10
1.641187322009368
 20
16.13672075954285
 30
0.0
 10
1.668095850280368
 20
16.07821684406985
 30
0.0
 10
1.692398468317369
 20
16.03421514897286
 30
0.0
 10
1.707892610259894
 20
16.00968850328904
 30
0.0
 10
1.713106742874368
 20
16.00172500184986
 30
0.0
  0
ARC
  5
1EC
330
1F
100
AcDbEntity
  8
DEFAULT
 62
     7
100
AcDbCircle
 10
2.256338407988208
 20
16.35165652298008
 30
0.0
 40
0.6461831872332093
100
AcDbArc
 50
212.7882689641432
 51
230.5074072475899
  0
ARC
  5
1ED
330
1F
100
AcDbEntity
  8
DEFAULT
 62
     7
100
AcDbCircle
 10
2.382880410336925
 20
16.51618355758367
 30
0.0
 40
0.8536563636220161
100
AcDbArc
 50
230.9760527459322
 51
245.2499999813452
  0
LINE
  5
1EE
330
1F
100
AcDbEntity
  8
DEFAULT
 62
     7
100
AcDbLine
 10
2.025488860943368
 20
15.74094135828435
 30
0.0
 11
2.976273061599368
 21
15.30262383774885
 31
0.0
  0
LINE
  5
1EF
330
1F
100
AcDbEntity
  8
DEFAULT
 62
     7
100
AcDbLine
 10
2.976273061599368
 20
15.30262383774885
 30
0.0
 11
3.512089871715369
 21
15.05560890251885
 31
0.0
  0
LINE
  5
1F0
330
1F
100
AcDbEntity
  8
DEFAULT
 62
     7
100
AcDbLine
 10
3.512089871715369
 20
15.05560890251885
 30
0.0
 11
4.107529033345368
 21
14.78110769076385
 31
0.0
  0
SPLINE
  5
1F1
330
1F
100
AcDbEntity
  8
DEFAULT
 62
     7
100
AcDbSpline
210
0.0
220
0.0
230
1.0
 70
     8
 71
     3
 72
    21
 73
    17
 74
     0
 42
0.0000000001
 43
0.0000000001
 40
6.002462833383612
 40
6.002462833383612
 40
6.002462833383612
 40
6.002462833383612
 40
6.088637961155732
 40
6.203940724708213
 40
6.311206733561912
 40
6.410994156508912
 40
6.503817787610712
 40
6.590156661048012
 40
6.670461274876413
 40
6.745152286906112
 40
6.814607223521513
 40
6.879150901930113
 40
6.939024083126713
 40
6.994377209219612
 40
7.002462833383612
 40
7.127909299242074
 40
7.127909299242074
 40
7.127909299242074
 40
7.127909299242074
 10
4.107529033345368
 20
14.78110769076385
 30
0.0
 10
4.297879996555369
 20
14.69335469646686
 30
0.0
 10
4.742921526940368
 20
14.48818774674886
 30
0.0
 10
5.424901354313369
 20
14.17379074542386
 30
0.0
 10
6.136949176458368
 20
13.84553220260285
 30
0.0
 10
6.799343142990769
 20
13.54016431371285
 30
0.0
 10
7.415511565889468
 20
13.25610694381986
 30
0.0
 10
7.988644619281168
 20
12.99188893759385
 30
0.0
 10
8.521724916599068
 20
12.74613581332386
 30
0.0
 10
9.017509786687368
 20
12.51757414687685
 30
0.0
 10
9.478483483353367
 20
12.30506833491986
 30
0.0
 10
9.906718443488368
 20
12.10763465778385
 30
0.0
 10
10.30381855329437
 20
11.92459224196485
 30
0.0
 10
10.57619630480137
 20
11.79901357719486
 30
0.0
 10
10.99342901838437
 20
11.6066846884897
 30
0.0
 10
11.28667826362435
 20
11.46677402391509
 30
0.0
 10
11.56663062811037
 20
11.34572936039785
 30
0.0
  0
SPLINE
  5
1F2
330
1F
100
AcDbEntity
  8
DEFAULT
 62
     7
100
AcDbSpline
210
0.0
220
0.0
230
1.0
 70
     8
 71
     3
 72
    15
 73
    11
 74
     0
 42
0.0000000001
 43
0.0000000001
 40
7.127909299242074
 40
7.127909299242074
 40
7.127909299242074
 40
7.127909299242074
 40
7.148569780262294
 40
7.364426690230173
 40
7.555910444137374
 40
7.724762803694474
 40
7.874695403635774
 40
8.009836636495574
 40
8.127909299242074
 40
8.211429337822178
 40
8.211429337822178
 40
8.211429337822178
 40
8.211429337822178
 10
11.56663062811037
 20
11.34572936039785
 30
0.0
 10
11.57442709163937
 20
11.34235835724086
 30
0.0
 10
11.66372584864437
 20
11.30387394510486
 30
0.0
 10
11.82631715434237
 20
11.23652678816485
 30
0.0
 10
12.04835676769437
 20
11.15382374050985
 30
0.0
 10
12.24787802422337
 20
11.08881623303985
 30
0.0
 10
12.42779007948537
 20
11.03900474485486
 30
0.0
 10
12.58946448811137
 20
11.00224641328886
 30
0.0
 10
12.72579441351009
 20
10.97790254765809
 30
0.0
 10
12.80793954263614
 20
10.96675076346635
 30
0.0
 10
12.84190169585437
 20
10.96270269210485
 30
0.0
  0
ARC
  5
1F3
330
1F
100
AcDbEntity
  8
DEFAULT
 62
     7
100
AcDbCircle
 10
13.15399849828007
 20
13.58110500677589
 30
0.0
 40
2.636936687817698
100
AcDbArc
 50
263.2027782641131
 51
269.9237420941444
  0
SPLINE
  5
1F4
330
1F
100
AcDbEntity
  8
DEFAULT
 62
     7
100
AcDbSpline
210
0.0
220
0.0
230
1.0
 70
     8
 71
     3
 72
    34
 73
    30
 74
     0
 42
0.0000000001
 43
0.0000000001
 40
0.0
 40
0.0
 40
0.0
 40
0.0
 40
0.04369003968616
 40
0.08814244510908
 40
0.1306003930015
 40
0.1712801987524
 40
0.2103986497343
 40
0.2481747367409
 40
0.284862111876
 40
0.3207538652
 40
0.3540470664098
 40
0.3857819087156
 40
0.4150439917257
 40
0.4425656795699
 40
0.4706249160803
 40
0.5010860987822
 40
0.5336683704706
 40
0.5677709960257
 40
0.6033661982373
 40
0.6405723632946
 40
0.6795177439576
 40
0.7202555053028
 40
0.7626422017968
 40
0.8067150095662
 40
0.8530392628722
 40
0.9005549932775
 40
0.9494981519459
 40
1.0
 40
1.017413038927122
 40
1.017413038927122
 40
1.017413038927122
 40
1.017413038927122
 10
3.838392709016368
 20
16.19641069112386
 30
0.0
 10
3.819175228604369
 20
16.20471435674185
 30
0.0
 10
3.780418091189368
 20
16.22149704535185
 30
0.0
 10
3.723030645746369
 20
16.24645353783686
 30
0.0
 10
3.667003924528368
 20
16.27092184166886
 30
0.0
 10
3.613350615357369
 20
16.29443896345985
 30
0.0
 10
3.561792178526367
 20
16.31714552106785
 30
0.0
 10
3.511982840846368
 20
16.33908223056785
 30
0.0
 10
3.463713734342369
 20
16.36066194402785
 30
0.0
 10
3.417094758029367
 20
16.38072235709285
 30
0.0
 10
3.374596716318369
 20
16.40400054568486
 30
0.0
 10
3.337517208152369
 20
16.42995791440585
 30
0.0
 10
3.305217923190368
 20
16.45754194445185
 30
0.0
 10
3.276794807559368
 20
16.48667958439685
 30
0.0
 10
3.250583580638369
 20
16.51856541915786
 30
0.0
 10
3.225811374914367
 20
16.55457462374285
 30
0.0
 10
3.202760796131369
 20
16.59507941341985
 30
0.0
 10
3.182085575761367
 20
16.63957119343085
 30
0.0
 10
3.164126338372369
 20
16.68759562929986
 30
0.0
 10
3.14905040191137
 20
16.73901940910185
 30
0.0
 10
3.136905420381368
 20
16.79373693962485
 30
0.0
 10
3.127848886429369
 20
16.85155604552785
 30
0.0
 10
3.121861532795367
 20
16.91225138245186
 30
0.0
 10
3.119793195730369
 20
16.97587477755186
 30
0.0
 10
3.119971444013367
 20
17.04195959026785
 30
0.0
 10
3.121069997528369
 20
17.11037011899385
 30
0.0
 10
3.123319584911369
 20
17.18075412475486
 30
0.0
 10
3.125364412098524
 20
17.23671085476769
 30
0.0
 10
3.126634778005575
 20
17.26922850015193
 30
0.0
 10
3.126947818227368
 20
17.27756631431085
 30
0.0
  0
SPLINE
  5
1F5
330
1F
100
AcDbEntity
  8
DEFAULT
 62
     7
100
AcDbSpline
210
0.0
220
0.0
230
1.0
 70
     8
 71
     3
 72
    13
 73
     9
 74
     0
 42
0.0000000001
 43
0.0000000001
 40
-1.078114104842999
 40
-1.078114104842999
 40
-1.078114104842999
 40
-1.078114104842999
 40
-0.9155419190089986
 40
-0.7503262512493986
 40
-0.5874284233577987
 40
-0.4213186723556987
 40
-0.2425915328803987
 40
-0.0781141048429987
 40
-0.0781141048429987
 40
-0.0781141048429987
 40
-0.0781141048429987
 10
12.74001406993137
 20
4.138243513198855
 30
0.0
 10
12.73993415340737
 20
4.057343247038855
 30
0.0
 10
12.73829828499937
 20
3.894229381718855
 30
0.0
 10
12.73244503949337
 20
3.650119960458854
 30
0.0
 10
12.72521316605937
 20
3.404290082268854
 30
0.0
 10
12.71746497847637
 20
3.151748942758853
 30
0.0
 10
12.70961254632137
 20
2.898424687568855
 30
0.0
 10
12.70431205907537
 20
2.727720857258855
 30
0.0
 10
12.70177035789137
 20
2.645912765358854
 30
0.0
  0
LINE
  5
1F6
330
1F
100
AcDbEntity
  8
DEFAULT
 62
     7
100
AcDbLine
 10
12.70177035789137
 20
2.645912765358854
 30
0.0
 11
12.70048901011323
 21
2.604670853268846
 31
0.0
  0
LINE
  5
1F7
330
1F
100
AcDbEntity
  8
DEFAULT
 62
     7
100
AcDbLine
 10
12.70048901011323
 20
2.604670853268846
 30
0.0
 11
13.60048871864014
 21
2.604670853268853
 31
0.0
  0
LINE
  5
1F8
330
1F
100
AcDbEntity
  8
DEFAULT
 62
     7
100
AcDbLine
 10
13.60048871864014
 20
2.604670853268853
 30
0.0
 11
13.59920737080437
 21
2.645912767208855
 31
0.0
  0
SPLINE
  5
1F9
330
1F
100
AcDbEntity
  8
DEFAULT
 62
     7
100
AcDbSpline
210
0.0
220
0.0
230
1.0
 70
     8
 71
     3
 72
    13
 73
     9
 74
     0
 42
0.0000000001
 43
0.0000000001
 40
1.078113967830988
 40
1.078113967830988
 40
1.078113967830988
 40
1.078113967830988
 40
1.242591371280488
 40
1.421318535065888
 40
1.587428313176588
 40
1.750326150345288
 40
1.915541805413188
 40
2.078113967830988
 40
2.078113967830988
 40
2.078113967830988
 40
2.078113967830988
 10
13.59920737080437
 20
2.645912767208855
 30
0.0
 10
13.59666567059937
 20
2.727720827588854
 30
0.0
 10
13.59136518460737
 20
2.898424617518856
 30
0.0
 10
13.58351275388037
 20
3.151748826328853
 30
0.0
 10
13.57576456712337
 20
3.404289936488854
 30
0.0
 10
13.56853269470037
 20
3.650119768498854
 30
0.0
 10
13.56267944899737
 20
3.894229118808853
 30
0.0
 10
13.56104357769137
 20
4.057342927658855
 30
0.0
 10
13.56096365914637
 20
4.138243163088854
 30
0.0
  0
LINE
  5
1FA
330
1F
100
AcDbEntity
  8
DEFAULT
 62
     7
100
AcDbLine
 10
12.00018192354937
 20
10.12790585326886
 30
0.0
 11
12.02548863278288
 21
10.41717085326886
 31
0.0
  0
LINE
  5
1FB
330
1F
100
AcDbEntity
  8
DEFAULT
 62
     7
100
AcDbLine
 10
12.02548863278288
 20
10.41717085326886
 30
0.0
 11
14.27548921431586
 21
10.41717085326885
 31
0.0
  0
LINE
  5
1FC
330
1F
100
AcDbEntity
  8
DEFAULT
 62
     7
100
AcDbLine
 10
14.27548921431586
 20
10.41717085326885
 30
0.0
 11
14.30079592354937
 21
10.12790585326886
 31
0.0
  0
ARC
  5
1FD
330
1F
100
AcDbEntity
  8
DEFAULT
 62
     7
100
AcDbCircle
 10
17.66717842168663
 20
2.387445858262108
 30
0.0
 40
2.699008132913333
100
AcDbArc
 50
4.616344529552844
 51
14.81043808160482
  0
SPLINE
  5
1FE
330
1F
100
AcDbEntity
  8
DEFAULT
 62
     7
100
AcDbSpline
210
0.0
220
0.0
230
1.0
 70
     8
 71
     3
 72
    24
 73
    20
 74
     0
 42
0.0000000001
 43
0.0000000001
 40
0.0
 40
0.0
 40
0.0
 40
0.0
 40
0.03090555942686
 40
0.06222628735307
 40
0.09408341241259
 40
0.126592162945
 40
0.1939667523397
 40
0.2290519392834
 40
0.2651785068833
 40
0.3408479987208
 40
0.4215476699824
 40
0.5077327399581
 40
0.5997770772633
 40
0.6645530772701001
 40
0.7321473616817
 40
0.8026278489763
 40
0.876054448989
 40
0.9370521923427
 40
1.03195418696017
 40
1.03195418696017
 40
1.03195418696017
 40
1.03195418696017
 10
20.21474916198937
 20
3.590618583558853
 30
0.0
 10
20.22391509608937
 20
3.584633137138855
 30
0.0
 10
20.24198345907937
 20
3.571978358288854
 30
0.0
 10
20.26803313331937
 20
3.551161185848855
 30
0.0
 10
20.29318026723937
 20
3.528404882478854
 30
0.0
 10
20.32588809699937
 20
3.495091822928854
 30
0.0
 10
20.35640408879937
 20
3.458146808568853
 30
0.0
 10
20.38472747184937
 20
3.418036883578855
 30
0.0
 10
20.41266733548937
 20
3.374126002848854
 30
0.0
 10
20.44525831068937
 20
3.314130780788854
 30
0.0
 10
20.48014967176937
 20
3.235535111018855
 30
0.0
 10
20.51143191590937
 20
3.149248937178853
 30
0.0
 10
20.53576927249937
 20
3.066634749358854
 30
0.0
 10
20.55483006906937
 20
2.989449550818854
 30
0.0
 10
20.56974814716937
 20
2.919150122538855
 30
0.0
 10
20.58307321409937
 20
2.845417745728855
 30
0.0
 10
20.59398424463937
 20
2.773653556268854
 30
0.0
 10
20.60433704993439
 20
2.693080814415061
 30
0.0
 10
20.61003913447922
 20
2.63814688678763
 30
0.0
 10
20.61308023420177
 20
2.604670853268853
 30
0.0
  0
ARC
  5
1FF
330
1F
100
AcDbEntity
  8
DEFAULT
 62
     7
100
AcDbCircle
 10
8.633701517090662
 20
2.387459476645933
 30
0.0
 40
2.698909564169795
100
AcDbArc
 50
165.1884430498398
 51
175.383776556725
  0
SPLINE
  5
200
330
1F
100
AcDbEntity
  8
DEFAULT
 62
     7
100
AcDbSpline
210
0.0
220
0.0
230
1.0
 70
     8
 71
     3
 72
    24
 73
    20
 74
     0
 42
0.0000000001
 43
0.0000000001
 40
0.0
 40
0.0
 40
0.0
 40
0.0
 40
0.03090555704064
 40
0.06222628254857
 40
0.0940834051484
 40
0.1265921531708
 40
0.1939667373635
 40
0.2290519215983
 40
0.2651784864089
 40
0.3408479724039
 40
0.4215476374346
 40
0.507732700756
 40
0.5997770309545
 40
0.6645530259599
 40
0.7321473051525
 40
0.8026277870054001
 40
0.8760543813488
 40
0.9370521574133
 40
1.031954107284091
 40
1.031954107284091
 40
1.031954107284091
 40
1.031954107284091
 10
6.086228566763368
 20
3.590618583558853
 30
0.0
 10
6.077062632663369
 20
3.584633137138855
 30
0.0
 10
6.058994269678368
 20
3.571978358288854
 30
0.0
 10
6.032944595438369
 20
3.551161185848855
 30
0.0
 10
6.007797461509369
 20
3.528404882478854
 30
0.0
 10
5.975089631758368
 20
3.495091822928854
 30
0.0
 10
5.944573639952369
 20
3.458146808568853
 30
0.0
 10
5.916250256900368
 20
3.418036883578855
 30
0.0
 10
5.888310393261368
 20
3.374126002848854
 30
0.0
 10
5.855719418063369
 20
3.314130780788854
 30
0.0
 10
5.820828056983369
 20
3.235535111018855
 30
0.0
 10
5.789545812845368
 20
3.149248937178853
 30
0.0
 10
5.765208456253368
 20
3.066634749358854
 30
0.0
 10
5.746147659687368
 20
2.989449550818854
 30
0.0
 10
5.731229581583368
 20
2.919150122538855
 30
0.0
 10
5.717904514656369
 20
2.845417745728855
 30
0.0
 10
5.706993482125369
 20
2.773653543168855
 30
0.0
 10
5.696640677344559
 20
2.693080801230294
 30
0.0
 10
5.690938593066451
 20
2.638146873590066
 30
0.0
 10
5.687897494557093
 20
2.604670853268857
 30
0.0
  0
LINE
  5
201
330
1F
100
AcDbEntity
  8
DEFAULT
 62
     7
100
AcDbLine
 10
25.05974258040673
 20
2.604670853268853
 30
0.0
 11
25.07536792354937
 21
2.504670853268855
 31
0.0
  0
LINE
  5
202
330
1F
100
AcDbEntity
  8
DEFAULT
 62
     7
100
AcDbLine
 10
25.77849326669201
 20
2.604670853268853
 30
0.0
 11
25.76286792354937
 21
2.504670853268855
 31
0.0
  0
LINE
  5
203
330
1F
100
AcDbEntity
  8
DEFAULT
 62
     7
100
AcDbLine
 10
20.37354358040673
 20
2.604670853268853
 30
0.0
 11
20.38916892354937
 21
2.504670853268855
 31
0.0
  0
LINE
  5
204
330
1F
100
AcDbEntity
  8
DEFAULT
 62
     7
100
AcDbLine
 10
21.09229304662929
 20
2.604670853268857
 30
0.0
 11
21.07666892354937
 21
2.504670853268855
 31
0.0
  0
LINE
  5
205
330
1F
100
AcDbEntity
  8
DEFAULT
 62
     7
100
AcDbLine
 10
13.509864266692
 20
2.604670853268853
 30
0.0
 11
13.49423892354937
 21
2.504670853268855
 31
0.0
  0
LINE
  5
206
330
1F
100
AcDbEntity
  8
DEFAULT
 62
     7
100
AcDbLine
 10
12.79111358040673
 20
2.604670853268853
 30
0.0
 11
12.80673892354937
 21
2.504670853268855
 31
0.0
  0
LINE
  5
207
330
1F
100
AcDbEntity
  8
DEFAULT
 62
     7
100
AcDbLine
 10
24.66911792354937
 20
2.504670853268869
 30
0.0
 11
25.04411792354937
 21
2.504670853268869
 31
0.0
  0
LINE
  5
208
330
1F
100
AcDbEntity
  8
DEFAULT
 62
     7
100
AcDbLine
 10
25.04411792354937
 20
2.504670853268869
 30
0.0
 11
25.04411792354935
 21
0.0046708532688693
 31
0.0
  0
LINE
  5
209
330
1F
100
AcDbEntity
  8
DEFAULT
 62
     7
100
AcDbLine
 10
25.04411792354935
 20
0.0046708532688694
 30
0.0
 11
24.66911792354937
 21
0.0046708532688694
 31
0.0
  0
LINE
  5
20A
330
1F
100
AcDbEntity
  8
DEFAULT
 62
     7
100
AcDbLine
 10
26.16911792354937
 20
0.0046708532688694
 30
0.0
 11
25.79411792354937
 21
0.0046708532688694
 31
0.0
  0
LINE
  5
20B
330
1F
100
AcDbEntity
  8
DEFAULT
 62
     7
100
AcDbLine
 10
25.79411792354937
 20
0.0046708532688694
 30
0.0
 11
25.79411792354937
 21
2.504670853268869
 31
0.0
  0
LINE
  5
20C
330
1F
100
AcDbEntity
  8
DEFAULT
 62
     7
100
AcDbLine
 10
25.79411792354937
 20
2.504670853268869
 30
0.0
 11
26.16911792354937
 21
2.504670853268869
 31
0.0
  0
ARC
  5
20D
330
1F
100
AcDbEntity
  8
DEFAULT
 62
     7
100
AcDbCircle
 10
26.16911792354937
 20
0.1296708532688694
 30
0.0
 40
0.125
100
AcDbArc
 50
270.0
 51
360.0
  0
ARC
  5
20E
330
1F
100
AcDbEntity
  8
DEFAULT
 62
     7
100
AcDbCircle
 10
26.16911792354937
 20
2.379670853268869
 30
0.0
 40
0.125
100
AcDbArc
 50
0.0
 51
90.0
  0
ARC
  5
20F
330
1F
100
AcDbEntity
  8
DEFAULT
 62
     7
100
AcDbCircle
 10
24.66911792354937
 20
0.1296708532688694
 30
0.0
 40
0.125
100
AcDbArc
 50
180.0
 51
270.0
  0
ARC
  5
210
330
1F
100
AcDbEntity
  8
DEFAULT
 62
     7
100
AcDbCircle
 10
24.66911792354937
 20
2.379670853268869
 30
0.0
 40
0.125
100
AcDbArc
 50
90.0
 51
180.0
  0
LINE
  5
211
330
1F
100
AcDbEntity
  8
DEFAULT
 62
     7
100
AcDbLine
 10
26.29411792354937
 20
2.379670853268869
 30
0.0
 11
26.29411792354937
 21
0.1296708532688693
 31
0.0
  0
LINE
  5
212
330
1F
100
AcDbEntity
  8
DEFAULT
 62
     7
100
AcDbLine
 10
25.77849292354937
 20
2.504670853268869
 30
0.0
 11
25.77849292354937
 21
0.8171678532688698
 31
0.0
  0
LINE
  5
213
330
1F
100
AcDbEntity
  8
DEFAULT
 62
     7
100
AcDbLine
 10
25.05974292354937
 20
2.504670853268869
 30
0.0
 11
25.05974292354937
 21
0.8171678532688698
 31
0.0
  0
LINE
  5
214
330
1F
100
AcDbEntity
  8
DEFAULT
 62
     7
100
AcDbLine
 10
24.54411792354937
 20
2.379670853268869
 30
0.0
 11
24.54411792354937
 21
0.1296708532688693
 31
0.0
  0
LINE
  5
215
330
1F
100
AcDbEntity
  8
DEFAULT
 62
     7
100
AcDbLine
 10
25.05974292354937
 20
2.504670853268869
 30
0.0
 11
25.77849292354937
 21
2.504670853268869
 31
0.0
  0
LINE
  5
216
330
1F
100
AcDbEntity
  8
DEFAULT
 62
     7
100
AcDbLine
 10
25.05974292354937
 20
0.8171708532688694
 30
0.0
 11
25.77849292354937
 21
0.8171708532688694
 31
0.0
  0
LINE
  5
217
330
1F
100
AcDbEntity
  8
DEFAULT
 62
     7
100
AcDbLine
 10
19.98291892354937
 20
2.504670853268869
 30
0.0
 11
20.35791892354937
 21
2.504670853268869
 31
0.0
  0
LINE
  5
218
330
1F
100
AcDbEntity
  8
DEFAULT
 62
     7
100
AcDbLine
 10
20.35791892354937
 20
2.504670853268869
 30
0.0
 11
20.35791892354935
 21
0.0046708532688693
 31
0.0
  0
LINE
  5
219
330
1F
100
AcDbEntity
  8
DEFAULT
 62
     7
100
AcDbLine
 10
20.35791892354935
 20
0.0046708532688694
 30
0.0
 11
19.98291892354937
 21
0.0046708532688694
 31
0.0
  0
LINE
  5
21A
330
1F
100
AcDbEntity
  8
DEFAULT
 62
     7
100
AcDbLine
 10
21.48291892354937
 20
0.0046708532688694
 30
0.0
 11
21.10791892354937
 21
0.0046708532688694
 31
0.0
  0
LINE
  5
21B
330
1F
100
AcDbEntity
  8
DEFAULT
 62
     7
100
AcDbLine
 10
21.10791892354937
 20
0.0046708532688694
 30
0.0
 11
21.10791892354937
 21
2.504670853268869
 31
0.0
  0
LINE
  5
21C
330
1F
100
AcDbEntity
  8
DEFAULT
 62
     7
100
AcDbLine
 10
21.10791892354937
 20
2.504670853268869
 30
0.0
 11
21.48291892354937
 21
2.504670853268869
 31
0.0
  0
ARC
  5
21D
330
1F
100
AcDbEntity
  8
DEFAULT
 62
     7
100
AcDbCircle
 10
21.48291892354937
 20
0.1296708532688694
 30
0.0
 40
0.125
100
AcDbArc
 50
270.0
 51
360.0
  0
ARC
  5
21E
330
1F
100
AcDbEntity
  8
DEFAULT
 62
     7
100
AcDbCircle
 10
21.48291892354937
 20
2.379670853268869
 30
0.0
 40
0.125
100
AcDbArc
 50
0.0
 51
90.0
  0
ARC
  5
21F
330
1F
100
AcDbEntity
  8
DEFAULT
 62
     7
100
AcDbCircle
 10
19.98291892354937
 20
0.1296708532688694
 30
0.0
 40
0.125
100
AcDbArc
 50
180.0
 51
270.0
  0
ARC
  5
220
330
1F
100
AcDbEntity
  8
DEFAULT
 62
     7
100
AcDbCircle
 10
19.98291892354937
 20
2.379670853268869
 30
0.0
 40
0.125
100
AcDbArc
 50
90.0
 51
180.0
  0
LINE
  5
221
330
1F
100
AcDbEntity
  8
DEFAULT
 62
     7
100
AcDbLine
 10
21.60791892354937
 20
2.379670853268869
 30
0.0
 11
21.60791892354937
 21
0.1296708532688693
 31
0.0
  0
LINE
  5
222
330
1F
100
AcDbEntity
  8
DEFAULT
 62
     7
100
AcDbLine
 10
21.09229392354937
 20
2.504670853268869
 30
0.0
 11
21.09229392354937
 21
0.8171678532688698
 31
0.0
  0
LINE
  5
223
330
1F
100
AcDbEntity
  8
DEFAULT
 62
     7
100
AcDbLine
 10
20.37354392354937
 20
2.504670853268869
 30
0.0
 11
20.37354392354937
 21
0.8171678532688698
 31
0.0
  0
LINE
  5
224
330
1F
100
AcDbEntity
  8
DEFAULT
 62
     7
100
AcDbLine
 10
19.85791892354937
 20
2.379670853268869
 30
0.0
 11
19.85791892354937
 21
0.1296708532688693
 31
0.0
  0
LINE
  5
225
330
1F
100
AcDbEntity
  8
DEFAULT
 62
     7
100
AcDbLine
 10
20.37354392354937
 20
2.504670853268869
 30
0.0
 11
21.09229392354937
 21
2.504670853268869
 31
0.0
  0
LINE
  5
226
330
1F
100
AcDbEntity
  8
DEFAULT
 62
     7
100
AcDbLine
 10
20.37354392354937
 20
0.8171708532688694
 30
0.0
 11
21.09229392354937
 21
0.8171708532688694
 31
0.0
  0
LINE
  5
227
330
1F
100
AcDbEntity
  8
DEFAULT
 62
     7
100
AcDbLine
 10
12.40048892354936
 20
2.504670853268869
 30
0.0
 11
12.77548892354936
 21
2.504670853268869
 31
0.0
  0
LINE
  5
228
330
1F
100
AcDbEntity
  8
DEFAULT
 62
     7
100
AcDbLine
 10
12.77548892354936
 20
2.504670853268869
 30
0.0
 11
12.77548892354935
 21
0.0046708532688693
 31
0.0
  0
LINE
  5
229
330
1F
100
AcDbEntity
  8
DEFAULT
 62
     7
100
AcDbLine
 10
12.77548892354935
 20
0.0046708532688694
 30
0.0
 11
12.40048892354936
 21
0.0046708532688694
 31
0.0
  0
LINE
  5
22A
330
1F
100
AcDbEntity
  8
DEFAULT
 62
     7
100
AcDbLine
 10
13.90048892354936
 20
0.0046708532688694
 30
0.0
 11
13.52548892354936
 21
0.0046708532688694
 31
0.0
  0
LINE
  5
22B
330
1F
100
AcDbEntity
  8
DEFAULT
 62
     7
100
AcDbLine
 10
13.52548892354936
 20
0.0046708532688694
 30
0.0
 11
13.52548892354936
 21
2.504670853268869
 31
0.0
  0
LINE
  5
22C
330
1F
100
AcDbEntity
  8
DEFAULT
 62
     7
100
AcDbLine
 10
13.52548892354936
 20
2.504670853268869
 30
0.0
 11
13.90048892354936
 21
2.504670853268869
 31
0.0
  0
ARC
  5
22D
330
1F
100
AcDbEntity
  8
DEFAULT
 62
     7
100
AcDbCircle
 10
13.90048892354936
 20
0.1296708532688694
 30
0.0
 40
0.125
100
AcDbArc
 50
270.0
 51
360.0
  0
ARC
  5
22E
330
1F
100
AcDbEntity
  8
DEFAULT
 62
     7
100
AcDbCircle
 10
13.90048892354936
 20
2.379670853268869
 30
0.0
 40
0.125
100
AcDbArc
 50
0.0
 51
90.0
  0
ARC
  5
22F
330
1F
100
AcDbEntity
  8
DEFAULT
 62
     7
100
AcDbCircle
 10
12.40048892354936
 20
0.1296708532688694
 30
0.0
 40
0.125
100
AcDbArc
 50
180.0
 51
270.0
  0
ARC
  5
230
330
1F
100
AcDbEntity
  8
DEFAULT
 62
     7
100
AcDbCircle
 10
12.40048892354936
 20
2.379670853268869
 30
0.0
 40
0.125
100
AcDbArc
 50
90.0
 51
180.0
  0
LINE
  5
231
330
1F
100
AcDbEntity
  8
DEFAULT
 62
     7
100
AcDbLine
 10
14.02548892354936
 20
2.379670853268869
 30
0.0
 11
14.02548892354936
 21
0.1296708532688693
 31
0.0
  0
LINE
  5
232
330
1F
100
AcDbEntity
  8
DEFAULT
 62
     7
100
AcDbLine
 10
13.50986392354936
 20
2.504670853268869
 30
0.0
 11
13.50986392354936
 21
0.8171678532688698
 31
0.0
  0
LINE
  5
233
330
1F
100
AcDbEntity
  8
DEFAULT
 62
     7
100
AcDbLine
 10
12.79111392354936
 20
2.504670853268869
 30
0.0
 11
12.79111392354936
 21
0.8171678532688698
 31
0.0
  0
LINE
  5
234
330
1F
100
AcDbEntity
  8
DEFAULT
 62
     7
100
AcDbLine
 10
12.27548892354936
 20
2.379670853268869
 30
0.0
 11
12.27548892354936
 21
0.1296708532688693
 31
0.0
  0
LINE
  5
235
330
1F
100
AcDbEntity
  8
DEFAULT
 62
     7
100
AcDbLine
 10
12.79111392354936
 20
2.504670853268869
 30
0.0
 11
13.50986392354936
 21
2.504670853268869
 31
0.0
  0
LINE
  5
236
330
1F
100
AcDbEntity
  8
DEFAULT
 62
     7
100
AcDbLine
 10
12.79111392354936
 20
0.8171708532688694
 30
0.0
 11
13.50986392354936
 21
0.8171708532688694
 31
0.0
  0
LINE
  5
237
330
1F
100
AcDbEntity
  8
DEFAULT
 62
     7
100
AcDbLine
 10
5.208683923549365
 20
0.8171708532688694
 30
0.0
 11
5.927433923549365
 21
0.8171708532688694
 31
0.0
  0
LINE
  5
238
330
1F
100
AcDbEntity
  8
DEFAULT
 62
     7
100
AcDbLine
 10
5.208683923549365
 20
2.504670853268869
 30
0.0
 11
5.927433923549365
 21
2.504670853268869
 31
0.0
  0
LINE
  5
239
330
1F
100
AcDbEntity
  8
DEFAULT
 62
     7
100
AcDbLine
 10
4.693058923549365
 20
2.379670853268869
 30
0.0
 11
4.693058923549365
 21
0.1296708532688693
 31
0.0
  0
LINE
  5
23A
330
1F
100
AcDbEntity
  8
DEFAULT
 62
     7
100
AcDbLine
 10
5.208683923549365
 20
2.504670853268869
 30
0.0
 11
5.208683923549365
 21
0.8171678532688698
 31
0.0
  0
LINE
  5
23B
330
1F
100
AcDbEntity
  8
DEFAULT
 62
     7
100
AcDbLine
 10
5.927433923549365
 20
2.504670853268869
 30
0.0
 11
5.927433923549365
 21
0.8171678532688698
 31
0.0
  0
LINE
  5
23C
330
1F
100
AcDbEntity
  8
DEFAULT
 62
     7
100
AcDbLine
 10
6.443058923549365
 20
2.379670853268869
 30
0.0
 11
6.443058923549365
 21
0.1296708532688693
 31
0.0
  0
ARC
  5
23D
330
1F
100
AcDbEntity
  8
DEFAULT
 62
     7
100
AcDbCircle
 10
4.818058923549365
 20
2.379670853268869
 30
0.0
 40
0.125
100
AcDbArc
 50
90.0
 51
180.0
  0
ARC
  5
23E
330
1F
100
AcDbEntity
  8
DEFAULT
 62
     7
100
AcDbCircle
 10
4.818058923549365
 20
0.1296708532688694
 30
0.0
 40
0.125
100
AcDbArc
 50
180.0
 51
270.0
  0
ARC
  5
23F
330
1F
100
AcDbEntity
  8
DEFAULT
 62
     7
100
AcDbCircle
 10
6.318058923549365
 20
2.379670853268869
 30
0.0
 40
0.125
100
AcDbArc
 50
0.0
 51
90.0
  0
ARC
  5
240
330
1F
100
AcDbEntity
  8
DEFAULT
 62
     7
100
AcDbCircle
 10
6.318058923549365
 20
0.1296708532688694
 30
0.0
 40
0.125
100
AcDbArc
 50
270.0
 51
360.0
  0
LINE
  5
241
330
1F
100
AcDbEntity
  8
DEFAULT
 62
     7
100
AcDbLine
 10
6.318058923549365
 20
0.0046708532688694
 30
0.0
 11
5.943058923549365
 21
0.0046708532688694
 31
0.0
  0
LINE
  5
242
330
1F
100
AcDbEntity
  8
DEFAULT
 62
     7
100
AcDbLine
 10
5.943058923549365
 20
0.0046708532688694
 30
0.0
 11
5.943058923549365
 21
2.504670853268869
 31
0.0
  0
LINE
  5
243
330
1F
100
AcDbEntity
  8
DEFAULT
 62
     7
100
AcDbLine
 10
5.943058923549365
 20
2.504670853268869
 30
0.0
 11
6.318058923549365
 21
2.504670853268869
 31
0.0
  0
LINE
  5
244
330
1F
100
AcDbEntity
  8
DEFAULT
 62
     7
100
AcDbLine
 10
4.818058923549365
 20
2.504670853268869
 30
0.0
 11
5.193058923549365
 21
2.504670853268869
 31
0.0
  0
LINE
  5
245
330
1F
100
AcDbEntity
  8
DEFAULT
 62
     7
100
AcDbLine
 10
5.193058923549365
 20
2.504670853268869
 30
0.0
 11
5.193058923549351
 21
0.0046708532688693
 31
0.0
  0
LINE
  5
246
330
1F
100
AcDbEntity
  8
DEFAULT
 62
     7
100
AcDbLine
 10
5.193058923549351
 20
0.0046708532688694
 30
0.0
 11
4.818058923549365
 21
0.0046708532688694
 31
0.0
  0
LINE
  5
247
330
1F
100
AcDbEntity
  8
DEFAULT
 62
     7
100
AcDbLine
 10
5.208683580406729
 20
2.604670853268867
 30
0.0
 11
5.224308923549368
 21
2.504670853268855
 31
0.0
  0
LINE
  5
248
330
1F
100
AcDbEntity
  8
DEFAULT
 62
     7
100
AcDbLine
 10
5.927434266692006
 20
2.604670853268849
 30
0.0
 11
5.911808923549368
 21
2.504670853268855
 31
0.0
  0
LINE
  5
249
330
1F
100
AcDbEntity
  8
DEFAULT
 62
     7
100
AcDbLine
 10
0.5224845804067317
 20
2.604670853268853
 30
0.0
 11
0.5381099235493678
 21
2.504670853268855
 31
0.0
  0
LINE
  5
24A
330
1F
100
AcDbEntity
  8
DEFAULT
 62
     7
100
AcDbLine
 10
1.241235266692006
 20
2.604670853268853
 30
0.0
 11
1.225609923549368
 21
2.504670853268855
 31
0.0
  0
LINE
  5
24B
330
1F
100
AcDbEntity
  8
DEFAULT
 62
     7
100
AcDbLine
 10
0.1318599235493678
 20
2.504670853268855
 30
0.0
 11
0.5068599235493678
 21
2.504670853268855
 31
0.0
  0
LINE
  5
24C
330
1F
100
AcDbEntity
  8
DEFAULT
 62
     7
100
AcDbLine
 10
0.5068599235493678
 20
2.504670853268855
 30
0.0
 11
0.5068599235493536
 21
0.0046708532688551
 31
0.0
  0
LINE
  5
24D
330
1F
100
AcDbEntity
  8
DEFAULT
 62
     7
100
AcDbLine
 10
0.5068599235493536
 20
0.0046708532688552
 30
0.0
 11
0.1318599235493678
 21
0.0046708532688552
 31
0.0
  0
LINE
  5
24E
330
1F
100
AcDbEntity
  8
DEFAULT
 62
     7
100
AcDbLine
 10
1.631859923549368
 20
0.0046708532688552
 30
0.0
 11
1.256859923549368
 21
0.0046708532688552
 31
0.0
  0
LINE
  5
24F
330
1F
100
AcDbEntity
  8
DEFAULT
 62
     7
100
AcDbLine
 10
1.256859923549368
 20
0.0046708532688552
 30
0.0
 11
1.256859923549368
 21
2.504670853268855
 31
0.0
  0
LINE
  5
250
330
1F
100
AcDbEntity
  8
DEFAULT
 62
     7
100
AcDbLine
 10
1.256859923549368
 20
2.504670853268855
 30
0.0
 11
1.631859923549368
 21
2.504670853268855
 31
0.0
  0
LINE
  5
251
330
1F
100
AcDbEntity
  8
IGES_LEVEL_0
 62
     7
100
AcDbLine
 10
1.756859923549368
 20
51.45833000598007
 30
0.0
 11
1.756859923549368
 21
51.45341800598007
 31
0.0
  0
ARC
  5
252
330
1F
100
AcDbEntity
  8
DEFAULT
 62
     7
100
AcDbCircle
 10
3.627425831682251
 20
16.75873886814053
 30
0.0
 40
0.0721144465132749
100
AcDbArc
 50
297.661987000678
 51
307.3008597827383
  0
LINE
  5
253
330
1F
100
AcDbEntity
  8
DEFAULT
 62
     7
100
AcDbLine
 10
3.662127890145368
 20
16.77339202039185
 30
0.0
 11
3.657553714150368
 21
16.77092216124985
 31
0.0
  0
SPLINE
  5
254
330
1F
100
AcDbEntity
  8
DEFAULT
 62
     7
100
AcDbSpline
210
0.0
220
0.0
230
1.0
 70
     8
 71
     3
 72
    19
 73
    15
 74
     0
 42
0.0000000001
 43
0.0000000001
 40
0.0
 40
0.0
 40
0.0
 40
0.0
 40
0.06429272841603
 40
0.09703026113232
 40
0.1298169792638
 40
0.1791762905485
 40
0.2285656728835
 40
0.327417366962
 40
0.426386494751
 40
0.52537759977
 40
0.6243947856088
 40
0.7564540631208
 40
0.888542759235
 40
1.0
 40
1.0
 40
1.0
 40
1.0
 10
24.50312187560937
 20
4.561057112368854
 30
0.0
 10
24.53240615838937
 20
4.528303798228855
 30
0.0
 10
24.57413484693937
 20
4.476620191428854
 30
0.0
 10
24.62560560400937
 20
4.404355904948854
 30
0.0
 10
24.66885329664937
 20
4.338816309388854
 30
0.0
 10
24.71544335136937
 20
4.261910327378855
 30
0.0
 10
24.78039361862937
 20
4.143486958518855
 30
0.0
 10
24.85273499888937
 20
3.990631097358854
 30
0.0
 10
24.92645289826937
 20
3.801524695748854
 30
0.0
 10
24.98839619954937
 20
3.608135147628854
 30
0.0
 10
25.04435601040937
 20
3.389510761478854
 30
0.0
 10
25.08978778162937
 20
3.145269792188854
 30
0.0
 10
25.11680498003937
 20
2.889758549518855
 30
0.0
 10
25.12184664628937
 20
2.723235387668854
 30
0.0
 10
25.12119121859937
 20
2.647072815038853
 30
0.0
  0
SPLINE
  5
255
330
1F
100
AcDbEntity
  8
DEFAULT
 62
     7
100
AcDbSpline
210
0.0
220
0.0
230
1.0
 70
     8
 71
     3
 72
    11
 73
     7
 74
     0
 42
0.0000000001
 43
0.0000000001
 40
0.0
 40
0.0
 40
0.0
 40
0.0
 40
0.4353349743954
 40
0.7365926587351001
 40
0.9414361048707
 40
1.0
 40
1.0
 40
1.0
 40
1.0
 10
11.82742342640837
 20
7.349835825078854
 30
0.0
 10
11.85670771627037
 20
7.374781804928855
 30
0.0
 10
11.90413619145937
 20
7.419733432798854
 30
0.0
 10
11.95391693887937
 20
7.487208524328855
 30
0.0
 10
11.97329197362137
 20
7.533683641718854
 30
0.0
 10
11.97500769701137
 20
7.557788762238854
 30
0.0
 10
11.97482591768937
 20
7.563074043268854
 30
0.0
  0
ARC
  5
256
330
1F
100
AcDbEntity
  8
DEFAULT
 62
     7
100
AcDbCircle
 10
10.96276545017948
 20
8.379306052272222
 30
0.0
 40
1.344415892782652
100
AcDbArc
 50
302.789687493404
 51
310.0270947138178
  0
SPLINE
  5
257
330
1F
100
AcDbEntity
  8
DEFAULT
 62
     7
100
AcDbSpline
210
0.0
220
0.0
230
1.0
 70
     8
 71
     3
 72
    11
 73
     7
 74
     0
 42
0.0000000001
 43
0.0000000001
 40
0.0
 40
0.0
 40
0.0
 40
0.0
 40
0.4353349727605
 40
0.7365926565065
 40
0.9414361026168
 40
1.0
 40
1.0
 40
1.0
 40
1.0
 10
14.47355430234537
 20
7.349835825078854
 30
0.0
 10
14.44427001259337
 20
7.374781804838854
 30
0.0
 10
14.39684153754637
 20
7.419733432558854
 30
0.0
 10
14.34706079016237
 20
7.487208523848855
 30
0.0
 10
14.32768575524937
 20
7.533683641338854
 30
0.0
 10
14.32597003172537
 20
7.557788762018854
 30
0.0
 10
14.32615181105337
 20
7.563074043248854
 30
0.0
  0
ARC
  5
258
330
1F
100
AcDbEntity
  8
DEFAULT
 62
     7
100
AcDbCircle
 10
15.33821227850496
 20
8.379306052171048
 30
0.0
 40
1.344415892660614
100
AcDbArc
 50
229.9729052856704
 51
237.2103125067077
  0
SPLINE
  5
259
330
1F
100
AcDbEntity
  8
DEFAULT
 62
     7
100
AcDbSpline
210
0.0
220
0.0
230
1.0
 70
     8
 71
     3
 72
    19
 73
    15
 74
     0
 42
0.0000000001
 43
0.0000000001
 40
0.0
 40
0.0
 40
0.0
 40
0.0
 40
0.06435553477413
 40
0.09705747515492
 40
0.1298084581315
 40
0.179168139675
 40
0.2285578924925
 40
0.3274103280752
 40
0.4263801982359
 40
0.5253720457747
 40
0.62438997431
 40
0.7564502423231
 40
0.8885399291173
 40
1.0
 40
1.0
 40
1.0
 40
1.0
 10
1.797842737739368
 20
4.561042452008854
 30
0.0
 10
1.768530619482368
 20
4.528257023738854
 30
0.0
 10
1.726793769533368
 20
4.476556746728855
 30
0.0
 10
1.675331216077368
 20
4.404294603868854
 30
0.0
 10
1.632111690303368
 20
4.338795284598854
 30
0.0
 10
1.585534375113369
 20
4.261910332148855
 30
0.0
 10
1.520584109414368
 20
4.143486965408854
 30
0.0
 10
1.448242728067368
 20
3.990631102218854
 30
0.0
 10
1.374524828761368
 20
3.801524700168855
 30
0.0
 10
1.312581527237368
 20
3.608135151168854
 30
0.0
 10
1.256621716274369
 20
3.389510763948854
 30
0.0
 10
1.211189944970369
 20
3.145269794878855
 30
0.0
 10
1.184172603089368
 20
2.889757190568854
 30
0.0
 10
1.179130997805369
 20
2.723232666848854
 30
0.0
 10
1.179786543173368
 20
2.647068734898855
 30
0.0
  0
LINE
  5
25A
330
1F
100
AcDbEntity
  8
DEFAULT
 62
     7
100
AcDbLine
 10
20.21473442818937
 20
3.590596020378853
 30
0.0
 11
14.61011141852137
 21
7.249068365098854
 31
0.0
  0
SPLINE
  5
25B
330
1F
100
AcDbEntity
  8
DEFAULT
 62
     7
100
AcDbSpline
210
0.0
220
0.0
230
1.0
 70
     8
 71
     3
 72
    22
 73
    18
 74
     0
 42
0.0000000001
 43
0.0000000001
 40
0.0
 40
0.0
 40
0.0
 40
0.0
 40
0.02768115563456
 40
0.056892567317
 40
0.08669455205128
 40
0.1169946204618
 40
0.1633463138276
 40
0.2105048517137
 40
0.2583784040662
 40
0.3068941886909
 40
0.3559796477652
 40
0.4055563981254
 40
0.5059143630252
 40
0.607618431296
 40
0.7447864460424
 40
0.8830598812721
 40
1.0
 40
1.0
 40
1.0
 40
1.0
 10
5.724615795171368
 20
4.560943835818854
 30
0.0
 10
5.716726265220369
 20
4.544672762888855
 30
0.0
 10
5.701245238314368
 20
4.510871560228855
 30
0.0
 10
5.679595454870369
 20
4.458528371058854
 30
0.0
 10
5.659002543316368
 20
4.403930133218854
 30
0.0
 10
5.636147679820368
 20
4.338245720808855
 30
0.0
 10
5.611560280917368
 20
4.261181268678854
 30
0.0
 10
5.585854116851368
 20
4.172461675288854
 30
0.0
 10
5.561822226769368
 20
4.081812643608854
 30
0.0
 10
5.539323724136368
 20
3.989476468488854
 30
0.0
 10
5.518209871257368
 20
3.895674267438854
 30
0.0
 10
5.491595305210368
 20
3.768412994308853
 30
0.0
 10
5.461100221078369
 20
3.606863364508854
 30
0.0
 10
5.424980908919369
 20
3.388208579348853
 30
0.0
 10
5.390528551923368
 20
3.144224341968854
 30
0.0
 10
5.361949521858368
 20
2.889462633338855
 30
0.0
 10
5.348076306880368
 20
2.723293039188853
 30
0.0
 10
5.343001583484369
 20
2.647070132918855
 30
0.0
  0
LINE
  5
25C
330
1F
100
AcDbEntity
  8
DEFAULT
 62
     7
100
AcDbLine
 10
6.086243306071368
 20
3.590596011948854
 30
0.0
 11
11.69086631988137
 21
7.249068350288855
 31
0.0
  0
SPLINE
  5
25D
330
1F
100
AcDbEntity
  8
DEFAULT
 62
     7
100
AcDbSpline
210
0.0
220
0.0
230
1.0
 70
     8
 71
     3
 72
    22
 73
    18
 74
     0
 42
0.0000000001
 43
0.0000000001
 40
0.0
 40
0.0
 40
0.0
 40
0.0
 40
0.02774782958269
 40
0.05694323602558
 40
0.08672844948699
 40
0.1170111258529
 40
0.1633619206154
 40
0.2105195442618
 40
0.2583921685199
 40
0.3069070126077
 40
0.3559915201104
 40
0.4055673093848
 40
0.5059233287969001
 40
0.6076254255332
 40
0.7447907813572
 40
0.8830615363372
 40
1.0
 40
1.0
 40
1.0
 40
1.0
 10
20.57634588480937
 20
4.560976904178855
 30
0.0
 10
20.58425504967937
 20
4.544666566548855
 30
0.0
 10
20.59974930363937
 20
4.510834185658855
 30
0.0
 10
20.62140549412937
 20
4.458468508668855
 30
0.0
 10
20.64198597745937
 20
4.403899419598854
 30
0.0
 10
20.66483338141937
 20
4.338235246278854
 30
0.0
 10
20.68941744262937
 20
4.261181253608854
 30
0.0
 10
20.71512360673937
 20
4.172461661658854
 30
0.0
 10
20.73915549673937
 20
4.081812630828855
 30
0.0
 10
20.76165399934937
 20
3.989476456718854
 30
0.0
 10
20.78276785218937
 20
3.895674256638853
 30
0.0
 10
20.80938241820937
 20
3.768412984778853
 30
0.0
 10
20.83987750231937
 20
3.606863356528855
 30
0.0
 10
20.87599681444937
 20
3.388208573318854
 30
0.0
 10
20.91044917139937
 20
3.144224338058855
 30
0.0
 10
20.93902824605937
 20
2.889462233998855
 30
0.0
 10
20.95290148282937
 20
2.723292242388854
 30
0.0
 10
20.95797621943937
 20
2.647068937208853
 30
0.0
  0
LINE
  5
25E
330
1F
100
AcDbEntity
  8
DEFAULT
 62
     7
100
AcDbLine
 10
15.01582906257637
 20
9.514046503832855
 30
0.0
 11
15.09678511256237
 21
9.475327689011854
 31
0.0
  0
LINE
  5
25F
330
1F
100
AcDbEntity
  8
DEFAULT
 62
     7
100
AcDbLine
 10
11.28514866617437
 20
9.514046503831855
 30
0.0
 11
11.33139942818337
 21
9.536069980860855
 31
0.0
  0
LINE
  5
260
330
1F
100
AcDbEntity
  8
DEFAULT
 62
     7
100
AcDbLine
 10
11.20419261619137
 20
9.475327689011854
 30
0.0
 11
11.28514866617437
 21
9.514046503831855
 31
0.0
  0
LINE
  5
261
330
1F
100
AcDbEntity
  8
DEFAULT
 62
     7
100
AcDbLine
 10
20.27331282873937
 20
3.052224664718855
 30
0.0
 11
20.27801113805937
 21
2.998288363888853
 31
0.0
  0
LINE
  5
262
330
1F
100
AcDbEntity
  8
DEFAULT
 62
     7
100
AcDbLine
 10
20.26656067236937
 20
3.110019323178853
 30
0.0
 11
20.27331282873937
 21
3.052224664718855
 31
0.0
  0
ARC
  5
263
330
1F
100
AcDbEntity
  8
DEFAULT
 62
     7
100
AcDbCircle
 10
8.136182830970093
 20
2.839492474704243
 30
0.0
 40
2.119194523899106
100
AcDbArc
 50
172.66490755472
 51
176.0332683810768
  0
LINE
  5
264
330
1F
100
AcDbEntity
  8
DEFAULT
 62
     7
100
AcDbLine
 10
12.73986580801237
 20
4.216652858458854
 30
0.0
 11
12.74001406993137
 21
4.138243513198855
 31
0.0
  0
LINE
  5
265
330
1F
100
AcDbEntity
  8
DEFAULT
 62
     7
100
AcDbLine
 10
12.73625494120437
 20
4.481572618228855
 30
0.0
 11
12.73986580801237
 21
4.216652858458854
 31
0.0
  0
LINE
  5
266
330
1F
100
AcDbEntity
  8
DEFAULT
 62
     7
100
AcDbLine
 10
13.56111191896437
 20
4.216652485158855
 30
0.0
 11
13.56472272338937
 21
4.481569667238855
 31
0.0
  0
LINE
  5
267
330
1F
100
AcDbEntity
  8
DEFAULT
 62
     7
100
AcDbLine
 10
13.56096365914637
 20
4.138243163088854
 30
0.0
 11
13.56111191896437
 21
4.216652485158855
 31
0.0
  0
LINE
  5
268
330
1F
100
AcDbEntity
  8
DEFAULT
 62
     7
100
AcDbLine
 10
14.96957830056937
 20
9.536069980860855
 30
0.0
 11
15.01582906257637
 21
9.514046503832855
 31
0.0
  0
LINE
  5
269
330
1F
100
AcDbEntity
  8
DEFAULT
 62
     7
100
AcDbLine
 10
24.76367132873937
 20
4.632111977248854
 30
0.0
 11
24.51406420045937
 21
4.756637942338854
 31
0.0
  0
SPLINE
  5
26A
330
1F
100
AcDbEntity
  8
DEFAULT
 62
     7
100
AcDbSpline
210
0.0
220
0.0
230
1.0
 70
     8
 71
     3
 72
    10
 73
     6
 74
     0
 42
0.0000000001
 43
0.0000000001
 40
0.0
 40
0.0
 40
0.0
 40
0.0
 40
0.3514489275237
 40
0.6947112828617
 40
1.0
 40
1.0
 40
1.0
 40
1.0
 10
24.34190916805937
 20
4.843506764758855
 30
0.0
 10
23.26041079749937
 20
5.389219734528854
 30
0.0
 10
21.12269311990937
 20
6.468148965538854
 30
0.0
 10
18.04263827507937
 20
8.015113196738854
 30
0.0
 10
16.04595755525237
 20
9.020809913168854
 30
0.0
 10
15.09689647680137
 20
9.475290523693854
 30
0.0
  0
LINE
  5
26B
330
1F
100
AcDbEntity
  8
DEFAULT
 62
     7
100
AcDbLine
 10
24.51407251153937
 20
4.756636236768854
 30
0.0
 11
24.34190916805937
 21
4.843506764758855
 31
0.0
  0
LINE
  5
26C
330
1F
100
AcDbEntity
  8
DEFAULT
 62
     7
100
AcDbLine
 10
20.40951900451937
 20
4.749192308878854
 30
0.0
 11
19.43365601409937
 21
5.564730583778854
 31
0.0
  0
LINE
  5
26D
330
1F
100
AcDbEntity
  8
DEFAULT
 62
     7
100
AcDbLine
 10
20.42591362804937
 20
4.735619060728855
 30
0.0
 11
20.40943873645937
 21
4.749248308848854
 31
0.0
  0
LINE
  5
26E
330
1F
100
AcDbEntity
  8
DEFAULT
 62
     7
100
AcDbLine
 10
20.44186766559937
 20
4.722557773858854
 30
0.0
 11
20.42591362804937
 21
4.735619060728855
 31
0.0
  0
LINE
  5
26F
330
1F
100
AcDbEntity
  8
DEFAULT
 62
     7
100
AcDbLine
 10
25.55750464642937
 20
4.232737860388854
 30
0.0
 11
24.76367268699937
 21
4.632140615068854
 31
0.0
  0
ARC
  5
270
330
1F
100
AcDbEntity
  8
DEFAULT
 62
     7
100
AcDbCircle
 10
14.36342856154297
 20
4.670412774148096
 30
0.0
 40
0.8068602608975366
100
AcDbArc
 50
177.8442452729048
 51
186.0934921175
  0
SPLINE
  5
271
330
1F
100
AcDbEntity
  8
DEFAULT
 62
     7
100
AcDbSpline
210
0.0
220
0.0
230
1.0
 70
     8
 71
     3
 72
    15
 73
    11
 74
     0
 42
0.0000000001
 43
0.0000000001
 40
0.0
 40
0.0
 40
0.0
 40
0.0
 40
0.06114713438735
 40
0.2006517073087
 40
0.2732984434806
 40
0.3481014430895
 40
0.5047812868824
 40
0.6718765267255
 40
0.8503297312226
 40
1.0
 40
1.0
 40
1.0
 40
1.0
 10
6.261570048710369
 20
3.526125628968854
 30
0.0
 10
6.254061070596369
 20
3.518841589848854
 30
0.0
 10
6.230065827982369
 20
3.494276826548853
 30
0.0
 10
6.200223010164368
 20
3.458146808568853
 30
0.0
 10
6.171899627112368
 20
3.418036883578855
 30
0.0
 10
6.143959763473369
 20
3.374126002848854
 30
0.0
 10
6.111368788276368
 20
3.314130780788854
 30
0.0
 10
6.076477427195369
 20
3.235535111018855
 30
0.0
 10
6.047582486322368
 20
3.155833863238854
 30
0.0
 10
6.031348527313369
 20
3.102077481088853
 30
0.0
 10
6.024471741536368
 20
3.077410789368855
 30
0.0
  0
ARC
  5
272
330
1F
100
AcDbEntity
  8
DEFAULT
 62
     7
100
AcDbCircle
 10
6.6365650106511
 20
3.141421522814357
 30
0.0
 40
0.5372322316959964
100
AcDbArc
 50
123.2661055148736
 51
134.2677854625236
  0
ARC
  5
273
330
1F
100
AcDbEntity
  8
DEFAULT
 62
     7
100
AcDbCircle
 10
2019.576603236681
 20
-86.16510267503489
 30
0.0
 40
2008.076316331852
100
AcDbArc
 50
177.2717234670461
 51
177.4044365009615
  0
LINE
  5
274
330
1F
100
AcDbEntity
  8
DEFAULT
 62
     7
100
AcDbLine
 10
13.55713920975137
 20
4.700392791228854
 30
0.0
 11
13.56041391992237
 21
4.771910757178855
 31
0.0
  0
SPLINE
  5
275
330
1F
100
AcDbEntity
  8
DEFAULT
 62
     7
100
AcDbSpline
210
0.0
220
0.0
230
1.0
 70
     8
 71
     3
 72
    15
 73
    11
 74
     0
 42
0.0000000001
 43
0.0000000001
 40
0.0
 40
0.0
 40
0.0
 40
0.0
 40
0.061142250216
 40
0.2006357162913
 40
0.2732766685947
 40
0.3480737126613
 40
0.5047410821756
 40
0.6718230185043
 40
0.8502620152073001
 40
1.0
 40
1.0
 40
1.0
 40
1.0
 10
20.03940768588937
 20
3.526125623298854
 30
0.0
 10
20.04691666194937
 20
3.518841585968854
 30
0.0
 10
20.07091190249937
 20
3.494276824458854
 30
0.0
 10
20.10075471858937
 20
3.458146808568853
 30
0.0
 10
20.12907810163937
 20
3.418036883578855
 30
0.0
 10
20.15701796527937
 20
3.374126002848854
 30
0.0
 10
20.18960894047937
 20
3.314130780788854
 30
0.0
 10
20.22450030155937
 20
3.235535111018855
 30
0.0
 10
20.25339988916937
 20
3.155821046088855
 30
0.0
 10
20.26963708152937
 20
3.102051386708854
 30
0.0
 10
20.27651696404937
 20
3.077371414298854
 30
0.0
  0
ARC
  5
276
330
1F
100
AcDbEntity
  8
DEFAULT
 62
     7
100
AcDbCircle
 10
19.66441271581849
 20
3.141421519804892
 30
0.0
 40
0.537232235465777
100
AcDbArc
 50
45.73221371851478
 51
56.73389445740672
  0
LINE
  5
277
330
1F
100
AcDbEntity
  8
DEFAULT
 62
     7
100
AcDbLine
 10
13.77643048797037
 20
9.418150478032855
 30
0.0
 11
13.78020662340537
 21
9.477261369539855
 31
0.0
  0
LINE
  5
278
330
1F
100
AcDbEntity
  8
DEFAULT
 62
     7
100
AcDbLine
 10
13.78020523658637
 20
9.477157822504854
 30
0.0
 11
13.78155803240237
 21
9.486858578866855
 31
0.0
  0
ARC
  5
279
330
1F
100
AcDbEntity
  8
DEFAULT
 62
     7
100
AcDbCircle
 10
13.41391823124783
 20
4.509529034276809
 30
0.0
 40
0.6782255132969719
100
AcDbArc
 50
173.3881371902252
 51
182.1427280605973
  0
ARC
  5
27A
330
1F
100
AcDbEntity
  8
DEFAULT
 62
     7
100
AcDbCircle
 10
12.88854900238383
 20
4.509663288641372
 30
0.0
 40
0.676737259424587
100
AcDbArc
 50
357.8296413837816
 51
6.60940527010502
  0
LINE
  5
27B
330
1F
100
AcDbEntity
  8
DEFAULT
 62
     7
100
AcDbLine
 10
12.51941251148637
 20
9.486886354175855
 30
0.0
 11
12.52077301033237
 21
9.477155802583855
 31
0.0
  0
LINE
  5
27C
330
1F
100
AcDbEntity
  8
DEFAULT
 62
     7
100
AcDbLine
 10
12.52319269613137
 20
9.442412011360855
 30
0.0
 11
12.52454723042337
 21
9.418150764950854
 31
0.0
  0
LINE
  5
27D
330
1F
100
AcDbEntity
  8
DEFAULT
 62
     7
100
AcDbLine
 10
12.52243311015737
 20
9.454267412224855
 30
0.0
 11
12.52319269613137
 21
9.442412011360855
 31
0.0
  0
LINE
  5
27E
330
1F
100
AcDbEntity
  8
DEFAULT
 62
     7
100
AcDbLine
 10
12.52077109429537
 20
9.477261529785855
 30
0.0
 11
12.52243311015737
 21
9.454267412224855
 31
0.0
  0
ARC
  5
27F
330
1F
100
AcDbEntity
  8
DEFAULT
 62
     7
100
AcDbCircle
 10
-2038.640533364153
 20
-88.2881860299596
 30
0.0
 40
2053.490861186631
100
AcDbArc
 50
2.595422570986111
 51
2.727197671461327
  0
SPLINE
  5
280
330
1F
100
AcDbEntity
  8
DEFAULT
 62
     7
100
AcDbSpline
210
0.0
220
0.0
230
1.0
 70
     8
 71
     3
 72
    13
 73
     9
 74
     0
 42
0.0000000001
 43
0.0000000001
 40
0.0
 40
0.0
 40
0.0
 40
0.0
 40
0.2148248577569
 40
0.4043268334797
 40
0.5729779336274
 40
0.7258986849162
 40
0.8670650167291
 40
1.0
 40
1.0
 40
1.0
 40
1.0
 10
14.99707113470237
 20
7.349835825078854
 30
0.0
 10
14.92240861214937
 20
7.377714684808854
 30
0.0
 10
14.78128925429937
 20
7.428619912738855
 30
0.0
 10
14.57930176434037
 20
7.494969012438855
 30
0.0
 10
14.39698147935137
 20
7.547228282358855
 30
0.0
 10
14.22961966008337
 20
7.585929587818855
 30
0.0
 10
14.07300428821937
 20
7.610752716138855
 30
0.0
 10
13.97127445617437
 20
7.617170659888854
 30
0.0
 10
13.92195701552237
 20
7.617170660118854
 30
0.0
  0
ARC
  5
281
330
1F
100
AcDbEntity
  8
DEFAULT
 62
     7
100
AcDbCircle
 10
11.16132820367647
 20
-2.91779863547395
 30
0.0
 40
10.96070892972094
100
AcDbArc
 50
68.06022038678403
 51
69.51551300738964
  0
ARC
  5
282
330
1F
100
AcDbEntity
  8
DEFAULT
 62
     7
100
AcDbCircle
 10
-8376.17075487792
 20
-20806.12405289721
 30
0.0
 40
22441.31353906792
100
AcDbArc
 50
68.01698408925942
 51
68.04195025544496
  0
ARC
  5
283
330
1F
100
AcDbEntity
  8
DEFAULT
 62
     7
100
AcDbCircle
 10
13.91570366852908
 20
6.637717068918075
 30
0.0
 40
0.9794735536787931
100
AcDbArc
 50
89.63419881963773
 51
103.3298190722605
  0
ARC
  5
284
330
1F
100
AcDbEntity
  8
DEFAULT
 62
     7
100
AcDbCircle
 10
11.93793160800989
 20
4.670414195165788
 30
0.0
 40
0.8064779689051783
100
AcDbArc
 50
353.903803460898
 51
2.158091388453111
  0
LINE
  5
285
330
1F
100
AcDbEntity
  8
DEFAULT
 62
     7
100
AcDbLine
 10
5.804455345804368
 20
4.678774199598854
 30
0.0
 11
5.736435308337368
 21
4.626155889618854
 31
0.0
  0
LINE
  5
286
330
1F
100
AcDbEntity
  8
DEFAULT
 62
     7
100
AcDbLine
 10
5.853722302197368
 20
4.718176325478854
 30
0.0
 11
5.804455345804368
 21
4.678774199598854
 31
0.0
  0
LINE
  5
287
330
1F
100
AcDbEntity
  8
DEFAULT
 62
     7
100
AcDbLine
 10
5.891474068653369
 20
4.749194209178855
 30
0.0
 11
5.853722302197368
 21
4.718176325478854
 31
0.0
  0
LINE
  5
288
330
1F
100
AcDbEntity
  8
DEFAULT
 62
     7
100
AcDbLine
 10
6.867321004301369
 20
5.564730725578855
 30
0.0
 11
5.891393830270368
 21
4.749138023998855
 31
0.0
  0
ARC
  5
289
330
1F
100
AcDbEntity
  8
DEFAULT
 62
     7
100
AcDbCircle
 10
13.29463924030132
 20
5.051660207508989
 30
0.0
 40
2.580236063333727
100
AcDbArc
 50
111.1643916969958
 51
117.0406445193564
  0
ARC
  5
28A
330
1F
100
AcDbEntity
  8
DEFAULT
 62
     7
100
AcDbCircle
 10
13.00798055506666
 20
5.606276547163157
 30
0.0
 40
1.955925030543936
100
AcDbArc
 50
116.9474519958013
 51
122.8679116396529
  0
LINE
  5
28B
330
1F
100
AcDbEntity
  8
DEFAULT
 62
     7
100
AcDbLine
 10
6.341889549325368
 20
3.590600800598855
 30
0.0
 11
11.94651001486537
 21
7.249077066038854
 31
0.0
  0
ARC
  5
28C
330
1F
100
AcDbEntity
  8
DEFAULT
 62
     7
100
AcDbCircle
 10
13.00633848801871
 20
5.051660206513668
 30
0.0
 40
2.580236064417417
100
AcDbArc
 50
62.95935548211349
 51
68.83560830206483
  0
ARC
  5
28D
330
1F
100
AcDbEntity
  8
DEFAULT
 62
     7
100
AcDbCircle
 10
13.29299717368051
 20
5.606276547162267
 30
0.0
 40
1.955925030547704
100
AcDbArc
 50
57.13208836022436
 51
63.05254800403908
  0
LINE
  5
28E
330
1F
100
AcDbEntity
  8
DEFAULT
 62
     7
100
AcDbLine
 10
1.959082027037368
 20
4.843513764418855
 30
0.0
 11
1.787072283415369
 21
4.756720585148855
 31
0.0
  0
SPLINE
  5
28F
330
1F
100
AcDbEntity
  8
DEFAULT
 62
     7
100
AcDbSpline
210
0.0
220
0.0
230
1.0
 70
     8
 71
     3
 72
    10
 73
     6
 74
     0
 42
0.0000000001
 43
0.0000000001
 40
0.0
 40
0.0
 40
0.0
 40
0.0
 40
0.3057570714523
 40
0.6490129937501
 40
1.0
 40
1.0
 40
1.0
 40
1.0
 10
11.20408138933437
 20
9.475289420619854
 30
0.0
 10
10.25356941326137
 20
9.020103724388854
 30
0.0
 10
8.255478774877767
 20
8.013676549488855
 30
0.0
 10
5.175431107068369
 20
6.466707806198855
 30
0.0
 10
3.039157033385369
 20
5.388509386788854
 30
0.0
 10
1.959082027037368
 20
4.843513764418855
 30
0.0
  0
LINE
  5
290
330
1F
100
AcDbEntity
  8
DEFAULT
 62
     7
100
AcDbLine
 10
19.95908818375937
 20
3.590600807238853
 30
0.0
 11
14.35446772141937
 21
7.249077077588854
 31
0.0
  0
LINE
  5
291
330
1F
100
AcDbEntity
  8
DEFAULT
 62
     7
100
AcDbLine
 10
1.787080773130368
 20
4.756722248228854
 30
0.0
 11
1.537331427121368
 21
4.632124338878855
 31
0.0
  0
LINE
  5
292
330
1F
100
AcDbEntity
  8
DEFAULT
 62
     7
100
AcDbLine
 10
5.698244335505368
 20
4.597085678008854
 30
0.0
 11
5.638728583963368
 21
4.549232321418854
 31
0.0
  0
LINE
  5
293
330
1F
100
AcDbEntity
  8
DEFAULT
 62
     7
100
AcDbLine
 10
5.736830808143369
 20
4.626521942518854
 30
0.0
 11
5.698244335505368
 21
4.597085678008854
 31
0.0
  0
ARC
  5
294
330
1F
100
AcDbEntity
  8
DEFAULT
 62
     7
100
AcDbCircle
 10
12.38527405654277
 20
6.637717016730337
 30
0.0
 40
0.979473605817579
100
AcDbArc
 50
76.67018622631389
 51
90.36580072210572
  0
SPLINE
  5
295
330
1F
100
AcDbEntity
  8
DEFAULT
 62
     7
100
AcDbSpline
210
0.0
220
0.0
230
1.0
 70
     8
 71
     3
 72
    13
 73
     9
 74
     0
 42
0.0000000001
 43
0.0000000001
 40
0.0
 40
0.0
 40
0.0
 40
0.0
 40
0.2148248562557
 40
0.4043268305468
 40
0.5729779293539
 40
0.7258986794119
 40
0.8670650100574
 40
1.0
 40
1.0
 40
1.0
 40
1.0
 10
11.30390659405137
 20
7.349835825078854
 30
0.0
 10
11.37856911692337
 20
7.377714684928854
 30
0.0
 10
11.51968847534037
 20
7.428619913058855
 30
0.0
 10
11.72167596608037
 20
7.494969012968854
 30
0.0
 10
11.90399625172037
 20
7.547228282968854
 30
0.0
 10
12.07135807155537
 20
7.585929588458855
 30
0.0
 10
12.22797344680337
 20
7.610752716858855
 30
0.0
 10
12.32970328206837
 20
7.617170660708855
 30
0.0
 10
12.37902072575137
 20
7.617170660598854
 30
0.0
  0
ARC
  5
296
330
1F
100
AcDbEntity
  8
DEFAULT
 62
     7
100
AcDbCircle
 10
15.13964952507051
 20
-2.917798635459119
 30
0.0
 40
10.96070892970503
100
AcDbArc
 50
110.4844869926093
 51
111.939779613217
  0
ARC
  5
297
330
1F
100
AcDbEntity
  8
DEFAULT
 62
     7
100
AcDbCircle
 10
8402.542639548836
 20
-20806.2999769893
 30
0.0
 40
22441.50321525686
100
AcDbArc
 50
111.9580496943159
 51
111.9830156494865
  0
LINE
  5
298
330
1F
100
AcDbEntity
  8
DEFAULT
 62
     7
100
AcDbLine
 10
2.023531288929369
 20
15.74184466458586
 30
0.0
 11
2.025489605413369
 21
15.74094015813586
 31
0.0
  0
LINE
  5
299
330
1F
100
AcDbEntity
  8
DEFAULT
 62
     7
100
AcDbLine
 10
1.845374940957368
 20
15.85299729690586
 30
0.0
 11
1.849100176936368
 21
15.84990432225686
 31
0.0
  0
SPLINE
  5
29A
330
1F
100
AcDbEntity
  8
DEFAULT
 62
     7
100
AcDbSpline
210
0.0
220
0.0
230
1.0
 70
     8
 71
     3
 72
    33
 73
    29
 74
     0
 42
0.0000000001
 43
0.0000000001
 40
0.0
 40
0.0
 40
0.0
 40
0.0
 40
0.01794929529233
 40
0.06999174711024
 40
0.1204295715042
 40
0.1693945714853
 40
0.2171332808395
 40
0.2625524831421
 40
0.3062316198373
 40
0.348213252248
 40
0.3883468137847
 40
0.4266878680314
 40
0.4633684536647
 40
0.4985109522248
 40
0.5320865011509
 40
0.5634753686862
 40
0.5923873470642
 40
0.6207441153364
 40
0.6508950877403
 40
0.6835984296277
 40
0.7179069394593
 40
0.7548790419472
 40
0.7926828148386
 40
0.8316086911336
 40
0.8719182949303
 40
0.9138365084399001
 40
0.9575866942664
 40
1.0
 40
1.0
 40
1.0
 40
1.0
 10
23.17399731158937
 20
17.27791126276786
 30
0.0
 10
23.17432953590937
 20
17.26957153810585
 30
0.0
 10
23.17560075371937
 20
17.23705053536385
 30
0.0
 10
23.17764600886937
 20
17.18108892855685
 30
0.0
 10
23.17989914406937
 20
17.11070218218385
 30
0.0
 10
23.18100470514937
 20
17.04228831026785
 30
0.0
 10
23.18118544643937
 20
16.97620012496486
 30
0.0
 10
23.17913804317937
 20
16.91257295987285
 30
0.0
 10
23.17316900493937
 20
16.85187267267585
 30
0.0
 10
23.16413097201937
 20
16.79404853083485
 30
0.0
 10
23.15200536298937
 20
16.73932438619585
 30
0.0
 10
23.13695002255937
 20
16.68789308821186
 30
0.0
 10
23.11901230367937
 20
16.63985945576685
 30
0.0
 10
23.09835925799937
 20
16.59535656028385
 30
0.0
 10
23.07533129247937
 20
16.55483871468385
 30
0.0
 10
23.05058158771937
 20
16.51881552373185
 30
0.0
 10
23.02439323516937
 20
16.48691481485086
 30
0.0
 10
22.99599282662937
 20
16.45776085705085
 30
0.0
 10
22.96371580982937
 20
16.43015410664986
 30
0.0
 10
22.92665352804937
 20
16.40417328733485
 30
0.0
 10
22.88418100512937
 20
16.38085827468186
 30
0.0
 10
22.83756901995937
 20
16.36079640206386
 30
0.0
 10
22.78930681470937
 20
16.33922041143686
 30
0.0
 10
22.73949932279937
 20
16.31728379432185
 30
0.0
 10
22.68794255288937
 20
16.29457753267985
 30
0.0
 10
22.63429102706937
 20
16.27106064004585
 30
0.0
 10
22.57971185955937
 20
16.24722398106486
 30
0.0
 10
22.54297125600937
 20
16.23124338237486
 30
0.0
 10
22.52488025226937
 20
16.22339025558085
 30
0.0
  0
LINE
  5
29B
330
1F
100
AcDbEntity
  8
DEFAULT
 62
     7
100
AcDbLine
 10
3.975661517401369
 20
16.13709764225985
 30
0.0
 11
3.838392562400368
 21
16.19641028762985
 31
0.0
  0
ARC
  5
29C
330
1F
100
AcDbEntity
  8
DEFAULT
 62
     7
100
AcDbCircle
 10
14.79889392354937
 20
10.17148385326886
 30
0.0
 40
0.5000005885361483
100
AcDbArc
 50
185.0000081820922
 51
244.4999709446404
  0
ARC
  5
29D
330
1F
100
AcDbEntity
  8
DEFAULT
 62
     7
100
AcDbCircle
 10
11.50208392354937
 20
10.17148385326886
 30
0.0
 40
0.5000005885361483
100
AcDbArc
 50
295.5000290553596
 51
354.9999918179078
  0
ARC
  5
29E
330
1F
100
AcDbEntity
  8
DEFAULT
 62
     7
100
AcDbCircle
 10
13.81807192354937
 20
10.74417085326886
 30
0.0
 40
0.1499996488425115
100
AcDbArc
 50
270.0
 51
352.8750310290982
  0
ARC
  5
29F
330
1F
100
AcDbEntity
  8
DEFAULT
 62
     7
100
AcDbCircle
 10
12.48290592354937
 20
10.74417085326886
 30
0.0
 40
0.1499997262641385
100
AcDbArc
 50
187.1249689709016
 51
267.8749875439956
  0
ARC
  5
2A0
330
1F
100
AcDbEntity
  8
DEFAULT
 62
     7
100
AcDbCircle
 10
1.631859923549368
 20
0.1296708532688552
 30
0.0
 40
0.125
100
AcDbArc
 50
270.0
 51
360.0
  0
ARC
  5
2A1
330
1F
100
AcDbEntity
  8
DEFAULT
 62
     7
100
AcDbCircle
 10
1.631859923549368
 20
2.379670853268855
 30
0.0
 40
0.125
100
AcDbArc
 50
0.0
 51
90.0
  0
ARC
  5
2A2
330
1F
100
AcDbEntity
  8
DEFAULT
 62
     7
100
AcDbCircle
 10
0.1318599235493678
 20
0.1296708532688552
 30
0.0
 40
0.125
100
AcDbArc
 50
180.0
 51
270.0
  0
ARC
  5
2A3
330
1F
100
AcDbEntity
  8
DEFAULT
 62
     7
100
AcDbCircle
 10
0.1318599235493678
 20
2.379670853268855
 30
0.0
 40
0.125
100
AcDbArc
 50
90.0
 51
180.0
  0
LINE
  5
2A4
330
1F
100
AcDbEntity
  8
DEFAULT
 62
     7
100
AcDbLine
 10
11.71733992354937
 20
9.720190853268855
 30
0.0
 11
11.28499392354937
 21
9.513972853268854
 31
0.0
  0
LINE
  5
2A5
330
1F
100
AcDbEntity
  8
DEFAULT
 62
     7
100
AcDbLine
 10
14.23316392354937
 20
10.59417085326886
 30
0.0
 11
14.23316392354937
 21
10.41717085326886
 31
0.0
  0
LINE
  5
2A6
330
1F
100
AcDbEntity
  8
DEFAULT
 62
     7
100
AcDbLine
 10
13.93788892354937
 20
7.616808853268854
 30
0.0
 11
13.93788892354937
 21
2.498922853268855
 31
0.0
  0
LINE
  5
2A7
330
1F
100
AcDbEntity
  8
DEFAULT
 62
     7
100
AcDbLine
 10
12.36308892354937
 20
7.616808853268854
 30
0.0
 11
12.36308892354937
 21
2.498922853268855
 31
0.0
  0
LINE
  5
2A8
330
1F
100
AcDbEntity
  8
DEFAULT
 62
     7
100
AcDbLine
 10
12.06781392354937
 20
10.59417085326886
 30
0.0
 11
12.06781392354937
 21
10.41717085326886
 31
0.0
  0
LINE
  5
2A9
330
1F
100
AcDbEntity
  8
DEFAULT
 62
     7
100
AcDbLine
 10
14.58363792354937
 20
9.720190853268855
 30
0.0
 11
15.01598392354937
 21
9.513972853268854
 31
0.0
  0
LINE
  5
2AA
330
1F
100
AcDbEntity
  8
DEFAULT
 62
     7
100
AcDbLine
 10
14.23316392354937
 20
10.59417085326886
 30
0.0
 11
12.06781392354937
 21
10.59417085326886
 31
0.0
  0
LINE
  5
2AB
330
1F
100
AcDbEntity
  8
DEFAULT
 62
     7
100
AcDbLine
 10
1.756859923549368
 20
2.379670853268855
 30
0.0
 11
1.756859923549368
 21
0.1296708532688551
 31
0.0
  0
LINE
  5
2AC
330
1F
100
AcDbEntity
  8
DEFAULT
 62
     7
100
AcDbLine
 10
1.241234923549368
 20
2.504670853268855
 30
0.0
 11
1.241234923549368
 21
0.8171678532688556
 31
0.0
  0
LINE
  5
2AD
330
1F
100
AcDbEntity
  8
DEFAULT
 62
     7
100
AcDbLine
 10
0.5224849235493678
 20
2.504670853268855
 30
0.0
 11
0.5224849235493678
 21
0.8171678532688556
 31
0.0
  0
LINE
  5
2AE
330
1F
100
AcDbEntity
  8
DEFAULT
 62
     7
100
AcDbLine
 10
0.0068599235493678
 20
2.379670853268855
 30
0.0
 11
0.0068599235493678
 21
0.1296708532688551
 31
0.0
  0
LINE
  5
2AF
330
1F
100
AcDbEntity
  8
DEFAULT
 62
     7
100
AcDbLine
 10
0.5224849235493678
 20
2.504670853268855
 30
0.0
 11
1.241234923549368
 21
2.504670853268855
 31
0.0
  0
LINE
  5
2B0
330
1F
100
AcDbEntity
  8
DEFAULT
 62
     7
100
AcDbLine
 10
0.5224849235493678
 20
0.8171708532688552
 30
0.0
 11
1.241234923549368
 21
0.8171708532688552
 31
0.0
  0
ARC
  5
2B1
330
1F
100
AcDbEntity
  8
DEFAULT
 62
     7
100
AcDbCircle
 10
0.8738949176793678
 20
53.46645479064007
 30
0.0
 40
0.4401845429206772
100
AcDbArc
 50
84.2470737237762
 51
311.1449217227483
  0
ARC
  5
2B2
330
1F
100
AcDbEntity
  8
DEFAULT
 62
     7
100
AcDbCircle
 10
25.42704473418137
 20
53.46645479064007
 30
0.0
 40
0.4401845429206772
100
AcDbArc
 50
228.8550782772518
 51
95.75292627622378
  0
LINE
  5
2B3
330
1F
100
AcDbEntity
  8
IGES_LEVEL_0
 62
     7
100
AcDbLine
 10
0.5068599235493678
 20
53.71502200598007
 30
0.0
 11
0.5068599235493678
 21
53.82841800598006
 31
0.0
  0
LINE
  5
2B4
330
1F
100
AcDbEntity
  8
IGES_LEVEL_0
 62
     7
100
AcDbLine
 10
0.5068599235493678
 20
53.82841800598006
 30
0.0
 11
0.1318599235493678
 21
53.82841800598007
 31
0.0
  0
ARC
  5
2B5
330
1F
100
AcDbEntity
  8
IGES_LEVEL_0
 62
     7
100
AcDbCircle
 10
0.1318599235493678
 20
53.70341800598007
 30
0.0
 40
0.125
100
AcDbArc
 50
90.0
 51
180.0
  0
LINE
  5
2B6
330
1F
100
AcDbEntity
  8
IGES_LEVEL_0
 62
     7
100
AcDbLine
 10
0.0068599235493678
 20
53.70341800598007
 30
0.0
 11
0.0068599235493678
 21
51.45341800598007
 31
0.0
  0
ARC
  5
2B7
330
1F
100
AcDbEntity
  8
IGES_LEVEL_0
 62
     7
100
AcDbCircle
 10
0.1318599235493678
 20
51.45341800598007
 30
0.0
 40
0.125
100
AcDbArc
 50
180.0
 51
270.0
  0
LINE
  5
2B8
330
1F
100
AcDbEntity
  8
IGES_LEVEL_0
 62
     7
100
AcDbLine
 10
0.1318599235493678
 20
51.32841800598007
 30
0.0
 11
0.506859923549382
 21
51.32841800598007
 31
0.0
  0
LINE
  5
2B9
330
1F
100
AcDbEntity
  8
IGES_LEVEL_0
 62
     7
100
AcDbLine
 10
0.506859923549382
 20
51.32841800598007
 30
0.0
 11
0.5068599235493678
 21
53.22314800598007
 31
0.0
  0
LINE
  5
2BA
330
1F
100
AcDbEntity
  8
IGES_LEVEL_0
 62
     7
100
AcDbLine
 10
0.5224849235493678
 20
53.20096300598007
 30
0.0
 11
0.5224849235493678
 21
51.32841800598007
 31
0.0
  0
LINE
  5
2BB
330
1F
100
AcDbEntity
  8
IGES_LEVEL_0
 62
     7
100
AcDbLine
 10
0.5224849235493678
 20
51.32841800598007
 30
0.0
 11
1.241234923549368
 21
51.32841800598007
 31
0.0
  0
LINE
  5
2BC
330
1F
100
AcDbEntity
  8
IGES_LEVEL_0
 62
     7
100
AcDbLine
 10
1.241234923549368
 20
51.32841800598007
 30
0.0
 11
1.241234923549368
 21
53.15372700598007
 31
0.0
  0
ARC
  5
2BD
330
1F
100
AcDbEntity
  8
IGES_LEVEL_0
 62
     7
100
AcDbCircle
 10
1.631859923549368
 20
51.45341800598007
 30
0.0
 40
0.125
100
AcDbArc
 50
270.0
 51
0.0
  0
LINE
  5
2BE
330
1F
100
AcDbEntity
  8
IGES_LEVEL_0
 62
     7
100
AcDbLine
 10
1.631859923549368
 20
51.32841800598007
 30
0.0
 11
1.256859923549368
 21
51.32841800598007
 31
0.0
  0
LINE
  5
2BF
330
1F
100
AcDbEntity
  8
IGES_LEVEL_0
 62
     7
100
AcDbLine
 10
1.256859923549368
 20
51.32841800598007
 30
0.0
 11
1.256859923549368
 21
53.15904400598007
 31
0.0
  0
LINE
  5
2C0
330
1F
100
AcDbEntity
  8
IGES_LEVEL_0
 62
     7
100
AcDbLine
 10
25.05974292354937
 20
53.15372700598007
 30
0.0
 11
25.05974292354937
 21
51.32841800598007
 31
0.0
  0
LINE
  5
2C1
330
1F
100
AcDbEntity
  8
IGES_LEVEL_0
 62
     7
100
AcDbLine
 10
25.05974292354937
 20
51.32841800598007
 30
0.0
 11
25.77849292354937
 21
51.32841800598007
 31
0.0
  0
LINE
  5
2C2
330
1F
100
AcDbEntity
  8
IGES_LEVEL_0
 62
     7
100
AcDbLine
 10
25.77849292354937
 20
51.32841800598007
 30
0.0
 11
25.77849292354937
 21
53.20121900598007
 31
0.0
  0
ARC
  5
2C3
330
1F
100
AcDbEntity
  8
IGES_LEVEL_0
 62
     7
100
AcDbCircle
 10
24.66911792354937
 20
51.45341800598007
 30
0.0
 40
0.125
100
AcDbArc
 50
180.0
 51
270.0
  0
LINE
  5
2C4
330
1F
100
AcDbEntity
  8
IGES_LEVEL_0
 62
     7
100
AcDbLine
 10
24.66911792354937
 20
51.32841800598007
 30
0.0
 11
25.04411792354937
 21
51.32841800598007
 31
0.0
  0
LINE
  5
2C5
330
1F
100
AcDbEntity
  8
IGES_LEVEL_0
 62
     7
100
AcDbLine
 10
25.04411792354937
 20
51.32841800598007
 30
0.0
 11
25.04411792354937
 21
53.15904400598007
 31
0.0
  0
LINE
  5
2C6
330
1F
100
AcDbEntity
  8
IGES_LEVEL_0
 62
     7
100
AcDbLine
 10
25.79411792354937
 20
53.22352200598007
 30
0.0
 11
25.79411792354937
 21
51.32841800598007
 31
0.0
  0
LINE
  5
2C7
330
1F
100
AcDbEntity
  8
IGES_LEVEL_0
 62
     7
100
AcDbLine
 10
25.79411792354937
 20
51.32841800598007
 30
0.0
 11
26.16911792354937
 21
51.32841800598007
 31
0.0
  0
ARC
  5
2C8
330
1F
100
AcDbEntity
  8
IGES_LEVEL_0
 62
     7
100
AcDbCircle
 10
26.16911792354937
 20
51.45341800598007
 30
0.0
 40
0.125
100
AcDbArc
 50
270.0
 51
0.0
  0
LINE
  5
2C9
330
1F
100
AcDbEntity
  8
IGES_LEVEL_0
 62
     7
100
AcDbLine
 10
26.29411792354937
 20
51.45341800598007
 30
0.0
 11
26.29411792354937
 21
53.70341800598007
 31
0.0
  0
ARC
  5
2CA
330
1F
100
AcDbEntity
  8
IGES_LEVEL_0
 62
     7
100
AcDbCircle
 10
26.16911792354937
 20
53.70341800598007
 30
0.0
 40
0.125
100
AcDbArc
 50
0.0
 51
90.00000000000163
  0
LINE
  5
2CB
330
1F
100
AcDbEntity
  8
IGES_LEVEL_0
 62
     7
100
AcDbLine
 10
26.16911792354937
 20
53.82841800598007
 30
0.0
 11
25.79411792354937
 21
53.82841800598006
 31
0.0
  0
LINE
  5
2CC
330
1F
100
AcDbEntity
  8
IGES_LEVEL_0
 62
     7
100
AcDbLine
 10
25.79411792354937
 20
53.82841800598006
 30
0.0
 11
25.79411792354937
 21
53.71506600598007
 31
0.0
  0
LINE
  5
2CD
330
1F
100
AcDbEntity
  8
DEFAULT
 62
     7
100
AcDbLine
 10
12.72757274261337
 20
46.39010150761007
 30
0.0
 11
12.74947141539737
 21
44.54698721012257
 31
0.0
  0
ARC
  5
2CE
330
1F
100
AcDbEntity
  8
DEFAULT
 62
     7
100
AcDbCircle
 10
13.15048883355046
 20
44.551750921937
 30
0.0
 40
0.4010457113751796
100
AcDbArc
 50
180.6805882540325
 51
359.3194112866221
  0
LINE
  5
2CF
330
1F
100
AcDbEntity
  8
DEFAULT
 62
     7
100
AcDbLine
 10
13.55150625166537
 20
44.54698720690757
 30
0.0
 11
13.57339560230437
 21
46.38966898431007
 31
0.0
  0
LINE
  5
2D0
330
1F
100
AcDbEntity
  8
IGES_LEVEL_0
 62
     7
100
AcDbLine
 10
13.56115592354937
 20
44.91473700598007
 30
0.0
 11
13.90048892354937
 21
44.91473700598007
 31
0.0
  0
ARC
  5
2D1
330
1F
100
AcDbEntity
  8
IGES_LEVEL_0
 62
     7
100
AcDbCircle
 10
13.90048892354937
 20
44.78973700598007
 30
0.0
 40
0.125
100
AcDbArc
 50
0.0
 51
90.0
  0
LINE
  5
2D2
330
1F
100
AcDbEntity
  8
IGES_LEVEL_0
 62
     7
100
AcDbLine
 10
14.02548892354937
 20
44.78973700598007
 30
0.0
 11
14.02548892354937
 21
42.53973700598007
 31
0.0
  0
ARC
  5
2D3
330
1F
100
AcDbEntity
  8
IGES_LEVEL_0
 62
     7
100
AcDbCircle
 10
13.90048892354937
 20
42.53973700598007
 30
0.0
 40
0.125
100
AcDbArc
 50
270.0
 51
0.0
  0
LINE
  5
2D4
330
1F
100
AcDbEntity
  8
IGES_LEVEL_0
 62
     7
100
AcDbLine
 10
13.90048892354937
 20
42.41473700598007
 30
0.0
 11
13.52548892354937
 21
42.41473700598007
 31
0.0
  0
LINE
  5
2D5
330
1F
100
AcDbEntity
  8
IGES_LEVEL_0
 62
     7
100
AcDbLine
 10
13.52548892354937
 20
42.41473700598007
 30
0.0
 11
13.52548892354937
 21
44.30944100598007
 31
0.0
  0
LINE
  5
2D6
330
1F
100
AcDbEntity
  8
IGES_LEVEL_0
 62
     7
100
AcDbLine
 10
12.73982192354937
 20
44.91473700598007
 30
0.0
 11
12.40048892354937
 21
44.91473700598007
 31
0.0
  0
ARC
  5
2D7
330
1F
100
AcDbEntity
  8
IGES_LEVEL_0
 62
     7
100
AcDbCircle
 10
12.40048892354937
 20
44.78973700598007
 30
0.0
 40
0.125
100
AcDbArc
 50
90.0
 51
180.0
  0
LINE
  5
2D8
330
1F
100
AcDbEntity
  8
IGES_LEVEL_0
 62
     7
100
AcDbLine
 10
12.27548892354937
 20
44.78973700598007
 30
0.0
 11
12.27548892354937
 21
42.53973700598007
 31
0.0
  0
ARC
  5
2D9
330
1F
100
AcDbEntity
  8
IGES_LEVEL_0
 62
     7
100
AcDbCircle
 10
12.40048892354937
 20
42.53973700598007
 30
0.0
 40
0.125
100
AcDbArc
 50
180.0
 51
270.0
  0
LINE
  5
2DA
330
1F
100
AcDbEntity
  8
IGES_LEVEL_0
 62
     7
100
AcDbLine
 10
12.40048892354937
 20
42.41473700598007
 30
0.0
 11
12.77548892354937
 21
42.41473700598007
 31
0.0
  0
LINE
  5
2DB
330
1F
100
AcDbEntity
  8
IGES_LEVEL_0
 62
     7
100
AcDbLine
 10
12.77548892354937
 20
42.41473700598007
 30
0.0
 11
12.77548892354937
 21
44.30976600598007
 31
0.0
  0
LINE
  5
2DC
330
1F
100
AcDbEntity
  8
IGES_LEVEL_0
 62
     7
100
AcDbLine
 10
12.79111392354937
 20
44.28747100598007
 30
0.0
 11
12.79111392354937
 21
42.41473700598007
 31
0.0
  0
LINE
  5
2DD
330
1F
100
AcDbEntity
  8
IGES_LEVEL_0
 62
     7
100
AcDbLine
 10
12.79111392354937
 20
42.41473700598007
 30
0.0
 11
13.50986392354937
 21
42.41473700598007
 31
0.0
  0
LINE
  5
2DE
330
1F
100
AcDbEntity
  8
IGES_LEVEL_0
 62
     7
100
AcDbLine
 10
13.50986392354937
 20
42.41473700598007
 30
0.0
 11
13.50986392354937
 21
44.28706500598007
 31
0.0
  0
ARC
  5
2DF
330
1F
100
AcDbEntity
  8
DEFAULT
 62
     7
100
AcDbCircle
 10
13.15048883353137
 20
44.54698720851507
 30
0.0
 40
0.4401785838653137
100
AcDbArc
 50
156.3203468580733
 51
23.67977976020634
  0
SPLINE
  5
2E0
330
1F
100
AcDbEntity
  8
IGES_LEVEL_0
 62
     7
100
AcDbSpline
210
0.0
220
0.0
230
1.0
 70
     8
 71
     3
 72
    11
 73
     7
 74
     0
 42
0.0000000001
 43
0.0000000001
 40
-0.5891139334509074
 40
-0.5891139334509074
 40
-0.5891139334509074
 40
-0.5891139334509074
 40
0.0
 40
0.2994107465713
 40
0.6623305129381
 40
1.18525622715184
 40
1.18525622715184
 40
1.18525622715184
 40
1.18525622715184
 10
1.639182851725506
 20
54.33536814723571
 30
0.0
 10
1.50936452964364
 20
54.13130363415169
 30
0.0
 10
1.522199738198533
 20
53.77031064081536
 30
0.0
 10
1.53673630969137
 20
53.26175811103008
 30
0.0
 10
1.548886234171387
 20
52.78006145547868
 30
0.0
 10
1.558098563111166
 20
52.42004915944244
 30
0.0
 10
1.564953818769758
 20
52.20756960130881
 30
0.0
  0
LINE
  5
2E1
330
1F
100
AcDbEntity
  8
DEFAULT
 62
     7
100
AcDbLine
 10
1.549405269742553
 20
54.11699719572168
 30
0.0
 11
0.7499737043473684
 21
53.84784507583007
 31
0.0
  0
ARC
  5
2E2
330
1F
100
AcDbEntity
  8
DEFAULT
 62
     7
100
AcDbCircle
 10
0.8821351711545615
 20
53.46913221124689
 30
0.0
 40
0.4011110658027617
100
AcDbArc
 50
109.2377299619774
 51
286.7622694189074
  0
LINE
  5
2E3
330
1F
100
AcDbEntity
  8
DEFAULT
 62
     7
100
AcDbLine
 10
0.997816131011368
 20
53.08506450545007
 30
0.0
 11
1.536879553128369
 21
53.24743008098007
 31
0.0
  0
SPLINE
  5
2E4
330
1F
100
AcDbEntity
  8
IGES_LEVEL_0
 62
     7
100
AcDbSpline
210
0.0
220
0.0
230
1.0
 70
     8
 71
     3
 72
    11
 73
     7
 74
     0
 42
0.0000000001
 43
0.0000000001
 40
-0.5891139334509074
 40
-0.5891139334509074
 40
-0.5891139334509074
 40
-0.5891139334509074
 40
0.0
 40
0.2994107465713
 40
0.6623305129381
 40
1.18525622715184
 40
1.18525622715184
 40
1.18525622715184
 40
1.18525622715184
 10
24.66175680013523
 20
54.33536814723571
 30
0.0
 10
24.7915751222171
 20
54.13130363415169
 30
0.0
 10
24.7787399136622
 20
53.77031064081536
 30
0.0
 10
24.76420334216937
 20
53.26175811103008
 30
0.0
 10
24.75205341768935
 20
52.78006145547868
 30
0.0
 10
24.74284108874957
 20
52.42004915944244
 30
0.0
 10
24.73598583309098
 20
52.20756960130881
 30
0.0
  0
LINE
  5
2E5
330
1F
100
AcDbEntity
  8
DEFAULT
 62
     7
100
AcDbLine
 10
24.75153438211818
 20
54.11699719572169
 30
0.0
 11
25.55096594751337
 21
53.84784507583007
 31
0.0
  0
ARC
  5
2E6
330
1F
100
AcDbEntity
  8
DEFAULT
 62
     7
100
AcDbCircle
 10
25.41880448070617
 20
53.46913221124689
 30
0.0
 40
0.4011110658027687
100
AcDbArc
 50
253.2377305810929
 51
70.76227003802266
  0
LINE
  5
2E7
330
1F
100
AcDbEntity
  8
DEFAULT
 62
     7
100
AcDbLine
 10
25.30312352084937
 20
53.08506450545007
 30
0.0
 11
24.76406009873237
 21
53.24743008098007
 31
0.0
  0
LINE
  5
2E8
330
1F
100
AcDbEntity
  8
IGES_LEVEL_0
 62
     7
100
AcDbLine
 10
23.08985672831137
 20
53.15686400598007
 30
0.0
 11
23.08985372831137
 21
50.34796200598007
 31
0.0
  0
SPLINE
  5
2E9
330
1F
100
AcDbEntity
  8
IGES_LEVEL_0
 62
     7
100
AcDbSpline
210
0.0
220
0.0
230
1.0
 70
     8
 71
     3
 72
    15
 73
    11
 74
     0
 42
0.0000000001
 43
0.0000000001
 40
1.0
 40
1.0
 40
1.0
 40
1.0
 40
1.406276887208374
 40
1.443128377151383
 40
1.653269150386874
 40
1.838910419711074
 40
2.003449657594373
 40
2.156218241245973
 40
2.321840725130174
 40
2.406276887208374
 40
2.406276887208374
 40
2.406276887208374
 40
2.406276887208374
 10
23.08985372831137
 20
50.34796200598007
 30
0.0
 10
23.08845592020175
 20
50.0062121704274
 30
0.0
 10
23.08763611853995
 20
49.62873183765623
 30
0.0
 10
23.05346523515937
 20
49.07382765726008
 30
0.0
 10
23.01740746801137
 20
48.70703120517007
 30
0.0
 10
22.91458866833337
 20
48.23969624559007
 30
0.0
 10
22.74619263217737
 20
47.84267518001007
 30
0.0
 10
22.49803471322137
 20
47.50982364932007
 30
0.0
 10
22.22716408556837
 20
47.29413777207007
 30
0.0
 10
22.04300287404478
 20
47.18615539306404
 30
0.0
 10
21.97764134535137
 20
47.15625590180007
 30
0.0
  0
SPLINE
  5
2EA
330
1F
100
AcDbEntity
  8
IGES_LEVEL_0
 62
     7
100
AcDbSpline
210
0.0
220
0.0
230
1.0
 70
     8
 71
     3
 72
    14
 73
    10
 74
     0
 42
0.0000000001
 43
0.0000000001
 40
2.406276887208374
 40
2.406276887208374
 40
2.406276887208374
 40
2.406276887208374
 40
2.410084786475225
 40
2.502860217996705
 40
2.676102444426825
 40
2.860180772703725
 40
3.056512700656225
 40
3.264878053057926
 40
3.410084786475225
 40
3.410084786475225
 40
3.410084786475225
 40
3.410084786475225
 10
21.97764134535137
 20
47.15625590180007
 30
0.0
 10
21.97415910196348
 20
47.15466295702296
 30
0.0
 10
21.88741643247023
 20
47.11053454814123
 30
0.0
 10
21.63947778595137
 20
46.99798883669007
 30
0.0
 10
21.20803657123137
 20
46.85665447572007
 30
0.0
 10
20.66380275959537
 20
46.73413536396008
 30
0.0
 10
20.07817991169937
 20
46.64142812433007
 30
0.0
 10
19.52811940082687
 20
46.57862088779007
 30
0.0
 10
19.17368552312787
 20
46.54599596666658
 30
0.0
 10
19.02795183282847
 20
46.53478925637008
 30
0.0
  0
SPLINE
  5
2EB
330
1F
100
AcDbEntity
  8
IGES_LEVEL_0
 62
     7
100
AcDbSpline
210
0.0
220
0.0
230
1.0
 70
     8
 71
     3
 72
    11
 73
     7
 74
     0
 42
0.0000000001
 43
0.0000000001
 40
3.410084786475225
 40
3.410084786475225
 40
3.410084786475225
 40
3.410084786475225
 40
3.425376740191334
 40
3.724741303955335
 40
4.066164655196435
 40
4.429019546466998
 40
4.429019546466998
 40
4.429019546466998
 40
4.429019546466998
 10
19.02795183282847
 20
46.53478925637008
 30
0.0
 10
18.9986222743154
 20
46.53253385568198
 30
0.0
 10
18.39532481063418
 20
46.4833412847016
 30
0.0
 10
17.13360004760537
 20
46.43194101339008
 30
0.0
 10
15.20336873195725
 20
46.39642314660476
 30
0.0
 10
13.84849047167774
 20
46.38848760072158
 30
0.0
 10
13.15046982593037
 20
46.38913686003119
 30
0.0
  0
SPLINE
  5
2EC
330
1F
100
AcDbEntity
  8
IGES_LEVEL_0
 62
     7
100
AcDbSpline
210
0.0
220
0.0
230
1.0
 70
     8
 71
     3
 72
    11
 73
     7
 74
     0
 42
0.0000000001
 43
0.0000000001
 40
4.429019546466998
 40
4.429019546466998
 40
4.429019546466998
 40
4.429019546466998
 40
4.791874437737562
 40
5.133297788978661
 40
5.432662352742661
 40
5.447954306458771
 40
5.447954306458771
 40
5.447954306458771
 40
5.447954306458771
 10
13.15046982593037
 20
46.38913686003119
 30
0.0
 10
12.4524479723734
 20
46.38978612046422
 30
0.0
 10
11.09757091990348
 20
46.39642314660476
 30
0.0
 10
9.167339604255366
 20
46.43194101339008
 30
0.0
 10
7.905614841226556
 20
46.4833412847016
 30
0.0
 10
7.302317377545337
 20
46.53253385568198
 30
0.0
 10
7.272987819032268
 20
46.53478925637008
 30
0.0
  0
SPLINE
  5
2ED
330
1F
100
AcDbEntity
  8
IGES_LEVEL_0
 62
     7
100
AcDbSpline
210
0.0
220
0.0
230
1.0
 70
     8
 71
     3
 72
    14
 73
    10
 74
     0
 42
0.0000000001
 43
0.0000000001
 40
5.447954306458771
 40
5.447954306458771
 40
5.447954306458771
 40
5.447954306458771
 40
5.593161039876071
 40
5.80152639227777
 40
5.997858320230271
 40
6.18193664850717
 40
6.35517887493729
 40
6.447954306458771
 40
6.451762205725622
 40
6.451762205725622
 40
6.451762205725622
 40
6.451762205725622
 10
7.272987819032268
 20
46.53478925637008
 30
0.0
 10
7.127254128732876
 20
46.54599596666658
 30
0.0
 10
6.772820251033869
 20
46.57862088779007
 30
0.0
 10
6.222759740161369
 20
46.64142812433007
 30
0.0
 10
5.637136892265368
 20
46.73413536396008
 30
0.0
 10
5.092903080629371
 20
46.85665447572007
 30
0.0
 10
4.661461865909367
 20
46.99798883669007
 30
0.0
 10
4.413523219390505
 20
47.11053454814123
 30
0.0
 10
4.326705262408186
 20
47.15451557061873
 30
0.0
 10
4.323298306509368
 20
47.15625590180007
 30
0.0
  0
SPLINE
  5
2EE
330
1F
100
AcDbEntity
  8
IGES_LEVEL_0
 62
     7
100
AcDbSpline
210
0.0
220
0.0
230
1.0
 70
     8
 71
     3
 72
    15
 73
    11
 74
     0
 42
0.0000000001
 43
0.0000000001
 40
6.451762205725622
 40
6.451762205725622
 40
6.451762205725622
 40
6.451762205725622
 40
6.536198367803822
 40
6.701820851688022
 40
6.854589435339622
 40
7.019128673222922
 40
7.204769942547122
 40
7.414910715782612
 40
7.451762205725622
 40
7.858039092933995
 40
7.858039092933995
 40
7.858039092933995
 40
7.858039092933995
 10
4.323298306509368
 20
47.15625590180007
 30
0.0
 10
4.259230242902369
 20
47.18898296142007
 30
0.0
 10
4.073775566292369
 20
47.29413777207007
 30
0.0
 10
3.802904938639368
 20
47.50982364932007
 30
0.0
 10
3.554747019683367
 20
47.84267518001007
 30
0.0
 10
3.386350983527369
 20
48.23969624559007
 30
0.0
 10
3.28353218384937
 20
48.70703120517007
 30
0.0
 10
3.247474416701368
 20
49.07382765726008
 30
0.0
 10
3.213303533320789
 20
49.62873183765623
 30
0.0
 10
3.211086288549468
 20
50.00621216893489
 30
0.0
 10
3.211085923549368
 20
50.34796200598007
 30
0.0
  0
LINE
  5
2EF
330
1F
100
AcDbEntity
  8
IGES_LEVEL_0
 62
     7
100
AcDbLine
 10
3.211085923549368
 20
50.34796200598007
 30
0.0
 11
3.211082923549369
 21
53.15686400598007
 31
0.0
  0
ARC
  5
2F0
330
1F
100
AcDbEntity
  8
IGES_LEVEL_0
 62
     7
100
AcDbCircle
 10
22.1577031446859
 20
64.39919526583053
 30
0.0
 40
0.7732195394602268
100
AcDbArc
 50
264.2901188817596
 51
313.5405815190041
  0
ARC
  5
2F1
330
1F
100
AcDbEntity
  8
IGES_LEVEL_0
 62
     7
100
AcDbCircle
 10
22.0907236214309
 20
63.72931595447992
 30
0.0
 40
0.1000000000000017
100
AcDbArc
 50
189.7475960567776
 51
264.2901188817576
  0
LINE
  5
2F2
330
1F
100
AcDbEntity
  8
IGES_LEVEL_0
 62
     7
100
AcDbLine
 10
21.99216730507679
 20
63.7123851391803
 30
0.0
 11
21.49930520381437
 21
66.58139483017007
 31
0.0
  0
SPLINE
  5
2F3
330
1F
100
AcDbEntity
  8
IGES_LEVEL_0
 62
     7
100
AcDbSpline
210
0.0
220
0.0
230
1.0
 70
     8
 71
     3
 72
     8
 73
     4
 74
     0
 42
0.0000000001
 43
0.0000000001
 40
41.12474573465618
 40
41.12474573465618
 40
41.12474573465618
 40
41.12474573465618
 40
42.12474573465619
 40
42.12474573465619
 40
42.12474573465619
 40
42.12474573465619
 10
21.49930520381437
 20
66.58139483017007
 30
0.0
 10
21.36649525172656
 20
67.35449756747495
 30
0.0
 10
20.62971977692976
 20
68.11306847326863
 30
0.0
 10
19.86138239506137
 20
68.27111250031007
 30
0.0
  0
ARC
  5
2F4
330
1F
100
AcDbEntity
  8
IGES_LEVEL_0
 62
     7
100
AcDbCircle
 10
14.82078773102208
 20
43.37793599149393
 30
0.0
 40
25.39838245373545
100
AcDbArc
 50
78.55300862109402
 51
83.53821552719181
  0
SPLINE
  5
2F5
330
1F
100
AcDbEntity
  8
IGES_LEVEL_0
 62
     7
100
AcDbSpline
210
0.0
220
0.0
230
1.0
 70
     8
 71
     3
 72
    10
 73
     6
 74
     0
 42
0.0000000001
 43
0.0000000001
 40
43.12474573465619
 40
43.12474573465619
 40
43.12474573465619
 40
43.12474573465619
 40
43.20630562808572
 40
43.63108360662282
 40
44.17018775667064
 40
44.17018775667064
 40
44.17018775667064
 40
44.17018775667064
 10
17.67913412103797
 20
68.61496606995007
 30
0.0
 10
17.56199883345769
 20
68.62823281430778
 30
0.0
 10
16.83363692819166
 20
68.70625930418177
 30
0.0
 10
15.32470411516315
 20
68.81323639588084
 30
0.0
 10
13.93019942429583
 20
68.83647973036241
 30
0.0
 10
13.15046982593036
 20
68.83809667173115
 30
0.0
  0
SPLINE
  5
2F6
330
1F
100
AcDbEntity
  8
IGES_LEVEL_0
 62
     7
100
AcDbSpline
210
0.0
220
0.0
230
1.0
 70
     8
 71
     3
 72
    10
 73
     6
 74
     0
 42
0.0000000001
 43
0.0000000001
 40
44.17018775667064
 40
44.17018775667064
 40
44.17018775667064
 40
44.17018775667064
 40
44.70929190671846
 40
45.13406988525557
 40
45.2156297786851
 40
45.2156297786851
 40
45.2156297786851
 40
45.2156297786851
 10
13.15046982593036
 20
68.83809667173115
 30
0.0
 10
12.37073352136666
 20
68.83971362700666
 30
0.0
 10
10.97623553669758
 20
68.81323639588084
 30
0.0
 10
9.46730272366908
 20
68.70625930418177
 30
0.0
 10
8.738980554385309
 20
68.62787204619785
 30
0.0
 10
8.621805530822767
 20
68.61496606995007
 30
0.0
  0
ARC
  5
2F7
330
1F
100
AcDbEntity
  8
IGES_LEVEL_0
 62
     7
100
AcDbCircle
 10
10.98530434270936
 20
46.51845965803
 30
0.0
 40
22.22254985922665
100
AcDbArc
 50
96.10529013971448
 51
101.8034857119998
  0
SPLINE
  5
2F8
330
1F
100
AcDbEntity
  8
IGES_LEVEL_0
 62
     7
100
AcDbSpline
210
0.0
220
0.0
230
1.0
 70
     8
 71
     3
 72
     8
 73
     4
 74
     0
 42
0.0000000001
 43
0.0000000001
 40
46.2156297786851
 40
46.2156297786851
 40
46.2156297786851
 40
46.2156297786851
 40
47.21562977868508
 40
47.21562977868508
 40
47.21562977868508
 40
47.21562977868508
 10
6.439557256799368
 20
68.27111250031007
 30
0.0
 10
5.671716629058527
 20
68.11065348313622
 30
0.0
 10
4.934444400134178
 20
67.35449756747495
 30
0.0
 10
4.801634448046369
 20
66.58139483017007
 30
0.0
  0
LINE
  5
2F9
330
1F
100
AcDbEntity
  8
IGES_LEVEL_0
 62
     7
100
AcDbLine
 10
4.801634448046369
 20
66.58139483017007
 30
0.0
 11
4.308772346783948
 21
63.7123851391803
 31
0.0
  0
ARC
  5
2FA
330
1F
100
AcDbEntity
  8
IGES_LEVEL_0
 62
     7
100
AcDbCircle
 10
4.210216030429845
 20
63.72931595447992
 30
0.0
 40
0.0999999999999945
100
AcDbArc
 50
275.7098811182423
 51
350.2524039432217
  0
ARC
  5
2FB
330
1F
100
AcDbEntity
  8
IGES_LEVEL_0
 62
     7
100
AcDbCircle
 10
4.143236507174801
 20
64.39919526583041
 30
0.0
 40
0.7732195394601114
100
AcDbArc
 50
226.4594184809926
 51
275.7098811182447
  0
ARC
  5
2FC
330
1F
100
AcDbEntity
  8
IGES_LEVEL_0
 62
     7
100
AcDbCircle
 10
3.679476993696796
 20
63.911187415515
 30
0.0
 40
0.1000000000000352
100
AcDbArc
 50
168.9059598837044
 51
226.4594184809861
  0
LINE
  5
2FD
330
1F
100
AcDbEntity
  8
IGES_LEVEL_0
 62
     7
100
AcDbLine
 10
3.581345725222755
 20
63.93042940469704
 30
0.0
 11
3.615853261446368
 21
64.10641268114006
 31
0.0
  0
SPLINE
  5
2FE
330
1F
100
AcDbEntity
  8
IGES_LEVEL_0
 62
     7
100
AcDbSpline
210
0.0
220
0.0
230
1.0
 70
     8
 71
     3
 72
     8
 73
     4
 74
     0
 42
0.0000000001
 43
0.0000000001
 40
51.43504295923884
 40
51.43504295923884
 40
51.43504295923884
 40
51.43504295923884
 40
52.43504295923884
 40
52.43504295923884
 40
52.43504295923884
 40
52.43504295923884
 10
3.615853261446368
 20
64.10641268114006
 30
0.0
 10
3.684664429844752
 20
64.45733935385741
 30
0.0
 10
3.855101476453704
 20
65.61554904321761
 30
0.0
 10
4.014669549733368
 20
66.75335682739006
 30
0.0
  0
LINE
  5
2FF
330
1F
100
AcDbEntity
  8
IGES_LEVEL_0
 62
     7
100
AcDbLine
 10
4.014669549733368
 20
66.75335682739006
 30
0.0
 11
4.030191277505488
 21
66.86403525020947
 31
0.0
  0
SPLINE
  5
300
330
1F
100
AcDbEntity
  8
IGES_LEVEL_0
 62
     7
100
AcDbSpline
210
0.0
220
0.0
230
1.0
 70
     8
 71
     3
 72
    17
 73
    13
 74
     0
 42
0.0000000001
 43
0.0000000001
 40
52.46746742330003
 40
52.46746742330003
 40
52.46746742330003
 40
52.46746742330003
 40
52.49381867835037
 40
52.59059824966947
 40
52.70818528862007
 40
52.83825868479146
 40
52.97243798886606
 40
53.10542895270557
 40
53.23454551267727
 40
53.35744847579853
 40
53.43477133863197
 40
53.45297447668024
 40
53.45297447668024
 40
53.45297447668024
 40
53.45297447668024
 10
4.030191277505488
 20
66.86403525020947
 30
0.0
 10
4.035912464066052
 20
66.89357706967951
 30
0.0
 10
4.067774508142827
 20
67.03078427970468
 30
0.0
 10
4.161161784134368
 20
67.28899243157008
 30
0.0
 10
4.338628307435369
 20
67.63965082625006
 30
0.0
 10
4.57515557290237
 20
68.00519374093008
 30
0.0
 10
4.859551417067368
 20
68.35788121859005
 30
0.0
 10
5.181310891387369
 20
68.67558251654006
 30
0.0
 10
5.532153515227368
 20
68.94081559882008
 30
0.0
 10
5.864959874843367
 20
69.11730903834007
 30
0.0
 10
6.102024670682455
 20
69.19681365012892
 30
0.0
 10
6.207932284872173
 20
69.22207165969913
 30
0.0
 10
6.228133541641369
 20
69.22648517956006
 30
0.0
  0
SPLINE
  5
301
330
1F
100
AcDbEntity
  8
IGES_LEVEL_0
 62
     7
100
AcDbSpline
210
0.0
220
0.0
230
1.0
 70
     8
 71
     3
 72
     9
 73
     5
 74
     0
 42
0.0000000001
 43
0.0000000001
 40
53.45297447668024
 40
53.45297447668024
 40
53.45297447668024
 40
53.45297447668024
 40
54.06579458374124
 40
54.45297447668024
 40
54.45297447668024
 40
54.45297447668024
 40
54.45297447668024
 10
6.228133541641369
 20
69.22648517956006
 30
0.0
 10
6.918707312738168
 20
69.37736000329008
 30
0.0
 10
8.058875640031168
 20
69.56414697209007
 30
0.0
 10
9.206662602351523
 20
69.6823800862782
 30
0.0
 10
9.651783928029367
 20
69.71947402398007
 30
0.0
  0
SPLINE
  5
302
330
1F
100
AcDbEntity
  8
IGES_LEVEL_0
 62
     7
100
AcDbSpline
210
0.0
220
0.0
230
1.0
 70
     8
 71
     3
 72
     9
 73
     5
 74
     0
 42
0.0000000001
 43
0.0000000001
 40
54.45297447668024
 40
54.45297447668024
 40
54.45297447668024
 40
54.45297447668024
 40
54.74778948076614
 40
55.40987670255012
 40
55.40987670255012
 40
55.40987670255012
 40
55.40987670255012
 10
9.651783928029367
 20
69.71947402398007
 30
0.0
 10
10.01023402066337
 20
69.74934526276007
 30
0.0
 10
11.17519942578394
 20
69.82802303221197
 30
0.0
 10
12.34278530718378
 20
69.8596953056996
 30
0.0
 10
13.15046982593037
 20
69.85791850918074
 30
0.0
  0
SPLINE
  5
303
330
1F
100
AcDbEntity
  8
IGES_LEVEL_0
 62
     7
100
AcDbSpline
210
0.0
220
0.0
230
1.0
 70
     8
 71
     3
 72
     9
 73
     5
 74
     0
 42
0.0000000001
 43
0.0000000001
 40
55.40987670255012
 40
55.40987670255012
 40
55.40987670255012
 40
55.40987670255012
 40
56.07196392433411
 40
56.36677892842
 40
56.36677892842
 40
56.36677892842
 40
56.36677892842
 10
13.15046982593037
 20
69.85791850918074
 30
0.0
 10
13.95816216213804
 20
69.85614169546452
 30
0.0
 10
15.12574022607679
 20
69.82802303221197
 30
0.0
 10
16.29070563119725
 20
69.74934526275858
 30
0.0
 10
16.64915572383137
 20
69.71947402398007
 30
0.0
  0
SPLINE
  5
304
330
1F
100
AcDbEntity
  8
IGES_LEVEL_0
 62
     7
100
AcDbSpline
210
0.0
220
0.0
230
1.0
 70
     8
 71
     3
 72
     9
 73
     5
 74
     0
 42
0.0000000001
 43
0.0000000001
 40
56.36677892842
 40
56.36677892842
 40
56.36677892842
 40
56.36677892842
 40
56.75395882135901
 40
57.36677892842001
 40
57.36677892842001
 40
57.36677892842001
 40
57.36677892842001
 10
16.64915572383137
 20
69.71947402398007
 30
0.0
 10
17.09427704950937
 20
69.68238008628006
 30
0.0
 10
18.24206401182957
 20
69.56414697209007
 30
0.0
 10
19.38244257580154
 20
69.37831593436573
 30
0.0
 10
20.07280611021937
 20
69.22648517956006
 30
0.0
  0
SPLINE
  5
305
330
1F
100
AcDbEntity
  8
IGES_LEVEL_0
 62
     7
100
AcDbSpline
210
0.0
220
0.0
230
1.0
 70
     8
 71
     3
 72
    17
 73
    13
 74
     0
 42
0.0000000001
 43
0.0000000001
 40
57.36677892842001
 40
57.36677892842001
 40
57.36677892842001
 40
57.36677892842001
 40
57.38498206646828
 40
57.46230492930172
 40
57.58520789242299
 40
57.71432445239469
 40
57.84731541623418
 40
57.98149472030878
 40
58.11156811648018
 40
58.22915515543078
 40
58.32593472674988
 40
58.35228598180022
 40
58.35228598180022
 40
58.35228598180022
 40
58.35228598180022
 10
20.07280611021937
 20
69.22648517956006
 30
0.0
 10
20.09300125568549
 20
69.22204368746688
 30
0.0
 10
20.19891498117828
 20
69.19681365012892
 30
0.0
 10
20.43597977701737
 20
69.11730903834007
 30
0.0
 10
20.76878613663337
 20
68.94081559882008
 30
0.0
 10
21.11962876047337
 20
68.67558251654006
 30
0.0
 10
21.44138823479337
 20
68.35788121859005
 30
0.0
 10
21.72578407895837
 20
68.00519374093008
 30
0.0
 10
21.96231134442537
 20
67.63965082625006
 30
0.0
 10
22.13977786772637
 20
67.28899243157008
 30
0.0
 10
22.23316514371791
 20
67.03078427970468
 30
0.0
 10
22.26657493925629
 20
66.89379412894213
 30
0.0
 10
22.27074837435525
 20
66.86403525020947
 30
0.0
  0
LINE
  5
306
330
1F
100
AcDbEntity
  8
IGES_LEVEL_0
 62
     7
100
AcDbLine
 10
22.27074837435525
 20
66.86403525020947
 30
0.0
 11
22.28627010212737
 21
66.75335682739006
 31
0.0
  0
SPLINE
  5
307
330
1F
100
AcDbEntity
  8
IGES_LEVEL_0
 62
     7
100
AcDbSpline
210
0.0
220
0.0
230
1.0
 70
     8
 71
     3
 72
     8
 73
     4
 74
     0
 42
0.0000000001
 43
0.0000000001
 40
58.3847104458614
 40
58.3847104458614
 40
58.3847104458614
 40
58.3847104458614
 40
59.3847104458614
 40
59.3847104458614
 40
59.3847104458614
 40
59.3847104458614
 10
22.28627010212737
 20
66.75335682739006
 30
0.0
 10
22.44583817540698
 20
65.61554904321761
 30
0.0
 10
22.61627522201593
 20
64.45733935385739
 30
0.0
 10
22.68508639041437
 20
64.10641268114006
 30
0.0
  0
LINE
  5
308
330
1F
100
AcDbEntity
  8
IGES_LEVEL_0
 62
     7
100
AcDbLine
 10
22.68508639041437
 20
64.10641268114006
 30
0.0
 11
22.719593926638
 21
63.93042940469701
 31
0.0
  0
ARC
  5
309
330
1F
100
AcDbEntity
  8
IGES_LEVEL_0
 62
     7
100
AcDbCircle
 10
22.62146265816399
 20
63.91118741551499
 30
0.0
 40
0.1
100
AcDbArc
 50
313.5405815190018
 51
11.09404011628721
  0
SPLINE
  5
30A
330
1F
100
AcDbEntity
  8
DEFAULT
 62
     7
100
AcDbSpline
210
0.0
220
0.0
230
1.0
 70
     8
 71
     2
 72
     7
 73
     4
 74
     0
 42
0.0000000001
 43
0.0000000001
 40
-6.097949811995643
 40
-6.097949811995643
 40
-6.097949811995643
 40
-5.577135550217555
 40
-4.577135550217555
 40
-4.577135550217555
 40
-4.577135550217555
 10
4.245094706473369
 20
63.63314158299007
 30
0.0
 10
4.197634276010934
 20
62.05528326903511
 30
0.0
 10
4.03635192354937
 20
57.44787000598006
 30
0.0
 10
3.930301923549369
 20
54.41830000598007
 30
0.0
  0
SPLINE
  5
30B
330
1F
100
AcDbEntity
  8
DEFAULT
 62
     7
100
AcDbSpline
210
0.0
220
0.0
230
1.0
 70
     8
 71
     3
 72
     8
 73
     4
 74
     0
 42
0.0000000001
 43
0.0000000001
 40
-4.577135550217555
 40
-4.577135550217555
 40
-4.577135550217555
 40
-4.577135550217555
 40
-3.577135550217555
 40
-3.577135550217555
 40
-3.577135550217555
 40
-3.577135550217555
 10
3.930301923549369
 20
54.41830000598007
 30
0.0
 10
3.882132053115703
 20
53.04221330753861
 30
0.0
 10
3.912451690267305
 20
51.66446368532108
 30
0.0
 10
3.915568984505368
 20
50.28753768131007
 30
0.0
  0
SPLINE
  5
30C
330
1F
100
AcDbEntity
  8
DEFAULT
 62
     7
100
AcDbSpline
210
0.0
220
0.0
230
1.0
 70
     8
 71
     3
 72
    21
 73
    17
 74
     0
 42
0.0000000001
 43
0.0000000001
 40
-3.577135550217555
 40
-3.577135550217555
 40
-3.577135550217555
 40
-3.577135550217555
 40
-3.536480608540355
 40
-3.491836784764055
 40
-3.442892959812455
 40
-3.389349261591855
 40
-3.330923588608055
 40
-3.267359039785555
 40
-3.198401891523655
 40
-3.123402564926455
 40
-3.041468437370655
 40
-2.953624958200956
 40
-2.859929032441455
 40
-2.758785449532455
 40
-2.649162150624125
 40
-2.577135550217555
 40
-2.577135550217555
 40
-2.577135550217555
 40
-2.577135550217555
 10
3.915568984505368
 20
50.28753768131007
 30
0.0
 10
3.915633740357369
 20
50.25893466545007
 30
0.0
 10
3.915848584918368
 20
50.19892240741007
 30
0.0
 10
3.916481914341369
 20
50.10447698875007
 30
0.0
 10
3.917581127042369
 20
50.00096716744007
 30
0.0
 10
3.919341793492369
 20
49.88776863554007
 30
0.0
 10
3.922035997981369
 20
49.76429884310007
 30
0.0
 10
3.926045186909368
 20
49.63001443671007
 30
0.0
 10
3.931919751240368
 20
49.48412636076007
 30
0.0
 10
3.940486703045369
 20
49.32542401488007
 30
0.0
 10
3.952923079124369
 20
49.15364613920007
 30
0.0
 10
3.970912648086368
 20
48.96912681366007
 30
0.0
 10
3.996981143709369
 20
48.77190569292007
 30
0.0
 10
4.035497193436369
 20
48.56106438385007
 30
0.0
 10
4.085371495453368
 20
48.36820579300007
 30
0.0
 10
4.127683031013367
 20
48.24741468027007
 30
0.0
 10
4.146327581561368
 20
48.20025957927007
 30
0.0
  0
SPLINE
  5
30D
330
1F
100
AcDbEntity
  8
DEFAULT
 62
     7
100
AcDbSpline
210
0.0
220
0.0
230
1.0
 70
     8
 71
     3
 72
     8
 73
     4
 74
     0
 42
0.0000000001
 43
0.0000000001
 40
-2.577135550217555
 40
-2.577135550217555
 40
-2.577135550217555
 40
-2.577135550217555
 40
-1.577135550217555
 40
-1.577135550217555
 40
-1.577135550217555
 40
-1.577135550217555
 10
4.146327581561368
 20
48.20025957927007
 30
0.0
 10
4.296258751700067
 20
47.82105926265548
 30
0.0
 10
4.670539737289004
 20
47.50052741317305
 30
0.0
 10
5.063148944086868
 20
47.39039001426916
 30
0.0
  0
SPLINE
  5
30E
330
1F
100
AcDbEntity
  8
DEFAULT
 62
     7
100
AcDbSpline
210
0.0
220
0.0
230
1.0
 70
     8
 71
     3
 72
    18
 73
    14
 74
     0
 42
0.0000000001
 43
0.0000000001
 40
-1.577135550217555
 40
-1.577135550217555
 40
-1.577135550217555
 40
-1.577135550217555
 40
-0.9999999999999998
 40
-0.9224092190158998
 40
-0.8423490424335998
 40
-0.7754909429557998
 40
-0.7070809815191997
 40
-0.6371673449557997
 40
-0.5657988431029998
 40
-0.4188621043600997
 40
-0.2665034121835997
 40
-0.1351081204833998
 40
0.0580299202719134
 40
0.0580299202719134
 40
0.0580299202719134
 40
0.0580299202719134
 10
5.063148944086868
 20
47.39039001426916
 30
0.0
 10
5.96103963870307
 20
47.13850762360491
 30
0.0
 10
7.044252373162625
 20
47.01506048257274
 30
0.0
 10
8.264409843678267
 20
46.94832069190007
 30
0.0
 10
8.637407709481368
 20
46.93185159583006
 30
0.0
 10
8.995250924490367
 20
46.91852832052008
 30
0.0
 10
9.336295207070368
 20
46.90766932229006
 30
0.0
 10
9.684883459329368
 20
46.89817606375007
 30
0.0
 10
10.16405968957637
 20
46.88698965184008
 30
0.0
 10
10.78037003958537
 20
46.87560337852006
 30
0.0
 10
11.49654919176637
 20
46.86636679278008
 30
0.0
 10
12.28959050183584
 20
46.85965459615561
 30
0.0
 10
12.82928785519274
 20
46.85578278532053
 30
0.0
 10
13.15046982593037
 20
46.85656646911011
 30
0.0
  0
SPLINE
  5
30F
330
1F
100
AcDbEntity
  8
DEFAULT
 62
     7
100
AcDbSpline
210
0.0
220
0.0
230
1.0
 70
     8
 71
     3
 72
    18
 73
    14
 74
     0
 42
0.0000000001
 43
0.0000000001
 40
0.0580299202719134
 40
0.0580299202719134
 40
0.0580299202719134
 40
0.0580299202719134
 40
0.2511679610272267
 40
0.3825632527274266
 40
0.5349219449039266
 40
0.6818586836468267
 40
0.7532271854996266
 40
0.8231408220630266
 40
0.8915507834996267
 40
0.9584088829774267
 40
1.038469059559727
 40
1.116059840543827
 40
1.693195390761382
 40
1.693195390761382
 40
1.693195390761382
 40
1.693195390761382
 10
13.15046982593037
 20
46.85656646911011
 30
0.0
 10
13.47165562106659
 20
46.85735016223121
 30
0.0
 10
14.0113491500249
 20
46.85965459615561
 30
0.0
 10
14.80439046009437
 20
46.86636679278008
 30
0.0
 10
15.52056961227537
 20
46.87560337852006
 30
0.0
 10
16.13687996228437
 20
46.88698965184008
 30
0.0
 10
16.61605619253137
 20
46.89817606375007
 30
0.0
 10
16.96464444479037
 20
46.90766932229006
 30
0.0
 10
17.30568872737037
 20
46.91852832052008
 30
0.0
 10
17.66353194237937
 20
46.93185159583006
 30
0.0
 10
18.03652980818247
 20
46.94832069190007
 30
0.0
 10
19.25668727869812
 20
47.01506048257274
 30
0.0
 10
20.33990001315766
 20
47.13850762360493
 30
0.0
 10
21.23779070777387
 20
47.39039001426916
 30
0.0
  0
SPLINE
  5
310
330
1F
100
AcDbEntity
  8
DEFAULT
 62
     7
100
AcDbSpline
210
0.0
220
0.0
230
1.0
 70
     8
 71
     3
 72
     8
 73
     4
 74
     0
 42
0.0000000001
 43
0.0000000001
 40
1.693195390761382
 40
1.693195390761382
 40
1.693195390761382
 40
1.693195390761382
 40
2.693195390761382
 40
2.693195390761382
 40
2.693195390761382
 40
2.693195390761382
 10
21.23779070777387
 20
47.39039001426916
 30
0.0
 10
21.63039991457174
 20
47.50052741317305
 30
0.0
 10
22.00468090016069
 20
47.82105926265547
 30
0.0
 10
22.15461207029937
 20
48.20025957927007
 30
0.0
  0
SPLINE
  5
311
330
1F
100
AcDbEntity
  8
DEFAULT
 62
     7
100
AcDbSpline
210
0.0
220
0.0
230
1.0
 70
     8
 71
     3
 72
    21
 73
    17
 74
     0
 42
0.0000000001
 43
0.0000000001
 40
2.693195390761382
 40
2.693195390761382
 40
2.693195390761382
 40
2.693195390761382
 40
2.765221991167952
 40
2.874845290076282
 40
2.975988872985282
 40
3.069684798744782
 40
3.157528277914482
 40
3.239462405470282
 40
3.314461732067482
 40
3.383418880329382
 40
3.446983429151882
 40
3.505409102135682
 40
3.558952800356282
 40
3.607896625307882
 40
3.652540449084182
 40
3.693195390761382
 40
3.693195390761382
 40
3.693195390761382
 40
3.693195390761382
 10
22.15461207029937
 20
48.20025957927007
 30
0.0
 10
22.17325662084737
 20
48.24741468027007
 30
0.0
 10
22.21556815640737
 20
48.36820579300007
 30
0.0
 10
22.26544245842437
 20
48.56106438385007
 30
0.0
 10
22.30395850815137
 20
48.77190569292007
 30
0.0
 10
22.33002700377437
 20
48.96912681366007
 30
0.0
 10
22.34801657273637
 20
49.15364613920007
 30
0.0
 10
22.36045294881537
 20
49.32542401488007
 30
0.0
 10
22.36901990062037
 20
49.48412636076007
 30
0.0
 10
22.37489446495137
 20
49.63001443671007
 30
0.0
 10
22.37890365387937
 20
49.76429884310007
 30
0.0
 10
22.38159785836837
 20
49.88776863554007
 30
0.0
 10
22.38335852481837
 20
50.00096716744007
 30
0.0
 10
22.38445773751937
 20
50.10447698875007
 30
0.0
 10
22.38509106694237
 20
50.19892240741007
 30
0.0
 10
22.38530591150337
 20
50.25893466545007
 30
0.0
 10
22.38537066735537
 20
50.28753768131007
 30
0.0
  0
SPLINE
  5
312
330
1F
100
AcDbEntity
  8
DEFAULT
 62
     7
100
AcDbSpline
210
0.0
220
0.0
230
1.0
 70
     8
 71
     3
 72
     8
 73
     4
 74
     0
 42
0.0000000001
 43
0.0000000001
 40
3.693195390761382
 40
3.693195390761382
 40
3.693195390761382
 40
3.693195390761382
 40
4.693195390761382
 40
4.693195390761382
 40
4.693195390761382
 40
4.693195390761382
 10
22.38537066735537
 20
50.28753768131007
 30
0.0
 10
22.3884879615934
 20
51.66446368532108
 30
0.0
 10
22.41880759874504
 20
53.04221330753861
 30
0.0
 10
22.37063772831137
 20
54.41830000598007
 30
0.0
  0
SPLINE
  5
313
330
1F
100
AcDbEntity
  8
DEFAULT
 62
     7
100
AcDbSpline
210
0.0
220
0.0
230
1.0
 70
     8
 71
     2
 72
     7
 73
     4
 74
     0
 42
0.0000000001
 43
0.0000000001
 40
4.693195390761382
 40
4.693195390761382
 40
4.693195390761382
 40
5.693195390761382
 40
6.21400965253947
 40
6.21400965253947
 40
6.21400965253947
 10
22.37063772831137
 20
54.41830000598007
 30
0.0
 10
22.26458772831137
 20
57.44787000598006
 30
0.0
 10
22.10330537584981
 20
62.05528326903511
 30
0.0
 10
22.05584494538737
 20
63.63314158299007
 30
0.0
  0
LINE
  5
314
330
1F
100
AcDbEntity
  8
DEFAULT
 62
     7
100
AcDbLine
 10
4.278391792069326
 20
63.65615814201347
 30
0.0
 11
22.02254785979141
 21
63.65615814201347
 31
0.0
  0
ARC
  5
315
330
1F
100
AcDbEntity
  8
DEFAULT
 62
     7
100
AcDbCircle
 10
4.04392522068936
 20
52.81947854846578
 30
0.0
 40
11.87303695923041
100
AcDbArc
 50
92.75267229608538
 51
99.54443846721789
  0
ARC
  5
316
330
1F
100
AcDbEntity
  8
DEFAULT
 62
     7
100
AcDbCircle
 10
2.091808331451679
 20
64.42954482278813
 30
0.0
 40
0.10000000000003
100
AcDbArc
 50
99.54443846722906
 51
178.0000338015607
  0
LINE
  5
317
330
1F
100
AcDbEntity
  8
DEFAULT
 62
     7
100
AcDbLine
 10
1.991869246690871
 20
64.43303471349947
 30
0.0
 11
1.541650669148368
 21
51.54024341896007
 31
0.0
  0
ARC
  5
318
330
1F
100
AcDbEntity
  8
DEFAULT
 62
     7
100
AcDbCircle
 10
1.613510680025065
 20
51.54336270273071
 30
0.0
 40
0.0719276796125159
100
AcDbArc
 50
182.4855224538849
 51
257.7090693234706
  0
ARC
  5
319
330
1F
100
AcDbEntity
  8
DEFAULT
 62
     7
100
AcDbCircle
 10
2.334527495774852
 20
58.31379847643737
 30
0.0
 40
6.880229564415433
100
AcDbArc
 50
263.8563872676036
 51
276.1439730425968
  0
SPLINE
  5
31A
330
1F
100
AcDbEntity
  8
DEFAULT
 62
     7
100
AcDbSpline
210
0.0
220
0.0
230
1.0
 70
     8
 71
     3
 72
    67
 73
    63
 74
     0
 42
0.0000000001
 43
0.0000000001
 40
35.64232829617765
 40
35.64232829617765
 40
35.64232829617765
 40
35.64232829617765
 40
35.65075418946924
 40
35.65833044375975
 40
35.66262593348682
 40
35.66524678666185
 40
35.667322133315
 40
35.66929509389959
 40
35.67136399961362
 40
35.67361933324354
 40
35.6761341290068
 40
35.67897049748508
 40
35.68217983529657
 40
35.68581438754894
 40
35.68992297334633
 40
35.69455928123399
 40
35.69977147182595
 40
35.70559586964116
 40
35.7120600802964
 40
35.71918967719073
 40
35.72700264423544
 40
35.73552123660467
 40
35.74477567147595
 40
35.75479356389744
 40
35.76560543532884
 40
35.77724077866334
 40
35.78973171744295
 40
35.80309984897485
 40
35.81735745802364
 40
35.83251086409425
 40
35.84856796331395
 40
35.86554267488765
 40
35.88343455578705
 40
35.90223508626654
 40
35.92191731606594
 40
35.94245158650544
 40
35.96381000964274
 40
35.98597281797424
 40
36.00891982997874
 40
36.03262859224255
 40
36.05706945195244
 40
36.08221247519525
 40
36.10803246775345
 40
36.13450176107175
 40
36.16158917461394
 40
36.18926278422005
 40
36.21749032916515
 40
36.24624107451314
 40
36.27548629284635
 40
36.30520269252924
 40
36.33537077555644
 40
36.36597231287705
 40
36.39698882111554
 40
36.42840575392904
 40
36.46020961671245
 40
36.49238840382164
 40
36.52493380642424
 40
36.55783751548604
 40
36.59109269194605
 40
36.62469486449395
 40
36.64232829617765
 40
39.71615956679787
 40
39.71615956679787
 40
39.71615956679787
 40
39.71615956679787
 10
3.070898987149369
 20
51.47308828774008
 30
0.0
 10
3.08003083554637
 20
51.47407128989008
 30
0.0
 10
3.096891219597368
 20
51.47994101320006
 30
0.0
 10
3.113085518367369
 20
51.49545686488008
 30
0.0
 10
3.120614339310367
 20
51.50922307217007
 30
0.0
 10
3.123861227320368
 20
51.51834839024007
 30
0.0
 10
3.125689190666368
 20
51.52528683369006
 30
0.0
 10
3.127045992220371
 20
51.53172434400008
 30
0.0
 10
3.128229835546367
 20
51.53839169247008
 30
0.0
 10
3.12935075439937
 20
51.54565968714006
 30
0.0
 10
3.130457701783368
 20
51.55376339918008
 30
0.0
 10
3.131579375447369
 20
51.56289943805007
 30
0.0
 10
3.132736355135369
 20
51.57324349913006
 30
0.0
 10
3.133940972996368
 20
51.58495816962007
 30
0.0
 10
3.135204789274371
 20
51.59820875323007
 30
0.0
 10
3.136539476696368
 20
51.61315628561007
 30
0.0
 10
3.137952111522369
 20
51.62994884136007
 30
0.0
 10
3.139441183750367
 20
51.64870709218006
 30
0.0
 10
3.141006135680371
 20
51.66952724226007
 30
0.0
 10
3.142648890795367
 20
51.69248556695008
 30
0.0
 10
3.144369538124368
 20
51.71765273916007
 30
0.0
 10
3.146178042280367
 20
51.74510381004008
 30
0.0
 10
3.14807686191137
 20
51.77492477644007
 30
0.0
 10
3.150063653573367
 20
51.80721083980007
 30
0.0
 10
3.152135098830369
 20
51.84205646173008
 30
0.0
 10
3.154283413816368
 20
51.87956119182006
 30
0.0
 10
3.156500408630366
 20
51.91981493977008
 30
0.0
 10
3.15878233146337
 20
51.96288878842006
 30
0.0
 10
3.161157953670368
 20
52.00882437405007
 30
0.0
 10
3.163638997716369
 20
52.05764957668007
 30
0.0
 10
3.166254573825366
 20
52.10939319260008
 30
0.0
 10
3.168961501342369
 20
52.16408039181006
 30
0.0
 10
3.171740034938369
 20
52.22171740590009
 30
0.0
 10
3.174570911524367
 20
52.28226639002008
 30
0.0
 10
3.177457819029368
 20
52.34565695173006
 30
0.0
 10
3.180412647328369
 20
52.41179753546007
 30
0.0
 10
3.183447482059369
 20
52.48060435933007
 30
0.0
 10
3.186549236994368
 20
52.55200496555008
 30
0.0
 10
3.189711232657369
 20
52.62593245386007
 30
0.0
 10
3.192912960756368
 20
52.70230986148005
 30
0.0
 10
3.196154277887369
 20
52.78104885069006
 30
0.0
 10
3.199445169682366
 20
52.86205774364008
 30
0.0
 10
3.202783426316368
 20
52.94524751203007
 30
0.0
 10
3.206164693404369
 20
53.03052787414007
 30
0.0
 10
3.209576580736369
 20
53.11780161988007
 30
0.0
 10
3.213019972667369
 20
53.20696607292008
 30
0.0
 10
3.216495072871369
 20
53.29791907267008
 30
0.0
 10
3.220006026181369
 20
53.39056175407009
 30
0.0
 10
3.22355515886437
 20
53.48480498095006
 30
0.0
 10
3.227126068852367
 20
53.58057241168007
 30
0.0
 10
3.23071024719737
 20
53.67779869284008
 30
0.0
 10
3.234307350882367
 20
53.77642334097006
 30
0.0
 10
3.237917055945371
 20
53.87639120276007
 30
0.0
 10
3.241542246525367
 20
53.97765210597007
 30
0.0
 10
3.245189024801369
 20
54.08016273840007
 30
0.0
 10
3.248862862554369
 20
54.18388652689006
 30
0.0
 10
3.25256231171137
 20
54.28879272452008
 30
0.0
 10
3.256289174935367
 20
54.39485602849007
 30
0.0
 10
3.260043941223368
 20
54.50205531211007
 30
0.0
 10
3.263212579393367
 20
54.59284615848007
 30
0.0
 10
3.380103887292469
 20
57.95094474570352
 30
0.0
 10
3.478631483031287
 20
61.27353041328959
 30
0.0
 10
3.578482794582329
 20
64.57590892487582
 30
0.0
  0
ARC
  5
31B
330
1F
100
AcDbEntity
  8
DEFAULT
 62
     7
100
AcDbCircle
 10
3.478528474592763
 20
64.57893116170033
 30
0.0
 40
0.1
100
AcDbArc
 50
358.2681221373066
 51
92.75267229609005
  0
ARC
  5
31C
330
1F
100
AcDbEntity
  8
DEFAULT
 62
     7
100
AcDbCircle
 10
22.25701443116893
 20
52.81947854844412
 30
0.0
 40
11.87303695925216
100
AcDbArc
 50
80.45556153278781
 51
87.24732770391096
  0
ARC
  5
31D
330
1F
100
AcDbEntity
  8
DEFAULT
 62
     7
100
AcDbCircle
 10
24.20913132040906
 20
64.42954482278813
 30
0.0
 40
0.1000000000000227
100
AcDbArc
 50
1.999966198439401
 51
80.45556153277295
  0
LINE
  5
31E
330
1F
100
AcDbEntity
  8
DEFAULT
 62
     7
100
AcDbLine
 10
24.30907040516987
 20
64.43303471349947
 30
0.0
 11
24.75928898271237
 21
51.54024341896007
 31
0.0
  0
ARC
  5
31F
330
1F
100
AcDbEntity
  8
DEFAULT
 62
     7
100
AcDbCircle
 10
24.68742897183567
 20
51.5433627027307
 30
0.0
 40
0.0719276796125169
100
AcDbArc
 50
282.2909306765313
 51
357.5144775461208
  0
ARC
  5
320
330
1F
100
AcDbEntity
  8
DEFAULT
 62
     7
100
AcDbCircle
 10
23.96641215608592
 20
58.31379847643248
 30
0.0
 40
6.880229564410571
100
AcDbArc
 50
263.8560269573986
 51
276.1436127324005
  0
SPLINE
  5
321
330
1F
100
AcDbEntity
  8
DEFAULT
 62
     7
100
AcDbSpline
210
0.0
220
0.0
230
1.0
 70
     8
 71
     3
 72
    67
 73
    63
 74
     0
 42
0.0000000001
 43
0.0000000001
 40
35.64232829617764
 40
35.64232829617764
 40
35.64232829617764
 40
35.64232829617764
 40
35.65075418946923
 40
35.65833044375975
 40
35.66262593348682
 40
35.66524678666184
 40
35.667322133315
 40
35.66929509389958
 40
35.6713639996136
 40
35.67361933324353
 40
35.67613412900679
 40
35.67897049748508
 40
35.68217983529656
 40
35.68581438754893
 40
35.68992297334632
 40
35.69455928123398
 40
35.69977147182594
 40
35.70559586964114
 40
35.71206008029639
 40
35.71918967719072
 40
35.72700264423543
 40
35.73552123660465
 40
35.74477567147594
 40
35.75479356389744
 40
35.76560543532884
 40
35.77724077866333
 40
35.78973171744294
 40
35.80309984897484
 40
35.81735745802364
 40
35.83251086409424
 40
35.84856796331394
 40
35.86554267488764
 40
35.88343455578704
 40
35.90223508626654
 40
35.92191731606594
 40
35.94245158650544
 40
35.96381000964274
 40
35.98597281797424
 40
36.00891982997874
 40
36.03262859224254
 40
36.05706945195244
 40
36.08221247519523
 40
36.10803246775344
 40
36.13450176107174
 40
36.16158917461394
 40
36.18926278422003
 40
36.21749032916514
 40
36.24624107451314
 40
36.27548629284634
 40
36.30520269252924
 40
36.33537077555643
 40
36.36597231287704
 40
36.39698882111554
 40
36.42840575392903
 40
36.46020961671244
 40
36.49238840382164
 40
36.52493380642424
 40
36.55783751548604
 40
36.59109269194604
 40
36.62469486449394
 40
36.64232829617764
 40
39.71615956679805
 40
39.71615956679805
 40
39.71615956679805
 40
39.71615956679805
 10
23.23004066471137
 20
51.47308828774008
 30
0.0
 10
23.22090881631438
 20
51.47407128989008
 30
0.0
 10
23.20404843226337
 20
51.47994101320006
 30
0.0
 10
23.18785413349337
 20
51.49545686488008
 30
0.0
 10
23.18032531255037
 20
51.50922307217007
 30
0.0
 10
23.17707842454037
 20
51.51834839024007
 30
0.0
 10
23.17525046119437
 20
51.52528683369006
 30
0.0
 10
23.17389365964036
 20
51.53172434400008
 30
0.0
 10
23.17270981631437
 20
51.53839169247008
 30
0.0
 10
23.17158889746137
 20
51.54565968714006
 30
0.0
 10
23.17048195007737
 20
51.55376339918008
 30
0.0
 10
23.16936027641336
 20
51.56289943805007
 30
0.0
 10
23.16820329672537
 20
51.57324349913006
 30
0.0
 10
23.16699867886437
 20
51.58495816962007
 30
0.0
 10
23.16573486258637
 20
51.59820875323007
 30
0.0
 10
23.16440017516437
 20
51.61315628561007
 30
0.0
 10
23.16298754033838
 20
51.62994884136007
 30
0.0
 10
23.16149846811037
 20
51.64870709218006
 30
0.0
 10
23.15993351618037
 20
51.66952724226007
 30
0.0
 10
23.15829076106537
 20
51.69248556695008
 30
0.0
 10
23.15657011373637
 20
51.71765273916007
 30
0.0
 10
23.15476160958037
 20
51.74510381004008
 30
0.0
 10
23.15286278994937
 20
51.77492477644007
 30
0.0
 10
23.15087599828738
 20
51.80721083980007
 30
0.0
 10
23.14880455303037
 20
51.84205646173008
 30
0.0
 10
23.14665623804437
 20
51.87956119182006
 30
0.0
 10
23.14443924323037
 20
51.91981493977008
 30
0.0
 10
23.14215732039737
 20
51.96288878842006
 30
0.0
 10
23.13978169819037
 20
52.00882437405007
 30
0.0
 10
23.13730065414437
 20
52.05764957668007
 30
0.0
 10
23.13468507803536
 20
52.10939319260008
 30
0.0
 10
23.13197815051838
 20
52.16408039181006
 30
0.0
 10
23.12919961692237
 20
52.22171740590009
 30
0.0
 10
23.12636874033637
 20
52.28226639002008
 30
0.0
 10
23.12348183283137
 20
52.34565695173006
 30
0.0
 10
23.12052700453237
 20
52.41179753546007
 30
0.0
 10
23.11749216980137
 20
52.48060435933007
 30
0.0
 10
23.11439041486637
 20
52.55200496555008
 30
0.0
 10
23.11122841920337
 20
52.62593245386007
 30
0.0
 10
23.10802669110437
 20
52.70230986148005
 30
0.0
 10
23.10478537397337
 20
52.78104885069006
 30
0.0
 10
23.10149448217837
 20
52.86205774364008
 30
0.0
 10
23.09815622554437
 20
52.94524751203007
 30
0.0
 10
23.09477495845637
 20
53.03052787414007
 30
0.0
 10
23.09136307112437
 20
53.11780161988007
 30
0.0
 10
23.08791967919337
 20
53.20696607292008
 30
0.0
 10
23.08444457898937
 20
53.29791907267008
 30
0.0
 10
23.08093362567938
 20
53.39056175407009
 30
0.0
 10
23.07738449299637
 20
53.48480498095006
 30
0.0
 10
23.07381358300837
 20
53.58057241168007
 30
0.0
 10
23.07022940466337
 20
53.67779869284008
 30
0.0
 10
23.06663230097837
 20
53.77642334097006
 30
0.0
 10
23.06302259591537
 20
53.87639120276007
 30
0.0
 10
23.05939740533538
 20
53.97765210597007
 30
0.0
 10
23.05575062705938
 20
54.08016273840007
 30
0.0
 10
23.05207678930637
 20
54.18388652689006
 30
0.0
 10
23.04837734014937
 20
54.28879272452008
 30
0.0
 10
23.04465047692537
 20
54.39485602849007
 30
0.0
 10
23.04089571063737
 20
54.50205531211007
 30
0.0
 10
23.03772707246737
 20
54.59284615848007
 30
0.0
 10
22.9208357645683
 20
57.95094474570369
 30
0.0
 10
22.82230816880911
 20
61.27353041329006
 30
0.0
 10
22.72245685727775
 20
64.57590892487644
 30
0.0
  0
ARC
  5
322
330
1F
100
AcDbEntity
  8
DEFAULT
 62
     7
100
AcDbCircle
 10
22.82241117726733
 20
64.57893116170035
 30
0.0
 40
0.1
100
AcDbArc
 50
87.24732770391289
 51
181.7318778623513
  0
ENDSEC
  0
SECTION
  2
OBJECTS
  0
DICTIONARY
  5
C
330
0
100
AcDbDictionary
  3
ACAD_GROUP
350
D
  3
ACAD_LAYOUT
350
1A
  3
ACAD_MLINESTYLE
350
17
  3
ACAD_PLOTSETTINGS
350
19
  3
ACDBHEADERROUNDTRIPXREC
350
323
  0
DICTIONARY
  5
343
330
29
100
AcDbDictionary
280
     1
  3
ACAD_XREC_ROUNDTRIP
360
344
  0
DICTIONARY
  5
D
102
{ACAD_REACTORS
330
C
102
}
330
C
100
AcDbDictionary
  0
DICTIONARY
  5
1A
102
{ACAD_REACTORS
330
C
102
}
330
C
100
AcDbDictionary
  0
DICTIONARY
  5
17
102
{ACAD_REACTORS
330
C
102
}
330
C
100
AcDbDictionary
  3
STANDARD
350
18
  0
DICTIONARY
  5
19
102
{ACAD_REACTORS
330
C
102
}
330
C
100
AcDbDictionary
  0
DICTIONARY
  5
323
102
{ACAD_REACTORS
330
C
102
}
330
C
100
AcDbDictionary
  3
CEPSNTYPE
350
32C
  3
DIMSTYLEDATA
350
342
  3
FINGERPRINTGUID
350
32D
  3
HYPERLINKBASE
350
326
  3
INSUNITS
350
32B
  3
LAYOUTDICT
350
328
  3
LWETCUNION
350
32A
  3
PLOTSETDICT
350
329
  3
PSVPSCALE
350
32F
  3
PUCSBASE
350
332
  3
PUCSORGBACK
350
338
  3
PUCSORGBOTTOM
350
334
  3
PUCSORGFRONT
350
337
  3
PUCSORGLEFT
350
335
  3
PUCSORGRIGHT
350
336
  3
PUCSORGTOP
350
333
  3
PUCSORTHOREF
350
330
  3
PUCSORTHOVIEW
350
331
  3
STYLESHEET
350
327
  3
TSTACKALIGN
350
324
  3
TSTACKSIZE
350
325
  3
UCSBASE
350
33B
  3
UCSORGBACK
350
341
  3
UCSORGBOTTOM
350
33D
  3
UCSORGFRONT
350
340
  3
UCSORGLEFT
350
33E
  3
UCSORGRIGHT
350
33F
  3
UCSORGTOP
350
33C
  3
UCSORTHOREF
350
339
  3
UCSORTHOVIEW
350
33A
  3
VERSIONGUID
350
32E
  0
XRECORD
  5
344
102
{ACAD_REACTORS
330
343
102
}
330
343
100
AcDbXrecord
102
UCS
 74
     0
 71
     1
 10
0.0
 20
0.0
 30
0.0
 10
1.0
 20
0.0
 30
0.0
 10
0.0
 20
1.0
 30
0.0
146
0.0
 79
     0
102
VIEW
281
     0
  0
MLINESTYLE
  5
18
102
{ACAD_REACTORS
330
17
102
}
330
17
100
AcDbMlineStyle
  2
Standard
 70
     0
  3

 62
   256
 51
90.0
 52
90.0
 71
     2
 49
0.5
 62
   256
  6
BYLAYER
 49
-0.5
 62
   256
  6
BYLAYER
  0
XRECORD
  5
32C
102
{ACAD_REACTORS
330
323
102
}
330
323
100
AcDbXrecord
 90
        0
  0
XRECORD
  5
342
102
{ACAD_REACTORS
330
323
102
}
330
323
100
AcDbXrecord
1000
DSTYLE
1002
{
1070
   340
340
11
1002
}
  0
XRECORD
  5
32D
102
{ACAD_REACTORS
330
323
102
}
330
323
100
AcDbXrecord
  1
{FAEB1C30-E019-11D5-929B-00C0DF256EC4}
  0
XRECORD
  5
326
102
{ACAD_REACTORS
330
323
102
}
330
323
100
AcDbXrecord
  1

  0
XRECORD
  5
32B
102
{ACAD_REACTORS
330
323
102
}
330
323
100
AcDbXrecord
 90
        1
  0
XRECORD
  5
328
102
{ACAD_REACTORS
330
323
102
}
330
323
100
AcDbXrecord
340
1A
  0
XRECORD
  5
32A
102
{ACAD_REACTORS
330
323
102
}
330
323
100
AcDbXrecord
 90
     2560
  0
XRECORD
  5
329
102
{ACAD_REACTORS
330
323
102
}
330
323
100
AcDbXrecord
340
19
  0
XRECORD
  5
32F
102
{ACAD_REACTORS
330
323
102
}
330
323
100
AcDbXrecord
 40
0.0
  0
XRECORD
  5
332
102
{ACAD_REACTORS
330
323
102
}
330
323
100
AcDbXrecord
340
0
  0
XRECORD
  5
338
102
{ACAD_REACTORS
330
323
102
}
330
323
100
AcDbXrecord
 10
0.0
 20
0.0
 30
0.0
  0
XRECORD
  5
334
102
{ACAD_REACTORS
330
323
102
}
330
323
100
AcDbXrecord
 10
0.0
 20
0.0
 30
0.0
  0
XRECORD
  5
337
102
{ACAD_REACTORS
330
323
102
}
330
323
100
AcDbXrecord
 10
0.0
 20
0.0
 30
0.0
  0
XRECORD
  5
335
102
{ACAD_REACTORS
330
323
102
}
330
323
100
AcDbXrecord
 10
0.0
 20
0.0
 30
0.0
  0
XRECORD
  5
336
102
{ACAD_REACTORS
330
323
102
}
330
323
100
AcDbXrecord
 10
0.0
 20
0.0
 30
0.0
  0
XRECORD
  5
333
102
{ACAD_REACTORS
330
323
102
}
330
323
100
AcDbXrecord
 10
0.0
 20
0.0
 30
0.0
  0
XRECORD
  5
330
102
{ACAD_REACTORS
330
323
102
}
330
323
100
AcDbXrecord
340
0
  0
XRECORD
  5
331
102
{ACAD_REACTORS
330
323
102
}
330
323
100
AcDbXrecord
 70
     0
  0
XRECORD
  5
327
102
{ACAD_REACTORS
330
323
102
}
330
323
100
AcDbXrecord
  1

  0
XRECORD
  5
324
102
{ACAD_REACTORS
330
323
102
}
330
323
100
AcDbXrecord
 90
        1
  0
XRECORD
  5
325
102
{ACAD_REACTORS
330
323
102
}
330
323
100
AcDbXrecord
 90
       70
  0
XRECORD
  5
33B
102
{ACAD_REACTORS
330
323
102
}
330
323
100
AcDbXrecord
340
0
  0
XRECORD
  5
341
102
{ACAD_REACTORS
330
323
102
}
330
323
100
AcDbXrecord
 10
0.0
 20
0.0
 30
0.0
  0
XRECORD
  5
33D
102
{ACAD_REACTORS
330
323
102
}
330
323
100
AcDbXrecord
 10
0.0
 20
0.0
 30
0.0
  0
XRECORD
  5
340
102
{ACAD_REACTORS
330
323
102
}
330
323
100
AcDbXrecord
 10
0.0
 20
0.0
 30
0.0
  0
XRECORD
  5
33E
102
{ACAD_REACTORS
330
323
102
}
330
323
100
AcDbXrecord
 10
0.0
 20
0.0
 30
0.0
  0
XRECORD
  5
33F
102
{ACAD_REACTORS
330
323
102
}
330
323
100
AcDbXrecord
 10
0.0
 20
0.0
 30
0.0
  0
XRECORD
  5
33C
102
{ACAD_REACTORS
330
323
102
}
330
323
100
AcDbXrecord
 10
0.0
 20
0.0
 30
0.0
  0
XRECORD
  5
339
102
{ACAD_REACTORS
330
323
102
}
330
323
100
AcDbXrecord
340
0
  0
XRECORD
  5
33A
102
{ACAD_REACTORS
330
323
102
}
330
323
100
AcDbXrecord
 70
     0
  0
XRECORD
  5
32E
102
{ACAD_REACTORS
330
323
102
}
330
323
100
AcDbXrecord
  1
{FAEB1C32-E019-11D5-929B-00C0DF256EC4}
  0
ENDSEC
  0
EOF
