  0
SECTION
  2
HEADER
  9
$ACADVER
  1
AC1014
  9
$ACADMAINTVER
 70
     9
  9
$DWGCODEPAGE
  3
ANSI_1252
  9
$INSBASE
 10
0.0
 20
0.0
 30
0.0
  9
$EXTMIN
 10
1.000000000000000E+20
 20
1.000000000000000E+20
 30
1.000000000000000E+20
  9
$EXTMAX
 10
-1.000000000000000E+20
 20
-1.000000000000000E+20
 30
-1.000000000000000E+20
  9
$LIMMIN
 10
0.0
 20
0.0
  9
$LIMMAX
 10
12.0
 20
9.0
  9
$ORTHOMODE
 70
     0
  9
$REGENMODE
 70
     1
  9
$FILLMODE
 70
     1
  9
$QTEXTMODE
 70
     0
  9
$MIRRTEXT
 70
     1
  9
$DRAGMODE
 70
     2
  9
$LTSCALE
 40
1.0
  9
$OSMODE
 70
    37
  9
$ATTMODE
 70
     1
  9
$TEXTSIZE
 40
0.2
  9
$TRACEWID
 40
0.05
  9
$TEXTSTYLE
  7
STANDARD
  9
$CLAYER
  8
DEFAULT
  9
$CELTYPE
  6
BYLAYER
  9
$CECOLOR
 62
   256
  9
$CELTSCALE
 40
1.0
  9
$DELOBJ
 70
     1
  9
$DISPSILH
 70
     0
  9
$DIMSCALE
 40
1.0
  9
$DIMASZ
 40
0.18
  9
$DIMEXO
 40
0.0625
  9
$DIMDLI
 40
0.38
  9
$DIMRND
 40
0.0
  9
$DIMDLE
 40
0.0
  9
$DIMEXE
 40
0.18
  9
$DIMTP
 40
0.0
  9
$DIMTM
 40
0.0
  9
$DIMTXT
 40
0.18
  9
$DIMCEN
 40
0.09
  9
$DIMTSZ
 40
0.0
  9
$DIMTOL
 70
     0
  9
$DIMLIM
 70
     0
  9
$DIMTIH
 70
     1
  9
$DIMTOH
 70
     1
  9
$DIMSE1
 70
     0
  9
$DIMSE2
 70
     0
  9
$DIMTAD
 70
     0
  9
$DIMZIN
 70
     0
  9
$DIMBLK
  1

  9
$DIMASO
 70
     1
  9
$DIMSHO
 70
     1
  9
$DIMPOST
  1

  9
$DIMAPOST
  1

  9
$DIMALT
 70
     0
  9
$DIMALTD
 70
     2
  9
$DIMALTF
 40
25.4
  9
$DIMLFAC
 40
1.0
  9
$DIMTOFL
 70
     0
  9
$DIMTVP
 40
0.0
  9
$DIMTIX
 70
     0
  9
$DIMSOXD
 70
     0
  9
$DIMSAH
 70
     0
  9
$DIMBLK1
  1

  9
$DIMBLK2
  1

  9
$DIMSTYLE
  2
STANDARD
  9
$DIMCLRD
 70
     0
  9
$DIMCLRE
 70
     0
  9
$DIMCLRT
 70
     0
  9
$DIMTFAC
 40
1.0
  9
$DIMGAP
 40
0.09
  9
$DIMJUST
 70
     0
  9
$DIMSD1
 70
     0
  9
$DIMSD2
 70
     0
  9
$DIMTOLJ
 70
     1
  9
$DIMTZIN
 70
     0
  9
$DIMALTZ
 70
     0
  9
$DIMALTTZ
 70
     0
  9
$DIMFIT
 70
     3
  9
$DIMUPT
 70
     0
  9
$DIMUNIT
 70
     2
  9
$DIMDEC
 70
     4
  9
$DIMTDEC
 70
     4
  9
$DIMALTU
 70
     2
  9
$DIMALTTD
 70
     2
  9
$DIMTXSTY
  7
STANDARD
  9
$DIMAUNIT
 70
     0
  9
$LUNITS
 70
     2
  9
$LUPREC
 70
     3
  9
$SKETCHINC
 40
0.1
  9
$FILLETRAD
 40
0.5
  9
$AUNITS
 70
     0
  9
$AUPREC
 70
     0
  9
$MENU
  1
.
  9
$ELEVATION
 40
0.0
  9
$PELEVATION
 40
0.0
  9
$THICKNESS
 40
0.0
  9
$LIMCHECK
 70
     0
  9
$CHAMFERA
 40
0.5
  9
$CHAMFERB
 40
0.5
  9
$CHAMFERC
 40
1.0
  9
$CHAMFERD
 40
0.0
  9
$SKPOLY
 70
     0
  9
$TDCREATE
 40
2453774.463850185
  9
$TDUPDATE
 40
2453774.463850197
  9
$TDINDWG
 40
0.0000000116
  9
$TDUSRTIMER
 40
0.0000000116
  9
$USRTIMER
 70
     1
  9
$ANGBASE
 50
0.0
  9
$ANGDIR
 70
     0
  9
$PDMODE
 70
     0
  9
$PDSIZE
 40
0.0
  9
$PLINEWID
 40
0.0
  9
$COORDS
 70
     1
  9
$SPLFRAME
 70
     0
  9
$SPLINETYPE
 70
     6
  9
$SPLINESEGS
 70
     8
  9
$ATTDIA
 70
     0
  9
$ATTREQ
 70
     1
  9
$HANDLING
 70
     1
  9
$HANDSEED
  5
280
  9
$SURFTAB1
 70
     6
  9
$SURFTAB2
 70
     6
  9
$SURFTYPE
 70
     6
  9
$SURFU
 70
     6
  9
$SURFV
 70
     6
  9
$UCSNAME
  2

  9
$UCSORG
 10
0.0
 20
0.0
 30
0.0
  9
$UCSXDIR
 10
1.0
 20
0.0
 30
0.0
  9
$UCSYDIR
 10
0.0
 20
1.0
 30
0.0
  9
$PUCSNAME
  2

  9
$PUCSORG
 10
0.0
 20
0.0
 30
0.0
  9
$PUCSXDIR
 10
1.0
 20
0.0
 30
0.0
  9
$PUCSYDIR
 10
0.0
 20
1.0
 30
0.0
  9
$USERI1
 70
     0
  9
$USERI2
 70
     0
  9
$USERI3
 70
     0
  9
$USERI4
 70
     0
  9
$USERI5
 70
     0
  9
$USERR1
 40
0.0
  9
$USERR2
 40
0.0
  9
$USERR3
 40
0.0
  9
$USERR4
 40
0.0
  9
$USERR5
 40
0.0
  9
$WORLDVIEW
 70
     1
  9
$SHADEDGE
 70
     3
  9
$SHADEDIF
 70
    70
  9
$TILEMODE
 70
     1
  9
$MAXACTVP
 70
    64
  9
$PINSBASE
 10
0.0
 20
0.0
 30
0.0
  9
$PLIMCHECK
 70
     0
  9
$PEXTMIN
 10
1.000000000000000E+20
 20
1.000000000000000E+20
 30
1.000000000000000E+20
  9
$PEXTMAX
 10
-1.000000000000000E+20
 20
-1.000000000000000E+20
 30
-1.000000000000000E+20
  9
$PLIMMIN
 10
0.0
 20
0.0
  9
$PLIMMAX
 10
12.0
 20
9.0
  9
$UNITMODE
 70
     0
  9
$VISRETAIN
 70
     1
  9
$PLINEGEN
 70
     0
  9
$PSLTSCALE
 70
     1
  9
$TREEDEPTH
 70
  3020
  9
$PICKSTYLE
 70
     1
  9
$CMLSTYLE
  2
STANDARD
  9
$CMLJUST
 70
     0
  9
$CMLSCALE
 40
1.0
  9
$PROXYGRAPHICS
 70
     1
  9
$MEASUREMENT
 70
     0
  0
ENDSEC
  0
SECTION
  2
CLASSES
  0
CLASS
  1
ACDBDICTIONARYWDFLT
  2
AcDbDictionaryWithDefault
  3
ObjectDBX Classes
 90
        0
280
     0
281
     0
  0
CLASS
  1
XRECORD
  2
AcDbXrecord
  3
AutoCAD 2000
 90
        0
280
     0
281
     0
  0
CLASS
  1
LWPOLYLINE
  2
AcDbPolyline
  3
AutoCAD 2000
 90
        0
280
     0
281
     1
  0
CLASS
  1
HATCH
  2
AcDbHatch
  3
AutoCAD 2000
 90
        0
280
     0
281
     1
  0
CLASS
  1
ACDBPLACEHOLDER
  2
AcDbPlaceHolder
  3
ObjectDBX Classes
 90
        0
280
     0
281
     0
  0
CLASS
  1
LAYOUT
  2
AcDbLayout
  3
ObjectDBX Classes
 90
        0
280
     0
281
     0
  0
ENDSEC
  0
SECTION
  2
TABLES
  0
TABLE
  2
VPORT
  5
8
330
0
100
AcDbSymbolTable
 70
     2
  0
VPORT
  5
29
102
{ACAD_XDICTIONARY
360
27E
102
}
330
8
100
AcDbSymbolTableRecord
100
AcDbViewportTableRecord
  2
*ACTIVE
 70
     0
 10
0.0
 20
0.0
 11
1.0
 21
1.0
 12
30.19513781728369
 22
36.03636388397052
 13
0.0
 23
0.0
 14
0.5
 24
0.5
 15
0.5
 25
0.5
 16
0.0
 26
0.0
 36
1.0
 17
0.0
 27
0.0
 37
0.0
 40
72.04355388765372
 41
1.972972972850329
 42
50.0
 43
0.0
 44
0.0
 50
0.0
 51
0.0
 71
     0
 72
   100
 73
     1
 74
     3
 75
     0
 76
     0
 77
     0
 78
     0
  0
ENDTAB
  0
TABLE
  2
LTYPE
  5
5
330
0
100
AcDbSymbolTable
 70
     1
  0
LTYPE
  5
14
330
5
100
AcDbSymbolTableRecord
100
AcDbLinetypeTableRecord
  2
BYBLOCK
 70
     0
  3

 72
    65
 73
     0
 40
0.0
  0
LTYPE
  5
15
330
5
100
AcDbSymbolTableRecord
100
AcDbLinetypeTableRecord
  2
BYLAYER
 70
     0
  3

 72
    65
 73
     0
 40
0.0
  0
LTYPE
  5
16
330
5
100
AcDbSymbolTableRecord
100
AcDbLinetypeTableRecord
  2
CONTINUOUS
 70
     0
  3
Solid line
 72
    65
 73
     0
 40
0.0
  0
ENDTAB
  0
TABLE
  2
LAYER
  5
2
330
0
100
AcDbSymbolTable
 70
     3
  0
LAYER
  5
10
330
2
100
AcDbSymbolTableRecord
100
AcDbLayerTableRecord
  2
0
 70
     0
 62
     7
  6
CONTINUOUS
  0
LAYER
  5
2A
330
2
100
AcDbSymbolTableRecord
100
AcDbLayerTableRecord
  2
IGES_LEVEL_0
 70
     0
 62
   255
  6
CONTINUOUS
  0
LAYER
  5
35
330
2
100
AcDbSymbolTableRecord
100
AcDbLayerTableRecord
  2
DEFAULT
 70
     0
 62
     7
  6
CONTINUOUS
  0
ENDTAB
  0
TABLE
  2
STYLE
  5
3
330
0
100
AcDbSymbolTable
 70
     1
  0
STYLE
  5
11
330
3
100
AcDbSymbolTableRecord
100
AcDbTextStyleTableRecord
  2
STANDARD
 70
     0
 40
0.0
 41
1.0
 50
0.0
 71
     0
 42
0.2
  3
txt
  4

  0
ENDTAB
  0
TABLE
  2
VIEW
  5
6
330
0
100
AcDbSymbolTable
 70
     0
  0
ENDTAB
  0
TABLE
  2
UCS
  5
7
330
0
100
AcDbSymbolTable
 70
     0
  0
ENDTAB
  0
TABLE
  2
APPID
  5
9
330
0
100
AcDbSymbolTable
 70
     1
  0
APPID
  5
12
330
9
100
AcDbSymbolTableRecord
100
AcDbRegAppTableRecord
  2
ACAD
 70
     0
  0
ENDTAB
  0
TABLE
  2
DIMSTYLE
  5
A
330
0
100
AcDbSymbolTable
 70
     1
  0
DIMSTYLE
105
27
330
A
100
AcDbSymbolTableRecord
100
AcDbDimStyleTableRecord
  2
STANDARD
 70
     0
  3

  4

  5

  6

  7

 40
1.0
 41
0.18
 42
0.0625
 43
0.38
 44
0.18
 45
0.0
 46
0.0
 47
0.0
 48
0.0
140
0.18
141
0.09
142
0.0
143
25.4
144
1.0
145
0.0
146
1.0
147
0.09
 71
     0
 72
     0
 73
     1
 74
     1
 75
     0
 76
     0
 77
     0
 78
     0
170
     0
171
     2
172
     0
173
     0
174
     0
175
     0
176
     0
177
     0
178
     0
270
     2
271
     4
272
     4
273
     2
274
     2
340
11
275
     0
280
     0
281
     0
282
     0
283
     1
284
     0
285
     0
286
     0
287
     3
288
     0
  0
ENDTAB
  0
TABLE
  2
BLOCK_RECORD
  5
1
330
0
100
AcDbSymbolTable
 70
     1
  0
BLOCK_RECORD
  5
1F
330
1
100
AcDbSymbolTableRecord
100
AcDbBlockTableRecord
  2
*MODEL_SPACE
  0
BLOCK_RECORD
  5
1B
330
1
100
AcDbSymbolTableRecord
100
AcDbBlockTableRecord
  2
*PAPER_SPACE
  0
ENDTAB
  0
ENDSEC
  0
SECTION
  2
BLOCKS
  0
BLOCK
  5
20
330
1F
100
AcDbEntity
  8
0
100
AcDbBlockBegin
  2
*MODEL_SPACE
 70
     0
 71
     0
 10
0.0
 20
0.0
 30
0.0
  3
*MODEL_SPACE
  1

  0
ENDBLK
  5
21
330
1F
100
AcDbEntity
  8
0
100
AcDbBlockEnd
  0
BLOCK
  5
1C
330
1B
100
AcDbEntity
 67
     1
  8
0
100
AcDbBlockBegin
  2
*PAPER_SPACE
 70
     0
 71
     0
 10
0.0
 20
0.0
 30
0.0
  3
*PAPER_SPACE
  1

  0
ENDBLK
  5
1D
330
1B
100
AcDbEntity
 67
     1
  8
0
100
AcDbBlockEnd
  0
ENDSEC
  0
SECTION
  2
ENTITIES
  0
ARC
  5
2B
330
1F
100
AcDbEntity
  8
IGES_LEVEL_0
 62
     7
100
AcDbCircle
 10
22.32209426721039
 20
65.03985590436453
 30
0.0
 40
0.1000000000000017
100
AcDbArc
 50
189.7475960567776
 51
264.2901188817576
  0
LINE
  5
2C
330
1F
100
AcDbEntity
  8
IGES_LEVEL_0
 62
     7
100
AcDbLine
 10
22.22353795085628
 20
65.02292508906491
 30
0.0
 11
21.73067584959386
 21
67.89193478005468
 31
0.0
  0
SPLINE
  5
2D
330
1F
100
AcDbEntity
  8
IGES_LEVEL_0
 62
     7
100
AcDbSpline
210
0.0
220
0.0
230
1.0
 70
     8
 71
     3
 72
     8
 73
     4
 74
     0
 42
0.0000000001
 43
0.0000000001
 40
41.12474573465618
 40
41.12474573465618
 40
41.12474573465618
 40
41.12474573465618
 40
42.12474573465619
 40
42.12474573465619
 40
42.12474573465619
 40
42.12474573465619
 10
21.73067584959386
 20
67.89193478005468
 30
0.0
 10
21.59786589750605
 20
68.66503751735957
 30
0.0
 10
20.86109042270925
 20
69.42360842315324
 30
0.0
 10
20.09275304084086
 20
69.58165245019468
 30
0.0
  0
ARC
  5
2E
330
1F
100
AcDbEntity
  8
IGES_LEVEL_0
 62
     7
100
AcDbCircle
 10
15.05215837680132
 20
44.68847594137662
 30
0.0
 40
25.39838245373739
100
AcDbArc
 50
78.55300862109431
 51
83.53821552719174
  0
SPLINE
  5
2F
330
1F
100
AcDbEntity
  8
IGES_LEVEL_0
 62
     7
100
AcDbSpline
210
0.0
220
0.0
230
1.0
 70
     8
 71
     3
 72
    10
 73
     6
 74
     0
 42
0.0000000001
 43
0.0000000001
 40
43.12474573465619
 40
43.12474573465619
 40
43.12474573465619
 40
43.12474573465619
 40
43.20630562808572
 40
43.63108360662282
 40
44.17018775667064
 40
44.17018775667064
 40
44.17018775667064
 40
44.17018775667064
 10
17.91050476681746
 20
69.92550601983469
 30
0.0
 10
17.79336947923718
 20
69.93877276419239
 30
0.0
 10
17.06500757397115
 20
70.01679925406639
 30
0.0
 10
15.55607476094265
 20
70.12377634576545
 30
0.0
 10
14.16157007007532
 20
70.14701968024704
 30
0.0
 10
13.38184047170986
 20
70.14863662161577
 30
0.0
  0
SPLINE
  5
30
330
1F
100
AcDbEntity
  8
IGES_LEVEL_0
 62
     7
100
AcDbSpline
210
0.0
220
0.0
230
1.0
 70
     8
 71
     3
 72
    10
 73
     6
 74
     0
 42
0.0000000001
 43
0.0000000001
 40
44.17018775667064
 40
44.17018775667064
 40
44.17018775667064
 40
44.17018775667064
 40
44.70929190671846
 40
45.13406988525557
 40
45.2156297786851
 40
45.2156297786851
 40
45.2156297786851
 40
45.2156297786851
 10
13.38184047170986
 20
70.14863662161577
 30
0.0
 10
12.60210416714615
 20
70.15025357689127
 30
0.0
 10
11.20760618247707
 20
70.12377634576545
 30
0.0
 10
9.698673369448573
 20
70.01679925406639
 30
0.0
 10
8.970351200164801
 20
69.93841199608247
 30
0.0
 10
8.853176176602259
 20
69.92550601983469
 30
0.0
  0
ARC
  5
31
330
1F
100
AcDbEntity
  8
IGES_LEVEL_0
 62
     7
100
AcDbCircle
 10
11.21667498848932
 20
47.82899960791258
 30
0.0
 40
22.22254985922872
100
AcDbArc
 50
96.10529013971512
 51
101.8034857119999
  0
SPLINE
  5
32
330
1F
100
AcDbEntity
  8
IGES_LEVEL_0
 62
     7
100
AcDbSpline
210
0.0
220
0.0
230
1.0
 70
     8
 71
     3
 72
     8
 73
     4
 74
     0
 42
0.0000000001
 43
0.0000000001
 40
46.2156297786851
 40
46.2156297786851
 40
46.2156297786851
 40
46.2156297786851
 40
47.21562977868508
 40
47.21562977868508
 40
47.21562977868508
 40
47.21562977868508
 10
6.67092790257886
 20
69.58165245019468
 30
0.0
 10
5.903087274838019
 20
69.42119343302083
 30
0.0
 10
5.165815045913671
 20
68.66503751735957
 30
0.0
 10
5.033005093825861
 20
67.89193478005468
 30
0.0
  0
LINE
  5
33
330
1F
100
AcDbEntity
  8
IGES_LEVEL_0
 62
     7
100
AcDbLine
 10
5.033005093825861
 20
67.89193478005468
 30
0.0
 11
4.54014299256344
 21
65.02292508906491
 31
0.0
  0
ARC
  5
34
330
1F
100
AcDbEntity
  8
IGES_LEVEL_0
 62
     7
100
AcDbCircle
 10
4.441586676209337
 20
65.03985590436453
 30
0.0
 40
0.1
100
AcDbArc
 50
275.7098811182419
 51
350.2524039432221
  0
SPLINE
  5
36
330
1F
100
AcDbEntity
  8
DEFAULT
 62
     7
100
AcDbSpline
210
0.0
220
0.0
230
1.0
 70
     8
 71
     3
 72
    10
 73
     6
 74
     0
 42
0.0000000001
 43
0.0000000001
 40
0.0
 40
0.0
 40
0.0
 40
0.0
 40
0.3609307149841
 40
0.702271024648
 40
1.0
 40
1.0
 40
1.0
 40
1.0
 10
13.38185957241541
 20
16.89928084325965
 30
0.0
 10
12.69689106142556
 20
16.90498314500077
 30
0.0
 10
11.36412464346095
 20
16.92536268486879
 30
0.0
 10
9.467559434585075
 20
16.99493451794677
 30
0.0
 10
8.257693313770119
 20
17.08890621966184
 30
0.0
 10
7.695385079229496
 20
17.14378848447854
 30
0.0
  0
ARC
  5
37
330
1F
100
AcDbEntity
  8
DEFAULT
 62
     7
100
AcDbCircle
 10
8.409406847932964
 20
24.45945451109493
 30
0.0
 40
7.350428320796803
100
AcDbArc
 50
253.8658256680375
 51
264.4254883254284
  0
SPLINE
  5
38
330
1F
100
AcDbEntity
  8
DEFAULT
 62
     7
100
AcDbSpline
210
0.0
220
0.0
230
1.0
 70
     8
 71
     3
 72
    21
 73
    17
 74
     0
 42
0.0000000001
 43
0.0000000001
 40
2.052070143611595
 40
2.052070143611595
 40
2.052070143611595
 40
2.052070143611595
 40
2.122714720388245
 40
2.226619603870495
 40
2.327977627250295
 40
2.426707126059695
 40
2.522635949804095
 40
2.615597538126295
 40
2.705457193392595
 40
2.791966909181795
 40
2.874798062694996
 40
2.953650735698895
 40
3.028218142162895
 40
3.052070143611595
 40
3.449241943453135
 40
3.710166533419774
 40
3.710166533419774
 40
3.710166533419774
 40
3.710166533419774
 10
6.366813484396948
 20
17.39853326451454
 30
0.0
 10
6.328562385272988
 20
17.40959859699596
 30
0.0
 10
6.234313214427501
 20
17.43784470077949
 30
0.0
 10
6.086481194352463
 20
17.48619071633527
 30
0.0
 10
5.925359326851331
 20
17.54456864131154
 30
0.0
 10
5.770428446445429
 20
17.60657456661275
 30
0.0
 10
5.622066653880425
 20
17.67200083425526
 30
0.0
 10
5.480675722077282
 20
17.7405944810078
 30
0.0
 10
5.346711987042595
 20
17.81208096539954
 30
0.0
 10
5.220582940504603
 20
17.88588011493123
 30
0.0
 10
5.102702684491992
 20
17.96127581073751
 30
0.0
 10
4.993540163641224
 20
18.03760045872331
 30
0.0
 10
4.914072483643644
 20
18.09821373464333
 30
0.0
 10
4.696732662903004
 20
18.27373194330406
 30
0.0
 10
4.427385716463175
 20
18.55150475965431
 30
0.0
 10
4.256622667684249
 20
18.84875402738405
 30
0.0
 10
4.198462921973724
 20
18.97450382999852
 30
0.0
  0
SPLINE
  5
39
330
1F
100
AcDbEntity
  8
DEFAULT
 62
     7
100
AcDbSpline
210
0.0
220
0.0
230
1.0
 70
     8
 71
     3
 72
    21
 73
    17
 74
     0
 42
0.0000000001
 43
0.0000000001
 40
3.710166533419774
 40
3.710166533419774
 40
3.710166533419774
 40
3.710166533419774
 40
3.797894163296364
 40
3.915398924554174
 40
4.017473252110774
 40
4.105590556697374
 40
4.181223455700875
 40
4.245759855748974
 40
4.300591515940974
 40
4.347251576039374
 40
4.387512188956874
 40
4.423634194980874
 40
4.460277297921675
 40
4.508679503428374
 40
4.601695574414374
 40
4.680949741988307
 40
4.680949741988307
 40
4.680949741988307
 40
4.680949741988307
 10
4.198462921973724
 20
18.97450382999852
 30
0.0
 10
4.196166222649693
 20
18.97946962692788
 30
0.0
 10
4.190838912222962
 20
18.99110785401654
 30
0.0
 10
4.183017183825128
 20
19.00860472783754
 30
0.0
 10
4.175343579089563
 20
19.02619345247119
 30
0.0
 10
4.168814418930556
 20
19.04143190376478
 30
0.0
 10
4.163263597110007
 20
19.05454242357872
 30
0.0
 10
4.158534687827989
 20
19.06574663415315
 30
0.0
 10
4.154480451176906
 20
19.07527436675063
 30
0.0
 10
4.150947830976342
 20
19.08337850782767
 30
0.0
 10
4.147759249972076
 20
19.09035904008024
 30
0.0
 10
4.144626603841165
 20
19.09667553274131
 30
0.0
 10
4.14087183262284
 20
19.10324246980515
 30
0.0
 10
4.134203787889486
 20
19.11217699706892
 30
0.0
 10
4.122958367346315
 20
19.12072019797126
 30
0.0
 10
4.112072577468715
 20
19.12335004628527
 30
0.0
 10
4.106992475503671
 20
19.12367685923384
 30
0.0
  0
SPLINE
  5
3A
330
1F
100
AcDbEntity
  8
DEFAULT
 62
     7
100
AcDbSpline
210
0.0
220
0.0
230
1.0
 70
     8
 71
     3
 72
    10
 73
     6
 74
     0
 42
0.0000000001
 43
0.0000000001
 40
0.0
 40
0.0
 40
0.0
 40
0.0
 40
0.3609307149841
 40
0.702271024648
 40
1.0
 40
1.0
 40
1.0
 40
1.0
 10
13.38185956624231
 20
16.89928084325965
 30
0.0
 10
14.06682807723216
 20
16.90498314500077
 30
0.0
 10
15.39959449519677
 20
16.92536268486879
 30
0.0
 10
17.29615970407265
 20
16.99493451794677
 30
0.0
 10
18.50602582488761
 20
17.08890621966184
 30
0.0
 10
19.06833405942824
 20
17.14378848447854
 30
0.0
  0
ARC
  5
3B
330
1F
100
AcDbEntity
  8
DEFAULT
 62
     7
100
AcDbCircle
 10
18.35431229072455
 20
24.45945451109606
 30
0.0
 40
7.350428320797945
100
AcDbArc
 50
275.5745116745725
 51
286.1341743319616
  0
SPLINE
  5
3C
330
1F
100
AcDbEntity
  8
DEFAULT
 62
     7
100
AcDbSpline
210
0.0
220
0.0
230
1.0
 70
     8
 71
     3
 72
    21
 73
    17
 74
     0
 42
0.0000000001
 43
0.0000000001
 40
2.052070143611595
 40
2.052070143611595
 40
2.052070143611595
 40
2.052070143611595
 40
2.122714720388245
 40
2.226619603870495
 40
2.327977627250295
 40
2.426707126059695
 40
2.522635949804095
 40
2.615597538126295
 40
2.705457193392595
 40
2.791966909181795
 40
2.874798062694996
 40
2.953650735698895
 40
3.028218142162895
 40
3.052070143611595
 40
3.449241943453135
 40
3.710166533419774
 40
3.710166533419774
 40
3.710166533419774
 40
3.710166533419774
 10
20.39690565426077
 20
17.39853326451454
 30
0.0
 10
20.43515675338474
 20
17.40959859699596
 30
0.0
 10
20.52940592423022
 20
17.43784470077949
 30
0.0
 10
20.67723794430526
 20
17.48619071633527
 30
0.0
 10
20.83835981180639
 20
17.54456864131154
 30
0.0
 10
20.9932906922123
 20
17.60657456661275
 30
0.0
 10
21.1416524847773
 20
17.67200083425526
 30
0.0
 10
21.28304341658044
 20
17.7405944810078
 30
0.0
 10
21.41700715161513
 20
17.81208096539954
 30
0.0
 10
21.54313619815312
 20
17.88588011493123
 30
0.0
 10
21.66101645416573
 20
17.96127581073751
 30
0.0
 10
21.7701789750165
 20
18.03760045872331
 30
0.0
 10
21.84964665501408
 20
18.09821373464333
 30
0.0
 10
22.06698647575472
 20
18.27373194330406
 30
0.0
 10
22.33633342219455
 20
18.55150475965431
 30
0.0
 10
22.50709647097346
 20
18.84875402738405
 30
0.0
 10
22.565256216684
 20
18.97450382999852
 30
0.0
  0
SPLINE
  5
3D
330
1F
100
AcDbEntity
  8
DEFAULT
 62
     7
100
AcDbSpline
210
0.0
220
0.0
230
1.0
 70
     8
 71
     3
 72
    21
 73
    17
 74
     0
 42
0.0000000001
 43
0.0000000001
 40
3.710166533419774
 40
3.710166533419774
 40
3.710166533419774
 40
3.710166533419774
 40
3.797894163296364
 40
3.915398924554174
 40
4.017473252110774
 40
4.105590556697374
 40
4.181223455700875
 40
4.245759855748974
 40
4.300591515940974
 40
4.347251576039374
 40
4.387512188956874
 40
4.423634194980874
 40
4.460277297921675
 40
4.508679503428374
 40
4.601695574414374
 40
4.680949741988279
 40
4.680949741988279
 40
4.680949741988279
 40
4.680949741988279
 10
22.565256216684
 20
18.97450382999852
 30
0.0
 10
22.56755291600803
 20
18.97946962692788
 30
0.0
 10
22.57288022643476
 20
18.99110785401654
 30
0.0
 10
22.5807019548326
 20
19.00860472783754
 30
0.0
 10
22.58837555956816
 20
19.02619345247119
 30
0.0
 10
22.59490471972717
 20
19.04143190376478
 30
0.0
 10
22.60045554154772
 20
19.05454242357872
 30
0.0
 10
22.60518445082973
 20
19.06574663415315
 30
0.0
 10
22.60923868748082
 20
19.07527436675063
 30
0.0
 10
22.61277130768138
 20
19.08337850782767
 30
0.0
 10
22.61595988868565
 20
19.09035904008024
 30
0.0
 10
22.61909253481656
 20
19.09667553274131
 30
0.0
 10
22.62284730603489
 20
19.10324246980515
 30
0.0
 10
22.62951535076824
 20
19.11217699706892
 30
0.0
 10
22.64076077131141
 20
19.12072019797126
 30
0.0
 10
22.651646561189
 20
19.12335004628527
 30
0.0
 10
22.65672666315405
 20
19.12367685923384
 30
0.0
  0
LINE
  5
3E
330
1F
100
AcDbEntity
  8
DEFAULT
 62
     7
100
AcDbLine
 10
4.135086845790927
 20
19.11035741975902
 30
0.0
 11
22.6286322928668
 21
19.11035741975902
 31
0.0
  0
SPLINE
  5
3F
330
1F
100
AcDbEntity
  8
DEFAULT
 62
     7
100
AcDbSpline
210
0.0
220
0.0
230
1.0
 70
     8
 71
     2
 72
     8
 73
     5
 74
     0
 42
0.0000000001
 43
0.0000000001
 40
-3.258011009881577
 40
-3.258011009881577
 40
-3.258011009881577
 40
-2.388950656360888
 40
-1.0
 40
-0.0000000000000007
 40
-0.0000000000000007
 40
-0.0000000000000007
 10
4.553072728556307
 20
19.11035741975898
 30
0.0
 10
4.498931235786571
 20
20.73906634440724
 30
0.0
 10
4.414606874502985
 20
24.97505516535234
 30
0.0
 10
4.642286103580316
 20
29.48006042661447
 30
0.0
 10
4.737590760506675
 20
31.36582784721027
 30
0.0
  0
LINE
  5
40
330
1F
100
AcDbEntity
  8
DEFAULT
 62
     7
100
AcDbLine
 10
4.737590760506675
 20
31.36582784721027
 30
0.0
 11
4.817760863137816
 21
32.95213194318374
 31
0.0
  0
LINE
  5
41
330
1F
100
AcDbEntity
  8
DEFAULT
 62
     7
100
AcDbLine
 10
4.817760863137816
 20
32.95213194318374
 30
0.0
 11
4.820260379484952
 21
33.00134440569509
 31
0.0
  0
LINE
  5
42
330
1F
100
AcDbEntity
  8
DEFAULT
 62
     7
100
AcDbLine
 10
4.820260379484952
 20
33.00134440569509
 30
0.0
 11
4.828184363023745
 21
33.15420476866208
 31
0.0
  0
LINE
  5
43
330
1F
100
AcDbEntity
  8
DEFAULT
 62
     7
100
AcDbLine
 10
4.828184363023745
 20
33.15420476866208
 30
0.0
 11
4.830971870121993
 21
33.20684202003182
 31
0.0
  0
LINE
  5
44
330
1F
100
AcDbEntity
  8
DEFAULT
 62
     7
100
AcDbLine
 10
4.830971870121993
 20
33.20684202003182
 30
0.0
 11
4.833801850118122
 21
33.25968373066763
 31
0.0
  0
LINE
  5
45
330
1F
100
AcDbEntity
  8
DEFAULT
 62
     7
100
AcDbLine
 10
4.833801850118122
 20
33.25968373066763
 30
0.0
 11
4.842513052378242
 21
33.41862915557474
 31
0.0
  0
LINE
  5
46
330
1F
100
AcDbEntity
  8
DEFAULT
 62
     7
100
AcDbLine
 10
4.842513052378242
 20
33.41862915557474
 30
0.0
 11
4.855557980150977
 21
33.64654263143717
 31
0.0
  0
SPLINE
  5
47
330
1F
100
AcDbEntity
  8
DEFAULT
 62
     7
100
AcDbSpline
210
0.0
220
0.0
230
1.0
 70
     8
 71
     3
 72
     8
 73
     4
 74
     0
 42
0.0000000001
 43
0.0000000001
 40
7.449333101527561
 40
7.449333101527561
 40
7.449333101527561
 40
7.449333101527561
 40
8.449333101527561
 40
8.449333101527561
 40
8.449333101527561
 40
8.449333101527561
 10
4.855557980150977
 20
33.64654263143717
 30
0.0
 10
4.86459306184401
 20
33.8003477773681
 30
0.0
 10
4.91136253602043
 20
33.94961411630008
 30
0.0
 10
4.942542654479224
 20
34.1004947951905
 30
0.0
  0
ARC
  5
48
330
1F
100
AcDbEntity
  8
DEFAULT
 62
     7
100
AcDbCircle
 10
6.818195737794607
 20
33.66778777831672
 30
0.0
 40
1.924918141480902
100
AcDbArc
 50
156.8827960572357
 51
167.0093276915507
  0
ARC
  5
49
330
1F
100
AcDbEntity
  8
DEFAULT
 62
     7
100
AcDbCircle
 10
6.033821446011427
 20
34.03428290040516
 30
0.0
 40
1.060035192863696
100
AcDbArc
 50
142.1429424110141
 51
158.4564746198099
  0
SPLINE
  5
4A
330
1F
100
AcDbEntity
  8
DEFAULT
 62
     7
100
AcDbSpline
210
0.0
220
0.0
230
1.0
 70
     8
 71
     3
 72
    14
 73
    10
 74
     0
 42
0.0000000001
 43
0.0000000001
 40
10.44933310152756
 40
10.44933310152756
 40
10.44933310152756
 40
10.44933310152756
 40
10.57949231333606
 40
10.76583910655016
 40
10.94840839922156
 40
11.13279982261786
 40
11.32143957031996
 40
11.44933310152756
 40
11.49124683601489
 40
11.49124683601489
 40
11.49124683601489
 40
11.49124683601489
 10
5.196876742385329
 20
34.68481973501316
 30
0.0
 10
5.236572462930795
 20
34.73589005309464
 30
0.0
 10
5.342090044325427
 20
34.85336139810086
 30
0.0
 10
5.536072357465542
 20
35.00904276503308
 30
0.0
 10
5.776164167355888
 20
35.14450935710779
 30
0.0
 10
6.035759249895018
 20
35.24019136725418
 30
0.0
 10
6.278706838089713
 20
35.29460413150001
 30
0.0
 10
6.455188543836658
 20
35.31862774690129
 30
0.0
 10
6.539167904577366
 20
35.32552999413915
 30
0.0
 10
6.559870311333722
 20
35.32720403397462
 30
0.0
  0
ARC
  5
4B
330
1F
100
AcDbEntity
  8
DEFAULT
 62
     7
100
AcDbCircle
 10
10.28097495963226
 20
-11.97703180109158
 30
0.0
 40
47.45036720345956
100
AcDbArc
 50
92.31957171341193
 51
94.49780980494427
  0
SPLINE
  5
4C
330
1F
100
AcDbEntity
  8
DEFAULT
 62
     7
100
AcDbSpline
210
0.0
220
0.0
230
1.0
 70
     8
 71
     3
 72
    10
 73
     6
 74
     0
 42
0.0000000001
 43
0.0000000001
 40
13.83395197867755
 40
13.83395197867755
 40
13.83395197867755
 40
13.83395197867755
 40
14.12915635060865
 40
14.47303693409725
 40
14.83395197867755
 40
14.83395197867755
 40
14.83395197867755
 40
14.83395197867755
 10
8.360511225821453
 20
35.43445590800977
 30
0.0
 10
8.800591723572476
 20
35.45228193871932
 30
0.0
 10
9.753754002043252
 20
35.48037095811461
 30
0.0
 10
11.24564860793968
 20
35.50028967826652
 30
0.0
 10
12.29721969015636
 20
35.49928838065933
 30
0.0
 10
12.83569676354182
 20
35.49928838065933
 30
0.0
  0
LINE
  5
4D
330
1F
100
AcDbEntity
  8
DEFAULT
 62
     7
100
AcDbLine
 10
12.83569676354182
 20
35.49928838065933
 30
0.0
 11
13.9280223751159
 21
35.49928838065933
 31
0.0
  0
SPLINE
  5
4E
330
1F
100
AcDbEntity
  8
DEFAULT
 62
     7
100
AcDbSpline
210
0.0
220
0.0
230
1.0
 70
     8
 71
     3
 72
    10
 73
     6
 74
     0
 42
0.0000000001
 43
0.0000000001
 40
15.92627759025163
 40
15.92627759025163
 40
15.92627759025163
 40
15.92627759025163
 40
16.28719263483193
 40
16.63107321832053
 40
16.92627759025163
 40
16.92627759025163
 40
16.92627759025163
 40
16.92627759025163
 10
13.9280223751159
 20
35.49928838065933
 30
0.0
 10
14.46649944850137
 20
35.50133882737554
 30
0.0
 10
15.51807053071804
 20
35.50028967826652
 30
0.0
 10
17.00996513661447
 20
35.48037095811461
 30
0.0
 10
17.96309056729074
 20
35.45132030621333
 30
0.0
 10
18.40320791283622
 20
35.43445590800977
 30
0.0
  0
ARC
  5
4F
330
1F
100
AcDbEntity
  8
DEFAULT
 62
     7
100
AcDbCircle
 10
16.85945826101386
 20
-5.652417008161933
 30
0.0
 40
41.11586420126841
100
AcDbArc
 50
85.33437027835583
 51
87.84824820328794
  0
SPLINE
  5
50
330
1F
100
AcDbEntity
  8
DEFAULT
 62
     7
100
AcDbSpline
210
0.0
220
0.0
230
1.0
 70
     8
 71
     3
 72
    14
 73
    10
 74
     0
 42
0.0000000001
 43
0.0000000001
 40
19.26898273291429
 40
19.26898273291429
 40
19.26898273291429
 40
19.26898273291429
 40
19.31089646740162
 40
19.43878999860922
 40
19.62742974631132
 40
19.81182116970762
 40
19.99439046237902
 40
20.18073725559312
 40
20.31089646740162
 40
20.31089646740162
 40
20.31089646740162
 40
20.31089646740162
 10
20.20384882732397
 20
35.32720403397462
 30
0.0
 10
20.22454998848088
 20
35.32551459014074
 30
0.0
 10
20.30853059482107
 20
35.31862774690129
 30
0.0
 10
20.48501230056801
 20
35.29460413150001
 30
0.0
 10
20.72795988876271
 20
35.24019136725418
 30
0.0
 10
20.98755497130183
 20
35.14450935710779
 30
0.0
 10
21.22764678119218
 20
35.00904276503308
 30
0.0
 10
21.4216290943323
 20
34.85336139810086
 30
0.0
 10
21.52857859912734
 20
34.73694126600941
 30
0.0
 10
21.56684239627239
 20
34.68481973501316
 30
0.0
  0
ARC
  5
51
330
1F
100
AcDbEntity
  8
DEFAULT
 62
     7
100
AcDbCircle
 10
20.22460719629552
 20
33.74606688278936
 30
0.0
 40
1.637941467090706
100
AcDbArc
 50
24.43182619434005
 51
34.96875677483611
  0
ARC
  5
52
330
1F
100
AcDbEntity
  8
DEFAULT
 62
     7
100
AcDbCircle
 10
20.26240506247703
 20
33.77107877789152
 30
0.0
 40
1.593199064011249
100
AcDbArc
 50
11.93277432651431
 51
24.17510192469881
  0
SPLINE
  5
53
330
1F
100
AcDbEntity
  8
DEFAULT
 62
     7
100
AcDbSpline
210
0.0
220
0.0
230
1.0
 70
     8
 71
     3
 72
     8
 73
     4
 74
     0
 42
0.0000000001
 43
0.0000000001
 40
22.31089646740162
 40
22.31089646740162
 40
22.31089646740162
 40
22.31089646740162
 40
23.31089646740162
 40
23.31089646740162
 40
23.31089646740162
 40
23.31089646740162
 10
21.8211764841785
 20
34.1004947951905
 30
0.0
 10
21.85303265577142
 20
33.94975382548591
 30
0.0
 10
21.89935716150717
 20
33.80036100380469
 30
0.0
 10
21.90816115850674
 20
33.64654263143717
 30
0.0
  0
LINE
  5
54
330
1F
100
AcDbEntity
  8
DEFAULT
 62
     7
100
AcDbLine
 10
21.90816115850674
 20
33.64654263143717
 30
0.0
 11
21.92120608627948
 21
33.41862915557474
 31
0.0
  0
LINE
  5
55
330
1F
100
AcDbEntity
  8
DEFAULT
 62
     7
100
AcDbLine
 10
21.92120608627948
 20
33.41862915557474
 30
0.0
 11
21.9299172885396
 21
33.25968373066763
 31
0.0
  0
LINE
  5
56
330
1F
100
AcDbEntity
  8
DEFAULT
 62
     7
100
AcDbLine
 10
21.9299172885396
 20
33.25968373066763
 30
0.0
 11
21.93274726853573
 21
33.20684202003182
 31
0.0
  0
LINE
  5
57
330
1F
100
AcDbEntity
  8
DEFAULT
 62
     7
100
AcDbLine
 10
21.93274726853573
 20
33.20684202003182
 30
0.0
 11
21.93553477563398
 21
33.15420476866208
 31
0.0
  0
LINE
  5
58
330
1F
100
AcDbEntity
  8
DEFAULT
 62
     7
100
AcDbLine
 10
21.93553477563398
 20
33.15420476866208
 30
0.0
 11
21.94345875917277
 21
33.00134440569509
 31
0.0
  0
LINE
  5
59
330
1F
100
AcDbEntity
  8
DEFAULT
 62
     7
100
AcDbLine
 10
21.94345875917277
 20
33.00134440569509
 30
0.0
 11
21.94595827551991
 21
32.95213194318374
 31
0.0
  0
LINE
  5
5A
330
1F
100
AcDbEntity
  8
DEFAULT
 62
     7
100
AcDbLine
 10
21.94595827551991
 20
32.95213194318374
 30
0.0
 11
22.02612837815105
 21
31.36582784721027
 31
0.0
  0
SPLINE
  5
5B
330
1F
100
AcDbEntity
  8
DEFAULT
 62
     7
100
AcDbSpline
210
0.0
220
0.0
230
1.0
 70
     8
 71
     2
 72
     8
 73
     5
 74
     0
 42
0.0000000001
 43
0.0000000001
 40
30.76022956892918
 40
30.76022956892918
 40
30.76022956892918
 40
31.76022956892918
 40
33.14918022529007
 40
34.01824057881075
 40
34.01824057881075
 40
34.01824057881075
 10
22.02612837815105
 20
31.36582784721027
 30
0.0
 10
22.12143303507741
 20
29.48006042661447
 30
0.0
 10
22.34911226415474
 20
24.97505516535234
 30
0.0
 10
22.26478790287115
 20
20.73906634440724
 30
0.0
 10
22.21064641010142
 20
19.11035741975898
 30
0.0
  0
SPLINE
  5
5C
330
1F
100
AcDbEntity
  8
DEFAULT
 62
     7
100
AcDbSpline
210
0.0
220
0.0
230
1.0
 70
     8
 71
     2
 72
     7
 73
     4
 74
     0
 42
0.0000000001
 43
0.0000000001
 40
-6.097949811995643
 40
-6.097949811995643
 40
-6.097949811995643
 40
-5.577135550217555
 40
-4.577135550217555
 40
-4.577135550217555
 40
-4.577135550217555
 10
4.476465352252861
 20
64.94368153287468
 30
0.0
 10
4.429004921790426
 20
63.36582321891972
 30
0.0
 10
4.267722569328862
 20
58.75840995586467
 30
0.0
 10
4.161672569328861
 20
55.72883995586468
 30
0.0
  0
SPLINE
  5
5D
330
1F
100
AcDbEntity
  8
DEFAULT
 62
     7
100
AcDbSpline
210
0.0
220
0.0
230
1.0
 70
     8
 71
     3
 72
     8
 73
     4
 74
     0
 42
0.0000000001
 43
0.0000000001
 40
-4.577135550217555
 40
-4.577135550217555
 40
-4.577135550217555
 40
-4.577135550217555
 40
-3.577135550217555
 40
-3.577135550217555
 40
-3.577135550217555
 40
-3.577135550217555
 10
4.161672569328861
 20
55.72883995586468
 30
0.0
 10
4.113502698895196
 20
54.35275325742322
 30
0.0
 10
4.143822336046797
 20
52.9750036352057
 30
0.0
 10
4.146939630284861
 20
51.59807763119468
 30
0.0
  0
SPLINE
  5
5E
330
1F
100
AcDbEntity
  8
DEFAULT
 62
     7
100
AcDbSpline
210
0.0
220
0.0
230
1.0
 70
     8
 71
     3
 72
    21
 73
    17
 74
     0
 42
0.0000000001
 43
0.0000000001
 40
-3.577135550217555
 40
-3.577135550217555
 40
-3.577135550217555
 40
-3.577135550217555
 40
-3.536480608540355
 40
-3.491836784764055
 40
-3.442892959812455
 40
-3.389349261591855
 40
-3.330923588608055
 40
-3.267359039785555
 40
-3.198401891523655
 40
-3.123402564926455
 40
-3.041468437370655
 40
-2.953624958200956
 40
-2.859929032441455
 40
-2.758785449532455
 40
-2.649162150624125
 40
-2.577135550217555
 40
-2.577135550217555
 40
-2.577135550217555
 40
-2.577135550217555
 10
4.146939630284861
 20
51.59807763119468
 30
0.0
 10
4.147004386136861
 20
51.56947461533468
 30
0.0
 10
4.147219230697861
 20
51.50946235729468
 30
0.0
 10
4.147852560120861
 20
51.41501693863469
 30
0.0
 10
4.148951772821861
 20
51.31150711732468
 30
0.0
 10
4.150712439271861
 20
51.19830858542468
 30
0.0
 10
4.153406643760861
 20
51.07483879298469
 30
0.0
 10
4.15741583268886
 20
50.94055438659468
 30
0.0
 10
4.163290397019861
 20
50.79466631064469
 30
0.0
 10
4.171857348824861
 20
50.63596396476468
 30
0.0
 10
4.184293724903861
 20
50.46418608908468
 30
0.0
 10
4.20228329386586
 20
50.27966676354468
 30
0.0
 10
4.228351789488861
 20
50.08244564280469
 30
0.0
 10
4.266867839215861
 20
49.87160433373468
 30
0.0
 10
4.316742141232861
 20
49.67874574288469
 30
0.0
 10
4.359053676792859
 20
49.55795463015468
 30
0.0
 10
4.37769822734086
 20
49.51079952915468
 30
0.0
  0
SPLINE
  5
5F
330
1F
100
AcDbEntity
  8
DEFAULT
 62
     7
100
AcDbSpline
210
0.0
220
0.0
230
1.0
 70
     8
 71
     3
 72
     8
 73
     4
 74
     0
 42
0.0000000001
 43
0.0000000001
 40
-2.577135550217555
 40
-2.577135550217555
 40
-2.577135550217555
 40
-2.577135550217555
 40
-1.577135550217555
 40
-1.577135550217555
 40
-1.577135550217555
 40
-1.577135550217555
 10
4.37769822734086
 20
49.51079952915468
 30
0.0
 10
4.527629397479559
 20
49.1315992125401
 30
0.0
 10
4.901910383068497
 20
48.81106736305767
 30
0.0
 10
5.29451958986636
 20
48.70092996415377
 30
0.0
  0
SPLINE
  5
60
330
1F
100
AcDbEntity
  8
DEFAULT
 62
     7
100
AcDbSpline
210
0.0
220
0.0
230
1.0
 70
     8
 71
     3
 72
    18
 73
    14
 74
     0
 42
0.0000000001
 43
0.0000000001
 40
-1.577135550217555
 40
-1.577135550217555
 40
-1.577135550217555
 40
-1.577135550217555
 40
-0.9999999999999998
 40
-0.9224092190158998
 40
-0.8423490424335998
 40
-0.7754909429557998
 40
-0.7070809815191997
 40
-0.6371673449557997
 40
-0.5657988431029998
 40
-0.4188621043600997
 40
-0.2665034121835997
 40
-0.1351081204833998
 40
0.0580299202719134
 40
0.0580299202719134
 40
0.0580299202719134
 40
0.0580299202719134
 10
5.29451958986636
 20
48.70092996415377
 30
0.0
 10
6.192410284482563
 20
48.44904757348952
 30
0.0
 10
7.275623018942118
 20
48.32560043245735
 30
0.0
 10
8.49578048945776
 20
48.25886064178468
 30
0.0
 10
8.86877835526086
 20
48.24239154571468
 30
0.0
 10
9.22662157026986
 20
48.22906827040469
 30
0.0
 10
9.56766585284986
 20
48.21820927217468
 30
0.0
 10
9.916254105108861
 20
48.20871601363469
 30
0.0
 10
10.39543033535586
 20
48.19752960172469
 30
0.0
 10
11.01174068536486
 20
48.18614332840468
 30
0.0
 10
11.72791983754586
 20
48.17690674266469
 30
0.0
 10
12.52096114761533
 20
48.17019454604022
 30
0.0
 10
13.06065850097224
 20
48.16632273520514
 30
0.0
 10
13.38184047170986
 20
48.16710641899472
 30
0.0
  0
SPLINE
  5
61
330
1F
100
AcDbEntity
  8
DEFAULT
 62
     7
100
AcDbSpline
210
0.0
220
0.0
230
1.0
 70
     8
 71
     3
 72
    18
 73
    14
 74
     0
 42
0.0000000001
 43
0.0000000001
 40
0.0580299202719134
 40
0.0580299202719134
 40
0.0580299202719134
 40
0.0580299202719134
 40
0.2511679610272267
 40
0.3825632527274266
 40
0.5349219449039266
 40
0.6818586836468267
 40
0.7532271854996266
 40
0.8231408220630266
 40
0.8915507834996267
 40
0.9584088829774267
 40
1.038469059559727
 40
1.116059840543827
 40
1.693195390761382
 40
1.693195390761382
 40
1.693195390761382
 40
1.693195390761382
 10
13.38184047170986
 20
48.16710641899472
 30
0.0
 10
13.70302626684608
 20
48.16789011211583
 30
0.0
 10
14.24271979580439
 20
48.17019454604022
 30
0.0
 10
15.03576110587386
 20
48.17690674266469
 30
0.0
 10
15.75194025805486
 20
48.18614332840468
 30
0.0
 10
16.36825060806386
 20
48.19752960172469
 30
0.0
 10
16.84742683831086
 20
48.20871601363469
 30
0.0
 10
17.19601509056987
 20
48.21820927217468
 30
0.0
 10
17.53705937314987
 20
48.22906827040469
 30
0.0
 10
17.89490258815886
 20
48.24239154571468
 30
0.0
 10
18.26790045396196
 20
48.25886064178468
 30
0.0
 10
19.48805792447761
 20
48.32560043245735
 30
0.0
 10
20.57127065893715
 20
48.44904757348954
 30
0.0
 10
21.46916135355336
 20
48.70092996415377
 30
0.0
  0
SPLINE
  5
62
330
1F
100
AcDbEntity
  8
DEFAULT
 62
     7
100
AcDbSpline
210
0.0
220
0.0
230
1.0
 70
     8
 71
     3
 72
     8
 73
     4
 74
     0
 42
0.0000000001
 43
0.0000000001
 40
1.693195390761382
 40
1.693195390761382
 40
1.693195390761382
 40
1.693195390761382
 40
2.693195390761382
 40
2.693195390761382
 40
2.693195390761382
 40
2.693195390761382
 10
21.46916135355336
 20
48.70092996415377
 30
0.0
 10
21.86177056035123
 20
48.81106736305766
 30
0.0
 10
22.23605154594018
 20
49.13159921254009
 30
0.0
 10
22.38598271607886
 20
49.51079952915468
 30
0.0
  0
SPLINE
  5
63
330
1F
100
AcDbEntity
  8
DEFAULT
 62
     7
100
AcDbSpline
210
0.0
220
0.0
230
1.0
 70
     8
 71
     3
 72
    21
 73
    17
 74
     0
 42
0.0000000001
 43
0.0000000001
 40
2.693195390761382
 40
2.693195390761382
 40
2.693195390761382
 40
2.693195390761382
 40
2.765221991167952
 40
2.874845290076282
 40
2.975988872985282
 40
3.069684798744782
 40
3.157528277914482
 40
3.239462405470282
 40
3.314461732067482
 40
3.383418880329382
 40
3.446983429151882
 40
3.505409102135682
 40
3.558952800356282
 40
3.607896625307882
 40
3.652540449084182
 40
3.693195390761382
 40
3.693195390761382
 40
3.693195390761382
 40
3.693195390761382
 10
22.38598271607886
 20
49.51079952915468
 30
0.0
 10
22.40462726662686
 20
49.55795463015468
 30
0.0
 10
22.44693880218686
 20
49.67874574288469
 30
0.0
 10
22.49681310420386
 20
49.87160433373468
 30
0.0
 10
22.53532915393086
 20
50.08244564280469
 30
0.0
 10
22.56139764955386
 20
50.27966676354468
 30
0.0
 10
22.57938721851586
 20
50.46418608908468
 30
0.0
 10
22.59182359459486
 20
50.63596396476468
 30
0.0
 10
22.60039054639987
 20
50.79466631064469
 30
0.0
 10
22.60626511073086
 20
50.94055438659468
 30
0.0
 10
22.61027429965886
 20
51.07483879298469
 30
0.0
 10
22.61296850414787
 20
51.19830858542468
 30
0.0
 10
22.61472917059786
 20
51.31150711732468
 30
0.0
 10
22.61582838329886
 20
51.41501693863469
 30
0.0
 10
22.61646171272187
 20
51.50946235729468
 30
0.0
 10
22.61667655728286
 20
51.56947461533468
 30
0.0
 10
22.61674131313486
 20
51.59807763119468
 30
0.0
  0
SPLINE
  5
64
330
1F
100
AcDbEntity
  8
DEFAULT
 62
     7
100
AcDbSpline
210
0.0
220
0.0
230
1.0
 70
     8
 71
     3
 72
     8
 73
     4
 74
     0
 42
0.0000000001
 43
0.0000000001
 40
3.693195390761382
 40
3.693195390761382
 40
3.693195390761382
 40
3.693195390761382
 40
4.693195390761382
 40
4.693195390761382
 40
4.693195390761382
 40
4.693195390761382
 10
22.61674131313486
 20
51.59807763119468
 30
0.0
 10
22.61985860737289
 20
52.9750036352057
 30
0.0
 10
22.65017824452453
 20
54.35275325742322
 30
0.0
 10
22.60200837409087
 20
55.72883995586468
 30
0.0
  0
SPLINE
  5
65
330
1F
100
AcDbEntity
  8
DEFAULT
 62
     7
100
AcDbSpline
210
0.0
220
0.0
230
1.0
 70
     8
 71
     2
 72
     7
 73
     4
 74
     0
 42
0.0000000001
 43
0.0000000001
 40
4.693195390761382
 40
4.693195390761382
 40
4.693195390761382
 40
5.693195390761382
 40
6.21400965253947
 40
6.21400965253947
 40
6.21400965253947
 10
22.60200837409087
 20
55.72883995586468
 30
0.0
 10
22.49595837409086
 20
58.75840995586467
 30
0.0
 10
22.3346760216293
 20
63.36582321891972
 30
0.0
 10
22.28721559116686
 20
64.94368153287468
 30
0.0
  0
LINE
  5
66
330
1F
100
AcDbEntity
  8
DEFAULT
 62
     7
100
AcDbLine
 10
4.509762437848818
 20
64.96669809189808
 30
0.0
 11
22.25391850557091
 21
64.96669809189808
 31
0.0
  0
ARC
  5
67
330
1F
100
AcDbEntity
  8
IGES_LEVEL_0
 62
     7
100
AcDbCircle
 10
4.374607152954322
 20
65.70973521571509
 30
0.0
 40
0.7732195394601706
100
AcDbArc
 50
226.4594184809933
 51
275.709881118242
  0
ARC
  5
68
330
1F
100
AcDbEntity
  8
IGES_LEVEL_0
 62
     7
100
AcDbCircle
 10
3.910847639476301
 20
65.2217273653996
 30
0.0
 40
0.1000000000000405
100
AcDbArc
 50
168.9059598837008
 51
226.4594184809759
  0
LINE
  5
69
330
1F
100
AcDbEntity
  8
IGES_LEVEL_0
 62
     7
100
AcDbLine
 10
3.812716371002247
 20
65.24096935458165
 30
0.0
 11
3.84722390722586
 21
65.41695263102467
 31
0.0
  0
SPLINE
  5
6A
330
1F
100
AcDbEntity
  8
IGES_LEVEL_0
 62
     7
100
AcDbSpline
210
0.0
220
0.0
230
1.0
 70
     8
 71
     3
 72
     8
 73
     4
 74
     0
 42
0.0000000001
 43
0.0000000001
 40
51.43504295923884
 40
51.43504295923884
 40
51.43504295923884
 40
51.43504295923884
 40
52.43504295923884
 40
52.43504295923884
 40
52.43504295923884
 40
52.43504295923884
 10
3.84722390722586
 20
65.41695263102467
 30
0.0
 10
3.916035075624245
 20
65.76787930374202
 30
0.0
 10
4.086472122233197
 20
66.92608899310224
 30
0.0
 10
4.24604019551286
 20
68.06389677727468
 30
0.0
  0
LINE
  5
6B
330
1F
100
AcDbEntity
  8
IGES_LEVEL_0
 62
     7
100
AcDbLine
 10
4.24604019551286
 20
68.06389677727468
 30
0.0
 11
4.26156192328498
 21
68.17457520009408
 31
0.0
  0
SPLINE
  5
6C
330
1F
100
AcDbEntity
  8
IGES_LEVEL_0
 62
     7
100
AcDbSpline
210
0.0
220
0.0
230
1.0
 70
     8
 71
     3
 72
    17
 73
    13
 74
     0
 42
0.0000000001
 43
0.0000000001
 40
52.46746742330003
 40
52.46746742330003
 40
52.46746742330003
 40
52.46746742330003
 40
52.49381867835037
 40
52.59059824966947
 40
52.70818528862007
 40
52.83825868479146
 40
52.97243798886606
 40
53.10542895270557
 40
53.23454551267727
 40
53.35744847579853
 40
53.43477133863197
 40
53.45297447668024
 40
53.45297447668024
 40
53.45297447668024
 40
53.45297447668024
 10
4.26156192328498
 20
68.17457520009408
 30
0.0
 10
4.267283109845544
 20
68.20411701956412
 30
0.0
 10
4.29914515392232
 20
68.34132422958929
 30
0.0
 10
4.39253242991386
 20
68.59953238145469
 30
0.0
 10
4.569998953214861
 20
68.95019077613468
 30
0.0
 10
4.806526218681862
 20
69.3157336908147
 30
0.0
 10
5.09092206284686
 20
69.66842116847467
 30
0.0
 10
5.412681537166861
 20
69.98612246642468
 30
0.0
 10
5.763524161006861
 20
70.25135554870469
 30
0.0
 10
6.09633052062286
 20
70.42784898822468
 30
0.0
 10
6.333395316461947
 20
70.50735360001353
 30
0.0
 10
6.439302930651665
 20
70.53261160958374
 30
0.0
 10
6.459504187420861
 20
70.53702512944467
 30
0.0
  0
SPLINE
  5
6D
330
1F
100
AcDbEntity
  8
IGES_LEVEL_0
 62
     7
100
AcDbSpline
210
0.0
220
0.0
230
1.0
 70
     8
 71
     3
 72
     9
 73
     5
 74
     0
 42
0.0000000001
 43
0.0000000001
 40
53.45297447668024
 40
53.45297447668024
 40
53.45297447668024
 40
53.45297447668024
 40
54.06579458374124
 40
54.45297447668024
 40
54.45297447668024
 40
54.45297447668024
 40
54.45297447668024
 10
6.459504187420861
 20
70.53702512944467
 30
0.0
 10
7.15007795851766
 20
70.68789995317469
 30
0.0
 10
8.29024628581066
 20
70.87468692197469
 30
0.0
 10
9.438033248131015
 20
70.99292003616282
 30
0.0
 10
9.883154573808859
 20
71.03001397386468
 30
0.0
  0
SPLINE
  5
6E
330
1F
100
AcDbEntity
  8
IGES_LEVEL_0
 62
     7
100
AcDbSpline
210
0.0
220
0.0
230
1.0
 70
     8
 71
     3
 72
     9
 73
     5
 74
     0
 42
0.0000000001
 43
0.0000000001
 40
54.45297447668024
 40
54.45297447668024
 40
54.45297447668024
 40
54.45297447668024
 40
54.74778948076614
 40
55.40987670255012
 40
55.40987670255012
 40
55.40987670255012
 40
55.40987670255012
 10
9.883154573808859
 20
71.03001397386468
 30
0.0
 10
10.24160466644286
 20
71.05988521264469
 30
0.0
 10
11.40657007156344
 20
71.13856298209659
 30
0.0
 10
12.57415595296328
 20
71.17023525558422
 30
0.0
 10
13.38184047170986
 20
71.16845845906535
 30
0.0
  0
SPLINE
  5
6F
330
1F
100
AcDbEntity
  8
IGES_LEVEL_0
 62
     7
100
AcDbSpline
210
0.0
220
0.0
230
1.0
 70
     8
 71
     3
 72
     9
 73
     5
 74
     0
 42
0.0000000001
 43
0.0000000001
 40
55.40987670255012
 40
55.40987670255012
 40
55.40987670255012
 40
55.40987670255012
 40
56.07196392433411
 40
56.36677892842
 40
56.36677892842
 40
56.36677892842
 40
56.36677892842
 10
13.38184047170986
 20
71.16845845906535
 30
0.0
 10
14.18953280791753
 20
71.16668164534913
 30
0.0
 10
15.35711087185629
 20
71.13856298209659
 30
0.0
 10
16.52207627697674
 20
71.05988521264318
 30
0.0
 10
16.88052636961086
 20
71.03001397386468
 30
0.0
  0
SPLINE
  5
70
330
1F
100
AcDbEntity
  8
IGES_LEVEL_0
 62
     7
100
AcDbSpline
210
0.0
220
0.0
230
1.0
 70
     8
 71
     3
 72
     9
 73
     5
 74
     0
 42
0.0000000001
 43
0.0000000001
 40
56.36677892842
 40
56.36677892842
 40
56.36677892842
 40
56.36677892842
 40
56.75395882135901
 40
57.36677892842001
 40
57.36677892842001
 40
57.36677892842001
 40
57.36677892842001
 10
16.88052636961086
 20
71.03001397386468
 30
0.0
 10
17.32564769528886
 20
70.99292003616468
 30
0.0
 10
18.47343465760906
 20
70.87468692197469
 30
0.0
 10
19.61381322158103
 20
70.68885588425034
 30
0.0
 10
20.30417675599886
 20
70.53702512944467
 30
0.0
  0
SPLINE
  5
71
330
1F
100
AcDbEntity
  8
IGES_LEVEL_0
 62
     7
100
AcDbSpline
210
0.0
220
0.0
230
1.0
 70
     8
 71
     3
 72
    17
 73
    13
 74
     0
 42
0.0000000001
 43
0.0000000001
 40
57.36677892842001
 40
57.36677892842001
 40
57.36677892842001
 40
57.36677892842001
 40
57.38498206646828
 40
57.46230492930172
 40
57.58520789242299
 40
57.71432445239469
 40
57.84731541623418
 40
57.98149472030878
 40
58.11156811648018
 40
58.22915515543078
 40
58.32593472674988
 40
58.35228598180022
 40
58.35228598180022
 40
58.35228598180022
 40
58.35228598180022
 10
20.30417675599886
 20
70.53702512944467
 30
0.0
 10
20.32437190146499
 20
70.53258363735149
 30
0.0
 10
20.43028562695778
 20
70.50735360001353
 30
0.0
 10
20.66735042279687
 20
70.42784898822468
 30
0.0
 10
21.00015678241286
 20
70.25135554870469
 30
0.0
 10
21.35099940625286
 20
69.98612246642468
 30
0.0
 10
21.67275888057286
 20
69.66842116847467
 30
0.0
 10
21.95715472473786
 20
69.3157336908147
 30
0.0
 10
22.19368199020486
 20
68.95019077613468
 30
0.0
 10
22.37114851350586
 20
68.59953238145469
 30
0.0
 10
22.4645357894974
 20
68.34132422958929
 30
0.0
 10
22.49794558503578
 20
68.20433407882675
 30
0.0
 10
22.50211902013474
 20
68.17457520009408
 30
0.0
  0
LINE
  5
72
330
1F
100
AcDbEntity
  8
IGES_LEVEL_0
 62
     7
100
AcDbLine
 10
22.50211902013474
 20
68.17457520009408
 30
0.0
 11
22.51764074790686
 21
68.06389677727468
 31
0.0
  0
SPLINE
  5
73
330
1F
100
AcDbEntity
  8
IGES_LEVEL_0
 62
     7
100
AcDbSpline
210
0.0
220
0.0
230
1.0
 70
     8
 71
     3
 72
     8
 73
     4
 74
     0
 42
0.0000000001
 43
0.0000000001
 40
58.3847104458614
 40
58.3847104458614
 40
58.3847104458614
 40
58.3847104458614
 40
59.3847104458614
 40
59.3847104458614
 40
59.3847104458614
 40
59.3847104458614
 10
22.51764074790686
 20
68.06389677727468
 30
0.0
 10
22.67720882118648
 20
66.92608899310223
 30
0.0
 10
22.84764586779543
 20
65.76787930374201
 30
0.0
 10
22.91645703619386
 20
65.41695263102467
 30
0.0
  0
LINE
  5
74
330
1F
100
AcDbEntity
  8
IGES_LEVEL_0
 62
     7
100
AcDbLine
 10
22.91645703619386
 20
65.41695263102467
 30
0.0
 11
22.95096457241749
 21
65.24096935458162
 31
0.0
  0
ARC
  5
75
330
1F
100
AcDbEntity
  8
IGES_LEVEL_0
 62
     7
100
AcDbCircle
 10
22.85283330394346
 20
65.2217273653996
 30
0.0
 40
0.1000000000000099
100
AcDbArc
 50
313.5405815190062
 51
11.09404011628604
  0
ARC
  5
76
330
1F
100
AcDbEntity
  8
IGES_LEVEL_0
 62
     7
100
AcDbCircle
 10
22.38907379046539
 20
65.7097352157151
 30
0.0
 40
0.7732195394601922
100
AcDbArc
 50
264.2901188817592
 51
313.5405815190063
  0
ARC
  5
77
330
1F
100
AcDbEntity
  8
DEFAULT
 62
     7
100
AcDbCircle
 10
4.123960753215167
 20
18.15848882904305
 30
0.0
 40
0.9654525191992717
100
AcDbArc
 50
91.3411763903796
 51
133.9041066818247
  0
ARC
  5
78
330
1F
100
AcDbEntity
  8
DEFAULT
 62
     7
100
AcDbCircle
 10
3.487097156435064
 20
18.82019309333815
 30
0.0
 40
0.0470583912291457
100
AcDbArc
 50
133.9041066818253
 51
185.1270072898322
  0
LINE
  5
79
330
1F
100
AcDbEntity
  8
DEFAULT
 62
     7
100
AcDbLine
 10
3.440227043335203
 20
18.815987777288
 30
0.0
 11
3.43975163318088
 21
18.74154238583548
 31
0.0
  0
LINE
  5
7A
330
1F
100
AcDbEntity
  8
DEFAULT
 62
     7
100
AcDbLine
 10
3.43975163318088
 20
18.74154238583548
 30
0.0
 11
3.440278285579281
 21
18.73537985439694
 31
0.0
  0
SPLINE
  5
7B
330
1F
100
AcDbEntity
  8
DEFAULT
 62
     7
100
AcDbSpline
210
0.0
220
0.0
230
1.0
 70
     8
 71
     3
 72
    40
 73
    36
 74
     0
 42
0.0000000001
 43
0.0000000001
 40
8.487928336757719
 40
8.487928336757719
 40
8.487928336757719
 40
8.487928336757719
 40
8.522524739245517
 40
8.524918174014488
 40
8.533056260613478
 40
8.542724217189758
 40
8.554078327613048
 40
8.567279518037388
 40
8.582493211081598
 40
8.599872894230657
 40
8.619530231188907
 40
8.641521826235818
 40
8.665829930961419
 40
8.692399597290018
 40
8.721128043406118
 40
8.751894417817917
 40
8.784555346266219
 40
8.818958672279218
 40
8.854952880272519
 40
8.892395216271119
 40
8.931156165463317
 40
8.971122121899919
 40
9.012217404678317
 40
9.054420470059318
 40
9.097727259424618
 40
9.142145165304818
 40
9.187691594004019
 40
9.234391878875318
 40
9.282276463933819
 40
9.331378699596419
 40
9.381738768174419
 40
9.433400160245519
 40
9.48641003823812
 40
9.522524739245519
 40
9.527744005918329
 40
9.527744005918329
 40
9.527744005918329
 40
9.527744005918329
 10
3.440278285579281
 20
18.73537985439694
 30
0.0
 10
3.444993133250764
 20
18.68020988444128
 30
0.0
 10
3.464678272329898
 20
18.62273578704171
 30
0.0
 10
3.491539613963554
 20
18.55357771086977
 30
0.0
 10
3.503906404968533
 20
18.52277739737158
 30
0.0
 10
3.52265263769251
 20
18.47866920122272
 30
0.0
 10
3.54581664823581
 20
18.42741535096451
 30
0.0
 10
3.57427053651813
 20
18.3685708348547
 30
0.0
 10
3.60898916084101
 20
18.3017885933172
 30
0.0
 10
3.651007690968226
 20
18.22688754039983
 30
0.0
 10
3.701418111486087
 20
18.14398448950244
 30
0.0
 10
3.761244475672755
 20
18.05356701680923
 30
0.0
 10
3.831322752761669
 20
17.95642058313396
 30
0.0
 10
3.912406487849832
 20
17.85370426076111
 30
0.0
 10
4.004957802748525
 20
17.74669136814093
 30
0.0
 10
4.109296994548243
 20
17.63684738262858
 30
0.0
 10
4.22548186910091
 20
17.52563695558131
 30
0.0
 10
4.353364351610809
 20
17.41450012995781
 30
0.0
 10
4.49261589432016
 20
17.30477557527176
 30
0.0
 10
4.642769918012646
 20
17.1976542588984
 30
0.0
 10
4.80325851500122
 20
17.09414245596266
 30
0.0
 10
4.973483367315356
 20
16.99503189643451
 30
0.0
 10
5.152922779758731
 20
16.90090302711251
 30
0.0
 10
5.341168558840979
 20
16.81215572619344
 30
0.0
 10
5.537915274627111
 20
16.729062860673
 30
0.0
 10
5.742908217756522
 20
16.65181546557975
 30
0.0
 10
5.955941813244443
 20
16.58054936126852
 30
0.0
 10
6.176855831907267
 20
16.51536018472941
 30
0.0
 10
6.405528128505992
 20
16.45631662747871
 30
0.0
 10
6.641875013394906
 20
16.4034687627625
 30
0.0
 10
6.885848977448433
 20
16.35685511334644
 30
0.0
 10
7.137440746017214
 20
16.31650699311512
 30
0.0
 10
7.366858527114893
 20
16.28637041614605
 30
0.0
 10
7.521006123579229
 20
16.26964248495752
 30
0.0
 10
7.588606721693418
 20
16.26298315303138
 30
0.0
 10
7.597143076989685
 20
16.26215190579353
 30
0.0
  0
SPLINE
  5
7C
330
1F
100
AcDbEntity
  8
DEFAULT
 62
     7
100
AcDbSpline
210
0.0
220
0.0
230
1.0
 70
     8
 71
     3
 72
    10
 73
     6
 74
     0
 42
0.0000000001
 43
0.0000000001
 40
9.527744005918329
 40
9.527744005918329
 40
9.527744005918329
 40
9.527744005918329
 40
9.825483983521229
 40
10.16668779263813
 40
10.52774400591833
 40
10.52774400591833
 40
10.52774400591833
 40
10.52774400591833
 10
7.597143076989685
 20
16.26215190579353
 30
0.0
 10
8.169040495861541
 20
16.20646207878015
 30
0.0
 10
9.40083060520508
 20
16.13448515921047
 30
0.0
 10
11.33014419341462
 20
16.08658136270683
 30
0.0
 10
12.68553874038318
 20
16.08096862891883
 30
0.0
 10
13.38234158033445
 20
16.08272429373698
 30
0.0
  0
LINE
  5
7D
330
1F
100
AcDbEntity
  8
DEFAULT
 62
     7
100
AcDbLine
 10
4.106992475503671
 20
19.12367685923385
 30
0.0
 11
4.101363558596506
 21
19.12367685923384
 31
0.0
  0
ARC
  5
7E
330
1F
100
AcDbEntity
  8
DEFAULT
 62
     7
100
AcDbCircle
 10
22.63975838544256
 20
18.15848882904305
 30
0.0
 40
0.9654525191992727
100
AcDbArc
 50
46.09589331817525
 51
88.65882360962036
  0
ARC
  5
7F
330
1F
100
AcDbEntity
  8
DEFAULT
 62
     7
100
AcDbCircle
 10
23.27662198222266
 20
18.82019309333815
 30
0.0
 40
0.0470583912291457
100
AcDbArc
 50
354.8729927101678
 51
46.0958933181731
  0
LINE
  5
80
330
1F
100
AcDbEntity
  8
DEFAULT
 62
     7
100
AcDbLine
 10
23.32349209532252
 20
18.815987777288
 30
0.0
 11
23.32396750547684
 21
18.74154238583548
 31
0.0
  0
LINE
  5
81
330
1F
100
AcDbEntity
  8
DEFAULT
 62
     7
100
AcDbLine
 10
23.32396750547684
 20
18.74154238583548
 30
0.0
 11
23.32344085307844
 21
18.73537985439694
 31
0.0
  0
SPLINE
  5
82
330
1F
100
AcDbEntity
  8
DEFAULT
 62
     7
100
AcDbSpline
210
0.0
220
0.0
230
1.0
 70
     8
 71
     3
 72
    40
 73
    36
 74
     0
 42
0.0000000001
 43
0.0000000001
 40
8.487928336757719
 40
8.487928336757719
 40
8.487928336757719
 40
8.487928336757719
 40
8.522524739245517
 40
8.524918174014488
 40
8.533056260613478
 40
8.542724217189758
 40
8.554078327613048
 40
8.567279518037388
 40
8.582493211081598
 40
8.599872894230657
 40
8.619530231188907
 40
8.641521826235818
 40
8.665829930961419
 40
8.692399597290018
 40
8.721128043406118
 40
8.751894417817917
 40
8.784555346266219
 40
8.818958672279218
 40
8.854952880272519
 40
8.892395216271119
 40
8.931156165463317
 40
8.971122121899919
 40
9.012217404678317
 40
9.054420470059318
 40
9.097727259424618
 40
9.142145165304818
 40
9.187691594004019
 40
9.234391878875318
 40
9.282276463933819
 40
9.331378699596419
 40
9.381738768174419
 40
9.433400160245519
 40
9.48641003823812
 40
9.522524739245519
 40
9.527744005918329
 40
9.527744005918329
 40
9.527744005918329
 40
9.527744005918329
 10
23.32344085307844
 20
18.73537985439694
 30
0.0
 10
23.31872600540696
 20
18.68020988444128
 30
0.0
 10
23.29904086632783
 20
18.62273578704171
 30
0.0
 10
23.27217952469417
 20
18.55357771086977
 30
0.0
 10
23.25981273368919
 20
18.52277739737158
 30
0.0
 10
23.24106650096521
 20
18.47866920122272
 30
0.0
 10
23.21790249042191
 20
18.42741535096451
 30
0.0
 10
23.18944860213959
 20
18.3685708348547
 30
0.0
 10
23.15472997781671
 20
18.3017885933172
 30
0.0
 10
23.1127114476895
 20
18.22688754039983
 30
0.0
 10
23.06230102717164
 20
18.14398448950244
 30
0.0
 10
23.00247466298497
 20
18.05356701680923
 30
0.0
 10
22.93239638589606
 20
17.95642058313396
 30
0.0
 10
22.85131265080789
 20
17.85370426076111
 30
0.0
 10
22.7587613359092
 20
17.74669136814093
 30
0.0
 10
22.65442214410948
 20
17.63684738262858
 30
0.0
 10
22.53823726955681
 20
17.52563695558131
 30
0.0
 10
22.41035478704691
 20
17.41450012995781
 30
0.0
 10
22.27110324433756
 20
17.30477557527176
 30
0.0
 10
22.12094922064508
 20
17.1976542588984
 30
0.0
 10
21.9604606236565
 20
17.09414245596266
 30
0.0
 10
21.79023577134237
 20
16.99503189643451
 30
0.0
 10
21.61079635889899
 20
16.90090302711251
 30
0.0
 10
21.42255057981674
 20
16.81215572619344
 30
0.0
 10
21.22580386403061
 20
16.729062860673
 30
0.0
 10
21.0208109209012
 20
16.65181546557975
 30
0.0
 10
20.80777732541328
 20
16.58054936126852
 30
0.0
 10
20.58686330675046
 20
16.51536018472941
 30
0.0
 10
20.35819101015173
 20
16.45631662747871
 30
0.0
 10
20.12184412526282
 20
16.4034687627625
 30
0.0
 10
19.87787016120929
 20
16.35685511334644
 30
0.0
 10
19.62627839264051
 20
16.31650699311512
 30
0.0
 10
19.39686061154283
 20
16.28637041614605
 30
0.0
 10
19.24271301507849
 20
16.26964248495752
 30
0.0
 10
19.1751124169643
 20
16.26298315303138
 30
0.0
 10
19.16657606166804
 20
16.26215190579353
 30
0.0
  0
SPLINE
  5
83
330
1F
100
AcDbEntity
  8
DEFAULT
 62
     7
100
AcDbSpline
210
0.0
220
0.0
230
1.0
 70
     8
 71
     3
 72
    10
 73
     6
 74
     0
 42
0.0000000001
 43
0.0000000001
 40
9.527744005918329
 40
9.527744005918329
 40
9.527744005918329
 40
9.527744005918329
 40
9.825483983521229
 40
10.16668779263813
 40
10.52774400591833
 40
10.52774400591833
 40
10.52774400591833
 40
10.52774400591833
 10
19.16657606166804
 20
16.26215190579353
 30
0.0
 10
18.59467864279618
 20
16.20646207878015
 30
0.0
 10
17.36288853345264
 20
16.13448515921047
 30
0.0
 10
15.4335749452431
 20
16.08658136270683
 30
0.0
 10
14.07818039827454
 20
16.08096862891883
 30
0.0
 10
13.38137755832327
 20
16.08272429373698
 30
0.0
  0
LINE
  5
84
330
1F
100
AcDbEntity
  8
DEFAULT
 62
     7
100
AcDbLine
 10
22.65672666315405
 20
19.12367685923384
 30
0.0
 11
22.66235558006122
 21
19.12367685923384
 31
0.0
  0
ARC
  5
85
330
1F
100
AcDbEntity
  8
IGES_LEVEL_0
 62
     7
100
AcDbCircle
 10
43.41904638232747
 20
17.6451840333954
 30
0.0
 40
0.5399741942397719
100
AcDbArc
 50
4.017339524654306
 51
58.58750970548479
  0
LINE
  5
86
330
1F
100
AcDbEntity
  8
IGES_LEVEL_0
 62
     7
100
AcDbLine
 10
39.54585534077268
 20
16.79490130579447
 30
0.0
 11
39.55905811880267
 21
16.79369722031247
 31
0.0
  0
LINE
  5
87
330
1F
100
AcDbEntity
  8
IGES_LEVEL_0
 62
     7
100
AcDbLine
 10
38.09791225470266
 20
18.36412401368847
 30
0.0
 11
38.09799878354266
 21
18.35879965610147
 31
0.0
  0
SPLINE
  5
88
330
1F
100
AcDbEntity
  8
IGES_LEVEL_0
 62
     7
100
AcDbSpline
210
0.0
220
0.0
230
1.0
 70
     8
 71
     3
 72
    13
 73
     9
 74
     0
 42
0.0000000001
 43
0.0000000001
 40
0.0
 40
0.0
 40
0.0
 40
0.0
 40
0.03753264280137
 40
0.2247363577095
 40
0.4309809440269
 40
0.6458002367629
 40
0.8445603532954
 40
1.0
 40
1.0
 40
1.0
 40
1.0
 10
39.83952771316267
 20
25.73554908203747
 30
0.0
 10
39.84024623342268
 20
25.74609358778847
 30
0.0
 10
39.84425004588267
 20
25.80925224550747
 30
0.0
 10
39.84836207454266
 20
25.93058898060747
 30
0.0
 10
39.84352005681267
 20
26.10193325479247
 30
0.0
 10
39.82464107586267
 20
26.27566698012647
 30
0.0
 10
39.79260599679267
 20
26.43289643512347
 30
0.0
 10
39.76397758220267
 20
26.52856324095647
 30
0.0
 10
39.74967319381267
 20
26.56992643008747
 30
0.0
  0
LINE
  5
89
330
1F
100
AcDbEntity
  8
IGES_LEVEL_0
 62
     7
100
AcDbLine
 10
38.44485044381267
 20
19.10466618484747
 30
0.0
 11
38.45463911382267
 21
19.12707508388547
 31
0.0
  0
LINE
  5
8A
330
1F
100
AcDbEntity
  8
IGES_LEVEL_0
 62
     7
100
AcDbLine
 10
38.44144935555268
 20
19.09703732343847
 30
0.0
 11
38.44485044381267
 21
19.10466618484747
 31
0.0
  0
LINE
  5
8B
330
1F
100
AcDbEntity
  8
IGES_LEVEL_0
 62
     7
100
AcDbLine
 10
38.63704514064267
 20
19.68948877590877
 30
0.0
 11
38.59331898347267
 21
19.53099690145517
 31
0.0
  0
ARC
  5
8C
330
1F
100
AcDbEntity
  8
IGES_LEVEL_0
 62
     7
100
AcDbCircle
 10
34.8679590194979
 20
20.58429736306881
 30
0.0
 40
3.87141475077901
100
AcDbArc
 50
337.8882794329675
 51
344.2123899700997
  0
LINE
  5
8D
330
1F
100
AcDbEntity
  8
IGES_LEVEL_0
 62
     7
100
AcDbLine
 10
39.85868123069267
 20
17.22766240688247
 30
0.0
 11
39.94056385418267
 21
17.19789920490247
 31
0.0
  0
ARC
  5
8E
330
1F
100
AcDbEntity
  8
IGES_LEVEL_0
 62
     7
100
AcDbCircle
 10
41.11622541870926
 20
20.65956289628669
 30
0.0
 40
3.655045602176153
100
AcDbArc
 50
238.7782204922405
 51
249.8757550999017
  0
SPLINE
  5
8F
330
1F
100
AcDbEntity
  8
IGES_LEVEL_0
 62
     7
100
AcDbSpline
210
0.0
220
0.0
230
1.0
 70
     8
 71
     3
 72
    14
 73
    10
 74
     0
 42
0.0000000001
 43
0.0000000001
 40
0.0
 40
0.0
 40
0.0
 40
0.0
 40
0.08790901913171
 40
0.2316047631995
 40
0.3913592722187
 40
0.5705010371285
 40
0.7724041106733
 40
0.9976264757205
 40
1.0
 40
1.0
 40
1.0
 40
1.0
 10
38.45175309712268
 20
18.63295961952647
 30
0.0
 10
38.45705764065266
 20
18.59256991964647
 30
0.0
 10
38.47571212495267
 20
18.48676696942047
 30
0.0
 10
38.52720546535267
 20
18.31236548831447
 30
0.0
 10
38.62236973774267
 20
18.10914681650147
 30
0.0
 10
38.76568526841267
 20
17.90200487971047
 30
0.0
 10
38.96816376347267
 20
17.70523809329847
 30
0.0
 10
39.13113057424268
 20
17.59016806109147
 30
0.0
 10
39.22069045673267
 20
17.53446778410947
 30
0.0
 10
39.22162479482267
 20
17.53388747648447
 30
0.0
  0
LINE
  5
90
330
1F
100
AcDbEntity
  8
IGES_LEVEL_0
 62
     7
100
AcDbLine
 10
38.44541553719267
 20
18.69052729982247
 30
0.0
 11
38.45175309712268
 21
18.63295961952647
 31
0.0
  0
ARC
  5
91
330
1F
100
AcDbEntity
  8
IGES_LEVEL_0
 62
     7
100
AcDbCircle
 10
39.85595166149427
 20
18.80928897414737
 30
0.0
 40
1.415526931304457
100
AcDbArc
 50
163.9532264482687
 51
184.8127315072158
  0
ARC
  5
92
330
1F
100
AcDbEntity
  8
IGES_LEVEL_0
 62
     7
100
AcDbCircle
 10
54.31318988645968
 20
14.7013712194132
 30
0.0
 40
16.44504866016568
100
AcDbArc
 50
162.9214391221299
 51
164.1219962262507
  0
ARC
  5
93
330
1F
100
AcDbEntity
  8
IGES_LEVEL_0
 62
     7
100
AcDbCircle
 10
30.31543320094311
 20
21.89929638640286
 30
0.0
 40
8.610078940343552
100
AcDbArc
 50
345.3569209505671
 51
348.2125663937646
  0
LINE
  5
94
330
1F
100
AcDbEntity
  8
IGES_LEVEL_0
 62
     7
100
AcDbLine
 10
38.63870225026267
 20
19.69494401021087
 30
0.0
 11
38.64585138109267
 21
19.72269529691007
 31
0.0
  0
ARC
  5
95
330
1F
100
AcDbEntity
  8
IGES_LEVEL_0
 62
     7
100
AcDbCircle
 10
43.43781142447816
 20
17.38628785599619
 30
0.0
 40
0.5075439153000048
100
AcDbArc
 50
264.1231428239643
 51
271.8062244983657
  0
ARC
  5
96
330
1F
100
AcDbEntity
  8
IGES_LEVEL_0
 62
     7
100
AcDbCircle
 10
43.4388853361971
 20
17.39232817594063
 30
0.0
 40
0.513662644427629
100
AcDbArc
 50
218.7102626008132
 51
264.0729711065114
  0
LINE
  5
97
330
1F
100
AcDbEntity
  8
IGES_LEVEL_0
 62
     7
100
AcDbLine
 10
43.01368208345268
 20
17.10422788938847
 30
0.0
 11
43.03806492143268
 21
17.07109258110647
 31
0.0
  0
LINE
  5
98
330
1F
100
AcDbEntity
  8
IGES_LEVEL_0
 62
     7
100
AcDbLine
 10
43.00516430069267
 20
17.11726433932547
 30
0.0
 11
43.01368208345268
 21
17.10422788938847
 31
0.0
  0
ARC
  5
99
330
1F
100
AcDbEntity
  8
IGES_LEVEL_0
 62
     7
100
AcDbCircle
 10
43.44145112892306
 20
17.36838253999983
 30
0.0
 40
0.4892239534902309
100
AcDbArc
 50
279.2932064021459
 51
320.0770063481786
  0
LINE
  5
9A
330
1F
100
AcDbEntity
  8
IGES_LEVEL_0
 62
     7
100
AcDbLine
 10
43.47472879371267
 20
16.88009873744947
 30
0.0
 11
43.52045434349267
 21
16.88557971403847
 31
0.0
  0
LINE
  5
9B
330
1F
100
AcDbEntity
  8
IGES_LEVEL_0
 62
     7
100
AcDbLine
 10
43.45380879696268
 20
16.87899858854847
 30
0.0
 11
43.47472879371267
 21
16.88009873744947
 31
0.0
  0
LINE
  5
9C
330
1F
100
AcDbEntity
  8
IGES_LEVEL_0
 62
     7
100
AcDbLine
 10
43.82159399299268
 20
17.06191746952447
 30
0.0
 11
43.81671481839267
 21
17.05446982163547
 31
0.0
  0
ARC
  5
9D
330
1F
100
AcDbEntity
  8
IGES_LEVEL_0
 62
     7
100
AcDbCircle
 10
40.16933545916855
 20
25.37407917836965
 30
0.0
 40
0.4494922175971662
100
AcDbArc
 50
205.5910434938741
 51
214.6695433912445
  0
LINE
  5
9E
330
1F
100
AcDbEntity
  8
IGES_LEVEL_0
 62
     7
100
AcDbLine
 10
39.74342703850267
 20
25.22887088344447
 30
0.0
 11
39.76393840148268
 21
25.17992336645547
 31
0.0
  0
ARC
  5
9F
330
1F
100
AcDbEntity
  8
IGES_LEVEL_0
 62
     7
100
AcDbCircle
 10
40.21313733469138
 20
25.40185592969064
 30
0.0
 40
0.5005512846557043
100
AcDbArc
 50
131.3458269284503
 51
200.2177581115139
  0
LINE
  5
A0
330
1F
100
AcDbEntity
  8
IGES_LEVEL_0
 62
     7
100
AcDbLine
 10
39.89739759422267
 20
25.79003174034047
 30
0.0
 11
39.88247198427267
 21
25.77763780073147
 31
0.0
  0
LINE
  5
A1
330
1F
100
AcDbEntity
  8
IGES_LEVEL_0
 62
     7
100
AcDbLine
 10
39.91552394203266
 20
25.80515825940447
 30
0.0
 11
39.89761553206267
 21
25.78982872360347
 31
0.0
  0
LINE
  5
A2
330
1F
100
AcDbEntity
  8
IGES_LEVEL_0
 62
     7
100
AcDbLine
 10
39.76297617989268
 20
25.16919165995247
 30
0.0
 11
39.70194524432267
 21
24.85844166641047
 31
0.0
  0
LINE
  5
A3
330
1F
100
AcDbEntity
  8
IGES_LEVEL_0
 62
     7
100
AcDbLine
 10
39.76485985252268
 20
25.17945049199147
 30
0.0
 11
39.76297617989268
 21
25.16919165995247
 31
0.0
  0
LINE
  5
A4
330
1F
100
AcDbEntity
  8
IGES_LEVEL_0
 62
     7
100
AcDbLine
 10
39.70194323583267
 20
24.85844194943647
 30
0.0
 11
39.25807250095267
 21
22.67318985496147
 31
0.0
  0
ARC
  5
A5
330
1F
100
AcDbEntity
  8
IGES_LEVEL_0
 62
     7
100
AcDbCircle
 10
38.06914046458782
 20
19.05089526090695
 30
0.0
 40
0.30417241868916
100
AcDbArc
 50
305.0055253782894
 51
321.6158495976212
  0
SPLINE
  5
A6
330
1F
100
AcDbEntity
  8
IGES_LEVEL_0
 62
     7
100
AcDbSpline
210
0.0
220
0.0
230
1.0
 70
     8
 71
     3
 72
    10
 73
     6
 74
     0
 42
0.0000000001
 43
0.0000000001
 40
0.0
 40
0.0
 40
0.0
 40
0.0
 40
0.5080924221987
 40
0.8427810696644
 40
1.0
 40
1.0
 40
1.0
 40
1.0
 10
38.44145956611267
 20
19.09703278690247
 30
0.0
 10
38.42271920475267
 20
19.05510846598247
 30
0.0
 10
38.38936449746267
 20
18.98656809299247
 30
0.0
 10
38.34311330236267
 20
18.90877412162347
 30
0.0
 10
38.31657878002267
 20
18.87301898953947
 30
0.0
 10
38.30757065482267
 20
18.86202518737547
 30
0.0
  0
LINE
  5
A7
330
1F
100
AcDbEntity
  8
IGES_LEVEL_0
 62
     7
100
AcDbLine
 10
38.44485327964267
 20
19.10466495804547
 30
0.0
 11
38.44145956611267
 21
19.09703278690247
 31
0.0
  0
LINE
  5
A8
330
1F
100
AcDbEntity
  8
IGES_LEVEL_0
 62
     7
100
AcDbLine
 10
38.45518474283267
 20
19.12840018702047
 30
0.0
 11
38.44485327964267
 21
19.10466495804547
 31
0.0
  0
ARC
  5
A9
330
1F
100
AcDbEntity
  8
IGES_LEVEL_0
 62
     7
100
AcDbCircle
 10
35.86740971374773
 20
20.22682981670844
 30
0.0
 40
2.811272116572992
100
AcDbArc
 50
337.0002931721445
 51
342.1534292442221
  0
LINE
  5
AA
330
1F
100
AcDbEntity
  8
IGES_LEVEL_0
 62
     7
100
AcDbLine
 10
38.24370853225267
 20
18.80179557129647
 30
0.0
 11
38.24077535062267
 21
18.79984046134347
 31
0.0
  0
ARC
  5
AB
330
1F
100
AcDbEntity
  8
IGES_LEVEL_0
 62
     7
100
AcDbCircle
 10
38.17541062311675
 20
18.71274605738982
 30
0.0
 40
0.0519020595985665
100
AcDbArc
 50
123.445855452451
 51
162.2632307803266
  0
ARC
  5
AC
330
1F
100
AcDbEntity
  8
IGES_LEVEL_0
 62
     7
100
AcDbCircle
 10
38.20807566075657
 20
18.65555102895612
 30
0.0
 40
0.1177066552888457
100
AcDbArc
 50
105.707777441959
 51
121.3683488082882
  0
LINE
  5
AD
330
1F
100
AcDbEntity
  8
IGES_LEVEL_0
 62
     7
100
AcDbLine
 10
38.17969150725267
 20
18.77000984470247
 30
0.0
 11
38.17620880600268
 21
18.76886192987647
 31
0.0
  0
ARC
  5
AE
330
1F
100
AcDbEntity
  8
IGES_LEVEL_0
 62
     7
100
AcDbCircle
 10
38.1104077758085
 20
18.98948851713597
 30
0.0
 40
0.2301545634915794
100
AcDbArc
 50
287.5195569589919
 51
304.5017022779782
  0
LINE
  5
AF
330
1F
100
AcDbEntity
  8
IGES_LEVEL_0
 62
     7
100
AcDbLine
 10
38.07367469987267
 20
34.04766383393347
 30
0.0
 11
38.05631512600267
 21
34.07480751792347
 31
0.0
  0
ARC
  5
B0
330
1F
100
AcDbEntity
  8
IGES_LEVEL_0
 62
     7
100
AcDbCircle
 10
36.37852547150849
 20
25.49235641037984
 30
0.0
 40
4.461224203193525
100
AcDbArc
 50
3.142296753598751
 51
18.58543206038209
  0
LINE
  5
B1
330
1F
100
AcDbEntity
  8
IGES_LEVEL_0
 62
     7
100
AcDbLine
 10
40.60709880237268
 20
26.91422751983447
 30
0.0
 11
38.47472225537267
 21
33.20164393570347
 31
0.0
  0
ARC
  5
B2
330
1F
100
AcDbEntity
  8
IGES_LEVEL_0
 62
     7
100
AcDbCircle
 10
34.71515621284937
 20
31.93739735422977
 30
0.0
 40
3.966439858694559
100
AcDbArc
 50
18.58649465349125
 51
32.1421870628184
  0
LINE
  5
B3
330
1F
100
AcDbEntity
  8
IGES_LEVEL_0
 62
     7
100
AcDbLine
 10
37.66672958933268
 20
33.88415583459347
 30
0.0
 11
37.69808725344267
 21
33.83732010537347
 31
0.0
  0
SPLINE
  5
B4
330
1F
100
AcDbEntity
  8
IGES_LEVEL_0
 62
     7
100
AcDbSpline
210
0.0
220
0.0
230
1.0
 70
     8
 71
     3
 72
    12
 73
     8
 74
     0
 42
0.0000000001
 43
0.0000000001
 40
0.0
 40
0.0
 40
0.0
 40
0.0
 40
0.2004207981933
 40
0.4201522615629
 40
0.6467713411566
 40
0.8661066483918
 40
1.0
 40
1.0
 40
1.0
 40
1.0
 10
36.11703294082267
 20
35.13695448364346
 30
0.0
 10
36.23659326131268
 20
35.07561164214347
 30
0.0
 10
36.48318367743268
 20
34.93904899446347
 30
0.0
 10
36.84660423426267
 20
34.70167103505347
 30
0.0
 10
37.19655988678267
 20
34.42335519267347
 30
0.0
 10
37.47077742339268
 20
34.14631446916347
 30
0.0
 10
37.61587883885267
 20
33.95821189418347
 30
0.0
 10
37.66672958933268
 20
33.88415583459347
 30
0.0
  0
LINE
  5
B5
330
1F
100
AcDbEntity
  8
IGES_LEVEL_0
 62
     7
100
AcDbLine
 10
38.04306878848267
 20
33.13522421735347
 30
0.0
 11
38.05853842330266
 21
33.09072821696347
 31
0.0
  0
ARC
  5
B6
330
1F
100
AcDbEntity
  8
IGES_LEVEL_0
 62
     7
100
AcDbCircle
 10
34.91117983909656
 20
32.03229473147471
 30
0.0
 40
3.320418925694112
100
AcDbArc
 50
19.40028131503454
 51
32.36333621767385
  0
LINE
  5
B7
330
1F
100
AcDbEntity
  8
IGES_LEVEL_0
 62
     7
100
AcDbLine
 10
37.69808278779267
 20
33.83731843071347
 30
0.0
 11
37.71584018549267
 21
33.80966981385347
 31
0.0
  0
LINE
  5
B8
330
1F
100
AcDbEntity
  8
IGES_LEVEL_0
 62
     7
100
AcDbLine
 10
40.19460030781266
 20
26.81515334588047
 30
0.0
 11
40.19845248424267
 21
26.80381167139847
 31
0.0
  0
ARC
  5
B9
330
1F
100
AcDbEntity
  8
IGES_LEVEL_0
 62
     7
100
AcDbCircle
 10
36.20392368745609
 20
25.45559746851985
 30
0.0
 40
4.215927430118682
100
AcDbArc
 50
3.201869999483719
 51
17.41561535651102
  0
LINE
  5
BA
330
1F
100
AcDbEntity
  8
IGES_LEVEL_0
 62
     7
100
AcDbLine
 10
40.19845139513267
 20
26.80381124139747
 30
0.0
 11
40.22658791422268
 21
26.71742812860047
 31
0.0
  0
SPLINE
  5
BB
330
1F
100
AcDbEntity
  8
IGES_LEVEL_0
 62
     7
100
AcDbSpline
210
0.0
220
0.0
230
1.0
 70
     8
 71
     3
 72
    12
 73
     8
 74
     0
 42
0.0000000001
 43
0.0000000001
 40
0.0
 40
0.0
 40
0.0
 40
0.0
 40
0.1821569049085
 40
0.4437740683745
 40
0.6914336286586
 40
0.9251981377946
 40
1.0
 40
1.0
 40
1.0
 40
1.0
 10
39.36918144493266
 20
19.92019549109157
 30
0.0
 10
39.35435624540267
 20
19.83716618193797
 30
0.0
 10
39.32858134212268
 20
19.63292897362737
 30
0.0
 10
39.33490149987267
 20
19.31134747832547
 30
0.0
 10
39.41005211905267
 20
18.97338774442947
 30
0.0
 10
39.51881670534267
 20
18.73807275759547
 30
0.0
 10
39.59680194986267
 20
18.61810016061247
 30
0.0
 10
39.61665323553267
 20
18.58968048671947
 30
0.0
  0
LINE
  5
BC
330
1F
100
AcDbEntity
  8
IGES_LEVEL_0
 62
     7
100
AcDbLine
 10
39.38034090639268
 20
19.97866351107507
 30
0.0
 11
39.36918144493266
 21
19.92019549109157
 31
0.0
  0
LINE
  5
BD
330
1F
100
AcDbEntity
  8
IGES_LEVEL_0
 62
     7
100
AcDbLine
 10
45.38204479930268
 20
15.13111741062347
 30
0.0
 11
45.31491485319268
 21
14.94217302128047
 31
0.0
  0
LINE
  5
BE
330
1F
100
AcDbEntity
  8
IGES_LEVEL_0
 62
     7
100
AcDbLine
 10
48.23780519964268
 20
14.94217302128047
 30
0.0
 11
48.12549568296268
 21
15.26621102048747
 31
0.0
  0
SPLINE
  5
BF
330
1F
100
AcDbEntity
  8
IGES_LEVEL_0
 62
     7
100
AcDbSpline
210
0.0
220
0.0
230
1.0
 70
     8
 71
     3
 72
    22
 73
    18
 74
     0
 42
0.0000000001
 43
0.0000000001
 40
0.0
 40
0.0
 40
0.0
 40
0.0
 40
0.007485005284967
 40
0.04378704323106
 40
0.0849702713159
 40
0.1316508620395
 40
0.1837117710514
 40
0.2411821463524
 40
0.3041261035361
 40
0.37220453799
 40
0.4454324668357
 40
0.5239745334875
 40
0.6077734707646
 40
0.6972996683437001
 40
0.792397685622
 40
0.8933091313656
 40
1.0
 40
1.0
 40
1.0
 40
1.0
 10
48.24928403467267
 20
14.77710885802747
 30
0.0
 10
48.24963038845267
 20
14.77736361016747
 30
0.0
 10
48.25160278300267
 20
14.77892570843347
 30
0.0
 10
48.25476622556268
 20
14.78269052536447
 30
0.0
 10
48.25794952434268
 20
14.78908226818647
 30
0.0
 10
48.26026549733267
 20
14.79676271737447
 30
0.0
 10
48.26177722073267
 20
14.80557609224647
 30
0.0
 10
48.26253623866268
 20
14.81541266012747
 30
0.0
 10
48.26257835370268
 20
14.82619040986547
 30
0.0
 10
48.26192863034267
 20
14.83784853692247
 30
0.0
 10
48.26060182653268
 20
14.85034454826447
 30
0.0
 10
48.25860030925267
 20
14.86365867412247
 30
0.0
 10
48.25591243750267
 20
14.87779997806047
 30
0.0
 10
48.25251929614267
 20
14.89276016817347
 30
0.0
 10
48.24838995877268
 20
14.90854685144947
 30
0.0
 10
48.24349287056268
 20
14.92513755937047
 30
0.0
 10
48.23979142042268
 20
14.93640953585347
 30
0.0
 10
48.23780519964268
 20
14.94217302128047
 30
0.0
  0
LINE
  5
C0
330
1F
100
AcDbEntity
  8
IGES_LEVEL_0
 62
     7
100
AcDbLine
 10
44.67775240483267
 20
16.75394125747147
 30
0.0
 11
44.41391836538267
 21
17.10171924145847
 31
0.0
  0
LINE
  5
C1
330
1F
100
AcDbEntity
  8
IGES_LEVEL_0
 62
     7
100
AcDbLine
 10
44.68273972159267
 20
16.74736395938447
 30
0.0
 11
44.67775240483267
 21
16.75394125747147
 31
0.0
  0
LINE
  5
C2
330
1F
100
AcDbEntity
  8
IGES_LEVEL_0
 62
     7
100
AcDbLine
 10
43.31218940416268
 20
16.74893270099147
 30
0.0
 11
43.20442062320268
 21
16.93573239905647
 31
0.0
  0
LINE
  5
C3
330
1F
100
AcDbEntity
  8
IGES_LEVEL_0
 62
     7
100
AcDbLine
 10
58.07631259852268
 20
16.35911897353247
 30
0.0
 11
58.07592886864268
 21
16.36556706538447
 31
0.0
  0
LINE
  5
C4
330
1F
100
AcDbEntity
  8
IGES_LEVEL_0
 62
     7
100
AcDbLine
 10
57.87332304756268
 20
16.92089065920947
 30
0.0
 11
57.82107912556268
 21
17.00338276051647
 31
0.0
  0
ARC
  5
C5
330
1F
100
AcDbEntity
  8
IGES_LEVEL_0
 62
     7
100
AcDbCircle
 10
56.24942381395537
 20
15.94241774720683
 30
0.0
 40
1.895905577931912
100
AcDbArc
 50
21.5021260883785
 51
31.07086929035853
  0
ARC
  5
C6
330
1F
100
AcDbEntity
  8
IGES_LEVEL_0
 62
     7
100
AcDbCircle
 10
57.01990348454655
 20
16.25602275716505
 30
0.0
 40
1.064142049521898
100
AcDbArc
 50
13.64969374092768
 51
20.99756402857783
  0
LINE
  5
C7
330
1F
100
AcDbEntity
  8
IGES_LEVEL_0
 62
     7
100
AcDbLine
 10
58.06596367786267
 20
16.44906469787747
 30
0.0
 11
58.05399064210268
 21
16.50714434552047
 31
0.0
  0
ARC
  5
C8
330
1F
100
AcDbEntity
  8
IGES_LEVEL_0
 62
     7
100
AcDbCircle
 10
57.27527979300412
 20
16.31242961667208
 30
0.0
 40
0.8024027362808544
100
AcDbArc
 50
3.797041059388505
 51
9.804240058118463
  0
LINE
  5
C9
330
1F
100
AcDbEntity
  8
IGES_LEVEL_0
 62
     7
100
AcDbLine
 10
58.07600763458267
 20
16.36422073892347
 30
0.0
 11
58.07592116666267
 21
16.36556662804047
 31
0.0
  0
SPLINE
  5
CA
330
1F
100
AcDbEntity
  8
IGES_LEVEL_0
 62
     7
100
AcDbSpline
210
0.0
220
0.0
230
1.0
 70
     8
 71
     3
 72
    16
 73
    12
 74
     0
 42
0.0000000001
 43
0.0000000001
 40
0.0
 40
0.0
 40
0.0
 40
0.0
 40
0.01775874803559
 40
0.07193802444752
 40
0.1551293396469
 40
0.2662417293957
 40
0.4068502988465
 40
0.5712527516063
 40
0.7517796354084
 40
0.9440588219613
 40
1.0
 40
1.0
 40
1.0
 40
1.0
 10
57.82024240044267
 20
17.00477582864647
 30
0.0
 10
57.81214492772267
 20
17.01770837105747
 30
0.0
 10
57.78017362921267
 20
17.07058163918847
 30
0.0
 10
57.71651321259267
 20
17.18768650725647
 30
0.0
 10
57.61232095764267
 20
17.37394197860247
 30
0.0
 10
57.46438537651267
 20
17.62077049941647
 30
0.0
 10
57.26146563705267
 20
17.91546591187447
 30
0.0
 10
56.99083628718267
 20
18.23414801458947
 30
0.0
 10
56.64654326447267
 20
18.54356580371647
 30
0.0
 10
56.33912671298268
 20
18.74910856681247
 30
0.0
 10
56.14974317914268
 20
18.84769626566747
 30
0.0
 10
56.10654461166267
 20
18.86887079864647
 30
0.0
  0
SPLINE
  5
CB
330
1F
100
AcDbEntity
  8
IGES_LEVEL_0
 62
     7
100
AcDbSpline
210
0.0
220
0.0
230
1.0
 70
     8
 71
     3
 72
    21
 73
    17
 74
     0
 42
0.0000000001
 43
0.0000000001
 40
0.0
 40
0.0
 40
0.0
 40
0.0
 40
0.0975693897908
 40
0.2087572187117
 40
0.3099430858296
 40
0.40354093697
 40
0.4899862707426
 40
0.5685668273401
 40
0.6404761891833
 40
0.7065531767817
 40
0.7671675320469
 40
0.8226505217585
 40
0.8733383155792001
 40
0.9195683267917
 40
0.9616770911869
 40
1.0
 40
1.0
 40
1.0
 40
1.0
 10
56.10658539057268
 20
18.86895120038747
 30
0.0
 10
56.04647712367267
 20
18.89845700302247
 30
0.0
 10
55.91565150681268
 20
18.95705492007247
 30
0.0
 10
55.71557438552267
 20
19.02962877550947
 30
0.0
 10
55.51368783524268
 20
19.08759321476547
 30
0.0
 10
55.32541529693268
 20
19.13016011158947
 30
0.0
 10
55.15058235158267
 20
19.16074435629347
 30
0.0
 10
54.98938938395267
 20
19.18200010000947
 30
0.0
 10
54.84145106501268
 20
19.19603705247247
 30
0.0
 10
54.70544766976268
 20
19.20454188140147
 30
0.0
 10
54.58052597586267
 20
19.20879277861547
 30
0.0
 10
54.46609868560267
 20
19.20982256092147
 30
0.0
 10
54.36154675578267
 20
19.20848539433547
 30
0.0
 10
54.26621203711267
 20
19.20544745956747
 30
0.0
 10
54.17941595876268
 20
19.20122708460847
 30
0.0
 10
54.12434498997267
 20
19.19773600855047
 30
0.0
 10
54.09811846680267
 20
19.19589422331947
 30
0.0
  0
LINE
  5
CC
330
1F
100
AcDbEntity
  8
IGES_LEVEL_0
 62
     7
100
AcDbLine
 10
57.84830179035268
 20
16.16549929360847
 30
0.0
 11
57.89120183742267
 21
16.09814113454247
 31
0.0
  0
LINE
  5
CD
330
1F
100
AcDbEntity
  8
IGES_LEVEL_0
 62
     7
100
AcDbLine
 10
57.82896601570268
 20
16.19488320973947
 30
0.0
 11
57.84830179035268
 21
16.16549929360847
 31
0.0
  0
LINE
  5
CE
330
1F
100
AcDbEntity
  8
IGES_LEVEL_0
 62
     7
100
AcDbLine
 10
57.80462554114267
 20
16.23084464310047
 30
0.0
 11
57.82896601570268
 21
16.19488320973947
 31
0.0
  0
LINE
  5
CF
330
1F
100
AcDbEntity
  8
IGES_LEVEL_0
 62
     7
100
AcDbLine
 10
57.77332352161267
 20
16.27521867214547
 30
0.0
 11
57.80462554114267
 21
16.23084464310047
 31
0.0
  0
LINE
  5
D0
330
1F
100
AcDbEntity
  8
IGES_LEVEL_0
 62
     7
100
AcDbLine
 10
57.73740669447267
 20
16.32331620964147
 30
0.0
 11
57.77332352161267
 21
16.27521867214547
 31
0.0
  0
ARC
  5
D1
330
1F
100
AcDbEntity
  8
IGES_LEVEL_0
 62
     7
100
AcDbCircle
 10
58.27948371577261
 20
16.74012168290142
 30
0.0
 40
0.6838019794557474
100
AcDbArc
 50
211.4437882086104
 51
217.5626497749576
  0
ARC
  5
D2
330
1F
100
AcDbEntity
  8
IGES_LEVEL_0
 62
     7
100
AcDbCircle
 10
59.95456382479428
 20
17.74090734530689
 30
0.0
 40
2.635048115542873
100
AcDbArc
 50
207.4086904096412
 51
211.0088516593713
  0
LINE
  5
D3
330
1F
100
AcDbEntity
  8
IGES_LEVEL_0
 62
     7
100
AcDbLine
 10
57.58606459867268
 20
16.58414860895047
 30
0.0
 11
57.61531152415267
 21
16.52790394664347
 31
0.0
  0
LINE
  5
D4
330
1F
100
AcDbEntity
  8
IGES_LEVEL_0
 62
     7
100
AcDbLine
 10
57.58425516356267
 20
16.58765692574947
 30
0.0
 11
57.58606459867268
 21
16.58414860895047
 31
0.0
  0
LINE
  5
D5
330
1F
100
AcDbEntity
  8
IGES_LEVEL_0
 62
     7
100
AcDbLine
 10
57.57083198353267
 20
16.61373245225147
 30
0.0
 11
57.58425516356267
 21
16.58765692574947
 31
0.0
  0
LINE
  5
D6
330
1F
100
AcDbEntity
  8
IGES_LEVEL_0
 62
     7
100
AcDbLine
 10
57.56759575625267
 20
16.62002955357847
 30
0.0
 11
57.57083198353267
 21
16.61373245225147
 31
0.0
  0
LINE
  5
D7
330
1F
100
AcDbEntity
  8
IGES_LEVEL_0
 62
     7
100
AcDbLine
 10
57.55950551884267
 20
16.63578385260047
 30
0.0
 11
57.56759575625267
 21
16.62002955357847
 31
0.0
  0
LINE
  5
D8
330
1F
100
AcDbEntity
  8
IGES_LEVEL_0
 62
     7
100
AcDbLine
 10
57.55056090407267
 20
16.65321442221647
 30
0.0
 11
57.55950551884267
 21
16.63578385260047
 31
0.0
  0
LINE
  5
D9
330
1F
100
AcDbEntity
  8
IGES_LEVEL_0
 62
     7
100
AcDbLine
 10
57.51396969128267
 20
16.72443275837847
 30
0.0
 11
57.55056090407267
 21
16.65321442221647
 31
0.0
  0
LINE
  5
DA
330
1F
100
AcDbEntity
  8
IGES_LEVEL_0
 62
     7
100
AcDbLine
 10
57.51256452944267
 20
16.72715858543647
 30
0.0
 11
57.51396969128267
 21
16.72443275837847
 31
0.0
  0
LINE
  5
DB
330
1F
100
AcDbEntity
  8
IGES_LEVEL_0
 62
     7
100
AcDbLine
 10
57.47401084378268
 20
16.80140122248847
 30
0.0
 11
57.51256452944267
 21
16.72715858543647
 31
0.0
  0
ARC
  5
DC
330
1F
100
AcDbEntity
  8
IGES_LEVEL_0
 62
     7
100
AcDbCircle
 10
51.32183177863781
 20
13.59263853336717
 30
0.0
 40
6.938693338425023
100
AcDbArc
 50
27.54497917640742
 51
30.02414006027615
  0
LINE
  5
DD
330
1F
100
AcDbEntity
  8
IGES_LEVEL_0
 62
     7
100
AcDbLine
 10
57.27136989213267
 20
17.16217206090747
 30
0.0
 11
57.32945422808267
 21
17.06451666337547
 31
0.0
  0
LINE
  5
DE
330
1F
100
AcDbEntity
  8
IGES_LEVEL_0
 62
     7
100
AcDbLine
 10
57.25484334253267
 20
17.18908197247547
 30
0.0
 11
57.27136989213267
 21
17.16217206090747
 31
0.0
  0
SPLINE
  5
DF
330
1F
100
AcDbEntity
  8
IGES_LEVEL_0
 62
     7
100
AcDbSpline
210
0.0
220
0.0
230
1.0
 70
     8
 71
     3
 72
    12
 73
     8
 74
     0
 42
0.0000000001
 43
0.0000000001
 40
0.0
 40
0.0
 40
0.0
 40
0.0
 40
0.09456511076484
 40
0.3701241777303
 40
0.6330565178557001
 40
0.874426157611
 40
1.0
 40
1.0
 40
1.0
 40
1.0
 10
56.05082196318267
 20
18.38070268837547
 30
0.0
 10
56.09824551303267
 20
18.35478930654847
 30
0.0
 10
56.28096977147267
 20
18.24809790977447
 30
0.0
 10
56.57191355429268
 20
18.03109330419947
 30
0.0
 10
56.88480539279267
 20
17.71240942283847
 30
0.0
 10
57.10300751873267
 20
17.42579465308147
 30
0.0
 10
57.21713013694267
 20
17.25005118510647
 30
0.0
 10
57.25484334253267
 20
17.18908197247547
 30
0.0
  0
LINE
  5
E0
330
1F
100
AcDbEntity
  8
IGES_LEVEL_0
 62
     7
100
AcDbLine
 10
56.03888495134267
 20
18.38718852620747
 30
0.0
 11
56.05082196318267
 21
18.38070268837547
 31
0.0
  0
ARC
  5
E1
330
1F
100
AcDbEntity
  8
IGES_LEVEL_0
 62
     7
100
AcDbCircle
 10
54.62850438188418
 20
15.76094331158719
 30
0.0
 40
2.980996021134877
100
AcDbArc
 50
61.76273021190522
 51
77.73678743713005
  0
SPLINE
  5
E2
330
1F
100
AcDbEntity
  8
IGES_LEVEL_0
 62
     7
100
AcDbSpline
210
0.0
220
0.0
230
1.0
 70
     8
 71
     3
 72
    10
 73
     6
 74
     0
 42
0.0000000001
 43
0.0000000001
 40
0.0
 40
0.0
 40
0.0
 40
0.0
 40
0.4938216841874
 40
0.9922362818616
 40
1.0
 40
1.0
 40
1.0
 40
1.0
 10
54.12968113269267
 20
18.74631872204947
 30
0.0
 10
54.31647143114267
 20
18.75943943410947
 30
0.0
 10
54.69376274256267
 20
18.76457409166747
 30
0.0
 10
55.07121869113267
 20
18.71583400125447
 30
0.0
 10
55.25880065264268
 20
18.67455644055747
 30
0.0
 10
55.26167693541267
 20
18.67391941781947
 30
0.0
  0
LINE
  5
E3
330
1F
100
AcDbEntity
  8
IGES_LEVEL_0
 62
     7
100
AcDbLine
 10
50.85637109265267
 20
18.51644678608747
 30
0.0
 11
50.92396270961267
 21
18.52119424255447
 31
0.0
  0
LINE
  5
E4
330
1F
100
AcDbEntity
  8
IGES_LEVEL_0
 62
     7
100
AcDbLine
 10
40.83230223260267
 20
25.73694133768747
 30
0.0
 11
40.82765610936266
 21
25.73647065213147
 31
0.0
  0
ARC
  5
E5
330
1F
100
AcDbEntity
  8
IGES_LEVEL_0
 62
     7
100
AcDbCircle
 10
54.50423635647386
 20
13.75422701180047
 30
0.0
 40
4.441771018641819
100
AcDbArc
 50
85.09222403883597
 51
94.32553116721164
  0
SPLINE
  5
E6
330
1F
100
AcDbEntity
  8
IGES_LEVEL_0
 62
     7
100
AcDbSpline
210
0.0
220
0.0
230
1.0
 70
     8
 71
     3
 72
    10
 73
     6
 74
     0
 42
0.0000000001
 43
0.0000000001
 40
0.0
 40
0.0
 40
0.0
 40
0.0
 40
0.3750663396226
 40
0.7358726084264
 40
1.0
 40
1.0
 40
1.0
 40
1.0
 10
43.54714358855267
 20
17.17255882111647
 30
0.0
 10
43.60094498021267
 20
17.18456387774947
 30
0.0
 10
43.70189801763267
 20
17.22586062531047
 30
0.0
 10
43.82491884147268
 20
17.30507633867747
 30
0.0
 10
43.90826408320268
 20
17.34432830561847
 30
0.0
 10
43.94461209718267
 20
17.35759344384147
 30
0.0
  0
ARC
  5
E7
330
1F
100
AcDbEntity
  8
IGES_LEVEL_0
 62
     7
100
AcDbCircle
 10
45.30092618958869
 20
16.51182484818768
 30
0.0
 40
0.3078486964788855
100
AcDbArc
 50
196.0954778210703
 51
225.0402410522225
  0
SPLINE
  5
E8
330
1F
100
AcDbEntity
  8
IGES_LEVEL_0
 62
     7
100
AcDbSpline
210
0.0
220
0.0
230
1.0
 70
     8
 71
     3
 72
    79
 73
    75
 74
     0
 42
0.0000000001
 43
0.0000000001
 40
0.0
 40
0.0
 40
0.0
 40
0.0
 40
0.174605027951
 40
0.2223545211009
 40
0.2510876162211
 40
0.2716941830904
 40
0.2877650014511
 40
0.3009378408502
 40
0.312096861239
 40
0.3217749522138
 40
0.3303180793198
 40
0.3379639560786
 40
0.3448824925777
 40
0.3511985746973
 40
0.3570091537106
 40
0.3623880657343
 40
0.3673949030388
 40
0.3720771331041
 40
0.3764744482727
 40
0.3806183586457
 40
0.384537472966
 40
0.3882532914446
 40
0.3917858876679
 40
0.3951529328609
 40
0.3983690689575
 40
0.4014486873502
 40
0.4044031039659
 40
0.4072388911641
 40
0.4099623475795
 40
0.4125800521568
 40
0.41510362492
 40
0.417543865854
 40
0.4199136340204
 40
0.4222389785525
 40
0.4245158823683
 40
0.426703641478
 40
0.4287188388904
 40
0.4304178476848
 40
0.4315649589955
 40
0.4337878702565
 40
0.4366702995421
 40
0.4401955564239
 40
0.4446238222318
 40
0.4496449376718
 40
0.4556020662528
 40
0.4619727561613
 40
0.4686018721997
 40
0.4754709306962
 40
0.4824315332021
 40
0.4886567404867
 40
0.4942107260074
 40
0.4986921662766
 40
0.5020241186134
 40
0.5059751907771
 40
0.5102069361208
 40
0.5147119205516
 40
0.5194895334659
 40
0.5245652770674
 40
0.52997390289
 40
0.5357490705983
 40
0.5419265048083
 40
0.5485847698317
 40
0.555824715328
 40
0.5637516245747
 40
0.5725025512683
 40
0.5822678798019
 40
0.5933213951388
 40
0.6060607414606
 40
0.6210960118971
 40
0.6394451757701
 40
0.6630058481589
 40
0.6959887481729
 40
0.7514939102529
 40
1.0
 40
1.0
 40
1.0
 40
1.0
 10
48.09181953990267
 20
16.44516382494447
 30
0.0
 10
47.97154390538267
 20
16.16819195641347
 30
0.0
 10
47.81842340994267
 20
15.81545567274647
 30
0.0
 10
47.64512690003268
 20
15.41730744162947
 30
0.0
 10
47.57802567208267
 20
15.26339374846147
 30
0.0
 10
47.53276648489268
 20
15.15972239431847
 30
0.0
 10
47.49823756757267
 20
15.08072887716747
 30
0.0
 10
47.47022496516267
 20
15.01671815684447
 30
0.0
 10
47.44662254528268
 20
14.96284524054547
 30
0.0
 10
47.42621464294267
 20
14.91631402742247
 30
0.0
 10
47.40823132659267
 20
14.87535367176447
 30
0.0
 10
47.39215300847268
 20
14.83876897997147
 30
0.0
 10
47.37761241895267
 20
14.80571544017447
 30
0.0
 10
47.36433920025267
 20
14.77557185173147
 30
0.0
 10
47.35212920875267
 20
14.74786939963147
 30
0.0
 10
47.34082343827268
 20
14.72224277252547
 30
0.0
 10
47.33029722072267
 20
14.69840504348547
 30
0.0
 10
47.32044939966268
 20
14.67612345068747
 30
0.0
 10
47.31119817874267
 20
14.65520977158647
 30
0.0
 10
47.30247467340267
 20
14.63550573370347
 30
0.0
 10
47.29422163355267
 20
14.61688232010447
 30
0.0
 10
47.28638983480268
 20
14.59922859118047
 30
0.0
 10
47.27893769806268
 20
14.58245090918647
 30
0.0
 10
47.27182833169267
 20
14.56646653301847
 30
0.0
 10
47.26502889502267
 20
14.55120167563347
 30
0.0
 10
47.25851165809267
 20
14.53659230571847
 30
0.0
 10
47.25225476567267
 20
14.52258705135547
 30
0.0
 10
47.24624167802267
 20
14.50914749375147
 30
0.0
 10
47.24046058879267
 20
14.49624207050647
 30
0.0
 10
47.23489660521267
 20
14.48383103076847
 30
0.0
 10
47.22953090805267
 20
14.47186785962847
 30
0.0
 10
47.22434078795267
 20
14.46029585114047
 30
0.0
 10
47.21927051560267
 20
14.44904587726047
 30
0.0
 10
47.21429225213267
 20
14.43806409218547
 30
0.0
 10
47.20947960460268
 20
14.42735364942447
 30
0.0
 10
47.20503361301267
 20
14.41706397591047
 30
0.0
 10
47.20091794176267
 20
14.40773344166747
 30
0.0
 10
47.19749087710267
 20
14.40002928749647
 30
0.0
 10
47.19226965692268
 20
14.39288593173547
 30
0.0
 10
47.18334965097267
 20
14.38653297055147
 30
0.0
 10
47.17061044801267
 20
14.37879964140647
 30
0.0
 10
47.15326163016268
 20
14.37148517889947
 30
0.0
 10
47.13171261923267
 20
14.36521026464247
 30
0.0
 10
47.10566799249267
 20
14.35927558290447
 30
0.0
 10
47.07565081593268
 20
14.35733635829247
 30
0.0
 10
47.04289821757267
 20
14.35621006229647
 30
0.0
 10
47.00851853619267
 20
14.35694895603747
 30
0.0
 10
46.97322114714268
 20
14.35928929968947
 30
0.0
 10
46.93867692366267
 20
14.36301701373147
 30
0.0
 10
46.90716404815268
 20
14.37105507561147
 30
0.0
 10
46.88080348089268
 20
14.38082031361847
 30
0.0
 10
46.86021270899268
 20
14.39196483863747
 30
0.0
 10
46.84600730442267
 20
14.40675706537947
 30
0.0
 10
46.83382903233267
 20
14.42248580981047
 30
0.0
 10
46.81961918505267
 20
14.43922089803047
 30
0.0
 10
46.80432981915267
 20
14.45689407129547
 30
0.0
 10
46.78776251829268
 20
14.47539261179747
 30
0.0
 10
46.77004743773267
 20
14.49495777263547
 30
0.0
 10
46.75105122886268
 20
14.51569031361647
 30
0.0
 10
46.73070116298267
 20
14.53776584584947
 30
0.0
 10
46.70891728473268
 20
14.56145900994947
 30
0.0
 10
46.68550848447268
 20
14.58709898411147
 30
0.0
 10
46.66000365412268
 20
14.61492202089847
 30
0.0
 10
46.63198604417268
 20
14.64535098029847
 30
0.0
 10
46.60097186042268
 20
14.67895746705847
 30
0.0
 10
46.56628184810268
 20
14.71652946460347
 30
0.0
 10
46.52688631277268
 20
14.75914478453647
 30
0.0
 10
46.48124748956268
 20
14.80839994109447
 30
0.0
 10
46.42696903244267
 20
14.86685030619747
 30
0.0
 10
46.35987971194267
 20
14.93894304204147
 30
0.0
 10
46.27154092766267
 20
15.03366007219947
 30
0.0
 10
46.13918502620267
 20
15.17519076564347
 30
0.0
 10
45.74039233591267
 20
15.60017638255947
 30
0.0
 10
45.37913907886268
 20
15.98216507454247
 30
0.0
 10
45.08339898318268
 20
16.29398912136147
 30
0.0
  0
SPLINE
  5
E9
330
1F
100
AcDbEntity
  8
IGES_LEVEL_0
 62
     7
100
AcDbSpline
210
0.0
220
0.0
230
1.0
 70
     8
 71
     3
 72
    13
 73
     9
 74
     0
 42
0.0000000001
 43
0.0000000001
 40
0.0
 40
0.0
 40
0.0
 40
0.0
 40
0.1427006252644
 40
0.432508940824
 40
0.6862234134512
 40
0.8793018867415
 40
0.9905993693411
 40
1.0
 40
1.0
 40
1.0
 40
1.0
 10
48.15064339550267
 20
16.67554599886347
 30
0.0
 10
48.15887798588267
 20
16.67613026343847
 30
0.0
 10
48.18386844902267
 20
16.67769884519447
 30
0.0
 10
48.22392089551268
 20
16.67891883866047
 30
0.0
 10
48.26531416012267
 20
16.67969741826147
 30
0.0
 10
48.30063891479267
 20
16.67375968100647
 30
0.0
 10
48.31347419744267
 20
16.67430790083647
 30
0.0
 10
48.32322624023267
 20
16.66851656261947
 30
0.0
 10
48.32392921343268
 20
16.66810093894847
 30
0.0
  0
SPLINE
  5
EA
330
1F
100
AcDbEntity
  8
IGES_LEVEL_0
 62
     7
100
AcDbSpline
210
0.0
220
0.0
230
1.0
 70
     8
 71
     3
 72
    12
 73
     8
 74
     0
 42
0.0000000001
 43
0.0000000001
 40
0.0
 40
0.0
 40
0.0
 40
0.0
 40
0.09129158676938
 40
0.2857420682641
 40
0.5423920574417001
 40
0.8383158327965
 40
1.0
 40
1.0
 40
1.0
 40
1.0
 10
44.78840425302268
 20
16.42587349138147
 30
0.0
 10
44.79372627626267
 20
16.42906713428947
 30
0.0
 10
44.80532137538268
 20
16.43053190794947
 30
0.0
 10
44.83694790169267
 20
16.44025276719747
 30
0.0
 10
44.87672837748268
 20
16.44508336237147
 30
0.0
 10
44.91626532118268
 20
16.44936596178847
 30
0.0
 10
44.94144948715267
 20
16.45130927182047
 30
0.0
 10
44.95034754866268
 20
16.45192310590847
 30
0.0
  0
ARC
  5
EB
330
1F
100
AcDbEntity
  8
IGES_LEVEL_0
 62
     7
100
AcDbCircle
 10
44.67695106535243
 20
16.58118669634153
 30
0.0
 40
0.1911648625580153
100
AcDbArc
 50
302.6874336460786
 51
305.663326945112
  0
ARC
  5
EC
330
1F
100
AcDbEntity
  8
IGES_LEVEL_0
 62
     7
100
AcDbCircle
 10
46.03458405729268
 20
12.10828380315347
 30
0.0
 40
0.1500000943748414
100
AcDbArc
 50
7.124921593527463
 51
80.30131361781831
  0
ARC
  5
ED
330
1F
100
AcDbEntity
  8
IGES_LEVEL_0
 62
     7
100
AcDbCircle
 10
47.98736505729268
 20
12.10471080315347
 30
0.0
 40
0.1499996488425137
100
AcDbArc
 50
90.0
 51
172.8750310290985
  0
ARC
  5
EE
330
1F
100
AcDbEntity
  8
IGES_LEVEL_0
 62
     7
100
AcDbCircle
 10
46.34361505729268
 20
12.05471080315347
 30
0.0
 40
0.1499996488425119
100
AcDbArc
 50
187.1249689709019
 51
270.0
  0
ARC
  5
EF
330
1F
100
AcDbEntity
  8
IGES_LEVEL_0
 62
     7
100
AcDbCircle
 10
47.67878105729267
 20
12.05471080315347
 30
0.0
 40
0.1499996488425137
100
AcDbArc
 50
270.0
 51
352.8750310290985
  0
LINE
  5
F0
330
1F
100
AcDbEntity
  8
IGES_LEVEL_0
 62
     7
100
AcDbLine
 10
47.82762205729267
 20
12.03610580315347
 30
0.0
 11
47.83852405729267
 21
12.12331580315347
 31
0.0
  0
LINE
  5
F1
330
1F
100
AcDbEntity
  8
IGES_LEVEL_0
 62
     7
100
AcDbLine
 10
51.07181905729267
 20
18.98346680315347
 30
0.0
 11
54.09811205729267
 21
19.19598980315347
 31
0.0
  0
LINE
  5
F2
330
1F
100
AcDbEntity
  8
IGES_LEVEL_0
 62
     7
100
AcDbLine
 10
50.92396305729267
 20
18.52119380315347
 30
0.0
 11
54.12969105729268
 21
18.74631880315347
 31
0.0
  0
LINE
  5
F3
330
1F
100
AcDbEntity
  8
IGES_LEVEL_0
 62
     7
100
AcDbLine
 10
43.97449305729268
 20
18.03120580315347
 30
0.0
 11
49.40749105729267
 21
18.41437380315347
 31
0.0
  0
LINE
  5
F4
330
1F
100
AcDbEntity
  8
IGES_LEVEL_0
 62
     7
100
AcDbLine
 10
46.19477405729268
 20
12.03610580315347
 30
0.0
 11
46.18342605729268
 21
12.12688880315347
 31
0.0
  0
LINE
  5
F5
330
1F
100
AcDbEntity
  8
IGES_LEVEL_0
 62
     7
100
AcDbLine
 10
43.82057905729268
 20
17.06022880315347
 30
0.0
 11
48.98846505729267
 21
17.42160180315347
 31
0.0
  0
LINE
  5
F6
330
1F
100
AcDbEntity
  8
IGES_LEVEL_0
 62
     7
100
AcDbLine
 10
44.69214705729267
 20
16.43765880315347
 30
0.0
 11
48.40253005729267
 21
16.69722280315347
 31
0.0
  0
LINE
  5
F7
330
1F
100
AcDbEntity
  8
IGES_LEVEL_0
 62
     7
100
AcDbLine
 10
43.95769405729267
 20
17.68301380315347
 30
0.0
 11
43.96290005729267
 21
17.60887680315347
 31
0.0
  0
LINE
  5
F8
330
1F
100
AcDbEntity
  8
IGES_LEVEL_0
 62
     7
100
AcDbLine
 10
42.55335805729267
 20
17.83808380315347
 30
0.0
 11
42.55349005729268
 21
17.83620580315347
 31
0.0
  0
LINE
  5
F9
330
1F
100
AcDbEntity
  8
IGES_LEVEL_0
 62
     7
100
AcDbLine
 10
48.00352605729268
 20
12.25471080315347
 30
0.0
 11
47.98736505729268
 21
12.25471080315347
 31
0.0
  0
LINE
  5
FA
330
1F
100
AcDbEntity
  8
IGES_LEVEL_0
 62
     7
100
AcDbLine
 10
38.45464505729267
 20
19.12707280315347
 30
0.0
 11
38.45521005729268
 21
19.12838980315347
 31
0.0
  0
LINE
  5
FB
330
1F
100
AcDbEntity
  8
IGES_LEVEL_0
 62
     7
100
AcDbLine
 10
38.63736005729267
 20
19.68972180315347
 30
0.0
 11
38.63870205729268
 21
19.69494380315347
 31
0.0
  0
LINE
  5
FC
330
1F
100
AcDbEntity
  8
IGES_LEVEL_0
 62
     7
100
AcDbLine
 10
39.25807705729267
 20
22.67318880315347
 30
0.0
 11
38.74374905729268
 21
20.14056180315347
 31
0.0
  0
LINE
  5
FD
330
1F
100
AcDbEntity
  8
IGES_LEVEL_0
 62
     7
100
AcDbLine
 10
41.28738040159267
 20
17.81766690808347
 30
0.0
 11
42.77884346650268
 21
17.92278946074847
 31
0.0
  0
SPLINE
  5
FE
330
1F
100
AcDbEntity
  8
IGES_LEVEL_0
 62
     7
100
AcDbSpline
210
0.0
220
0.0
230
1.0
 70
     8
 71
     2
 72
     7
 73
     4
 74
     0
 42
0.0000000001
 43
0.0000000001
 40
0.0
 40
0.0
 40
0.0
 40
1.0
 40
1.017584782680613
 40
1.017584782680613
 40
1.017584782680613
 10
50.89235805729267
 20
18.59727480315347
 30
0.0
 10
49.49361905729266
 20
15.45565580315347
 30
0.0
 10
48.07028353595077
 20
12.25879211577318
 30
0.0
 10
48.00352605729268
 20
12.25471080315347
 30
0.0
  0
SPLINE
  5
FF
330
1F
100
AcDbEntity
  8
IGES_LEVEL_0
 62
     7
100
AcDbSpline
210
0.0
220
0.0
230
1.0
 70
     8
 71
     3
 72
    46
 73
    42
 74
     0
 42
0.0000000001
 43
0.0000000001
 40
0.0
 40
0.0
 40
0.0
 40
0.0
 40
0.04490899440663
 40
0.0889211557295
 40
0.1315167616663
 40
0.1727621552502
 40
0.2127235943794
 40
0.2514672596867
 40
0.2890592783396
 40
0.3255657265331
 40
0.3610526440615
 40
0.395583904127
 40
0.429215578388
 40
0.4620019366289
 40
0.4939972313955
 40
0.5252556946249
 40
0.5558300109931
 40
0.5857394468951001
 40
0.6149708763472001
 40
0.6435097279149
 40
0.6713414453982
 40
0.6984514992742
 40
0.7248255914918
 40
0.7504456716172
 40
0.775281594038
 40
0.7993007005019001
 40
0.8224895008138
 40
0.8448082150147001
 40
0.8660902496606
 40
0.8861790408639
 40
0.9049433056140001
 40
0.9222725898284
 40
0.938081043556
 40
0.9522965004997001
 40
0.9648406318885
 40
0.9756475754136
 40
0.9846701034868
 40
0.9918897524617
 40
0.9973282458991
 40
1.0
 40
1.021252800069934
 40
1.021252800069934
 40
1.021252800069934
 40
1.021252800069934
 10
43.31370837338267
 20
16.74636171763847
 30
0.0
 10
43.35374581608267
 20
16.68018250194147
 30
0.0
 10
43.43300724566268
 20
16.54913725578047
 30
0.0
 10
43.55020022121269
 20
16.35529559203847
 30
0.0
 10
43.66409694372267
 20
16.16683454554647
 30
0.0
 10
43.77435800272266
 20
15.98432805177747
 30
0.0
 10
43.88116509041267
 20
15.80748588789647
 30
0.0
 10
43.98469884916267
 20
15.63601762942447
 30
0.0
 10
44.08513914362267
 20
15.46963274642847
 30
0.0
 10
44.18266512129269
 20
15.30804055828547
 30
0.0
 10
44.27745351472267
 20
15.15095346034147
 30
0.0
 10
44.36967174589267
 20
14.99809835418747
 30
0.0
 10
44.45947648410267
 20
14.84921932906947
 30
0.0
 10
44.54701556592268
 20
14.70407449690047
 30
0.0
 10
44.63243499304268
 20
14.56242456294447
 30
0.0
 10
44.71587915835266
 20
14.42403245009647
 30
0.0
 10
44.79746119342268
 20
14.28871259536347
 30
0.0
 10
44.87723422761268
 20
14.15637872590747
 30
0.0
 10
44.95519152137267
 20
14.02704373468847
 30
0.0
 10
45.03129607868267
 20
13.90077029464547
 30
0.0
 10
45.10550961270266
 20
13.77762312311947
 30
0.0
 10
45.1777945453827
 20
13.65766681477247
 30
0.0
 10
45.24810981130267
 20
13.54097088906247
 30
0.0
 10
45.31639851027268
 20
13.42762672541647
 30
0.0
 10
45.38259068379267
 20
13.31775475401747
 30
0.0
 10
45.44662509495269
 20
13.21147148948747
 30
0.0
 10
45.50841368816268
 20
13.10889666197646
 30
0.0
 10
45.56774815235268
 20
13.01034686250047
 30
0.0
 10
45.62427758645268
 20
12.91634049119747
 30
0.0
 10
45.67759767575269
 20
12.82754777696847
 30
0.0
 10
45.72737359396265
 20
12.74456788005847
 30
0.0
 10
45.77332073052267
 20
12.66788803376947
 30
0.0
 10
45.81520735011267
 20
12.59790845447747
 30
0.0
 10
45.85283076368266
 20
12.53498225366847
 30
0.0
 10
45.88600773350267
 20
12.47943405782547
 30
0.0
 10
45.91458002404268
 20
12.43155338403147
 30
0.0
 10
45.93843550448268
 20
12.39153718303647
 30
0.0
 10
45.95754100108266
 20
12.35945385190547
 30
0.0
 10
45.97103856301267
 20
12.33676163860747
 30
0.0
 10
45.9968765318567
 20
12.29328757472527
 30
0.0
 10
46.01790907803769
 20
12.25785378984089
 30
0.0
 10
46.05985409024279
 20
12.2561399959462
 30
0.0
  0
SPLINE
  5
100
330
1F
100
AcDbEntity
  8
IGES_LEVEL_0
 62
     7
100
AcDbSpline
210
0.0
220
0.0
230
1.0
 70
     8
 71
     3
 72
    20
 73
    16
 74
     0
 42
0.0000000001
 43
0.0000000001
 40
0.0
 40
0.0
 40
0.0
 40
0.0
 40
0.1108530318162
 40
0.2150088321109
 40
0.3131071143411
 40
0.4049839344693
 40
0.4908573237442
 40
0.5717391287842
 40
0.6482357528046
 40
0.7207011186513
 40
0.789926058418
 40
0.8560261707186
 40
0.9193795930350001
 40
0.9802287725510001
 40
1.0
 40
1.0
 40
1.0
 40
1.0
 10
45.31491485319268
 20
14.94217302128047
 30
0.0
 10
45.31297040318268
 20
14.93669071917447
 30
0.0
 10
45.30943324384268
 20
14.92597221084047
 30
0.0
 10
45.30500819641267
 20
14.91014338281547
 30
0.0
 10
45.30156374274267
 20
14.89509204745247
 30
0.0
 10
45.29904200108267
 20
14.88083205042347
 30
0.0
 10
45.29738958597268
 20
14.86735467513547
 30
0.0
 10
45.29656466771267
 20
14.85460925281447
 30
0.0
 10
45.29655079504268
 20
14.84253934328647
 30
0.0
 10
45.29735901782267
 20
14.83110754572747
 30
0.0
 10
45.29902884566268
 20
14.82031773910447
 30
0.0
 10
45.30163119176268
 20
14.81020169317847
 30
0.0
 10
45.30525567810267
 20
14.80086636751347
 30
0.0
 10
45.30899470681267
 20
14.79426459758147
 30
0.0
 10
45.31150824475267
 20
14.79085057865447
 30
0.0
 10
45.31215023517268
 20
14.79003346115647
 30
0.0
  0
LINE
  5
101
330
1F
100
AcDbEntity
  8
IGES_LEVEL_0
 62
     7
100
AcDbLine
 10
45.31215023517268
 20
14.79003346115647
 30
0.0
 11
45.32122414479815
 21
14.77848430076541
 31
0.0
  0
LINE
  5
102
330
1F
100
AcDbEntity
  8
IGES_LEVEL_0
 62
     7
100
AcDbLine
 10
45.32122414479815
 20
14.77848430076541
 30
0.0
 11
45.67009351841173
 21
14.78152857727677
 31
0.0
  0
LINE
  5
103
330
1F
100
AcDbEntity
  8
IGES_LEVEL_0
 62
     7
100
AcDbLine
 10
47.93945286872568
 20
14.78253434465844
 30
0.0
 11
48.24927105729267
 21
14.77712680315347
 31
0.0
  0
LINE
  5
104
330
1F
100
AcDbEntity
  8
IGES_LEVEL_0
 62
     7
100
AcDbLine
 10
45.00514484223267
 20
16.42647723849647
 30
0.0
 11
45.00070842842267
 21
16.44767582315047
 31
0.0
  0
LINE
  5
105
330
1F
100
AcDbEntity
  8
IGES_LEVEL_0
 62
     7
100
AcDbLine
 10
45.00070842842267
 20
16.44767582315047
 30
0.0
 11
44.99886941960534
 21
16.45911590967086
 31
0.0
  0
LINE
  5
106
330
1F
100
AcDbEntity
  8
IGES_LEVEL_0
 62
     7
100
AcDbLine
 10
48.14547243536632
 20
16.67924004919581
 30
0.0
 11
48.14516866237267
 21
16.67093411444647
 31
0.0
  0
ARC
  5
107
330
1F
100
AcDbEntity
  8
IGES_LEVEL_0
 62
     7
100
AcDbCircle
 10
47.52290679083791
 20
16.69878562854826
 30
0.0
 40
0.6228848558150258
100
AcDbArc
 50
335.972543929311
 51
357.4372367240094
  0
SPLINE
  5
108
330
1F
100
AcDbEntity
  8
IGES_LEVEL_0
 62
     7
100
AcDbSpline
210
0.0
220
0.0
230
1.0
 70
     8
 71
     3
 72
    23
 73
    19
 74
     0
 42
0.0000000001
 43
0.0000000001
 40
0.0
 40
0.0
 40
0.0
 40
0.0
 40
0.0803135977331
 40
0.1709667609036
 40
0.2599225888144
 40
0.3415012502062
 40
0.4137152028659
 40
0.4778920247371
 40
0.5347959627514
 40
0.5871474602539
 40
0.6376733819027
 40
0.6869864618337001
 40
0.7355002424263
 40
0.7834039629669
 40
0.8303271812601
 40
0.8771341397701
 40
0.9251553071942
 40
1.0
 40
1.0
 40
1.0
 40
1.0
 10
54.88423994492267
 20
18.17971750960647
 30
0.0
 10
54.95666989093267
 20
18.17334577424447
 30
0.0
 10
55.11046808340267
 20
18.15549502578147
 30
0.0
 10
55.34184665924268
 20
18.11095371171547
 30
0.0
 10
55.56802873100267
 20
18.04010012167047
 30
0.0
 10
55.76866944823267
 20
17.94948521694447
 30
0.0
 10
55.94016614808267
 20
17.85147194066647
 30
0.0
 10
56.08418003831267
 20
17.75171173770447
 30
0.0
 10
56.20454739349268
 20
17.65060485881547
 30
0.0
 10
56.30700361082268
 20
17.54835013605147
 30
0.0
 10
56.39831723395267
 20
17.44513667628447
 30
0.0
 10
56.48281824433268
 20
17.34074214218347
 30
0.0
 10
56.56236379624268
 20
17.23550240860247
 30
0.0
 10
56.63819380235267
 20
17.13022197842847
 30
0.0
 10
56.71171162879267
 20
17.02520084905847
 30
0.0
 10
56.78489846191268
 20
16.91982233081547
 30
0.0
 10
56.86081753015267
 20
16.81292723461747
 30
0.0
 10
56.92768689858268
 20
16.72404896930647
 30
0.0
 10
57.09183200739267
 20
16.47456720130147
 30
0.0
  0
LINE
  5
109
330
1F
100
AcDbEntity
  8
IGES_LEVEL_0
 62
     7
100
AcDbLine
 10
54.16922505729268
 20
18.18334280315347
 30
0.0
 11
50.59635220342032
 21
17.93243481897015
 31
0.0
  0
SPLINE
  5
10A
330
1F
100
AcDbEntity
  8
IGES_LEVEL_0
 62
     7
100
AcDbSpline
210
0.0
220
0.0
230
1.0
 70
     8
 71
     2
 72
     7
 73
     4
 74
     0
 42
0.0000000001
 43
0.0000000001
 40
0.0
 40
0.0
 40
0.0
 40
1.0
 40
1.112418867557221
 40
1.112418867557221
 40
1.112418867557221
 10
48.66344605729267
 20
17.39887480315347
 30
0.0
 10
48.71454055729268
 20
17.20781180315347
 30
0.0
 10
48.77137904312107
 20
16.99526971706138
 30
0.0
 10
48.78547717203269
 20
16.97907537831047
 30
0.0
  0
LINE
  5
10B
330
1F
100
AcDbEntity
  8
IGES_LEVEL_0
 62
     7
100
AcDbLine
 10
48.78547717203269
 20
16.97907537831047
 30
0.0
 11
48.51682732808267
 21
16.38155034700547
 31
0.0
  0
LINE
  5
10C
330
1F
100
AcDbEntity
  8
DEFAULT
 62
     7
100
AcDbLine
 10
49.44155368914267
 20
18.49582476298447
 30
0.0
 11
48.98846505729267
 21
17.42160180315347
 31
0.0
  0
ARC
  5
10D
330
1F
100
AcDbEntity
  8
IGES_LEVEL_0
 62
     7
100
AcDbCircle
 10
393.2446836103986
 20
-158.2475402184191
 30
0.0
 40
386.5731463667732
100
AcDbArc
 50
152.3809434514867
 51
152.7888169055236
  0
SPLINE
  5
10E
330
1F
100
AcDbEntity
  8
IGES_LEVEL_0
 62
     7
100
AcDbSpline
210
0.0
220
0.0
230
1.0
 70
     8
 71
     3
 72
    15
 73
    11
 74
     0
 42
0.0000000001
 43
0.0000000001
 40
0.0
 40
0.0
 40
0.0
 40
0.0
 40
0.8495813516926889
 40
1.345194162890591
 40
1.73419835378829
 40
2.113276044591291
 40
2.34519416289059
 40
2.832659190469192
 40
3.707235741563428
 40
4.112102718855062
 40
4.112102718855062
 40
4.112102718855062
 40
4.112102718855062
 10
50.72176445657267
 20
20.96419864443637
 30
0.0
 10
50.95052365148435
 20
21.05483013328358
 30
0.0
 10
51.29332378158391
 20
21.17769126722952
 30
0.0
 10
51.71381070656636
 20
21.48482192556366
 30
0.0
 10
51.97371882221272
 20
21.76169417229347
 30
0.0
 10
52.14726895284262
 20
22.00610153506247
 30
0.0
 10
52.31397128828289
 20
22.2895644666122
 30
0.0
 10
52.51936475475827
 20
22.72071471266427
 30
0.0
 10
52.68034289661807
 20
23.19622656069348
 30
0.0
 10
52.75976337250651
 20
23.57218217016166
 30
0.0
 10
52.77146462461268
 20
23.68632749933847
 30
0.0
  0
SPLINE
  5
10F
330
1F
100
AcDbEntity
  8
IGES_LEVEL_0
 62
     7
100
AcDbSpline
210
0.0
220
0.0
230
1.0
 70
     8
 71
     3
 72
    18
 73
    14
 74
     0
 42
0.0000000001
 43
0.0000000001
 40
4.112102718855062
 40
4.112102718855062
 40
4.112102718855062
 40
4.112102718855062
 40
4.170120076411862
 40
4.261347109073662
 40
4.356683139833362
 40
4.455273009237862
 40
4.557743474188462
 40
4.664637425159962
 40
4.776346761887362
 40
4.893302155987162
 40
5.015983437893622
 40
5.112102718855063
 40
5.25389848574809
 40
5.25389848574809
 40
5.25389848574809
 40
5.25389848574809
 10
52.77146462461268
 20
23.68632749933847
 30
0.0
 10
52.77723573160266
 20
23.74262445808347
 30
0.0
 10
52.78657087798268
 20
23.88805936198147
 30
0.0
 10
52.77740917081268
 20
24.12697735878547
 30
0.0
 10
52.72921315621268
 20
24.40173192510647
 30
0.0
 10
52.63782169169268
 20
24.67704190912147
 30
0.0
 10
52.49934101330267
 20
24.94490381755947
 30
0.0
 10
52.31090628375267
 20
25.19674467940747
 30
0.0
 10
52.07149872353267
 20
25.42218382709647
 30
0.0
 10
51.78299799282267
 20
25.61024730362547
 30
0.0
 10
51.47988823503266
 20
25.73821495903847
 30
0.0
 10
51.13741512637564
 20
25.82379570125298
 30
0.0
 10
50.90548223957383
 20
25.84428576681648
 30
0.0
 10
50.77068473901267
 20
25.87099971309647
 30
0.0
  0
SPLINE
  5
110
330
1F
100
AcDbEntity
  8
IGES_LEVEL_0
 62
     7
100
AcDbSpline
210
0.0
220
0.0
230
1.0
 70
     8
 71
     3
 72
    16
 73
    12
 74
     0
 42
0.0000000001
 43
0.0000000001
 40
5.25389848574809
 40
5.25389848574809
 40
5.25389848574809
 40
5.25389848574809
 40
5.39631829493759
 40
5.53578888522679
 40
5.67195503396839
 40
5.80448063087639
 40
5.933037081038791
 40
6.05728711789989
 40
6.17690130917237
 40
6.25389848574809
 40
7.344573577982258
 40
7.344573577982258
 40
7.344573577982258
 40
7.344573577982258
 10
50.77068473901267
 20
25.87099971309647
 30
0.0
 10
50.72130526489268
 20
25.87761233947647
 30
0.0
 10
50.62340869802267
 20
25.88949030138347
 30
0.0
 10
50.47785313697268
 20
25.90371638278747
 30
0.0
 10
50.33547661161268
 20
25.91452051690247
 30
0.0
 10
50.19672535494269
 20
25.92225038072647
 30
0.0
 10
50.06202176324267
 20
25.92725608255047
 30
0.0
 10
49.93176944350266
 20
25.92988292815547
 30
0.0
 10
49.81952896993268
 20
25.93040618467747
 30
0.0
 10
49.36923864799628
 20
25.92718119073798
 30
0.0
 10
48.96090563801612
 20
25.89851351830352
 30
0.0
 10
48.58882651655267
 20
25.85799169650647
 30
0.0
  0
ARC
  5
111
330
1F
100
AcDbEntity
  8
IGES_LEVEL_0
 62
     7
100
AcDbCircle
 10
53.07125128849066
 20
-15.06626316624215
 30
0.0
 40
41.16900251290146
100
AcDbArc
 50
96.25067779974323
 51
97.1643604406252
  0
LINE
  5
112
330
1F
100
AcDbEntity
  8
IGES_LEVEL_0
 62
     7
100
AcDbLine
 10
47.93681440684267
 20
25.78131112912647
 30
0.0
 11
47.19474004739767
 21
25.68803425710197
 31
0.0
  0
SPLINE
  5
113
330
1F
100
AcDbEntity
  8
IGES_LEVEL_0
 62
     7
100
AcDbSpline
210
0.0
220
0.0
230
1.0
 70
     8
 71
     3
 72
    12
 73
     8
 74
     0
 42
0.0000000001
 43
0.0000000001
 40
9.344573577982258
 40
9.344573577982258
 40
9.344573577982258
 40
9.344573577982258
 40
9.411774956830518
 40
9.615097290820643
 40
9.836139111012654
 40
10.07804884760354
 40
10.34457357798226
 40
10.34457357798226
 40
10.34457357798226
 40
10.34457357798226
 10
47.19474004739767
 20
25.68803425710197
 30
0.0
 10
47.05754999066268
 20
25.66948760491647
 30
0.0
 10
46.50491877958268
 20
25.59772866344447
 30
0.0
 10
45.49971052259268
 20
25.47482633497847
 30
0.0
 10
44.13785273181267
 20
25.30373543359647
 30
0.0
 10
42.64660376440358
 20
25.11794008948809
 30
0.0
 10
41.60678813447293
 20
24.99180940577908
 30
0.0
 10
41.06238685487767
 20
24.92050451367447
 30
0.0
  0
SPLINE
  5
114
330
1F
100
AcDbEntity
  8
IGES_LEVEL_0
 62
     7
100
AcDbSpline
210
0.0
220
0.0
230
1.0
 70
     8
 71
     3
 72
    14
 73
    10
 74
     0
 42
0.0000000001
 43
0.0000000001
 40
10.34457357798226
 40
10.34457357798226
 40
10.34457357798226
 40
10.34457357798226
 40
10.52754974942
 40
10.71970921360421
 40
10.91626629903498
 40
11.10095587856964
 40
11.24989837706502
 40
11.34449120325347
 40
11.47677961149652
 40
11.47677961149652
 40
11.47677961149652
 40
11.47677961149652
 10
41.06238685487767
 20
24.92050451367447
 30
0.0
 10
41.02087912398909
 20
24.91506789112516
 30
0.0
 10
40.93600278571856
 20
24.90217403976755
 30
0.0
 10
40.80745471973268
 20
24.87790353459547
 30
0.0
 10
40.67934525599267
 20
24.84960213609547
 30
0.0
 10
40.56143211530267
 20
24.82107050243247
 30
0.0
 10
40.46706125199268
 20
24.79467834129047
 30
0.0
 10
40.38455267599622
 20
24.77056216247539
 30
0.0
 10
40.33472334398492
 20
24.75583960551136
 30
0.0
 10
40.30495384259267
 20
24.75496844894347
 30
0.0
  0
LINE
  5
115
330
1F
100
AcDbEntity
  8
IGES_LEVEL_0
 62
     7
100
AcDbLine
 10
40.30495384259267
 20
24.75496844894347
 30
0.0
 11
40.26482338242148
 21
24.75379409558464
 31
0.0
  0
LINE
  5
116
330
1F
100
AcDbEntity
  8
IGES_LEVEL_0
 62
     7
100
AcDbLine
 10
40.26482338242148
 20
24.75379409558464
 30
0.0
 11
40.25386475349266
 21
24.75427324713947
 31
0.0
  0
ARC
  5
117
330
1F
100
AcDbEntity
  8
IGES_LEVEL_0
 62
     7
100
AcDbCircle
 10
40.27582499695269
 20
25.2440300295644
 30
0.0
 40
0.4902488737611104
100
AcDbArc
 50
240.7344585889145
 51
267.4326296503811
  0
ARC
  5
118
330
1F
100
AcDbEntity
  8
IGES_LEVEL_0
 62
     7
100
AcDbCircle
 10
40.26723033531071
 20
25.23440371201547
 30
0.0
 40
0.4776578167609536
100
AcDbArc
 50
219.901621715021
 51
241.069337218673
  0
ARC
  5
119
330
1F
100
AcDbEntity
  8
IGES_LEVEL_0
 62
     7
100
AcDbCircle
 10
40.27819748816575
 20
25.24854142701872
 30
0.0
 40
0.4951548370984122
100
AcDbArc
 50
179.8782661285632
 51
220.3425604627321
  0
ARC
  5
11A
330
1F
100
AcDbEntity
  8
IGES_LEVEL_0
 62
     7
100
AcDbCircle
 10
40.28571087890808
 20
25.24852546361762
 30
0.0
 40
0.5026682447991344
100
AcDbArc
 50
150.3867957953457
 51
179.8782661285811
  0
LINE
  5
11B
330
1F
100
AcDbEntity
  8
IGES_LEVEL_0
 62
     7
100
AcDbLine
 10
39.84870062031267
 20
25.49691507332747
 30
0.0
 11
39.88364394608291
 21
25.55839345742282
 31
0.0
  0
LINE
  5
11C
330
1F
100
AcDbEntity
  8
IGES_LEVEL_0
 62
     7
100
AcDbLine
 10
39.88364394608291
 20
25.55839345742282
 30
0.0
 11
39.89927841425268
 21
25.56900754137547
 31
0.0
  0
SPLINE
  5
11D
330
1F
100
AcDbEntity
  8
IGES_LEVEL_0
 62
     7
100
AcDbSpline
210
0.0
220
0.0
230
1.0
 70
     8
 71
     3
 72
    27
 73
    23
 74
     0
 42
0.0000000001
 43
0.0000000001
 40
15.85984021952429
 40
15.85984021952429
 40
15.85984021952429
 40
15.85984021952429
 40
15.90793894315497
 40
16.00704414503897
 40
16.09918282573307
 40
16.18459544064697
 40
16.26358274738617
 40
16.30076272979077
 40
16.33643765883687
 40
16.37062990745127
 40
16.40336186894937
 40
16.46464113912267
 40
16.52098781062557
 40
16.57331141484397
 40
16.62288493761967
 40
16.67096521723787
 40
16.71838021832207
 40
16.76572501068337
 40
16.81309617131976
 40
16.86048395570382
 40
16.90793894315497
 40
16.92612217968541
 40
16.92612217968541
 40
16.92612217968541
 40
16.92612217968541
 10
39.89927841425268
 20
25.56900754137547
 30
0.0
 10
40.02440898440652
 20
25.65395743300149
 30
0.0
 10
40.48818207425308
 20
25.70215982207978
 30
0.0
 10
41.24243231835267
 20
25.77870296201346
 30
0.0
 10
42.11457727178269
 20
25.86410949449547
 30
0.0
 10
42.92358645968267
 20
25.94034214059547
 30
0.0
 10
43.55949904759268
 20
25.99787607630047
 30
0.0
 10
44.03862816321266
 20
26.03984241576347
 30
0.0
 10
44.37646837786271
 20
26.06874465646547
 30
0.0
 10
44.70033079110266
 20
26.09573467193847
 30
0.0
 10
45.10509461071266
 20
26.12849449767347
 30
0.0
 10
45.57994981220269
 20
26.16510140937947
 30
0.0
 10
46.11689823743265
 20
26.20352149960947
 30
0.0
 10
46.61705631121268
 20
26.23648801462847
 30
0.0
 10
47.09127712482267
 20
26.26470979095547
 30
0.0
 10
47.55014976696265
 20
26.28893809979547
 30
0.0
 10
48.00211341945268
 20
26.30992859596447
 30
0.0
 10
48.45194732886266
 20
26.32825948635447
 30
0.0
 10
48.90188663353267
 20
26.34141440394647
 30
0.0
 10
49.3523514668627
 20
26.34675857462047
 30
0.0
 10
49.71039849088469
 20
26.34083523611096
 30
0.0
 10
49.91799803955034
 20
26.3299261839372
 30
0.0
 10
49.97517228143268
 20
26.32630971508547
 30
0.0
  0
SPLINE
  5
11E
330
1F
100
AcDbEntity
  8
IGES_LEVEL_0
 62
     7
100
AcDbSpline
210
0.0
220
0.0
230
1.0
 70
     8
 71
     3
 72
    48
 73
    44
 74
     0
 42
0.0000000001
 43
0.0000000001
 40
16.92612217968541
 40
16.92612217968541
 40
16.92612217968541
 40
16.92612217968541
 40
16.96054907322911
 40
17.03231365440221
 40
17.06823127479331
 40
17.10416133481281
 40
17.14010265691461
 40
17.17606992483141
 40
17.21210434130921
 40
17.24830509002711
 40
17.26651208143651
 40
17.28481625071241
 40
17.30324074924901
 40
17.32181102005841
 40
17.34055442185731
 40
17.35949962821621
 40
17.37867840803001
 40
17.39812602339551
 40
17.41787155126751
 40
17.43791002717831
 40
17.45823291774231
 40
17.47883834060431
 40
17.49971557853281
 40
17.52079469291271
 40
17.54199110166521
 40
17.56322239591361
 40
17.58442014502751
 40
17.60555892320401
 40
17.62662052839661
 40
17.64758357775261
 40
17.66844053159571
 40
17.68924849035611
 40
17.71008090615931
 40
17.73101064988361
 40
17.75210533586811
 40
17.77341560286151
 40
17.79498852258821
 40
17.81687154111421
 40
17.83911155164596
 40
17.86175437687409
 40
17.88484883638645
 40
17.90844734140112
 40
17.92612217968541
 40
17.92612217968541
 40
17.92612217968541
 40
17.92612217968541
 10
49.97517228143268
 20
26.32630971508547
 30
0.0
 10
50.02823312986267
 20
26.32295343261847
 30
0.0
 10
50.19184859297268
 20
26.31174726828247
 30
0.0
 10
50.41047461156268
 20
26.29190329599447
 30
0.0
 10
50.63053106910267
 20
26.26409322804147
 30
0.0
 10
50.79505581607268
 20
26.23861327014547
 30
0.0
 10
50.95875011498268
 20
26.20779150847147
 30
0.0
 10
51.12135897856267
 20
26.17089940104147
 30
0.0
 10
51.28269342952267
 20
26.12718366210147
 30
0.0
 10
51.41565939180268
 20
26.08420580113147
 30
0.0
 10
51.52103676441267
 20
26.04537870571247
 30
0.0
 10
51.59979189681268
 20
26.01379965567947
 30
0.0
 10
51.67809252969268
 20
25.97967857809347
 30
0.0
 10
51.75592083285267
 20
25.94287482206347
 30
0.0
 10
51.83325675116268
 20
25.90324841788547
 30
0.0
 10
51.91004959260268
 20
25.86060497153347
 30
0.0
 10
51.98624444308267
 20
25.81475223979647
 30
0.0
 10
52.06177281856267
 20
25.76550614061247
 30
0.0
 10
52.13651030859268
 20
25.71272774421947
 30
0.0
 10
52.21020345140268
 20
25.65624497769147
 30
0.0
 10
52.28253138941267
 20
25.59592447580147
 30
0.0
 10
52.35314227434267
 20
25.53165646904247
 30
0.0
 10
52.42159902514267
 20
25.46343195005847
 30
0.0
 10
52.48754978104267
 20
25.39153916331247
 30
0.0
 10
52.55055171256267
 20
25.31633278091447
 30
0.0
 10
52.61015683192267
 20
25.23817317616147
 30
0.0
 10
52.66595113482268
 20
25.15735702368147
 30
0.0
 10
52.71782429936268
 20
25.07428143994447
 30
0.0
 10
52.76572846511267
 20
24.98927296799247
 30
0.0
 10
52.80963641246267
 20
24.90262235262047
 30
0.0
 10
52.84956539824268
 20
24.81449782983747
 30
0.0
 10
52.88550905963267
 20
24.72489104003047
 30
0.0
 10
52.91752614472267
 20
24.63368863676347
 30
0.0
 10
52.94568316135268
 20
24.54075978995147
 30
0.0
 10
52.97004234941267
 20
24.44600226556347
 30
0.0
 10
52.99056129895267
 20
24.34932384461747
 30
0.0
 10
53.00718529440267
 20
24.25066542584547
 30
0.0
 10
53.01985865545267
 20
24.14997549614947
 30
0.0
 10
53.02852505972267
 20
24.04720306693847
 30
0.0
 10
53.03296559777267
 20
23.94228718711147
 30
0.0
 10
53.03296065719268
 20
23.83517828555647
 30
0.0
 10
53.02871795199268
 20
23.73583413106947
 30
0.0
 10
53.02364998443051
 20
23.67228415469789
 30
0.0
 10
53.02105908096267
 20
23.64510968264847
 30
0.0
  0
LINE
  5
11F
330
1F
100
AcDbEntity
  8
IGES_LEVEL_0
 62
     7
100
AcDbLine
 10
53.02105908096267
 20
23.64510968264847
 30
0.0
 11
53.020551322644
 21
23.63978410243677
 31
0.0
  0
LINE
  5
120
330
1F
100
AcDbEntity
  8
IGES_LEVEL_0
 62
     7
100
AcDbLine
 10
53.020551322644
 20
23.63978410243677
 30
0.0
 11
53.02002158152267
 21
23.63445591452247
 31
0.0
  0
SPLINE
  5
121
330
1F
100
AcDbEntity
  8
IGES_LEVEL_0
 62
     7
100
AcDbSpline
210
0.0
220
0.0
230
1.0
 70
     8
 71
     3
 72
    20
 73
    16
 74
     0
 42
0.0000000001
 43
0.0000000001
 40
17.93120172411452
 40
17.93120172411452
 40
17.93120172411452
 40
17.93120172411452
 40
17.94537493625672
 40
18.02952360714052
 40
18.11597944006542
 40
18.20495684983082
 40
18.25045907248142
 40
18.29665543887642
 40
18.39115150571492
 40
18.48847720070212
 40
18.58863134318162
 40
18.69161765540192
 40
18.79752940738292
 40
18.90645902185285
 40
18.93120172411452
 40
18.93120172411452
 40
18.93120172411452
 40
18.93120172411452
 10
53.02002158152267
 20
23.63445591452247
 30
0.0
 10
53.01938393550267
 20
23.62804240798547
 30
0.0
 10
53.01479832716267
 20
23.58356699731847
 30
0.0
 10
53.00407829373268
 20
23.50020884488647
 30
0.0
 10
52.98409863052267
 20
23.38384467107947
 30
0.0
 10
52.96299241241268
 20
23.28559481392847
 30
0.0
 10
52.94330657774268
 20
23.20582940028947
 30
0.0
 10
52.92144689278267
 20
23.12403169071147
 30
0.0
 10
52.89066327759267
 20
23.02024993023947
 30
0.0
 10
52.84889027311267
 20
22.89421052871947
 30
0.0
 10
52.80231841654268
 20
22.76575290071047
 30
0.0
 10
52.75123576675267
 20
22.63482728064247
 30
0.0
 10
52.69630296394267
 20
22.50115124384847
 30
0.0
 10
52.65367905500267
 20
22.40089419519747
 30
0.0
 10
52.62967076218268
 20
22.34505512864547
 30
0.0
 10
52.62522033302267
 20
22.33472214131047
 30
0.0
  0
LINE
  5
122
330
1F
100
AcDbEntity
  8
IGES_LEVEL_0
 62
     7
100
AcDbLine
 10
52.62522033302267
 20
22.33472214131047
 30
0.0
 11
52.57573477246926
 21
22.2198267790702
 31
0.0
  0
LINE
  5
123
330
1F
100
AcDbEntity
  8
IGES_LEVEL_0
 62
     7
100
AcDbLine
 10
52.57573477246926
 20
22.2198267790702
 30
0.0
 11
50.89235805729267
 21
18.59727480315347
 31
0.0
  0
LINE
  5
124
330
1F
100
AcDbEntity
  8
IGES_LEVEL_0
 62
     7
100
AcDbLine
 10
50.89235805729267
 20
18.59727480315347
 30
0.0
 11
49.44155368914267
 21
18.49582476298447
 31
0.0
  0
LINE
  5
125
330
1F
100
AcDbEntity
  8
DEFAULT
 62
     7
100
AcDbLine
 10
39.74851437806504
 20
18.4148526959881
 30
0.0
 11
40.03964006974127
 21
18.6075600138787
 31
0.0
  0
LINE
  5
126
330
1F
100
AcDbEntity
  8
IGES_LEVEL_0
 62
     7
100
AcDbLine
 10
39.38034005729267
 20
19.97866380315347
 30
0.0
 11
40.35167700507894
 21
24.76167032829127
 31
0.0
  0
SPLINE
  5
127
330
1F
100
AcDbEntity
  8
IGES_LEVEL_0
 62
     7
100
AcDbSpline
210
0.0
220
0.0
230
1.0
 70
     8
 71
     3
 72
    15
 73
    11
 74
     0
 42
0.0000000001
 43
0.0000000001
 40
-0.0895565447295789
 40
-0.0895565447295789
 40
-0.0895565447295789
 40
-0.0895565447295789
 40
0.0
 40
0.06746382003504
 40
0.2509235852836
 40
0.4179474185843
 40
0.5764722083118
 40
0.7420009367751
 40
0.9205855995836
 40
1.0
 40
1.0
 40
1.0
 40
1.0
 10
57.86560376618911
 20
16.13911290107104
 30
0.0
 10
57.84182707962715
 20
16.13108803575067
 30
0.0
 10
57.79766492845874
 20
16.12366653520358
 30
0.0
 10
57.70141498781268
 20
16.11085112978847
 30
0.0
 10
57.58225314564265
 20
16.10289733169247
 30
0.0
 10
57.43647160265267
 20
16.12220102126047
 30
0.0
 10
57.30941195302268
 20
16.18769693729447
 30
0.0
 10
57.20839453368266
 20
16.29147688559247
 30
0.0
 10
57.14042235285267
 20
16.39153175194847
 30
0.0
 10
57.10303353583268
 20
16.45488921361647
 30
0.0
 10
57.09183200739267
 20
16.47456720130147
 30
0.0
  0
SPLINE
  5
128
330
1F
100
AcDbEntity
  8
IGES_LEVEL_0
 62
     7
100
AcDbSpline
210
0.0
220
0.0
230
1.0
 70
     8
 71
     3
 72
    10
 73
     6
 74
     0
 42
0.0000000001
 43
0.0000000001
 40
-3.364636872098152
 40
-3.364636872098152
 40
-3.364636872098152
 40
-3.364636872098152
 40
0.0
 40
0.5014207789055
 40
1.0
 40
1.0
 40
1.0
 40
1.0
 10
57.89120183742267
 20
16.09814113454247
 30
0.0
 10
58.0470789695819
 20
16.08455218799293
 30
0.0
 10
58.07385176525479
 20
16.19282393312262
 30
0.0
 10
58.0778101671727
 20
16.31662643428947
 30
0.0
 10
58.07708917451268
 20
16.34499719848047
 30
0.0
 10
58.07631259852268
 20
16.35911897353247
 30
0.0
  0
ARC
  5
129
330
1F
100
AcDbEntity
  8
IGES_LEVEL_0
 62
     7
100
AcDbCircle
 10
39.69782089079308
 20
18.38775268758954
 30
0.0
 40
1.600084076815801
100
AcDbArc
 50
181.036806172014
 51
264.5502066827655
  0
LINE
  5
12A
330
1F
100
AcDbEntity
  8
IGES_LEVEL_0
 62
     7
100
AcDbLine
 10
39.54585534077268
 20
16.79490130579447
 30
0.0
 11
39.69094684344714
 21
16.78105889070213
 31
0.0
  0
LINE
  5
12B
330
1F
100
AcDbEntity
  8
IGES_LEVEL_0
 62
     7
100
AcDbLine
 10
39.69094684344714
 20
16.78105889070213
 30
0.0
 11
42.94158386363267
 21
16.99235716784947
 31
0.0
  0
SPLINE
  5
12C
330
1F
100
AcDbEntity
  8
IGES_LEVEL_0
 62
     7
100
AcDbSpline
210
0.0
220
0.0
230
1.0
 70
     8
 71
     3
 72
     9
 73
     5
 74
     0
 42
0.0000000001
 43
0.0000000001
 40
-0.9048701588965777
 40
-0.9048701588965777
 40
-0.9048701588965777
 40
-0.9048701588965777
 40
0.0
 40
1.0
 40
1.0
 40
1.0
 40
1.0
 10
38.12597566700268
 20
18.72855772727547
 30
0.0
 10
38.12192691946919
 20
18.67075364021428
 30
0.0
 10
38.10255416033837
 20
18.55027767006202
 30
0.0
 10
38.09697877059266
 20
18.42815025566347
 30
0.0
 10
38.09791225470266
 20
18.36412401368847
 30
0.0
  0
LINE
  5
12D
330
1F
100
AcDbEntity
  8
IGES_LEVEL_0
 62
     7
100
AcDbLine
 10
39.79392105729266
 20
19.90677780315347
 30
0.0
 11
40.80313974712945
 21
24.87631765625607
 31
0.0
  0
SPLINE
  5
12E
330
1F
100
AcDbEntity
  8
IGES_LEVEL_0
 62
     7
100
AcDbSpline
210
0.0
220
0.0
230
1.0
 70
     8
 71
     3
 72
    36
 73
    32
 74
     0
 42
0.0000000001
 43
0.0000000001
 40
-0.3106129919507767
 40
-0.3106129919507767
 40
-0.3106129919507767
 40
-0.3106129919507767
 40
0.0
 40
0.05348603474989
 40
0.1049887774215
 40
0.1549716359448
 40
0.2034200717099
 40
0.2502547850204
 40
0.2957126072699
 40
0.3397984511486
 40
0.3824422748345
 40
0.4237229924865
 40
0.4637468129909
 40
0.5026624725923
 40
0.5403082967051001
 40
0.5767026575209
 40
0.6120750545836
 40
0.6466416805287
 40
0.6804127481151
 40
0.7134085240587
 40
0.7456800659269
 40
0.7772623747585
 40
0.8081117485701
 40
0.8381443983645001
 40
0.8673328613647
 40
0.895527985213
 40
0.9225415694653
 40
0.9482287558595
 40
0.9724461327785
 40
0.9947104443498001
 40
1.0
 40
1.0
 40
1.0
 40
1.0
 10
40.03964006974127
 20
18.6075600138787
 30
0.0
 10
39.95832591287108
 20
18.67323115993512
 30
0.0
 10
39.8748448469881
 20
18.77693360535955
 30
0.0
 10
39.80234435683268
 20
18.90856887777147
 30
0.0
 10
39.77767992659267
 20
18.95888262699947
 30
0.0
 10
39.75602904900268
 20
19.00858391610647
 30
0.0
 10
39.73733101207267
 20
19.05766983219047
 30
0.0
 10
39.72167386582268
 20
19.10609958702447
 30
0.0
 10
39.70939375948268
 20
19.15387333649447
 30
0.0
 10
39.70050705838267
 20
19.20085593130347
 30
0.0
 10
39.69505996382269
 20
19.24683885533047
 30
0.0
 10
39.69257467593268
 20
19.29159492653747
 30
0.0
 10
39.69239090610269
 20
19.33506386454927
 30
0.0
 10
39.69402072270266
 20
19.37718251345347
 30
0.0
 10
39.69700443292267
 20
19.41790783678417
 30
0.0
 10
39.70104002226267
 20
19.45725349564917
 30
0.0
 10
39.70593420823266
 20
19.49537830135597
 30
0.0
 10
39.71147998935267
 20
19.53245393865457
 30
0.0
 10
39.71747050925268
 20
19.56858872261877
 30
0.0
 10
39.72370902665267
 20
19.60383904556197
 30
0.0
 10
39.73020979643268
 20
19.63823734336397
 30
0.0
 10
39.73697622564268
 20
19.67179321440357
 30
0.0
 10
39.74394609345266
 20
19.70448022819527
 30
0.0
 10
39.75103403972267
 20
19.73625560816557
 30
0.0
 10
39.75816130396267
 20
19.76703845222917
 30
0.0
 10
39.76531191721267
 20
19.79669367846717
 30
0.0
 10
39.77240293574268
 20
19.82506324560207
 30
0.0
 10
39.77949013320267
 20
19.85194066103687
 30
0.0
 10
39.78561550244268
 20
19.87732238210757
 30
0.0
 10
39.79129501930267
 20
19.89512510133227
 30
0.0
 10
39.79353045720268
 20
19.90488417263727
 30
0.0
 10
39.79391048353267
 20
19.90676642067007
 30
0.0
  0
LINE
  5
12F
330
1F
100
AcDbEntity
  8
DEFAULT
 62
     7
100
AcDbLine
 10
49.64092305729267
 20
18.88273180315347
 30
0.0
 11
41.27458661024406
 21
18.29305041316669
 31
0.0
  0
LINE
  5
130
330
1F
100
AcDbEntity
  8
DEFAULT
 62
     7
100
AcDbLine
 10
41.27458661024406
 20
18.29305041316669
 30
0.0
 11
41.27197810126268
 21
18.29265258031547
 31
0.0
  0
SPLINE
  5
131
330
1F
100
AcDbEntity
  8
DEFAULT
 62
     7
100
AcDbSpline
210
0.0
220
0.0
230
1.0
 70
     8
 71
     3
 72
    11
 73
     7
 74
     0
 42
0.0000000001
 43
0.0000000001
 40
0.0610814440299414
 40
0.0610814440299414
 40
0.0610814440299414
 40
0.0610814440299414
 40
19.66231023086538
 40
20.66231023086538
 40
27.78028470288208
 40
28.14197153018025
 40
28.14197153018025
 40
28.14197153018025
 40
28.14197153018025
 10
41.27197810126268
 20
18.29265258031547
 30
0.0
 10
41.00446594828425
 20
18.25185336396765
 30
0.0
 10
40.65710124288025
 20
18.28050488204814
 30
0.0
 10
40.2487941429375
 20
18.45993922837337
 30
0.0
 10
40.13132767176394
 20
18.53104488412717
 30
0.0
 10
40.04383867422088
 20
18.60396665107747
 30
0.0
 10
40.03964006974127
 20
18.6075600138787
 30
0.0
  0
SPLINE
  5
132
330
1F
100
AcDbEntity
  8
IGES_LEVEL_0
 62
     7
100
AcDbSpline
210
0.0
220
0.0
230
1.0
 70
     8
 71
     3
 72
    21
 73
    17
 74
     0
 42
0.0000000001
 43
0.0000000001
 40
-0.0935912548950633
 40
-0.0935912548950633
 40
-0.0935912548950633
 40
-0.0935912548950633
 40
0.0
 40
0.1137171277302
 40
0.2274983206687
 40
0.2700793463409
 40
0.3127046835432
 40
0.398089953344
 40
0.4408657933962
 40
0.4836921376318
 40
0.6124000320784
 40
0.7414355337288
 40
0.7845114538709
 40
0.8276025038113
 40
0.9137980915983001
 40
1.0
 40
1.0
 40
1.0
 40
1.0
 10
39.74851437806504
 20
18.4148526959881
 30
0.0
 10
39.76698203214784
 20
18.37095155341986
 30
0.0
 10
39.84373648685688
 20
18.29419345352518
 30
0.0
 10
39.97369814656268
 20
18.18708778732847
 30
0.0
 10
40.09152042091267
 20
18.10854023262547
 30
0.0
 10
40.18185269628268
 20
18.05666128316447
 30
0.0
 10
40.26083748239267
 20
18.01498541915447
 30
0.0
 10
40.34207683418266
 20
17.97748305996047
 30
0.0
 10
40.42517787215269
 20
17.94421981417447
 30
0.0
 10
40.53069577562266
 20
17.90611085059547
 30
0.0
 10
40.68221738825268
 20
17.86272826507147
 30
0.0
 10
40.83742243161267
 20
17.83460929789947
 30
0.0
 10
40.94935454478268
 20
17.82187665280247
 30
0.0
 10
41.03929642378266
 20
17.81464798300347
 30
0.0
 10
41.15211879992268
 20
17.81120760240447
 30
0.0
 10
41.24237290300268
 20
17.81449570344347
 30
0.0
 10
41.28738040159267
 20
17.81766690808347
 30
0.0
  0
SPLINE
  5
133
330
1F
100
AcDbEntity
  8
IGES_LEVEL_0
 62
     7
100
AcDbSpline
210
0.0
220
0.0
230
1.0
 70
     8
 71
     3
 72
     9
 73
     5
 74
     0
 42
0.0000000001
 43
0.0000000001
 40
0.0
 40
0.0
 40
0.0
 40
0.0
 40
1.0
 40
1.607732275313915
 40
1.607732275313915
 40
1.607732275313915
 40
1.607732275313915
 10
39.61665323553267
 20
18.58968048671947
 30
0.0
 10
39.64274874924267
 20
18.55232139561547
 30
0.0
 10
39.68733239947713
 20
18.49410209289653
 30
0.0
 10
39.73560967596633
 20
18.43909839625935
 30
0.0
 10
39.74851437806504
 20
18.4148526959881
 30
0.0
  0
LINE
  5
134
330
1F
100
AcDbEntity
  8
IGES_LEVEL_0
 62
     7
100
AcDbLine
 10
38.05853969709267
 20
33.09072864336347
 30
0.0
 11
40.19459064430266
 21
26.81515015875347
 31
0.0
  0
SPLINE
  5
135
330
1F
100
AcDbEntity
  8
IGES_LEVEL_0
 62
     7
100
AcDbSpline
210
0.0
220
0.0
230
1.0
 70
     8
 71
     3
 72
    27
 73
    23
 74
     0
 42
0.0000000001
 43
0.0000000001
 40
0.0
 40
0.0
 40
0.0
 40
0.0
 40
0.04455490396058
 40
0.1065847915292
 40
0.1631449126079
 40
0.2145504558904
 40
0.2611086829991
 40
0.303588901265
 40
0.3426605700249
 40
0.3787710605565
 40
0.4124133660916
 40
0.4441209887723
 40
0.4745317687647
 40
0.5045019613179
 40
0.5354866427862
 40
0.5695872390393
 40
0.6100274625244
 40
0.6627740924575
 40
0.7387870398916
 40
0.8507509932589
 40
1.0
 40
1.187648067329817
 40
1.187648067329817
 40
1.187648067329817
 40
1.187648067329817
 10
35.83900934934268
 20
35.71305537363347
 30
0.0
 10
35.82294835112266
 20
35.71826850742347
 30
0.0
 10
35.78446208201268
 20
35.73053898534347
 30
0.0
 10
35.72531499812267
 20
35.74856191942347
 30
0.0
 10
35.66341006508267
 20
35.76641606493347
 30
0.0
 10
35.60691338591266
 20
35.78183997527347
 30
0.0
 10
35.55537995513268
 20
35.79516298571346
 30
0.0
 10
35.50821902127267
 20
35.80670721856347
 30
0.0
 10
35.46476427680268
 20
35.81672185639347
 30
0.0
 10
35.42444475043267
 20
35.82540738602347
 30
0.0
 10
35.38673329332268
 20
35.83292618721347
 30
0.0
 10
35.35102613305267
 20
35.83942533955347
 30
0.0
 10
35.31657756862268
 20
35.84503615834346
 30
0.0
 10
35.28228934354266
 20
35.84988342723347
 30
0.0
 10
35.24650212666268
 20
35.85405008361347
 30
0.0
 10
35.20664819899267
 20
35.85746775330347
 30
0.0
 10
35.15844604163267
 20
35.85972623962347
 30
0.0
 10
35.09428593030268
 20
35.85945092304347
 30
0.0
 10
35.00321331782267
 20
35.85270402429347
 30
0.0
 10
34.87689133798267
 20
35.83188977533347
 30
0.0
 10
34.71267750365766
 20
35.78619980296129
 30
0.0
 10
34.59371379788718
 20
35.73922404777503
 30
0.0
 10
34.60585681043438
 20
35.64435993799484
 30
0.0
  0
ARC
  5
136
330
1F
100
AcDbEntity
  8
IGES_LEVEL_0
 62
     7
100
AcDbCircle
 10
34.65578260744562
 20
35.65105470428204
 30
0.0
 40
0.0503726622569022
100
AcDbArc
 50
187.6374793677966
 51
265.0527364806319
  0
ARC
  5
137
330
1F
100
AcDbEntity
  8
IGES_LEVEL_0
 62
     7
100
AcDbCircle
 10
34.35750069982513
 20
32.20514966971159
 30
0.0
 40
3.408418109630247
100
AcDbArc
 50
75.05477731823046
 51
85.05273648062931
  0
SPLINE
  5
138
330
1F
100
AcDbEntity
  8
IGES_LEVEL_0
 62
     7
100
AcDbSpline
210
0.0
220
0.0
230
1.0
 70
     8
 71
     3
 72
    25
 73
    21
 74
     0
 42
0.0000000001
 43
0.0000000001
 40
-1.08257413917306
 40
-1.08257413917306
 40
-1.08257413917306
 40
-1.08257413917306
 40
-1.0
 40
-0.9878277391312
 40
-0.957215275567
 40
-0.9268063153083
 40
-0.8963936316834
 40
-0.8658482298368
 40
-0.8351007045844001
 40
-0.7729015627054001
 40
-0.7095914949867002
 40
-0.6450782138042002
 40
-0.5793117708446001
 40
-0.4439113900765999
 40
-0.3741080157951999
 40
-0.3028270692148
 40
-0.2299906393185
 40
-0.1554027439828
 40
-0.07882379962607
 40
-0.0629413483088789
 40
-0.0629413483088789
 40
-0.0629413483088789
 40
-0.0629413483088789
 10
34.6746774906691
 20
35.60127858707025
 30
0.0
 10
34.67319223166342
 20
35.57065763494639
 30
0.0
 10
34.67246006101098
 20
35.53296487180995
 30
0.0
 10
34.68012920538267
 20
35.48424805292348
 30
0.0
 10
34.68673462338268
 20
35.45618260430346
 30
0.0
 10
34.69786765619267
 20
35.42195789351347
 30
0.0
 10
34.71146243572267
 20
35.38866773477346
 30
0.0
 10
34.72716819733266
 20
35.35618165203347
 30
0.0
 10
34.75054648420267
 20
35.31359783869347
 30
0.0
 10
34.78342865153267
 20
35.26160960206347
 30
0.0
 10
34.82769478874268
 20
35.20134624488347
 30
0.0
 10
34.87623331713267
 20
35.14264755444347
 30
0.0
 10
34.94677278177268
 20
35.06553202784347
 30
0.0
 10
35.02375646959267
 20
34.99165184365347
 30
0.0
 10
35.10633159013267
 20
34.92089388491347
 30
0.0
 10
35.17213211274267
 20
34.86844901345346
 30
0.0
 10
35.24115095134268
 20
34.81710398206347
 30
0.0
 10
35.31362836492266
 20
34.76700123451347
 30
0.0
 10
35.36897835716718
 20
34.73159310343677
 30
0.0
 10
35.40002765958302
 20
34.71266495294779
 30
0.0
 10
35.40537308435813
 20
34.7094333774332
 30
0.0
  0
LINE
  5
139
330
1F
100
AcDbEntity
  8
IGES_LEVEL_0
 62
     7
100
AcDbLine
 10
35.40537308435813
 20
34.7094333774332
 30
0.0
 11
35.50365705729267
 21
34.69544880315347
 31
0.0
  0
ARC
  5
13A
330
1F
100
AcDbEntity
  8
IGES_LEVEL_0
 62
     7
100
AcDbCircle
 10
35.28872175859412
 20
33.184877608246
 30
0.0
 40
1.525785868826558
100
AcDbArc
 50
60.87841856839614
 51
81.90188928750862
  0
ARC
  5
13B
330
1F
100
AcDbEntity
  8
IGES_LEVEL_0
 62
     7
100
AcDbCircle
 10
32.9762448913109
 20
29.0338568708051
 30
0.0
 40
6.277472140497326
100
AcDbArc
 50
51.82672949210969
 51
60.87841856839444
  0
ARC
  5
13C
330
1F
100
AcDbEntity
  8
IGES_LEVEL_0
 62
     7
100
AcDbCircle
 10
35.76685452762169
 20
32.58349538903369
 30
0.0
 40
1.762227324060167
100
AcDbArc
 50
30.90213996115939
 51
51.82672949211072
  0
ARC
  5
13D
330
1F
100
AcDbEntity
  8
IGES_LEVEL_0
 62
     7
100
AcDbCircle
 10
34.36670345284293
 20
31.74545122993933
 30
0.0
 40
3.394018071918565
100
AcDbArc
 50
19.58917711315051
 51
30.90213996115575
  0
LINE
  5
13E
330
1F
100
AcDbEntity
  8
IGES_LEVEL_0
 62
     7
100
AcDbLine
 10
37.56427847773267
 20
32.88337593426347
 30
0.0
 11
37.63254601795921
 21
32.69154374992865
 31
0.0
  0
LINE
  5
13F
330
1F
100
AcDbEntity
  8
IGES_LEVEL_0
 62
     7
100
AcDbLine
 10
37.63254601795921
 20
32.69154374992865
 30
0.0
 11
39.74967516635267
 21
26.56992725764847
 31
0.0
  0
SPLINE
  5
140
330
1F
100
AcDbEntity
  8
IGES_LEVEL_0
 62
     7
100
AcDbSpline
210
0.0
220
0.0
230
1.0
 70
     8
 71
     3
 72
    17
 73
    13
 74
     0
 42
0.0000000001
 43
0.0000000001
 40
0.0
 40
0.0
 40
0.0
 40
0.0
 40
0.1400382285241
 40
0.301021047085
 40
0.4484442282151
 40
0.5817713510471
 40
0.7005939909833
 40
0.8041214130073
 40
0.8917865503181
 40
0.9585107337232
 40
1.0
 40
1.036295123862823
 40
1.036295123862823
 40
1.036295123862823
 40
1.036295123862823
 10
38.05631512600267
 20
34.07480751792347
 30
0.0
 10
37.98768543312266
 20
34.18052289081346
 30
0.0
 10
37.82191450465267
 20
34.39636260433347
 30
0.0
 10
37.53699026503269
 20
34.68294530624347
 30
0.0
 10
37.23033832841267
 20
34.93641834405347
 30
0.0
 10
36.93736046689267
 20
35.14503398418347
 30
0.0
 10
36.66660723520266
 20
35.31577246867347
 30
0.0
 10
36.42397587257268
 20
35.45341153619347
 30
0.0
 10
36.21749719400268
 20
35.55942423828347
 30
0.0
 10
36.05753395928267
 20
35.63328596470348
 30
0.0
 10
35.93677383036963
 20
35.68199414792069
 30
0.0
 10
35.86963531188653
 20
35.70184736059511
 30
0.0
 10
35.83900934934268
 20
35.71305537363347
 30
0.0
  0
SPLINE
  5
141
330
1F
100
AcDbEntity
  8
IGES_LEVEL_0
 62
     7
100
AcDbSpline
210
0.0
220
0.0
230
1.0
 70
     8
 71
     3
 72
    12
 73
     8
 74
     0
 42
0.0000000001
 43
0.0000000001
 40
-0.0805812899559775
 40
-0.0805812899559775
 40
-0.0805812899559775
 40
-0.0805812899559775
 40
0.0
 40
0.0541952109661
 40
0.2846452022021
 40
0.6049448282069
 40
1.0
 40
1.0
 40
1.0
 40
1.0
 10
35.23651625209267
 20
35.49827063149347
 30
0.0
 10
35.25943072845362
 20
35.49300921410124
 30
0.0
 10
35.29766450771298
 20
35.48252129051974
 30
0.0
 10
35.39991880584267
 20
35.44913772240346
 30
0.0
 10
35.56720466580268
 20
35.38870593477347
 30
0.0
 10
35.82382236959266
 20
35.28090461798347
 30
0.0
 10
36.01364681712268
 20
35.18999882622347
 30
0.0
 10
36.11703294082267
 20
35.13695448364346
 30
0.0
  0
LINE
  5
142
330
1F
100
AcDbEntity
  8
IGES_LEVEL_0
 62
     7
100
AcDbLine
 10
48.52055105729268
 20
16.45851980315347
 30
0.0
 11
48.52055105729268
 21
16.68107211495276
 31
0.0
  0
ARC
  5
143
330
1F
100
AcDbEntity
  8
IGES_LEVEL_0
 62
     7
100
AcDbCircle
 10
48.47055105729277
 20
16.68107211495277
 30
0.0
 40
0.0499999999999034
100
AcDbArc
 50
359.9999999999878
 51
5.071217538780761
  0
LINE
  5
144
330
1F
100
AcDbEntity
  8
IGES_LEVEL_0
 62
     7
100
AcDbLine
 10
48.52035533707603
 20
16.68549181123884
 30
0.0
 11
48.49979467746354
 21
16.91718394064845
 31
0.0
  0
ARC
  5
145
330
1F
100
AcDbEntity
  8
IGES_LEVEL_0
 62
     7
100
AcDbCircle
 10
48.44999051378338
 20
16.91276293622032
 30
0.0
 40
0.0500000000003338
100
AcDbArc
 50
5.072722451695115
 51
15.47257472420439
  0
LINE
  5
146
330
1F
100
AcDbEntity
  8
IGES_LEVEL_0
 62
     7
100
AcDbLine
 10
48.49817842675853
 20
16.92610179086127
 30
0.0
 11
48.49574268263267
 21
16.93490115400947
 31
0.0
  0
SPLINE
  5
147
330
1F
100
AcDbEntity
  8
IGES_LEVEL_0
 62
     7
100
AcDbSpline
210
0.0
220
0.0
230
1.0
 70
     8
 71
     3
 72
    12
 73
     8
 74
     0
 42
0.0000000001
 43
0.0000000001
 40
3.137712889703094
 40
3.137712889703094
 40
3.137712889703094
 40
3.137712889703094
 40
3.223264000520464
 40
3.478436034901194
 40
3.720058242708794
 40
3.953216328386394
 40
4.137712889703094
 40
4.137712889703094
 40
4.137712889703094
 40
4.137712889703094
 10
48.49574268263267
 20
16.93490115400947
 30
0.0
 10
48.49459918098268
 20
16.93903216521547
 30
0.0
 10
48.48900988327267
 20
16.95519728494047
 30
0.0
 10
48.47212633334267
 20
16.97975594395547
 30
0.0
 10
48.44072518113268
 20
16.99970063747547
 30
0.0
 10
48.40825834569267
 20
17.00698565910747
 30
0.0
 10
48.38737670448626
 20
17.00695584760702
 30
0.0
 10
48.37820568606267
 20
17.00631426602847
 30
0.0
  0
LINE
  5
148
330
1F
100
AcDbEntity
  8
IGES_LEVEL_0
 62
     7
100
AcDbLine
 10
48.37820568606267
 20
17.00631426602847
 30
0.0
 11
44.69280438791267
 21
16.74849278173146
 31
0.0
  0
ARC
  5
149
330
1F
100
AcDbEntity
  8
IGES_LEVEL_0
 62
     7
100
AcDbCircle
 10
44.69160327228518
 20
16.65576052705939
 30
0.0
 40
0.0927400330780464
100
AcDbArc
 50
89.25791723419818
 51
178.5926009693857
  0
LINE
  5
14A
330
1F
100
AcDbEntity
  8
IGES_LEVEL_0
 62
     7
100
AcDbLine
 10
44.59889121643268
 20
16.65803834068647
 30
0.0
 11
44.59591174235459
 21
16.53676715157128
 31
0.0
  0
LINE
  5
14B
330
1F
100
AcDbEntity
  8
IGES_LEVEL_0
 62
     7
100
AcDbLine
 10
44.59591174235459
 20
16.53676715157128
 30
0.0
 11
44.62430711179768
 21
16.18306829698947
 31
0.0
  0
ARC
  5
14C
330
1F
100
AcDbEntity
  8
IGES_LEVEL_0
 62
     7
100
AcDbCircle
 10
45.16974143297244
 20
16.25176998059797
 30
0.0
 40
0.549744049577632
100
AcDbArc
 50
187.1790411530057
 51
219.5252259844023
  0
LINE
  5
14D
330
1F
100
AcDbEntity
  8
IGES_LEVEL_0
 62
     7
100
AcDbLine
 10
44.74569940683267
 20
15.90190303429797
 30
0.0
 11
46.55601208112678
 21
13.70778706400583
 31
0.0
  0
SPLINE
  5
14E
330
1F
100
AcDbEntity
  8
IGES_LEVEL_0
 62
     7
100
AcDbSpline
210
0.0
220
0.0
230
1.0
 70
     8
 71
     3
 72
    19
 73
    15
 74
     0
 42
0.0000000001
 43
0.0000000001
 40
14.91727820627971
 40
14.91727820627971
 40
14.91727820627971
 40
14.91727820627971
 40
14.9299717058018
 40
14.9619809342923
 40
14.99719927386761
 40
15.03678631719433
 40
15.07641655419434
 40
15.11347533604615
 40
15.14717611947846
 40
15.17821737498577
 40
15.20966962606127
 40
15.23825303397208
 40
15.26495973952929
 40
15.27288407746583
 40
15.27288407746583
 40
15.27288407746583
 40
15.27288407746583
 10
46.55601208112678
 20
13.70778706400583
 30
0.0
 10
46.56678158549465
 20
13.69942313858223
 30
0.0
 10
46.60672863834036
 20
13.67234322232796
 30
0.0
 10
46.68467820039267
 20
13.63669006434747
 30
0.0
 10
46.79496220348267
 20
13.60533662487447
 30
0.0
 10
46.91660855996267
 20
13.58976509452247
 30
0.0
 10
47.04093328002267
 20
13.58509194642647
 30
0.0
 10
47.15896013156267
 20
13.59083811030647
 30
0.0
 10
47.26679350907267
 20
13.60725742025747
 30
0.0
 10
47.36563685396267
 20
13.63722691025247
 30
0.0
 10
47.45339867281267
 20
13.67972362808647
 30
0.0
 10
47.52847366142267
 20
13.73769763631047
 30
0.0
 10
47.5600377656359
 20
13.79896020037888
 30
0.0
 10
47.57387299362425
 20
13.83336400733306
 30
0.0
 10
47.57691724130514
 20
13.84126949931668
 30
0.0
  0
LINE
  5
14F
330
1F
100
AcDbEntity
  8
IGES_LEVEL_0
 62
     7
100
AcDbLine
 10
47.57691724130514
 20
13.84126949931668
 30
0.0
 11
48.45614761439268
 21
16.12450969354347
 31
0.0
  0
ARC
  5
150
330
1F
100
AcDbEntity
  8
IGES_LEVEL_0
 62
     7
100
AcDbCircle
 10
47.59470550560877
 20
16.46382611778758
 30
0.0
 40
0.9258607576454934
100
AcDbArc
 50
338.5008433152417
 51
359.6716233027241
  0
LINE
  5
151
330
1F
100
AcDbEntity
  8
IGES_LEVEL_0
 62
     7
100
AcDbLine
 10
43.94461209718267
 20
17.35759344384147
 30
0.0
 11
43.96562407000211
 21
17.36484021915687
 31
0.0
  0
ARC
  5
152
330
1F
100
AcDbEntity
  8
IGES_LEVEL_0
 62
     7
100
AcDbCircle
 10
43.96250639385087
 20
17.3454819602782
 30
0.0
 40
0.0196077048987789
100
AcDbArc
 50
23.80305909815074
 51
80.85099141593639
  0
LINE
  5
153
330
1F
100
AcDbEntity
  8
IGES_LEVEL_0
 62
     7
100
AcDbLine
 10
43.98044623052267
 20
17.35339551520547
 30
0.0
 11
43.98226899666479
 21
17.35010189599802
 31
0.0
  0
ARC
  5
154
330
1F
100
AcDbEntity
  8
IGES_LEVEL_0
 62
     7
100
AcDbCircle
 10
45.26397181572668
 20
17.07076690511438
 30
0.0
 40
1.311788913477753
100
AcDbArc
 50
167.7051814729088
 51
171.6692820454731
  0
ARC
  5
155
330
1F
100
AcDbEntity
  8
IGES_LEVEL_0
 62
     7
100
AcDbCircle
 10
44.00585272564191
 20
17.26354024245142
 30
0.0
 40
0.0399204249631559
100
AcDbArc
 50
183.8962294062791
 51
274.0816380522143
  0
LINE
  5
156
330
1F
100
AcDbEntity
  8
IGES_LEVEL_0
 62
     7
100
AcDbLine
 10
44.00869417304267
 20
17.22372106985947
 30
0.0
 11
49.05795205729267
 21
17.58057280315347
 31
0.0
  0
SPLINE
  5
157
330
1F
100
AcDbEntity
  8
IGES_LEVEL_0
 62
     7
100
AcDbSpline
210
0.0
220
0.0
230
1.0
 70
     8
 71
     3
 72
     9
 73
     5
 74
     0
 42
0.0000000001
 43
0.0000000001
 40
-1.97996406340513
 40
-1.97996406340513
 40
-1.97996406340513
 40
-1.97996406340513
 40
0.0
 40
1.0
 40
1.0
 40
1.0
 40
1.0
 10
43.80087805941267
 20
17.12999110990647
 30
0.0
 10
43.83024155468901
 20
17.17221862434158
 30
0.0
 10
43.87796744593253
 20
17.24181334561981
 30
0.0
 10
43.90550382880267
 20
17.32020282245247
 30
0.0
 10
43.91243435128267
 20
17.34711695883347
 30
0.0
  0
LINE
  5
158
330
1F
100
AcDbEntity
  8
IGES_LEVEL_0
 62
     7
100
AcDbLine
 10
43.80087805941267
 20
17.12999110990647
 30
0.0
 11
43.82429272347062
 21
17.09446530501916
 31
0.0
  0
LINE
  5
159
330
1F
100
AcDbEntity
  8
IGES_LEVEL_0
 62
     7
100
AcDbLine
 10
43.82429272347062
 20
17.09446530501916
 30
0.0
 11
43.82554832677268
 21
17.08548622762147
 31
0.0
  0
ARC
  5
15A
330
1F
100
AcDbEntity
  8
IGES_LEVEL_0
 62
     7
100
AcDbCircle
 10
43.78611745645543
 20
17.0799857793613
 30
0.0
 40
0.0398126671429807
100
AcDbArc
 50
333.0101151086952
 51
7.941285867469829
  0
SPLINE
  5
15B
330
1F
100
AcDbEntity
  8
IGES_LEVEL_0
 62
     7
100
AcDbSpline
210
0.0
220
0.0
230
1.0
 70
     8
 71
     3
 72
    10
 73
     6
 74
     0
 42
0.0000000001
 43
0.0000000001
 40
0.0
 40
0.0
 40
0.0
 40
0.0
 40
0.7505363978315
 40
1.0
 40
4.24036104247441
 40
4.24036104247441
 40
4.24036104247441
 40
4.24036104247441
 10
42.94158386363267
 20
16.99235716784947
 30
0.0
 10
42.95240070566267
 20
16.95697535110847
 30
0.0
 10
42.97206355672266
 20
16.91126428480747
 30
0.0
 10
43.08186551831533
 20
16.73270052607328
 30
0.0
 10
43.24442585130839
 20
16.63428790271504
 30
0.0
 10
43.38229427201267
 20
16.63262357664947
 30
0.0
  0
SPLINE
  5
15C
330
1F
100
AcDbEntity
  8
DEFAULT
 62
     7
100
AcDbSpline
210
0.0
220
0.0
230
1.0
 70
     8
 71
     3
 72
     8
 73
     4
 74
     0
 42
0.0000000001
 43
0.0000000001
 40
0.0
 40
0.0
 40
0.0
 40
0.0
 40
1.0
 40
1.0
 40
1.0
 40
1.0
 10
43.07591791673268
 20
18.06215528195447
 30
0.0
 10
43.23739939406728
 20
18.19436454066181
 30
0.0
 10
43.52210189432968
 20
18.21435693828991
 30
0.0
 10
43.70047860549268
 20
18.10601809703347
 30
0.0
  0
ARC
  5
15D
330
1F
100
AcDbEntity
  8
IGES_LEVEL_0
 62
     7
100
AcDbCircle
 10
42.94869405176652
 20
17.07809558978334
 30
0.0
 40
0.0686957244435696
100
AcDbArc
 50
34.74705706610476
 51
94.01710891891595
  0
LINE
  5
15E
330
1F
100
AcDbEntity
  8
IGES_LEVEL_0
 62
     7
100
AcDbLine
 10
42.94388161742879
 20
17.14662254092355
 30
0.0
 11
42.86005705729268
 21
17.14073580315347
 31
0.0
  0
ARC
  5
15F
330
1F
100
AcDbEntity
  8
IGES_LEVEL_0
 62
     7
100
AcDbCircle
 10
40.84990193928192
 20
19.63183904643076
 30
0.0
 40
2.598260746189796
100
AcDbArc
 50
249.5139366732642
 51
267.8124100394383
  0
LINE
  5
160
330
1F
100
AcDbEntity
  8
IGES_LEVEL_0
 62
     7
100
AcDbLine
 10
40.75072276233267
 20
17.03547189287747
 30
0.0
 11
41.18961934096772
 21
17.01870638982629
 31
0.0
  0
ARC
  5
161
330
1F
100
AcDbEntity
  8
IGES_LEVEL_0
 62
     7
100
AcDbCircle
 10
41.19152792222405
 20
17.0686691634757
 30
0.0
 40
0.0499992143253715
100
AcDbArc
 50
267.812361121552
 51
274.0324644061053
  0
LINE
  5
162
330
1F
100
AcDbEntity
  8
IGES_LEVEL_0
 62
     7
100
AcDbLine
 10
41.19504395162694
 20
17.01879372893733
 30
0.0
 11
42.83263340181267
 21
17.13423758842547
 31
0.0
  0
ARC
  5
163
330
1F
100
AcDbEntity
  8
IGES_LEVEL_0
 62
     7
100
AcDbCircle
 10
42.8269579307679
 20
17.21930464499806
 30
0.0
 40
0.0852561732984995
100
AcDbArc
 50
273.8169809755547
 51
292.844498813098
  0
SPLINE
  5
164
330
1F
100
AcDbEntity
  8
IGES_LEVEL_0
 62
     7
100
AcDbSpline
210
0.0
220
0.0
230
1.0
 70
     8
 71
     3
 72
    16
 73
    12
 74
     0
 42
0.0000000001
 43
0.0000000001
 40
-1.730512944999143
 40
-1.730512944999143
 40
-1.730512944999143
 40
-1.730512944999143
 40
0.0
 40
0.1233799418267
 40
0.2483995558965
 40
0.3741997667816
 40
0.5001961491768
 40
0.6261537432931
 40
0.7518456754779
 40
0.8767299816529
 40
1.0
 40
1.0
 40
1.0
 40
1.0
 10
43.54714358855267
 20
17.17255882111647
 30
0.0
 10
43.17745927026034
 20
17.03848006058893
 30
0.0
 10
42.88218968743516
 20
17.33112075758166
 30
0.0
 10
42.87833044919267
 20
17.67111383521047
 30
0.0
 10
42.88524652733265
 20
17.73499578536547
 30
0.0
 10
42.89978582795268
 20
17.79805519629047
 30
0.0
 10
42.92177545204268
 20
17.85909169119547
 30
0.0
 10
42.95096282061266
 20
17.91701119921447
 30
0.0
 10
42.98671935210268
 20
17.97089104074047
 30
0.0
 10
43.02829688242267
 20
18.01980128182447
 30
0.0
 10
43.05957641949267
 20
18.04877605560647
 30
0.0
 10
43.07591791673268
 20
18.06215528195447
 30
0.0
  0
LINE
  5
165
330
1F
100
AcDbEntity
  8
DEFAULT
 62
     7
100
AcDbLine
 10
14.19828356932886
 20
12.03610580315347
 30
0.0
 11
14.24232167548156
 21
12.38840669638275
 31
0.0
  0
LINE
  5
166
330
1F
100
AcDbEntity
  8
DEFAULT
 62
     7
100
AcDbLine
 10
12.56543556932886
 20
12.03610580315347
 30
0.0
 11
12.52139746763908
 21
12.38840666067985
 31
0.0
  0
ARC
  5
167
330
1F
100
AcDbEntity
  8
DEFAULT
 62
     7
100
AcDbCircle
 10
10.11698414041049
 20
26.50846782700012
 30
0.0
 40
12.99820879233992
100
AcDbArc
 50
291.0847756926132
 51
294.5669657794301
  0
LINE
  5
168
330
1F
100
AcDbEntity
  8
DEFAULT
 62
     7
100
AcDbLine
 10
15.52107390355269
 20
14.68690931548547
 30
0.0
 11
18.916975531996
 21
16.23930676029217
 31
0.0
  0
ARC
  5
169
330
1F
100
AcDbEntity
  8
DEFAULT
 62
     7
100
AcDbCircle
 10
16.64577097623479
 20
26.50846782699716
 30
0.0
 40
12.9982087923367
100
AcDbArc
 50
245.4330342205696
 51
248.9152243073873
  0
LINE
  5
16A
330
1F
100
AcDbEntity
  8
DEFAULT
 62
     7
100
AcDbLine
 10
11.24168121309386
 20
14.68690931548547
 30
0.0
 11
7.845779584650551
 21
16.23930676029217
 31
0.0
  0
LINE
  5
16B
330
1F
100
AcDbEntity
  8
DEFAULT
 62
     7
100
AcDbLine
 10
6.769653985277397
 20
16.37937815933914
 30
0.0
 11
9.17908460326386
 21
15.43642606686447
 31
0.0
  0
LINE
  5
16C
330
1F
100
AcDbEntity
  8
DEFAULT
 62
     7
100
AcDbLine
 10
9.17908460326386
 20
15.43642606686447
 30
0.0
 11
9.576604796395859
 21
15.28085850851847
 31
0.0
  0
SPLINE
  5
16D
330
1F
100
AcDbEntity
  8
DEFAULT
 62
     7
100
AcDbSpline
210
0.0
220
0.0
230
1.0
 70
     8
 71
     3
 72
    13
 73
     9
 74
     0
 42
0.0000000001
 43
0.0000000001
 40
1.0
 40
1.0
 40
1.0
 40
1.0
 40
1.1847462084461
 40
1.3637930921773
 40
1.5350150699416
 40
1.6983211866636
 40
1.8538940033147
 40
2.0
 40
2.0
 40
2.0
 40
2.0
 10
9.576604796395859
 20
15.28085850851847
 30
0.0
 10
9.70122444443086
 20
15.23208934969847
 30
0.0
 10
9.94662026736586
 20
15.13605824235047
 30
0.0
 10
10.30750816319886
 20
14.99481449955747
 30
0.0
 10
10.65395253959586
 20
14.85928263487547
 30
0.0
 10
10.98449615596986
 20
14.72976334947147
 30
0.0
 10
11.29833324315986
 20
14.60752499927247
 30
0.0
 10
11.50253885348769
 20
14.52960526781307
 30
0.0
 10
11.60102872783186
 20
14.49095217027147
 30
0.0
  0
SPLINE
  5
16E
330
1F
100
AcDbEntity
  8
DEFAULT
 62
     7
100
AcDbSpline
210
0.0
220
0.0
230
1.0
 70
     8
 71
     3
 72
     9
 73
     5
 74
     0
 42
0.0000000001
 43
0.0000000001
 40
2.0
 40
2.0
 40
2.0
 40
2.0
 40
2.503543752948401
 40
3.503543752948401
 40
3.503543752948401
 40
3.503543752948401
 40
3.503543752948401
 10
11.60102872783186
 20
14.49095217027147
 30
0.0
 10
11.67405184707213
 20
14.46229369375719
 30
0.0
 10
11.9011882755236
 20
14.39486347025541
 30
0.0
 10
12.13183925261569
 20
14.34058240725453
 30
0.0
 10
12.28471182863886
 20
14.30255262723147
 30
0.0
  0
ARC
  5
16F
330
1F
100
AcDbEntity
  8
DEFAULT
 62
     7
100
AcDbCircle
 10
13.36369663805219
 20
18.48939713297151
 30
0.0
 40
4.323641420630337
100
AcDbArc
 50
255.548839924084
 51
270.2406903984149
  0
ARC
  5
170
330
1F
100
AcDbEntity
  8
DEFAULT
 62
     7
100
AcDbCircle
 10
13.34808203459415
 20
18.90608875741939
 30
0.0
 40
4.74041523633311
100
AcDbArc
 50
270.4082602625818
 51
283.8022094149194
  0
SPLINE
  5
171
330
1F
100
AcDbEntity
  8
DEFAULT
 62
     7
100
AcDbSpline
210
0.0
220
0.0
230
1.0
 70
     8
 71
     3
 72
     9
 73
     5
 74
     0
 42
0.0000000001
 43
0.0000000001
 40
5.503543752948401
 40
5.503543752948401
 40
5.503543752948401
 40
5.503543752948401
 40
6.503543752948401
 40
7.007087505896802
 40
7.007087505896802
 40
7.007087505896802
 40
7.007087505896802
 10
14.47900719167286
 20
14.30255262723147
 30
0.0
 10
14.63199099165173
 20
14.34013530783368
 30
0.0
 10
14.86253074478812
 20
14.39486347025541
 30
0.0
 10
15.08903093170514
 20
14.46403476597218
 30
0.0
 10
15.16269029247986
 20
14.49095217027147
 30
0.0
  0
SPLINE
  5
172
330
1F
100
AcDbEntity
  8
DEFAULT
 62
     7
100
AcDbSpline
210
0.0
220
0.0
230
1.0
 70
     8
 71
     3
 72
    13
 73
     9
 74
     0
 42
0.0000000001
 43
0.0000000001
 40
7.007087505896802
 40
7.007087505896802
 40
7.007087505896802
 40
7.007087505896802
 40
7.153193502582102
 40
7.308766319233202
 40
7.472072435955202
 40
7.643294413719502
 40
7.822341297450702
 40
8.007087505896802
 40
8.007087505896802
 40
8.007087505896802
 40
8.007087505896802
 10
15.16269029247986
 20
14.49095217027147
 30
0.0
 10
15.26209380269386
 20
14.52727728150047
 30
0.0
 10
15.46538577715186
 20
14.60752499927247
 30
0.0
 10
15.77922286434186
 20
14.72976334947147
 30
0.0
 10
16.10976648071586
 20
14.85928263487547
 30
0.0
 10
16.45621085711286
 20
14.99481449955747
 30
0.0
 10
16.81709875294586
 20
15.13605824235047
 30
0.0
 10
17.06249461765648
 20
15.23208924294967
 30
0.0
 10
17.18711422391586
 20
15.28085850851847
 30
0.0
  0
LINE
  5
173
330
1F
100
AcDbEntity
  8
DEFAULT
 62
     7
100
AcDbLine
 10
17.18711422391586
 20
15.28085850851847
 30
0.0
 11
17.58463441704786
 21
15.43642606686447
 31
0.0
  0
LINE
  5
174
330
1F
100
AcDbEntity
  8
DEFAULT
 62
     7
100
AcDbLine
 10
17.58463441704786
 20
15.43642606686447
 30
0.0
 11
19.99406503503433
 21
16.37937815933914
 31
0.0
  0
LINE
  5
175
330
1F
100
AcDbEntity
  8
DEFAULT
 62
     7
100
AcDbLine
 10
6.599644115579483
 20
16.41364461389111
 30
0.0
 11
6.779585146294861
 21
16.33554451145147
 31
0.0
  0
LINE
  5
176
330
1F
100
AcDbEntity
  8
DEFAULT
 62
     7
100
AcDbLine
 10
6.779585146294861
 20
16.33554451145147
 30
0.0
 11
6.83700000711086
 21
16.31075340104197
 31
0.0
  0
LINE
  5
177
330
1F
100
AcDbEntity
  8
DEFAULT
 62
     7
100
AcDbLine
 10
6.83700000711086
 20
16.31075340104197
 30
0.0
 11
9.27699821653486
 21
15.26258800202297
 31
0.0
  0
SPLINE
  5
178
330
1F
100
AcDbEntity
  8
DEFAULT
 62
     7
100
AcDbSpline
210
0.0
220
0.0
230
1.0
 70
     8
 71
     3
 72
    32
 73
    28
 74
     0
 42
0.0000000001
 43
0.0000000001
 40
2.0
 40
2.0
 40
2.0
 40
2.0
 40
2.028323029740755
 40
2.085977159721145
 40
2.138930590436282
 40
2.187181618487166
 40
2.230574608690013
 40
2.26884628109161
 40
2.3022239678707
 40
2.33216343887258
 40
2.360294808189067
 40
2.38811237984251
 40
2.416058034754558
 40
2.444012722701088
 40
2.471891364432637
 40
2.499924619809134
 40
2.529524791421896
 40
2.562408266956221
 40
2.600213244158041
 40
2.643317829467583
 40
2.691060435408643
 40
2.742382097706495
 40
2.795206238379659
 40
2.847797269763947
 40
2.899644715277261
 40
2.950479712972943
 40
3.0
 40
3.0
 40
3.0
 40
3.0
 10
9.27699821653486
 20
15.26258800202297
 30
0.0
 10
9.314599737051145
 20
15.24642942030086
 30
0.0
 10
9.428742413220887
 20
15.19737810668482
 30
0.0
 10
9.613184750910859
 20
15.11811383899147
 30
0.0
 10
9.824081878875859
 20
15.02747689066547
 30
0.0
 10
10.01604513821886
 20
14.94497410010347
 30
0.0
 10
10.18851638988886
 20
14.87084606710447
 30
0.0
 10
10.34124098905386
 20
14.80520139552247
 30
0.0
 10
10.47610563229886
 20
14.74723412143347
 30
0.0
 10
10.59750956818186
 20
14.69505552654047
 30
0.0
 10
10.71152795985486
 20
14.64603976581647
 30
0.0
 10
10.82289434688286
 20
14.59815000150747
 30
0.0
 10
10.93406055493686
 20
14.55044030970547
 30
0.0
 10
11.04521093738886
 20
14.50247302120847
 30
0.0
 10
11.15670704963986
 20
14.45497959540847
 30
0.0
 10
11.27130150416686
 20
14.40874124096647
 30
0.0
 10
11.39338686637286
 20
14.36179215886547
 30
0.0
 10
11.52962178493386
 20
14.31235662803747
 30
0.0
 10
11.68550278596086
 20
14.25997155364547
 30
0.0
 10
11.86331212831086
 20
14.20562893942147
 30
0.0
 10
12.06161786779986
 20
14.15183908458547
 30
0.0
 10
12.27539984328086
 20
14.10193924595247
 30
0.0
 10
12.49784056124586
 20
14.05901967940147
 30
0.0
 10
12.72259822157686
 20
14.02506920301547
 30
0.0
 10
12.94573008463286
 20
14.00089709321247
 30
0.0
 10
13.16526616257286
 20
13.98665760732847
 30
0.0
 10
13.31030390248852
 20
13.98391126169411
 30
0.0
 10
13.38185951015586
 20
13.98377704780147
 30
0.0
  0
SPLINE
  5
179
330
1F
100
AcDbEntity
  8
DEFAULT
 62
     7
100
AcDbSpline
210
0.0
220
0.0
230
1.0
 70
     8
 71
     3
 72
    32
 73
    28
 74
     0
 42
0.0000000001
 43
0.0000000001
 40
3.0
 40
3.0
 40
3.0
 40
3.0
 40
3.049520287027057
 40
3.100355284722739
 40
3.152202730236053
 40
3.204793761620341
 40
3.257617902293505
 40
3.308939564591357
 40
3.356682170532417
 40
3.399786755841959
 40
3.437591733043779
 40
3.470475208578105
 40
3.500075380190866
 40
3.528108635567363
 40
3.555987277298912
 40
3.583941965245442
 40
3.611887620157491
 40
3.639705191810934
 40
3.66783656112742
 40
3.6977760321293
 40
3.731153718908391
 40
3.769425391309988
 40
3.812818381512834
 40
3.861069409563718
 40
3.914022840278856
 40
3.971676970259245
 40
4.0
 40
4.0
 40
4.0
 40
4.0
 10
13.38185951015586
 20
13.98377704780147
 30
0.0
 10
13.45341562130386
 20
13.98364283296447
 30
0.0
 10
13.59845285773886
 20
13.98665760732847
 30
0.0
 10
13.81798893567886
 20
14.00089709321247
 30
0.0
 10
14.04112079873486
 20
14.02506920301547
 30
0.0
 10
14.26587845906586
 20
14.05901967940147
 30
0.0
 10
14.48831917703086
 20
14.10193924595247
 30
0.0
 10
14.70210115251186
 20
14.15183908458547
 30
0.0
 10
14.90040689200086
 20
14.20562893942147
 30
0.0
 10
15.07821623435086
 20
14.25997155364547
 30
0.0
 10
15.23409723537786
 20
14.31235662803747
 30
0.0
 10
15.37033215393886
 20
14.36179215886547
 30
0.0
 10
15.49241751614486
 20
14.40874124096647
 30
0.0
 10
15.60701197067186
 20
14.45497959540847
 30
0.0
 10
15.71850808292286
 20
14.50247302120847
 30
0.0
 10
15.82965846537486
 20
14.55044030970547
 30
0.0
 10
15.94082467342886
 20
14.59815000150747
 30
0.0
 10
16.05219106045686
 20
14.64603976581647
 30
0.0
 10
16.16620945212986
 20
14.69505552654047
 30
0.0
 10
16.28761338801286
 20
14.74723412143347
 30
0.0
 10
16.42247803125786
 20
14.80520139552247
 30
0.0
 10
16.57520263042286
 20
14.87084606710447
 30
0.0
 10
16.74767388209286
 20
14.94497410010347
 30
0.0
 10
16.93963714143586
 20
15.02747689066547
 30
0.0
 10
17.15053426940086
 20
15.11811383899147
 30
0.0
 10
17.33497660709083
 20
15.19737810668482
 30
0.0
 10
17.44911715821039
 20
15.24643436715245
 30
0.0
 10
17.48672080377686
 20
15.26258800202297
 30
0.0
  0
LINE
  5
17A
330
1F
100
AcDbEntity
  8
DEFAULT
 62
     7
100
AcDbLine
 10
17.48672080377686
 20
15.26258800202297
 30
0.0
 11
19.92671901320086
 21
16.31075340104197
 31
0.0
  0
LINE
  5
17B
330
1F
100
AcDbEntity
  8
DEFAULT
 62
     7
100
AcDbLine
 10
19.92671901320086
 20
16.31075340104197
 30
0.0
 11
19.98413387401686
 21
16.33554451145147
 31
0.0
  0
LINE
  5
17C
330
1F
100
AcDbEntity
  8
DEFAULT
 62
     7
100
AcDbLine
 10
19.98413387401686
 20
16.33554451145147
 30
0.0
 11
20.16407490473224
 21
16.41364461389111
 31
0.0
  0
ARC
  5
17D
330
1F
100
AcDbEntity
  8
DEFAULT
 62
     7
100
AcDbCircle
 10
-13.57011013249307
 20
19.30809739755773
 30
0.0
 40
17.42426664468999
100
AcDbArc
 50
359.2354853770413
 51
1.806039812720787
  0
LINE
  5
17E
330
1F
100
AcDbEntity
  8
DEFAULT
 62
     7
100
AcDbLine
 10
3.84550089725709
 20
19.85724270228197
 30
0.0
 11
3.764749744873711
 21
22.41818722464127
 31
0.0
  0
ARC
  5
17F
330
1F
100
AcDbEntity
  8
DEFAULT
 62
     7
100
AcDbCircle
 10
64.32905896404864
 20
24.37161092390511
 30
0.0
 40
60.59580361167499
100
AcDbArc
 50
179.7344613454301
 51
181.8473610614396
  0
ARC
  5
180
330
1F
100
AcDbEntity
  8
DEFAULT
 62
     7
100
AcDbCircle
 10
30.37940741143834
 20
24.53016701354204
 30
0.0
 40
26.64578185582095
100
AcDbArc
 50
178.8594239389519
 51
179.7370728156059
  0
ARC
  5
181
330
1F
100
AcDbEntity
  8
DEFAULT
 62
     7
100
AcDbCircle
 10
32.86369256840135
 20
24.53935582377653
 30
0.0
 40
29.12945090319534
100
AcDbArc
 50
178.0455770807108
 51
178.9747610611521
  0
ARC
  5
182
330
1F
100
AcDbEntity
  8
DEFAULT
 62
     7
100
AcDbCircle
 10
193.7580841100797
 20
18.58765567558203
 30
0.0
 40
190.1337843938173
100
AcDbArc
 50
177.5337895939369
 51
177.9066525659949
  0
LINE
  5
183
330
1F
100
AcDbEntity
  8
DEFAULT
 62
     7
100
AcDbLine
 10
3.80040696396136
 20
26.76915072023435
 30
0.0
 11
4.069322268992007
 21
33.01281724007169
 31
0.0
  0
SPLINE
  5
184
330
1F
100
AcDbEntity
  8
DEFAULT
 62
     7
100
AcDbSpline
210
0.0
220
0.0
230
1.0
 70
     8
 71
     3
 72
     8
 73
     4
 74
     0
 42
0.0000000001
 43
0.0000000001
 40
-9.0
 40
-9.0
 40
-9.0
 40
-9.0
 40
-8.0
 40
-8.0
 40
-8.0
 40
-8.0
 10
4.069322268992007
 20
33.01281724007169
 30
0.0
 10
4.082143421148708
 20
33.31049883111016
 30
0.0
 10
4.086025149049586
 20
33.60875100294931
 30
0.0
 10
4.109377754944768
 20
33.90579202264814
 30
0.0
  0
SPLINE
  5
185
330
1F
100
AcDbEntity
  8
DEFAULT
 62
     7
100
AcDbSpline
210
0.0
220
0.0
230
1.0
 70
     8
 71
     3
 72
    12
 73
     8
 74
     0
 42
0.0000000001
 43
0.0000000001
 40
-8.0
 40
-8.0
 40
-8.0
 40
-8.0
 40
-7.8648094453357
 40
-7.660474449257301
 40
-7.4377620972458
 40
-7.1938416961038
 40
-7.0
 40
-7.0
 40
-7.0
 40
-7.0
 10
4.109377754944768
 20
33.90579202264814
 30
0.0
 10
4.115601559104588
 20
33.98495771157968
 30
0.0
 10
4.144339312981562
 20
34.18294331992976
 30
0.0
 10
4.25153439190281
 20
34.49777409386763
 30
0.0
 10
4.467733489042847
 20
34.83164421407366
 30
0.0
 10
4.755452279106788
 20
35.09664548818724
 30
0.0
 10
4.975004259823447
 20
35.23201106344467
 30
0.0
 10
5.07664644688453
 20
35.28339701144571
 30
0.0
  0
LINE
  5
186
330
1F
100
AcDbEntity
  8
DEFAULT
 62
     7
100
AcDbLine
 10
5.07664644688453
 20
35.28339701144571
 30
0.0
 11
5.077760625749266
 21
35.28396029268613
 31
0.0
  0
ARC
  5
187
330
1F
100
AcDbEntity
  8
DEFAULT
 62
     7
100
AcDbCircle
 10
6.648632981973826
 20
32.25121523185037
 30
0.0
 40
3.415432997962957
100
AcDbArc
 50
94.45936255862821
 51
117.3828221958349
  0
SPLINE
  5
188
330
1F
100
AcDbEntity
  8
DEFAULT
 62
     7
100
AcDbSpline
210
0.0
220
0.0
230
1.0
 70
     8
 71
     3
 72
    10
 73
     6
 74
     0
 42
0.0000000001
 43
0.0000000001
 40
-5.0
 40
-5.0
 40
-5.0
 40
-5.0
 40
-4.701046295273223
 40
-4.36085473514363
 40
-4.00001512847126
 40
-4.00001512847126
 40
-4.00001512847126
 40
-4.00001512847126
 10
6.38307621739924
 20
35.65630879420117
 30
0.0
 10
7.078818673710107
 20
35.71056842386831
 30
0.0
 10
8.569332932188255
 20
35.78691595984544
 30
0.0
 10
10.90305597709519
 20
35.84197835681094
 30
0.0
 10
12.53954052334662
 20
35.85372260980024
 30
0.0
 10
13.38185956932886
 20
35.85313213863947
 30
0.0
  0
SPLINE
  5
189
330
1F
100
AcDbEntity
  8
DEFAULT
 62
     7
100
AcDbSpline
210
0.0
220
0.0
230
1.0
 70
     8
 71
     3
 72
    10
 73
     6
 74
     0
 42
0.0000000001
 43
0.0000000001
 40
-4.00001512847126
 40
-4.00001512847126
 40
-4.00001512847126
 40
-4.00001512847126
 40
-3.639175521798889
 40
-3.298983961669297
 40
-3.00003025694252
 40
-3.00003025694252
 40
-3.00003025694252
 40
-3.00003025694252
 10
13.38185956932886
 20
35.85313213863947
 30
0.0
 10
14.2241794431598
 20
35.85254166689838
 30
0.0
 10
15.86066316156254
 20
35.84197835681094
 30
0.0
 10
18.19438620646947
 20
35.78691595984544
 30
0.0
 10
19.68484026604205
 20
35.70978515139931
 30
0.0
 10
20.38064292125849
 20
35.65630879420117
 30
0.0
  0
ARC
  5
18A
330
1F
100
AcDbEntity
  8
DEFAULT
 62
     7
100
AcDbCircle
 10
20.06634060422656
 20
32.0803314243763
 30
0.0
 40
3.589763236759672
100
AcDbArc
 50
63.18078834869804
 51
84.97702689683889
  0
LINE
  5
18B
330
1F
100
AcDbEntity
  8
DEFAULT
 62
     7
100
AcDbLine
 10
21.68595851290846
 20
35.28396029268613
 30
0.0
 11
21.68707269177319
 21
35.28339701144571
 31
0.0
  0
SPLINE
  5
18C
330
1F
100
AcDbEntity
  8
DEFAULT
 62
     7
100
AcDbSpline
210
0.0
220
0.0
230
1.0
 70
     8
 71
     3
 72
    12
 73
     8
 74
     0
 42
0.0000000001
 43
0.0000000001
 40
-1.00003025694252
 40
-1.00003025694252
 40
-1.00003025694252
 40
-1.00003025694252
 40
-0.8061885608387195
 40
-0.5622681596967194
 40
-0.3395558076852194
 40
-0.1352208116068194
 40
-0.0000302569425195
 40
-0.0000302569425195
 40
-0.0000302569425195
 40
-0.0000302569425195
 10
21.68707269177319
 20
35.28339701144571
 30
0.0
 10
21.78829307841463
 20
35.23117673579628
 30
0.0
 10
22.00826685955094
 20
35.09664548818724
 30
0.0
 10
22.29598564961488
 20
34.83164421407366
 30
0.0
 10
22.51218474675491
 20
34.49777409386763
 30
0.0
 10
22.61937982567616
 20
34.18294331992976
 30
0.0
 10
22.64811757955313
 20
33.98495771157968
 30
0.0
 10
22.65434138371295
 20
33.90579202264814
 30
0.0
  0
SPLINE
  5
18D
330
1F
100
AcDbEntity
  8
DEFAULT
 62
     7
100
AcDbSpline
210
0.0
220
0.0
230
1.0
 70
     8
 71
     3
 72
     8
 73
     4
 74
     0
 42
0.0000000001
 43
0.0000000001
 40
-0.0000302569425195
 40
-0.0000302569425195
 40
-0.0000302569425195
 40
-0.0000302569425195
 40
0.9999697430574805
 40
0.9999697430574805
 40
0.9999697430574805
 40
0.9999697430574805
 10
22.65434138371295
 20
33.90579202264814
 30
0.0
 10
22.67769398960814
 20
33.60875100294931
 30
0.0
 10
22.68157569554513
 20
33.31049883016417
 30
0.0
 10
22.69439686966572
 20
33.01281724007169
 30
0.0
  0
LINE
  5
18E
330
1F
100
AcDbEntity
  8
DEFAULT
 62
     7
100
AcDbLine
 10
22.69439686966572
 20
33.01281724007169
 30
0.0
 11
22.96331217469636
 21
26.76915072023435
 31
0.0
  0
ARC
  5
18F
330
1F
100
AcDbEntity
  8
DEFAULT
 62
     7
100
AcDbCircle
 10
-57.38117101036005
 20
22.95142929558801
 30
0.0
 40
80.43513520315618
100
AcDbArc
 50
1.839085797085427
 51
2.720472042986223
  0
ARC
  5
190
330
1F
100
AcDbEntity
  8
DEFAULT
 62
     7
100
AcDbCircle
 10
-15.42892732342034
 20
24.29672543435981
 30
0.0
 40
38.46132711236501
100
AcDbArc
 50
1.137964590872827
 51
1.841697267260162
  0
ARC
  5
191
330
1F
100
AcDbEntity
  8
DEFAULT
 62
     7
100
AcDbCircle
 10
-1.455870656874595
 20
24.55662151546403
 30
0.0
 40
24.48587117153997
100
AcDbArc
 50
0.2242174058513037
 51
1.179285839599415
  0
ARC
  5
192
330
1F
100
AcDbEntity
  8
DEFAULT
 62
     7
100
AcDbCircle
 10
-40.03181202051667
 20
24.40566028014587
 30
0.0
 40
63.06210791627338
100
AcDbArc
 50
358.1939601872785
 51
0.2242174058503681
  0
LINE
  5
193
330
1F
100
AcDbEntity
  8
DEFAULT
 62
     7
100
AcDbLine
 10
22.99896939378401
 20
22.41818722464127
 30
0.0
 11
22.91821824140063
 21
19.85724270228197
 31
0.0
  0
ARC
  5
194
330
1F
100
AcDbEntity
  8
DEFAULT
 62
     7
100
AcDbCircle
 10
40.30145184839188
 20
19.30839168476603
 30
0.0
 40
17.39189604599389
100
AcDbArc
 50
178.1915675676053
 51
180.7669072426323
  0
SPLINE
  5
195
330
1F
100
AcDbEntity
  8
DEFAULT
 62
     7
100
AcDbSpline
210
0.0
220
0.0
230
1.0
 70
     8
 71
     3
 72
    14
 73
    10
 74
     0
 42
0.0000000001
 43
0.0000000001
 40
-1.068262612449791
 40
-1.068262612449791
 40
-1.068262612449791
 40
-1.068262612449791
 40
-1.0
 40
-0.9701342605367
 40
-0.8605829731305
 40
-0.724297038374
 40
-0.5651209772701
 40
-0.3863256411177
 40
-0.2032877124894413
 40
-0.2032877124894413
 40
-0.2032877124894413
 40
-0.2032877124894413
 10
23.30191504495886
 20
26.06330058265147
 30
0.0
 10
23.32072795177069
 20
26.0166497493193
 30
0.0
 10
23.32926024621193
 20
25.94310808483196
 30
0.0
 10
23.34381286377686
 20
25.78735368208747
 30
0.0
 10
23.35724277593586
 20
25.57968427333647
 30
0.0
 10
23.37245953464886
 20
25.27465909001047
 30
0.0
 10
23.38535151567986
 20
24.91717314223047
 30
0.0
 10
23.39640745671619
 20
24.52438542936617
 30
0.0
 10
23.40214332979297
 20
24.25154567054505
 30
0.0
 10
23.40460540782217
 20
24.11351882232506
 30
0.0
  0
ARC
  5
196
330
1F
100
AcDbEntity
  8
DEFAULT
 62
     7
100
AcDbCircle
 10
18.40540067465804
 20
24.02434463414534
 30
0.0
 40
4.99999999999282
100
AcDbArc
 50
0.0000000000001221
 51
1.021915105095712
  0
LINE
  5
197
330
1F
100
AcDbEntity
  8
DEFAULT
 62
     7
100
AcDbLine
 10
23.40540067465086
 20
24.02434463414535
 30
0.0
 11
23.40540067465086
 21
18.58810626419547
 31
0.0
  0
ARC
  5
198
330
1F
100
AcDbEntity
  8
DEFAULT
 62
     7
100
AcDbCircle
 10
23.04394465702913
 20
25.52642354459766
 30
0.0
 40
0.0596745791356978
100
AcDbArc
 50
240.258044028579
 51
255.6526520929535
  0
ARC
  5
199
330
1F
100
AcDbEntity
  8
DEFAULT
 62
     7
100
AcDbCircle
 10
23.77121628607863
 20
28.3698045537265
 30
0.0
 40
2.994591883847167
100
AcDbArc
 50
255.652652092954
 51
262.2209527740403
  0
SPLINE
  5
19A
330
1F
100
AcDbEntity
  8
DEFAULT
 62
     7
100
AcDbSpline
210
0.0
220
0.0
230
1.0
 70
     8
 71
     3
 72
    13
 73
     9
 74
     0
 42
0.0000000001
 43
0.0000000001
 40
0.1946477391319426
 40
0.1946477391319426
 40
0.1946477391319426
 40
0.1946477391319426
 40
0.331372965356
 40
0.5131147268091
 40
0.6803240394962
 40
0.8304849626221
 40
0.9614248565211
 40
1.0
 40
1.0
 40
1.0
 40
1.0
 10
23.00593456579001
 20
25.72904594632709
 30
0.0
 10
23.01456305212967
 20
25.75516899261496
 30
0.0
 10
23.03499447209099
 20
25.81590560352565
 30
0.0
 10
23.06757387762986
 20
25.90804047143047
 30
0.0
 10
23.10307945562086
 20
26.00200898255347
 30
0.0
 10
23.13820774337186
 20
26.08508742459447
 30
0.0
 10
23.16616228178786
 20
26.14314771067147
 30
0.0
 10
23.18350560161986
 20
26.17250946628747
 30
0.0
 10
23.18755963785886
 20
26.17912816310047
 30
0.0
  0
SPLINE
  5
19B
330
1F
100
AcDbEntity
  8
DEFAULT
 62
     7
100
AcDbSpline
210
0.0
220
0.0
230
1.0
 70
     8
 71
     3
 72
     8
 73
     4
 74
     0
 42
0.0000000001
 43
0.0000000001
 40
1.0
 40
1.0
 40
1.0
 40
1.0
 40
2.0
 40
2.0
 40
2.0
 40
2.0
 10
23.18755963785886
 20
26.17912816310047
 30
0.0
 10
23.21384923019067
 20
26.22204905248664
 30
0.0
 10
23.24734181864183
 20
26.27490754626928
 30
0.0
 10
23.29699126085286
 20
26.28317059956247
 30
0.0
  0
ARC
  5
19C
330
1F
100
AcDbEntity
  8
DEFAULT
 62
     7
100
AcDbCircle
 10
24.04117560068051
 20
21.8116591541378
 30
0.0
 40
4.533014994262482
100
AcDbArc
 50
80.50920826398375
 51
99.44901210822036
  0
ARC
  5
19D
330
1F
100
AcDbEntity
  8
DEFAULT
 62
     7
100
AcDbCircle
 10
24.75219200468983
 20
26.16977470664179
 30
0.0
 40
0.118585869681817
100
AcDbArc
 50
27.93968560055237
 51
72.11006480465068
  0
SPLINE
  5
19E
330
1F
100
AcDbEntity
  8
DEFAULT
 62
     7
100
AcDbSpline
210
0.0
220
0.0
230
1.0
 70
     8
 71
     3
 72
    17
 73
    13
 74
     0
 42
0.0000000001
 43
0.0000000001
 40
4.0
 40
4.0
 40
4.0
 40
4.0
 40
4.008328522191795
 40
4.04000816381882
 40
4.08973443841195
 40
4.16490891059
 40
4.2645372936855
 40
4.3843910330504
 40
4.5213257398088
 40
4.6733629505883
 40
4.8402521009361
 40
5.0
 40
5.0
 40
5.0
 40
5.0
 10
24.85695566064886
 20
26.22533714789747
 30
0.0
 10
24.86033777224786
 20
26.21896013551347
 30
0.0
 10
24.87491019862386
 20
26.18738265480447
 30
0.0
 10
24.89183944027886
 20
26.11175379190947
 30
0.0
 10
24.90981305873986
 20
25.97831944468147
 30
0.0
 10
24.92600892203586
 20
25.78582646406647
 30
0.0
 10
24.94136215031986
 20
25.53290722130947
 30
0.0
 10
24.95499064060086
 20
25.22668792536747
 30
0.0
 10
24.96713288104686
 20
24.87532132570247
 30
0.0
 10
24.97748779102586
 20
24.48342935693347
 30
0.0
 10
24.98553211019086
 20
24.07186347728947
 30
0.0
 10
24.98950084366586
 20
23.79099349816147
 30
0.0
 10
24.99101920559986
 20
23.65362443026047
 30
0.0
  0
LINE
  5
19F
330
1F
100
AcDbEntity
  8
DEFAULT
 62
     7
100
AcDbLine
 10
24.99101920559986
 20
23.65362443026047
 30
0.0
 11
25.00778924471827
 21
22.13640736180406
 31
0.0
  0
ARC
  5
1A0
330
1F
100
AcDbEntity
  8
DEFAULT
 62
     7
100
AcDbCircle
 10
20.00809464748227
 20
22.08114495030122
 30
0.0
 40
4.999999999975596
100
AcDbArc
 50
0.0000000000004478
 51
0.6332734825848451
  0
LINE
  5
1A1
330
1F
100
AcDbEntity
  8
DEFAULT
 62
     7
100
AcDbLine
 10
25.00809464745786
 20
22.08114495030126
 30
0.0
 11
25.00809464745786
 21
18.59324993954947
 31
0.0
  0
ARC
  5
1A2
330
1F
100
AcDbEntity
  8
DEFAULT
 62
     7
100
AcDbCircle
 10
22.98545417574903
 20
26.58592463180915
 30
0.0
 40
1.826675886840244
100
AcDbArc
 50
273.5934613023198
 51
282.7431257305129
  0
LINE
  5
1A3
330
1F
100
AcDbEntity
  8
DEFAULT
 62
     7
100
AcDbLine
 10
23.09994405075786
 20
24.76284019490447
 30
0.0
 11
23.02912691055187
 21
24.75839287180383
 31
0.0
  0
ARC
  5
1A4
330
1F
100
AcDbEntity
  8
DEFAULT
 62
     7
100
AcDbCircle
 10
3.778264962908697
 20
26.58592463180918
 30
0.0
 40
1.826675886840272
100
AcDbArc
 50
257.2568742694873
 51
266.4065386976802
  0
LINE
  5
1A5
330
1F
100
AcDbEntity
  8
DEFAULT
 62
     7
100
AcDbLine
 10
3.663775087899861
 20
24.76284019490447
 30
0.0
 11
3.734592228105856
 21
24.75839287180383
 31
0.0
  0
SPLINE
  5
1A6
330
1F
100
AcDbEntity
  8
DEFAULT
 62
     7
100
AcDbSpline
210
0.0
220
0.0
230
1.0
 70
     8
 71
     3
 72
    13
 73
     9
 74
     0
 42
0.0000000001
 43
0.0000000001
 40
0.1946477391319426
 40
0.1946477391319426
 40
0.1946477391319426
 40
0.1946477391319426
 40
0.331372965356
 40
0.5131147268091
 40
0.6803240394962
 40
0.8304849626221
 40
0.9614248565211
 40
1.0
 40
1.0
 40
1.0
 40
1.0
 10
3.757784572867712
 20
25.72904594632709
 30
0.0
 10
3.749156086528057
 20
25.75516899261496
 30
0.0
 10
3.728724666566731
 20
25.81590560352565
 30
0.0
 10
3.69614526102786
 20
25.90804047143047
 30
0.0
 10
3.660639683036861
 20
26.00200898255347
 30
0.0
 10
3.62551139528586
 20
26.08508742459447
 30
0.0
 10
3.59755685686986
 20
26.14314771067147
 30
0.0
 10
3.580213537037861
 20
26.17250946628747
 30
0.0
 10
3.576159500798861
 20
26.17912816310047
 30
0.0
  0
SPLINE
  5
1A7
330
1F
100
AcDbEntity
  8
DEFAULT
 62
     7
100
AcDbSpline
210
0.0
220
0.0
230
1.0
 70
     8
 71
     3
 72
     8
 73
     4
 74
     0
 42
0.0000000001
 43
0.0000000001
 40
1.0
 40
1.0
 40
1.0
 40
1.0
 40
2.0
 40
2.0
 40
2.0
 40
2.0
 10
3.576159500798861
 20
26.17912816310047
 30
0.0
 10
3.549869908467051
 20
26.22204905248664
 30
0.0
 10
3.516377320015892
 20
26.27490754626928
 30
0.0
 10
3.466727877804861
 20
26.28317059956247
 30
0.0
  0
ARC
  5
1A8
330
1F
100
AcDbEntity
  8
DEFAULT
 62
     7
100
AcDbCircle
 10
2.722543537977206
 20
21.81165915413778
 30
0.0
 40
4.533014994262503
100
AcDbArc
 50
80.55098789177966
 51
99.49079173601622
  0
ARC
  5
1A9
330
1F
100
AcDbEntity
  8
DEFAULT
 62
     7
100
AcDbCircle
 10
2.011527133967886
 20
26.1697747066418
 30
0.0
 40
0.1185858696818081
100
AcDbArc
 50
107.889935195348
 51
152.0603143994512
  0
SPLINE
  5
1AA
330
1F
100
AcDbEntity
  8
DEFAULT
 62
     7
100
AcDbSpline
210
0.0
220
0.0
230
1.0
 70
     8
 71
     3
 72
    17
 73
    13
 74
     0
 42
0.0000000001
 43
0.0000000001
 40
4.0
 40
4.0
 40
4.0
 40
4.0
 40
4.008328522191795
 40
4.04000816381882
 40
4.08973443841195
 40
4.16490891059
 40
4.2645372936855
 40
4.3843910330504
 40
4.5213257398088
 40
4.6733629505883
 40
4.8402521009361
 40
5.0
 40
5.0
 40
5.0
 40
5.0
 10
1.906763478008861
 20
26.22533714789747
 30
0.0
 10
1.90338136640986
 20
26.21896013551347
 30
0.0
 10
1.88880894003386
 20
26.18738265480447
 30
0.0
 10
1.87187969837886
 20
26.11175379190947
 30
0.0
 10
1.85390607991786
 20
25.97831944468147
 30
0.0
 10
1.83771021662186
 20
25.78582646406647
 30
0.0
 10
1.82235698833786
 20
25.53290722130947
 30
0.0
 10
1.808728498056861
 20
25.22668792536747
 30
0.0
 10
1.79658625761086
 20
24.87532132570247
 30
0.0
 10
1.786231347631861
 20
24.48342935693347
 30
0.0
 10
1.778187028466861
 20
24.07186347728947
 30
0.0
 10
1.77421829499186
 20
23.79099349816147
 30
0.0
 10
1.77269993305786
 20
23.65362443026047
 30
0.0
  0
LINE
  5
1AB
330
1F
100
AcDbEntity
  8
DEFAULT
 62
     7
100
AcDbLine
 10
1.77269993305786
 20
23.65362443026047
 30
0.0
 11
1.755929893939454
 21
22.13640736180406
 31
0.0
  0
ARC
  5
1AC
330
1F
100
AcDbEntity
  8
DEFAULT
 62
     7
100
AcDbCircle
 10
6.755624491175524
 20
22.08114495030122
 30
0.0
 40
4.999999999975666
100
AcDbArc
 50
179.3667265174152
 51
179.9999999999996
  0
LINE
  5
1AD
330
1F
100
AcDbEntity
  8
DEFAULT
 62
     7
100
AcDbLine
 10
1.755624491199858
 20
22.08114495030126
 30
0.0
 11
1.75562449119986
 21
18.59324993954947
 31
0.0
  0
ARC
  5
1AE
330
1F
100
AcDbEntity
  8
DEFAULT
 62
     7
100
AcDbCircle
 10
3.719774481628571
 20
25.52642354459779
 30
0.0
 40
0.059674579135822
100
AcDbArc
 50
284.3473479070451
 51
299.7419559713815
  0
ARC
  5
1AF
330
1F
100
AcDbEntity
  8
DEFAULT
 62
     7
100
AcDbCircle
 10
2.992502852579093
 20
28.3698045537265
 30
0.0
 40
2.994591883847167
100
AcDbArc
 50
277.7790472259598
 51
284.3473479070461
  0
LINE
  5
1B0
330
1F
100
AcDbEntity
  8
DEFAULT
 62
     7
100
AcDbLine
 10
21.68397781799554
 20
35.29668925025871
 30
0.0
 11
21.68577040611189
 21
35.29576878687262
 31
0.0
  0
LINE
  5
1B1
330
1F
100
AcDbEntity
  8
DEFAULT
 62
     7
100
AcDbLine
 10
22.83382654127467
 20
18.27479408759323
 30
0.0
 11
22.83223416257725
 21
18.2714752210572
 31
0.0
  0
SPLINE
  5
1B2
330
1F
100
AcDbEntity
  8
DEFAULT
 62
     7
100
AcDbSpline
210
0.0
220
0.0
230
1.0
 70
     8
 71
     3
 72
    14
 73
    10
 74
     0
 42
0.0000000001
 43
0.0000000001
 40
-1.068262612449791
 40
-1.068262612449791
 40
-1.068262612449791
 40
-1.068262612449791
 40
-1.0
 40
-0.9701342605367
 40
-0.8605829731305
 40
-0.724297038374
 40
-0.5651209772701
 40
-0.3863256411177
 40
-0.2032877124894413
 40
-0.2032877124894413
 40
-0.2032877124894413
 40
-0.2032877124894413
 10
3.461804093698861
 20
26.06330058265147
 30
0.0
 10
3.442991186887036
 20
26.0166497493193
 30
0.0
 10
3.434458892445792
 20
25.94310808483196
 30
0.0
 10
3.41990627488086
 20
25.78735368208747
 30
0.0
 10
3.40647636272186
 20
25.57968427333647
 30
0.0
 10
3.391259604008861
 20
25.27465909001047
 30
0.0
 10
3.37836762297786
 20
24.91717314223047
 30
0.0
 10
3.367311681941531
 20
24.52438542936617
 30
0.0
 10
3.361575808864748
 20
24.25154567054505
 30
0.0
 10
3.359113730835546
 20
24.11351882232506
 30
0.0
  0
ARC
  5
1B3
330
1F
100
AcDbEntity
  8
DEFAULT
 62
     7
100
AcDbCircle
 10
8.35831846401851
 20
24.02434463414534
 30
0.0
 40
5.000000000011644
100
AcDbArc
 50
178.9780848949081
 51
179.9999999999999
  0
LINE
  5
1B4
330
1F
100
AcDbEntity
  8
DEFAULT
 62
     7
100
AcDbLine
 10
3.358318464006864
 20
24.02434463414535
 30
0.0
 11
3.35831846400686
 21
18.58810626419547
 31
0.0
  0
LINE
  5
1B5
330
1F
100
AcDbEntity
  8
DEFAULT
 62
     7
100
AcDbLine
 10
23.40540055630486
 20
18.58810626419547
 30
0.0
 11
25.00825490938086
 21
18.58641538166247
 31
0.0
  0
SPLINE
  5
1B6
330
1F
100
AcDbEntity
  8
DEFAULT
 62
     7
100
AcDbSpline
210
0.0
220
0.0
230
1.0
 70
     8
 71
     3
 72
    20
 73
    16
 74
     0
 42
0.0000000001
 43
0.0000000001
 40
0.0
 40
0.0
 40
0.0
 40
0.0
 40
0.1139816912484
 40
0.219128709193
 40
0.3289788567593
 40
0.4389139700462
 40
0.5363772642527001
 40
0.6230597855735
 40
0.7002649302914
 40
0.7690721799152001
 40
0.8302303287712
 40
0.8845594935342001
 40
0.9333418258067
 40
0.9781248791641
 40
1.0
 40
1.0
 40
1.0
 40
1.0
 10
25.00825490938086
 20
18.58641538166247
 30
0.0
 10
25.00821023721186
 20
18.53682951513847
 30
0.0
 10
25.00809611688186
 20
18.44150070617847
 30
0.0
 10
25.00825103535186
 20
18.29838566233947
 30
0.0
 10
25.00701191052086
 20
18.15702240574847
 30
0.0
 10
25.00119966112786
 20
18.01909912505747
 30
0.0
 10
24.99113633362986
 20
17.89152784096547
 30
0.0
 10
24.97727677979686
 20
17.77863750975147
 30
0.0
 10
24.95994192354986
 20
17.67885454896747
 30
0.0
 10
24.93947922633486
 20
17.59102493482647
 30
0.0
 10
24.91632939387586
 20
17.51420576543347
 30
0.0
 10
24.89116105252286
 20
17.44726070942747
 30
0.0
 10
24.86425252425186
 20
17.38875679395447
 30
0.0
 10
24.83994990621486
 20
17.34475509885747
 30
0.0
 10
24.82445576427234
 20
17.32022845317365
 30
0.0
 10
24.81924163165786
 20
17.31226495173447
 30
0.0
  0
ARC
  5
1B7
330
1F
100
AcDbEntity
  8
DEFAULT
 62
     7
100
AcDbCircle
 10
24.27600996654397
 20
17.66219647286474
 30
0.0
 40
0.6461831872332788
100
AcDbArc
 50
309.4925927524106
 51
327.2117310358557
  0
ARC
  5
1B8
330
1F
100
AcDbEntity
  8
DEFAULT
 62
     7
100
AcDbCircle
 10
24.14946796419532
 20
17.82672350746824
 30
0.0
 40
0.8536563636219688
100
AcDbArc
 50
294.7500000186547
 51
309.0239472540685
  0
LINE
  5
1B9
330
1F
100
AcDbEntity
  8
DEFAULT
 62
     7
100
AcDbLine
 10
24.50685951358886
 20
17.05148130816897
 30
0.0
 11
23.55607531293286
 21
16.61316378763347
 31
0.0
  0
LINE
  5
1BA
330
1F
100
AcDbEntity
  8
DEFAULT
 62
     7
100
AcDbLine
 10
23.55607531293286
 20
16.61316378763347
 30
0.0
 11
23.02025850281686
 21
16.36614885240347
 31
0.0
  0
LINE
  5
1BB
330
1F
100
AcDbEntity
  8
DEFAULT
 62
     7
100
AcDbLine
 10
23.02025850281686
 20
16.36614885240347
 30
0.0
 11
22.42481934118686
 21
16.09164764064847
 31
0.0
  0
SPLINE
  5
1BC
330
1F
100
AcDbEntity
  8
DEFAULT
 62
     7
100
AcDbSpline
210
0.0
220
0.0
230
1.0
 70
     8
 71
     3
 72
    21
 73
    17
 74
     0
 42
0.0000000001
 43
0.0000000001
 40
6.002462833383612
 40
6.002462833383612
 40
6.002462833383612
 40
6.002462833383612
 40
6.088637961155732
 40
6.203940724708213
 40
6.311206733561912
 40
6.410994156508912
 40
6.503817787610712
 40
6.590156661048012
 40
6.670461274876413
 40
6.745152286906112
 40
6.814607223521513
 40
6.879150901930113
 40
6.939024083126713
 40
6.994377209219612
 40
7.002462833383612
 40
7.127909299242074
 40
7.127909299242074
 40
7.127909299242074
 40
7.127909299242074
 10
22.42481934118686
 20
16.09164764064847
 30
0.0
 10
22.23446837797686
 20
16.00389464635147
 30
0.0
 10
21.78942684759186
 20
15.79872769663347
 30
0.0
 10
21.10744702021886
 20
15.48433069530847
 30
0.0
 10
20.39539919807386
 20
15.15607215248747
 30
0.0
 10
19.73300523154146
 20
14.85070426359747
 30
0.0
 10
19.11683680864276
 20
14.56664689370447
 30
0.0
 10
18.54370375525106
 20
14.30242888747847
 30
0.0
 10
18.01062345793316
 20
14.05667576320847
 30
0.0
 10
17.51483858784486
 20
13.82811409676147
 30
0.0
 10
17.05386489117886
 20
13.61560828480447
 30
0.0
 10
16.62562993104386
 20
13.41817460766847
 30
0.0
 10
16.22852982123786
 20
13.23513219184947
 30
0.0
 10
15.95615206973086
 20
13.10955352707947
 30
0.0
 10
15.53891935614786
 20
12.91722463837432
 30
0.0
 10
15.24567011090788
 20
12.77731397379968
 30
0.0
 10
14.96571774642186
 20
12.65626931028247
 30
0.0
  0
SPLINE
  5
1BD
330
1F
100
AcDbEntity
  8
DEFAULT
 62
     7
100
AcDbSpline
210
0.0
220
0.0
230
1.0
 70
     8
 71
     3
 72
    15
 73
    11
 74
     0
 42
0.0000000001
 43
0.0000000001
 40
7.127909299242074
 40
7.127909299242074
 40
7.127909299242074
 40
7.127909299242074
 40
7.148569780262294
 40
7.364426690230173
 40
7.555910444137374
 40
7.724762803694474
 40
7.874695403635774
 40
8.009836636495574
 40
8.127909299242074
 40
8.211429337822178
 40
8.211429337822178
 40
8.211429337822178
 40
8.211429337822178
 10
14.96571774642186
 20
12.65626931028247
 30
0.0
 10
14.95792128289286
 20
12.65289830712547
 30
0.0
 10
14.86862252588786
 20
12.61441389498947
 30
0.0
 10
14.70603122018986
 20
12.54706673804947
 30
0.0
 10
14.48399160683786
 20
12.46436369039447
 30
0.0
 10
14.28447035030886
 20
12.39935618292447
 30
0.0
 10
14.10455829504686
 20
12.34954469473947
 30
0.0
 10
13.94288388642086
 20
12.31278636317347
 30
0.0
 10
13.80655396102214
 20
12.2884424975427
 30
0.0
 10
13.72440883189609
 20
12.27729071335097
 30
0.0
 10
13.69044667867786
 20
12.27324264198947
 30
0.0
  0
ARC
  5
1BE
330
1F
100
AcDbEntity
  8
DEFAULT
 62
     7
100
AcDbCircle
 10
13.37834987625216
 20
14.89164495666047
 30
0.0
 40
2.636936687817668
100
AcDbArc
 50
270.0762579058556
 51
276.797221735887
  0
LINE
  5
1BF
330
1F
100
AcDbEntity
  8
DEFAULT
 62
     7
100
AcDbLine
 10
3.35831846400686
 20
18.58810626419547
 30
0.0
 11
1.755464110930861
 21
18.58641538166247
 31
0.0
  0
SPLINE
  5
1C0
330
1F
100
AcDbEntity
  8
DEFAULT
 62
     7
100
AcDbSpline
210
0.0
220
0.0
230
1.0
 70
     8
 71
     3
 72
    20
 73
    16
 74
     0
 42
0.0000000001
 43
0.0000000001
 40
0.0
 40
0.0
 40
0.0
 40
0.0
 40
0.1139816912484
 40
0.219128709193
 40
0.3289788567593
 40
0.4389139700462
 40
0.5363772642527001
 40
0.6230597855735
 40
0.7002649302914
 40
0.7690721799152001
 40
0.8302303287712
 40
0.8845594935342001
 40
0.9333418258067
 40
0.9781248791641
 40
1.0
 40
1.0
 40
1.0
 40
1.0
 10
1.755464110930861
 20
18.58641538166247
 30
0.0
 10
1.75550878309986
 20
18.53682951513847
 30
0.0
 10
1.75562290342986
 20
18.44150070617847
 30
0.0
 10
1.755467984959861
 20
18.29838566233947
 30
0.0
 10
1.75670710979086
 20
18.15702240574847
 30
0.0
 10
1.76251935918386
 20
18.01909912505747
 30
0.0
 10
1.77258268668186
 20
17.89152784096547
 30
0.0
 10
1.78644224051486
 20
17.77863750975147
 30
0.0
 10
1.803777096761861
 20
17.67885454896747
 30
0.0
 10
1.82423979397686
 20
17.59102493482647
 30
0.0
 10
1.84738962643586
 20
17.51420576543347
 30
0.0
 10
1.87255796778886
 20
17.44726070942747
 30
0.0
 10
1.89946649605986
 20
17.38875679395447
 30
0.0
 10
1.923769114096861
 20
17.34475509885747
 30
0.0
 10
1.939263256039385
 20
17.32022845317365
 30
0.0
 10
1.94447738865386
 20
17.31226495173447
 30
0.0
  0
ARC
  5
1C1
330
1F
100
AcDbEntity
  8
DEFAULT
 62
     7
100
AcDbCircle
 10
2.487709053767694
 20
17.66219647286469
 30
0.0
 40
0.6461831872332
100
AcDbArc
 50
212.788268964143
 51
230.5074072475899
  0
ARC
  5
1C2
330
1F
100
AcDbEntity
  8
DEFAULT
 62
     7
100
AcDbCircle
 10
2.614251056116394
 20
17.82672350746824
 30
0.0
 40
0.8536563636219675
100
AcDbArc
 50
230.9760527459316
 51
245.2499999813455
  0
LINE
  5
1C3
330
1F
100
AcDbEntity
  8
DEFAULT
 62
     7
100
AcDbLine
 10
2.256859506722861
 20
17.05148130816897
 30
0.0
 11
3.20764370737886
 21
16.61316378763347
 31
0.0
  0
LINE
  5
1C4
330
1F
100
AcDbEntity
  8
DEFAULT
 62
     7
100
AcDbLine
 10
3.20764370737886
 20
16.61316378763347
 30
0.0
 11
3.743460517494861
 21
16.36614885240347
 31
0.0
  0
LINE
  5
1C5
330
1F
100
AcDbEntity
  8
DEFAULT
 62
     7
100
AcDbLine
 10
3.743460517494861
 20
16.36614885240347
 30
0.0
 11
4.33889967912486
 21
16.09164764064847
 31
0.0
  0
SPLINE
  5
1C6
330
1F
100
AcDbEntity
  8
DEFAULT
 62
     7
100
AcDbSpline
210
0.0
220
0.0
230
1.0
 70
     8
 71
     3
 72
    21
 73
    17
 74
     0
 42
0.0000000001
 43
0.0000000001
 40
6.002462833383612
 40
6.002462833383612
 40
6.002462833383612
 40
6.002462833383612
 40
6.088637961155732
 40
6.203940724708213
 40
6.311206733561912
 40
6.410994156508912
 40
6.503817787610712
 40
6.590156661048012
 40
6.670461274876413
 40
6.745152286906112
 40
6.814607223521513
 40
6.879150901930113
 40
6.939024083126713
 40
6.994377209219612
 40
7.002462833383612
 40
7.127909299242074
 40
7.127909299242074
 40
7.127909299242074
 40
7.127909299242074
 10
4.33889967912486
 20
16.09164764064847
 30
0.0
 10
4.529250642334861
 20
16.00389464635147
 30
0.0
 10
4.97429217271986
 20
15.79872769663347
 30
0.0
 10
5.656272000092861
 20
15.48433069530847
 30
0.0
 10
6.36831982223786
 20
15.15607215248747
 30
0.0
 10
7.030713788770261
 20
14.85070426359747
 30
0.0
 10
7.64688221166896
 20
14.56664689370447
 30
0.0
 10
8.220015265060662
 20
14.30242888747847
 30
0.0
 10
8.75309556237856
 20
14.05667576320847
 30
0.0
 10
9.24888043246686
 20
13.82811409676147
 30
0.0
 10
9.709854129132859
 20
13.61560828480447
 30
0.0
 10
10.13808908926786
 20
13.41817460766847
 30
0.0
 10
10.53518919907386
 20
13.23513219184947
 30
0.0
 10
10.80756695058086
 20
13.10955352707947
 30
0.0
 10
11.22479966416386
 20
12.91722463837432
 30
0.0
 10
11.51804890940383
 20
12.77731397379968
 30
0.0
 10
11.79800127388986
 20
12.65626931028247
 30
0.0
  0
SPLINE
  5
1C7
330
1F
100
AcDbEntity
  8
DEFAULT
 62
     7
100
AcDbSpline
210
0.0
220
0.0
230
1.0
 70
     8
 71
     3
 72
    15
 73
    11
 74
     0
 42
0.0000000001
 43
0.0000000001
 40
7.127909299242074
 40
7.127909299242074
 40
7.127909299242074
 40
7.127909299242074
 40
7.148569780262294
 40
7.364426690230173
 40
7.555910444137374
 40
7.724762803694474
 40
7.874695403635774
 40
8.009836636495574
 40
8.127909299242074
 40
8.211429337822178
 40
8.211429337822178
 40
8.211429337822178
 40
8.211429337822178
 10
11.79800127388986
 20
12.65626931028247
 30
0.0
 10
11.80579773741886
 20
12.65289830712547
 30
0.0
 10
11.89509649442386
 20
12.61441389498947
 30
0.0
 10
12.05768780012186
 20
12.54706673804947
 30
0.0
 10
12.27972741347386
 20
12.46436369039447
 30
0.0
 10
12.47924867000286
 20
12.39935618292447
 30
0.0
 10
12.65916072526486
 20
12.34954469473947
 30
0.0
 10
12.82083513389086
 20
12.31278636317347
 30
0.0
 10
12.95716505928958
 20
12.2884424975427
 30
0.0
 10
13.03931018841563
 20
12.27729071335097
 30
0.0
 10
13.07327234163386
 20
12.27324264198947
 30
0.0
  0
ARC
  5
1C8
330
1F
100
AcDbEntity
  8
DEFAULT
 62
     7
100
AcDbCircle
 10
13.38536914405956
 20
14.89164495666052
 30
0.0
 40
2.636936687817715
100
AcDbArc
 50
263.2027782641131
 51
269.9237420941444
  0
SPLINE
  5
1C9
330
1F
100
AcDbEntity
  8
DEFAULT
 62
     7
100
AcDbSpline
210
0.0
220
0.0
230
1.0
 70
     8
 71
     3
 72
    34
 73
    30
 74
     0
 42
0.0000000001
 43
0.0000000001
 40
0.0
 40
0.0
 40
0.0
 40
0.0
 40
0.04369003968616
 40
0.08814244510908
 40
0.1306003930015
 40
0.1712801987524
 40
0.2103986497343
 40
0.2481747367409
 40
0.284862111876
 40
0.3207538652
 40
0.3540470664098
 40
0.3857819087156
 40
0.4150439917257
 40
0.4425656795699
 40
0.4706249160803
 40
0.5010860987822
 40
0.5336683704706
 40
0.5677709960257
 40
0.6033661982373
 40
0.6405723632946
 40
0.6795177439576
 40
0.7202555053028
 40
0.7626422017968
 40
0.8067150095662
 40
0.8530392628722
 40
0.9005549932775
 40
0.9494981519459
 40
1.0
 40
1.017413038927122
 40
1.017413038927122
 40
1.017413038927122
 40
1.017413038927122
 10
4.06976335479586
 20
17.50695064100847
 30
0.0
 10
4.050545874383861
 20
17.51525430662647
 30
0.0
 10
4.01178873696886
 20
17.53203699523647
 30
0.0
 10
3.954401291525861
 20
17.55699348772147
 30
0.0
 10
3.89837457030786
 20
17.58146179155347
 30
0.0
 10
3.844721261136861
 20
17.60497891334447
 30
0.0
 10
3.793162824305859
 20
17.62768547095247
 30
0.0
 10
3.74335348662586
 20
17.64962218045247
 30
0.0
 10
3.695084380121862
 20
17.67120189391247
 30
0.0
 10
3.648465403808859
 20
17.69126230697747
 30
0.0
 10
3.605967362097861
 20
17.71454049556947
 30
0.0
 10
3.568887853931861
 20
17.74049786429047
 30
0.0
 10
3.536588568969861
 20
17.76808189433647
 30
0.0
 10
3.50816545333886
 20
17.79721953428147
 30
0.0
 10
3.481954226417861
 20
17.82910536904247
 30
0.0
 10
3.45718202069386
 20
17.86511457362747
 30
0.0
 10
3.434131441910862
 20
17.90561936330447
 30
0.0
 10
3.41345622154086
 20
17.95011114331547
 30
0.0
 10
3.395496984151861
 20
17.99813557918447
 30
0.0
 10
3.380421047690862
 20
18.04955935898647
 30
0.0
 10
3.368276066160861
 20
18.10427688950947
 30
0.0
 10
3.359219532208861
 20
18.16209599541247
 30
0.0
 10
3.353232178574859
 20
18.22279133233647
 30
0.0
 10
3.351163841509862
 20
18.28641472743647
 30
0.0
 10
3.351342089792859
 20
18.35249954015247
 30
0.0
 10
3.352440643307861
 20
18.42091006887847
 30
0.0
 10
3.354690230690861
 20
18.49129407463947
 30
0.0
 10
3.356735057878017
 20
18.54725080465231
 30
0.0
 10
3.358005423785067
 20
18.57976845003655
 30
0.0
 10
3.35831846400686
 20
18.58810626419547
 30
0.0
  0
ARC
  5
1CA
330
1F
100
AcDbEntity
  8
DEFAULT
 62
     7
100
AcDbCircle
 10
3.858796477461741
 20
18.06927881802515
 30
0.0
 40
0.0721144465132789
100
AcDbArc
 50
297.6619870006779
 51
307.3008597827378
  0
LINE
  5
1CB
330
1F
100
AcDbEntity
  8
DEFAULT
 62
     7
100
AcDbLine
 10
3.89349853592486
 20
18.08393197027647
 30
0.0
 11
3.88892435992986
 21
18.08146211113447
 31
0.0
  0
LINE
  5
1CC
330
1F
100
AcDbEntity
  8
DEFAULT
 62
     7
100
AcDbLine
 10
2.254901934708861
 20
17.05238461447047
 30
0.0
 11
2.256860251192861
 21
17.05148010802047
 31
0.0
  0
LINE
  5
1CD
330
1F
100
AcDbEntity
  8
DEFAULT
 62
     7
100
AcDbLine
 10
2.07674558673686
 20
17.16353724679047
 30
0.0
 11
2.08047082271586
 21
17.16044427214147
 31
0.0
  0
SPLINE
  5
1CE
330
1F
100
AcDbEntity
  8
DEFAULT
 62
     7
100
AcDbSpline
210
0.0
220
0.0
230
1.0
 70
     8
 71
     3
 72
    33
 73
    29
 74
     0
 42
0.0000000001
 43
0.0000000001
 40
0.0
 40
0.0
 40
0.0
 40
0.0
 40
0.01794929529233
 40
0.06999174711024
 40
0.1204295715042
 40
0.1693945714853
 40
0.2171332808395
 40
0.2625524831421
 40
0.3062316198373
 40
0.348213252248
 40
0.3883468137847
 40
0.4266878680314
 40
0.4633684536647
 40
0.4985109522248
 40
0.5320865011509
 40
0.5634753686862
 40
0.5923873470642
 40
0.6207441153364
 40
0.6508950877403
 40
0.6835984296277
 40
0.7179069394593
 40
0.7548790419472
 40
0.7926828148386
 40
0.8316086911336
 40
0.8719182949303
 40
0.9138365084399001
 40
0.9575866942664
 40
1.0
 40
1.0
 40
1.0
 40
1.0
 10
23.40536795736886
 20
18.58845121265247
 30
0.0
 10
23.40570018168886
 20
18.58011148799047
 30
0.0
 10
23.40697139949886
 20
18.54759048524847
 30
0.0
 10
23.40901665464886
 20
18.49162887844147
 30
0.0
 10
23.41126978984886
 20
18.42124213206847
 30
0.0
 10
23.41237535092886
 20
18.35282826015247
 30
0.0
 10
23.41255609221886
 20
18.28674007484947
 30
0.0
 10
23.41050868895886
 20
18.22311290975747
 30
0.0
 10
23.40453965071886
 20
18.16241262256047
 30
0.0
 10
23.39550161779886
 20
18.10458848071947
 30
0.0
 10
23.38337600876886
 20
18.04986433608047
 30
0.0
 10
23.36832066833886
 20
17.99843303809647
 30
0.0
 10
23.35038294945886
 20
17.95039940565147
 30
0.0
 10
23.32972990377886
 20
17.90589651016847
 30
0.0
 10
23.30670193825886
 20
17.86537866456847
 30
0.0
 10
23.28195223349886
 20
17.82935547361647
 30
0.0
 10
23.25576388094886
 20
17.79745476473547
 30
0.0
 10
23.22736347240886
 20
17.76830080693547
 30
0.0
 10
23.19508645560886
 20
17.74069405653447
 30
0.0
 10
23.15802417382886
 20
17.71471323721947
 30
0.0
 10
23.11555165090886
 20
17.69139822456647
 30
0.0
 10
23.06893966573886
 20
17.67133635194847
 30
0.0
 10
23.02067746048886
 20
17.64976036132147
 30
0.0
 10
22.97086996857886
 20
17.62782374420647
 30
0.0
 10
22.91931319866886
 20
17.60511748256447
 30
0.0
 10
22.86566167284886
 20
17.58160058993047
 30
0.0
 10
22.81108250533886
 20
17.55776393094947
 30
0.0
 10
22.77434190178886
 20
17.54178333225947
 30
0.0
 10
22.75625089804886
 20
17.53393020546547
 30
0.0
  0
LINE
  5
1CF
330
1F
100
AcDbEntity
  8
DEFAULT
 62
     7
100
AcDbLine
 10
4.207032163180861
 20
17.44763759214447
 30
0.0
 11
4.06976320817986
 21
17.50695023751447
 31
0.0
  0
ARC
  5
1D0
330
1F
100
AcDbEntity
  8
DEFAULT
 62
     7
100
AcDbCircle
 10
14.04944256932886
 20
12.05471080315347
 30
0.0
 40
0.1499996488425115
100
AcDbArc
 50
270.0
 51
352.8750310290982
  0
ARC
  5
1D1
330
1F
100
AcDbEntity
  8
DEFAULT
 62
     7
100
AcDbCircle
 10
12.71427656932886
 20
12.05471080315347
 30
0.0
 40
0.1499997262641385
100
AcDbArc
 50
187.1249689709016
 51
267.8749875439956
  0
LINE
  5
1D2
330
1F
100
AcDbEntity
  8
IGES_LEVEL_0
 62
     7
100
AcDbLine
 10
23.32122737409086
 20
54.46740395586468
 30
0.0
 11
23.32122437409086
 21
51.65850195586468
 31
0.0
  0
SPLINE
  5
1D3
330
1F
100
AcDbEntity
  8
IGES_LEVEL_0
 62
     7
100
AcDbSpline
210
0.0
220
0.0
230
1.0
 70
     8
 71
     3
 72
    15
 73
    11
 74
     0
 42
0.0000000001
 43
0.0000000001
 40
1.0
 40
1.0
 40
1.0
 40
1.0
 40
1.406276887208374
 40
1.443128377151383
 40
1.653269150386874
 40
1.838910419711074
 40
2.003449657594373
 40
2.156218241245973
 40
2.321840725130174
 40
2.406276887208374
 40
2.406276887208374
 40
2.406276887208374
 40
2.406276887208374
 10
23.32122437409086
 20
51.65850195586468
 30
0.0
 10
23.31982656598124
 20
51.31675212031202
 30
0.0
 10
23.31900676431944
 20
50.93927178754085
 30
0.0
 10
23.28483588093886
 20
50.3843676071447
 30
0.0
 10
23.24877811379086
 20
50.01757115505468
 30
0.0
 10
23.14595931411286
 20
49.55023619547468
 30
0.0
 10
22.97756327795687
 20
49.15321512989468
 30
0.0
 10
22.72940535900086
 20
48.82036359920468
 30
0.0
 10
22.45853473134786
 20
48.60467772195469
 30
0.0
 10
22.27437351982421
 20
48.4966953429488
 30
0.0
 10
22.20901199113086
 20
48.46679585168468
 30
0.0
  0
SPLINE
  5
1D4
330
1F
100
AcDbEntity
  8
IGES_LEVEL_0
 62
     7
100
AcDbSpline
210
0.0
220
0.0
230
1.0
 70
     8
 71
     3
 72
    14
 73
    10
 74
     0
 42
0.0000000001
 43
0.0000000001
 40
2.406276887208374
 40
2.406276887208374
 40
2.406276887208374
 40
2.406276887208374
 40
2.410084786475225
 40
2.502860217996705
 40
2.676102444426825
 40
2.860180772703725
 40
3.056512700656225
 40
3.264878053057926
 40
3.410084786475225
 40
3.410084786475225
 40
3.410084786475225
 40
3.410084786475225
 10
22.20901199113086
 20
48.46679585168468
 30
0.0
 10
22.20552974774297
 20
48.46520290690758
 30
0.0
 10
22.11878707824972
 20
48.42107449802585
 30
0.0
 10
21.87084843173086
 20
48.30852878657468
 30
0.0
 10
21.43940721701086
 20
48.16719442560468
 30
0.0
 10
20.89517340537486
 20
48.04467531384469
 30
0.0
 10
20.30955055747887
 20
47.95196807421468
 30
0.0
 10
19.75949004660636
 20
47.88916083767468
 30
0.0
 10
19.40505616890736
 20
47.8565359165512
 30
0.0
 10
19.25932247860796
 20
47.84532920625469
 30
0.0
  0
SPLINE
  5
1D5
330
1F
100
AcDbEntity
  8
IGES_LEVEL_0
 62
     7
100
AcDbSpline
210
0.0
220
0.0
230
1.0
 70
     8
 71
     3
 72
    11
 73
     7
 74
     0
 42
0.0000000001
 43
0.0000000001
 40
3.410084786475225
 40
3.410084786475225
 40
3.410084786475225
 40
3.410084786475225
 40
3.425376740191334
 40
3.724741303955335
 40
4.066164655196435
 40
4.429019546466998
 40
4.429019546466998
 40
4.429019546466998
 40
4.429019546466998
 10
19.25932247860796
 20
47.84532920625469
 30
0.0
 10
19.22999292009489
 20
47.84307380556659
 30
0.0
 10
18.62669545641368
 20
47.79388123458622
 30
0.0
 10
17.36497069338486
 20
47.74248096327469
 30
0.0
 10
15.43473937773674
 20
47.70696309648938
 30
0.0
 10
14.07986111745723
 20
47.6990275506062
 30
0.0
 10
13.38184047170986
 20
47.6996768099158
 30
0.0
  0
SPLINE
  5
1D6
330
1F
100
AcDbEntity
  8
IGES_LEVEL_0
 62
     7
100
AcDbSpline
210
0.0
220
0.0
230
1.0
 70
     8
 71
     3
 72
    11
 73
     7
 74
     0
 42
0.0000000001
 43
0.0000000001
 40
4.429019546466998
 40
4.429019546466998
 40
4.429019546466998
 40
4.429019546466998
 40
4.791874437737562
 40
5.133297788978661
 40
5.432662352742661
 40
5.447954306458771
 40
5.447954306458771
 40
5.447954306458771
 40
5.447954306458771
 10
13.38184047170986
 20
47.6996768099158
 30
0.0
 10
12.6838186181529
 20
47.70032607034884
 30
0.0
 10
11.32894156568298
 20
47.70696309648938
 30
0.0
 10
9.398710250034858
 20
47.74248096327469
 30
0.0
 10
8.136985487006049
 20
47.79388123458622
 30
0.0
 10
7.533688023324829
 20
47.84307380556659
 30
0.0
 10
7.504358464811761
 20
47.84532920625469
 30
0.0
  0
SPLINE
  5
1D7
330
1F
100
AcDbEntity
  8
IGES_LEVEL_0
 62
     7
100
AcDbSpline
210
0.0
220
0.0
230
1.0
 70
     8
 71
     3
 72
    14
 73
    10
 74
     0
 42
0.0000000001
 43
0.0000000001
 40
5.447954306458771
 40
5.447954306458771
 40
5.447954306458771
 40
5.447954306458771
 40
5.593161039876071
 40
5.80152639227777
 40
5.997858320230271
 40
6.18193664850717
 40
6.35517887493729
 40
6.447954306458771
 40
6.451762205725622
 40
6.451762205725622
 40
6.451762205725622
 40
6.451762205725622
 10
7.504358464811761
 20
47.84532920625469
 30
0.0
 10
7.358624774512368
 20
47.8565359165512
 30
0.0
 10
7.004190896813361
 20
47.88916083767468
 30
0.0
 10
6.454130385940861
 20
47.95196807421468
 30
0.0
 10
5.86850753804486
 20
48.04467531384469
 30
0.0
 10
5.324273726408863
 20
48.16719442560468
 30
0.0
 10
4.892832511688859
 20
48.30852878657468
 30
0.0
 10
4.644893865169997
 20
48.42107449802585
 30
0.0
 10
4.558075908187679
 20
48.46505552050334
 30
0.0
 10
4.554668952288861
 20
48.46679585168468
 30
0.0
  0
SPLINE
  5
1D8
330
1F
100
AcDbEntity
  8
IGES_LEVEL_0
 62
     7
100
AcDbSpline
210
0.0
220
0.0
230
1.0
 70
     8
 71
     3
 72
    15
 73
    11
 74
     0
 42
0.0000000001
 43
0.0000000001
 40
6.451762205725622
 40
6.451762205725622
 40
6.451762205725622
 40
6.451762205725622
 40
6.536198367803822
 40
6.701820851688022
 40
6.854589435339622
 40
7.019128673222922
 40
7.204769942547122
 40
7.414910715782612
 40
7.451762205725622
 40
7.858039092933995
 40
7.858039092933995
 40
7.858039092933995
 40
7.858039092933995
 10
4.554668952288861
 20
48.46679585168468
 30
0.0
 10
4.490600888681861
 20
48.49952291130468
 30
0.0
 10
4.305146212071861
 20
48.60467772195469
 30
0.0
 10
4.03427558441886
 20
48.82036359920468
 30
0.0
 10
3.786117665462859
 20
49.15321512989468
 30
0.0
 10
3.617721629306861
 20
49.55023619547468
 30
0.0
 10
3.514902829628862
 20
50.01757115505468
 30
0.0
 10
3.47884506248086
 20
50.3843676071447
 30
0.0
 10
3.444674179100281
 20
50.93927178754085
 30
0.0
 10
3.44245693432896
 20
51.3167521188195
 30
0.0
 10
3.442456569328861
 20
51.65850195586468
 30
0.0
  0
LINE
  5
1D9
330
1F
100
AcDbEntity
  8
IGES_LEVEL_0
 62
     7
100
AcDbLine
 10
3.442456569328861
 20
51.65850195586468
 30
0.0
 11
3.442453569328861
 21
54.46740395586468
 31
0.0
  0
ARC
  5
1DA
330
1F
100
AcDbEntity
  8
DEFAULT
 62
     7
100
AcDbCircle
 10
4.275295866469385
 20
54.13001849834762
 30
0.0
 40
11.87303695923321
100
AcDbArc
 50
92.75267229608726
 51
99.54443846721821
  0
ARC
  5
1DB
330
1F
100
AcDbEntity
  8
DEFAULT
 62
     7
100
AcDbCircle
 10
2.323178977231171
 20
65.74008477267275
 30
0.0
 40
0.1000000000000298
100
AcDbArc
 50
99.54443846722906
 51
178.0000338015607
  0
LINE
  5
1DC
330
1F
100
AcDbEntity
  8
DEFAULT
 62
     7
100
AcDbLine
 10
2.223239892470363
 20
65.74357466338408
 30
0.0
 11
1.77302131492786
 21
52.85078336884468
 31
0.0
  0
ARC
  5
1DD
330
1F
100
AcDbEntity
  8
DEFAULT
 62
     7
100
AcDbCircle
 10
1.844881325804556
 20
52.85390265261533
 30
0.0
 40
0.0719276796125153
100
AcDbArc
 50
182.485522453885
 51
257.7090693234711
  0
ARC
  5
1DE
330
1F
100
AcDbEntity
  8
DEFAULT
 62
     7
100
AcDbCircle
 10
2.56589814155431
 20
59.62433842632242
 30
0.0
 40
6.880229564415868
100
AcDbArc
 50
263.8563872676043
 51
276.1439730425967
  0
SPLINE
  5
1DF
330
1F
100
AcDbEntity
  8
DEFAULT
 62
     7
100
AcDbSpline
210
0.0
220
0.0
230
1.0
 70
     8
 71
     3
 72
    67
 73
    63
 74
     0
 42
0.0000000001
 43
0.0000000001
 40
35.64232829617765
 40
35.64232829617765
 40
35.64232829617765
 40
35.64232829617765
 40
35.65075418946924
 40
35.65833044375975
 40
35.66262593348682
 40
35.66524678666185
 40
35.667322133315
 40
35.66929509389959
 40
35.67136399961362
 40
35.67361933324354
 40
35.6761341290068
 40
35.67897049748508
 40
35.68217983529657
 40
35.68581438754894
 40
35.68992297334633
 40
35.69455928123399
 40
35.69977147182595
 40
35.70559586964116
 40
35.7120600802964
 40
35.71918967719073
 40
35.72700264423544
 40
35.73552123660467
 40
35.74477567147595
 40
35.75479356389744
 40
35.76560543532884
 40
35.77724077866334
 40
35.78973171744295
 40
35.80309984897485
 40
35.81735745802364
 40
35.83251086409425
 40
35.84856796331395
 40
35.86554267488765
 40
35.88343455578705
 40
35.90223508626654
 40
35.92191731606594
 40
35.94245158650544
 40
35.96381000964274
 40
35.98597281797424
 40
36.00891982997874
 40
36.03262859224255
 40
36.05706945195244
 40
36.08221247519525
 40
36.10803246775345
 40
36.13450176107175
 40
36.16158917461394
 40
36.18926278422005
 40
36.21749032916515
 40
36.24624107451314
 40
36.27548629284635
 40
36.30520269252924
 40
36.33537077555644
 40
36.36597231287705
 40
36.39698882111554
 40
36.42840575392904
 40
36.46020961671245
 40
36.49238840382164
 40
36.52493380642424
 40
36.55783751548604
 40
36.59109269194605
 40
36.62469486449395
 40
36.64232829617765
 40
39.71615956679787
 40
39.71615956679787
 40
39.71615956679787
 40
39.71615956679787
 10
3.302269632928861
 20
52.78362823762469
 30
0.0
 10
3.311401481325862
 20
52.7846112397747
 30
0.0
 10
3.32826186537686
 20
52.79048096308467
 30
0.0
 10
3.344456164146862
 20
52.80599681476469
 30
0.0
 10
3.351984985089859
 20
52.81976302205469
 30
0.0
 10
3.35523187309986
 20
52.82888834012469
 30
0.0
 10
3.357059836445861
 20
52.83582678357467
 30
0.0
 10
3.358416637999863
 20
52.8422642938847
 30
0.0
 10
3.359600481325859
 20
52.84893164235469
 30
0.0
 10
3.360721400178862
 20
52.85619963702467
 30
0.0
 10
3.36182834756286
 20
52.86430334906469
 30
0.0
 10
3.362950021226861
 20
52.87343938793469
 30
0.0
 10
3.364107000914861
 20
52.88378344901467
 30
0.0
 10
3.36531161877586
 20
52.89549811950469
 30
0.0
 10
3.366575435053863
 20
52.90874870311468
 30
0.0
 10
3.36791012247586
 20
52.92369623549469
 30
0.0
 10
3.369322757301862
 20
52.94048879124468
 30
0.0
 10
3.370811829529859
 20
52.95924704206468
 30
0.0
 10
3.372376781459863
 20
52.98006719214468
 30
0.0
 10
3.374019536574859
 20
53.00302551683469
 30
0.0
 10
3.37574018390386
 20
53.02819268904468
 30
0.0
 10
3.377548688059859
 20
53.05564375992469
 30
0.0
 10
3.379447507690863
 20
53.08546472632468
 30
0.0
 10
3.381434299352859
 20
53.11775078968469
 30
0.0
 10
3.383505744609861
 20
53.1525964116147
 30
0.0
 10
3.38565405959586
 20
53.19010114170467
 30
0.0
 10
3.387871054409859
 20
53.23035488965469
 30
0.0
 10
3.390152977242862
 20
53.27342873830467
 30
0.0
 10
3.39252859944986
 20
53.31936432393469
 30
0.0
 10
3.395009643495861
 20
53.36818952656468
 30
0.0
 10
3.397625219604858
 20
53.4199331424847
 30
0.0
 10
3.400332147121861
 20
53.47462034169467
 30
0.0
 10
3.403110680717862
 20
53.5322573557847
 30
0.0
 10
3.405941557303859
 20
53.59280633990469
 30
0.0
 10
3.408828464808861
 20
53.65619690161468
 30
0.0
 10
3.411783293107861
 20
53.72233748534469
 30
0.0
 10
3.414818127838861
 20
53.79114430921468
 30
0.0
 10
3.417919882773861
 20
53.86254491543469
 30
0.0
 10
3.421081878436861
 20
53.93647240374468
 30
0.0
 10
3.42428360653586
 20
54.01284981136467
 30
0.0
 10
3.427524923666861
 20
54.09158880057468
 30
0.0
 10
3.430815815461858
 20
54.17259769352469
 30
0.0
 10
3.43415407209586
 20
54.25578746191469
 30
0.0
 10
3.437535339183861
 20
54.34106782402468
 30
0.0
 10
3.440947226515861
 20
54.42834156976468
 30
0.0
 10
3.444390618446861
 20
54.51750602280469
 30
0.0
 10
3.447865718650861
 20
54.60845902255469
 30
0.0
 10
3.451376671960861
 20
54.7011017039547
 30
0.0
 10
3.454925804643862
 20
54.79534493083467
 30
0.0
 10
3.458496714631859
 20
54.89111236156469
 30
0.0
 10
3.462080892976863
 20
54.98833864272469
 30
0.0
 10
3.465677996661859
 20
55.08696329085468
 30
0.0
 10
3.469287701724863
 20
55.18693115264468
 30
0.0
 10
3.472912892304859
 20
55.28819205585468
 30
0.0
 10
3.476559670580861
 20
55.39070268828468
 30
0.0
 10
3.480233508333861
 20
55.49442647677467
 30
0.0
 10
3.483932957490862
 20
55.59933267440469
 30
0.0
 10
3.48765982071486
 20
55.70539597837468
 30
0.0
 10
3.49141458700286
 20
55.81259526199469
 30
0.0
 10
3.49458322517286
 20
55.90338610836469
 30
0.0
 10
3.611474533071961
 20
59.26148469558814
 30
0.0
 10
3.710002128810779
 20
62.58407036317421
 30
0.0
 10
3.809853440361822
 20
65.88644887476045
 30
0.0
  0
ARC
  5
1E0
330
1F
100
AcDbEntity
  8
DEFAULT
 62
     7
100
AcDbCircle
 10
3.709899120372255
 20
65.88947111158494
 30
0.0
 40
0.1
100
AcDbArc
 50
358.2681221373147
 51
92.75267229609005
  0
ARC
  5
1E1
330
1F
100
AcDbEntity
  8
DEFAULT
 62
     7
100
AcDbCircle
 10
22.48838507694842
 20
54.13001849832875
 30
0.0
 40
11.87303695925214
100
AcDbArc
 50
80.4555615327878
 51
87.24732770391096
  0
ARC
  5
1E2
330
1F
100
AcDbEntity
  8
DEFAULT
 62
     7
100
AcDbCircle
 10
24.44050196618859
 20
65.74008477267276
 30
0.0
 40
0.0999999999999973
100
AcDbArc
 50
1.999966198431761
 51
80.45556153279168
  0
LINE
  5
1E3
330
1F
100
AcDbEntity
  8
DEFAULT
 62
     7
100
AcDbLine
 10
24.54044105094936
 20
65.74357466338408
 30
0.0
 11
24.99065962849186
 21
52.85078336884468
 31
0.0
  0
ARC
  5
1E4
330
1F
100
AcDbEntity
  8
DEFAULT
 62
     7
100
AcDbCircle
 10
24.91879961761517
 20
52.85390265261532
 30
0.0
 40
0.0719276796125098
100
AcDbArc
 50
282.2909306765257
 51
357.5144775461205
  0
ARC
  5
1E5
330
1F
100
AcDbEntity
  8
DEFAULT
 62
     7
100
AcDbCircle
 10
24.1977828018654
 20
59.62433842631333
 30
0.0
 40
6.880229564406825
100
AcDbArc
 50
263.8560269573953
 51
276.1436127324039
  0
SPLINE
  5
1E6
330
1F
100
AcDbEntity
  8
DEFAULT
 62
     7
100
AcDbSpline
210
0.0
220
0.0
230
1.0
 70
     8
 71
     3
 72
    67
 73
    63
 74
     0
 42
0.0000000001
 43
0.0000000001
 40
35.64232829617764
 40
35.64232829617764
 40
35.64232829617764
 40
35.64232829617764
 40
35.65075418946923
 40
35.65833044375975
 40
35.66262593348682
 40
35.66524678666184
 40
35.667322133315
 40
35.66929509389958
 40
35.6713639996136
 40
35.67361933324353
 40
35.67613412900679
 40
35.67897049748508
 40
35.68217983529656
 40
35.68581438754893
 40
35.68992297334632
 40
35.69455928123398
 40
35.69977147182594
 40
35.70559586964114
 40
35.71206008029639
 40
35.71918967719072
 40
35.72700264423543
 40
35.73552123660465
 40
35.74477567147594
 40
35.75479356389744
 40
35.76560543532884
 40
35.77724077866333
 40
35.78973171744294
 40
35.80309984897484
 40
35.81735745802364
 40
35.83251086409424
 40
35.84856796331394
 40
35.86554267488764
 40
35.88343455578704
 40
35.90223508626654
 40
35.92191731606594
 40
35.94245158650544
 40
35.96381000964274
 40
35.98597281797424
 40
36.00891982997874
 40
36.03262859224254
 40
36.05706945195244
 40
36.08221247519523
 40
36.10803246775344
 40
36.13450176107174
 40
36.16158917461394
 40
36.18926278422003
 40
36.21749032916514
 40
36.24624107451314
 40
36.27548629284634
 40
36.30520269252924
 40
36.33537077555643
 40
36.36597231287704
 40
36.39698882111554
 40
36.42840575392903
 40
36.46020961671244
 40
36.49238840382164
 40
36.52493380642424
 40
36.55783751548604
 40
36.59109269194604
 40
36.62469486449394
 40
36.64232829617764
 40
39.71615956679805
 40
39.71615956679805
 40
39.71615956679805
 40
39.71615956679805
 10
23.46141131049086
 20
52.78362823762469
 30
0.0
 10
23.45227946209387
 20
52.7846112397747
 30
0.0
 10
23.43541907804286
 20
52.79048096308467
 30
0.0
 10
23.41922477927287
 20
52.80599681476469
 30
0.0
 10
23.41169595832986
 20
52.81976302205469
 30
0.0
 10
23.40844907031986
 20
52.82888834012469
 30
0.0
 10
23.40662110697387
 20
52.83582678357467
 30
0.0
 10
23.40526430541986
 20
52.8422642938847
 30
0.0
 10
23.40408046209387
 20
52.84893164235469
 30
0.0
 10
23.40295954324086
 20
52.85619963702467
 30
0.0
 10
23.40185259585687
 20
52.86430334906469
 30
0.0
 10
23.40073092219286
 20
52.87343938793469
 30
0.0
 10
23.39957394250486
 20
52.88378344901467
 30
0.0
 10
23.39836932464387
 20
52.89549811950469
 30
0.0
 10
23.39710550836586
 20
52.90874870311468
 30
0.0
 10
23.39577082094386
 20
52.92369623549469
 30
0.0
 10
23.39435818611787
 20
52.94048879124468
 30
0.0
 10
23.39286911388986
 20
52.95924704206468
 30
0.0
 10
23.39130416195987
 20
52.98006719214468
 30
0.0
 10
23.38966140684486
 20
53.00302551683469
 30
0.0
 10
23.38794075951586
 20
53.02819268904468
 30
0.0
 10
23.38613225535986
 20
53.05564375992469
 30
0.0
 10
23.38423343572886
 20
53.08546472632468
 30
0.0
 10
23.38224664406687
 20
53.11775078968469
 30
0.0
 10
23.38017519880986
 20
53.1525964116147
 30
0.0
 10
23.37802688382386
 20
53.19010114170467
 30
0.0
 10
23.37580988900986
 20
53.23035488965469
 30
0.0
 10
23.37352796617687
 20
53.27342873830467
 30
0.0
 10
23.37115234396986
 20
53.31936432393469
 30
0.0
 10
23.36867129992386
 20
53.36818952656468
 30
0.0
 10
23.36605572381486
 20
53.4199331424847
 30
0.0
 10
23.36334879629787
 20
53.47462034169467
 30
0.0
 10
23.36057026270187
 20
53.5322573557847
 30
0.0
 10
23.35773938611586
 20
53.59280633990469
 30
0.0
 10
23.35485247861087
 20
53.65619690161468
 30
0.0
 10
23.35189765031186
 20
53.72233748534469
 30
0.0
 10
23.34886281558086
 20
53.79114430921468
 30
0.0
 10
23.34576106064586
 20
53.86254491543469
 30
0.0
 10
23.34259906498286
 20
53.93647240374468
 30
0.0
 10
23.33939733688386
 20
54.01284981136467
 30
0.0
 10
23.33615601975286
 20
54.09158880057468
 30
0.0
 10
23.33286512795786
 20
54.17259769352469
 30
0.0
 10
23.32952687132386
 20
54.25578746191469
 30
0.0
 10
23.32614560423587
 20
54.34106782402468
 30
0.0
 10
23.32273371690386
 20
54.42834156976468
 30
0.0
 10
23.31929032497286
 20
54.51750602280469
 30
0.0
 10
23.31581522476886
 20
54.60845902255469
 30
0.0
 10
23.31230427145887
 20
54.7011017039547
 30
0.0
 10
23.30875513877586
 20
54.79534493083467
 30
0.0
 10
23.30518422878787
 20
54.89111236156469
 30
0.0
 10
23.30160005044286
 20
54.98833864272469
 30
0.0
 10
23.29800294675787
 20
55.08696329085468
 30
0.0
 10
23.29439324169486
 20
55.18693115264468
 30
0.0
 10
23.29076805111487
 20
55.28819205585468
 30
0.0
 10
23.28712127283887
 20
55.39070268828468
 30
0.0
 10
23.28344743508586
 20
55.49442647677467
 30
0.0
 10
23.27974798592886
 20
55.59933267440469
 30
0.0
 10
23.27602112270486
 20
55.70539597837468
 30
0.0
 10
23.27226635641686
 20
55.81259526199469
 30
0.0
 10
23.26909771824687
 20
55.90338610836469
 30
0.0
 10
23.15220641034779
 20
59.2614846955883
 30
0.0
 10
23.0536788145886
 20
62.58407036317468
 30
0.0
 10
22.95382750305724
 20
65.88644887476106
 30
0.0
  0
ARC
  5
1E7
330
1F
100
AcDbEntity
  8
DEFAULT
 62
     7
100
AcDbCircle
 10
23.05378182304683
 20
65.88947111158497
 30
0.0
 40
0.1
100
AcDbArc
 50
87.24732770391289
 51
181.7318778623513
  0
ARC
  5
1E8
330
1F
100
AcDbEntity
  8
IGES_LEVEL_0
 62
     7
100
AcDbCircle
 10
0.061585077274703
 20
0.3693296928744032
 30
0.0
 40
0.0393699916941807
100
AcDbArc
 50
182.0000107679837
 51
270.0
  0
ARC
  5
1E9
330
1F
100
AcDbEntity
  8
IGES_LEVEL_0
 62
     7
100
AcDbCircle
 10
0.8318340772747028
 20
0.4611936928744034
 30
0.0
 40
0.4461943235296068
100
AcDbArc
 50
270.0
 51
331.9274375287829
  0
ARC
  5
1EA
330
1F
100
AcDbEntity
  8
IGES_LEVEL_0
 62
     7
100
AcDbCircle
 10
0.4381330772747027
 20
0.4611936928744034
 30
0.0
 40
0.44619476470589
100
AcDbArc
 50
208.072502042896
 51
270.0
  0
LINE
  5
1EB
330
1F
100
AcDbEntity
  8
IGES_LEVEL_0
 62
     7
100
AcDbLine
 10
0.0444320772747026
 20
0.2512196928744035
 30
0.0
 11
0.0444320772747026
 21
0.3299596928744033
 31
0.0
  0
LINE
  5
1EC
330
1F
100
AcDbEntity
  8
IGES_LEVEL_0
 62
     7
100
AcDbLine
 10
1.225534077274705
 20
0.2512196928744035
 30
0.0
 11
1.225534077274705
 21
0.3299596928744033
 31
0.0
  0
LINE
  5
1ED
330
1F
100
AcDbEntity
  8
IGES_LEVEL_0
 62
     7
100
AcDbLine
 10
1.447191077274702
 20
0.3299596928744033
 30
0.0
 11
0.0444320772747027
 21
0.3299596928744033
 31
0.0
  0
LINE
  5
1EE
330
1F
100
AcDbEntity
  8
IGES_LEVEL_0
 62
     7
100
AcDbLine
 10
1.225534077274705
 20
0.2512196928744035
 30
0.0
 11
0.0444320772747027
 21
0.2512196928744035
 31
0.0
  0
LINE
  5
1EF
330
1F
100
AcDbEntity
  8
IGES_LEVEL_0
 62
     7
100
AcDbLine
 10
0.8318280772747038
 20
0.0149986928744035
 30
0.0
 11
0.4381380772747043
 21
0.0149986928744035
 31
0.0
  0
SPLINE
  5
1F0
330
1F
100
AcDbEntity
  8
IGES_LEVEL_0
 62
     7
100
AcDbSpline
210
0.0
220
0.0
230
1.0
 70
     8
 71
     2
 72
     7
 73
     4
 74
     0
 42
0.0000000001
 43
0.0000000001
 40
0.0
 40
0.0
 40
0.0
 40
1.0
 40
1.171984079643329
 40
1.171984079643329
 40
1.171984079643329
 10
1.447191077274702
 20
0.3299596928744033
 30
0.0
 10
6.268305577274699
 20
0.5226256928744024
 30
0.0
 10
11.91857501741231
 20
0.7484271775629661
 30
0.0
 10
12.7472160772747
 20
0.7637836928744033
 30
0.0
  0
SPLINE
  5
1F1
330
1F
100
AcDbEntity
  8
IGES_LEVEL_0
 62
     7
100
AcDbSpline
210
0.0
220
0.0
230
1.0
 70
     8
 71
     2
 72
     8
 73
     5
 74
     0
 42
0.0000000001
 43
0.0000000001
 40
-0.0399370913856113
 40
-0.0399370913856113
 40
-0.0399370913856113
 40
0.0
 40
1.0
 40
1.053813916997408
 40
1.053813916997408
 40
1.053813916997408
 10
12.06458410321688
 20
2.183545333903691
 30
0.0
 10
11.84502081644677
 20
2.167680028026653
 30
0.0
 10
6.130269077274708
 20
1.668366192874401
 30
0.0
 10
0.3392602125936861
 20
1.162389559488144
 30
0.0
 10
0.049221077274705
 20
1.111624692874404
 30
0.0
  0
SPLINE
  5
1F2
330
1F
100
AcDbEntity
  8
IGES_LEVEL_0
 62
     7
100
AcDbSpline
210
0.0
220
0.0
230
1.0
 70
     8
 71
     2
 72
     8
 73
     5
 74
     0
 42
0.0000000001
 43
0.0000000001
 40
-0.2312777357512291
 40
-0.2312777357512291
 40
-0.2312777357512291
 40
-0.0962096074475094
 40
0.0
 40
1.0
 40
1.0
 40
1.0
 10
0.049221077274705
 20
1.111624692874404
 30
0.0
 10
0.0017755473135174
 20
1.096530052134619
 30
0.0
 10
-0.0006892634115588
 20
1.024530466119113
 30
0.0
 10
0.0113010772747053
 20
0.6811756928744051
 30
0.0
 10
0.0222390772747047
 20
0.3679556928744034
 30
0.0
  0
SPLINE
  5
1F3
330
1F
100
AcDbEntity
  8
IGES_LEVEL_0
 62
     7
100
AcDbSpline
210
0.0
220
0.0
230
1.0
 70
     8
 71
     2
 72
     8
 73
     5
 74
     0
 42
0.0000000001
 43
0.0000000001
 40
-0.0831005079148954
 40
-0.0831005079148954
 40
-0.0831005079148954
 40
0.0
 40
1.0
 40
1.056742878440953
 40
1.056742878440953
 40
1.056742878440953
 10
12.53206307727471
 20
1.944764692874404
 30
0.0
 10
12.08264771750017
 20
1.980929202913888
 30
0.0
 10
6.125075577274703
 20
1.509574692874398
 30
0.0
 10
0.3124830376392502
 20
1.049690759605686
 30
0.0
 10
0.0003694662947033
 20
1.025003741862404
 30
0.0
  0
SPLINE
  5
1F4
330
1F
100
AcDbEntity
  8
IGES_LEVEL_0
 62
     7
100
AcDbSpline
210
0.0
220
0.0
230
1.0
 70
     8
 71
     2
 72
     8
 73
     5
 74
     0
 42
0.0000000001
 43
0.0000000001
 40
-0.0831005079148954
 40
-0.0831005079148954
 40
-0.0831005079148954
 40
0.0
 40
1.0
 40
1.056742878440953
 40
1.056742878440953
 40
1.056742878440953
 10
14.22609307727471
 20
1.944764692874404
 30
0.0
 10
14.67550843704924
 20
1.980929202913888
 30
0.0
 10
20.63308057727471
 20
1.509574692874398
 30
0.0
 10
26.44567311691016
 20
1.049690759605686
 30
0.0
 10
26.75778668825471
 20
1.025003741862404
 30
0.0
  0
SPLINE
  5
1F5
330
1F
100
AcDbEntity
  8
IGES_LEVEL_0
 62
     7
100
AcDbSpline
210
0.0
220
0.0
230
1.0
 70
     8
 71
     2
 72
     8
 73
     5
 74
     0
 42
0.0000000001
 43
0.0000000001
 40
-0.2312777357512291
 40
-0.2312777357512291
 40
-0.2312777357512291
 40
-0.0962096074475094
 40
0.0
 40
1.0
 40
1.0
 40
1.0
 10
26.70893507727471
 20
1.111624692874404
 30
0.0
 10
26.75638060723589
 20
1.096530052134619
 30
0.0
 10
26.75884541796097
 20
1.024530466119113
 30
0.0
 10
26.74685507727471
 20
0.6811756928744051
 30
0.0
 10
26.73591707727471
 20
0.3679556928744034
 30
0.0
  0
SPLINE
  5
1F6
330
1F
100
AcDbEntity
  8
IGES_LEVEL_0
 62
     7
100
AcDbSpline
210
0.0
220
0.0
230
1.0
 70
     8
 71
     2
 72
     8
 73
     5
 74
     0
 42
0.0000000001
 43
0.0000000001
 40
-0.0399370913856113
 40
-0.0399370913856113
 40
-0.0399370913856113
 40
0.0
 40
1.0
 40
1.053813916997408
 40
1.053813916997408
 40
1.053813916997408
 10
14.69357205133253
 20
2.183545333903691
 30
0.0
 10
14.91313533810264
 20
2.167680028026653
 30
0.0
 10
20.6278870772747
 20
1.668366192874401
 30
0.0
 10
26.41889594195573
 20
1.162389559488144
 30
0.0
 10
26.70893507727471
 20
1.111624692874404
 30
0.0
  0
ARC
  5
1F7
330
1F
100
AcDbEntity
  8
DEFAULT
 62
     7
100
AcDbCircle
 10
12.81326962810056
 20
0.369912811669997
 30
0.0
 40
0.0469941009368686
100
AcDbArc
 50
182.6577611687751
 51
238.2304977948549
  0
LINE
  5
1F8
330
1F
100
AcDbEntity
  8
DEFAULT
 62
     7
100
AcDbLine
 10
12.76632607727471
 20
0.3677336928744031
 30
0.0
 11
12.74661907727471
 21
0.7922706928744034
 31
0.0
  0
ARC
  5
1F9
330
1F
100
AcDbEntity
  8
DEFAULT
 62
     7
100
AcDbCircle
 10
13.94488652644885
 20
0.3699128116699971
 30
0.0
 40
0.0469941009368722
100
AcDbArc
 50
301.7695022051527
 51
357.342238831225
  0
LINE
  5
1FA
330
1F
100
AcDbEntity
  8
DEFAULT
 62
     7
100
AcDbLine
 10
13.99183007727471
 20
0.3677336928744031
 30
0.0
 11
14.01153707727471
 21
0.7922706928744034
 31
0.0
  0
LINE
  5
1FB
330
1F
100
AcDbEntity
  8
DEFAULT
 62
     7
100
AcDbLine
 10
12.74661907727471
 20
0.7922706928744034
 30
0.0
 11
12.74315707727471
 21
1.019434692874403
 31
0.0
  0
LINE
  5
1FC
330
1F
100
AcDbEntity
  8
DEFAULT
 62
     7
100
AcDbLine
 10
12.74315707727471
 20
1.019434692874403
 30
0.0
 11
12.74174976343571
 21
1.074385076163404
 31
0.0
  0
LINE
  5
1FD
330
1F
100
AcDbEntity
  8
DEFAULT
 62
     7
100
AcDbLine
 10
14.01153707727471
 20
0.7922706928744034
 30
0.0
 11
14.01499907727471
 21
1.019434692874403
 31
0.0
  0
LINE
  5
1FE
330
1F
100
AcDbEntity
  8
DEFAULT
 62
     7
100
AcDbLine
 10
14.01499907727471
 20
1.019434692874403
 30
0.0
 11
14.01640639111371
 21
1.074385076163404
 31
0.0
  0
LINE
  5
1FF
330
1F
100
AcDbEntity
  8
DEFAULT
 62
     7
100
AcDbLine
 10
14.22609307727471
 20
1.944764692874404
 30
0.0
 11
14.01640639111371
 21
1.074385076163404
 31
0.0
  0
LINE
  5
200
330
1F
100
AcDbEntity
  8
DEFAULT
 62
     7
100
AcDbLine
 10
12.53206307727471
 20
1.944764692874404
 30
0.0
 11
12.74174976343571
 21
1.074385076163404
 31
0.0
  0
SPLINE
  5
201
330
1F
100
AcDbEntity
  8
IGES_LEVEL_0
 62
     7
100
AcDbSpline
210
0.0
220
0.0
230
1.0
 70
     8
 71
     2
 72
     7
 73
     4
 74
     0
 42
0.0000000001
 43
0.0000000001
 40
0.0
 40
0.0
 40
0.0
 40
1.0
 40
1.171984079643329
 40
1.171984079643329
 40
1.171984079643329
 10
25.31096507727471
 20
0.3299596928744033
 30
0.0
 10
20.48985057727471
 20
0.5226256928744024
 30
0.0
 10
14.8395811371371
 20
0.7484271775629661
 30
0.0
 10
14.01094007727471
 20
0.7637836928744033
 30
0.0
  0
LINE
  5
202
330
1F
100
AcDbEntity
  8
IGES_LEVEL_0
 62
     7
100
AcDbLine
 10
13.18223307727471
 20
0.0149986928744035
 30
0.0
 11
13.57592307727471
 21
0.0149986928744035
 31
0.0
  0
LINE
  5
203
330
1F
100
AcDbEntity
  8
IGES_LEVEL_0
 62
     7
100
AcDbLine
 10
25.92632807727471
 20
0.0149986928744035
 30
0.0
 11
26.32001807727471
 21
0.0149986928744035
 31
0.0
  0
LINE
  5
204
330
1F
100
AcDbEntity
  8
IGES_LEVEL_0
 62
     7
100
AcDbLine
 10
12.78852707727471
 20
0.2512196928744035
 30
0.0
 11
13.96962907727471
 21
0.2512196928744035
 31
0.0
  0
LINE
  5
205
330
1F
100
AcDbEntity
  8
IGES_LEVEL_0
 62
     7
100
AcDbLine
 10
25.53262207727471
 20
0.2512196928744035
 30
0.0
 11
26.71372407727471
 21
0.2512196928744035
 31
0.0
  0
LINE
  5
206
330
1F
100
AcDbEntity
  8
IGES_LEVEL_0
 62
     7
100
AcDbLine
 10
13.96962907727471
 20
0.3299596928744033
 30
0.0
 11
12.78852707727471
 21
0.3299596928744033
 31
0.0
  0
LINE
  5
207
330
1F
100
AcDbEntity
  8
IGES_LEVEL_0
 62
     7
100
AcDbLine
 10
25.31096507727471
 20
0.3299596928744033
 30
0.0
 11
26.71372407727471
 21
0.3299596928744033
 31
0.0
  0
LINE
  5
208
330
1F
100
AcDbEntity
  8
IGES_LEVEL_0
 62
     7
100
AcDbLine
 10
12.47221607727471
 20
2.692164692874404
 30
0.0
 11
14.28594107727471
 21
2.692164692874404
 31
0.0
  0
LINE
  5
209
330
1F
100
AcDbEntity
  8
IGES_LEVEL_0
 62
     7
100
AcDbLine
 10
14.16648007727471
 20
11.9047626928744
 30
0.0
 11
12.59167707727471
 21
11.9047626928744
 31
0.0
  0
LINE
  5
20A
330
1F
100
AcDbEntity
  8
IGES_LEVEL_0
 62
     7
100
AcDbLine
 10
12.59167707727471
 20
2.692164692874404
 30
0.0
 11
12.59167707727471
 21
11.9047626928744
 31
0.0
  0
LINE
  5
20B
330
1F
100
AcDbEntity
  8
IGES_LEVEL_0
 62
     7
100
AcDbLine
 10
12.78852707727471
 20
0.2512196928744035
 30
0.0
 11
12.78852707727471
 21
0.3299596928744033
 31
0.0
  0
LINE
  5
20C
330
1F
100
AcDbEntity
  8
IGES_LEVEL_0
 62
     7
100
AcDbLine
 10
12.42966807727471
 20
2.562482692874403
 30
0.0
 11
12.43287007727471
 21
2.654168692874403
 31
0.0
  0
LINE
  5
20D
330
1F
100
AcDbEntity
  8
IGES_LEVEL_0
 62
     7
100
AcDbLine
 10
14.32848907727471
 20
2.562482692874403
 30
0.0
 11
14.32528707727471
 21
2.654168692874403
 31
0.0
  0
LINE
  5
20E
330
1F
100
AcDbEntity
  8
IGES_LEVEL_0
 62
     7
100
AcDbLine
 10
13.96962907727471
 20
0.2512196928744035
 30
0.0
 11
13.96962907727471
 21
0.3299596928744033
 31
0.0
  0
LINE
  5
20F
330
1F
100
AcDbEntity
  8
IGES_LEVEL_0
 62
     7
100
AcDbLine
 10
14.16648007727471
 20
2.692164692874404
 30
0.0
 11
14.16648007727471
 21
11.9047626928744
 31
0.0
  0
LINE
  5
210
330
1F
100
AcDbEntity
  8
IGES_LEVEL_0
 62
     7
100
AcDbLine
 10
14.03953007727471
 20
1.137005692874403
 30
0.0
 11
14.03952907727471
 21
1.136998692874403
 31
0.0
  0
LINE
  5
211
330
1F
100
AcDbEntity
  8
IGES_LEVEL_0
 62
     7
100
AcDbLine
 10
25.53262207727471
 20
0.2512196928744035
 30
0.0
 11
25.53262207727471
 21
0.3299596928744033
 31
0.0
  0
LINE
  5
212
330
1F
100
AcDbEntity
  8
IGES_LEVEL_0
 62
     7
100
AcDbLine
 10
26.71372407727471
 20
0.2512196928744035
 30
0.0
 11
26.71372407727471
 21
0.3299596928744033
 31
0.0
  0
ARC
  5
213
330
1F
100
AcDbEntity
  8
IGES_LEVEL_0
 62
     7
100
AcDbCircle
 10
26.32002307727471
 20
0.4611936928744034
 30
0.0
 40
0.44619476470589
100
AcDbArc
 50
270.0
 51
331.927497957104
  0
ARC
  5
214
330
1F
100
AcDbEntity
  8
IGES_LEVEL_0
 62
     7
100
AcDbCircle
 10
25.92632207727471
 20
0.4611936928744034
 30
0.0
 40
0.4461943235296068
100
AcDbArc
 50
208.0725624712171
 51
270.0
  0
ARC
  5
215
330
1F
100
AcDbEntity
  8
IGES_LEVEL_0
 62
     7
100
AcDbCircle
 10
13.57592907727471
 20
0.4611936928744034
 30
0.0
 40
0.4461943235296055
100
AcDbArc
 50
270.0
 51
331.9274375287827
  0
ARC
  5
216
330
1F
100
AcDbEntity
  8
IGES_LEVEL_0
 62
     7
100
AcDbCircle
 10
13.18222807727471
 20
0.4611936928744034
 30
0.0
 40
0.44619476470589
100
AcDbArc
 50
208.0725020428959
 51
270.0
  0
ARC
  5
217
330
1F
100
AcDbEntity
  8
IGES_LEVEL_0
 62
     7
100
AcDbCircle
 10
12.47221607727471
 20
2.652794692874403
 30
0.0
 40
0.0393699916941817
100
AcDbArc
 50
90.0
 51
177.9999892320159
  0
ARC
  5
218
330
1F
100
AcDbEntity
  8
IGES_LEVEL_0
 62
     7
100
AcDbCircle
 10
14.28594107727471
 20
2.652794692874403
 30
0.0
 40
0.0393699916941817
100
AcDbArc
 50
2.000010767984051
 51
90.0
  0
ARC
  5
219
330
1F
100
AcDbEntity
  8
IGES_LEVEL_0
 62
     7
100
AcDbCircle
 10
26.69657107727471
 20
0.3693296928744032
 30
0.0
 40
0.0393699916941807
100
AcDbArc
 50
270.0
 51
357.9999892320163
  0
ARC
  5
21A
330
1F
100
AcDbEntity
  8
IGES_LEVEL_0
 62
     7
100
AcDbCircle
 10
12.03620707727471
 20
2.576221692874403
 30
0.0
 40
0.3937004024297452
100
AcDbArc
 50
274.1333335196276
 51
358.0001397536329
  0
ARC
  5
21B
330
1F
100
AcDbEntity
  8
IGES_LEVEL_0
 62
     7
100
AcDbCircle
 10
14.72195007727471
 20
2.576221692874403
 30
0.0
 40
0.3937004384692384
100
AcDbArc
 50
181.9998602463671
 51
265.8665213273553
  0
SPLINE
  5
21C
330
1F
100
AcDbEntity
  8
IGES_LEVEL_0
 62
     7
100
AcDbSpline
210
0.0
220
0.0
230
1.0
 70
     8
 71
     3
 72
    44
 73
    40
 74
     0
 42
0.0000000001
 43
0.0000000001
 40
0.0
 40
0.0
 40
0.0
 40
0.0
 40
0.004202116895445
 40
0.01114209413812
 40
0.02126579858186
 40
0.03463406027318
 40
0.05119668787664
 40
0.07085167722484
 40
0.09346368219027
 40
0.1188718499603
 40
0.14689414523
 40
0.1773303195177
 40
0.2099642997154
 40
0.2445663084395
 40
0.2808948522583
 40
0.3186986391399
 40
0.3577184523452
 40
0.3976889916465
 40
0.4383406848325
 40
0.4794014688698
 40
0.5205985311302001
 40
0.5616593151675
 40
0.6023110083535
 40
0.6422815476547999
 40
0.6813013608601
 40
0.7191051477417
 40
0.7554336915605
 40
0.7900357002846
 40
0.8226696804823001
 40
0.85310585477
 40
0.8811281500397
 40
0.9065363178097
 40
0.9291483227752
 40
0.9488033121234
 40
0.9653659397268
 40
0.9787342014181
 40
0.9888579058619
 40
0.9957978831046001
 40
1.0
 40
1.0
 40
1.0
 40
1.0
 10
12.74174976343571
 20
1.074385076163404
 30
0.0
 10
12.74217169176071
 20
1.072633713839403
 30
0.0
 10
12.74592661729171
 20
1.068995377497403
 30
0.0
 10
12.75412263539971
 20
1.065268642049403
 30
0.0
 10
12.76664069451971
 20
1.061294357287403
 30
0.0
 10
12.78337098039671
 20
1.057493701434404
 30
0.0
 10
12.80430903786471
 20
1.053740843867403
 30
0.0
 10
12.82927088343871
 20
1.050134761450403
 30
0.0
 10
12.85808010390071
 20
1.046678973637403
 30
0.0
 10
12.89051629200771
 20
1.043404772573403
 30
0.0
 10
12.92633993112671
 20
1.040331027997403
 30
0.0
 10
12.96528829284571
 20
1.037478908690404
 30
0.0
 10
13.00708008600571
 20
1.034867869482403
 30
0.0
 10
13.05141707209471
 20
1.032517282011404
 30
0.0
 10
13.09798654693571
 20
1.030446154830404
 30
0.0
 10
13.14646354001771
 20
1.028673336659403
 30
0.0
 10
13.19651308876071
 20
1.027217557950404
 30
0.0
 10
13.24779247659871
 20
1.026097367328404
 30
0.0
 10
13.29995345470071
 20
1.025331556420403
 30
0.0
 10
13.35264442769771
 20
1.024937610736403
 30
0.0
 10
13.40551228146971
 20
1.024937610736403
 30
0.0
 10
13.45820325446671
 20
1.025331556420403
 30
0.0
 10
13.51036423256871
 20
1.026097367328404
 30
0.0
 10
13.56164362040771
 20
1.027217557950404
 30
0.0
 10
13.61169316914971
 20
1.028673336659403
 30
0.0
 10
13.66017016223171
 20
1.030446154830404
 30
0.0
 10
13.70673963707271
 20
1.032517282011404
 30
0.0
 10
13.75107662316171
 20
1.034867869482403
 30
0.0
 10
13.79286841632271
 20
1.037478908690404
 30
0.0
 10
13.83181677804071
 20
1.040331027997403
 30
0.0
 10
13.86764041715971
 20
1.043404772573403
 30
0.0
 10
13.90007660526671
 20
1.046678973637403
 30
0.0
 10
13.92888582572971
 20
1.050134761450403
 30
0.0
 10
13.95384767130271
 20
1.053740843867403
 30
0.0
 10
13.97478572877071
 20
1.057493701434404
 30
0.0
 10
13.99151601464871
 20
1.061294357287403
 30
0.0
 10
14.00403407376771
 20
1.065268642049403
 30
0.0
 10
14.01223009187571
 20
1.068995377497403
 30
0.0
 10
14.01598501740671
 20
1.072633713839403
 30
0.0
 10
14.01640694573171
 20
1.074385076163404
 30
0.0
  0
SPLINE
  5
21D
330
1F
100
AcDbEntity
  8
IGES_LEVEL_0
 62
     7
100
AcDbSpline
210
0.0
220
0.0
230
1.0
 70
     8
 71
     3
 72
    44
 73
    40
 74
     0
 42
0.0000000001
 43
0.0000000001
 40
0.0
 40
0.0
 40
0.0
 40
0.0
 40
0.004202116895445
 40
0.01114209413812
 40
0.02126579858186
 40
0.03463406027318
 40
0.05119668787664
 40
0.07085167722484
 40
0.09346368219027
 40
0.1188718499603
 40
0.14689414523
 40
0.1773303195177
 40
0.2099642997154
 40
0.2445663084395
 40
0.2808948522583
 40
0.3186986391399
 40
0.3577184523452
 40
0.3976889916465
 40
0.4383406848325
 40
0.4794014688698
 40
0.5205985311302001
 40
0.5616593151675
 40
0.6023110083535
 40
0.6422815476547999
 40
0.6813013608601
 40
0.7191051477417
 40
0.7554336915605
 40
0.7900357002846
 40
0.8226696804823001
 40
0.85310585477
 40
0.8811281500397
 40
0.9065363178097
 40
0.9291483227752
 40
0.9488033121234
 40
0.9653659397268
 40
0.9787342014181
 40
0.9888579058619
 40
0.9957978831046001
 40
1.0
 40
1.0
 40
1.0
 40
1.0
 10
46.37386924345367
 20
1.074333537599956
 30
0.0
 10
46.37429117177867
 20
1.072582175275956
 30
0.0
 10
46.37804609730967
 20
1.068943838933956
 30
0.0
 10
46.38624211541767
 20
1.065217103485956
 30
0.0
 10
46.39876017453767
 20
1.061242818723956
 30
0.0
 10
46.41549046041467
 20
1.057442162870956
 30
0.0
 10
46.43642851788268
 20
1.053689305303956
 30
0.0
 10
46.46139036345667
 20
1.050083222886955
 30
0.0
 10
46.49019958391867
 20
1.046627435073956
 30
0.0
 10
46.52263577202567
 20
1.043353234009956
 30
0.0
 10
46.55845941114467
 20
1.040279489433956
 30
0.0
 10
46.59740777286367
 20
1.037427370126956
 30
0.0
 10
46.63919956602367
 20
1.034816330918956
 30
0.0
 10
46.68353655211267
 20
1.032465743447956
 30
0.0
 10
46.73010602695367
 20
1.030394616266956
 30
0.0
 10
46.77858302003567
 20
1.028621798095956
 30
0.0
 10
46.82863256877867
 20
1.027166019386957
 30
0.0
 10
46.87991195661667
 20
1.026045828764957
 30
0.0
 10
46.93207293471867
 20
1.025280017856956
 30
0.0
 10
46.98476390771567
 20
1.024886072172956
 30
0.0
 10
47.03763176148767
 20
1.024886072172956
 30
0.0
 10
47.09032273448467
 20
1.025280017856956
 30
0.0
 10
47.14248371258667
 20
1.026045828764957
 30
0.0
 10
47.19376310042567
 20
1.027166019386957
 30
0.0
 10
47.24381264916767
 20
1.028621798095956
 30
0.0
 10
47.29228964224967
 20
1.030394616266956
 30
0.0
 10
47.33885911709067
 20
1.032465743447956
 30
0.0
 10
47.38319610317967
 20
1.034816330918956
 30
0.0
 10
47.42498789634067
 20
1.037427370126956
 30
0.0
 10
47.46393625805867
 20
1.040279489433956
 30
0.0
 10
47.49975989717767
 20
1.043353234009956
 30
0.0
 10
47.53219608528467
 20
1.046627435073956
 30
0.0
 10
47.56100530574767
 20
1.050083222886955
 30
0.0
 10
47.58596715132067
 20
1.053689305303956
 30
0.0
 10
47.60690520878868
 20
1.057442162870956
 30
0.0
 10
47.62363549466667
 20
1.061242818723956
 30
0.0
 10
47.63615355378568
 20
1.065217103485956
 30
0.0
 10
47.64434957189367
 20
1.068943838933956
 30
0.0
 10
47.64810449742467
 20
1.072582175275956
 30
0.0
 10
47.64852642574967
 20
1.074333537599956
 30
0.0
  0
ARC
  5
21E
330
1F
100
AcDbEntity
  8
IGES_LEVEL_0
 62
     7
100
AcDbCircle
 10
48.35406955729267
 20
2.576170154310956
 30
0.0
 40
0.3937004384692384
100
AcDbArc
 50
181.9998602463671
 51
265.8665213273548
  0
ARC
  5
21F
330
1F
100
AcDbEntity
  8
IGES_LEVEL_0
 62
     7
100
AcDbCircle
 10
45.66832655729267
 20
2.576170154310956
 30
0.0
 40
0.3937004024297452
100
AcDbArc
 50
274.1333335196275
 51
358.0001397536329
  0
ARC
  5
220
330
1F
100
AcDbEntity
  8
IGES_LEVEL_0
 62
     7
100
AcDbCircle
 10
60.32869055729267
 20
0.369278154310956
 30
0.0
 40
0.0393699916941807
100
AcDbArc
 50
270.0
 51
357.9999892320165
  0
ARC
  5
221
330
1F
100
AcDbEntity
  8
IGES_LEVEL_0
 62
     7
100
AcDbCircle
 10
47.91806055729267
 20
2.652743154310956
 30
0.0
 40
0.0393699916941817
100
AcDbArc
 50
2.00001076798396
 51
90.0
  0
ARC
  5
222
330
1F
100
AcDbEntity
  8
IGES_LEVEL_0
 62
     7
100
AcDbCircle
 10
46.10433555729267
 20
2.652743154310956
 30
0.0
 40
0.0393699916941817
100
AcDbArc
 50
90.0
 51
177.9999892320161
  0
ARC
  5
223
330
1F
100
AcDbEntity
  8
IGES_LEVEL_0
 62
     7
100
AcDbCircle
 10
46.81434755729267
 20
0.4611421543109562
 30
0.0
 40
0.44619476470589
100
AcDbArc
 50
208.0725020428958
 51
270.0
  0
ARC
  5
224
330
1F
100
AcDbEntity
  8
IGES_LEVEL_0
 62
     7
100
AcDbCircle
 10
47.20804855729267
 20
0.4611421543109562
 30
0.0
 40
0.4461943235296055
100
AcDbArc
 50
270.0
 51
331.9274375287828
  0
ARC
  5
225
330
1F
100
AcDbEntity
  8
IGES_LEVEL_0
 62
     7
100
AcDbCircle
 10
59.55844155729267
 20
0.4611421543109562
 30
0.0
 40
0.4461943235296068
100
AcDbArc
 50
208.0725624712171
 51
270.0
  0
ARC
  5
226
330
1F
100
AcDbEntity
  8
IGES_LEVEL_0
 62
     7
100
AcDbCircle
 10
59.95214255729267
 20
0.4611421543109562
 30
0.0
 40
0.44619476470589
100
AcDbArc
 50
270.0
 51
331.9274979571042
  0
LINE
  5
227
330
1F
100
AcDbEntity
  8
IGES_LEVEL_0
 62
     7
100
AcDbLine
 10
60.34584355729267
 20
0.2511681543109563
 30
0.0
 11
60.34584355729267
 21
0.3299081543109561
 31
0.0
  0
LINE
  5
228
330
1F
100
AcDbEntity
  8
IGES_LEVEL_0
 62
     7
100
AcDbLine
 10
59.16474155729267
 20
0.2511681543109563
 30
0.0
 11
59.16474155729267
 21
0.3299081543109561
 31
0.0
  0
LINE
  5
229
330
1F
100
AcDbEntity
  8
IGES_LEVEL_0
 62
     7
100
AcDbLine
 10
47.67164955729267
 20
1.136954154310956
 30
0.0
 11
47.67164855729267
 21
1.136947154310956
 31
0.0
  0
LINE
  5
22A
330
1F
100
AcDbEntity
  8
IGES_LEVEL_0
 62
     7
100
AcDbLine
 10
47.79859955729268
 20
2.692113154310956
 30
0.0
 11
47.79859955729268
 21
11.90471115431096
 31
0.0
  0
LINE
  5
22B
330
1F
100
AcDbEntity
  8
IGES_LEVEL_0
 62
     7
100
AcDbLine
 10
47.60174855729267
 20
0.2511681543109563
 30
0.0
 11
47.60174855729267
 21
0.3299081543109561
 31
0.0
  0
LINE
  5
22C
330
1F
100
AcDbEntity
  8
IGES_LEVEL_0
 62
     7
100
AcDbLine
 10
47.96060855729267
 20
2.562431154310956
 30
0.0
 11
47.95740655729267
 21
2.654117154310956
 31
0.0
  0
LINE
  5
22D
330
1F
100
AcDbEntity
  8
IGES_LEVEL_0
 62
     7
100
AcDbLine
 10
46.06178755729268
 20
2.562431154310956
 30
0.0
 11
46.06498955729267
 21
2.654117154310956
 31
0.0
  0
LINE
  5
22E
330
1F
100
AcDbEntity
  8
IGES_LEVEL_0
 62
     7
100
AcDbLine
 10
46.42064655729267
 20
0.2511681543109563
 30
0.0
 11
46.42064655729267
 21
0.3299081543109561
 31
0.0
  0
LINE
  5
22F
330
1F
100
AcDbEntity
  8
IGES_LEVEL_0
 62
     7
100
AcDbLine
 10
46.22379655729267
 20
2.692113154310956
 30
0.0
 11
46.22379655729267
 21
11.90471115431096
 31
0.0
  0
LINE
  5
230
330
1F
100
AcDbEntity
  8
IGES_LEVEL_0
 62
     7
100
AcDbLine
 10
46.10433555729267
 20
2.692113154310956
 30
0.0
 11
47.91806055729267
 21
2.692113154310956
 31
0.0
  0
LINE
  5
231
330
1F
100
AcDbEntity
  8
IGES_LEVEL_0
 62
     7
100
AcDbLine
 10
58.94308455729267
 20
0.3299081543109561
 30
0.0
 11
60.34584355729267
 21
0.3299081543109561
 31
0.0
  0
LINE
  5
232
330
1F
100
AcDbEntity
  8
IGES_LEVEL_0
 62
     7
100
AcDbLine
 10
47.60174855729267
 20
0.3299081543109561
 30
0.0
 11
46.42064655729267
 21
0.3299081543109561
 31
0.0
  0
LINE
  5
233
330
1F
100
AcDbEntity
  8
IGES_LEVEL_0
 62
     7
100
AcDbLine
 10
59.16474155729267
 20
0.2511681543109563
 30
0.0
 11
60.34584355729267
 21
0.2511681543109563
 31
0.0
  0
LINE
  5
234
330
1F
100
AcDbEntity
  8
IGES_LEVEL_0
 62
     7
100
AcDbLine
 10
46.42064655729267
 20
0.2511681543109563
 30
0.0
 11
47.60174855729267
 21
0.2511681543109563
 31
0.0
  0
LINE
  5
235
330
1F
100
AcDbEntity
  8
IGES_LEVEL_0
 62
     7
100
AcDbLine
 10
59.55844755729267
 20
0.0149471543109563
 30
0.0
 11
59.95213755729267
 21
0.0149471543109563
 31
0.0
  0
LINE
  5
236
330
1F
100
AcDbEntity
  8
IGES_LEVEL_0
 62
     7
100
AcDbLine
 10
46.81435255729267
 20
0.0149471543109563
 30
0.0
 11
47.20804255729267
 21
0.0149471543109563
 31
0.0
  0
SPLINE
  5
237
330
1F
100
AcDbEntity
  8
IGES_LEVEL_0
 62
     7
100
AcDbSpline
210
0.0
220
0.0
230
1.0
 70
     8
 71
     2
 72
     7
 73
     4
 74
     0
 42
0.0000000001
 43
0.0000000001
 40
0.0
 40
0.0
 40
0.0
 40
1.0
 40
1.171984079643329
 40
1.171984079643329
 40
1.171984079643329
 10
58.94308455729267
 20
0.3299081543109561
 30
0.0
 10
54.12197005729267
 20
0.5225741543109552
 30
0.0
 10
48.47170061715507
 20
0.7483756389995189
 30
0.0
 10
47.64305955729267
 20
0.7637321543109561
 30
0.0
  0
LINE
  5
238
330
1F
100
AcDbEntity
  8
DEFAULT
 62
     7
100
AcDbLine
 10
46.16418255729267
 20
1.944713154310957
 30
0.0
 11
46.37386924345367
 21
1.074333537599956
 31
0.0
  0
LINE
  5
239
330
1F
100
AcDbEntity
  8
DEFAULT
 62
     7
100
AcDbLine
 10
47.85821255729267
 20
1.944713154310957
 30
0.0
 11
47.64852587113167
 21
1.074333537599956
 31
0.0
  0
LINE
  5
23A
330
1F
100
AcDbEntity
  8
DEFAULT
 62
     7
100
AcDbLine
 10
47.64365655729267
 20
0.7922191543109562
 30
0.0
 11
47.64711855729267
 21
1.019383154310956
 31
0.0
  0
LINE
  5
23B
330
1F
100
AcDbEntity
  8
DEFAULT
 62
     7
100
AcDbLine
 10
47.64711855729267
 20
1.019383154310956
 30
0.0
 11
47.64852587113167
 21
1.074333537599956
 31
0.0
  0
LINE
  5
23C
330
1F
100
AcDbEntity
  8
DEFAULT
 62
     7
100
AcDbLine
 10
46.37873855729266
 20
0.7922191543109562
 30
0.0
 11
46.37527655729267
 21
1.019383154310956
 31
0.0
  0
LINE
  5
23D
330
1F
100
AcDbEntity
  8
DEFAULT
 62
     7
100
AcDbLine
 10
46.37527655729267
 20
1.019383154310956
 30
0.0
 11
46.37386924345367
 21
1.074333537599956
 31
0.0
  0
ARC
  5
23E
330
1F
100
AcDbEntity
  8
DEFAULT
 62
     7
100
AcDbCircle
 10
47.57700600646682
 20
0.3698612731065504
 30
0.0
 40
0.0469941009368687
100
AcDbArc
 50
301.7695022051452
 51
357.3422388312243
  0
LINE
  5
23F
330
1F
100
AcDbEntity
  8
DEFAULT
 62
     7
100
AcDbLine
 10
47.62394955729267
 20
0.3676821543109559
 30
0.0
 11
47.64365655729267
 21
0.7922191543109562
 31
0.0
  0
ARC
  5
240
330
1F
100
AcDbEntity
  8
DEFAULT
 62
     7
100
AcDbCircle
 10
46.44538910811853
 20
0.3698612731065503
 30
0.0
 40
0.0469941009368758
100
AcDbArc
 50
182.6577611687754
 51
238.2304977948494
  0
LINE
  5
241
330
1F
100
AcDbEntity
  8
DEFAULT
 62
     7
100
AcDbLine
 10
46.39844555729267
 20
0.3676821543109559
 30
0.0
 11
46.37873855729266
 21
0.7922191543109562
 31
0.0
  0
SPLINE
  5
242
330
1F
100
AcDbEntity
  8
IGES_LEVEL_0
 62
     7
100
AcDbSpline
210
0.0
220
0.0
230
1.0
 70
     8
 71
     2
 72
     8
 73
     5
 74
     0
 42
0.0000000001
 43
0.0000000001
 40
-0.0399370913856113
 40
-0.0399370913856113
 40
-0.0399370913856113
 40
0.0
 40
1.0
 40
1.053813916997408
 40
1.053813916997408
 40
1.053813916997408
 10
48.32569153135049
 20
2.183493795340243
 30
0.0
 10
48.5452548181206
 20
2.167628489463206
 30
0.0
 10
54.26000655729267
 20
1.668314654310954
 30
0.0
 10
60.05101542197369
 20
1.162338020924696
 30
0.0
 10
60.34105455729267
 20
1.111573154310956
 30
0.0
  0
SPLINE
  5
243
330
1F
100
AcDbEntity
  8
IGES_LEVEL_0
 62
     7
100
AcDbSpline
210
0.0
220
0.0
230
1.0
 70
     8
 71
     2
 72
     8
 73
     5
 74
     0
 42
0.0000000001
 43
0.0000000001
 40
-0.2312777357512291
 40
-0.2312777357512291
 40
-0.2312777357512291
 40
-0.0962096074475094
 40
0.0
 40
1.0
 40
1.0
 40
1.0
 10
60.34105455729267
 20
1.111573154310956
 30
0.0
 10
60.38850008725385
 20
1.096478513571172
 30
0.0
 10
60.39096489797893
 20
1.024478927555666
 30
0.0
 10
60.37897455729267
 20
0.6811241543109579
 30
0.0
 10
60.36803655729267
 20
0.3679041543109562
 30
0.0
  0
SPLINE
  5
244
330
1F
100
AcDbEntity
  8
IGES_LEVEL_0
 62
     7
100
AcDbSpline
210
0.0
220
0.0
230
1.0
 70
     8
 71
     2
 72
     8
 73
     5
 74
     0
 42
0.0000000001
 43
0.0000000001
 40
-0.0831005079148954
 40
-0.0831005079148954
 40
-0.0831005079148954
 40
0.0
 40
1.0
 40
1.056742878440953
 40
1.056742878440953
 40
1.056742878440953
 10
47.85821255729267
 20
1.944713154310957
 30
0.0
 10
48.3076279170672
 20
1.98087766435044
 30
0.0
 10
54.26520005729267
 20
1.509523154310951
 30
0.0
 10
60.07779259692812
 20
1.049639221042239
 30
0.0
 10
60.38990616827267
 20
1.024952203298957
 30
0.0
  0
SPLINE
  5
245
330
1F
100
AcDbEntity
  8
IGES_LEVEL_0
 62
     7
100
AcDbSpline
210
0.0
220
0.0
230
1.0
 70
     8
 71
     2
 72
     8
 73
     5
 74
     0
 42
0.0000000001
 43
0.0000000001
 40
-0.0831005079148954
 40
-0.0831005079148954
 40
-0.0831005079148954
 40
0.0
 40
1.0
 40
1.056742878440953
 40
1.056742878440953
 40
1.056742878440953
 10
46.16418255729267
 20
1.944713154310957
 30
0.0
 10
45.71476719751814
 20
1.98087766435044
 30
0.0
 10
39.75719505729266
 20
1.509523154310951
 30
0.0
 10
33.94460251765722
 20
1.049639221042239
 30
0.0
 10
33.63248894631266
 20
1.024952203298957
 30
0.0
  0
SPLINE
  5
246
330
1F
100
AcDbEntity
  8
IGES_LEVEL_0
 62
     7
100
AcDbSpline
210
0.0
220
0.0
230
1.0
 70
     8
 71
     2
 72
     8
 73
     5
 74
     0
 42
0.0000000001
 43
0.0000000001
 40
-0.2312777357512291
 40
-0.2312777357512291
 40
-0.2312777357512291
 40
-0.0962096074475094
 40
0.0
 40
1.0
 40
1.0
 40
1.0
 10
33.68134055729267
 20
1.111573154310956
 30
0.0
 10
33.63389502733148
 20
1.096478513571172
 30
0.0
 10
33.6314302166064
 20
1.024478927555666
 30
0.0
 10
33.64342055729267
 20
0.6811241543109579
 30
0.0
 10
33.65435855729267
 20
0.3679041543109562
 30
0.0
  0
SPLINE
  5
247
330
1F
100
AcDbEntity
  8
IGES_LEVEL_0
 62
     7
100
AcDbSpline
210
0.0
220
0.0
230
1.0
 70
     8
 71
     2
 72
     8
 73
     5
 74
     0
 42
0.0000000001
 43
0.0000000001
 40
-0.0399370913856113
 40
-0.0399370913856113
 40
-0.0399370913856113
 40
0.0
 40
1.0
 40
1.053813916997408
 40
1.053813916997408
 40
1.053813916997408
 10
45.69670358323485
 20
2.183493795340243
 30
0.0
 10
45.47714029646474
 20
2.167628489463206
 30
0.0
 10
39.76238855729267
 20
1.668314654310954
 30
0.0
 10
33.97137969261165
 20
1.162338020924696
 30
0.0
 10
33.68134055729267
 20
1.111573154310956
 30
0.0
  0
SPLINE
  5
248
330
1F
100
AcDbEntity
  8
IGES_LEVEL_0
 62
     7
100
AcDbSpline
210
0.0
220
0.0
230
1.0
 70
     8
 71
     2
 72
     7
 73
     4
 74
     0
 42
0.0000000001
 43
0.0000000001
 40
0.0
 40
0.0
 40
0.0
 40
1.0
 40
1.171984079643329
 40
1.171984079643329
 40
1.171984079643329
 10
35.07931055729267
 20
0.3299081543109561
 30
0.0
 10
39.90042505729267
 20
0.5225741543109552
 30
0.0
 10
45.55069449743027
 20
0.7483756389995189
 30
0.0
 10
46.37933555729266
 20
0.7637321543109561
 30
0.0
  0
LINE
  5
249
330
1F
100
AcDbEntity
  8
IGES_LEVEL_0
 62
     7
100
AcDbLine
 10
34.46394755729267
 20
0.0149471543109563
 30
0.0
 11
34.07025755729266
 21
0.0149471543109563
 31
0.0
  0
LINE
  5
24A
330
1F
100
AcDbEntity
  8
IGES_LEVEL_0
 62
     7
100
AcDbLine
 10
34.85765355729266
 20
0.2511681543109563
 30
0.0
 11
33.67655155729267
 21
0.2511681543109563
 31
0.0
  0
LINE
  5
24B
330
1F
100
AcDbEntity
  8
IGES_LEVEL_0
 62
     7
100
AcDbLine
 10
35.07931055729267
 20
0.3299081543109561
 30
0.0
 11
33.67655155729267
 21
0.3299081543109561
 31
0.0
  0
LINE
  5
24C
330
1F
100
AcDbEntity
  8
IGES_LEVEL_0
 62
     7
100
AcDbLine
 10
34.85765355729266
 20
0.2511681543109563
 30
0.0
 11
34.85765355729266
 21
0.3299081543109561
 31
0.0
  0
LINE
  5
24D
330
1F
100
AcDbEntity
  8
IGES_LEVEL_0
 62
     7
100
AcDbLine
 10
33.67655155729267
 20
0.2511681543109563
 30
0.0
 11
33.67655155729267
 21
0.3299081543109561
 31
0.0
  0
ARC
  5
24E
330
1F
100
AcDbEntity
  8
IGES_LEVEL_0
 62
     7
100
AcDbCircle
 10
34.07025255729266
 20
0.4611421543109562
 30
0.0
 40
0.44619476470589
100
AcDbArc
 50
208.0725020428958
 51
270.0
  0
ARC
  5
24F
330
1F
100
AcDbEntity
  8
IGES_LEVEL_0
 62
     7
100
AcDbCircle
 10
34.46395355729267
 20
0.4611421543109562
 30
0.0
 40
0.4461943235296068
100
AcDbArc
 50
270.0
 51
331.9274375287829
  0
ARC
  5
250
330
1F
100
AcDbEntity
  8
IGES_LEVEL_0
 62
     7
100
AcDbCircle
 10
33.69370455729266
 20
0.369278154310956
 30
0.0
 40
0.0393699916941807
100
AcDbArc
 50
182.0000107679836
 51
270.0
  0
LINE
  5
251
330
1F
100
AcDbEntity
  8
DEFAULT
100
AcDbLine
 10
46.22379655729268
 20
11.90471115431096
 30
0.0
 11
47.79859955729268
 21
11.90471115431096
 31
0.0
  0
ARC
  5
252
330
1F
100
AcDbEntity
  8
IGES_LEVEL_0
 62
     7
100
AcDbCircle
 10
0.6400447355872547
 20
58.67852375405724
 30
0.0
 40
0.6374547007903199
100
AcDbArc
 50
91.13970976627088
 51
268.8602902337291
  0
ARC
  5
253
330
1F
100
AcDbEntity
  8
IGES_LEVEL_0
 62
     7
100
AcDbCircle
 10
13.38184689436405
 20
71.4203259128419
 30
0.0
 40
0.6374547007881651
100
AcDbArc
 50
1.139709765478375
 51
178.8602902345216
  0
ARC
  5
254
330
1F
100
AcDbEntity
  8
IGES_LEVEL_0
 62
     7
100
AcDbCircle
 10
13.38184689436407
 20
45.93672159528237
 30
0.0
 40
0.6374547007883493
100
AcDbArc
 50
181.1397097663589
 51
358.8602902336411
  0
ARC
  5
255
330
1F
100
AcDbEntity
  8
IGES_LEVEL_0
 62
     7
100
AcDbCircle
 10
26.1236490531379
 20
58.67852375405725
 30
0.0
 40
0.637454700790386
100
AcDbArc
 50
271.1397097665383
 51
88.86029023346171
  0
LINE
  5
256
330
1F
100
AcDbEntity
  8
IGES_LEVEL_0
 62
     7
100
AcDbLine
 10
24.76398483648748
 20
59.34200992150649
 30
0.0
 11
26.13632861705506
 21
59.31585196106724
 31
0.0
  0
LINE
  5
257
330
1F
100
AcDbEntity
  8
IGES_LEVEL_0
 62
     7
100
AcDbLine
 10
1.999696098163064
 20
59.34200967038602
 30
0.0
 11
0.6273656170550623
 21
59.31585196106724
 31
0.0
  0
LINE
  5
258
330
1F
100
AcDbEntity
  8
IGES_LEVEL_0
 62
     7
100
AcDbLine
 10
14.05305010746993
 20
47.70122357079915
 30
0.0
 11
14.01917561705506
 21
45.92404196106725
 31
0.0
  0
LINE
  5
259
330
1F
100
AcDbEntity
  8
IGES_LEVEL_0
 62
     7
100
AcDbLine
 10
14.0243184112027
 20
71.1631948993045
 30
0.0
 11
14.01917561705506
 21
71.43300496106724
 31
0.0
  0
LINE
  5
25A
330
1F
100
AcDbEntity
  8
IGES_LEVEL_0
 62
     7
100
AcDbLine
 10
1.953388806437641
 20
58.01591990552099
 30
0.0
 11
0.6273656170550623
 21
58.04119496106725
 31
0.0
  0
LINE
  5
25B
330
1F
100
AcDbEntity
  8
IGES_LEVEL_0
 62
     7
100
AcDbLine
 10
24.81029214574238
 20
58.0159196546544
 30
0.0
 11
26.13632861705506
 21
58.04119496106725
 31
0.0
  0
LINE
  5
25C
330
1F
100
AcDbEntity
  8
IGES_LEVEL_0
 62
     7
100
AcDbLine
 10
12.73937582655004
 20
71.16319509041001
 30
0.0
 11
12.74451861705506
 21
71.43300496106724
 31
0.0
  0
LINE
  5
25D
330
1F
100
AcDbEntity
  8
IGES_LEVEL_0
 62
     7
100
AcDbLine
 10
12.71064412759809
 20
47.70122352054421
 30
0.0
 11
12.74451861705506
 21
45.92404196106725
 31
0.0
  0
ENDSEC
  0
SECTION
  2
OBJECTS
  0
DICTIONARY
  5
C
330
0
100
AcDbDictionary
  3
ACAD_GROUP
350
D
  3
ACAD_LAYOUT
350
1A
  3
ACAD_MLINESTYLE
350
17
  3
ACAD_PLOTSETTINGS
350
19
  3
ACDBHEADERROUNDTRIPXREC
350
25E
  0
DICTIONARY
  5
27E
330
29
100
AcDbDictionary
280
     1
  3
ACAD_XREC_ROUNDTRIP
360
27F
  0
DICTIONARY
  5
D
102
{ACAD_REACTORS
330
C
102
}
330
C
100
AcDbDictionary
  0
DICTIONARY
  5
1A
102
{ACAD_REACTORS
330
C
102
}
330
C
100
AcDbDictionary
  0
DICTIONARY
  5
17
102
{ACAD_REACTORS
330
C
102
}
330
C
100
AcDbDictionary
  3
STANDARD
350
18
  0
DICTIONARY
  5
19
102
{ACAD_REACTORS
330
C
102
}
330
C
100
AcDbDictionary
  0
DICTIONARY
  5
25E
102
{ACAD_REACTORS
330
C
102
}
330
C
100
AcDbDictionary
  3
CEPSNTYPE
350
267
  3
DIMSTYLEDATA
350
27D
  3
FINGERPRINTGUID
350
268
  3
HYPERLINKBASE
350
261
  3
INSUNITS
350
266
  3
LAYOUTDICT
350
263
  3
LWETCUNION
350
265
  3
PLOTSETDICT
350
264
  3
PSVPSCALE
350
26A
  3
PUCSBASE
350
26D
  3
PUCSORGBACK
350
273
  3
PUCSORGBOTTOM
350
26F
  3
PUCSORGFRONT
350
272
  3
PUCSORGLEFT
350
270
  3
PUCSORGRIGHT
350
271
  3
PUCSORGTOP
350
26E
  3
PUCSORTHOREF
350
26B
  3
PUCSORTHOVIEW
350
26C
  3
STYLESHEET
350
262
  3
TSTACKALIGN
350
25F
  3
TSTACKSIZE
350
260
  3
UCSBASE
350
276
  3
UCSORGBACK
350
27C
  3
UCSORGBOTTOM
350
278
  3
UCSORGFRONT
350
27B
  3
UCSORGLEFT
350
279
  3
UCSORGRIGHT
350
27A
  3
UCSORGTOP
350
277
  3
UCSORTHOREF
350
274
  3
UCSORTHOVIEW
350
275
  3
VERSIONGUID
350
269
  0
XRECORD
  5
27F
102
{ACAD_REACTORS
330
27E
102
}
330
27E
100
AcDbXrecord
102
UCS
 74
     0
 71
     1
 10
0.0
 20
0.0
 30
0.0
 10
1.0
 20
0.0
 30
0.0
 10
0.0
 20
1.0
 30
0.0
146
0.0
 79
     0
102
VIEW
281
     0
  0
MLINESTYLE
  5
18
102
{ACAD_REACTORS
330
17
102
}
330
17
100
AcDbMlineStyle
  2
Standard
 70
     0
  3

 62
   256
 51
90.0
 52
90.0
 71
     2
 49
0.5
 62
   256
  6
BYLAYER
 49
-0.5
 62
   256
  6
BYLAYER
  0
XRECORD
  5
267
102
{ACAD_REACTORS
330
25E
102
}
330
25E
100
AcDbXrecord
 90
        0
  0
XRECORD
  5
27D
102
{ACAD_REACTORS
330
25E
102
}
330
25E
100
AcDbXrecord
1000
DSTYLE
1002
{
1070
   340
340
11
1002
}
  0
XRECORD
  5
268
102
{ACAD_REACTORS
330
25E
102
}
330
25E
100
AcDbXrecord
  1
{FAEB1C30-E019-11D5-929B-00C0DF256EC4}
  0
XRECORD
  5
261
102
{ACAD_REACTORS
330
25E
102
}
330
25E
100
AcDbXrecord
  1

  0
XRECORD
  5
266
102
{ACAD_REACTORS
330
25E
102
}
330
25E
100
AcDbXrecord
 90
        1
  0
XRECORD
  5
263
102
{ACAD_REACTORS
330
25E
102
}
330
25E
100
AcDbXrecord
340
1A
  0
XRECORD
  5
265
102
{ACAD_REACTORS
330
25E
102
}
330
25E
100
AcDbXrecord
 90
     2560
  0
XRECORD
  5
264
102
{ACAD_REACTORS
330
25E
102
}
330
25E
100
AcDbXrecord
340
19
  0
XRECORD
  5
26A
102
{ACAD_REACTORS
330
25E
102
}
330
25E
100
AcDbXrecord
 40
0.0
  0
XRECORD
  5
26D
102
{ACAD_REACTORS
330
25E
102
}
330
25E
100
AcDbXrecord
340
0
  0
XRECORD
  5
273
102
{ACAD_REACTORS
330
25E
102
}
330
25E
100
AcDbXrecord
 10
0.0
 20
0.0
 30
0.0
  0
XRECORD
  5
26F
102
{ACAD_REACTORS
330
25E
102
}
330
25E
100
AcDbXrecord
 10
0.0
 20
0.0
 30
0.0
  0
XRECORD
  5
272
102
{ACAD_REACTORS
330
25E
102
}
330
25E
100
AcDbXrecord
 10
0.0
 20
0.0
 30
0.0
  0
XRECORD
  5
270
102
{ACAD_REACTORS
330
25E
102
}
330
25E
100
AcDbXrecord
 10
0.0
 20
0.0
 30
0.0
  0
XRECORD
  5
271
102
{ACAD_REACTORS
330
25E
102
}
330
25E
100
AcDbXrecord
 10
0.0
 20
0.0
 30
0.0
  0
XRECORD
  5
26E
102
{ACAD_REACTORS
330
25E
102
}
330
25E
100
AcDbXrecord
 10
0.0
 20
0.0
 30
0.0
  0
XRECORD
  5
26B
102
{ACAD_REACTORS
330
25E
102
}
330
25E
100
AcDbXrecord
340
0
  0
XRECORD
  5
26C
102
{ACAD_REACTORS
330
25E
102
}
330
25E
100
AcDbXrecord
 70
     0
  0
XRECORD
  5
262
102
{ACAD_REACTORS
330
25E
102
}
330
25E
100
AcDbXrecord
  1

  0
XRECORD
  5
25F
102
{ACAD_REACTORS
330
25E
102
}
330
25E
100
AcDbXrecord
 90
        1
  0
XRECORD
  5
260
102
{ACAD_REACTORS
330
25E
102
}
330
25E
100
AcDbXrecord
 90
       70
  0
XRECORD
  5
276
102
{ACAD_REACTORS
330
25E
102
}
330
25E
100
AcDbXrecord
340
0
  0
XRECORD
  5
27C
102
{ACAD_REACTORS
330
25E
102
}
330
25E
100
AcDbXrecord
 10
0.0
 20
0.0
 30
0.0
  0
XRECORD
  5
278
102
{ACAD_REACTORS
330
25E
102
}
330
25E
100
AcDbXrecord
 10
0.0
 20
0.0
 30
0.0
  0
XRECORD
  5
27B
102
{ACAD_REACTORS
330
25E
102
}
330
25E
100
AcDbXrecord
 10
0.0
 20
0.0
 30
0.0
  0
XRECORD
  5
279
102
{ACAD_REACTORS
330
25E
102
}
330
25E
100
AcDbXrecord
 10
0.0
 20
0.0
 30
0.0
  0
XRECORD
  5
27A
102
{ACAD_REACTORS
330
25E
102
}
330
25E
100
AcDbXrecord
 10
0.0
 20
0.0
 30
0.0
  0
XRECORD
  5
277
102
{ACAD_REACTORS
330
25E
102
}
330
25E
100
AcDbXrecord
 10
0.0
 20
0.0
 30
0.0
  0
XRECORD
  5
274
102
{ACAD_REACTORS
330
25E
102
}
330
25E
100
AcDbXrecord
340
0
  0
XRECORD
  5
275
102
{ACAD_REACTORS
330
25E
102
}
330
25E
100
AcDbXrecord
 70
     0
  0
XRECORD
  5
269
102
{ACAD_REACTORS
330
25E
102
}
330
25E
100
AcDbXrecord
  1
{FAEB1C32-E019-11D5-929B-00C0DF256EC4}
  0
ENDSEC
  0
EOF
