  0
SECTION
  2
HEADER
  9
$ACADVER
  1
AC1014
  9
$ACADMAINTVER
 70
     9
  9
$DWGCODEPAGE
  3
ANSI_1252
  9
$INSBASE
 10
0.0
 20
0.0
 30
0.0
  9
$EXTMIN
 10
-9.717474000000001
 20
-10.47631604178828
 30
0.0
  9
$EXTMAX
 10
44.36894124717961
 20
63.39987758214029
 30
0.0
  9
$LIMMIN
 10
0.0
 20
0.0
  9
$LIMMAX
 10
12.0
 20
9.0
  9
$ORTHOMODE
 70
     0
  9
$REGENMODE
 70
     1
  9
$FILLMODE
 70
     1
  9
$QTEXTMODE
 70
     0
  9
$MIRRTEXT
 70
     1
  9
$DRAGMODE
 70
     2
  9
$LTSCALE
 40
0.0393700787401575
  9
$OSMODE
 70
    37
  9
$ATTMODE
 70
     1
  9
$TEXTSIZE
 40
0.2
  9
$TRACEWID
 40
0.05
  9
$TEXTSTYLE
  7
STANDARD
  9
$CLAYER
  8
DEFAULT
  9
$CELTYPE
  6
BYLAYER
  9
$CECOLOR
 62
   256
  9
$CELTSCALE
 40
1.0
  9
$DELOBJ
 70
     1
  9
$DISPSILH
 70
     0
  9
$DIMSCALE
 40
1.0
  9
$DIMASZ
 40
0.18
  9
$DIMEXO
 40
0.0625
  9
$DIMDLI
 40
0.38
  9
$DIMRND
 40
0.0
  9
$DIMDLE
 40
0.0
  9
$DIMEXE
 40
0.18
  9
$DIMTP
 40
0.0
  9
$DIMTM
 40
0.0
  9
$DIMTXT
 40
0.18
  9
$DIMCEN
 40
0.09
  9
$DIMTSZ
 40
0.0
  9
$DIMTOL
 70
     0
  9
$DIMLIM
 70
     0
  9
$DIMTIH
 70
     1
  9
$DIMTOH
 70
     1
  9
$DIMSE1
 70
     0
  9
$DIMSE2
 70
     0
  9
$DIMTAD
 70
     0
  9
$DIMZIN
 70
     0
  9
$DIMBLK
  1

  9
$DIMASO
 70
     1
  9
$DIMSHO
 70
     1
  9
$DIMPOST
  1

  9
$DIMAPOST
  1

  9
$DIMALT
 70
     0
  9
$DIMALTD
 70
     2
  9
$DIMALTF
 40
25.4
  9
$DIMLFAC
 40
1.0
  9
$DIMTOFL
 70
     0
  9
$DIMTVP
 40
0.0
  9
$DIMTIX
 70
     0
  9
$DIMSOXD
 70
     0
  9
$DIMSAH
 70
     0
  9
$DIMBLK1
  1

  9
$DIMBLK2
  1

  9
$DIMSTYLE
  2
STANDARD
  9
$DIMCLRD
 70
     0
  9
$DIMCLRE
 70
     0
  9
$DIMCLRT
 70
     0
  9
$DIMTFAC
 40
1.0
  9
$DIMGAP
 40
0.09
  9
$DIMJUST
 70
     0
  9
$DIMSD1
 70
     0
  9
$DIMSD2
 70
     0
  9
$DIMTOLJ
 70
     1
  9
$DIMTZIN
 70
     0
  9
$DIMALTZ
 70
     0
  9
$DIMALTTZ
 70
     0
  9
$DIMFIT
 70
     5
  9
$DIMUPT
 70
     0
  9
$DIMUNIT
 70
     2
  9
$DIMDEC
 70
     4
  9
$DIMTDEC
 70
     4
  9
$DIMALTU
 70
     2
  9
$DIMALTTD
 70
     2
  9
$DIMTXSTY
  7
STANDARD
  9
$DIMAUNIT
 70
     0
  9
$LUNITS
 70
     2
  9
$LUPREC
 70
     3
  9
$SKETCHINC
 40
0.1
  9
$FILLETRAD
 40
0.5
  9
$AUNITS
 70
     0
  9
$AUPREC
 70
     0
  9
$MENU
  1
.
  9
$ELEVATION
 40
0.0
  9
$PELEVATION
 40
0.0
  9
$THICKNESS
 40
0.0
  9
$LIMCHECK
 70
     0
  9
$CHAMFERA
 40
0.5
  9
$CHAMFERB
 40
0.5
  9
$CHAMFERC
 40
1.0
  9
$CHAMFERD
 40
0.0
  9
$SKPOLY
 70
     0
  9
$TDCREATE
 40
2454806.495277408
  9
$TDUPDATE
 40
2454806.495277419
  9
$TDINDWG
 40
0.0000000116
  9
$TDUSRTIMER
 40
0.0000000116
  9
$USRTIMER
 70
     1
  9
$ANGBASE
 50
0.0
  9
$ANGDIR
 70
     0
  9
$PDMODE
 70
     0
  9
$PDSIZE
 40
0.0
  9
$PLINEWID
 40
0.0
  9
$COORDS
 70
     1
  9
$SPLFRAME
 70
     0
  9
$SPLINETYPE
 70
     6
  9
$SPLINESEGS
 70
     8
  9
$ATTDIA
 70
     0
  9
$ATTREQ
 70
     1
  9
$HANDLING
 70
     1
  9
$HANDSEED
  5
F7
  9
$SURFTAB1
 70
     6
  9
$SURFTAB2
 70
     6
  9
$SURFTYPE
 70
     6
  9
$SURFU
 70
     6
  9
$SURFV
 70
     6
  9
$UCSNAME
  2

  9
$UCSORG
 10
0.0
 20
0.0
 30
0.0
  9
$UCSXDIR
 10
1.0
 20
0.0
 30
0.0
  9
$UCSYDIR
 10
0.0
 20
1.0
 30
0.0
  9
$PUCSNAME
  2

  9
$PUCSORG
 10
0.0
 20
0.0
 30
0.0
  9
$PUCSXDIR
 10
1.0
 20
0.0
 30
0.0
  9
$PUCSYDIR
 10
0.0
 20
1.0
 30
0.0
  9
$USERI1
 70
     0
  9
$USERI2
 70
     0
  9
$USERI3
 70
     0
  9
$USERI4
 70
     0
  9
$USERI5
 70
     0
  9
$USERR1
 40
0.0
  9
$USERR2
 40
0.0
  9
$USERR3
 40
0.0
  9
$USERR4
 40
0.0
  9
$USERR5
 40
0.0
  9
$WORLDVIEW
 70
     1
  9
$SHADEDGE
 70
     3
  9
$SHADEDIF
 70
    70
  9
$TILEMODE
 70
     1
  9
$MAXACTVP
 70
    64
  9
$PINSBASE
 10
0.0
 20
0.0
 30
0.0
  9
$PLIMCHECK
 70
     0
  9
$PEXTMIN
 10
1.000000000000000E+20
 20
1.000000000000000E+20
 30
1.000000000000000E+20
  9
$PEXTMAX
 10
-1.000000000000000E+20
 20
-1.000000000000000E+20
 30
-1.000000000000000E+20
  9
$PLIMMIN
 10
0.0
 20
0.0
  9
$PLIMMAX
 10
12.0
 20
9.0
  9
$UNITMODE
 70
     0
  9
$VISRETAIN
 70
     1
  9
$PLINEGEN
 70
     0
  9
$PSLTSCALE
 70
     1
  9
$TREEDEPTH
 70
  3020
  9
$PICKSTYLE
 70
     1
  9
$CMLSTYLE
  2
STANDARD
  9
$CMLJUST
 70
     0
  9
$CMLSCALE
 40
1.0
  9
$PROXYGRAPHICS
 70
     1
  9
$MEASUREMENT
 70
     0
  0
ENDSEC
  0
SECTION
  2
CLASSES
  0
CLASS
  1
ACDBDICTIONARYWDFLT
  2
AcDbDictionaryWithDefault
  3
ObjectDBX Classes
 90
        0
280
     0
281
     0
  0
CLASS
  1
VISUALSTYLE
  2
AcDbVisualStyle
  3
ObjectDBX Classes
 90
     4095
280
     0
281
     0
  0
CLASS
  1
XRECORD
  2
AcDbXrecord
  3
AutoCAD 2000
 90
        0
280
     0
281
     0
  0
CLASS
  1
LWPOLYLINE
  2
AcDbPolyline
  3
AutoCAD 2000
 90
        0
280
     0
281
     1
  0
CLASS
  1
HATCH
  2
AcDbHatch
  3
AutoCAD 2000
 90
        0
280
     0
281
     1
  0
CLASS
  1
ACDBPLACEHOLDER
  2
AcDbPlaceHolder
  3
ObjectDBX Classes
 90
        0
280
     0
281
     0
  0
CLASS
  1
LAYOUT
  2
AcDbLayout
  3
ObjectDBX Classes
 90
        0
280
     0
281
     0
  0
ENDSEC
  0
SECTION
  2
TABLES
  0
TABLE
  2
VPORT
  5
8
330
0
100
AcDbSymbolTable
 70
     1
  0
VPORT
  5
29
330
8
100
AcDbSymbolTableRecord
100
AcDbViewportTableRecord
  2
*ACTIVE
 70
     0
 10
0.0
 20
0.0
 11
1.0
 21
1.0
 12
0.0
 22
0.0
 13
0.0
 23
0.0
 14
0.5
 24
0.5
 15
0.5
 25
0.5
 16
0.0
 26
0.0
 36
1.0
 17
17.32573362358981
 27
26.46178077017601
 37
0.0
 40
75.35371749640714
 41
0.7321223873892303
 42
50.0
 43
0.0
 44
0.0
 50
0.0
 51
0.0
 71
     0
 72
   100
 73
     1
 74
     3
 75
     0
 76
     0
 77
     0
 78
     0
  0
ENDTAB
  0
TABLE
  2
LTYPE
  5
5
330
0
100
AcDbSymbolTable
 70
     1
  0
LTYPE
  5
14
330
5
100
AcDbSymbolTableRecord
100
AcDbLinetypeTableRecord
  2
BYBLOCK
 70
     0
  3

 72
    65
 73
     0
 40
0.0
  0
LTYPE
  5
15
330
5
100
AcDbSymbolTableRecord
100
AcDbLinetypeTableRecord
  2
BYLAYER
 70
     0
  3

 72
    65
 73
     0
 40
0.0
  0
LTYPE
  5
16
330
5
100
AcDbSymbolTableRecord
100
AcDbLinetypeTableRecord
  2
CONTINUOUS
 70
     0
  3
Solid line
 72
    65
 73
     0
 40
0.0
  0
ENDTAB
  0
TABLE
  2
LAYER
  5
2
330
0
100
AcDbSymbolTable
 70
     2
  0
LAYER
  5
10
330
2
100
AcDbSymbolTableRecord
100
AcDbLayerTableRecord
  2
0
 70
     0
 62
     7
  6
CONTINUOUS
  0
LAYER
  5
3B
330
2
100
AcDbSymbolTableRecord
100
AcDbLayerTableRecord
  2
DEFAULT
 70
     0
 62
     7
  6
CONTINUOUS
  0
ENDTAB
  0
TABLE
  2
STYLE
  5
3
330
0
100
AcDbSymbolTable
 70
     1
  0
STYLE
  5
11
330
3
100
AcDbSymbolTableRecord
100
AcDbTextStyleTableRecord
  2
STANDARD
 70
     0
 40
0.0
 41
1.0
 50
0.0
 71
     0
 42
0.2
  3
txt
  4

  0
ENDTAB
  0
TABLE
  2
VIEW
  5
6
330
0
100
AcDbSymbolTable
 70
     0
  0
ENDTAB
  0
TABLE
  2
UCS
  5
7
330
0
100
AcDbSymbolTable
 70
     0
  0
ENDTAB
  0
TABLE
  2
APPID
  5
9
330
0
100
AcDbSymbolTable
 70
     1
  0
APPID
  5
12
330
9
100
AcDbSymbolTableRecord
100
AcDbRegAppTableRecord
  2
ACAD
 70
     0
  0
ENDTAB
  0
TABLE
  2
DIMSTYLE
  5
A
330
0
100
AcDbSymbolTable
 70
     1
  0
DIMSTYLE
105
27
330
A
100
AcDbSymbolTableRecord
100
AcDbDimStyleTableRecord
  2
STANDARD
 70
     0
  3

  4

  5

  6

  7

 40
1.0
 41
0.18
 42
0.0625
 43
0.38
 44
0.18
 45
0.0
 46
0.0
 47
0.0
 48
0.0
140
0.18
141
0.09
142
0.0
143
25.4
144
1.0
145
0.0
146
1.0
147
0.09
 71
     0
 72
     0
 73
     1
 74
     1
 75
     0
 76
     0
 77
     0
 78
     0
170
     0
171
     2
172
     0
173
     0
174
     0
175
     0
176
     0
177
     0
178
     0
270
     2
271
     4
272
     4
273
     2
274
     2
340
11
275
     0
280
     0
281
     0
282
     0
283
     1
284
     0
285
     0
286
     0
287
     3
288
     0
  0
ENDTAB
  0
TABLE
  2
BLOCK_RECORD
  5
1
330
0
100
AcDbSymbolTable
 70
     1
  0
BLOCK_RECORD
  5
1F
330
1
100
AcDbSymbolTableRecord
100
AcDbBlockTableRecord
  2
*MODEL_SPACE
  0
BLOCK_RECORD
  5
1B
330
1
100
AcDbSymbolTableRecord
100
AcDbBlockTableRecord
  2
*PAPER_SPACE
  0
ENDTAB
  0
ENDSEC
  0
SECTION
  2
BLOCKS
  0
BLOCK
  5
20
330
1F
100
AcDbEntity
  8
0
100
AcDbBlockBegin
  2
*MODEL_SPACE
 70
     0
 10
0.0
 20
0.0
 30
0.0
  3
*MODEL_SPACE
  1

  0
ENDBLK
  5
21
330
1F
100
AcDbEntity
  8
0
100
AcDbBlockEnd
  0
BLOCK
  5
1C
330
1B
100
AcDbEntity
 67
     1
  8
0
100
AcDbBlockBegin
  2
*PAPER_SPACE
 70
     0
 10
0.0
 20
0.0
 30
0.0
  3
*PAPER_SPACE
  1

  0
ENDBLK
  5
1D
330
1B
100
AcDbEntity
 67
     1
  8
0
100
AcDbBlockEnd
  0
ENDSEC
  0
SECTION
  2
ENTITIES
  0
LINE
  5
3C
330
1F
100
AcDbEntity
  8
DEFAULT
100
AcDbLine
 10
-8.090806015065747
 20
-0.1188099121299899
 30
0.0
 11
8.090806015065805
 21
-0.1188099121299899
 31
0.0
  0
LINE
  5
3D
330
1F
100
AcDbEntity
  8
DEFAULT
100
AcDbLine
 10
24.32244079691796
 20
-0.1188099121299899
 30
0.0
 11
43.08941671637935
 21
-0.1188099121299899
 31
0.0
  0
LINE
  5
3E
330
1F
100
AcDbEntity
  8
DEFAULT
100
AcDbLine
 10
24.45468603454457
 20
0.6311900878700101
 30
0.0
 11
43.05011088401729
 21
0.6311900878700101
 31
0.0
  0
LINE
  5
3F
330
1F
100
AcDbEntity
  8
DEFAULT
100
AcDbLine
 10
-8.090806015065747
 20
0.6311900878700101
 30
0.0
 11
8.090806015065802
 21
0.6311900878700101
 31
0.0
  0
LINE
  5
40
330
1F
100
AcDbEntity
  8
DEFAULT
100
AcDbLine
 10
8.09080601506573
 20
15.48514058787
 30
0.0
 11
-8.090806015065745
 21
15.48514058787
 31
0.0
  0
LINE
  5
41
330
1F
100
AcDbEntity
  8
DEFAULT
100
AcDbLine
 10
-9.717472999999998
 20
17.04238616563247
 30
0.0
 11
-9.633552396565529
 21
17.04238616563247
 31
0.0
  0
ARC
  5
42
330
1F
100
AcDbEntity
  8
DEFAULT
100
AcDbCircle
 10
41.24189720990832
 20
15.42622721547475
 30
0.0
 40
1.781661406362535
100
AcDbArc
 50
3.936916950285509
 51
87.7312385382964
  0
LINE
  5
43
330
1F
100
AcDbEntity
  8
DEFAULT
100
AcDbLine
 10
27.24738535521957
 20
16.46937408787
 30
0.0
 11
41.31242785866691
 21
17.20649202569468
 31
0.0
  0
LINE
  5
44
330
1F
100
AcDbEntity
  8
DEFAULT
100
AcDbLine
 10
9.717472999999998
 20
17.04238616563247
 30
0.0
 11
9.627233801001994
 21
17.04238616563247
 31
0.0
  0
ARC
  5
45
330
1F
100
AcDbEntity
  8
DEFAULT
100
AcDbCircle
 10
41.27175265107937
 20
15.45696479598693
 30
0.0
 40
1.0
100
AcDbArc
 50
2.999999839934188
 51
93.00000050032803
  0
ARC
  5
46
330
1F
100
AcDbEntity
  8
DEFAULT
100
AcDbCircle
 10
41.37269388972663
 20
15.07341720376578
 30
0.0
 40
2.896150513259113
100
AcDbArc
 50
45.00107514345706
 51
74.49356639156444
  0
LINE
  5
47
330
1F
100
AcDbEntity
  8
DEFAULT
100
AcDbLine
 10
27.11461433101474
 20
15.71639283812077
 30
0.0
 11
41.21941668611602
 21
16.45559433028448
 31
0.0
  0
LINE
  5
48
330
1F
100
AcDbEntity
  8
DEFAULT
100
AcDbLine
 10
26.49604590247957
 20
16.35780847244
 30
0.0
 11
26.43262637394957
 21
16.16772555316
 31
0.0
  0
ARC
  5
49
330
1F
100
AcDbEntity
  8
DEFAULT
100
AcDbCircle
 10
9.344510022659671
 20
58.45742778059557
 30
0.0
 40
0.3712662524430437
100
AcDbArc
 50
319.0470242105185
 51
131.1171492072461
  0
LINE
  5
4A
330
1F
100
AcDbEntity
  8
DEFAULT
100
AcDbLine
 10
8.914540194116043
 20
59.17576484049003
 30
0.0
 11
9.48615946637804
 21
58.91074342352003
 31
0.0
  0
LINE
  5
4B
330
1F
100
AcDbEntity
  8
DEFAULT
100
AcDbLine
 10
8.970479194116042
 20
59.15049184049003
 30
0.0
 11
8.970479194116042
 21
61.39901084049005
 31
0.0
  0
ARC
  5
4C
330
1F
100
AcDbEntity
  8
DEFAULT
100
AcDbCircle
 10
9.343952280282991
 20
61.39901101054004
 30
0.0
 40
0.37347345538195
100
AcDbArc
 50
359.9999739121037
 51
180.0000260879508
  0
SPLINE
  5
4D
330
1F
100
AcDbEntity
  8
DEFAULT
100
AcDbSpline
210
0.0
220
0.0
230
1.0
 70
     8
 71
     3
 72
     8
 73
     4
 74
     0
 42
0.0000000001
 43
0.0000000001
 40
0.0
 40
0.0
 40
0.0
 40
0.0
 40
1.0
 40
1.0
 40
1.0
 40
1.0
 10
22.02774615395294
 20
32.06332932682162
 30
0.0
 10
25.88216404004616
 20
28.12612859538719
 30
0.0
 10
27.69806535521957
 20
22.83761108787
 30
0.0
 10
24.40618726993102
 20
15.08258560354523
 30
0.0
  0
LINE
  5
4E
330
1F
100
AcDbEntity
  8
DEFAULT
100
AcDbLine
 10
-9.624309
 20
58.53516784049005
 30
0.0
 11
-9.624309
 21
57.47861184049005
 31
0.0
  0
LINE
  5
4F
330
1F
100
AcDbEntity
  8
DEFAULT
100
AcDbLine
 10
9.71742619411604
 20
61.39901084049005
 30
0.0
 11
9.71742619411604
 21
58.45784484049004
 31
0.0
  0
ARC
  5
50
330
1F
100
AcDbEntity
  8
DEFAULT
100
AcDbCircle
 10
-9.34400008616695
 20
61.39901101054004
 30
0.0
 40
0.37347345538195
100
AcDbArc
 50
359.9999739120492
 51
180.0000260878963
  0
SPLINE
  5
51
330
1F
100
AcDbEntity
  8
DEFAULT
100
AcDbSpline
210
0.0
220
0.0
230
1.0
 70
    15
 71
     2
 72
    20
 73
    17
 74
     0
 42
0.0000000001
 43
0.0000000001
 40
-3024.637267821216
 40
-3024.637267821216
 40
-3024.637267821216
 40
-3024.136839611807
 40
-3024.136839611807
 40
-3022.566043285012
 40
-3022.566043285012
 40
-3005.894314307433
 40
-3005.894314307433
 40
-3004.323517980637
 40
-3004.323517980637
 40
-3003.823089771229
 40
-3003.823089771229
 40
-3003.037691607831
 40
-3003.037691607831
 40
-2985.365962630251
 40
-2985.365962630251
 40
-2984.580564466854
 40
-2984.580564466854
 40
-2984.580564466854
 10
-9.633552396565591
 20
17.51760693529479
 30
0.0
 41
1.0
 10
-9.633552396565559
 20
17.26739283059045
 30
0.0
 41
1.0
 10
-9.633552396565525
 20
17.01717872588612
 30
0.0
 41
1.0
 10
-9.633552396565454
 20
16.01717872588618
 30
0.0
 41
0.7071067811865667
 10
-8.63355239656551
 20
16.01717872588619
 30
0.0
 41
1.0
 10
-0.0000000000001776
 20
16.01717872588603
 30
0.0
 41
1.0
 10
8.62723380100184
 20
16.00847716576964
 30
0.0
 41
1.0
 10
9.627233801002074
 20
16.00847716576948
 30
0.0
 41
0.7071067811864646
 10
9.627233801001996
 20
17.00847716576972
 30
0.0
 41
1.0
 10
9.627233801001978
 20
17.2586912704741
 30
0.0
 41
1.0
 10
9.627233801001957
 20
17.50890537517849
 30
0.0
 41
1.0
 10
9.627233801001923
 20
18.00890537517849
 30
0.0
 41
0.707106781186545
 10
9.127233801001918
 20
18.00890537517845
 30
0.0
 41
1.0
 10
-0.0000000000001776
 20
18.01760693529472
 30
0.0
 41
1.0
 10
-9.13355239656559
 20
18.01760693529475
 30
0.0
 41
1.0
 10
-9.633552396565554
 20
18.01760693529474
 30
0.0
 41
0.7071067811865714
 10
-9.633552396565591
 20
17.51760693529479
 30
0.0
 41
1.0
  0
ARC
  5
52
330
1F
100
AcDbEntity
  8
DEFAULT
100
AcDbCircle
 10
3.130239334103939
 20
56.00428223613299
 30
0.0
 40
6.595781884831924
100
AcDbArc
 50
13.11341444064272
 51
44.47752146815635
  0
ARC
  5
53
330
1F
100
AcDbEntity
  8
DEFAULT
100
AcDbCircle
 10
-0.0000119514709898
 20
50.94525090415299
 30
0.0
 40
12.4546266779873
100
AcDbArc
 50
51.0085324277016
 51
128.9914675722984
  0
ARC
  5
54
330
1F
100
AcDbEntity
  8
DEFAULT
100
AcDbCircle
 10
-3.130520700777053
 20
56.00437461433749
 30
0.0
 40
6.595533456034633
100
AcDbArc
 50
135.5214841029619
 51
166.8869067991937
  0
ARC
  5
55
330
1F
100
AcDbEntity
  8
DEFAULT
100
AcDbCircle
 10
-9.34357304747315
 20
58.45202451262648
 30
0.0
 40
0.2930037426607494
100
AcDbArc
 50
44.54383196361168
 51
164.0759466098521
  0
LINE
  5
56
330
1F
100
AcDbEntity
  8
DEFAULT
100
AcDbLine
 10
26.19165635521957
 20
14.80112708787
 30
0.0
 11
26.18961635521957
 21
14.79931608787
 31
0.0
  0
ARC
  5
57
330
1F
100
AcDbEntity
  8
DEFAULT
100
AcDbCircle
 10
-0.0000238962206238
 20
37.54992958480976
 30
0.0
 40
21.62529071419742
100
AcDbArc
 50
64.51060549271008
 51
115.4893945012289
  0
LINE
  5
58
330
1F
100
AcDbEntity
  8
DEFAULT
100
AcDbLine
 10
28.10985235521957
 20
25.97556308787
 30
0.0
 11
28.10686535521957
 21
25.97698008787
 31
0.0
  0
LINE
  5
59
330
1F
100
AcDbEntity
  8
DEFAULT
100
AcDbLine
 10
26.48418528748957
 20
16.46013068219
 30
0.0
 11
26.49604590247957
 21
16.35780847244
 31
0.0
  0
LINE
  5
5A
330
1F
100
AcDbEntity
  8
DEFAULT
100
AcDbLine
 10
27.50891235521957
 20
28.58076808787
 30
0.0
 11
27.50558735521957
 21
28.58364908787
 31
0.0
  0
LINE
  5
5B
330
1F
100
AcDbEntity
  8
DEFAULT
100
AcDbLine
 10
9.624261194116041
 20
58.53516784049005
 30
0.0
 11
9.624261194116041
 21
57.47861184049005
 31
0.0
  0
ARC
  5
5C
330
1F
100
AcDbEntity
  8
DEFAULT
100
AcDbCircle
 10
41.01409064223756
 20
13.8926848156314
 30
0.0
 40
4.129884245648721
100
AcDbArc
 50
74.07894774905047
 51
92.80896338279351
  0
LINE
  5
5D
330
1F
100
AcDbEntity
  8
DEFAULT
100
AcDbLine
 10
27.25990188932342
 20
17.35452786417729
 30
0.0
 11
40.81170144002959
 21
18.01760693529465
 31
0.0
  0
LINE
  5
5E
330
1F
100
AcDbEntity
  8
DEFAULT
100
AcDbLine
 10
26.48418535521957
 20
16.46013108787
 30
0.0
 11
26.57964135521957
 21
17.00148908787
 31
0.0
  0
LINE
  5
5F
330
1F
100
AcDbEntity
  8
DEFAULT
100
AcDbLine
 10
26.31925435521957
 20
15.52476408787
 30
0.0
 11
24.96498835521957
 21
14.66200108787
 31
0.0
  0
LINE
  5
60
330
1F
100
AcDbEntity
  8
DEFAULT
100
AcDbLine
 10
27.31824735521957
 20
16.87125308787
 30
0.0
 11
26.57964135521957
 21
17.00148908787
 31
0.0
  0
ARC
  5
61
330
1F
100
AcDbEntity
  8
DEFAULT
100
AcDbCircle
 10
-9.34455782854363
 20
58.45742778059556
 30
0.0
 40
0.371266252443039
100
AcDbArc
 50
48.88285079275354
 51
220.9529757894806
  0
SPLINE
  5
62
330
1F
100
AcDbEntity
  8
DEFAULT
100
AcDbSpline
210
0.0
220
0.0
230
1.0
 70
     8
 71
     3
 72
     9
 73
     5
 74
     0
 42
0.0000000001
 43
0.0000000001
 40
0.0
 40
0.0
 40
0.0
 40
0.0
 40
1.0
 40
1.9858303401092
 40
1.9858303401092
 40
1.9858303401092
 40
1.9858303401092
 10
43.42054312843982
 20
17.12134329885634
 30
0.0
 10
43.70127060207941
 20
16.82870307692772
 30
0.0
 10
43.83845134078198
 20
16.27048181439109
 30
0.0
 10
43.53646528132495
 20
15.9635689500116
 30
0.0
 10
42.99386047879818
 20
16.03500168684755
 30
0.0
  0
LINE
  5
63
330
1F
100
AcDbEntity
  8
DEFAULT
100
AcDbLine
 10
-8.970527
 20
59.15049184049003
 30
0.0
 11
-8.970527
 21
61.39901084049005
 31
0.0
  0
LINE
  5
64
330
1F
100
AcDbEntity
  8
DEFAULT
100
AcDbLine
 10
-9.717474000000001
 20
61.39901084049005
 30
0.0
 11
-9.717474000000001
 21
58.45784484049004
 31
0.0
  0
ARC
  5
65
330
1F
100
AcDbEntity
  8
DEFAULT
100
AcDbCircle
 10
-9.38955888981643
 20
58.49370959072412
 30
0.0
 40
0.4280865888179529
100
AcDbArc
 50
43.41014576137914
 51
103.048061211166
  0
LINE
  5
66
330
1F
100
AcDbEntity
  8
DEFAULT
100
AcDbLine
 10
-8.914588
 20
59.17576484049003
 30
0.0
 11
-9.486207272262
 21
58.91074342352003
 31
0.0
  0
LINE
  5
67
330
1F
100
AcDbEntity
  8
DEFAULT
100
AcDbLine
 10
24.59258584562704
 20
15.30921982553831
 30
0.0
 11
26.49494635521957
 21
16.52115708787
 31
0.0
  0
ARC
  5
68
330
1F
100
AcDbEntity
  8
DEFAULT
100
AcDbCircle
 10
9.34352524158919
 20
58.45202451262649
 30
0.0
 40
0.2930037426607381
100
AcDbArc
 50
15.92405339014559
 51
135.4561680363901
  0
LINE
  5
69
330
1F
100
AcDbEntity
  8
DEFAULT
100
AcDbLine
 10
8.166615
 20
32.56986508787
 30
0.0
 11
7.650527
 21
32.55150008787
 31
0.0
  0
ARC
  5
6A
330
1F
100
AcDbEntity
  8
DEFAULT
100
AcDbCircle
 10
8.107660281482609
 20
31.65360828892381
 30
0.0
 40
0.9181515019050982
100
AcDbArc
 50
353.188912688064
 51
86.31849211405465
  0
LINE
  5
6B
330
1F
100
AcDbEntity
  8
DEFAULT
100
AcDbLine
 10
9.317381999999998
 20
28.54562408787
 30
0.0
 11
9.019331999999999
 21
31.54471908787
 31
0.0
  0
LINE
  5
6C
330
1F
100
AcDbEntity
  8
DEFAULT
100
AcDbLine
 10
9.521999999999998
 20
25.92880708787
 30
0.0
 11
9.317381999999998
 21
28.54562408787
 31
0.0
  0
LINE
  5
6D
330
1F
100
AcDbEntity
  8
DEFAULT
100
AcDbLine
 10
9.624309
 20
22.47548008787
 30
0.0
 11
9.521999999999998
 21
25.92880708787
 31
0.0
  0
LINE
  5
6E
330
1F
100
AcDbEntity
  8
DEFAULT
100
AcDbLine
 10
9.624309
 20
17.56290765791798
 30
0.0
 11
9.624309
 21
22.47548008787
 31
0.0
  0
LINE
  5
6F
330
1F
100
AcDbEntity
  8
DEFAULT
100
AcDbLine
 10
-8.166615
 20
32.56986508787
 30
0.0
 11
-7.650527
 21
32.55150008787
 31
0.0
  0
ARC
  5
70
330
1F
100
AcDbEntity
  8
DEFAULT
100
AcDbCircle
 10
-8.107660281482609
 20
31.65360828892381
 30
0.0
 40
0.9181515019050982
100
AcDbArc
 50
93.68150788594525
 51
186.8110873119361
  0
LINE
  5
71
330
1F
100
AcDbEntity
  8
DEFAULT
100
AcDbLine
 10
-9.317381999999998
 20
28.54562408787
 30
0.0
 11
-9.019331999999999
 21
31.54471908787
 31
0.0
  0
LINE
  5
72
330
1F
100
AcDbEntity
  8
DEFAULT
100
AcDbLine
 10
-9.521999999999998
 20
25.92880708787
 30
0.0
 11
-9.317381999999998
 21
28.54562408787
 31
0.0
  0
LINE
  5
73
330
1F
100
AcDbEntity
  8
DEFAULT
100
AcDbLine
 10
-9.624309
 20
22.47548008787
 30
0.0
 11
-9.521999999999998
 21
25.92880708787
 31
0.0
  0
LINE
  5
74
330
1F
100
AcDbEntity
  8
DEFAULT
100
AcDbLine
 10
-9.624309
 20
17.61330414625474
 30
0.0
 11
-9.624309
 21
22.47548008787
 31
0.0
  0
SPLINE
  5
75
330
1F
100
AcDbEntity
  8
DEFAULT
100
AcDbSpline
210
0.0
220
0.0
230
1.0
 70
    12
 71
     2
 72
    14
 73
    11
 74
     0
 42
0.0000000001
 43
0.0000000001
 40
-37.83956168228067
 40
-37.83956168228067
 40
-37.83956168228067
 40
-23.18809796348266
 40
-23.18809796348266
 40
-21.61730163668769
 40
-21.61730163668769
 40
-4.040510463327674
 40
-4.040510463327674
 40
-2.469714136532703
 40
-2.469714136532703
 40
12.09335831093076
 40
12.09335831093076
 40
12.09335831093076
 10
-9.614841471015243
 20
57.33491137019551
 30
0.0
 41
1.0
 10
-9.614841471015243
 20
50.0091795107965
 30
0.0
 41
1.0
 10
-9.614841471015243
 20
42.68344765139749
 30
0.0
 41
1.0
 10
-9.614841471015243
 20
41.68344765139742
 30
0.0
 41
0.7071067811865213
 10
-8.614841471015168
 20
41.68344765139749
 30
0.0
 41
1.0
 10
-0.0000336892674309
 20
41.68344765139749
 30
0.0
 41
1.0
 10
8.589407892706515
 20
41.68344765139749
 30
0.0
 41
1.0
 10
9.589407892706587
 20
41.68344765139742
 30
0.0
 41
0.7071067811865213
 10
9.589407892706589
 20
42.68344765139749
 30
0.0
 41
1.0
 10
9.589407892706589
 20
49.96498387512922
 30
0.0
 41
1.0
 10
9.589407892706589
 20
57.24652009886096
 30
0.0
 41
1.0
  0
ARC
  5
76
330
1F
100
AcDbEntity
  8
DEFAULT
100
AcDbCircle
 10
-9.294531153451656
 20
57.40747352086688
 30
0.0
 40
0.3373712409164806
100
AcDbArc
 50
167.8207783040675
 51
16.23090628189714
  0
ARC
  5
77
330
1F
100
AcDbEntity
  8
DEFAULT
100
AcDbCircle
 10
-3.148033278224464
 20
56.0342302343386
 30
0.0
 40
6.004667958240741
100
AcDbArc
 50
136.2296369167567
 51
165.8536141729982
  0
ARC
  5
78
330
1F
100
AcDbEntity
  8
DEFAULT
100
AcDbCircle
 10
-0.0000122014709895
 20
50.94561568852664
 30
0.0
 40
11.89263937875097
100
AcDbArc
 50
51.00111379195953
 51
128.9988862080405
  0
ARC
  5
79
330
1F
100
AcDbEntity
  8
DEFAULT
100
AcDbCircle
 10
3.147725966122788
 20
56.03412441209174
 30
0.0
 40
6.004945457893307
100
AcDbArc
 50
14.14675975361659
 51
43.76922486833166
  0
ARC
  5
7A
330
1F
100
AcDbEntity
  8
DEFAULT
100
AcDbCircle
 10
9.294483347567692
 20
57.40747352086687
 30
0.0
 40
0.337371240916483
100
AcDbArc
 50
163.7690937181005
 51
12.17922169593487
  0
LINE
  5
7B
330
1F
100
AcDbEntity
  8
DEFAULT
100
AcDbLine
 10
-9.063690999999999
 20
22.47634908787
 30
0.0
 11
-9.063690999999999
 21
18.01760566177198
 31
0.0
  0
LINE
  5
7C
330
1F
100
AcDbEntity
  8
DEFAULT
100
AcDbLine
 10
-8.962356
 20
25.89568408786999
 30
0.0
 11
-9.063690999999999
 21
22.47634908787
 31
0.0
  0
LINE
  5
7D
330
1F
100
AcDbEntity
  8
DEFAULT
100
AcDbLine
 10
-8.759571999999999
 20
28.48905408787
 30
0.0
 11
-8.962356
 21
25.89568408786999
 31
0.0
  0
LINE
  5
7E
330
1F
100
AcDbEntity
  8
DEFAULT
100
AcDbLine
 10
-8.461797999999998
 20
31.48544408787
 30
0.0
 11
-8.759571999999999
 21
28.48905408787
 31
0.0
  0
ARC
  5
7F
330
1F
100
AcDbEntity
  8
DEFAULT
100
AcDbCircle
 10
-7.935625335976225
 20
31.54866250072381
 30
0.0
 40
0.5299568285149553
100
AcDbArc
 50
119.5619337704158
 51
186.8511133035103
  0
LINE
  5
80
330
1F
100
AcDbEntity
  8
DEFAULT
100
AcDbLine
 10
-7.670106999999998
 20
31.99086708787
 30
0.0
 11
-8.197087
 21
32.00963108787
 31
0.0
  0
ARC
  5
81
330
1F
100
AcDbEntity
  8
DEFAULT
100
AcDbCircle
 10
0.0
 20
362.4879977941072
 30
0.0
 40
330.5861218297694
100
AcDbArc
 50
268.6705304058545
 51
271.3294695941456
  0
ARC
  5
82
330
1F
100
AcDbEntity
  8
DEFAULT
100
AcDbCircle
 10
0.0
 20
340.607451488418
 30
0.0
 40
308.1509366474075
100
AcDbArc
 50
268.5773596630037
 51
271.4226403369962
  0
LINE
  5
83
330
1F
100
AcDbEntity
  8
DEFAULT
100
AcDbLine
 10
28.20243435521957
 20
22.42712208787
 30
0.0
 11
27.22566335521957
 21
16.88757808787
 31
0.0
  0
ARC
  5
84
330
1F
100
AcDbEntity
  8
DEFAULT
100
AcDbCircle
 10
19.31016275010704
 20
23.97054304058077
 30
0.0
 40
9.025222575446943
100
AcDbArc
 50
350.1533385667927
 51
12.83577957528339
  0
LINE
  5
85
330
1F
100
AcDbEntity
  8
DEFAULT
100
AcDbLine
 10
26.81741335521957
 20
31.57856108787
 30
0.0
 11
28.10985235521957
 21
25.97556308787
 31
0.0
  0
ARC
  5
86
330
1F
100
AcDbEntity
  8
DEFAULT
100
AcDbCircle
 10
25.57125332487438
 20
31.29211472370019
 30
0.0
 40
1.278658023388598
100
AcDbArc
 50
12.94532142205937
 51
92.01118445160958
  0
LINE
  5
87
330
1F
100
AcDbEntity
  8
DEFAULT
100
AcDbLine
 10
22.27944535521909
 20
32.45721308786998
 30
0.0
 11
25.52637935521957
 21
32.56998508786999
 31
0.0
  0
ARC
  5
88
330
1F
100
AcDbEntity
  8
DEFAULT
100
AcDbCircle
 10
22.28648185521957
 20
32.17693858787
 30
0.0
 40
0.2803628143718395
100
AcDbArc
 50
91.43815110015304
 51
271.438151100153
  0
LINE
  5
89
330
1F
100
AcDbEntity
  8
DEFAULT
100
AcDbLine
 10
25.54295935521957
 20
32.00952208787
 30
0.0
 11
22.29351835522005
 21
31.89666408787001
 31
0.0
  0
ARC
  5
8A
330
1F
100
AcDbEntity
  8
DEFAULT
100
AcDbCircle
 10
25.5669595731272
 20
31.28825518299522
 30
0.0
 40
0.7216660990563775
100
AcDbArc
 50
13.0879637730957
 51
91.90581877395728
  0
LINE
  5
8B
330
1F
100
AcDbEntity
  8
DEFAULT
100
AcDbLine
 10
27.56226035521957
 20
25.84892808787
 30
0.0
 11
26.26987935521957
 21
31.45167408787
 31
0.0
  0
ARC
  5
8C
330
1F
100
AcDbEntity
  8
DEFAULT
100
AcDbCircle
 10
19.3186175850133
 20
23.97059227665276
 30
0.0
 40
8.454927057194245
100
AcDbArc
 50
350.1534033066482
 51
12.83585698515432
  0
LINE
  5
8D
330
1F
100
AcDbEntity
  8
DEFAULT
100
AcDbLine
 10
26.67222535521957
 20
16.98516408787
 30
0.0
 11
27.64899635521957
 21
22.52470808787
 31
0.0
  0
LINE
  5
8E
330
1F
100
AcDbEntity
  8
DEFAULT
100
AcDbLine
 10
41.77232235521957
 20
16.27006908787
 30
0.0
 11
26.93550518050482
 21
14.70061438520053
 31
0.0
  0
ARC
  5
8F
330
1F
100
AcDbEntity
  8
DEFAULT
100
AcDbCircle
 10
25.05919192872729
 20
32.05141578855601
 30
0.0
 40
17.45191119360821
100
AcDbArc
 50
268.9927868957973
 51
273.6238602141111
  0
ARC
  5
90
330
1F
100
AcDbEntity
  8
DEFAULT
100
AcDbCircle
 10
9.389511083932472
 20
58.49370959072412
 30
0.0
 40
0.4280865888179529
100
AcDbArc
 50
76.95193878883428
 51
136.589854238621
  0
ARC
  5
91
330
1F
100
AcDbEntity
  8
DEFAULT
100
AcDbCircle
 10
0.0000000000000018
 20
46.87128940709951
 30
0.0
 40
32.33222042123736
100
AcDbArc
 50
256.1064861405881
 51
283.8935138594119
  0
ARC
  5
92
330
1F
100
AcDbEntity
  8
DEFAULT
100
AcDbCircle
 10
24.76483343699928
 20
14.97758211064319
 30
0.0
 40
0.373701494075674
100
AcDbArc
 50
117.4466791902411
 51
302.3846096353071
  0
LINE
  5
93
330
1F
100
AcDbEntity
  8
DEFAULT
100
AcDbLine
 10
9.063690999999999
 20
22.47634908787
 30
0.0
 11
9.063690999999999
 21
18.00911456476783
 31
0.0
  0
LINE
  5
94
330
1F
100
AcDbEntity
  8
DEFAULT
100
AcDbLine
 10
8.962356
 20
25.89568408786999
 30
0.0
 11
9.063690999999999
 21
22.47634908787
 31
0.0
  0
LINE
  5
95
330
1F
100
AcDbEntity
  8
DEFAULT
100
AcDbLine
 10
8.759571999999999
 20
28.48905408787
 30
0.0
 11
8.962356
 21
25.89568408786999
 31
0.0
  0
LINE
  5
96
330
1F
100
AcDbEntity
  8
DEFAULT
100
AcDbLine
 10
8.461797999999998
 20
31.48544408787
 30
0.0
 11
8.759571999999999
 21
28.48905408787
 31
0.0
  0
ARC
  5
97
330
1F
100
AcDbEntity
  8
DEFAULT
100
AcDbCircle
 10
7.935625335976225
 20
31.54866250072381
 30
0.0
 40
0.5299568285149553
100
AcDbArc
 50
353.1488866964893
 51
60.43806622958408
  0
LINE
  5
98
330
1F
100
AcDbEntity
  8
DEFAULT
100
AcDbLine
 10
7.670106999999998
 20
31.99086708787
 30
0.0
 11
8.197087
 21
32.00963108787
 31
0.0
  0
LINE
  5
99
330
1F
100
AcDbEntity
  8
DEFAULT
100
AcDbLine
 10
8.107628015065803
 20
-10.32412395391828
 30
0.0
 11
8.090806015065805
 21
-10.22012595391828
 31
0.0
  0
LINE
  5
9A
330
1F
100
AcDbEntity
  8
DEFAULT
100
AcDbLine
 10
-8.767248392755743
 20
-10.39671455406832
 30
0.0
 11
-8.464279928895746
 21
-10.47068451114832
 31
0.0
  0
ARC
  5
9B
330
1F
100
AcDbEntity
  8
DEFAULT
100
AcDbCircle
 10
8.464279060352954
 20
-12.92619802287817
 30
0.0
 40
2.731722562406536
100
AcDbArc
 50
82.14205272146872
 51
97.85792020571031
  0
ARC
  5
9C
330
1F
100
AcDbEntity
  8
DEFAULT
100
AcDbCircle
 10
-8.464279060352881
 20
-12.92619802287821
 30
0.0
 40
2.731722562406536
100
AcDbArc
 50
82.14207979429003
 51
97.85794727853158
  0
LINE
  5
9D
330
1F
100
AcDbEntity
  8
DEFAULT
100
AcDbLine
 10
8.820932319725806
 20
-10.32412423570828
 30
0.0
 11
8.767248392635803
 21
-10.39671455412828
 31
0.0
  0
LINE
  5
9E
330
1F
100
AcDbEntity
  8
DEFAULT
100
AcDbLine
 10
-8.820932319725745
 20
-10.32412423570833
 30
0.0
 11
-8.767248392635743
 21
-10.39671455412832
 31
0.0
  0
LINE
  5
9F
330
1F
100
AcDbEntity
  8
DEFAULT
100
AcDbLine
 10
8.161311465165806
 20
-10.39671455413828
 30
0.0
 11
8.107627538065802
 21
-10.32412423570828
 31
0.0
  0
LINE
  5
A0
330
1F
100
AcDbEntity
  8
DEFAULT
100
AcDbLine
 10
-8.107628015065742
 20
-10.32412395391832
 30
0.0
 11
-8.090806015065747
 21
-10.22012595391832
 31
0.0
  0
LINE
  5
A1
330
1F
100
AcDbEntity
  8
DEFAULT
100
AcDbLine
 10
-8.161167015065743
 20
-10.39655895391832
 30
0.0
 11
-8.161343015065743
 21
-10.39665695391832
 31
0.0
  0
LINE
  5
A2
330
1F
100
AcDbEntity
  8
DEFAULT
100
AcDbLine
 10
-8.464279928895746
 20
-10.47068451114832
 30
0.0
 11
-8.161311465065744
 21
-10.39671455407832
 31
0.0
  0
LINE
  5
A3
330
1F
100
AcDbEntity
  8
DEFAULT
100
AcDbLine
 10
8.464279928895806
 20
-10.47068451114828
 30
0.0
 11
8.161311465065804
 21
-10.39671455407828
 31
0.0
  0
LINE
  5
A4
330
1F
100
AcDbEntity
  8
DEFAULT
100
AcDbLine
 10
-8.161311465165745
 20
-10.39671455413832
 30
0.0
 11
-8.107627538065742
 21
-10.32412423570832
 31
0.0
  0
LINE
  5
A5
330
1F
100
AcDbEntity
  8
DEFAULT
100
AcDbLine
 10
-8.820932015065743
 20
-10.32412395391832
 30
0.0
 11
-8.837753384285746
 21
-10.22012613038832
 31
0.0
  0
LINE
  5
A6
330
1F
100
AcDbEntity
  8
DEFAULT
100
AcDbLine
 10
8.767248392755803
 20
-10.39671455406828
 30
0.0
 11
8.464279928895806
 21
-10.47068451114828
 31
0.0
  0
LINE
  5
A7
330
1F
100
AcDbEntity
  8
DEFAULT
100
AcDbLine
 10
8.820932015065804
 20
-10.32412395391828
 30
0.0
 11
8.837753384285804
 21
-10.22012613038828
 31
0.0
  0
LINE
  5
A8
330
1F
100
AcDbEntity
  8
DEFAULT
100
AcDbLine
 10
-9.34399991383
 20
-10.47631604178828
 30
0.0
 11
-9.630647416190001
 21
-10.41053507328828
 31
0.0
  0
LINE
  5
A9
330
1F
100
AcDbEntity
  8
DEFAULT
100
AcDbLine
 10
-9.700495
 20
-10.32443995391828
 30
0.0
 11
-9.717473369219999
 21
-10.22012613038828
 31
0.0
  0
LINE
  5
AA
330
1F
100
AcDbEntity
  8
DEFAULT
100
AcDbLine
 10
9.63064741538
 20
-10.41053507368828
 30
0.0
 11
9.700495103319998
 21
-10.32444033946828
 31
0.0
  0
LINE
  5
AB
330
1F
100
AcDbEntity
  8
DEFAULT
100
AcDbLine
 10
9.34399991383
 20
-10.47631604178828
 30
0.0
 11
9.630647416190001
 21
-10.41053507328828
 31
0.0
  0
LINE
  5
AC
330
1F
100
AcDbEntity
  8
DEFAULT
100
AcDbLine
 10
9.057352411419998
 20
-10.41053507326828
 30
0.0
 11
9.34399991383
 21
-10.47631604178828
 31
0.0
  0
LINE
  5
AD
330
1F
100
AcDbEntity
  8
DEFAULT
100
AcDbLine
 10
8.987504724339999
 20
-10.32444033945828
 30
0.0
 11
9.05735241223
 21
-10.41053507365828
 31
0.0
  0
LINE
  5
AE
330
1F
100
AcDbEntity
  8
DEFAULT
100
AcDbLine
 10
8.161167015065804
 20
-10.39655895391828
 30
0.0
 11
8.161343015065803
 21
-10.39665695391828
 31
0.0
  0
LINE
  5
AF
330
1F
100
AcDbEntity
  8
DEFAULT
100
AcDbLine
 10
8.987504999999999
 20
-10.32443995391828
 30
0.0
 11
8.97052645845
 21
-10.22012613038828
 31
0.0
  0
LINE
  5
B0
330
1F
100
AcDbEntity
  8
DEFAULT
100
AcDbLine
 10
-8.987504999999999
 20
-10.32443995391828
 30
0.0
 11
-8.97052645845
 21
-10.22012613038828
 31
0.0
  0
LINE
  5
B1
330
1F
100
AcDbEntity
  8
DEFAULT
100
AcDbLine
 10
-8.987504724339999
 20
-10.32444033945828
 30
0.0
 11
-9.05735241223
 21
-10.41053507365828
 31
0.0
  0
LINE
  5
B2
330
1F
100
AcDbEntity
  8
DEFAULT
100
AcDbLine
 10
9.700495
 20
-10.32443995391828
 30
0.0
 11
9.717473369219999
 21
-10.22012613038828
 31
0.0
  0
LINE
  5
B3
330
1F
100
AcDbEntity
  8
DEFAULT
100
AcDbLine
 10
-9.63064741538
 20
-10.41053507368828
 30
0.0
 11
-9.700495103319998
 21
-10.32444033946828
 31
0.0
  0
LINE
  5
B4
330
1F
100
AcDbEntity
  8
DEFAULT
100
AcDbLine
 10
-9.057352411419998
 20
-10.41053507326828
 30
0.0
 11
-9.34399991383
 21
-10.47631604178828
 31
0.0
  0
ARC
  5
B5
330
1F
100
AcDbEntity
  8
DEFAULT
100
AcDbCircle
 10
9.343999913834999
 20
-9.181688825085441
 30
0.0
 40
1.103555371932842
100
AcDbArc
 50
250.2189038664901
 51
289.7810961335099
  0
ARC
  5
B6
330
1F
100
AcDbEntity
  8
DEFAULT
100
AcDbCircle
 10
-9.343999913834999
 20
-9.181688825085441
 30
0.0
 40
1.103555371932842
100
AcDbArc
 50
250.2189038664901
 51
289.7810961335099
  0
LINE
  5
B7
330
1F
100
AcDbEntity
  8
DEFAULT
100
AcDbLine
 10
9.717472999999998
 20
-10.22012636250821
 30
0.0
 11
9.717472999999998
 21
17.04238616563247
 31
0.0
  0
LINE
  5
B8
330
1F
100
AcDbEntity
  8
DEFAULT
100
AcDbLine
 10
8.970526
 20
16.06924851091124
 30
0.0
 11
8.970526
 21
-10.22012613038828
 31
0.0
  0
LINE
  5
B9
330
1F
100
AcDbEntity
  8
DEFAULT
100
AcDbLine
 10
8.837753015065804
 20
-10.22012607943098
 30
0.0
 11
8.837753015065804
 21
16.0308874458411
 31
0.0
  0
LINE
  5
BA
330
1F
100
AcDbEntity
  8
DEFAULT
100
AcDbLine
 10
8.090806015065857
 20
-10.22012595391828
 30
0.0
 11
8.09080601506573
 21
15.48514058787
 31
0.0
  0
LINE
  5
BB
330
1F
100
AcDbEntity
  8
DEFAULT
100
AcDbLine
 10
-9.717472999999998
 20
-10.22012636250821
 30
0.0
 11
-9.717472999999998
 21
17.04238616563247
 31
0.0
  0
LINE
  5
BC
330
1F
100
AcDbEntity
  8
DEFAULT
100
AcDbLine
 10
-8.970526
 20
16.07566463114922
 30
0.0
 11
-8.970526
 21
-10.22012613038828
 31
0.0
  0
LINE
  5
BD
330
1F
100
AcDbEntity
  8
DEFAULT
100
AcDbLine
 10
-8.090806015065747
 20
-10.22012595391832
 30
0.0
 11
-8.090806015065745
 21
15.48514058786996
 31
0.0
  0
LINE
  5
BE
330
1F
100
AcDbEntity
  8
DEFAULT
100
AcDbLine
 10
-8.837753015065694
 20
-10.22012607943101
 30
0.0
 11
-8.837753015065822
 21
16.03824966440925
 31
0.0
  0
ARC
  5
BF
330
1F
100
AcDbEntity
  8
DEFAULT
100
AcDbCircle
 10
22.23206468202446
 20
-9.814381936555
 30
0.0
 40
0.657439163561921
100
AcDbArc
 50
232.4083946593533
 51
287.5916059794917
  0
LINE
  5
C0
330
1F
100
AcDbEntity
  8
DEFAULT
100
AcDbLine
 10
22.49450868202447
 20
-10.379953936555
 30
0.0
 11
22.53061668202447
 21
-10.280748936555
 31
0.0
  0
LINE
  5
C1
330
1F
100
AcDbEntity
  8
DEFAULT
100
AcDbLine
 10
21.79201068202447
 20
-10.256084936555
 30
0.0
 11
21.79201068202447
 21
-10.150512936555
 31
0.0
  0
ARC
  5
C2
330
1F
100
AcDbEntity
  8
DEFAULT
100
AcDbCircle
 10
22.40053968202447
 20
-10.345751936555
 30
0.0
 40
0.1000001111742808
100
AcDbArc
 50
287.5915054176614
 51
339.9999563588732
  0
LINE
  5
C3
330
1F
100
AcDbEntity
  8
DEFAULT
100
AcDbLine
 10
22.53061668202447
 20
-10.280748936555
 30
0.0
 11
21.79201068202447
 21
-10.150512936555
 31
0.0
  0
ARC
  5
C4
330
1F
100
AcDbEntity
  8
DEFAULT
100
AcDbCircle
 10
21.89201068202447
 20
-10.256084936555
 30
0.0
 40
0.1000000666324562
100
AcDbArc
 50
180.0
 51
232.4083865918938
  0
ARC
  5
C5
330
1F
100
AcDbEntity
  8
DEFAULT
100
AcDbCircle
 10
44.2568202471796
 20
-10.29570181327807
 30
0.0
 40
0.1000004609539147
100
AcDbArc
 50
300.591738042742
 51
352.9999895318866
  0
LINE
  5
C6
330
1F
100
AcDbEntity
  8
DEFAULT
100
AcDbLine
 10
43.6437172471796
 20
-10.34522181327807
 30
0.0
 11
43.6199692471796
 21
-10.24235581327807
 31
0.0
  0
LINE
  5
C7
330
1F
100
AcDbEntity
  8
DEFAULT
100
AcDbLine
 10
44.36894124717961
 20
-10.20310381327807
 30
0.0
 11
43.6199692471796
 21
-10.24235581327807
 31
0.0
  0
LINE
  5
C8
330
1F
100
AcDbEntity
  8
DEFAULT
100
AcDbLine
 10
44.35607524717961
 20
-10.30788881327807
 30
0.0
 11
44.36894124717961
 21
-10.20310381327807
 31
0.0
  0
ARC
  5
C9
330
1F
100
AcDbEntity
  8
DEFAULT
100
AcDbCircle
 10
43.9731312471796
 20
-9.815849813278074
 30
0.0
 40
0.6574385836133012
100
AcDbArc
 50
245.408432225111
 51
300.5916408832244
  0
ARC
  5
CA
330
1F
100
AcDbEntity
  8
DEFAULT
100
AcDbCircle
 10
43.7411542471796
 20
-10.32272681327807
 30
0.0
 40
0.0999999597249908
100
AcDbArc
 50
192.9999419738192
 51
245.4088585040373
  0
LINE
  5
CB
330
1F
100
AcDbEntity
  8
DEFAULT
100
AcDbLine
 10
21.79201068202448
 20
-10.150512936555
 30
0.0
 11
26.43262635521957
 21
16.16772508787
 31
0.0
  0
LINE
  5
CC
330
1F
100
AcDbEntity
  8
DEFAULT
100
AcDbLine
 10
27.31824735521957
 20
16.87125308787
 30
0.0
 11
22.53061674039347
 21
-10.28074894684703
 31
0.0
  0
LINE
  5
CD
330
1F
100
AcDbEntity
  8
DEFAULT
100
AcDbLine
 10
42.27038218598015
 20
15.50930074944002
 30
0.0
 11
43.61996924717955
 21
-10.24235581327808
 31
0.0
  0
LINE
  5
CE
330
1F
100
AcDbEntity
  8
DEFAULT
100
AcDbLine
 10
43.01935418821874
 20
15.54855270672439
 30
0.0
 11
44.36894124717957
 21
-10.20310381327807
 31
0.0
  0
ARC
  5
CF
330
1F
100
AcDbEntity
  8
DEFAULT
100
AcDbCircle
 10
-8.460389640504278
 20
41.42998357937019
 30
0.0
 40
0.37347345538205
100
AcDbArc
 50
180.0
 51
359.9999739120492
  0
ARC
  5
D0
330
1F
100
AcDbEntity
  8
DEFAULT
100
AcDbCircle
 10
8.346564024117283
 20
41.42998357937019
 30
0.0
 40
0.37347345538205
100
AcDbArc
 50
180.0000260879508
 51
0.0
  0
LINE
  5
D1
330
1F
100
AcDbEntity
  8
DEFAULT
100
AcDbLine
 10
8.720037937950421
 20
41.70772774947008
 30
0.0
 11
8.720037937950421
 21
41.42998357937019
 31
0.0
  0
LINE
  5
D2
330
1F
100
AcDbEntity
  8
DEFAULT
100
AcDbLine
 10
7.973090937950429
 20
41.42998340932002
 30
0.0
 11
7.973090937950429
 21
41.68344765139749
 31
0.0
  0
LINE
  5
D3
330
1F
100
AcDbEntity
  8
DEFAULT
100
AcDbLine
 10
-8.086916554337424
 20
41.42998340932002
 30
0.0
 11
-8.086916554337424
 21
41.68344765139749
 31
0.0
  0
LINE
  5
D4
330
1F
100
AcDbEntity
  8
DEFAULT
100
AcDbLine
 10
-8.833863554337416
 20
41.70772774947008
 30
0.0
 11
-8.833863554337416
 21
41.42998357937019
 31
0.0
  0
ENDSEC
  0
SECTION
  2
OBJECTS
  0
DICTIONARY
  5
C
330
0
100
AcDbDictionary
  3
ACAD_GROUP
350
D
  3
ACAD_LAYOUT
350
1A
  3
ACAD_MLEADERSTYLE
350
F6
  3
ACAD_MLINESTYLE
350
17
  3
ACAD_PLOTSETTINGS
350
19
  3
ACAD_TABLESTYLE
350
F5
  3
ACAD_VISUALSTYLE
350
2A
  3
ACDBHEADERROUNDTRIPXREC
350
D5
  0
DICTIONARY
  5
D
102
{ACAD_REACTORS
330
C
102
}
330
C
100
AcDbDictionary
  0
DICTIONARY
  5
1A
102
{ACAD_REACTORS
330
C
102
}
330
C
100
AcDbDictionary
  0
DICTIONARY
  5
F6
102
{ACAD_REACTORS
330
C
102
}
330
C
100
AcDbDictionary
  0
DICTIONARY
  5
17
102
{ACAD_REACTORS
330
C
102
}
330
C
100
AcDbDictionary
  3
STANDARD
350
18
  0
DICTIONARY
  5
19
102
{ACAD_REACTORS
330
C
102
}
330
C
100
AcDbDictionary
  0
DICTIONARY
  5
F5
102
{ACAD_REACTORS
330
C
102
}
330
C
100
AcDbDictionary
  0
DICTIONARY
  5
2A
102
{ACAD_REACTORS
330
C
102
}
330
C
100
AcDbDictionary
  3
2DWIREFRAME
350
2F
  3
3D_HIDDEN
350
31
  3
3DWIREFRAME
350
30
  3
BASIC
350
32
  3
BRIGHTEN
350
36
  3
COLORCHANGE
350
3A
  3
CONCEPTUAL
350
34
  3
DIM
350
35
  3
FACEPATTERN
350
39
  3
FLAT
350
2B
  3
FLATWITHEDGES
350
2C
  3
GOURAUD
350
2D
  3
GOURAUDWITHEDGES
350
2E
  3
LINEPATTERN
350
38
  3
REALISTIC
350
33
  3
THICKEN
350
37
  0
DICTIONARY
  5
D5
102
{ACAD_REACTORS
330
C
102
}
330
C
100
AcDbDictionary
  3
CEPSNTYPE
350
DE
  3
DIMSTYLEDATA
350
F4
  3
FINGERPRINTGUID
350
DF
  3
HYPERLINKBASE
350
D8
  3
INSUNITS
350
DD
  3
LAYOUTDICT
350
DA
  3
LWETCUNION
350
DC
  3
PLOTSETDICT
350
DB
  3
PSVPSCALE
350
E1
  3
PUCSBASE
350
E4
  3
PUCSORGBACK
350
EA
  3
PUCSORGBOTTOM
350
E6
  3
PUCSORGFRONT
350
E9
  3
PUCSORGLEFT
350
E7
  3
PUCSORGRIGHT
350
E8
  3
PUCSORGTOP
350
E5
  3
PUCSORTHOREF
350
E2
  3
PUCSORTHOVIEW
350
E3
  3
STYLESHEET
350
D9
  3
TSTACKALIGN
350
D6
  3
TSTACKSIZE
350
D7
  3
UCSBASE
350
ED
  3
UCSORGBACK
350
F3
  3
UCSORGBOTTOM
350
EF
  3
UCSORGFRONT
350
F2
  3
UCSORGLEFT
350
F0
  3
UCSORGRIGHT
350
F1
  3
UCSORGTOP
350
EE
  3
UCSORTHOREF
350
EB
  3
UCSORTHOVIEW
350
EC
  3
VERSIONGUID
350
E0
  0
MLINESTYLE
  5
18
102
{ACAD_REACTORS
330
17
102
}
330
17
100
AcDbMlineStyle
  2
Standard
 70
     0
  3

 62
   256
 51
90.0
 52
90.0
 71
     2
 49
0.5
 62
   256
  6
BYLAYER
 49
-0.5
 62
   256
  6
BYLAYER
  0
VISUALSTYLE
  5
2F
102
{ACAD_REACTORS
330
2A
102
}
330
2A
100
AcDbVisualStyle
  2
2dWireframe
 70
     4
 71
     0
 72
     2
 73
     0
 90
        0
 40
-0.6
 41
-30.0
 62
     5
 63
     7
 74
     1
 91
        4
 64
     7
 65
   257
 75
     1
175
     1
 42
1.0
 92
        0
 66
   257
 43
1.0
 76
     1
 77
     6
 78
     2
 67
     7
 79
     5
170
     0
171
     0
290
     0
174
     0
 93
        1
 44
0.0
173
     0
291
     0
 45
0.0
1001
ACAD
1000
AcDbSavedByObjectVersion
1070
     0
  0
VISUALSTYLE
  5
31
102
{ACAD_REACTORS
330
2A
102
}
330
2A
100
AcDbVisualStyle
  2
3D Hidden
 70
     6
 71
     1
 72
     2
 73
     2
 90
        0
 40
-0.6
 41
-30.0
 62
     5
 63
     7
 74
     2
 91
        2
 64
     7
 65
   257
 75
     2
175
     1
 42
40.0
 92
        0
 66
   257
 43
1.0
 76
     1
 77
     6
 78
     2
 67
     7
 79
     3
170
     0
171
     0
290
     0
174
     0
 93
        1
 44
0.0
173
     0
291
     0
 45
0.0
1001
ACAD
1000
AcDbSavedByObjectVersion
1070
     0
  0
VISUALSTYLE
  5
30
102
{ACAD_REACTORS
330
2A
102
}
330
2A
100
AcDbVisualStyle
  2
3dWireframe
 70
     5
 71
     0
 72
     2
 73
     0
 90
        0
 40
-0.6
 41
-30.0
 62
     5
 63
     7
 74
     1
 91
        4
 64
     7
 65
   257
 75
     1
175
     1
 42
1.0
 92
        0
 66
   257
 43
1.0
 76
     1
 77
     6
 78
     2
 67
     7
 79
     5
170
     0
171
     0
290
     0
174
     0
 93
        1
 44
0.0
173
     0
291
     0
 45
0.0
1001
ACAD
1000
AcDbSavedByObjectVersion
1070
     0
  0
VISUALSTYLE
  5
32
102
{ACAD_REACTORS
330
2A
102
}
330
2A
100
AcDbVisualStyle
  2
Basic
 70
     7
 71
     1
 72
     0
 73
     1
 90
        0
 40
-0.6
 41
-30.0
 62
     5
 63
     7
 74
     0
 91
        4
 64
     7
 65
   257
 75
     1
175
     1
 42
1.0
 92
        8
 66
     7
 43
1.0
 76
     1
 77
     6
 78
     2
 67
     7
 79
     5
170
     0
171
     0
290
     0
174
     0
 93
        1
 44
0.0
173
     0
291
     1
 45
0.0
1001
ACAD
1000
AcDbSavedByObjectVersion
1070
     0
  0
VISUALSTYLE
  5
36
102
{ACAD_REACTORS
330
2A
102
}
330
2A
100
AcDbVisualStyle
  2
Brighten
 70
    12
 71
     2
 72
     2
 73
     0
 90
        0
 40
-0.6
 41
-30.0
 62
     5
 63
     7
 74
     1
 91
        4
 64
     7
 65
   257
 75
     1
175
     1
 42
1.0
 92
        8
 66
     7
 43
1.0
 76
     1
 77
     6
 78
     2
 67
     7
 79
     5
170
     0
171
     0
290
     0
174
     0
 93
        1
 44
50.0
173
     0
291
     1
 45
0.0
1001
ACAD
1000
AcDbSavedByObjectVersion
1070
     0
  0
VISUALSTYLE
  5
3A
102
{ACAD_REACTORS
330
2A
102
}
330
2A
100
AcDbVisualStyle
  2
ColorChange
 70
    16
 71
     2
 72
     2
 73
     3
 90
        0
 40
-0.6
 41
-30.0
 62
     5
 63
     8
 74
     1
 91
        4
 64
     7
 65
   257
 75
     1
175
     1
 42
1.0
 92
        8
 66
     8
 43
1.0
 76
     1
 77
     6
 78
     2
 67
     7
 79
     5
170
     0
171
     0
290
     0
174
     0
 93
        1
 44
0.0
173
     0
291
     1
 45
0.0
1001
ACAD
1000
AcDbSavedByObjectVersion
1070
     0
  0
VISUALSTYLE
  5
34
102
{ACAD_REACTORS
330
2A
102
}
330
2A
100
AcDbVisualStyle
  2
Conceptual
 70
     9
 71
     3
 72
     2
 73
     0
 90
        0
 40
-0.6
 41
-30.0
 62
     5
 63
     7
 74
     2
 91
        2
 64
     7
 65
   257
 75
     1
175
     1
 42
40.0
 92
        8
 66
     7
 43
1.0
 76
     1
 77
     6
 78
     2
 67
     7
 79
     3
170
     0
171
     0
290
     0
174
     0
 93
        1
 44
0.0
173
     0
291
     0
 45
0.0
1001
ACAD
1000
AcDbSavedByObjectVersion
1070
     0
  0
VISUALSTYLE
  5
35
102
{ACAD_REACTORS
330
2A
102
}
330
2A
100
AcDbVisualStyle
  2
Dim
 70
    11
 71
     2
 72
     2
 73
     0
 90
        0
 40
-0.6
 41
-30.0
 62
     5
 63
     7
 74
     1
 91
        4
 64
     7
 65
   257
 75
     1
175
     1
 42
1.0
 92
        8
 66
     7
 43
1.0
 76
     1
 77
     6
 78
     2
 67
     7
 79
     5
170
     0
171
     0
290
     0
174
     0
 93
        1
 44
-50.0
173
     0
291
     1
 45
0.0
1001
ACAD
1000
AcDbSavedByObjectVersion
1070
     0
  0
VISUALSTYLE
  5
39
102
{ACAD_REACTORS
330
2A
102
}
330
2A
100
AcDbVisualStyle
  2
Facepattern
 70
    15
 71
     2
 72
     2
 73
     0
 90
        0
 40
-0.6
 41
-30.0
 62
     5
 63
     7
 74
     1
 91
        4
 64
     7
 65
   257
 75
     1
175
     1
 42
1.0
 92
        8
 66
     7
 43
1.0
 76
     1
 77
     6
 78
     2
 67
     7
 79
     5
170
     0
171
     0
290
     0
174
     0
 93
        1
 44
0.0
173
     0
291
     1
 45
0.0
1001
ACAD
1000
AcDbSavedByObjectVersion
1070
     0
  0
VISUALSTYLE
  5
2B
102
{ACAD_REACTORS
330
2A
102
}
330
2A
100
AcDbVisualStyle
  2
Flat
 70
     0
 71
     2
 72
     1
 73
     1
 90
        2
 40
-0.6
 41
30.0
 62
     5
 63
     7
 74
     0
 91
        4
 64
     7
 65
   257
 75
     1
175
     1
 42
1.0
 92
        8
 66
     7
 43
1.0
 76
     1
 77
     6
 78
     2
 67
     7
 79
     5
170
     0
171
     0
290
     0
174
     0
 93
       13
 44
0.0
173
     0
291
     1
 45
0.0
1001
ACAD
1000
AcDbSavedByObjectVersion
1070
     0
  0
VISUALSTYLE
  5
2C
102
{ACAD_REACTORS
330
2A
102
}
330
2A
100
AcDbVisualStyle
  2
FlatWithEdges
 70
     1
 71
     2
 72
     1
 73
     1
 90
        2
 40
-0.6
 41
30.0
 62
     5
 63
     7
 74
     1
 91
        4
 64
     7
 65
   257
 75
     1
175
     1
 42
1.0
 92
        0
 66
   257
 43
1.0
 76
     1
 77
     6
 78
     2
 67
     7
 79
     5
170
     0
171
     0
290
     0
174
     0
 93
       13
 44
0.0
173
     0
291
     1
 45
0.0
1001
ACAD
1000
AcDbSavedByObjectVersion
1070
     0
  0
VISUALSTYLE
  5
2D
102
{ACAD_REACTORS
330
2A
102
}
330
2A
100
AcDbVisualStyle
  2
Gouraud
 70
     2
 71
     2
 72
     2
 73
     1
 90
        2
 40
-0.6
 41
30.0
 62
     5
 63
     7
 74
     0
 91
        4
 64
     7
 65
   257
 75
     1
175
     1
 42
1.0
 92
        0
 66
     7
 43
1.0
 76
     1
 77
     6
 78
     2
 67
     7
 79
     5
170
     0
171
     0
290
     0
174
     0
 93
       13
 44
0.0
173
     0
291
     1
 45
0.0
1001
ACAD
1000
AcDbSavedByObjectVersion
1070
     0
  0
VISUALSTYLE
  5
2E
102
{ACAD_REACTORS
330
2A
102
}
330
2A
100
AcDbVisualStyle
  2
GouraudWithEdges
 70
     3
 71
     2
 72
     2
 73
     1
 90
        2
 40
-0.6
 41
30.0
 62
     5
 63
     7
 74
     1
 91
        4
 64
     7
 65
   257
 75
     1
175
     1
 42
1.0
 92
        0
 66
   257
 43
1.0
 76
     1
 77
     6
 78
     2
 67
     7
 79
     5
170
     0
171
     0
290
     0
174
     0
 93
       13
 44
0.0
173
     0
291
     1
 45
0.0
1001
ACAD
1000
AcDbSavedByObjectVersion
1070
     0
  0
VISUALSTYLE
  5
38
102
{ACAD_REACTORS
330
2A
102
}
330
2A
100
AcDbVisualStyle
  2
Linepattern
 70
    14
 71
     2
 72
     2
 73
     0
 90
        0
 40
-0.6
 41
-30.0
 62
     5
 63
     7
 74
     1
 91
        4
 64
     7
 65
   257
 75
     7
175
     7
 42
1.0
 92
        8
 66
     7
 43
1.0
 76
     1
 77
     6
 78
     2
 67
     7
 79
     5
170
     0
171
     0
290
     0
174
     0
 93
        1
 44
0.0
173
     0
291
     1
 45
0.0
1001
ACAD
1000
AcDbSavedByObjectVersion
1070
     0
  0
VISUALSTYLE
  5
33
102
{ACAD_REACTORS
330
2A
102
}
330
2A
100
AcDbVisualStyle
  2
Realistic
 70
     8
 71
     2
 72
     2
 73
     0
 90
        0
 40
-0.6
 41
-30.0
 62
     5
 63
     7
 74
     1
 91
        0
 64
     7
 65
   257
 75
     1
175
     1
 42
1.0
 92
        8
 66
     8
 43
1.0
 76
     1
 77
     6
 78
     2
 67
     7
 79
     5
170
     0
171
     0
290
     0
174
     0
 93
       13
 44
0.0
173
     0
291
     0
 45
0.0
1001
ACAD
1000
AcDbSavedByObjectVersion
1070
     0
  0
VISUALSTYLE
  5
37
102
{ACAD_REACTORS
330
2A
102
}
330
2A
100
AcDbVisualStyle
  2
Thicken
 70
    13
 71
     2
 72
     2
 73
     0
 90
        0
 40
-0.6
 41
-30.0
 62
     5
 63
     7
 74
     1
 91
        4
 64
     7
 65
   257
 75
     1
175
     1
 42
1.0
 92
       12
 66
     7
 43
1.0
 76
     1
 77
     6
 78
     2
 67
     7
 79
     5
170
     0
171
     0
290
     0
174
     0
 93
        1
 44
0.0
173
     0
291
     1
 45
0.0
1001
ACAD
1000
AcDbSavedByObjectVersion
1070
     0
  0
XRECORD
  5
DE
102
{ACAD_REACTORS
330
D5
102
}
330
D5
100
AcDbXrecord
 90
        0
  0
XRECORD
  5
F4
102
{ACAD_REACTORS
330
D5
102
}
330
D5
100
AcDbXrecord
1000
DSTYLE
1002
{
1070
   279
 70
     2
1070
   340
340
11
1002
}
  0
XRECORD
  5
DF
102
{ACAD_REACTORS
330
D5
102
}
330
D5
100
AcDbXrecord
  1
{7E322A76-D6B7-49B7-B772-30D77DEA2F53}
  0
XRECORD
  5
D8
102
{ACAD_REACTORS
330
D5
102
}
330
D5
100
AcDbXrecord
  1

  0
XRECORD
  5
DD
102
{ACAD_REACTORS
330
D5
102
}
330
D5
100
AcDbXrecord
 90
        1
  0
XRECORD
  5
DA
102
{ACAD_REACTORS
330
D5
102
}
330
D5
100
AcDbXrecord
340
1A
  0
XRECORD
  5
DC
102
{ACAD_REACTORS
330
D5
102
}
330
D5
100
AcDbXrecord
 90
    10781
  0
XRECORD
  5
DB
102
{ACAD_REACTORS
330
D5
102
}
330
D5
100
AcDbXrecord
340
19
  0
XRECORD
  5
E1
102
{ACAD_REACTORS
330
D5
102
}
330
D5
100
AcDbXrecord
 40
0.0
  0
XRECORD
  5
E4
102
{ACAD_REACTORS
330
D5
102
}
330
D5
100
AcDbXrecord
340
0
  0
XRECORD
  5
EA
102
{ACAD_REACTORS
330
D5
102
}
330
D5
100
AcDbXrecord
 10
0.0
 20
0.0
 30
0.0
  0
XRECORD
  5
E6
102
{ACAD_REACTORS
330
D5
102
}
330
D5
100
AcDbXrecord
 10
0.0
 20
0.0
 30
0.0
  0
XRECORD
  5
E9
102
{ACAD_REACTORS
330
D5
102
}
330
D5
100
AcDbXrecord
 10
0.0
 20
0.0
 30
0.0
  0
XRECORD
  5
E7
102
{ACAD_REACTORS
330
D5
102
}
330
D5
100
AcDbXrecord
 10
0.0
 20
0.0
 30
0.0
  0
XRECORD
  5
E8
102
{ACAD_REACTORS
330
D5
102
}
330
D5
100
AcDbXrecord
 10
0.0
 20
0.0
 30
0.0
  0
XRECORD
  5
E5
102
{ACAD_REACTORS
330
D5
102
}
330
D5
100
AcDbXrecord
 10
0.0
 20
0.0
 30
0.0
  0
XRECORD
  5
E2
102
{ACAD_REACTORS
330
D5
102
}
330
D5
100
AcDbXrecord
340
0
  0
XRECORD
  5
E3
102
{ACAD_REACTORS
330
D5
102
}
330
D5
100
AcDbXrecord
 70
     0
  0
XRECORD
  5
D9
102
{ACAD_REACTORS
330
D5
102
}
330
D5
100
AcDbXrecord
  1

  0
XRECORD
  5
D6
102
{ACAD_REACTORS
330
D5
102
}
330
D5
100
AcDbXrecord
 90
        1
  0
XRECORD
  5
D7
102
{ACAD_REACTORS
330
D5
102
}
330
D5
100
AcDbXrecord
 90
       70
  0
XRECORD
  5
ED
102
{ACAD_REACTORS
330
D5
102
}
330
D5
100
AcDbXrecord
340
0
  0
XRECORD
  5
F3
102
{ACAD_REACTORS
330
D5
102
}
330
D5
100
AcDbXrecord
 10
0.0
 20
0.0
 30
0.0
  0
XRECORD
  5
EF
102
{ACAD_REACTORS
330
D5
102
}
330
D5
100
AcDbXrecord
 10
0.0
 20
0.0
 30
0.0
  0
XRECORD
  5
F2
102
{ACAD_REACTORS
330
D5
102
}
330
D5
100
AcDbXrecord
 10
0.0
 20
0.0
 30
0.0
  0
XRECORD
  5
F0
102
{ACAD_REACTORS
330
D5
102
}
330
D5
100
AcDbXrecord
 10
0.0
 20
0.0
 30
0.0
  0
XRECORD
  5
F1
102
{ACAD_REACTORS
330
D5
102
}
330
D5
100
AcDbXrecord
 10
0.0
 20
0.0
 30
0.0
  0
XRECORD
  5
EE
102
{ACAD_REACTORS
330
D5
102
}
330
D5
100
AcDbXrecord
 10
0.0
 20
0.0
 30
0.0
  0
XRECORD
  5
EB
102
{ACAD_REACTORS
330
D5
102
}
330
D5
100
AcDbXrecord
340
0
  0
XRECORD
  5
EC
102
{ACAD_REACTORS
330
D5
102
}
330
D5
100
AcDbXrecord
 70
     0
  0
XRECORD
  5
E0
102
{ACAD_REACTORS
330
D5
102
}
330
D5
100
AcDbXrecord
  1
{FAEB1C32-E019-11D5-929B-00C0DF256EC4}
  0
ENDSEC
  0
EOF
