  0
SECTION
  2
HEADER
  9
$ACADVER
  1
AC1014
  9
$ACADMAINTVER
 70
     9
  9
$DWGCODEPAGE
  3
ANSI_1252
  9
$INSBASE
 10
0.0
 20
0.0
 30
0.0
  9
$EXTMIN
 10
-11.13100070713296
 20
-6.983117749867746
 30
0.0
  9
$EXTMAX
 10
44.18600420397903
 20
63.39987758214028
 30
0.0
  9
$LIMMIN
 10
0.0
 20
0.0
  9
$LIMMAX
 10
12.0
 20
9.0
  9
$ORTHOMODE
 70
     0
  9
$REGENMODE
 70
     1
  9
$FILLMODE
 70
     1
  9
$QTEXTMODE
 70
     0
  9
$MIRRTEXT
 70
     1
  9
$DRAGMODE
 70
     2
  9
$LTSCALE
 40
0.0393700787401575
  9
$OSMODE
 70
    37
  9
$ATTMODE
 70
     1
  9
$TEXTSIZE
 40
0.2
  9
$TRACEWID
 40
0.05
  9
$TEXTSTYLE
  7
STANDARD
  9
$CLAYER
  8
DEFAULT
  9
$CELTYPE
  6
BYLAYER
  9
$CECOLOR
 62
   256
  9
$CELTSCALE
 40
1.0
  9
$DELOBJ
 70
     1
  9
$DISPSILH
 70
     0
  9
$DIMSCALE
 40
1.0
  9
$DIMASZ
 40
0.18
  9
$DIMEXO
 40
0.0625
  9
$DIMDLI
 40
0.38
  9
$DIMRND
 40
0.0
  9
$DIMDLE
 40
0.0
  9
$DIMEXE
 40
0.18
  9
$DIMTP
 40
0.0
  9
$DIMTM
 40
0.0
  9
$DIMTXT
 40
0.18
  9
$DIMCEN
 40
0.09
  9
$DIMTSZ
 40
0.0
  9
$DIMTOL
 70
     0
  9
$DIMLIM
 70
     0
  9
$DIMTIH
 70
     1
  9
$DIMTOH
 70
     1
  9
$DIMSE1
 70
     0
  9
$DIMSE2
 70
     0
  9
$DIMTAD
 70
     0
  9
$DIMZIN
 70
     0
  9
$DIMBLK
  1

  9
$DIMASO
 70
     1
  9
$DIMSHO
 70
     1
  9
$DIMPOST
  1

  9
$DIMAPOST
  1

  9
$DIMALT
 70
     0
  9
$DIMALTD
 70
     2
  9
$DIMALTF
 40
25.4
  9
$DIMLFAC
 40
1.0
  9
$DIMTOFL
 70
     0
  9
$DIMTVP
 40
0.0
  9
$DIMTIX
 70
     0
  9
$DIMSOXD
 70
     0
  9
$DIMSAH
 70
     0
  9
$DIMBLK1
  1

  9
$DIMBLK2
  1

  9
$DIMSTYLE
  2
STANDARD
  9
$DIMCLRD
 70
     0
  9
$DIMCLRE
 70
     0
  9
$DIMCLRT
 70
     0
  9
$DIMTFAC
 40
1.0
  9
$DIMGAP
 40
0.09
  9
$DIMJUST
 70
     0
  9
$DIMSD1
 70
     0
  9
$DIMSD2
 70
     0
  9
$DIMTOLJ
 70
     1
  9
$DIMTZIN
 70
     0
  9
$DIMALTZ
 70
     0
  9
$DIMALTTZ
 70
     0
  9
$DIMFIT
 70
     5
  9
$DIMUPT
 70
     0
  9
$DIMUNIT
 70
     2
  9
$DIMDEC
 70
     4
  9
$DIMTDEC
 70
     4
  9
$DIMALTU
 70
     2
  9
$DIMALTTD
 70
     2
  9
$DIMTXSTY
  7
STANDARD
  9
$DIMAUNIT
 70
     0
  9
$LUNITS
 70
     2
  9
$LUPREC
 70
     3
  9
$SKETCHINC
 40
0.1
  9
$FILLETRAD
 40
0.5
  9
$AUNITS
 70
     0
  9
$AUPREC
 70
     0
  9
$MENU
  1
.
  9
$ELEVATION
 40
0.0
  9
$PELEVATION
 40
0.0
  9
$THICKNESS
 40
0.0
  9
$LIMCHECK
 70
     0
  9
$CHAMFERA
 40
0.5
  9
$CHAMFERB
 40
0.5
  9
$CHAMFERC
 40
1.0
  9
$CHAMFERD
 40
0.0
  9
$SKPOLY
 70
     0
  9
$TDCREATE
 40
2454806.467266655
  9
$TDUPDATE
 40
2454806.467266667
  9
$TDINDWG
 40
0.0000000116
  9
$TDUSRTIMER
 40
0.0000000116
  9
$USRTIMER
 70
     1
  9
$ANGBASE
 50
0.0
  9
$ANGDIR
 70
     0
  9
$PDMODE
 70
     0
  9
$PDSIZE
 40
0.0
  9
$PLINEWID
 40
0.0
  9
$COORDS
 70
     1
  9
$SPLFRAME
 70
     0
  9
$SPLINETYPE
 70
     6
  9
$SPLINESEGS
 70
     8
  9
$ATTDIA
 70
     0
  9
$ATTREQ
 70
     1
  9
$HANDLING
 70
     1
  9
$HANDSEED
  5
142
  9
$SURFTAB1
 70
     6
  9
$SURFTAB2
 70
     6
  9
$SURFTYPE
 70
     6
  9
$SURFU
 70
     6
  9
$SURFV
 70
     6
  9
$UCSNAME
  2

  9
$UCSORG
 10
0.0
 20
0.0
 30
0.0
  9
$UCSXDIR
 10
1.0
 20
0.0
 30
0.0
  9
$UCSYDIR
 10
0.0
 20
1.0
 30
0.0
  9
$PUCSNAME
  2

  9
$PUCSORG
 10
0.0
 20
0.0
 30
0.0
  9
$PUCSXDIR
 10
1.0
 20
0.0
 30
0.0
  9
$PUCSYDIR
 10
0.0
 20
1.0
 30
0.0
  9
$USERI1
 70
     0
  9
$USERI2
 70
     0
  9
$USERI3
 70
     0
  9
$USERI4
 70
     0
  9
$USERI5
 70
     0
  9
$USERR1
 40
0.0
  9
$USERR2
 40
0.0
  9
$USERR3
 40
0.0
  9
$USERR4
 40
0.0
  9
$USERR5
 40
0.0
  9
$WORLDVIEW
 70
     1
  9
$SHADEDGE
 70
     3
  9
$SHADEDIF
 70
    70
  9
$TILEMODE
 70
     1
  9
$MAXACTVP
 70
    64
  9
$PINSBASE
 10
0.0
 20
0.0
 30
0.0
  9
$PLIMCHECK
 70
     0
  9
$PEXTMIN
 10
1.000000000000000E+20
 20
1.000000000000000E+20
 30
1.000000000000000E+20
  9
$PEXTMAX
 10
-1.000000000000000E+20
 20
-1.000000000000000E+20
 30
-1.000000000000000E+20
  9
$PLIMMIN
 10
0.0
 20
0.0
  9
$PLIMMAX
 10
12.0
 20
9.0
  9
$UNITMODE
 70
     0
  9
$VISRETAIN
 70
     1
  9
$PLINEGEN
 70
     0
  9
$PSLTSCALE
 70
     1
  9
$TREEDEPTH
 70
  3020
  9
$PICKSTYLE
 70
     1
  9
$CMLSTYLE
  2
STANDARD
  9
$CMLJUST
 70
     0
  9
$CMLSCALE
 40
1.0
  9
$PROXYGRAPHICS
 70
     1
  9
$MEASUREMENT
 70
     0
  0
ENDSEC
  0
SECTION
  2
CLASSES
  0
CLASS
  1
ACDBDICTIONARYWDFLT
  2
AcDbDictionaryWithDefault
  3
ObjectDBX Classes
 90
        0
280
     0
281
     0
  0
CLASS
  1
VISUALSTYLE
  2
AcDbVisualStyle
  3
ObjectDBX Classes
 90
     4095
280
     0
281
     0
  0
CLASS
  1
XRECORD
  2
AcDbXrecord
  3
AutoCAD 2000
 90
        0
280
     0
281
     0
  0
CLASS
  1
LWPOLYLINE
  2
AcDbPolyline
  3
AutoCAD 2000
 90
        0
280
     0
281
     1
  0
CLASS
  1
HATCH
  2
AcDbHatch
  3
AutoCAD 2000
 90
        0
280
     0
281
     1
  0
CLASS
  1
ACDBPLACEHOLDER
  2
AcDbPlaceHolder
  3
ObjectDBX Classes
 90
        0
280
     0
281
     0
  0
CLASS
  1
LAYOUT
  2
AcDbLayout
  3
ObjectDBX Classes
 90
        0
280
     0
281
     0
  0
ENDSEC
  0
SECTION
  2
TABLES
  0
TABLE
  2
VPORT
  5
8
330
0
100
AcDbSymbolTable
 70
     1
  0
VPORT
  5
29
330
8
100
AcDbSymbolTableRecord
100
AcDbViewportTableRecord
  2
*ACTIVE
 70
     0
 10
0.0
 20
0.0
 11
1.0
 21
1.0
 12
0.0
 22
0.0
 13
0.0
 23
0.0
 14
0.5
 24
0.5
 15
0.5
 25
0.5
 16
0.0
 26
0.0
 36
1.0
 17
16.52750174842304
 27
28.20837991613627
 37
0.0
 40
71.7906552386482
 41
0.7859427500942902
 42
50.0
 43
0.0
 44
0.0
 50
0.0
 51
0.0
 71
     0
 72
   100
 73
     1
 74
     3
 75
     0
 76
     0
 77
     0
 78
     0
  0
ENDTAB
  0
TABLE
  2
LTYPE
  5
5
330
0
100
AcDbSymbolTable
 70
     1
  0
LTYPE
  5
14
330
5
100
AcDbSymbolTableRecord
100
AcDbLinetypeTableRecord
  2
BYBLOCK
 70
     0
  3

 72
    65
 73
     0
 40
0.0
  0
LTYPE
  5
15
330
5
100
AcDbSymbolTableRecord
100
AcDbLinetypeTableRecord
  2
BYLAYER
 70
     0
  3

 72
    65
 73
     0
 40
0.0
  0
LTYPE
  5
16
330
5
100
AcDbSymbolTableRecord
100
AcDbLinetypeTableRecord
  2
CONTINUOUS
 70
     0
  3
Solid line
 72
    65
 73
     0
 40
0.0
  0
ENDTAB
  0
TABLE
  2
LAYER
  5
2
330
0
100
AcDbSymbolTable
 70
     2
  0
LAYER
  5
10
330
2
100
AcDbSymbolTableRecord
100
AcDbLayerTableRecord
  2
0
 70
     0
 62
     7
  6
CONTINUOUS
  0
LAYER
  5
3B
330
2
100
AcDbSymbolTableRecord
100
AcDbLayerTableRecord
  2
DEFAULT
 70
     0
 62
     7
  6
CONTINUOUS
  0
ENDTAB
  0
TABLE
  2
STYLE
  5
3
330
0
100
AcDbSymbolTable
 70
     1
  0
STYLE
  5
11
330
3
100
AcDbSymbolTableRecord
100
AcDbTextStyleTableRecord
  2
STANDARD
 70
     0
 40
0.0
 41
1.0
 50
0.0
 71
     0
 42
0.2
  3
txt
  4

  0
ENDTAB
  0
TABLE
  2
VIEW
  5
6
330
0
100
AcDbSymbolTable
 70
     0
  0
ENDTAB
  0
TABLE
  2
UCS
  5
7
330
0
100
AcDbSymbolTable
 70
     0
  0
ENDTAB
  0
TABLE
  2
APPID
  5
9
330
0
100
AcDbSymbolTable
 70
     1
  0
APPID
  5
12
330
9
100
AcDbSymbolTableRecord
100
AcDbRegAppTableRecord
  2
ACAD
 70
     0
  0
ENDTAB
  0
TABLE
  2
DIMSTYLE
  5
A
330
0
100
AcDbSymbolTable
 70
     1
  0
DIMSTYLE
105
27
330
A
100
AcDbSymbolTableRecord
100
AcDbDimStyleTableRecord
  2
STANDARD
 70
     0
  3

  4

  5

  6

  7

 40
1.0
 41
0.18
 42
0.0625
 43
0.38
 44
0.18
 45
0.0
 46
0.0
 47
0.0
 48
0.0
140
0.18
141
0.09
142
0.0
143
25.4
144
1.0
145
0.0
146
1.0
147
0.09
 71
     0
 72
     0
 73
     1
 74
     1
 75
     0
 76
     0
 77
     0
 78
     0
170
     0
171
     2
172
     0
173
     0
174
     0
175
     0
176
     0
177
     0
178
     0
270
     2
271
     4
272
     4
273
     2
274
     2
340
11
275
     0
280
     0
281
     0
282
     0
283
     1
284
     0
285
     0
286
     0
287
     3
288
     0
  0
ENDTAB
  0
TABLE
  2
BLOCK_RECORD
  5
1
330
0
100
AcDbSymbolTable
 70
     1
  0
BLOCK_RECORD
  5
1F
330
1
100
AcDbSymbolTableRecord
100
AcDbBlockTableRecord
  2
*MODEL_SPACE
  0
BLOCK_RECORD
  5
1B
330
1
100
AcDbSymbolTableRecord
100
AcDbBlockTableRecord
  2
*PAPER_SPACE
  0
ENDTAB
  0
ENDSEC
  0
SECTION
  2
BLOCKS
  0
BLOCK
  5
20
330
1F
100
AcDbEntity
  8
0
100
AcDbBlockBegin
  2
*MODEL_SPACE
 70
     0
 10
0.0
 20
0.0
 30
0.0
  3
*MODEL_SPACE
  1

  0
ENDBLK
  5
21
330
1F
100
AcDbEntity
  8
0
100
AcDbBlockEnd
  0
BLOCK
  5
1C
330
1B
100
AcDbEntity
 67
     1
  8
0
100
AcDbBlockBegin
  2
*PAPER_SPACE
 70
     0
 10
0.0
 20
0.0
 30
0.0
  3
*PAPER_SPACE
  1

  0
ENDBLK
  5
1D
330
1B
100
AcDbEntity
 67
     1
  8
0
100
AcDbBlockEnd
  0
ENDSEC
  0
SECTION
  2
ENTITIES
  0
LINE
  5
3C
330
1F
100
AcDbEntity
  8
DEFAULT
100
AcDbLine
 10
10.15747919411604
 20
41.61041336296187
 30
0.0
 11
10.15747919411604
 21
42.41657484049004
 31
0.0
  0
LINE
  5
3D
330
1F
100
AcDbEntity
  8
DEFAULT
100
AcDbLine
 10
10.90442619411604
 20
46.31847384049003
 30
0.0
 11
10.90442619411604
 21
41.61041353301204
 31
0.0
  0
LINE
  5
3E
330
1F
100
AcDbEntity
  8
DEFAULT
100
AcDbLine
 10
-10.904474
 20
46.31847384049003
 30
0.0
 11
-10.904474
 21
41.61041353301204
 31
0.0
  0
LINE
  5
3F
330
1F
100
AcDbEntity
  8
DEFAULT
100
AcDbLine
 10
-10.157527
 20
41.61041336296187
 30
0.0
 11
-10.157527
 21
42.41657484049004
 31
0.0
  0
LINE
  5
40
330
1F
100
AcDbEntity
  8
DEFAULT
100
AcDbLine
 10
-9.717474000000001
 20
62.64061700134936
 30
0.0
 11
-9.717474000000001
 21
58.45784484049004
 31
0.0
  0
LINE
  5
41
330
1F
100
AcDbEntity
  8
DEFAULT
100
AcDbLine
 10
-8.970527
 20
59.15049184049003
 30
0.0
 11
-8.970527
 21
62.640617001349
 31
0.0
  0
LINE
  5
42
330
1F
100
AcDbEntity
  8
DEFAULT
100
AcDbLine
 10
8.970479194116042
 20
59.15049184049003
 30
0.0
 11
8.970479194116042
 21
62.640617001349
 31
0.0
  0
LINE
  5
43
330
1F
100
AcDbEntity
  8
DEFAULT
100
AcDbLine
 10
9.71742619411604
 20
62.64061700134936
 30
0.0
 11
9.71742619411604
 21
58.45784484049004
 31
0.0
  0
ARC
  5
44
330
1F
100
AcDbEntity
  8
DEFAULT
100
AcDbCircle
 10
-10.53100008616685
 20
41.61041353301204
 30
0.0
 40
0.37347345538205
100
AcDbArc
 50
180.0
 51
359.9999739120492
  0
ARC
  5
45
330
1F
100
AcDbEntity
  8
DEFAULT
100
AcDbCircle
 10
10.53095228028289
 20
41.61041353301204
 30
0.0
 40
0.37347345538205
100
AcDbArc
 50
180.0000260879508
 51
0.0
  0
ARC
  5
46
330
1F
100
AcDbEntity
  8
DEFAULT
100
AcDbCircle
 10
-9.34400008616695
 20
62.64061717139917
 30
0.0
 40
0.37347345538195
100
AcDbArc
 50
359.9999739120492
 51
180.0000260878963
  0
ARC
  5
47
330
1F
100
AcDbEntity
  8
DEFAULT
100
AcDbCircle
 10
9.343952280282991
 20
62.64061717139917
 30
0.0
 40
0.37347345538195
100
AcDbArc
 50
359.9999739121037
 51
180.0000260879508
  0
LINE
  5
48
330
1F
100
AcDbEntity
  8
DEFAULT
100
AcDbLine
 10
24.45468603454457
 20
0.6311900878699994
 30
0.0
 11
43.05011088401729
 21
0.6311900878699994
 31
0.0
  0
LINE
  5
49
330
1F
100
AcDbEntity
  8
DEFAULT
100
AcDbLine
 10
24.32244079691795
 20
-0.1188099121300006
 30
0.0
 11
43.08941671637935
 21
-0.1188099121300006
 31
0.0
  0
LINE
  5
4A
330
1F
100
AcDbEntity
  8
DEFAULT
100
AcDbLine
 10
22.40885365482769
 20
-6.65222276878689
 30
0.0
 11
26.43262635521957
 21
16.16772508787
 31
0.0
  0
LINE
  5
4B
330
1F
100
AcDbEntity
  8
DEFAULT
100
AcDbLine
 10
27.31824735521957
 20
16.87125308787
 30
0.0
 11
23.14745969369753
 21
-6.78245877564069
 31
0.0
  0
LINE
  5
4C
330
1F
100
AcDbEntity
  8
DEFAULT
100
AcDbLine
 10
43.43703220397902
 20
-6.751708900204782
 30
0.0
 11
41.97827935521957
 21
21.08295508787
 31
0.0
  0
LINE
  5
4D
330
1F
100
AcDbEntity
  8
DEFAULT
100
AcDbLine
 10
42.72725135521956
 20
21.12220708787
 30
0.0
 11
44.18600420397903
 21
-6.712456900204779
 31
0.0
  0
LINE
  5
4E
330
1F
100
AcDbEntity
  8
DEFAULT
100
AcDbLine
 10
43.46078020397902
 20
-6.85457490020478
 30
0.0
 11
43.43703220397902
 21
-6.751708900204781
 31
0.0
  0
LINE
  5
4F
330
1F
100
AcDbEntity
  8
DEFAULT
100
AcDbLine
 10
44.18600420397902
 20
-6.71245690020478
 30
0.0
 11
43.43703220397902
 21
-6.751708900204781
 31
0.0
  0
LINE
  5
50
330
1F
100
AcDbEntity
  8
DEFAULT
100
AcDbLine
 10
44.17313820397903
 20
-6.817241900204779
 30
0.0
 11
44.18600420397902
 21
-6.71245690020478
 31
0.0
  0
ARC
  5
51
330
1F
100
AcDbEntity
  8
DEFAULT
100
AcDbCircle
 10
43.55821720397902
 20
-6.83207990020478
 30
0.0
 40
0.0999999597249908
100
AcDbArc
 50
192.9999419738197
 51
245.4088585040375
  0
ARC
  5
52
330
1F
100
AcDbEntity
  8
DEFAULT
100
AcDbCircle
 10
44.07388320397902
 20
-6.805054900204778
 30
0.0
 40
0.1000004609539147
100
AcDbArc
 50
300.5917380427414
 51
352.9999895318866
  0
ARC
  5
53
330
1F
100
AcDbEntity
  8
DEFAULT
100
AcDbCircle
 10
43.79019420397902
 20
-6.325202900204781
 30
0.0
 40
0.6574385836133012
100
AcDbArc
 50
245.408432225111
 51
300.5916408832243
  0
ARC
  5
54
330
1F
100
AcDbEntity
  8
DEFAULT
100
AcDbCircle
 10
22.50885365482791
 20
-6.757794768786924
 30
0.0
 40
0.1000000666324562
100
AcDbArc
 50
180.0
 51
232.4083865918941
  0
ARC
  5
55
330
1F
100
AcDbEntity
  8
DEFAULT
100
AcDbCircle
 10
23.0173826548279
 20
-6.847461768786927
 30
0.0
 40
0.1000001111742808
100
AcDbArc
 50
287.5915054176616
 51
339.9999563588718
  0
ARC
  5
56
330
1F
100
AcDbEntity
  8
DEFAULT
100
AcDbCircle
 10
22.8489076548279
 20
-6.316091768786924
 30
0.0
 40
0.657439163561921
100
AcDbArc
 50
232.4083946593534
 51
287.591605979492
  0
LINE
  5
57
330
1F
100
AcDbEntity
  8
DEFAULT
100
AcDbLine
 10
23.1474596548279
 20
-6.782458768786926
 30
0.0
 11
22.4088536548279
 21
-6.652222768786926
 31
0.0
  0
LINE
  5
58
330
1F
100
AcDbEntity
  8
DEFAULT
100
AcDbLine
 10
23.1113516548279
 20
-6.881663768786924
 30
0.0
 11
23.1474596548279
 21
-6.782458768786926
 31
0.0
  0
LINE
  5
59
330
1F
100
AcDbEntity
  8
DEFAULT
100
AcDbLine
 10
22.4088536548279
 20
-6.757794768786924
 30
0.0
 11
22.4088536548279
 21
-6.652222768786926
 31
0.0
  0
LINE
  5
5A
330
1F
100
AcDbEntity
  8
DEFAULT
100
AcDbLine
 10
-9.717472999999998
 20
0.6311900878699997
 30
0.0
 11
-9.717472999999998
 21
15.48499108787
 31
0.0
  0
LINE
  5
5B
330
1F
100
AcDbEntity
  8
DEFAULT
100
AcDbLine
 10
-9.717472999999998
 20
-6.726928070587673
 30
0.0
 11
-9.717472999999998
 21
-0.118809912130001
 31
0.0
  0
LINE
  5
5C
330
1F
100
AcDbEntity
  8
DEFAULT
100
AcDbLine
 10
-8.970526
 20
-0.1188099121299994
 30
0.0
 11
-8.970526
 21
-6.726927838467745
 31
0.0
  0
LINE
  5
5D
330
1F
100
AcDbEntity
  8
DEFAULT
100
AcDbLine
 10
-8.970526
 20
15.48499108787
 30
0.0
 11
-8.970526
 21
0.6311900878699962
 31
0.0
  0
LINE
  5
5E
330
1F
100
AcDbEntity
  8
DEFAULT
100
AcDbLine
 10
8.970526
 20
-0.1188099121299994
 30
0.0
 11
8.970526
 21
-6.726927838467745
 31
0.0
  0
LINE
  5
5F
330
1F
100
AcDbEntity
  8
DEFAULT
100
AcDbLine
 10
8.970526
 20
15.48499108787
 30
0.0
 11
8.970526
 21
0.6311900878699962
 31
0.0
  0
LINE
  5
60
330
1F
100
AcDbEntity
  8
DEFAULT
100
AcDbLine
 10
9.717472999999998
 20
0.6311900878699997
 30
0.0
 11
9.717472999999998
 21
15.48499108787
 31
0.0
  0
LINE
  5
61
330
1F
100
AcDbEntity
  8
DEFAULT
100
AcDbLine
 10
9.717472999999998
 20
-6.726928070587673
 30
0.0
 11
9.717472999999998
 21
-0.118809912130001
 31
0.0
  0
LINE
  5
62
330
1F
100
AcDbEntity
  8
DEFAULT
100
AcDbLine
 10
-10.157526
 20
0.6311900878699994
 30
0.0
 11
10.157526
 21
0.6311900878699994
 31
0.0
  0
LINE
  5
63
330
1F
100
AcDbEntity
  8
DEFAULT
100
AcDbLine
 10
-10.157526
 20
-0.1188099121300006
 30
0.0
 11
10.157526
 21
-0.1188099121300006
 31
0.0
  0
LINE
  5
64
330
1F
100
AcDbEntity
  8
DEFAULT
100
AcDbLine
 10
10.904473
 20
-6.726927787510445
 30
0.0
 11
10.904473
 21
24.87863708787
 31
0.0
  0
LINE
  5
65
330
1F
100
AcDbEntity
  8
DEFAULT
100
AcDbLine
 10
10.15752600000003
 20
-6.726927661997746
 30
0.0
 11
10.15752599999993
 21
15.48514058787
 31
0.0
  0
LINE
  5
66
330
1F
100
AcDbEntity
  8
DEFAULT
100
AcDbLine
 10
10.15752599999993
 20
15.48514058787
 30
0.0
 11
-10.15752599999993
 21
15.48514058787
 31
0.0
  0
LINE
  5
67
330
1F
100
AcDbEntity
  8
DEFAULT
100
AcDbLine
 10
-10.15752599999993
 20
15.48514058787
 30
0.0
 11
-10.15752600000003
 21
-6.726927661997757
 31
0.0
  0
LINE
  5
68
330
1F
100
AcDbEntity
  8
DEFAULT
100
AcDbLine
 10
-10.904473
 20
-6.726927787510445
 30
0.0
 11
-10.904473
 21
24.87863708787
 31
0.0
  0
LINE
  5
69
330
1F
100
AcDbEntity
  8
DEFAULT
100
AcDbLine
 10
9.63064741538
 20
-6.917336781767749
 30
0.0
 11
9.700495103319998
 21
-6.831242047547748
 31
0.0
  0
LINE
  5
6A
330
1F
100
AcDbEntity
  8
DEFAULT
100
AcDbLine
 10
10.88765230466
 20
-6.830925943787748
 30
0.0
 11
10.83396837757
 21
-6.903516262207746
 31
0.0
  0
LINE
  5
6B
330
1F
100
AcDbEntity
  8
DEFAULT
100
AcDbLine
 10
10.2280314501
 20
-6.903516262217747
 30
0.0
 11
10.174347523
 21
-6.830925943787748
 31
0.0
  0
LINE
  5
6C
330
1F
100
AcDbEntity
  8
DEFAULT
100
AcDbLine
 10
-9.700495
 20
-6.831241661997749
 30
0.0
 11
-9.717473369219999
 21
-6.726927838467746
 31
0.0
  0
LINE
  5
6D
330
1F
100
AcDbEntity
  8
DEFAULT
100
AcDbLine
 10
9.057352411419998
 20
-6.917336781347747
 30
0.0
 11
9.34399991383
 21
-6.983117749867746
 31
0.0
  0
LINE
  5
6E
330
1F
100
AcDbEntity
  8
DEFAULT
100
AcDbLine
 10
8.987504724339999
 20
-6.831242047537747
 30
0.0
 11
9.05735241223
 21
-6.917336781737746
 31
0.0
  0
LINE
  5
6F
330
1F
100
AcDbEntity
  8
DEFAULT
100
AcDbLine
 10
9.34399991383
 20
-6.983117749867746
 30
0.0
 11
9.630647416190001
 21
-6.917336781367749
 31
0.0
  0
LINE
  5
70
330
1F
100
AcDbEntity
  8
DEFAULT
100
AcDbLine
 10
10.53099991383
 20
-6.977486219227747
 30
0.0
 11
10.22803145
 21
-6.903516262157749
 31
0.0
  0
LINE
  5
71
330
1F
100
AcDbEntity
  8
DEFAULT
100
AcDbLine
 10
-10.887652
 20
-6.830925661997747
 30
0.0
 11
-10.90447336922
 21
-6.726927838467746
 31
0.0
  0
LINE
  5
72
330
1F
100
AcDbEntity
  8
DEFAULT
100
AcDbLine
 10
10.227887
 20
-6.903360661997746
 30
0.0
 11
10.228063
 21
-6.903458661997747
 31
0.0
  0
LINE
  5
73
330
1F
100
AcDbEntity
  8
DEFAULT
100
AcDbLine
 10
-10.174348
 20
-6.830925661997747
 30
0.0
 11
-10.157526
 21
-6.726927661997746
 31
0.0
  0
ARC
  5
74
330
1F
100
AcDbEntity
  8
DEFAULT
100
AcDbCircle
 10
-9.343999913834999
 20
-5.68849053316492
 30
0.0
 40
1.103555371932829
100
AcDbArc
 50
250.2189038664899
 51
289.7810961335101
  0
LINE
  5
75
330
1F
100
AcDbEntity
  8
DEFAULT
100
AcDbLine
 10
10.83396837769
 20
-6.903516262147748
 30
0.0
 11
10.53099991383
 21
-6.977486219227747
 31
0.0
  0
LINE
  5
76
330
1F
100
AcDbEntity
  8
DEFAULT
100
AcDbLine
 10
-8.987504999999999
 20
-6.831241661997749
 30
0.0
 11
-8.97052645845
 21
-6.726927838467746
 31
0.0
  0
ARC
  5
77
330
1F
100
AcDbEntity
  8
DEFAULT
100
AcDbCircle
 10
-10.53099904528715
 20
-9.43299973095764
 30
0.0
 40
2.731722562406536
100
AcDbArc
 50
82.14207979428974
 51
97.8579472785313
  0
LINE
  5
78
330
1F
100
AcDbEntity
  8
DEFAULT
100
AcDbLine
 10
8.987504999999999
 20
-6.831241661997749
 30
0.0
 11
8.97052645845
 21
-6.726927838467746
 31
0.0
  0
LINE
  5
79
330
1F
100
AcDbEntity
  8
DEFAULT
100
AcDbLine
 10
10.887652
 20
-6.830925661997747
 30
0.0
 11
10.90447336922
 21
-6.726927838467746
 31
0.0
  0
LINE
  5
7A
330
1F
100
AcDbEntity
  8
DEFAULT
100
AcDbLine
 10
10.174348
 20
-6.830925661997747
 30
0.0
 11
10.157526
 21
-6.726927661997746
 31
0.0
  0
ARC
  5
7B
330
1F
100
AcDbEntity
  8
DEFAULT
100
AcDbCircle
 10
10.53099904528715
 20
-9.43299973095764
 30
0.0
 40
2.731722562406536
100
AcDbArc
 50
82.14205272146872
 51
97.85792020571027
  0
LINE
  5
7C
330
1F
100
AcDbEntity
  8
DEFAULT
100
AcDbLine
 10
-9.34399991383
 20
-6.983117749867746
 30
0.0
 11
-9.630647416190001
 21
-6.917336781367749
 31
0.0
  0
ARC
  5
7D
330
1F
100
AcDbEntity
  8
DEFAULT
100
AcDbCircle
 10
9.343999913834999
 20
-5.68849053316492
 30
0.0
 40
1.103555371932829
100
AcDbArc
 50
250.2189038664899
 51
289.7810961335101
  0
LINE
  5
7E
330
1F
100
AcDbEntity
  8
DEFAULT
100
AcDbLine
 10
-9.057352411419998
 20
-6.917336781347747
 30
0.0
 11
-9.34399991383
 21
-6.983117749867746
 31
0.0
  0
LINE
  5
7F
330
1F
100
AcDbEntity
  8
DEFAULT
100
AcDbLine
 10
-10.83396837769
 20
-6.903516262147748
 30
0.0
 11
-10.53099991383
 21
-6.977486219227747
 31
0.0
  0
LINE
  5
80
330
1F
100
AcDbEntity
  8
DEFAULT
100
AcDbLine
 10
9.700495
 20
-6.831241661997749
 30
0.0
 11
9.717473369219999
 21
-6.726927838467746
 31
0.0
  0
LINE
  5
81
330
1F
100
AcDbEntity
  8
DEFAULT
100
AcDbLine
 10
-10.227887
 20
-6.903360661997746
 30
0.0
 11
-10.228063
 21
-6.903458661997747
 31
0.0
  0
LINE
  5
82
330
1F
100
AcDbEntity
  8
DEFAULT
100
AcDbLine
 10
-10.2280314501
 20
-6.903516262217747
 30
0.0
 11
-10.174347523
 21
-6.830925943787748
 31
0.0
  0
LINE
  5
83
330
1F
100
AcDbEntity
  8
DEFAULT
100
AcDbLine
 10
-10.88765230466
 20
-6.830925943787748
 30
0.0
 11
-10.83396837757
 21
-6.903516262207746
 31
0.0
  0
LINE
  5
84
330
1F
100
AcDbEntity
  8
DEFAULT
100
AcDbLine
 10
-8.987504724339999
 20
-6.831242047537747
 30
0.0
 11
-9.05735241223
 21
-6.917336781737746
 31
0.0
  0
LINE
  5
85
330
1F
100
AcDbEntity
  8
DEFAULT
100
AcDbLine
 10
-10.53099991383
 20
-6.977486219227747
 30
0.0
 11
-10.22803145
 21
-6.903516262157749
 31
0.0
  0
LINE
  5
86
330
1F
100
AcDbEntity
  8
DEFAULT
100
AcDbLine
 10
-9.63064741538
 20
-6.917336781767749
 30
0.0
 11
-9.700495103319998
 21
-6.831242047547748
 31
0.0
  0
ARC
  5
87
330
1F
100
AcDbEntity
  8
DEFAULT
100
AcDbCircle
 10
9.294483347567692
 20
57.40747352086687
 30
0.0
 40
0.337371240916483
100
AcDbArc
 50
163.7690937181005
 51
12.17922169593487
  0
ARC
  5
88
330
1F
100
AcDbEntity
  8
DEFAULT
100
AcDbCircle
 10
3.147725966122788
 20
56.03412441209174
 30
0.0
 40
6.004945457893307
100
AcDbArc
 50
14.14675975361659
 51
43.76922486833167
  0
ARC
  5
89
330
1F
100
AcDbEntity
  8
DEFAULT
100
AcDbCircle
 10
-0.0000122014709895
 20
50.94561568852664
 30
0.0
 40
11.89263937875097
100
AcDbArc
 50
51.00111379195955
 51
128.9988862080405
  0
ARC
  5
8A
330
1F
100
AcDbEntity
  8
DEFAULT
100
AcDbCircle
 10
-3.148033278224464
 20
56.0342302343386
 30
0.0
 40
6.004667958240741
100
AcDbArc
 50
136.2296369167567
 51
165.8536141729982
  0
ARC
  5
8B
330
1F
100
AcDbEntity
  8
DEFAULT
100
AcDbCircle
 10
-9.294531153451656
 20
57.40747352086688
 30
0.0
 40
0.3373712409164806
100
AcDbArc
 50
167.8207783040675
 51
16.23090628189714
  0
LINE
  5
8C
330
1F
100
AcDbEntity
  8
DEFAULT
100
AcDbLine
 10
-10.157527
 20
42.82505384049004
 30
0.0
 11
-10.157527
 21
46.31847184049003
 31
0.0
  0
LINE
  5
8D
330
1F
100
AcDbEntity
  8
DEFAULT
100
AcDbLine
 10
-7.670106999999998
 20
31.99086708787
 30
0.0
 11
-8.197087
 21
32.00963108787
 31
0.0
  0
ARC
  5
8E
330
1F
100
AcDbEntity
  8
DEFAULT
100
AcDbCircle
 10
-7.935625335976225
 20
31.54866250072381
 30
0.0
 40
0.5299568285149553
100
AcDbArc
 50
119.5619337704161
 51
186.8511133035107
  0
LINE
  5
8F
330
1F
100
AcDbEntity
  8
DEFAULT
100
AcDbLine
 10
-8.461797999999998
 20
31.48544408787
 30
0.0
 11
-8.759571999999999
 21
28.48905408787
 31
0.0
  0
LINE
  5
90
330
1F
100
AcDbEntity
  8
DEFAULT
100
AcDbLine
 10
-8.759571999999999
 20
28.48905408787
 30
0.0
 11
-8.962356
 21
25.89568408786999
 31
0.0
  0
LINE
  5
91
330
1F
100
AcDbEntity
  8
DEFAULT
100
AcDbLine
 10
-8.962356
 20
25.89568408786999
 30
0.0
 11
-9.063690999999999
 21
22.47634908787
 31
0.0
  0
LINE
  5
92
330
1F
100
AcDbEntity
  8
DEFAULT
100
AcDbLine
 10
-9.063690999999999
 20
22.47634908787
 30
0.0
 11
-9.063690999999999
 21
18.01760566177198
 31
0.0
  0
LINE
  5
93
330
1F
100
AcDbEntity
  8
DEFAULT
100
AcDbLine
 10
-10.157526
 20
24.87863608787
 30
0.0
 11
-10.157526
 21
16.73357708787
 31
0.0
  0
LINE
  5
94
330
1F
100
AcDbEntity
  8
DEFAULT
100
AcDbLine
 10
-10.157526
 20
16.73357708787
 30
0.0
 11
-9.592494579866756
 21
16.73357708787
 31
0.0
  0
ARC
  5
95
330
1F
100
AcDbEntity
  8
DEFAULT
100
AcDbCircle
 10
0.0
 20
362.4879977941072
 30
0.0
 40
330.5861218297694
100
AcDbArc
 50
268.6705304058545
 51
271.3294695941456
  0
ARC
  5
96
330
1F
100
AcDbEntity
  8
DEFAULT
100
AcDbCircle
 10
0.0
 20
340.607451488418
 30
0.0
 40
308.1509366474075
100
AcDbArc
 50
268.5773596630037
 51
271.4226403369962
  0
SPLINE
  5
97
330
1F
100
AcDbEntity
  8
DEFAULT
100
AcDbSpline
210
0.0
220
0.0
230
1.0
 70
    12
 71
     2
 72
    14
 73
    11
 74
     0
 42
0.0000000001
 43
0.0000000001
 40
-37.83956168228067
 40
-37.83956168228067
 40
-37.83956168228067
 40
-23.18809796348266
 40
-23.18809796348266
 40
-21.61730163668769
 40
-21.61730163668769
 40
-4.040510463327674
 40
-4.040510463327674
 40
-2.469714136532703
 40
-2.469714136532703
 40
12.09335831093076
 40
12.09335831093076
 40
12.09335831093076
 10
-9.614841471015243
 20
57.33491137019551
 30
0.0
 41
1.0
 10
-9.614841471015243
 20
50.0091795107965
 30
0.0
 41
1.0
 10
-9.614841471015243
 20
42.68344765139749
 30
0.0
 41
1.0
 10
-9.614841471015243
 20
41.68344765139742
 30
0.0
 41
0.7071067811865213
 10
-8.614841471015168
 20
41.68344765139749
 30
0.0
 41
1.0
 10
-0.0000336892674309
 20
41.68344765139749
 30
0.0
 41
1.0
 10
8.589407892706515
 20
41.68344765139749
 30
0.0
 41
1.0
 10
9.589407892706587
 20
41.68344765139742
 30
0.0
 41
0.7071067811865213
 10
9.589407892706589
 20
42.68344765139749
 30
0.0
 41
1.0
 10
9.589407892706589
 20
49.96498387512922
 30
0.0
 41
1.0
 10
9.589407892706589
 20
57.24652009886096
 30
0.0
 41
1.0
  0
SPLINE
  5
98
330
1F
100
AcDbEntity
  8
DEFAULT
100
AcDbSpline
210
0.0
220
0.0
230
1.0
 70
     8
 71
     3
 72
     8
 73
     4
 74
     0
 42
0.0000000001
 43
0.0000000001
 40
0.0
 40
0.0
 40
0.0
 40
0.0
 40
1.0
 40
1.0
 40
1.0
 40
1.0
 10
22.02774615395294
 20
32.06332932682162
 30
0.0
 10
25.88216404004616
 20
28.12612859538719
 30
0.0
 10
27.69806535521957
 20
22.83761108787
 30
0.0
 10
24.40618726993102
 20
15.08258560354523
 30
0.0
  0
ARC
  5
99
330
1F
100
AcDbEntity
  8
DEFAULT
100
AcDbCircle
 10
10.26975073302563
 20
25.05212748735584
 30
0.0
 40
0.8612499741073247
100
AcDbArc
 50
317.4841388879287
 51
0.1237216047580648
  0
ARC
  5
9A
330
1F
100
AcDbEntity
  8
DEFAULT
100
AcDbCircle
 10
10.5309995
 20
24.87863658787
 30
0.0
 40
0.373473500000334
100
AcDbArc
 50
0.0
 51
180.0000767066196
  0
LINE
  5
9B
330
1F
100
AcDbEntity
  8
DEFAULT
100
AcDbLine
 10
27.24738535521957
 20
16.46937408787
 30
0.0
 11
40.86610235521957
 21
17.18310108787
 31
0.0
  0
ARC
  5
9C
330
1F
100
AcDbEntity
  8
DEFAULT
100
AcDbCircle
 10
10.79224826697437
 20
25.05212748735584
 30
0.0
 40
0.8612499741073247
100
AcDbArc
 50
179.8762783952419
 51
222.5158611120711
  0
ARC
  5
9D
330
1F
100
AcDbEntity
  8
DEFAULT
100
AcDbCircle
 10
10.25145632125833
 20
24.40932796249656
 30
0.0
 40
0.8795729386842909
100
AcDbArc
 50
317.9383748188135
 51
359.5326528058526
  0
LINE
  5
9E
330
1F
100
AcDbEntity
  8
DEFAULT
100
AcDbLine
 10
11.131
 20
24.40215358787
 30
0.0
 11
11.13099979781551
 21
25.07610408787
 31
0.0
  0
ARC
  5
9F
330
1F
100
AcDbEntity
  8
DEFAULT
100
AcDbCircle
 10
10.23100738510844
 20
25.07610408787
 30
0.0
 40
0.8999924127070678
100
AcDbArc
 50
0.0
 51
12.98273598200803
  0
ARC
  5
A0
330
1F
100
AcDbEntity
  8
DEFAULT
100
AcDbCircle
 10
10.96182806137841
 20
25.24459576796494
 30
0.0
 40
0.1500002079981347
100
AcDbArc
 50
12.98260202409527
 51
73.20433537465154
  0
ARC
  5
A1
330
1F
100
AcDbEntity
  8
DEFAULT
100
AcDbCircle
 10
10.53099975
 20
23.81720425419079
 30
0.0
 40
1.640993020681423
100
AcDbArc
 50
73.2046277309488
 51
106.7953722690513
  0
ARC
  5
A2
330
1F
100
AcDbEntity
  8
DEFAULT
100
AcDbCircle
 10
10.10017065892709
 20
25.24459583244929
 30
0.0
 40
0.1499999209663498
100
AcDbArc
 50
106.7953866259137
 51
167.0173979763679
  0
ARC
  5
A3
330
1F
100
AcDbEntity
  8
DEFAULT
100
AcDbCircle
 10
10.83099161489156
 20
25.07610408787
 30
0.0
 40
0.8999924127070678
100
AcDbArc
 50
167.017264017992
 51
180.0
  0
LINE
  5
A4
330
1F
100
AcDbEntity
  8
DEFAULT
100
AcDbLine
 10
9.930999202184488
 20
25.07610408787
 30
0.0
 11
9.930999
 21
24.40215358787
 31
0.0
  0
ARC
  5
A5
330
1F
100
AcDbEntity
  8
DEFAULT
100
AcDbCircle
 10
10.81054267874167
 20
24.40932796249656
 30
0.0
 40
0.8795729386842895
100
AcDbArc
 50
180.4673471941472
 51
222.0616251811862
  0
LINE
  5
A6
330
1F
100
AcDbEntity
  8
DEFAULT
100
AcDbLine
 10
7.670106999999998
 20
31.99086708787
 30
0.0
 11
8.197087
 21
32.00963108787
 31
0.0
  0
ARC
  5
A7
330
1F
100
AcDbEntity
  8
DEFAULT
100
AcDbCircle
 10
7.935625335976225
 20
31.54866250072381
 30
0.0
 40
0.5299568285149553
100
AcDbArc
 50
353.1488866964893
 51
60.4380662295839
  0
LINE
  5
A8
330
1F
100
AcDbEntity
  8
DEFAULT
100
AcDbLine
 10
8.461797999999998
 20
31.48544408787
 30
0.0
 11
8.759571999999999
 21
28.48905408787
 31
0.0
  0
LINE
  5
A9
330
1F
100
AcDbEntity
  8
DEFAULT
100
AcDbLine
 10
8.759571999999999
 20
28.48905408787
 30
0.0
 11
8.962356
 21
25.89568408786999
 31
0.0
  0
LINE
  5
AA
330
1F
100
AcDbEntity
  8
DEFAULT
100
AcDbLine
 10
8.962356
 20
25.89568408786999
 30
0.0
 11
9.063690999999999
 21
22.47634908787
 31
0.0
  0
LINE
  5
AB
330
1F
100
AcDbEntity
  8
DEFAULT
100
AcDbLine
 10
9.063690999999999
 20
22.47634908787
 30
0.0
 11
9.063690999999999
 21
18.00911456476783
 31
0.0
  0
ARC
  5
AC
330
1F
100
AcDbEntity
  8
DEFAULT
100
AcDbCircle
 10
24.76483343699928
 20
14.97758211064319
 30
0.0
 40
0.373701494075674
100
AcDbArc
 50
117.4466791902411
 51
302.3846096353071
  0
LINE
  5
AD
330
1F
100
AcDbEntity
  8
DEFAULT
100
AcDbLine
 10
26.67222535521957
 20
16.98516408787
 30
0.0
 11
27.64899635521957
 21
22.52470808787
 31
0.0
  0
ARC
  5
AE
330
1F
100
AcDbEntity
  8
DEFAULT
100
AcDbCircle
 10
19.3186175850133
 20
23.97059227665276
 30
0.0
 40
8.454927057194245
100
AcDbArc
 50
350.1534033066482
 51
12.83585698515435
  0
LINE
  5
AF
330
1F
100
AcDbEntity
  8
DEFAULT
100
AcDbLine
 10
27.56226035521957
 20
25.84892808787
 30
0.0
 11
26.26987935521957
 21
31.45167408787
 31
0.0
  0
ARC
  5
B0
330
1F
100
AcDbEntity
  8
DEFAULT
100
AcDbCircle
 10
25.5669595731272
 20
31.28825518299522
 30
0.0
 40
0.7216660990563775
100
AcDbArc
 50
13.0879637730957
 51
91.90581877395726
  0
LINE
  5
B1
330
1F
100
AcDbEntity
  8
DEFAULT
100
AcDbLine
 10
25.54295935521957
 20
32.00952208787
 30
0.0
 11
22.29351835522005
 21
31.89666408787001
 31
0.0
  0
ARC
  5
B2
330
1F
100
AcDbEntity
  8
DEFAULT
100
AcDbCircle
 10
22.28648185521957
 20
32.17693858787
 30
0.0
 40
0.2803628143718395
100
AcDbArc
 50
91.43815110015304
 51
271.438151100153
  0
LINE
  5
B3
330
1F
100
AcDbEntity
  8
DEFAULT
100
AcDbLine
 10
22.27944535521909
 20
32.45721308786998
 30
0.0
 11
25.52637935521957
 21
32.56998508786999
 31
0.0
  0
ARC
  5
B4
330
1F
100
AcDbEntity
  8
DEFAULT
100
AcDbCircle
 10
25.57125332487438
 20
31.29211472370019
 30
0.0
 40
1.278658023388598
100
AcDbArc
 50
12.94532142205937
 51
92.01118445160957
  0
LINE
  5
B5
330
1F
100
AcDbEntity
  8
DEFAULT
100
AcDbLine
 10
26.81741335521957
 20
31.57856108787
 30
0.0
 11
28.10985235521957
 21
25.97556308787
 31
0.0
  0
ARC
  5
B6
330
1F
100
AcDbEntity
  8
DEFAULT
100
AcDbCircle
 10
19.31016275010704
 20
23.97054304058077
 30
0.0
 40
9.025222575446943
100
AcDbArc
 50
350.1533385667927
 51
12.83577957528339
  0
LINE
  5
B7
330
1F
100
AcDbEntity
  8
DEFAULT
100
AcDbLine
 10
28.20243435521957
 20
22.42712208787
 30
0.0
 11
27.22566335521957
 21
16.88757808787
 31
0.0
  0
LINE
  5
B8
330
1F
100
AcDbEntity
  8
DEFAULT
100
AcDbLine
 10
41.77232235521957
 20
16.27006908787
 30
0.0
 11
26.93550518050482
 21
14.70061438520053
 31
0.0
  0
ARC
  5
B9
330
1F
100
AcDbEntity
  8
DEFAULT
100
AcDbCircle
 10
25.05919192872729
 20
32.05141578855601
 30
0.0
 40
17.45191119360821
100
AcDbArc
 50
268.9927868957973
 51
273.6238602141111
  0
ARC
  5
BA
330
1F
100
AcDbEntity
  8
DEFAULT
100
AcDbCircle
 10
9.389511083932472
 20
58.49370959072412
 30
0.0
 40
0.4280865888179529
100
AcDbArc
 50
76.95193878883428
 51
136.5898542386213
  0
ARC
  5
BB
330
1F
100
AcDbEntity
  8
DEFAULT
100
AcDbCircle
 10
0.0000000000000018
 20
46.87128940709951
 30
0.0
 40
32.33222042123736
100
AcDbArc
 50
256.1064861405881
 51
283.8935138594119
  0
LINE
  5
BC
330
1F
100
AcDbEntity
  8
DEFAULT
100
AcDbLine
 10
9.589407892706589
 20
43.16811384049004
 30
0.0
 11
10.15747919411604
 21
43.16811384049004
 31
0.0
  0
LINE
  5
BD
330
1F
100
AcDbEntity
  8
DEFAULT
100
AcDbLine
 10
-9.614841471015243
 20
43.16811384049004
 30
0.0
 11
-10.157527
 21
43.16811384049004
 31
0.0
  0
LINE
  5
BE
330
1F
100
AcDbEntity
  8
DEFAULT
100
AcDbLine
 10
9.949323194116044
 20
46.40286184049005
 30
0.0
 11
9.930952194116042
 21
46.49601284049004
 31
0.0
  0
LINE
  5
BF
330
1F
100
AcDbEntity
  8
DEFAULT
100
AcDbLine
 10
9.930952194116042
 20
46.49601284049004
 30
0.0
 11
9.930952194116042
 21
55.80878884049004
 31
0.0
  0
ARC
  5
C0
330
1F
100
AcDbEntity
  8
DEFAULT
100
AcDbCircle
 10
9.991000166640646
 20
55.80328405381421
 30
0.0
 40
0.0602997651791616
100
AcDbArc
 50
121.3034385347484
 51
174.762155671461
  0
LINE
  5
C1
330
1F
100
AcDbEntity
  8
DEFAULT
100
AcDbLine
 10
9.959670194116036
 20
55.85480584049004
 30
0.0
 11
10.05192319411604
 21
55.87413384049005
 31
0.0
  0
ARC
  5
C2
330
1F
100
AcDbEntity
  8
DEFAULT
100
AcDbCircle
 10
10.53125023858659
 20
47.04367207086661
 30
0.0
 40
8.843461397006378
100
AcDbArc
 50
86.95149663931721
 51
93.10702790939852
  0
LINE
  5
C3
330
1F
100
AcDbEntity
  8
DEFAULT
100
AcDbLine
 10
11.00155719411604
 20
55.87461884049004
 30
0.0
 11
11.10223419411604
 21
55.85481284049006
 31
0.0
  0
ARC
  5
C4
330
1F
100
AcDbEntity
  8
DEFAULT
100
AcDbCircle
 10
11.07090422159144
 20
55.80329105381422
 30
0.0
 40
0.0602997651791616
100
AcDbArc
 50
5.237844328539053
 51
58.69656146525161
  0
LINE
  5
C5
330
1F
100
AcDbEntity
  8
DEFAULT
100
AcDbLine
 10
11.13095219411604
 20
55.80879584049005
 30
0.0
 11
11.13095219411604
 21
46.49597334049004
 31
0.0
  0
LINE
  5
C6
330
1F
100
AcDbEntity
  8
DEFAULT
100
AcDbLine
 10
11.13095219411604
 20
46.49597334049004
 30
0.0
 11
11.13094919411604
 21
46.49539384049004
 31
0.0
  0
LINE
  5
C7
330
1F
100
AcDbEntity
  8
DEFAULT
100
AcDbLine
 10
11.13094919411604
 20
46.49539384049004
 30
0.0
 11
11.13076319411604
 21
46.48693884049003
 31
0.0
  0
LINE
  5
C8
330
1F
100
AcDbEntity
  8
DEFAULT
100
AcDbLine
 10
11.13076319411604
 20
46.48693884049003
 30
0.0
 11
11.11258119411604
 21
46.40286184049005
 31
0.0
  0
LINE
  5
C9
330
1F
100
AcDbEntity
  8
DEFAULT
100
AcDbLine
 10
11.11258119411604
 20
46.40286184049005
 30
0.0
 11
11.00303819411604
 21
46.33148984049004
 31
0.0
  0
ARC
  5
CA
330
1F
100
AcDbEntity
  8
DEFAULT
100
AcDbCircle
 10
10.53095219411604
 20
49.39177665219479
 30
0.0
 40
3.096485194747443
100
AcDbArc
 50
261.2305632035672
 51
278.769436796433
  0
LINE
  5
CB
330
1F
100
AcDbEntity
  8
DEFAULT
100
AcDbLine
 10
10.05886619411604
 20
46.33148984049004
 30
0.0
 11
9.949323194116044
 21
46.40286184049005
 31
0.0
  0
ARC
  5
CC
330
1F
100
AcDbEntity
  8
DEFAULT
100
AcDbCircle
 10
9.344510022659671
 20
58.45742778059557
 30
0.0
 40
0.3712662524430437
100
AcDbArc
 50
319.0470242105185
 51
131.1171492072463
  0
LINE
  5
CD
330
1F
100
AcDbEntity
  8
DEFAULT
100
AcDbLine
 10
8.914540194116043
 20
59.17576484049003
 30
0.0
 11
9.48615946637804
 21
58.91074342352003
 31
0.0
  0
ARC
  5
CE
330
1F
100
AcDbEntity
  8
DEFAULT
100
AcDbCircle
 10
-0.0000238962206238
 20
37.54992958480976
 30
0.0
 40
21.62529071419742
100
AcDbArc
 50
64.51060549271008
 51
115.4893945012289
  0
LINE
  5
CF
330
1F
100
AcDbEntity
  8
DEFAULT
100
AcDbLine
 10
27.25990188932342
 20
17.35452786417729
 30
0.0
 11
40.81170144002959
 21
18.01760693529465
 31
0.0
  0
ARC
  5
D0
330
1F
100
AcDbEntity
  8
DEFAULT
100
AcDbCircle
 10
41.01409064223756
 20
13.8926848156314
 30
0.0
 40
4.129884245648721
100
AcDbArc
 50
74.07894774905047
 51
92.80896338279351
  0
LINE
  5
D1
330
1F
100
AcDbEntity
  8
DEFAULT
100
AcDbLine
 10
42.91563753762717
 20
17.52758439920046
 30
0.0
 11
43.42054312843982
 21
17.12134329885634
 31
0.0
  0
LINE
  5
D2
330
1F
100
AcDbEntity
  8
DEFAULT
100
AcDbLine
 10
9.624261194116041
 20
58.53516784049005
 30
0.0
 11
9.624261194116041
 21
57.47861184049005
 31
0.0
  0
LINE
  5
D3
330
1F
100
AcDbEntity
  8
DEFAULT
100
AcDbLine
 10
-10.497809
 20
42.41657484049004
 30
0.0
 11
-9.578573229752267
 21
42.41657484049004
 31
0.0
  0
ARC
  5
D4
330
1F
100
AcDbEntity
  8
DEFAULT
100
AcDbCircle
 10
-9.34357304747315
 20
58.45202451262648
 30
0.0
 40
0.2930037426607494
100
AcDbArc
 50
44.54383196361168
 51
164.0759466098521
  0
ARC
  5
D5
330
1F
100
AcDbEntity
  8
DEFAULT
100
AcDbCircle
 10
-3.130520700777053
 20
56.00437461433749
 30
0.0
 40
6.595533456034633
100
AcDbArc
 50
135.5214841029619
 51
166.8869067991937
  0
ARC
  5
D6
330
1F
100
AcDbEntity
  8
DEFAULT
100
AcDbCircle
 10
-0.0000119514709898
 20
50.94525090415299
 30
0.0
 40
12.4546266779873
100
AcDbArc
 50
51.0085324277016
 51
128.9914675722984
  0
ARC
  5
D7
330
1F
100
AcDbEntity
  8
DEFAULT
100
AcDbCircle
 10
3.130239334103939
 20
56.00428223613299
 30
0.0
 40
6.595781884831924
100
AcDbArc
 50
13.11341444064272
 51
44.47752146815636
  0
LINE
  5
D8
330
1F
100
AcDbEntity
  8
DEFAULT
100
AcDbLine
 10
9.58870660205815
 20
16.73357708787
 30
0.0
 11
10.157526
 21
16.73357708787
 31
0.0
  0
LINE
  5
D9
330
1F
100
AcDbEntity
  8
DEFAULT
100
AcDbLine
 10
10.157526
 20
16.73357708787
 30
0.0
 11
10.157526
 21
24.87863608787
 31
0.0
  0
ARC
  5
DA
330
1F
100
AcDbEntity
  8
DEFAULT
100
AcDbCircle
 10
38.35824735521957
 20
20.89323808787
 30
0.0
 40
4.374999475996649
100
AcDbArc
 50
2.999989572481478
 51
81.40574845339829
  0
ARC
  5
DB
330
1F
100
AcDbEntity
  8
DEFAULT
100
AcDbCircle
 10
41.00073635521957
 20
14.61412608787
 30
0.0
 40
2.572500298332921
100
AcDbArc
 50
62.25388557033757
 51
92.99999388829396
  0
ARC
  5
DC
330
1F
100
AcDbEntity
  8
DEFAULT
100
AcDbCircle
 10
38.35824735521957
 20
20.89323808787
 30
0.0
 40
3.624999710190126
100
AcDbArc
 50
2.999986772102911
 51
85.41520751577477
  0
LINE
  5
DD
330
1F
100
AcDbEntity
  8
DEFAULT
100
AcDbLine
 10
26.48418535521957
 20
16.46013108787
 30
0.0
 11
26.57964135521957
 21
17.00148908787
 31
0.0
  0
LINE
  5
DE
330
1F
100
AcDbEntity
  8
DEFAULT
100
AcDbLine
 10
26.31925435521957
 20
15.52476408787
 30
0.0
 11
24.96498835521957
 21
14.66200108787
 31
0.0
  0
LINE
  5
DF
330
1F
100
AcDbEntity
  8
DEFAULT
100
AcDbLine
 10
27.31824735521957
 20
16.87125308787
 30
0.0
 11
26.57964135521957
 21
17.00148908787
 31
0.0
  0
ARC
  5
E0
330
1F
100
AcDbEntity
  8
DEFAULT
100
AcDbCircle
 10
-9.34455782854363
 20
58.45742778059556
 30
0.0
 40
0.371266252443039
100
AcDbArc
 50
48.88285079275375
 51
220.9529757894806
  0
SPLINE
  5
E1
330
1F
100
AcDbEntity
  8
DEFAULT
100
AcDbSpline
210
0.0
220
0.0
230
1.0
 70
     8
 71
     3
 72
     9
 73
     5
 74
     0
 42
0.0000000001
 43
0.0000000001
 40
0.0
 40
0.0
 40
0.0
 40
0.0
 40
1.0
 40
1.9858303401092
 40
1.9858303401092
 40
1.9858303401092
 40
1.9858303401092
 10
43.42054312843982
 20
17.12134329885634
 30
0.0
 10
43.70127060207941
 20
16.82870307692772
 30
0.0
 10
43.83845134078198
 20
16.27048181439109
 30
0.0
 10
43.53646528132495
 20
15.9635689500116
 30
0.0
 10
42.99386047879818
 20
16.03500168684755
 30
0.0
  0
ARC
  5
E2
330
1F
100
AcDbEntity
  8
DEFAULT
100
AcDbCircle
 10
-9.38955888981643
 20
58.49370959072412
 30
0.0
 40
0.4280865888179529
100
AcDbArc
 50
43.41014576137865
 51
103.0480612111657
  0
LINE
  5
E3
330
1F
100
AcDbEntity
  8
DEFAULT
100
AcDbLine
 10
-9.949371000000003
 20
46.40286184049005
 30
0.0
 11
-9.931000000000001
 21
46.49601284049004
 31
0.0
  0
LINE
  5
E4
330
1F
100
AcDbEntity
  8
DEFAULT
100
AcDbLine
 10
-9.931000000000001
 20
46.49601284049004
 30
0.0
 11
-9.931000000000001
 21
55.80878884049004
 31
0.0
  0
ARC
  5
E5
330
1F
100
AcDbEntity
  8
DEFAULT
100
AcDbCircle
 10
-9.991047972524605
 20
55.80328405381421
 30
0.0
 40
0.0602997651791616
100
AcDbArc
 50
5.237844328539053
 51
58.69656146525161
  0
LINE
  5
E6
330
1F
100
AcDbEntity
  8
DEFAULT
100
AcDbLine
 10
-9.959717999999997
 20
55.85480584049004
 30
0.0
 11
-10.051971
 21
55.87413384049005
 31
0.0
  0
ARC
  5
E7
330
1F
100
AcDbEntity
  8
DEFAULT
100
AcDbCircle
 10
-10.53129804447055
 20
47.04367207086661
 30
0.0
 40
8.843461397006378
100
AcDbArc
 50
86.89297209060149
 51
93.04850336068279
  0
LINE
  5
E8
330
1F
100
AcDbEntity
  8
DEFAULT
100
AcDbLine
 10
-11.001605
 20
55.87461884049004
 30
0.0
 11
-11.102282
 21
55.85481284049006
 31
0.0
  0
ARC
  5
E9
330
1F
100
AcDbEntity
  8
DEFAULT
100
AcDbCircle
 10
-11.0709520274754
 20
55.80329105381422
 30
0.0
 40
0.0602997651791616
100
AcDbArc
 50
121.3034385347484
 51
174.762155671461
  0
LINE
  5
EA
330
1F
100
AcDbEntity
  8
DEFAULT
100
AcDbLine
 10
-11.131
 20
55.80879584049005
 30
0.0
 11
-11.131
 21
46.49597334049004
 31
0.0
  0
LINE
  5
EB
330
1F
100
AcDbEntity
  8
DEFAULT
100
AcDbLine
 10
-11.131
 20
46.49597334049004
 30
0.0
 11
-11.130997
 21
46.49539384049004
 31
0.0
  0
LINE
  5
EC
330
1F
100
AcDbEntity
  8
DEFAULT
100
AcDbLine
 10
-11.130997
 20
46.49539384049004
 30
0.0
 11
-11.130811
 21
46.48693884049003
 31
0.0
  0
LINE
  5
ED
330
1F
100
AcDbEntity
  8
DEFAULT
100
AcDbLine
 10
-11.130811
 20
46.48693884049003
 30
0.0
 11
-11.112629
 21
46.40286184049005
 31
0.0
  0
LINE
  5
EE
330
1F
100
AcDbEntity
  8
DEFAULT
100
AcDbLine
 10
-11.112629
 20
46.40286184049005
 30
0.0
 11
-11.003086
 21
46.33148984049004
 31
0.0
  0
ARC
  5
EF
330
1F
100
AcDbEntity
  8
DEFAULT
100
AcDbCircle
 10
-10.531
 20
49.39177665219479
 30
0.0
 40
3.096485194747443
100
AcDbArc
 50
261.2305632035671
 51
278.769436796433
  0
LINE
  5
F0
330
1F
100
AcDbEntity
  8
DEFAULT
100
AcDbLine
 10
-10.058914
 20
46.33148984049004
 30
0.0
 11
-9.949371000000003
 21
46.40286184049005
 31
0.0
  0
LINE
  5
F1
330
1F
100
AcDbEntity
  8
DEFAULT
100
AcDbLine
 10
-8.914588
 20
59.17576484049003
 30
0.0
 11
-9.486207272262
 21
58.91074342352003
 31
0.0
  0
LINE
  5
F2
330
1F
100
AcDbEntity
  8
DEFAULT
100
AcDbLine
 10
24.59258584562704
 20
15.30921982553831
 30
0.0
 11
26.49494635521957
 21
16.52115708787
 31
0.0
  0
LINE
  5
F3
330
1F
100
AcDbEntity
  8
DEFAULT
100
AcDbLine
 10
38.55303160988276
 20
24.3196670443437
 30
0.0
 11
38.54360236837638
 21
24.31989563059151
 31
0.0
  0
ARC
  5
F4
330
1F
100
AcDbEntity
  8
DEFAULT
100
AcDbCircle
 10
37.44602335521946
 20
-20.95552091212962
 30
0.0
 40
45.28871849375989
100
AcDbArc
 50
88.61129206441134
 51
99.8350872731326
  0
LINE
  5
F5
330
1F
100
AcDbEntity
  8
DEFAULT
100
AcDbLine
 10
29.71012512346257
 20
23.66761099672377
 30
0.0
 11
29.51796048116409
 21
24.77607755769306
 31
0.0
  0
ARC
  5
F6
330
1F
100
AcDbEntity
  8
DEFAULT
100
AcDbCircle
 10
37.44602335522051
 20
-20.95552091214431
 30
0.0
 40
46.41371865667977
100
AcDbArc
 50
87.96303149724862
 51
99.83508737323514
  0
LINE
  5
F7
330
1F
100
AcDbEntity
  8
DEFAULT
100
AcDbLine
 10
39.09576735085537
 20
25.42886896516561
 30
0.0
 11
39.11938269787952
 21
25.42802904300513
 31
0.0
  0
LINE
  5
F8
330
1F
100
AcDbEntity
  8
DEFAULT
100
AcDbLine
 10
39.11938269787952
 20
25.42802904300513
 30
0.0
 11
38.55732335521957
 21
24.32806608787
 31
0.0
  0
LINE
  5
F9
330
1F
100
AcDbEntity
  8
DEFAULT
100
AcDbLine
 10
38.55732335521957
 20
24.32806608787
 30
0.0
 11
38.55303160988276
 21
24.3196670443437
 31
0.0
  0
ARC
  5
FA
330
1F
100
AcDbEntity
  8
DEFAULT
100
AcDbCircle
 10
9.34352524158919
 20
58.45202451262649
 30
0.0
 40
0.2930037426607381
100
AcDbArc
 50
15.92405339014559
 51
135.4561680363901
  0
ARC
  5
FB
330
1F
100
AcDbEntity
  8
DEFAULT
100
AcDbCircle
 10
10.5739143456001
 20
42.83213218861493
 30
0.0
 40
0.4164956701464372
100
AcDbArc
 50
180.9737633663647
 51
264.0793351525068
  0
LINE
  5
FC
330
1F
100
AcDbEntity
  8
DEFAULT
100
AcDbLine
 10
10.49776119411604
 20
42.41657484049004
 30
0.0
 11
9.553139651443612
 21
42.41657484049004
 31
0.0
  0
LINE
  5
FD
330
1F
100
AcDbEntity
  8
DEFAULT
100
AcDbLine
 10
9.624309
 20
17.56290765791798
 30
0.0
 11
9.624309
 21
22.47548008787
 31
0.0
  0
LINE
  5
FE
330
1F
100
AcDbEntity
  8
DEFAULT
100
AcDbLine
 10
9.624309
 20
22.47548008787
 30
0.0
 11
9.521999999999998
 21
25.92880708787
 31
0.0
  0
LINE
  5
FF
330
1F
100
AcDbEntity
  8
DEFAULT
100
AcDbLine
 10
9.521999999999998
 20
25.92880708787
 30
0.0
 11
9.317381999999998
 21
28.54562408787
 31
0.0
  0
LINE
  5
100
330
1F
100
AcDbEntity
  8
DEFAULT
100
AcDbLine
 10
9.317381999999998
 20
28.54562408787
 30
0.0
 11
9.019331999999999
 21
31.54471908787
 31
0.0
  0
ARC
  5
101
330
1F
100
AcDbEntity
  8
DEFAULT
100
AcDbCircle
 10
8.107660281482609
 20
31.65360828892381
 30
0.0
 40
0.9181515019050982
100
AcDbArc
 50
353.188912688064
 51
86.31849211405478
  0
LINE
  5
102
330
1F
100
AcDbEntity
  8
DEFAULT
100
AcDbLine
 10
8.166615
 20
32.56986508787
 30
0.0
 11
7.650527
 21
32.55150008787
 31
0.0
  0
LINE
  5
103
330
1F
100
AcDbEntity
  8
DEFAULT
100
AcDbLine
 10
-9.624309
 20
17.61330414625474
 30
0.0
 11
-9.624309
 21
22.47548008787
 31
0.0
  0
LINE
  5
104
330
1F
100
AcDbEntity
  8
DEFAULT
100
AcDbLine
 10
-9.624309
 20
22.47548008787
 30
0.0
 11
-9.521999999999998
 21
25.92880708787
 31
0.0
  0
LINE
  5
105
330
1F
100
AcDbEntity
  8
DEFAULT
100
AcDbLine
 10
-9.521999999999998
 20
25.92880708787
 30
0.0
 11
-9.317381999999998
 21
28.54562408787
 31
0.0
  0
LINE
  5
106
330
1F
100
AcDbEntity
  8
DEFAULT
100
AcDbLine
 10
-9.317381999999998
 20
28.54562408787
 30
0.0
 11
-9.019331999999999
 21
31.54471908787
 31
0.0
  0
ARC
  5
107
330
1F
100
AcDbEntity
  8
DEFAULT
100
AcDbCircle
 10
-8.107660281482609
 20
31.65360828892381
 30
0.0
 40
0.9181515019050982
100
AcDbArc
 50
93.68150788594522
 51
186.8110873119361
  0
LINE
  5
108
330
1F
100
AcDbEntity
  8
DEFAULT
100
AcDbLine
 10
-8.166615
 20
32.56986508787
 30
0.0
 11
-7.650527
 21
32.55150008787
 31
0.0
  0
SPLINE
  5
109
330
1F
100
AcDbEntity
  8
DEFAULT
100
AcDbSpline
210
0.0
220
0.0
230
1.0
 70
    15
 71
     2
 72
    20
 73
    17
 74
     0
 42
0.0000000001
 43
0.0000000001
 40
-3024.637267821216
 40
-3024.637267821216
 40
-3024.637267821216
 40
-3024.136839611807
 40
-3024.136839611807
 40
-3022.566043285012
 40
-3022.566043285012
 40
-3005.894314307433
 40
-3005.894314307433
 40
-3004.323517980637
 40
-3004.323517980637
 40
-3003.823089771229
 40
-3003.823089771229
 40
-3003.037691607831
 40
-3003.037691607831
 40
-2985.365962630251
 40
-2985.365962630251
 40
-2984.580564466854
 40
-2984.580564466854
 40
-2984.580564466854
 10
-9.633552396565591
 20
17.51760693529479
 30
0.0
 41
1.0
 10
-9.633552396565559
 20
17.26739283059045
 30
0.0
 41
1.0
 10
-9.633552396565525
 20
17.01717872588612
 30
0.0
 41
1.0
 10
-9.633552396565454
 20
16.01717872588618
 30
0.0
 41
0.7071067811865667
 10
-8.63355239656551
 20
16.01717872588619
 30
0.0
 41
1.0
 10
-0.0000000000001776
 20
16.01717872588603
 30
0.0
 41
1.0
 10
8.62723380100184
 20
16.00847716576964
 30
0.0
 41
1.0
 10
9.627233801002074
 20
16.00847716576948
 30
0.0
 41
0.7071067811864646
 10
9.627233801001996
 20
17.00847716576972
 30
0.0
 41
1.0
 10
9.627233801001978
 20
17.2586912704741
 30
0.0
 41
1.0
 10
9.627233801001957
 20
17.50890537517849
 30
0.0
 41
1.0
 10
9.627233801001923
 20
18.00890537517849
 30
0.0
 41
0.707106781186545
 10
9.127233801001918
 20
18.00890537517845
 30
0.0
 41
1.0
 10
-0.0000000000001776
 20
18.01760693529472
 30
0.0
 41
1.0
 10
-9.13355239656559
 20
18.01760693529475
 30
0.0
 41
1.0
 10
-9.633552396565554
 20
18.01760693529474
 30
0.0
 41
0.7071067811865714
 10
-9.633552396565591
 20
17.51760693529479
 30
0.0
 41
1.0
  0
ARC
  5
10A
330
1F
100
AcDbEntity
  8
DEFAULT
100
AcDbCircle
 10
-10.26975073302563
 20
25.05212748735584
 30
0.0
 40
0.8612499741073247
100
AcDbArc
 50
179.8762783952419
 51
222.5158611120711
  0
ARC
  5
10B
330
1F
100
AcDbEntity
  8
DEFAULT
100
AcDbCircle
 10
-10.25145632125833
 20
24.40932796249656
 30
0.0
 40
0.8795729386842909
100
AcDbArc
 50
180.4673471941474
 51
222.0616251811865
  0
LINE
  5
10C
330
1F
100
AcDbEntity
  8
DEFAULT
100
AcDbLine
 10
-11.131
 20
24.40215358787
 30
0.0
 11
-11.13099979781551
 21
25.07610408787
 31
0.0
  0
ARC
  5
10D
330
1F
100
AcDbEntity
  8
DEFAULT
100
AcDbCircle
 10
-10.23100738510844
 20
25.07610408787
 30
0.0
 40
0.8999924127070678
100
AcDbArc
 50
167.017264017992
 51
180.0
  0
ARC
  5
10E
330
1F
100
AcDbEntity
  8
DEFAULT
100
AcDbCircle
 10
-10.96182806137841
 20
25.24459576796494
 30
0.0
 40
0.1500002079981347
100
AcDbArc
 50
106.7956646253485
 51
167.0173979759047
  0
ARC
  5
10F
330
1F
100
AcDbEntity
  8
DEFAULT
100
AcDbCircle
 10
-10.53099975
 20
23.81720425419079
 30
0.0
 40
1.640993020681423
100
AcDbArc
 50
73.20462773094867
 51
106.7953722690512
  0
ARC
  5
110
330
1F
100
AcDbEntity
  8
DEFAULT
100
AcDbCircle
 10
-10.10017065892709
 20
25.24459583244929
 30
0.0
 40
0.1499999209663498
100
AcDbArc
 50
12.98260202363213
 51
73.20461337408626
  0
ARC
  5
111
330
1F
100
AcDbEntity
  8
DEFAULT
100
AcDbCircle
 10
-10.83099161489156
 20
25.07610408787
 30
0.0
 40
0.8999924127070678
100
AcDbArc
 50
0.0
 51
12.98273598200803
  0
LINE
  5
112
330
1F
100
AcDbEntity
  8
DEFAULT
100
AcDbLine
 10
-9.930999202184488
 20
25.07610408787
 30
0.0
 11
-9.930999
 21
24.40215358787
 31
0.0
  0
ARC
  5
113
330
1F
100
AcDbEntity
  8
DEFAULT
100
AcDbCircle
 10
-10.81054267874167
 20
24.40932796249656
 30
0.0
 40
0.8795729386842895
100
AcDbArc
 50
317.9383748188138
 51
359.5326528058528
  0
ARC
  5
114
330
1F
100
AcDbEntity
  8
DEFAULT
100
AcDbCircle
 10
-10.79224826697437
 20
25.05212748735584
 30
0.0
 40
0.8612499741073247
100
AcDbArc
 50
317.4841388879289
 51
0.1237216047580648
  0
ARC
  5
115
330
1F
100
AcDbEntity
  8
DEFAULT
100
AcDbCircle
 10
-10.5309995
 20
24.87863658787
 30
0.0
 40
0.373473500000334
100
AcDbArc
 50
359.9999232933804
 51
180.0
  0
LINE
  5
116
330
1F
100
AcDbEntity
  8
DEFAULT
100
AcDbLine
 10
10.15747919411604
 20
42.82505384049004
 30
0.0
 11
10.15747919411604
 21
46.31847184049003
 31
0.0
  0
LINE
  5
117
330
1F
100
AcDbEntity
  8
DEFAULT
100
AcDbLine
 10
40.90509239705683
 20
16.43912128956784
 30
0.0
 11
27.11461433101474
 21
15.71639283812077
 31
0.0
  0
ARC
  5
118
330
1F
100
AcDbEntity
  8
DEFAULT
100
AcDbCircle
 10
-10.57396215147061
 20
42.8321321886026
 30
0.0
 40
0.4164956701327825
100
AcDbArc
 50
275.9206648458282
 51
359.0262366352995
  0
LINE
  5
119
330
1F
100
AcDbEntity
  8
DEFAULT
100
AcDbLine
 10
-9.624309
 20
58.53516784049005
 30
0.0
 11
-9.624309
 21
57.47861184049005
 31
0.0
  0
ARC
  5
11A
330
1F
100
AcDbEntity
  8
DEFAULT
100
AcDbCircle
 10
41.00073635521957
 20
14.61412608787
 30
0.0
 40
1.827500275345789
100
AcDbArc
 50
46.98400882044922
 51
93.0000003894707
  0
LINE
  5
11B
330
1F
100
AcDbEntity
  8
DEFAULT
100
AcDbLine
 10
28.10985235521957
 20
25.97556308787
 30
0.0
 11
28.10686535521957
 21
25.97698008787
 31
0.0
  0
LINE
  5
11C
330
1F
100
AcDbEntity
  8
DEFAULT
100
AcDbLine
 10
26.48418528748957
 20
16.46013068219
 30
0.0
 11
26.49604590247957
 21
16.35780847244
 31
0.0
  0
LINE
  5
11D
330
1F
100
AcDbEntity
  8
DEFAULT
100
AcDbLine
 10
27.50891235521957
 20
28.58076808787
 30
0.0
 11
27.50558735521957
 21
28.58364908787
 31
0.0
  0
LINE
  5
11E
330
1F
100
AcDbEntity
  8
DEFAULT
100
AcDbLine
 10
26.19165635521957
 20
14.80112708787
 30
0.0
 11
26.18961635521957
 21
14.79931608787
 31
0.0
  0
LINE
  5
11F
330
1F
100
AcDbEntity
  8
DEFAULT
100
AcDbLine
 10
26.49604590247957
 20
16.35780847244
 30
0.0
 11
26.43262637394957
 21
16.16772555316
 31
0.0
  0
ENDSEC
  0
SECTION
  2
OBJECTS
  0
DICTIONARY
  5
C
330
0
100
AcDbDictionary
  3
ACAD_GROUP
350
D
  3
ACAD_LAYOUT
350
1A
  3
ACAD_MLEADERSTYLE
350
141
  3
ACAD_MLINESTYLE
350
17
  3
ACAD_PLOTSETTINGS
350
19
  3
ACAD_TABLESTYLE
350
140
  3
ACAD_VISUALSTYLE
350
2A
  3
ACDBHEADERROUNDTRIPXREC
350
120
  0
DICTIONARY
  5
D
102
{ACAD_REACTORS
330
C
102
}
330
C
100
AcDbDictionary
  0
DICTIONARY
  5
1A
102
{ACAD_REACTORS
330
C
102
}
330
C
100
AcDbDictionary
  0
DICTIONARY
  5
141
102
{ACAD_REACTORS
330
C
102
}
330
C
100
AcDbDictionary
  0
DICTIONARY
  5
17
102
{ACAD_REACTORS
330
C
102
}
330
C
100
AcDbDictionary
  3
STANDARD
350
18
  0
DICTIONARY
  5
19
102
{ACAD_REACTORS
330
C
102
}
330
C
100
AcDbDictionary
  0
DICTIONARY
  5
140
102
{ACAD_REACTORS
330
C
102
}
330
C
100
AcDbDictionary
  0
DICTIONARY
  5
2A
102
{ACAD_REACTORS
330
C
102
}
330
C
100
AcDbDictionary
  3
2DWIREFRAME
350
2F
  3
3D_HIDDEN
350
31
  3
3DWIREFRAME
350
30
  3
BASIC
350
32
  3
BRIGHTEN
350
36
  3
COLORCHANGE
350
3A
  3
CONCEPTUAL
350
34
  3
DIM
350
35
  3
FACEPATTERN
350
39
  3
FLAT
350
2B
  3
FLATWITHEDGES
350
2C
  3
GOURAUD
350
2D
  3
GOURAUDWITHEDGES
350
2E
  3
LINEPATTERN
350
38
  3
REALISTIC
350
33
  3
THICKEN
350
37
  0
DICTIONARY
  5
120
102
{ACAD_REACTORS
330
C
102
}
330
C
100
AcDbDictionary
  3
CEPSNTYPE
350
129
  3
DIMSTYLEDATA
350
13F
  3
FINGERPRINTGUID
350
12A
  3
HYPERLINKBASE
350
123
  3
INSUNITS
350
128
  3
LAYOUTDICT
350
125
  3
LWETCUNION
350
127
  3
PLOTSETDICT
350
126
  3
PSVPSCALE
350
12C
  3
PUCSBASE
350
12F
  3
PUCSORGBACK
350
135
  3
PUCSORGBOTTOM
350
131
  3
PUCSORGFRONT
350
134
  3
PUCSORGLEFT
350
132
  3
PUCSORGRIGHT
350
133
  3
PUCSORGTOP
350
130
  3
PUCSORTHOREF
350
12D
  3
PUCSORTHOVIEW
350
12E
  3
STYLESHEET
350
124
  3
TSTACKALIGN
350
121
  3
TSTACKSIZE
350
122
  3
UCSBASE
350
138
  3
UCSORGBACK
350
13E
  3
UCSORGBOTTOM
350
13A
  3
UCSORGFRONT
350
13D
  3
UCSORGLEFT
350
13B
  3
UCSORGRIGHT
350
13C
  3
UCSORGTOP
350
139
  3
UCSORTHOREF
350
136
  3
UCSORTHOVIEW
350
137
  3
VERSIONGUID
350
12B
  0
MLINESTYLE
  5
18
102
{ACAD_REACTORS
330
17
102
}
330
17
100
AcDbMlineStyle
  2
Standard
 70
     0
  3

 62
   256
 51
90.0
 52
90.0
 71
     2
 49
0.5
 62
   256
  6
BYLAYER
 49
-0.5
 62
   256
  6
BYLAYER
  0
VISUALSTYLE
  5
2F
102
{ACAD_REACTORS
330
2A
102
}
330
2A
100
AcDbVisualStyle
  2
2dWireframe
 70
     4
 71
     0
 72
     2
 73
     0
 90
        0
 40
-0.6
 41
-30.0
 62
     5
 63
     7
 74
     1
 91
        4
 64
     7
 65
   257
 75
     1
175
     1
 42
1.0
 92
        0
 66
   257
 43
1.0
 76
     1
 77
     6
 78
     2
 67
     7
 79
     5
170
     0
171
     0
290
     0
174
     0
 93
        1
 44
0.0
173
     0
291
     0
 45
0.0
1001
ACAD
1000
AcDbSavedByObjectVersion
1070
     0
  0
VISUALSTYLE
  5
31
102
{ACAD_REACTORS
330
2A
102
}
330
2A
100
AcDbVisualStyle
  2
3D Hidden
 70
     6
 71
     1
 72
     2
 73
     2
 90
        0
 40
-0.6
 41
-30.0
 62
     5
 63
     7
 74
     2
 91
        2
 64
     7
 65
   257
 75
     2
175
     1
 42
40.0
 92
        0
 66
   257
 43
1.0
 76
     1
 77
     6
 78
     2
 67
     7
 79
     3
170
     0
171
     0
290
     0
174
     0
 93
        1
 44
0.0
173
     0
291
     0
 45
0.0
1001
ACAD
1000
AcDbSavedByObjectVersion
1070
     0
  0
VISUALSTYLE
  5
30
102
{ACAD_REACTORS
330
2A
102
}
330
2A
100
AcDbVisualStyle
  2
3dWireframe
 70
     5
 71
     0
 72
     2
 73
     0
 90
        0
 40
-0.6
 41
-30.0
 62
     5
 63
     7
 74
     1
 91
        4
 64
     7
 65
   257
 75
     1
175
     1
 42
1.0
 92
        0
 66
   257
 43
1.0
 76
     1
 77
     6
 78
     2
 67
     7
 79
     5
170
     0
171
     0
290
     0
174
     0
 93
        1
 44
0.0
173
     0
291
     0
 45
0.0
1001
ACAD
1000
AcDbSavedByObjectVersion
1070
     0
  0
VISUALSTYLE
  5
32
102
{ACAD_REACTORS
330
2A
102
}
330
2A
100
AcDbVisualStyle
  2
Basic
 70
     7
 71
     1
 72
     0
 73
     1
 90
        0
 40
-0.6
 41
-30.0
 62
     5
 63
     7
 74
     0
 91
        4
 64
     7
 65
   257
 75
     1
175
     1
 42
1.0
 92
        8
 66
     7
 43
1.0
 76
     1
 77
     6
 78
     2
 67
     7
 79
     5
170
     0
171
     0
290
     0
174
     0
 93
        1
 44
0.0
173
     0
291
     1
 45
0.0
1001
ACAD
1000
AcDbSavedByObjectVersion
1070
     0
  0
VISUALSTYLE
  5
36
102
{ACAD_REACTORS
330
2A
102
}
330
2A
100
AcDbVisualStyle
  2
Brighten
 70
    12
 71
     2
 72
     2
 73
     0
 90
        0
 40
-0.6
 41
-30.0
 62
     5
 63
     7
 74
     1
 91
        4
 64
     7
 65
   257
 75
     1
175
     1
 42
1.0
 92
        8
 66
     7
 43
1.0
 76
     1
 77
     6
 78
     2
 67
     7
 79
     5
170
     0
171
     0
290
     0
174
     0
 93
        1
 44
50.0
173
     0
291
     1
 45
0.0
1001
ACAD
1000
AcDbSavedByObjectVersion
1070
     0
  0
VISUALSTYLE
  5
3A
102
{ACAD_REACTORS
330
2A
102
}
330
2A
100
AcDbVisualStyle
  2
ColorChange
 70
    16
 71
     2
 72
     2
 73
     3
 90
        0
 40
-0.6
 41
-30.0
 62
     5
 63
     8
 74
     1
 91
        4
 64
     7
 65
   257
 75
     1
175
     1
 42
1.0
 92
        8
 66
     8
 43
1.0
 76
     1
 77
     6
 78
     2
 67
     7
 79
     5
170
     0
171
     0
290
     0
174
     0
 93
        1
 44
0.0
173
     0
291
     1
 45
0.0
1001
ACAD
1000
AcDbSavedByObjectVersion
1070
     0
  0
VISUALSTYLE
  5
34
102
{ACAD_REACTORS
330
2A
102
}
330
2A
100
AcDbVisualStyle
  2
Conceptual
 70
     9
 71
     3
 72
     2
 73
     0
 90
        0
 40
-0.6
 41
-30.0
 62
     5
 63
     7
 74
     2
 91
        2
 64
     7
 65
   257
 75
     1
175
     1
 42
40.0
 92
        8
 66
     7
 43
1.0
 76
     1
 77
     6
 78
     2
 67
     7
 79
     3
170
     0
171
     0
290
     0
174
     0
 93
        1
 44
0.0
173
     0
291
     0
 45
0.0
1001
ACAD
1000
AcDbSavedByObjectVersion
1070
     0
  0
VISUALSTYLE
  5
35
102
{ACAD_REACTORS
330
2A
102
}
330
2A
100
AcDbVisualStyle
  2
Dim
 70
    11
 71
     2
 72
     2
 73
     0
 90
        0
 40
-0.6
 41
-30.0
 62
     5
 63
     7
 74
     1
 91
        4
 64
     7
 65
   257
 75
     1
175
     1
 42
1.0
 92
        8
 66
     7
 43
1.0
 76
     1
 77
     6
 78
     2
 67
     7
 79
     5
170
     0
171
     0
290
     0
174
     0
 93
        1
 44
-50.0
173
     0
291
     1
 45
0.0
1001
ACAD
1000
AcDbSavedByObjectVersion
1070
     0
  0
VISUALSTYLE
  5
39
102
{ACAD_REACTORS
330
2A
102
}
330
2A
100
AcDbVisualStyle
  2
Facepattern
 70
    15
 71
     2
 72
     2
 73
     0
 90
        0
 40
-0.6
 41
-30.0
 62
     5
 63
     7
 74
     1
 91
        4
 64
     7
 65
   257
 75
     1
175
     1
 42
1.0
 92
        8
 66
     7
 43
1.0
 76
     1
 77
     6
 78
     2
 67
     7
 79
     5
170
     0
171
     0
290
     0
174
     0
 93
        1
 44
0.0
173
     0
291
     1
 45
0.0
1001
ACAD
1000
AcDbSavedByObjectVersion
1070
     0
  0
VISUALSTYLE
  5
2B
102
{ACAD_REACTORS
330
2A
102
}
330
2A
100
AcDbVisualStyle
  2
Flat
 70
     0
 71
     2
 72
     1
 73
     1
 90
        2
 40
-0.6
 41
30.0
 62
     5
 63
     7
 74
     0
 91
        4
 64
     7
 65
   257
 75
     1
175
     1
 42
1.0
 92
        8
 66
     7
 43
1.0
 76
     1
 77
     6
 78
     2
 67
     7
 79
     5
170
     0
171
     0
290
     0
174
     0
 93
       13
 44
0.0
173
     0
291
     1
 45
0.0
1001
ACAD
1000
AcDbSavedByObjectVersion
1070
     0
  0
VISUALSTYLE
  5
2C
102
{ACAD_REACTORS
330
2A
102
}
330
2A
100
AcDbVisualStyle
  2
FlatWithEdges
 70
     1
 71
     2
 72
     1
 73
     1
 90
        2
 40
-0.6
 41
30.0
 62
     5
 63
     7
 74
     1
 91
        4
 64
     7
 65
   257
 75
     1
175
     1
 42
1.0
 92
        0
 66
   257
 43
1.0
 76
     1
 77
     6
 78
     2
 67
     7
 79
     5
170
     0
171
     0
290
     0
174
     0
 93
       13
 44
0.0
173
     0
291
     1
 45
0.0
1001
ACAD
1000
AcDbSavedByObjectVersion
1070
     0
  0
VISUALSTYLE
  5
2D
102
{ACAD_REACTORS
330
2A
102
}
330
2A
100
AcDbVisualStyle
  2
Gouraud
 70
     2
 71
     2
 72
     2
 73
     1
 90
        2
 40
-0.6
 41
30.0
 62
     5
 63
     7
 74
     0
 91
        4
 64
     7
 65
   257
 75
     1
175
     1
 42
1.0
 92
        0
 66
     7
 43
1.0
 76
     1
 77
     6
 78
     2
 67
     7
 79
     5
170
     0
171
     0
290
     0
174
     0
 93
       13
 44
0.0
173
     0
291
     1
 45
0.0
1001
ACAD
1000
AcDbSavedByObjectVersion
1070
     0
  0
VISUALSTYLE
  5
2E
102
{ACAD_REACTORS
330
2A
102
}
330
2A
100
AcDbVisualStyle
  2
GouraudWithEdges
 70
     3
 71
     2
 72
     2
 73
     1
 90
        2
 40
-0.6
 41
30.0
 62
     5
 63
     7
 74
     1
 91
        4
 64
     7
 65
   257
 75
     1
175
     1
 42
1.0
 92
        0
 66
   257
 43
1.0
 76
     1
 77
     6
 78
     2
 67
     7
 79
     5
170
     0
171
     0
290
     0
174
     0
 93
       13
 44
0.0
173
     0
291
     1
 45
0.0
1001
ACAD
1000
AcDbSavedByObjectVersion
1070
     0
  0
VISUALSTYLE
  5
38
102
{ACAD_REACTORS
330
2A
102
}
330
2A
100
AcDbVisualStyle
  2
Linepattern
 70
    14
 71
     2
 72
     2
 73
     0
 90
        0
 40
-0.6
 41
-30.0
 62
     5
 63
     7
 74
     1
 91
        4
 64
     7
 65
   257
 75
     7
175
     7
 42
1.0
 92
        8
 66
     7
 43
1.0
 76
     1
 77
     6
 78
     2
 67
     7
 79
     5
170
     0
171
     0
290
     0
174
     0
 93
        1
 44
0.0
173
     0
291
     1
 45
0.0
1001
ACAD
1000
AcDbSavedByObjectVersion
1070
     0
  0
VISUALSTYLE
  5
33
102
{ACAD_REACTORS
330
2A
102
}
330
2A
100
AcDbVisualStyle
  2
Realistic
 70
     8
 71
     2
 72
     2
 73
     0
 90
        0
 40
-0.6
 41
-30.0
 62
     5
 63
     7
 74
     1
 91
        0
 64
     7
 65
   257
 75
     1
175
     1
 42
1.0
 92
        8
 66
     8
 43
1.0
 76
     1
 77
     6
 78
     2
 67
     7
 79
     5
170
     0
171
     0
290
     0
174
     0
 93
       13
 44
0.0
173
     0
291
     0
 45
0.0
1001
ACAD
1000
AcDbSavedByObjectVersion
1070
     0
  0
VISUALSTYLE
  5
37
102
{ACAD_REACTORS
330
2A
102
}
330
2A
100
AcDbVisualStyle
  2
Thicken
 70
    13
 71
     2
 72
     2
 73
     0
 90
        0
 40
-0.6
 41
-30.0
 62
     5
 63
     7
 74
     1
 91
        4
 64
     7
 65
   257
 75
     1
175
     1
 42
1.0
 92
       12
 66
     7
 43
1.0
 76
     1
 77
     6
 78
     2
 67
     7
 79
     5
170
     0
171
     0
290
     0
174
     0
 93
        1
 44
0.0
173
     0
291
     1
 45
0.0
1001
ACAD
1000
AcDbSavedByObjectVersion
1070
     0
  0
XRECORD
  5
129
102
{ACAD_REACTORS
330
120
102
}
330
120
100
AcDbXrecord
 90
        0
  0
XRECORD
  5
13F
102
{ACAD_REACTORS
330
120
102
}
330
120
100
AcDbXrecord
1000
DSTYLE
1002
{
1070
   279
 70
     2
1070
   340
340
11
1002
}
  0
XRECORD
  5
12A
102
{ACAD_REACTORS
330
120
102
}
330
120
100
AcDbXrecord
  1
{963E1391-C5A1-4A0F-9E75-212F1B5BBF8A}
  0
XRECORD
  5
123
102
{ACAD_REACTORS
330
120
102
}
330
120
100
AcDbXrecord
  1

  0
XRECORD
  5
128
102
{ACAD_REACTORS
330
120
102
}
330
120
100
AcDbXrecord
 90
        1
  0
XRECORD
  5
125
102
{ACAD_REACTORS
330
120
102
}
330
120
100
AcDbXrecord
340
1A
  0
XRECORD
  5
127
102
{ACAD_REACTORS
330
120
102
}
330
120
100
AcDbXrecord
 90
    10781
  0
XRECORD
  5
126
102
{ACAD_REACTORS
330
120
102
}
330
120
100
AcDbXrecord
340
19
  0
XRECORD
  5
12C
102
{ACAD_REACTORS
330
120
102
}
330
120
100
AcDbXrecord
 40
0.0
  0
XRECORD
  5
12F
102
{ACAD_REACTORS
330
120
102
}
330
120
100
AcDbXrecord
340
0
  0
XRECORD
  5
135
102
{ACAD_REACTORS
330
120
102
}
330
120
100
AcDbXrecord
 10
0.0
 20
0.0
 30
0.0
  0
XRECORD
  5
131
102
{ACAD_REACTORS
330
120
102
}
330
120
100
AcDbXrecord
 10
0.0
 20
0.0
 30
0.0
  0
XRECORD
  5
134
102
{ACAD_REACTORS
330
120
102
}
330
120
100
AcDbXrecord
 10
0.0
 20
0.0
 30
0.0
  0
XRECORD
  5
132
102
{ACAD_REACTORS
330
120
102
}
330
120
100
AcDbXrecord
 10
0.0
 20
0.0
 30
0.0
  0
XRECORD
  5
133
102
{ACAD_REACTORS
330
120
102
}
330
120
100
AcDbXrecord
 10
0.0
 20
0.0
 30
0.0
  0
XRECORD
  5
130
102
{ACAD_REACTORS
330
120
102
}
330
120
100
AcDbXrecord
 10
0.0
 20
0.0
 30
0.0
  0
XRECORD
  5
12D
102
{ACAD_REACTORS
330
120
102
}
330
120
100
AcDbXrecord
340
0
  0
XRECORD
  5
12E
102
{ACAD_REACTORS
330
120
102
}
330
120
100
AcDbXrecord
 70
     0
  0
XRECORD
  5
124
102
{ACAD_REACTORS
330
120
102
}
330
120
100
AcDbXrecord
  1

  0
XRECORD
  5
121
102
{ACAD_REACTORS
330
120
102
}
330
120
100
AcDbXrecord
 90
        1
  0
XRECORD
  5
122
102
{ACAD_REACTORS
330
120
102
}
330
120
100
AcDbXrecord
 90
       70
  0
XRECORD
  5
138
102
{ACAD_REACTORS
330
120
102
}
330
120
100
AcDbXrecord
340
0
  0
XRECORD
  5
13E
102
{ACAD_REACTORS
330
120
102
}
330
120
100
AcDbXrecord
 10
0.0
 20
0.0
 30
0.0
  0
XRECORD
  5
13A
102
{ACAD_REACTORS
330
120
102
}
330
120
100
AcDbXrecord
 10
0.0
 20
0.0
 30
0.0
  0
XRECORD
  5
13D
102
{ACAD_REACTORS
330
120
102
}
330
120
100
AcDbXrecord
 10
0.0
 20
0.0
 30
0.0
  0
XRECORD
  5
13B
102
{ACAD_REACTORS
330
120
102
}
330
120
100
AcDbXrecord
 10
0.0
 20
0.0
 30
0.0
  0
XRECORD
  5
13C
102
{ACAD_REACTORS
330
120
102
}
330
120
100
AcDbXrecord
 10
0.0
 20
0.0
 30
0.0
  0
XRECORD
  5
139
102
{ACAD_REACTORS
330
120
102
}
330
120
100
AcDbXrecord
 10
0.0
 20
0.0
 30
0.0
  0
XRECORD
  5
136
102
{ACAD_REACTORS
330
120
102
}
330
120
100
AcDbXrecord
340
0
  0
XRECORD
  5
137
102
{ACAD_REACTORS
330
120
102
}
330
120
100
AcDbXrecord
 70
     0
  0
XRECORD
  5
12B
102
{ACAD_REACTORS
330
120
102
}
330
120
100
AcDbXrecord
  1
{FAEB1C32-E019-11D5-929B-00C0DF256EC4}
  0
ENDSEC
  0
EOF
