  0
SECTION
  2
HEADER
  9
$ACADVER
  1
AC1014
  9
$ACADMAINTVER
 70
     9
  9
$DWGCODEPAGE
  3
ANSI_1252
  9
$INSBASE
 10
0.0
 20
0.0
 30
0.0
  9
$EXTMIN
 10
-10.37726063538581
 20
-0.1038531774202931
 30
0.0
  9
$EXTMAX
 10
43.87347083371093
 20
65.10495231685
 30
0.0
  9
$LIMMIN
 10
0.0
 20
0.0
  9
$LIMMAX
 10
12.0
 20
9.0
  9
$ORTHOMODE
 70
     0
  9
$REGENMODE
 70
     1
  9
$FILLMODE
 70
     1
  9
$QTEXTMODE
 70
     0
  9
$MIRRTEXT
 70
     1
  9
$DRAGMODE
 70
     2
  9
$LTSCALE
 40
0.0393700787401575
  9
$OSMODE
 70
    37
  9
$ATTMODE
 70
     1
  9
$TEXTSIZE
 40
0.2
  9
$TRACEWID
 40
0.05
  9
$TEXTSTYLE
  7
STANDARD
  9
$CLAYER
  8
DEFAULT
  9
$CELTYPE
  6
BYLAYER
  9
$CECOLOR
 62
   256
  9
$CELTSCALE
 40
1.0
  9
$DELOBJ
 70
     1
  9
$DISPSILH
 70
     0
  9
$DIMSCALE
 40
1.0
  9
$DIMASZ
 40
0.18
  9
$DIMEXO
 40
0.0625
  9
$DIMDLI
 40
0.38
  9
$DIMRND
 40
0.0
  9
$DIMDLE
 40
0.0
  9
$DIMEXE
 40
0.18
  9
$DIMTP
 40
0.0
  9
$DIMTM
 40
0.0
  9
$DIMTXT
 40
0.18
  9
$DIMCEN
 40
0.09
  9
$DIMTSZ
 40
0.0
  9
$DIMTOL
 70
     0
  9
$DIMLIM
 70
     0
  9
$DIMTIH
 70
     1
  9
$DIMTOH
 70
     1
  9
$DIMSE1
 70
     0
  9
$DIMSE2
 70
     0
  9
$DIMTAD
 70
     0
  9
$DIMZIN
 70
     0
  9
$DIMBLK
  1

  9
$DIMASO
 70
     1
  9
$DIMSHO
 70
     1
  9
$DIMPOST
  1

  9
$DIMAPOST
  1

  9
$DIMALT
 70
     0
  9
$DIMALTD
 70
     2
  9
$DIMALTF
 40
25.4
  9
$DIMLFAC
 40
1.0
  9
$DIMTOFL
 70
     0
  9
$DIMTVP
 40
0.0
  9
$DIMTIX
 70
     0
  9
$DIMSOXD
 70
     0
  9
$DIMSAH
 70
     0
  9
$DIMBLK1
  1

  9
$DIMBLK2
  1

  9
$DIMSTYLE
  2
STANDARD
  9
$DIMCLRD
 70
     0
  9
$DIMCLRE
 70
     0
  9
$DIMCLRT
 70
     0
  9
$DIMTFAC
 40
1.0
  9
$DIMGAP
 40
0.09
  9
$DIMJUST
 70
     0
  9
$DIMSD1
 70
     0
  9
$DIMSD2
 70
     0
  9
$DIMTOLJ
 70
     1
  9
$DIMTZIN
 70
     0
  9
$DIMALTZ
 70
     0
  9
$DIMALTTZ
 70
     0
  9
$DIMFIT
 70
     5
  9
$DIMUPT
 70
     0
  9
$DIMUNIT
 70
     2
  9
$DIMDEC
 70
     4
  9
$DIMTDEC
 70
     4
  9
$DIMALTU
 70
     2
  9
$DIMALTTD
 70
     2
  9
$DIMTXSTY
  7
STANDARD
  9
$DIMAUNIT
 70
     0
  9
$LUNITS
 70
     2
  9
$LUPREC
 70
     3
  9
$SKETCHINC
 40
0.1
  9
$FILLETRAD
 40
0.5
  9
$AUNITS
 70
     0
  9
$AUPREC
 70
     0
  9
$MENU
  1
.
  9
$ELEVATION
 40
0.0
  9
$PELEVATION
 40
0.0
  9
$THICKNESS
 40
0.0
  9
$LIMCHECK
 70
     0
  9
$CHAMFERA
 40
0.5
  9
$CHAMFERB
 40
0.5
  9
$CHAMFERC
 40
1.0
  9
$CHAMFERD
 40
0.0
  9
$SKPOLY
 70
     0
  9
$TDCREATE
 40
2454817.634610232
  9
$TDUPDATE
 40
2454817.634610243
  9
$TDINDWG
 40
0.0000000116
  9
$TDUSRTIMER
 40
0.0000000116
  9
$USRTIMER
 70
     1
  9
$ANGBASE
 50
0.0
  9
$ANGDIR
 70
     0
  9
$PDMODE
 70
     0
  9
$PDSIZE
 40
0.0
  9
$PLINEWID
 40
0.0
  9
$COORDS
 70
     1
  9
$SPLFRAME
 70
     0
  9
$SPLINETYPE
 70
     6
  9
$SPLINESEGS
 70
     8
  9
$ATTDIA
 70
     0
  9
$ATTREQ
 70
     1
  9
$HANDLING
 70
     1
  9
$HANDSEED
  5
176
  9
$SURFTAB1
 70
     6
  9
$SURFTAB2
 70
     6
  9
$SURFTYPE
 70
     6
  9
$SURFU
 70
     6
  9
$SURFV
 70
     6
  9
$UCSNAME
  2

  9
$UCSORG
 10
0.0
 20
0.0
 30
0.0
  9
$UCSXDIR
 10
1.0
 20
0.0
 30
0.0
  9
$UCSYDIR
 10
0.0
 20
1.0
 30
0.0
  9
$PUCSNAME
  2

  9
$PUCSORG
 10
0.0
 20
0.0
 30
0.0
  9
$PUCSXDIR
 10
1.0
 20
0.0
 30
0.0
  9
$PUCSYDIR
 10
0.0
 20
1.0
 30
0.0
  9
$USERI1
 70
     0
  9
$USERI2
 70
     0
  9
$USERI3
 70
     0
  9
$USERI4
 70
     0
  9
$USERI5
 70
     0
  9
$USERR1
 40
0.0
  9
$USERR2
 40
0.0
  9
$USERR3
 40
0.0
  9
$USERR4
 40
0.0
  9
$USERR5
 40
0.0
  9
$WORLDVIEW
 70
     1
  9
$SHADEDGE
 70
     3
  9
$SHADEDIF
 70
    70
  9
$TILEMODE
 70
     1
  9
$MAXACTVP
 70
    64
  9
$PINSBASE
 10
0.0
 20
0.0
 30
0.0
  9
$PLIMCHECK
 70
     0
  9
$PEXTMIN
 10
1.000000000000000E+20
 20
1.000000000000000E+20
 30
1.000000000000000E+20
  9
$PEXTMAX
 10
-1.000000000000000E+20
 20
-1.000000000000000E+20
 30
-1.000000000000000E+20
  9
$PLIMMIN
 10
0.0
 20
0.0
  9
$PLIMMAX
 10
12.0
 20
9.0
  9
$UNITMODE
 70
     0
  9
$VISRETAIN
 70
     1
  9
$PLINEGEN
 70
     0
  9
$PSLTSCALE
 70
     1
  9
$TREEDEPTH
 70
  3020
  9
$PICKSTYLE
 70
     1
  9
$CMLSTYLE
  2
STANDARD
  9
$CMLJUST
 70
     0
  9
$CMLSCALE
 40
1.0
  9
$PROXYGRAPHICS
 70
     1
  9
$MEASUREMENT
 70
     0
  0
ENDSEC
  0
SECTION
  2
CLASSES
  0
CLASS
  1
ACDBDICTIONARYWDFLT
  2
AcDbDictionaryWithDefault
  3
ObjectDBX Classes
 90
        0
280
     0
281
     0
  0
CLASS
  1
VISUALSTYLE
  2
AcDbVisualStyle
  3
ObjectDBX Classes
 90
     4095
280
     0
281
     0
  0
CLASS
  1
XRECORD
  2
AcDbXrecord
  3
AutoCAD 2000
 90
        0
280
     0
281
     0
  0
CLASS
  1
LWPOLYLINE
  2
AcDbPolyline
  3
AutoCAD 2000
 90
        0
280
     0
281
     1
  0
CLASS
  1
HATCH
  2
AcDbHatch
  3
AutoCAD 2000
 90
        0
280
     0
281
     1
  0
CLASS
  1
ACDBPLACEHOLDER
  2
AcDbPlaceHolder
  3
ObjectDBX Classes
 90
        0
280
     0
281
     0
  0
CLASS
  1
LAYOUT
  2
AcDbLayout
  3
ObjectDBX Classes
 90
        0
280
     0
281
     0
  0
ENDSEC
  0
SECTION
  2
TABLES
  0
TABLE
  2
VPORT
  5
8
330
0
100
AcDbSymbolTable
 70
     1
  0
VPORT
  5
29
330
8
100
AcDbSymbolTableRecord
100
AcDbViewportTableRecord
  2
*ACTIVE
 70
     0
 10
0.0
 20
0.0
 11
1.0
 21
1.0
 12
0.0
 22
0.0
 13
0.0
 23
0.0
 14
0.5
 24
0.5
 15
0.5
 25
0.5
 16
0.0
 26
0.0
 36
1.0
 17
16.74810509916256
 27
32.50054956971486
 37
0.0
 40
66.5129816041557
 41
0.8319540751879528
 42
50.0
 43
0.0
 44
0.0
 50
0.0
 51
0.0
 71
     0
 72
   100
 73
     1
 74
     3
 75
     0
 76
     0
 77
     0
 78
     0
  0
ENDTAB
  0
TABLE
  2
LTYPE
  5
5
330
0
100
AcDbSymbolTable
 70
     1
  0
LTYPE
  5
14
330
5
100
AcDbSymbolTableRecord
100
AcDbLinetypeTableRecord
  2
BYBLOCK
 70
     0
  3

 72
    65
 73
     0
 40
0.0
  0
LTYPE
  5
15
330
5
100
AcDbSymbolTableRecord
100
AcDbLinetypeTableRecord
  2
BYLAYER
 70
     0
  3

 72
    65
 73
     0
 40
0.0
  0
LTYPE
  5
16
330
5
100
AcDbSymbolTableRecord
100
AcDbLinetypeTableRecord
  2
CONTINUOUS
 70
     0
  3
Solid line
 72
    65
 73
     0
 40
0.0
  0
ENDTAB
  0
TABLE
  2
LAYER
  5
2
330
0
100
AcDbSymbolTable
 70
     2
  0
LAYER
  5
10
330
2
100
AcDbSymbolTableRecord
100
AcDbLayerTableRecord
  2
0
 70
     0
 62
     7
  6
CONTINUOUS
  0
LAYER
  5
3B
330
2
100
AcDbSymbolTableRecord
100
AcDbLayerTableRecord
  2
DEFAULT
 70
     0
 62
     7
  6
CONTINUOUS
  0
ENDTAB
  0
TABLE
  2
STYLE
  5
3
330
0
100
AcDbSymbolTable
 70
     1
  0
STYLE
  5
11
330
3
100
AcDbSymbolTableRecord
100
AcDbTextStyleTableRecord
  2
STANDARD
 70
     0
 40
0.0
 41
1.0
 50
0.0
 71
     0
 42
0.2
  3
txt
  4

  0
ENDTAB
  0
TABLE
  2
VIEW
  5
6
330
0
100
AcDbSymbolTable
 70
     0
  0
ENDTAB
  0
TABLE
  2
UCS
  5
7
330
0
100
AcDbSymbolTable
 70
     0
  0
ENDTAB
  0
TABLE
  2
APPID
  5
9
330
0
100
AcDbSymbolTable
 70
     1
  0
APPID
  5
12
330
9
100
AcDbSymbolTableRecord
100
AcDbRegAppTableRecord
  2
ACAD
 70
     0
  0
ENDTAB
  0
TABLE
  2
DIMSTYLE
  5
A
330
0
100
AcDbSymbolTable
 70
     1
  0
DIMSTYLE
105
27
330
A
100
AcDbSymbolTableRecord
100
AcDbDimStyleTableRecord
  2
STANDARD
 70
     0
  3

  4

  5

  6

  7

 40
1.0
 41
0.18
 42
0.0625
 43
0.38
 44
0.18
 45
0.0
 46
0.0
 47
0.0
 48
0.0
140
0.18
141
0.09
142
0.0
143
25.4
144
1.0
145
0.0
146
1.0
147
0.09
 71
     0
 72
     0
 73
     1
 74
     1
 75
     0
 76
     0
 77
     0
 78
     0
170
     0
171
     2
172
     0
173
     0
174
     0
175
     0
176
     0
177
     0
178
     0
270
     2
271
     4
272
     4
273
     2
274
     2
340
11
275
     0
280
     0
281
     0
282
     0
283
     1
284
     0
285
     0
286
     0
287
     3
288
     0
  0
ENDTAB
  0
TABLE
  2
BLOCK_RECORD
  5
1
330
0
100
AcDbSymbolTable
 70
     1
  0
BLOCK_RECORD
  5
1F
330
1
100
AcDbSymbolTableRecord
100
AcDbBlockTableRecord
  2
*MODEL_SPACE
  0
BLOCK_RECORD
  5
1B
330
1
100
AcDbSymbolTableRecord
100
AcDbBlockTableRecord
  2
*PAPER_SPACE
  0
ENDTAB
  0
ENDSEC
  0
SECTION
  2
BLOCKS
  0
BLOCK
  5
20
330
1F
100
AcDbEntity
  8
0
100
AcDbBlockBegin
  2
*MODEL_SPACE
 70
     0
 10
0.0
 20
0.0
 30
0.0
  3
*MODEL_SPACE
  1

  0
ENDBLK
  5
21
330
1F
100
AcDbEntity
  8
0
100
AcDbBlockEnd
  0
BLOCK
  5
1C
330
1B
100
AcDbEntity
 67
     1
  8
0
100
AcDbBlockBegin
  2
*PAPER_SPACE
 70
     0
 10
0.0
 20
0.0
 30
0.0
  3
*PAPER_SPACE
  1

  0
ENDBLK
  5
1D
330
1B
100
AcDbEntity
 67
     1
  8
0
100
AcDbBlockEnd
  0
ENDSEC
  0
SECTION
  2
ENTITIES
  0
POLYLINE
  5
3C
330
1F
100
AcDbEntity
  8
DEFAULT
100
AcDb2dPolyline
 66
     1
 10
0.0
 20
0.0
 30
0.0
  0
VERTEX
  5
3D
330
3C
100
AcDbEntity
  8
DEFAULT
100
AcDbVertex
100
AcDb2dVertex
 10
-8.751612638762941
 20
43.39791971718628
 30
0.0
  0
VERTEX
  5
3E
330
3C
100
AcDbEntity
  8
DEFAULT
100
AcDbVertex
100
AcDb2dVertex
 10
-8.751612638762941
 20
43.2931344949164
 30
0.0
  0
VERTEX
  5
3F
330
3C
100
AcDbEntity
  8
DEFAULT
100
AcDbVertex
100
AcDb2dVertex
 10
-8.185091540324825
 20
43.2931344949164
 30
0.0
  0
VERTEX
  5
40
330
3C
100
AcDbEntity
  8
DEFAULT
100
AcDbVertex
100
AcDb2dVertex
 10
-8.185091540324825
 20
43.3885223861072
 30
0.0
  0
SEQEND
  5
41
330
3C
100
AcDbEntity
  8
DEFAULT
  0
LINE
  5
42
330
1F
100
AcDbEntity
  8
DEFAULT
100
AcDbLine
 10
-8.751612638762941
 20
43.39791971718628
 30
0.0
 11
-8.751612638762941
 21
43.2931344949164
 31
0.0
  0
LINE
  5
43
330
1F
100
AcDbEntity
  8
DEFAULT
100
AcDbLine
 10
-8.751612638762941
 20
43.2931344949164
 30
0.0
 11
-9.001612638762941
 21
43.2931344949164
 31
0.0
  0
ARC
  5
44
330
1F
100
AcDbEntity
  8
DEFAULT
100
AcDbCircle
 10
-9.001612638762941
 20
43.7931344949164
 30
0.0
 40
0.5
100
AcDbArc
 50
180.0
 51
269.9999999999992
  0
LINE
  5
45
330
1F
100
AcDbEntity
  8
DEFAULT
100
AcDbLine
 10
-9.501612638762941
 20
43.7931344949164
 30
0.0
 11
-9.501612638762941
 21
43.92631367129172
 31
0.0
  0
POLYLINE
  5
46
330
1F
100
AcDbEntity
  8
DEFAULT
100
AcDb2dPolyline
 66
     1
 10
0.0
 20
0.0
 30
0.0
  0
VERTEX
  5
47
330
46
100
AcDbEntity
  8
DEFAULT
100
AcDbVertex
100
AcDb2dVertex
 10
8.751612638762941
 20
43.39791971718628
 30
0.0
  0
VERTEX
  5
48
330
46
100
AcDbEntity
  8
DEFAULT
100
AcDbVertex
100
AcDb2dVertex
 10
8.751612638762941
 20
43.2931344949164
 30
0.0
  0
VERTEX
  5
49
330
46
100
AcDbEntity
  8
DEFAULT
100
AcDbVertex
100
AcDb2dVertex
 10
8.185091540324825
 20
43.2931344949164
 30
0.0
  0
VERTEX
  5
4A
330
46
100
AcDbEntity
  8
DEFAULT
100
AcDbVertex
100
AcDb2dVertex
 10
8.185091540324825
 20
43.3885223861072
 30
0.0
  0
SEQEND
  5
4B
330
46
100
AcDbEntity
  8
DEFAULT
  0
LINE
  5
4C
330
1F
100
AcDbEntity
  8
DEFAULT
100
AcDbLine
 10
8.751612638762941
 20
43.39791971718628
 30
0.0
 11
8.751612638762941
 21
43.2931344949164
 31
0.0
  0
LINE
  5
4D
330
1F
100
AcDbEntity
  8
DEFAULT
100
AcDbLine
 10
8.751612638762941
 20
43.2931344949164
 30
0.0
 11
9.001612638762941
 21
43.2931344949164
 31
0.0
  0
ARC
  5
4E
330
1F
100
AcDbEntity
  8
DEFAULT
100
AcDbCircle
 10
9.001612638762941
 20
43.7931344949164
 30
0.0
 40
0.5
100
AcDbArc
 50
270.0000000000008
 51
0.0
  0
LINE
  5
4F
330
1F
100
AcDbEntity
  8
DEFAULT
100
AcDbLine
 10
9.501612638762941
 20
43.7931344949164
 30
0.0
 11
9.501612638762941
 21
43.92631367129172
 31
0.0
  0
LINE
  5
50
330
1F
100
AcDbEntity
  8
DEFAULT
100
AcDbLine
 10
-8.185091540324825
 20
43.3885223861072
 30
0.0
 11
-8.185091540324825
 21
43.2931344949164
 31
0.0
  0
LINE
  5
51
330
1F
100
AcDbEntity
  8
DEFAULT
100
AcDbLine
 10
-8.185091540324825
 20
43.2931344949164
 30
0.0
 11
-7.935091540324811
 21
43.2931344949164
 31
0.0
  0
ARC
  5
52
330
1F
100
AcDbEntity
  8
DEFAULT
100
AcDbCircle
 10
-7.935091540324825
 20
43.7931344949164
 30
0.0
 40
0.5
100
AcDbArc
 50
270.0000000000008
 51
305.9797955128831
  0
LINE
  5
53
330
1F
100
AcDbEntity
  8
DEFAULT
100
AcDbLine
 10
8.185091540324825
 20
43.3885223861072
 30
0.0
 11
8.185091540324825
 21
43.2931344949164
 31
0.0
  0
LINE
  5
54
330
1F
100
AcDbEntity
  8
DEFAULT
100
AcDbLine
 10
8.185091540324825
 20
43.2931344949164
 30
0.0
 11
7.935091540324811
 21
43.2931344949164
 31
0.0
  0
ARC
  5
55
330
1F
100
AcDbEntity
  8
DEFAULT
100
AcDbCircle
 10
7.935091540324825
 20
43.7931344949164
 30
0.0
 40
0.5
100
AcDbArc
 50
234.0202044871168
 51
269.9999999999992
  0
POLYLINE
  5
56
330
1F
100
AcDbEntity
  8
DEFAULT
100
AcDb2dPolyline
 66
     1
 10
0.0
 20
0.0
 30
0.0
  0
VERTEX
  5
57
330
56
100
AcDbEntity
  8
DEFAULT
100
AcDbVertex
100
AcDb2dVertex
 10
-9.059212450780946
 20
1.957254641775326
 30
0.0
  0
VERTEX
  5
58
330
56
100
AcDbEntity
  8
DEFAULT
100
AcDbVertex
100
AcDb2dVertex
 10
-9.059212450780946
 20
1.961264822579712
 30
0.0
  0
VERTEX
  5
59
330
56
100
AcDbEntity
  8
DEFAULT
100
AcDbVertex
100
AcDb2dVertex
 10
-9.625733549219062
 20
1.961264822579712
 30
0.0
  0
VERTEX
  5
5A
330
56
100
AcDbEntity
  8
DEFAULT
100
AcDbVertex
100
AcDb2dVertex
 10
-9.625733549219062
 20
0.5568979987012599
 30
0.0
  0
VERTEX
  5
5B
330
56
100
AcDbEntity
  8
DEFAULT
100
AcDbVertex
100
AcDb2dVertex
 10
-9.496013564284809
 20
0.5568979987012599
 30
0.0
  0
SEQEND
  5
5C
330
56
100
AcDbEntity
  8
DEFAULT
  0
POLYLINE
  5
5D
330
1F
100
AcDbEntity
  8
DEFAULT
100
AcDb2dPolyline
 66
     1
 10
0.0
 20
0.0
 30
0.0
  0
VERTEX
  5
5E
330
5D
100
AcDbEntity
  8
DEFAULT
100
AcDbVertex
100
AcDb2dVertex
 10
8.746013564284809
 20
0.556897998701217
 30
0.0
  0
VERTEX
  5
5F
330
5D
100
AcDbEntity
  8
DEFAULT
100
AcDbVertex
100
AcDb2dVertex
 10
8.179492465846693
 20
0.556897998701217
 30
0.0
  0
VERTEX
  5
60
330
5D
100
AcDbEntity
  8
DEFAULT
100
AcDbVertex
100
AcDb2dVertex
 10
8.179492465846693
 20
1.96126482257967
 30
0.0
  0
VERTEX
  5
61
330
5D
100
AcDbEntity
  8
DEFAULT
100
AcDbVertex
100
AcDb2dVertex
 10
8.746013564284809
 20
1.96126482257967
 30
0.0
  0
VERTEX
  5
62
330
5D
100
AcDbEntity
  8
DEFAULT
100
AcDbVertex
100
AcDb2dVertex
 10
8.746013564284809
 20
0.556897998701217
 30
0.0
  0
SEQEND
  5
63
330
5D
100
AcDbEntity
  8
DEFAULT
  0
LINE
  5
64
330
1F
100
AcDbEntity
  8
DEFAULT
100
AcDbLine
 10
7.429492465846693
 20
0.4612648225796696
 30
0.0
 11
7.429492465846693
 21
1.46126482257967
 31
0.0
  0
ARC
  5
65
330
1F
100
AcDbEntity
  8
DEFAULT
100
AcDbCircle
 10
7.929492465846693
 20
1.46126482257967
 30
0.0
 40
0.5
100
AcDbArc
 50
90.0
 51
180.0
  0
POLYLINE
  5
66
330
1F
100
AcDbEntity
  8
DEFAULT
100
AcDb2dPolyline
 66
     1
 10
0.0
 20
0.0
 30
0.0
  0
VERTEX
  5
67
330
66
100
AcDbEntity
  8
DEFAULT
100
AcDbVertex
100
AcDb2dVertex
 10
7.929492465846693
 20
1.96126482257967
 30
0.0
  0
VERTEX
  5
68
330
66
100
AcDbEntity
  8
DEFAULT
100
AcDbVertex
100
AcDb2dVertex
 10
8.179492465846693
 20
1.96126482257967
 30
0.0
  0
VERTEX
  5
69
330
66
100
AcDbEntity
  8
DEFAULT
100
AcDbVertex
100
AcDb2dVertex
 10
8.179492465846693
 20
-0.0387351774203304
 30
0.0
  0
SEQEND
  5
6A
330
66
100
AcDbEntity
  8
DEFAULT
  0
LINE
  5
6B
330
1F
100
AcDbEntity
  8
DEFAULT
100
AcDbLine
 10
8.179492465846693
 20
-0.0387351774203304
 30
0.0
 11
7.929492465846678
 21
-0.0387351774203304
 31
0.0
  0
ARC
  5
6C
330
1F
100
AcDbEntity
  8
DEFAULT
100
AcDbCircle
 10
7.929492465846693
 20
0.4612648225796696
 30
0.0
 40
0.5
100
AcDbArc
 50
180.0
 51
269.9999999999992
  0
LINE
  5
6D
330
1F
100
AcDbEntity
  8
DEFAULT
100
AcDbLine
 10
9.496013564284809
 20
0.4612648225796696
 30
0.0
 11
9.496013564284809
 21
1.46126482257967
 31
0.0
  0
ARC
  5
6E
330
1F
100
AcDbEntity
  8
DEFAULT
100
AcDbCircle
 10
8.996013564284809
 20
1.46126482257967
 30
0.0
 40
0.5
100
AcDbArc
 50
0.0
 51
90.0
  0
POLYLINE
  5
6F
330
1F
100
AcDbEntity
  8
DEFAULT
100
AcDb2dPolyline
 66
     1
 10
0.0
 20
0.0
 30
0.0
  0
VERTEX
  5
70
330
6F
100
AcDbEntity
  8
DEFAULT
100
AcDbVertex
100
AcDb2dVertex
 10
8.996013564284809
 20
1.96126482257967
 30
0.0
  0
VERTEX
  5
71
330
6F
100
AcDbEntity
  8
DEFAULT
100
AcDbVertex
100
AcDb2dVertex
 10
8.746013564284809
 20
1.96126482257967
 30
0.0
  0
VERTEX
  5
72
330
6F
100
AcDbEntity
  8
DEFAULT
100
AcDbVertex
100
AcDb2dVertex
 10
8.746013564284809
 20
-0.0387351774203304
 30
0.0
  0
SEQEND
  5
73
330
6F
100
AcDbEntity
  8
DEFAULT
  0
LINE
  5
74
330
1F
100
AcDbEntity
  8
DEFAULT
100
AcDbLine
 10
8.746013564284809
 20
-0.0387351774203304
 30
0.0
 11
8.996013564284809
 21
-0.0387351774203304
 31
0.0
  0
ARC
  5
75
330
1F
100
AcDbEntity
  8
DEFAULT
100
AcDbCircle
 10
8.996013564284809
 20
0.4612648225796696
 30
0.0
 40
0.5
100
AcDbArc
 50
270.0000000000008
 51
0.0
  0
ARC
  5
76
330
1F
100
AcDbEntity
  8
DEFAULT
100
AcDbCircle
 10
8.809212450780946
 20
0.4612648225797125
 30
0.0
 40
0.5
100
AcDbArc
 50
180.0
 51
262.7385174290595
  0
LINE
  5
77
330
1F
100
AcDbEntity
  8
DEFAULT
100
AcDbLine
 10
8.309212450780946
 20
0.4612648225797125
 30
0.0
 11
8.309212450780946
 21
0.5568979987012168
 31
0.0
  0
LINE
  5
78
330
1F
100
AcDbEntity
  8
DEFAULT
100
AcDbLine
 10
10.37573354921906
 20
0.4612648225797125
 30
0.0
 11
10.37573354921906
 21
1.461264822579712
 31
0.0
  0
ARC
  5
79
330
1F
100
AcDbEntity
  8
DEFAULT
100
AcDbCircle
 10
9.875733549219062
 20
1.461264822579712
 30
0.0
 40
0.5
100
AcDbArc
 50
0.0
 51
90.0
  0
POLYLINE
  5
7A
330
1F
100
AcDbEntity
  8
DEFAULT
100
AcDb2dPolyline
 66
     1
 10
0.0
 20
0.0
 30
0.0
  0
VERTEX
  5
7B
330
7A
100
AcDbEntity
  8
DEFAULT
100
AcDbVertex
100
AcDb2dVertex
 10
9.875733549219062
 20
1.961264822579712
 30
0.0
  0
VERTEX
  5
7C
330
7A
100
AcDbEntity
  8
DEFAULT
100
AcDbVertex
100
AcDb2dVertex
 10
9.625733549219062
 20
1.961264822579712
 30
0.0
  0
VERTEX
  5
7D
330
7A
100
AcDbEntity
  8
DEFAULT
100
AcDbVertex
100
AcDb2dVertex
 10
9.625733549219062
 20
-0.0387351774202875
 30
0.0
  0
SEQEND
  5
7E
330
7A
100
AcDbEntity
  8
DEFAULT
  0
LINE
  5
7F
330
1F
100
AcDbEntity
  8
DEFAULT
100
AcDbLine
 10
9.625733549219062
 20
-0.0387351774202875
 30
0.0
 11
9.875733549219062
 21
-0.0387351774202875
 31
0.0
  0
ARC
  5
80
330
1F
100
AcDbEntity
  8
DEFAULT
100
AcDbCircle
 10
9.875733549219062
 20
0.4612648225797125
 30
0.0
 40
0.5
100
AcDbArc
 50
270.0000000000008
 51
0.0
  0
POLYLINE
  5
81
330
1F
100
AcDbEntity
  8
DEFAULT
100
AcDb2dPolyline
 66
     1
 10
0.0
 20
0.0
 30
0.0
  0
VERTEX
  5
82
330
81
100
AcDbEntity
  8
DEFAULT
100
AcDbVertex
100
AcDb2dVertex
 10
9.059212450780946
 20
1.957254641775326
 30
0.0
  0
VERTEX
  5
83
330
81
100
AcDbEntity
  8
DEFAULT
100
AcDbVertex
100
AcDb2dVertex
 10
9.059212450780946
 20
1.961264822579712
 30
0.0
  0
VERTEX
  5
84
330
81
100
AcDbEntity
  8
DEFAULT
100
AcDbVertex
100
AcDb2dVertex
 10
9.625733549219062
 20
1.961264822579712
 30
0.0
  0
VERTEX
  5
85
330
81
100
AcDbEntity
  8
DEFAULT
100
AcDbVertex
100
AcDb2dVertex
 10
9.625733549219062
 20
0.5568979987012599
 30
0.0
  0
VERTEX
  5
86
330
81
100
AcDbEntity
  8
DEFAULT
100
AcDbVertex
100
AcDb2dVertex
 10
9.496013564284809
 20
0.5568979987012599
 30
0.0
  0
SEQEND
  5
87
330
81
100
AcDbEntity
  8
DEFAULT
  0
LINE
  5
88
330
1F
100
AcDbEntity
  8
DEFAULT
100
AcDbLine
 10
27.31824735521957
 20
18.57632782257971
 30
0.0
 11
24.68727382895207
 21
3.655335731568831
 31
0.0
  0
LINE
  5
89
330
1F
100
AcDbEntity
  8
DEFAULT
100
AcDbLine
 10
23.93727383379155
 20
3.720953119753078
 30
0.0
 11
26.43262635521957
 21
17.87279982257971
 31
0.0
  0
LINE
  5
8A
330
1F
100
AcDbEntity
  8
DEFAULT
100
AcDbLine
 10
-10.37573354921906
 20
0.4612648225797125
 30
0.0
 11
-10.37573354921906
 21
1.461264822579712
 31
0.0
  0
ARC
  5
8B
330
1F
100
AcDbEntity
  8
DEFAULT
100
AcDbCircle
 10
-9.875733549219062
 20
1.461264822579712
 30
0.0
 40
0.5
100
AcDbArc
 50
90.0
 51
180.0
  0
POLYLINE
  5
8C
330
1F
100
AcDbEntity
  8
DEFAULT
100
AcDb2dPolyline
 66
     1
 10
0.0
 20
0.0
 30
0.0
  0
VERTEX
  5
8D
330
8C
100
AcDbEntity
  8
DEFAULT
100
AcDbVertex
100
AcDb2dVertex
 10
-9.875733549219062
 20
1.961264822579712
 30
0.0
  0
VERTEX
  5
8E
330
8C
100
AcDbEntity
  8
DEFAULT
100
AcDbVertex
100
AcDb2dVertex
 10
-9.625733549219062
 20
1.961264822579712
 30
0.0
  0
VERTEX
  5
8F
330
8C
100
AcDbEntity
  8
DEFAULT
100
AcDbVertex
100
AcDb2dVertex
 10
-9.625733549219062
 20
-0.0387351774202875
 30
0.0
  0
SEQEND
  5
90
330
8C
100
AcDbEntity
  8
DEFAULT
  0
LINE
  5
91
330
1F
100
AcDbEntity
  8
DEFAULT
100
AcDbLine
 10
-9.625733549219062
 20
-0.0387351774202875
 30
0.0
 11
-9.875733549219062
 21
-0.0387351774202875
 31
0.0
  0
ARC
  5
92
330
1F
100
AcDbEntity
  8
DEFAULT
100
AcDbCircle
 10
-9.875733549219062
 20
0.4612648225797125
 30
0.0
 40
0.5
100
AcDbArc
 50
180.0
 51
269.9999999999992
  0
ARC
  5
93
330
1F
100
AcDbEntity
  8
DEFAULT
100
AcDbCircle
 10
-8.809212450780946
 20
0.4612648225797125
 30
0.0
 40
0.5
100
AcDbArc
 50
277.2614825709405
 51
0.0
  0
LINE
  5
94
330
1F
100
AcDbEntity
  8
DEFAULT
100
AcDbLine
 10
-8.309212450780946
 20
0.4612648225797125
 30
0.0
 11
-8.309212450780946
 21
0.5568979987012168
 31
0.0
  0
LINE
  5
95
330
1F
100
AcDbEntity
  8
DEFAULT
100
AcDbLine
 10
8.970478366449605
 20
62.73764175492516
 30
0.0
 11
8.810691731063763
 21
62.73764175492516
 31
0.0
  0
ARC
  5
96
330
1F
100
AcDbEntity
  8
DEFAULT
100
AcDbCircle
 10
8.810691731063777
 20
63.23764175492516
 30
0.0
 40
0.5
100
AcDbArc
 50
180.0
 51
269.9999999999992
  0
LINE
  5
97
330
1F
100
AcDbEntity
  8
DEFAULT
100
AcDbLine
 10
8.310691731063777
 20
63.23764175492516
 30
0.0
 11
8.310691731063777
 21
64.23764175492515
 31
0.0
  0
ARC
  5
98
330
1F
100
AcDbEntity
  8
DEFAULT
100
AcDbCircle
 10
8.810691731063777
 20
64.23764175492515
 30
0.0
 40
0.5
100
AcDbArc
 50
90.0
 51
180.0
  0
POLYLINE
  5
99
330
1F
100
AcDbEntity
  8
DEFAULT
100
AcDb2dPolyline
 66
     1
 10
0.0
 20
0.0
 30
0.0
  0
VERTEX
  5
9A
330
99
100
AcDbEntity
  8
DEFAULT
100
AcDbVertex
100
AcDb2dVertex
 10
8.810691731063777
 20
64.73764175492515
 30
0.0
  0
VERTEX
  5
9B
330
99
100
AcDbEntity
  8
DEFAULT
100
AcDbVertex
100
AcDb2dVertex
 10
9.060691731063777
 20
64.73764175492515
 30
0.0
  0
VERTEX
  5
9C
330
99
100
AcDbEntity
  8
DEFAULT
100
AcDbVertex
100
AcDb2dVertex
 10
9.060691731063777
 20
63.34749051745266
 30
0.0
  0
SEQEND
  5
9D
330
99
100
AcDbEntity
  8
DEFAULT
  0
LINE
  5
9E
330
1F
100
AcDbEntity
  8
DEFAULT
100
AcDbLine
 10
9.717425366449596
 20
62.73764175492516
 30
0.0
 11
9.877212829501893
 21
62.73764175492516
 31
0.0
  0
ARC
  5
9F
330
1F
100
AcDbEntity
  8
DEFAULT
100
AcDbCircle
 10
9.877212829501879
 20
63.23764175492516
 30
0.0
 40
0.5
100
AcDbArc
 50
270.0000000000008
 51
0.0
  0
LINE
  5
A0
330
1F
100
AcDbEntity
  8
DEFAULT
100
AcDbLine
 10
10.37721282950188
 20
63.23764175492516
 30
0.0
 11
10.37721282950188
 21
64.23764175492515
 31
0.0
  0
ARC
  5
A1
330
1F
100
AcDbEntity
  8
DEFAULT
100
AcDbCircle
 10
9.877212829501879
 20
64.23764175492515
 30
0.0
 40
0.5
100
AcDbArc
 50
0.0
 51
90.0
  0
POLYLINE
  5
A2
330
1F
100
AcDbEntity
  8
DEFAULT
100
AcDb2dPolyline
 66
     1
 10
0.0
 20
0.0
 30
0.0
  0
VERTEX
  5
A3
330
A2
100
AcDbEntity
  8
DEFAULT
100
AcDbVertex
100
AcDb2dVertex
 10
9.877212829501879
 20
64.73764175492515
 30
0.0
  0
VERTEX
  5
A4
330
A2
100
AcDbEntity
  8
DEFAULT
100
AcDbVertex
100
AcDb2dVertex
 10
9.627212829501879
 20
64.73764175492515
 30
0.0
  0
VERTEX
  5
A5
330
A2
100
AcDbEntity
  8
DEFAULT
100
AcDbVertex
100
AcDb2dVertex
 10
9.627212829501879
 20
63.34749051745225
 30
0.0
  0
SEQEND
  5
A6
330
A2
100
AcDbEntity
  8
DEFAULT
  0
POLYLINE
  5
A7
330
1F
100
AcDbEntity
  8
DEFAULT
100
AcDb2dPolyline
 66
     1
 10
0.0
 20
0.0
 30
0.0
  0
VERTEX
  5
A8
330
A7
100
AcDbEntity
  8
DEFAULT
100
AcDbVertex
100
AcDb2dVertex
 10
9.060691731063777
 20
63.34749051745265
 30
0.0
  0
VERTEX
  5
A9
330
A7
100
AcDbEntity
  8
DEFAULT
100
AcDbVertex
100
AcDb2dVertex
 10
9.060691731063777
 20
64.73764175492515
 30
0.0
  0
VERTEX
  5
AA
330
A7
100
AcDbEntity
  8
DEFAULT
100
AcDbVertex
100
AcDb2dVertex
 10
9.627212829501879
 20
64.73764175492515
 30
0.0
  0
VERTEX
  5
AB
330
A7
100
AcDbEntity
  8
DEFAULT
100
AcDbVertex
100
AcDb2dVertex
 10
9.627212829501879
 20
63.34749051745225
 30
0.0
  0
SEQEND
  5
AC
330
A7
100
AcDbEntity
  8
DEFAULT
  0
ARC
  5
AD
330
1F
100
AcDbEntity
  8
DEFAULT
100
AcDbCircle
 10
41.37269388972663
 20
16.77849193847549
 30
0.0
 40
2.896150513259113
100
AcDbArc
 50
45.00107514345707
 51
74.49356639156444
  0
LINE
  5
AE
330
1F
100
AcDbEntity
  8
DEFAULT
100
AcDbLine
 10
-8.97052699999999
 20
62.73764175492516
 30
0.0
 11
-8.810739536947693
 21
62.73764175492516
 31
0.0
  0
ARC
  5
AF
330
1F
100
AcDbEntity
  8
DEFAULT
100
AcDbCircle
 10
-8.810739536947708
 20
63.23764175492516
 30
0.0
 40
0.5
100
AcDbArc
 50
270.0000000000008
 51
0.0
  0
LINE
  5
B0
330
1F
100
AcDbEntity
  8
DEFAULT
100
AcDbLine
 10
-8.310739536947708
 20
63.23764175492516
 30
0.0
 11
-8.310739536947708
 21
64.23764175492515
 31
0.0
  0
ARC
  5
B1
330
1F
100
AcDbEntity
  8
DEFAULT
100
AcDbCircle
 10
-8.810739536947708
 20
64.23764175492515
 30
0.0
 40
0.5
100
AcDbArc
 50
0.0
 51
90.0
  0
POLYLINE
  5
B2
330
1F
100
AcDbEntity
  8
DEFAULT
100
AcDb2dPolyline
 66
     1
 10
0.0
 20
0.0
 30
0.0
  0
VERTEX
  5
B3
330
B2
100
AcDbEntity
  8
DEFAULT
100
AcDbVertex
100
AcDb2dVertex
 10
-8.810739536947708
 20
64.73764175492515
 30
0.0
  0
VERTEX
  5
B4
330
B2
100
AcDbEntity
  8
DEFAULT
100
AcDbVertex
100
AcDb2dVertex
 10
-9.060739536947708
 20
64.73764175492515
 30
0.0
  0
VERTEX
  5
B5
330
B2
100
AcDbEntity
  8
DEFAULT
100
AcDbVertex
100
AcDb2dVertex
 10
-9.060739536947708
 20
63.34749051745225
 30
0.0
  0
SEQEND
  5
B6
330
B2
100
AcDbEntity
  8
DEFAULT
  0
POLYLINE
  5
B7
330
1F
100
AcDbEntity
  8
DEFAULT
100
AcDb2dPolyline
 66
     1
 10
0.0
 20
0.0
 30
0.0
  0
VERTEX
  5
B8
330
B7
100
AcDbEntity
  8
DEFAULT
100
AcDbVertex
100
AcDb2dVertex
 10
-9.62726063538581
 20
63.34749051745265
 30
0.0
  0
VERTEX
  5
B9
330
B7
100
AcDbEntity
  8
DEFAULT
100
AcDbVertex
100
AcDb2dVertex
 10
-9.62726063538581
 20
64.73764175492515
 30
0.0
  0
VERTEX
  5
BA
330
B7
100
AcDbEntity
  8
DEFAULT
100
AcDbVertex
100
AcDb2dVertex
 10
-9.060739536947708
 20
64.73764175492515
 30
0.0
  0
VERTEX
  5
BB
330
B7
100
AcDbEntity
  8
DEFAULT
100
AcDbVertex
100
AcDb2dVertex
 10
-9.060739536947708
 20
63.34749051745225
 30
0.0
  0
SEQEND
  5
BC
330
B7
100
AcDbEntity
  8
DEFAULT
  0
LINE
  5
BD
330
1F
100
AcDbEntity
  8
DEFAULT
100
AcDbLine
 10
-9.717473999999982
 20
62.73764175492516
 30
0.0
 11
-9.877260635385824
 21
62.73764175492516
 31
0.0
  0
ARC
  5
BE
330
1F
100
AcDbEntity
  8
DEFAULT
100
AcDbCircle
 10
-9.87726063538581
 20
63.23764175492516
 30
0.0
 40
0.5
100
AcDbArc
 50
180.0
 51
269.9999999999992
  0
LINE
  5
BF
330
1F
100
AcDbEntity
  8
DEFAULT
100
AcDbLine
 10
-10.37726063538581
 20
63.23764175492516
 30
0.0
 11
-10.37726063538581
 21
64.23764175492515
 31
0.0
  0
ARC
  5
C0
330
1F
100
AcDbEntity
  8
DEFAULT
100
AcDbCircle
 10
-9.87726063538581
 20
64.23764175492515
 30
0.0
 40
0.5
100
AcDbArc
 50
90.0
 51
180.0
  0
POLYLINE
  5
C1
330
1F
100
AcDbEntity
  8
DEFAULT
100
AcDb2dPolyline
 66
     1
 10
0.0
 20
0.0
 30
0.0
  0
VERTEX
  5
C2
330
C1
100
AcDbEntity
  8
DEFAULT
100
AcDbVertex
100
AcDb2dVertex
 10
-9.87726063538581
 20
64.73764175492515
 30
0.0
  0
VERTEX
  5
C3
330
C1
100
AcDbEntity
  8
DEFAULT
100
AcDbVertex
100
AcDb2dVertex
 10
-9.62726063538581
 20
64.73764175492515
 30
0.0
  0
VERTEX
  5
C4
330
C1
100
AcDbEntity
  8
DEFAULT
100
AcDbVertex
100
AcDb2dVertex
 10
-9.62726063538581
 20
63.34749051745266
 30
0.0
  0
SEQEND
  5
C5
330
C1
100
AcDbEntity
  8
DEFAULT
  0
LINE
  5
C6
330
1F
100
AcDbEntity
  8
DEFAULT
100
AcDbLine
 10
26.49604590247957
 20
18.06288320714971
 30
0.0
 11
26.43262637394957
 21
17.87280028786971
 31
0.0
  0
LINE
  5
C7
330
1F
100
AcDbEntity
  8
DEFAULT
100
AcDbLine
 10
8.090806015065805
 20
1.961264822579709
 30
0.0
 11
8.09080601506573
 21
17.19021532257971
 31
0.0
  0
LINE
  5
C8
330
1F
100
AcDbEntity
  8
DEFAULT
100
AcDbLine
 10
-8.090806015065747
 20
1.96126482257967
 30
0.0
 11
-8.090806015065745
 21
17.19021532257967
 31
0.0
  0
LINE
  5
C9
330
1F
100
AcDbEntity
  8
DEFAULT
100
AcDbLine
 10
8.09080601506573
 20
17.19021532257971
 30
0.0
 11
-8.090806015065745
 21
17.19021532257971
 31
0.0
  0
LINE
  5
CA
330
1F
100
AcDbEntity
  8
DEFAULT
100
AcDbLine
 10
-8.837753015065745
 20
1.961264822579666
 30
0.0
 11
-8.837753015065822
 21
17.74332439911896
 31
0.0
  0
LINE
  5
CB
330
1F
100
AcDbEntity
  8
DEFAULT
100
AcDbLine
 10
-9.496013564284809
 20
0.4612648225796696
 30
0.0
 11
-9.496013564284809
 21
1.46126482257967
 31
0.0
  0
ARC
  5
CC
330
1F
100
AcDbEntity
  8
DEFAULT
100
AcDbCircle
 10
-8.996013564284809
 20
1.46126482257967
 30
0.0
 40
0.5
100
AcDbArc
 50
90.0
 51
180.0
  0
POLYLINE
  5
CD
330
1F
100
AcDbEntity
  8
DEFAULT
100
AcDb2dPolyline
 66
     1
 10
0.0
 20
0.0
 30
0.0
  0
VERTEX
  5
CE
330
CD
100
AcDbEntity
  8
DEFAULT
100
AcDbVertex
100
AcDb2dVertex
 10
-8.996013564284809
 20
1.96126482257967
 30
0.0
  0
VERTEX
  5
CF
330
CD
100
AcDbEntity
  8
DEFAULT
100
AcDbVertex
100
AcDb2dVertex
 10
-8.746013564284809
 20
1.96126482257967
 30
0.0
  0
VERTEX
  5
D0
330
CD
100
AcDbEntity
  8
DEFAULT
100
AcDbVertex
100
AcDb2dVertex
 10
-8.746013564284809
 20
-0.0387351774203304
 30
0.0
  0
SEQEND
  5
D1
330
CD
100
AcDbEntity
  8
DEFAULT
  0
LINE
  5
D2
330
1F
100
AcDbEntity
  8
DEFAULT
100
AcDbLine
 10
-8.746013564284809
 20
-0.0387351774203304
 30
0.0
 11
-8.996013564284809
 21
-0.0387351774203304
 31
0.0
  0
ARC
  5
D3
330
1F
100
AcDbEntity
  8
DEFAULT
100
AcDbCircle
 10
-8.996013564284809
 20
0.4612648225796696
 30
0.0
 40
0.5
100
AcDbArc
 50
180.0
 51
269.9999999999992
  0
LINE
  5
D4
330
1F
100
AcDbEntity
  8
DEFAULT
100
AcDbLine
 10
-7.429492465846693
 20
0.4612648225796696
 30
0.0
 11
-7.429492465846693
 21
1.46126482257967
 31
0.0
  0
ARC
  5
D5
330
1F
100
AcDbEntity
  8
DEFAULT
100
AcDbCircle
 10
-7.929492465846693
 20
1.46126482257967
 30
0.0
 40
0.5
100
AcDbArc
 50
0.0
 51
90.0
  0
POLYLINE
  5
D6
330
1F
100
AcDbEntity
  8
DEFAULT
100
AcDb2dPolyline
 66
     1
 10
0.0
 20
0.0
 30
0.0
  0
VERTEX
  5
D7
330
D6
100
AcDbEntity
  8
DEFAULT
100
AcDbVertex
100
AcDb2dVertex
 10
-7.929492465846693
 20
1.96126482257967
 30
0.0
  0
VERTEX
  5
D8
330
D6
100
AcDbEntity
  8
DEFAULT
100
AcDbVertex
100
AcDb2dVertex
 10
-8.179492465846693
 20
1.96126482257967
 30
0.0
  0
VERTEX
  5
D9
330
D6
100
AcDbEntity
  8
DEFAULT
100
AcDbVertex
100
AcDb2dVertex
 10
-8.179492465846693
 20
-0.0387351774203304
 30
0.0
  0
SEQEND
  5
DA
330
D6
100
AcDbEntity
  8
DEFAULT
  0
LINE
  5
DB
330
1F
100
AcDbEntity
  8
DEFAULT
100
AcDbLine
 10
-8.179492465846693
 20
-0.0387351774203304
 30
0.0
 11
-7.929492465846678
 21
-0.0387351774203304
 31
0.0
  0
ARC
  5
DC
330
1F
100
AcDbEntity
  8
DEFAULT
100
AcDbCircle
 10
-7.929492465846693
 20
0.4612648225796696
 30
0.0
 40
0.5
100
AcDbArc
 50
270.0000000000008
 51
0.0
  0
LINE
  5
DD
330
1F
100
AcDbEntity
  8
DEFAULT
100
AcDbLine
 10
8.837753015065804
 20
1.961264822579709
 30
0.0
 11
8.837753015065804
 21
17.73596218055081
 31
0.0
  0
LINE
  5
DE
330
1F
100
AcDbEntity
  8
DEFAULT
100
AcDbLine
 10
-8.970526
 20
17.78073936585893
 30
0.0
 11
-8.970526
 21
1.961264822579709
 31
0.0
  0
LINE
  5
DF
330
1F
100
AcDbEntity
  8
DEFAULT
100
AcDbLine
 10
8.970526
 20
17.77432324562095
 30
0.0
 11
8.970526
 21
1.961264822579709
 31
0.0
  0
LINE
  5
E0
330
1F
100
AcDbEntity
  8
DEFAULT
100
AcDbLine
 10
-9.063690999999999
 20
24.18142382257971
 30
0.0
 11
-9.063690999999999
 21
19.72268039648169
 31
0.0
  0
LINE
  5
E1
330
1F
100
AcDbEntity
  8
DEFAULT
100
AcDbLine
 10
-8.962356
 20
27.6007588225797
 30
0.0
 11
-9.063690999999999
 21
24.18142382257971
 31
0.0
  0
LINE
  5
E2
330
1F
100
AcDbEntity
  8
DEFAULT
100
AcDbLine
 10
-8.759571999999999
 20
30.19412882257971
 30
0.0
 11
-8.962356
 21
27.6007588225797
 31
0.0
  0
LINE
  5
E3
330
1F
100
AcDbEntity
  8
DEFAULT
100
AcDbLine
 10
-8.461797999999998
 20
33.19051882257971
 30
0.0
 11
-8.759571999999999
 21
30.19412882257971
 31
0.0
  0
POLYLINE
  5
E4
330
1F
100
AcDbEntity
  8
DEFAULT
100
AcDb2dPolyline
 66
     1
 10
0.0
 20
0.0
 30
0.0
  0
VERTEX
  5
E5
330
E4
100
AcDbEntity
  8
DEFAULT
100
AcDbVertex
100
AcDb2dVertex
 10
-8.746013564284809
 20
0.556897998701217
 30
0.0
  0
VERTEX
  5
E6
330
E4
100
AcDbEntity
  8
DEFAULT
100
AcDbVertex
100
AcDb2dVertex
 10
-8.179492465846693
 20
0.556897998701217
 30
0.0
  0
VERTEX
  5
E7
330
E4
100
AcDbEntity
  8
DEFAULT
100
AcDbVertex
100
AcDb2dVertex
 10
-8.179492465846693
 20
1.96126482257967
 30
0.0
  0
VERTEX
  5
E8
330
E4
100
AcDbEntity
  8
DEFAULT
100
AcDbVertex
100
AcDb2dVertex
 10
-8.746013564284809
 20
1.96126482257967
 30
0.0
  0
VERTEX
  5
E9
330
E4
100
AcDbEntity
  8
DEFAULT
100
AcDbVertex
100
AcDb2dVertex
 10
-8.746013564284809
 20
0.556897998701217
 30
0.0
  0
SEQEND
  5
EA
330
E4
100
AcDbEntity
  8
DEFAULT
  0
SPLINE
  5
EB
330
1F
100
AcDbEntity
  8
DEFAULT
100
AcDbSpline
210
0.0
220
0.0
230
1.0
 70
    12
 71
     2
 72
    14
 73
    11
 74
     0
 42
0.0000000001
 43
0.0000000001
 40
-37.83956168228067
 40
-37.83956168228067
 40
-37.83956168228067
 40
-23.18809796348266
 40
-23.18809796348266
 40
-21.61730163668769
 40
-21.61730163668769
 40
-4.040510463327674
 40
-4.040510463327674
 40
-2.469714136532703
 40
-2.469714136532703
 40
12.09335831093076
 40
12.09335831093076
 40
12.09335831093076
 10
-9.614841471015243
 20
59.03998610490522
 30
0.0
 41
1.0
 10
-9.614841471015243
 20
51.71425424550621
 30
0.0
 41
1.0
 10
-9.614841471015243
 20
44.3885223861072
 30
0.0
 41
1.0
 10
-9.614841471015243
 20
43.38852238610713
 30
0.0
 41
0.7071067811865213
 10
-8.614841471015168
 20
43.3885223861072
 30
0.0
 41
1.0
 10
-0.0000336892674309
 20
43.3885223861072
 30
0.0
 41
1.0
 10
8.589407892706515
 20
43.3885223861072
 30
0.0
 41
1.0
 10
9.589407892706587
 20
43.38852238610713
 30
0.0
 41
0.7071067811865213
 10
9.589407892706589
 20
44.3885223861072
 30
0.0
 41
1.0
 10
9.589407892706589
 20
51.67005860983893
 30
0.0
 41
1.0
 10
9.589407892706589
 20
58.95159483357067
 30
0.0
 41
1.0
  0
LINE
  5
EC
330
1F
100
AcDbEntity
  8
DEFAULT
100
AcDbLine
 10
8.970479194116042
 20
60.85556657519974
 30
0.0
 11
8.970479194116042
 21
63.10408557519976
 31
0.0
  0
SPLINE
  5
ED
330
1F
100
AcDbEntity
  8
DEFAULT
100
AcDbSpline
210
0.0
220
0.0
230
1.0
 70
     8
 71
     3
 72
     8
 73
     4
 74
     0
 42
0.0000000001
 43
0.0000000001
 40
0.0
 40
0.0
 40
0.0
 40
0.0
 40
1.0
 40
1.0
 40
1.0
 40
1.0
 10
22.02774615395294
 20
33.76840406153134
 30
0.0
 10
25.88216404004616
 20
29.8312033300969
 30
0.0
 10
27.69806535521957
 20
24.54268582257971
 30
0.0
 10
24.40618726993102
 20
16.78766033825494
 30
0.0
  0
LINE
  5
EE
330
1F
100
AcDbEntity
  8
DEFAULT
100
AcDbLine
 10
9.063690999999999
 20
24.18142382257971
 30
0.0
 11
9.063690999999999
 21
19.71418929947754
 31
0.0
  0
LINE
  5
EF
330
1F
100
AcDbEntity
  8
DEFAULT
100
AcDbLine
 10
8.962356
 20
27.6007588225797
 30
0.0
 11
9.063690999999999
 21
24.18142382257971
 31
0.0
  0
LINE
  5
F0
330
1F
100
AcDbEntity
  8
DEFAULT
100
AcDbLine
 10
8.759571999999999
 20
30.19412882257971
 30
0.0
 11
8.962356
 21
27.6007588225797
 31
0.0
  0
LINE
  5
F1
330
1F
100
AcDbEntity
  8
DEFAULT
100
AcDbLine
 10
8.461797999999998
 20
33.19051882257971
 30
0.0
 11
8.759571999999999
 21
30.19412882257971
 31
0.0
  0
ARC
  5
F2
330
1F
100
AcDbEntity
  8
DEFAULT
100
AcDbCircle
 10
7.935625335976225
 20
33.25373723543352
 30
0.0
 40
0.5299568285149553
100
AcDbArc
 50
353.1488866964893
 51
60.4380662295839
  0
LINE
  5
F3
330
1F
100
AcDbEntity
  8
DEFAULT
100
AcDbLine
 10
7.670106999999998
 20
33.69594182257971
 30
0.0
 11
8.197087
 21
33.71470582257971
 31
0.0
  0
ARC
  5
F4
330
1F
100
AcDbEntity
  8
DEFAULT
100
AcDbCircle
 10
24.76483343699928
 20
16.6826568453529
 30
0.0
 40
0.373701494075674
100
AcDbArc
 50
117.4466791902413
 51
302.384609635307
  0
LINE
  5
F5
330
1F
100
AcDbEntity
  8
DEFAULT
100
AcDbLine
 10
28.20243435521957
 20
24.13219682257971
 30
0.0
 11
27.22566335521957
 21
18.59265282257971
 31
0.0
  0
ARC
  5
F6
330
1F
100
AcDbEntity
  8
DEFAULT
100
AcDbCircle
 10
19.31016275010704
 20
25.67561777529048
 30
0.0
 40
9.025222575446943
100
AcDbArc
 50
350.1533385667927
 51
12.83577957528344
  0
LINE
  5
F7
330
1F
100
AcDbEntity
  8
DEFAULT
100
AcDbLine
 10
27.11461433101474
 20
17.42146757283048
 30
0.0
 11
41.21941668611602
 21
18.16066906499419
 31
0.0
  0
ARC
  5
F8
330
1F
100
AcDbEntity
  8
DEFAULT
100
AcDbCircle
 10
41.27175265107937
 20
17.16203953069664
 30
0.0
 40
1.0
100
AcDbArc
 50
2.99999983993429
 51
93.00000050032803
  0
LINE
  5
F9
330
1F
100
AcDbEntity
  8
DEFAULT
100
AcDbLine
 10
42.27038218598015
 20
17.21437548414973
 30
0.0
 11
43.07079235521957
 21
1.941638822579706
 31
0.0
  0
LINE
  5
FA
330
1F
100
AcDbEntity
  8
DEFAULT
100
AcDbLine
 10
43.01935418821874
 20
17.2536274414341
 30
0.0
 11
43.81976435521957
 21
1.980890822579707
 31
0.0
  0
LINE
  5
FB
330
1F
100
AcDbEntity
  8
DEFAULT
100
AcDbLine
 10
27.24738535521957
 20
18.17444882257971
 30
0.0
 11
41.31242785866691
 21
18.91156676040439
 31
0.0
  0
ARC
  5
FC
330
1F
100
AcDbEntity
  8
DEFAULT
100
AcDbCircle
 10
41.24189720990832
 20
17.13130195018446
 30
0.0
 40
1.781661406362535
100
AcDbArc
 50
3.936916950285566
 51
87.7312385382964
  0
LINE
  5
FD
330
1F
100
AcDbEntity
  8
DEFAULT
100
AcDbLine
 10
26.81741335521957
 20
33.28363582257971
 30
0.0
 11
28.10985235521957
 21
27.68063782257971
 31
0.0
  0
ARC
  5
FE
330
1F
100
AcDbEntity
  8
DEFAULT
100
AcDbCircle
 10
25.57125332487438
 20
32.9971894584099
 30
0.0
 40
1.278658023388598
100
AcDbArc
 50
12.94532142205937
 51
92.01118445160958
  0
LINE
  5
FF
330
1F
100
AcDbEntity
  8
DEFAULT
100
AcDbLine
 10
22.27944535521909
 20
34.16228782257969
 30
0.0
 11
25.52637935521957
 21
34.2750598225797
 31
0.0
  0
ARC
  5
100
330
1F
100
AcDbEntity
  8
DEFAULT
100
AcDbCircle
 10
22.28648185521957
 20
33.88201332257971
 30
0.0
 40
0.2803628143718395
100
AcDbArc
 50
91.43815110015304
 51
271.438151100153
  0
LINE
  5
101
330
1F
100
AcDbEntity
  8
DEFAULT
100
AcDbLine
 10
25.54295935521957
 20
33.71459682257971
 30
0.0
 11
22.29351835522005
 21
33.60173882257972
 31
0.0
  0
ARC
  5
102
330
1F
100
AcDbEntity
  8
DEFAULT
100
AcDbCircle
 10
25.5669595731272
 20
32.99332991770493
 30
0.0
 40
0.7216660990563775
100
AcDbArc
 50
13.0879637730957
 51
91.90581877395726
  0
LINE
  5
103
330
1F
100
AcDbEntity
  8
DEFAULT
100
AcDbLine
 10
27.56226035521957
 20
27.55400282257971
 30
0.0
 11
26.26987935521957
 21
33.15674882257971
 31
0.0
  0
ARC
  5
104
330
1F
100
AcDbEntity
  8
DEFAULT
100
AcDbCircle
 10
19.3186175850133
 20
25.67566701136247
 30
0.0
 40
8.454927057194245
100
AcDbArc
 50
350.1534033066483
 51
12.83585698515437
  0
LINE
  5
105
330
1F
100
AcDbEntity
  8
DEFAULT
100
AcDbLine
 10
26.67222535521957
 20
18.69023882257971
 30
0.0
 11
27.64899635521957
 21
24.22978282257971
 31
0.0
  0
LINE
  5
106
330
1F
100
AcDbEntity
  8
DEFAULT
100
AcDbLine
 10
41.77232235521957
 20
17.97514382257971
 30
0.0
 11
26.93550518050482
 21
16.40568911991024
 31
0.0
  0
ARC
  5
107
330
1F
100
AcDbEntity
  8
DEFAULT
100
AcDbCircle
 10
25.05919192872729
 20
33.75649052326572
 30
0.0
 40
17.45191119360821
100
AcDbArc
 50
268.9927868957973
 51
273.6238602141111
  0
ARC
  5
108
330
1F
100
AcDbEntity
  8
DEFAULT
100
AcDbCircle
 10
9.389511083932472
 20
60.19878432543383
 30
0.0
 40
0.4280865888179529
100
AcDbArc
 50
76.95193878883428
 51
136.5898542386216
  0
ARC
  5
109
330
1F
100
AcDbEntity
  8
DEFAULT
100
AcDbCircle
 10
0.0000000000000018
 20
48.57636414180922
 30
0.0
 40
32.33222042123736
100
AcDbArc
 50
256.1064861405881
 51
283.8935138594118
  0
ARC
  5
10A
330
1F
100
AcDbEntity
  8
DEFAULT
100
AcDbCircle
 10
9.344510022659671
 20
60.16250251530528
 30
0.0
 40
0.3712662524430437
100
AcDbArc
 50
319.0470242105185
 51
131.1171492072459
  0
LINE
  5
10B
330
1F
100
AcDbEntity
  8
DEFAULT
100
AcDbLine
 10
8.914540194116043
 20
60.88083957519974
 30
0.0
 11
9.48615946637804
 21
60.61581815822974
 31
0.0
  0
ARC
  5
10C
330
1F
100
AcDbEntity
  8
DEFAULT
100
AcDbCircle
 10
-0.0000238962206238
 20
39.25500431951947
 30
0.0
 40
21.62529071419742
100
AcDbArc
 50
64.51060549271007
 51
115.4893945012289
  0
ARC
  5
10D
330
1F
100
AcDbEntity
  8
DEFAULT
100
AcDbCircle
 10
41.01409064223756
 20
15.59775955034111
 30
0.0
 40
4.129884245648721
100
AcDbArc
 50
74.07894774905049
 51
92.80896338279351
  0
LINE
  5
10E
330
1F
100
AcDbEntity
  8
DEFAULT
100
AcDbLine
 10
27.25990188932342
 20
19.059602598887
 30
0.0
 11
40.81170144002959
 21
19.72268167000436
 31
0.0
  0
LINE
  5
10F
330
1F
100
AcDbEntity
  8
DEFAULT
100
AcDbLine
 10
9.624261194116041
 20
60.24024257519976
 30
0.0
 11
9.624261194116041
 21
59.18368657519976
 31
0.0
  0
ARC
  5
110
330
1F
100
AcDbEntity
  8
DEFAULT
100
AcDbCircle
 10
-9.34357304747315
 20
60.15709924733619
 30
0.0
 40
0.2930037426607494
100
AcDbArc
 50
44.54383196361168
 51
164.0759466098522
  0
ARC
  5
111
330
1F
100
AcDbEntity
  8
DEFAULT
100
AcDbCircle
 10
3.130239334103939
 20
57.7093569708427
 30
0.0
 40
6.595781884831924
100
AcDbArc
 50
13.11341444064285
 51
44.47752146815646
  0
ARC
  5
112
330
1F
100
AcDbEntity
  8
DEFAULT
100
AcDbCircle
 10
-0.0000119514709898
 20
52.6503256388627
 30
0.0
 40
12.4546266779873
100
AcDbArc
 50
51.00853242770171
 51
128.9914675722985
  0
ARC
  5
113
330
1F
100
AcDbEntity
  8
DEFAULT
100
AcDbCircle
 10
-3.130520700777053
 20
57.7094493490472
 30
0.0
 40
6.595533456034633
100
AcDbArc
 50
135.5214841029619
 51
166.8869067991937
  0
LINE
  5
114
330
1F
100
AcDbEntity
  8
DEFAULT
100
AcDbLine
 10
26.48418535521957
 20
18.16520582257971
 30
0.0
 11
26.57964135521957
 21
18.70656382257971
 31
0.0
  0
LINE
  5
115
330
1F
100
AcDbEntity
  8
DEFAULT
100
AcDbLine
 10
26.31925435521957
 20
17.22983882257971
 30
0.0
 11
24.96498835521957
 21
16.36707582257971
 31
0.0
  0
LINE
  5
116
330
1F
100
AcDbEntity
  8
DEFAULT
100
AcDbLine
 10
27.31824735521957
 20
18.57632782257971
 30
0.0
 11
26.57964135521957
 21
18.70656382257971
 31
0.0
  0
LINE
  5
117
330
1F
100
AcDbEntity
  8
DEFAULT
100
AcDbLine
 10
-9.717472999999998
 20
1.961264822579709
 30
0.0
 11
-9.717472999999998
 21
18.74746090034218
 31
0.0
  0
LINE
  5
118
330
1F
100
AcDbEntity
  8
DEFAULT
100
AcDbLine
 10
9.717472999999998
 20
1.961264822579709
 30
0.0
 11
9.717472999999998
 21
18.74746090034218
 31
0.0
  0
LINE
  5
119
330
1F
100
AcDbEntity
  8
DEFAULT
100
AcDbLine
 10
-9.717472999999998
 20
18.74746090034218
 30
0.0
 11
-9.633552396565529
 21
18.74746090034218
 31
0.0
  0
LINE
  5
11A
330
1F
100
AcDbEntity
  8
DEFAULT
100
AcDbLine
 10
9.717472999999998
 20
18.74746090034218
 30
0.0
 11
9.627233801001994
 21
18.74746090034218
 31
0.0
  0
ARC
  5
11B
330
1F
100
AcDbEntity
  8
DEFAULT
100
AcDbCircle
 10
8.453652130348184
 20
43.66658574524975
 30
0.0
 40
0.37347345538205
100
AcDbArc
 50
228.1190136329675
 51
313.5593312120241
  0
ARC
  5
11C
330
1F
100
AcDbEntity
  8
DEFAULT
100
AcDbCircle
 10
-8.464279559683764
 20
43.66658574524975
 30
0.0
 40
0.37347345538205
100
AcDbArc
 50
226.8694287208574
 51
311.8809863670311
  0
LINE
  5
11D
330
1F
100
AcDbEntity
  8
DEFAULT
100
AcDbLine
 10
-8.970527
 20
60.85556657519974
 30
0.0
 11
-8.970527
 21
63.10408557519976
 31
0.0
  0
SPLINE
  5
11E
330
1F
100
AcDbEntity
  8
DEFAULT
100
AcDbSpline
210
0.0
220
0.0
230
1.0
 70
     8
 71
     3
 72
     9
 73
     5
 74
     0
 42
0.0000000001
 43
0.0000000001
 40
0.0
 40
0.0
 40
0.0
 40
0.0
 40
1.0
 40
1.9858303401092
 40
1.9858303401092
 40
1.9858303401092
 40
1.9858303401092
 10
43.42054312843982
 20
18.82641803356605
 30
0.0
 10
43.70127060207941
 20
18.53377781163743
 30
0.0
 10
43.83845134078198
 20
17.9755565491008
 30
0.0
 10
43.53646528132495
 20
17.66864368472131
 30
0.0
 10
42.99386047879818
 20
17.74007642155726
 30
0.0
  0
LINE
  5
11F
330
1F
100
AcDbEntity
  8
DEFAULT
100
AcDbLine
 10
-9.717474000000001
 20
63.10408557519976
 30
0.0
 11
-9.717474000000001
 21
60.16291957519975
 31
0.0
  0
ARC
  5
120
330
1F
100
AcDbEntity
  8
DEFAULT
100
AcDbCircle
 10
-9.38955888981643
 20
60.19878432543383
 30
0.0
 40
0.4280865888179529
100
AcDbArc
 50
43.41014576137914
 51
103.048061211166
  0
LINE
  5
121
330
1F
100
AcDbEntity
  8
DEFAULT
100
AcDbLine
 10
-8.914588
 20
60.88083957519974
 30
0.0
 11
-9.486207272262
 21
60.61581815822974
 31
0.0
  0
LINE
  5
122
330
1F
100
AcDbEntity
  8
DEFAULT
100
AcDbLine
 10
24.59258584562704
 20
17.01429456024802
 30
0.0
 11
26.49494635521957
 21
18.22623182257971
 31
0.0
  0
ARC
  5
123
330
1F
100
AcDbEntity
  8
DEFAULT
100
AcDbCircle
 10
9.34352524158919
 20
60.1570992473362
 30
0.0
 40
0.2930037426607381
100
AcDbArc
 50
15.92405339014559
 51
135.4561680363901
  0
LINE
  5
124
330
1F
100
AcDbEntity
  8
DEFAULT
100
AcDbLine
 10
8.166615
 20
34.27493982257971
 30
0.0
 11
7.650527
 21
34.25657482257971
 31
0.0
  0
ARC
  5
125
330
1F
100
AcDbEntity
  8
DEFAULT
100
AcDbCircle
 10
8.107660281482609
 20
33.35868302363352
 30
0.0
 40
0.9181515019050982
100
AcDbArc
 50
353.1889126880641
 51
86.31849211405466
  0
LINE
  5
126
330
1F
100
AcDbEntity
  8
DEFAULT
100
AcDbLine
 10
9.317381999999998
 20
30.25069882257971
 30
0.0
 11
9.019331999999999
 21
33.24979382257971
 31
0.0
  0
LINE
  5
127
330
1F
100
AcDbEntity
  8
DEFAULT
100
AcDbLine
 10
9.521999999999998
 20
27.63388182257971
 30
0.0
 11
9.317381999999998
 21
30.25069882257971
 31
0.0
  0
LINE
  5
128
330
1F
100
AcDbEntity
  8
DEFAULT
100
AcDbLine
 10
9.624309
 20
24.18055482257971
 30
0.0
 11
9.521999999999998
 21
27.63388182257971
 31
0.0
  0
LINE
  5
129
330
1F
100
AcDbEntity
  8
DEFAULT
100
AcDbLine
 10
9.624309
 20
19.26798239262769
 30
0.0
 11
9.624309
 21
24.18055482257971
 31
0.0
  0
LINE
  5
12A
330
1F
100
AcDbEntity
  8
DEFAULT
100
AcDbLine
 10
-8.166615
 20
34.27493982257971
 30
0.0
 11
-7.650527
 21
34.25657482257971
 31
0.0
  0
ARC
  5
12B
330
1F
100
AcDbEntity
  8
DEFAULT
100
AcDbCircle
 10
-8.107660281482609
 20
33.35868302363352
 30
0.0
 40
0.9181515019050982
100
AcDbArc
 50
93.68150788594522
 51
186.8110873119363
  0
LINE
  5
12C
330
1F
100
AcDbEntity
  8
DEFAULT
100
AcDbLine
 10
-9.317381999999998
 20
30.25069882257971
 30
0.0
 11
-9.019331999999999
 21
33.24979382257971
 31
0.0
  0
LINE
  5
12D
330
1F
100
AcDbEntity
  8
DEFAULT
100
AcDbLine
 10
-9.521999999999998
 20
27.63388182257971
 30
0.0
 11
-9.317381999999998
 21
30.25069882257971
 31
0.0
  0
LINE
  5
12E
330
1F
100
AcDbEntity
  8
DEFAULT
100
AcDbLine
 10
-9.624309
 20
24.18055482257971
 30
0.0
 11
-9.521999999999998
 21
27.63388182257971
 31
0.0
  0
LINE
  5
12F
330
1F
100
AcDbEntity
  8
DEFAULT
100
AcDbLine
 10
-9.624309
 20
19.31837888096445
 30
0.0
 11
-9.624309
 21
24.18055482257971
 31
0.0
  0
ARC
  5
130
330
1F
100
AcDbEntity
  8
DEFAULT
100
AcDbCircle
 10
-9.34400008616695
 20
63.10408574524975
 30
0.0
 40
0.37347345538195
100
AcDbArc
 50
359.9999739120492
 51
180.0000260878963
  0
LINE
  5
131
330
1F
100
AcDbEntity
  8
DEFAULT
100
AcDbLine
 10
-9.624309
 20
60.24024257519976
 30
0.0
 11
-9.624309
 21
59.18368657519976
 31
0.0
  0
LINE
  5
132
330
1F
100
AcDbEntity
  8
DEFAULT
100
AcDbLine
 10
9.71742619411604
 20
63.10408557519976
 30
0.0
 11
9.71742619411604
 21
60.16291957519975
 31
0.0
  0
SPLINE
  5
133
330
1F
100
AcDbEntity
  8
DEFAULT
100
AcDbSpline
210
0.0
220
0.0
230
1.0
 70
    15
 71
     2
 72
    20
 73
    17
 74
     0
 42
0.0000000001
 43
0.0000000001
 40
-3024.637267821216
 40
-3024.637267821216
 40
-3024.637267821216
 40
-3024.136839611807
 40
-3024.136839611807
 40
-3022.566043285012
 40
-3022.566043285012
 40
-3005.894314307433
 40
-3005.894314307433
 40
-3004.323517980637
 40
-3004.323517980637
 40
-3003.823089771229
 40
-3003.823089771229
 40
-3003.037691607831
 40
-3003.037691607831
 40
-2985.365962630251
 40
-2985.365962630251
 40
-2984.580564466854
 40
-2984.580564466854
 40
-2984.580564466854
 10
-9.633552396565591
 20
19.2226816700045
 30
0.0
 41
1.0
 10
-9.633552396565559
 20
18.97246756530016
 30
0.0
 41
1.0
 10
-9.633552396565525
 20
18.72225346059583
 30
0.0
 41
1.0
 10
-9.633552396565454
 20
17.72225346059589
 30
0.0
 41
0.7071067811865667
 10
-8.63355239656551
 20
17.7222534605959
 30
0.0
 41
1.0
 10
-0.0000000000001776
 20
17.72225346059574
 30
0.0
 41
1.0
 10
8.62723380100184
 20
17.71355190047935
 30
0.0
 41
1.0
 10
9.627233801002074
 20
17.71355190047919
 30
0.0
 41
0.7071067811864646
 10
9.627233801001996
 20
18.71355190047943
 30
0.0
 41
1.0
 10
9.627233801001978
 20
18.96376600518381
 30
0.0
 41
1.0
 10
9.627233801001957
 20
19.2139801098882
 30
0.0
 41
1.0
 10
9.627233801001923
 20
19.7139801098882
 30
0.0
 41
0.707106781186545
 10
9.127233801001918
 20
19.71398010988816
 30
0.0
 41
1.0
 10
-0.0000000000001776
 20
19.72268167000443
 30
0.0
 41
1.0
 10
-9.13355239656559
 20
19.72268167000446
 30
0.0
 41
1.0
 10
-9.633552396565554
 20
19.72268167000445
 30
0.0
 41
0.7071067811865714
 10
-9.633552396565591
 20
19.2226816700045
 30
0.0
 41
1.0
  0
LINE
  5
134
330
1F
100
AcDbEntity
  8
DEFAULT
100
AcDbLine
 10
28.10985235521957
 20
27.68063782257971
 30
0.0
 11
28.10686535521957
 21
27.68205482257971
 31
0.0
  0
LINE
  5
135
330
1F
100
AcDbEntity
  8
DEFAULT
100
AcDbLine
 10
26.48418528748957
 20
18.16520541689971
 30
0.0
 11
26.49604590247957
 21
18.06288320714971
 31
0.0
  0
LINE
  5
136
330
1F
100
AcDbEntity
  8
DEFAULT
100
AcDbLine
 10
27.50891235521957
 20
30.28584282257971
 30
0.0
 11
27.50558735521957
 21
30.28872382257971
 31
0.0
  0
ARC
  5
137
330
1F
100
AcDbEntity
  8
DEFAULT
100
AcDbCircle
 10
-7.935625335976225
 20
33.25373723543352
 30
0.0
 40
0.5299568285149553
100
AcDbArc
 50
119.5619337704158
 51
186.8511133035099
  0
LINE
  5
138
330
1F
100
AcDbEntity
  8
DEFAULT
100
AcDbLine
 10
-7.670106999999998
 20
33.69594182257971
 30
0.0
 11
-8.197087
 21
33.71470582257971
 31
0.0
  0
ARC
  5
139
330
1F
100
AcDbEntity
  8
DEFAULT
100
AcDbCircle
 10
0.0
 20
364.1930725288169
 30
0.0
 40
330.5861218297694
100
AcDbArc
 50
268.6705304058545
 51
271.3294695941456
  0
ARC
  5
13A
330
1F
100
AcDbEntity
  8
DEFAULT
100
AcDbCircle
 10
0.0
 20
342.3125262231277
 30
0.0
 40
308.1509366474075
100
AcDbArc
 50
268.5773596630036
 51
271.4226403369962
  0
ARC
  5
13B
330
1F
100
AcDbEntity
  8
DEFAULT
100
AcDbCircle
 10
-9.34455782854363
 20
60.16250251530527
 30
0.0
 40
0.371266252443039
100
AcDbArc
 50
48.88285079275354
 51
220.9529757894804
  0
LINE
  5
13C
330
1F
100
AcDbEntity
  8
DEFAULT
100
AcDbLine
 10
26.19165635521957
 20
16.50620182257971
 30
0.0
 11
26.18961635521957
 21
16.50439082257971
 31
0.0
  0
ARC
  5
13D
330
1F
100
AcDbEntity
  8
DEFAULT
100
AcDbCircle
 10
9.343952280282991
 20
63.10408574524975
 30
0.0
 40
0.37347345538195
100
AcDbArc
 50
359.9999739121037
 51
180.0000260879508
  0
LINE
  5
13E
330
1F
100
AcDbEntity
  8
DEFAULT
100
AcDbLine
 10
23.86131259166066
 20
2.852712190630804
 30
0.0
 11
23.86131259166066
 21
1.896146822579707
 31
0.0
  0
LINE
  5
13F
330
1F
100
AcDbEntity
  8
DEFAULT
100
AcDbLine
 10
23.86131259166066
 20
1.896146822579707
 30
0.0
 11
24.61131259166066
 21
1.896146822579707
 31
0.0
  0
ARC
  5
140
330
1F
100
AcDbEntity
  8
DEFAULT
100
AcDbCircle
 10
28.86131259166066
 20
2.852712190630804
 30
0.0
 40
5.0
100
AcDbArc
 50
169.999999525398
 51
180.0
  0
LINE
  5
141
330
1F
100
AcDbEntity
  8
DEFAULT
100
AcDbLine
 10
24.61131259166066
 20
1.896146822579707
 30
0.0
 11
24.61131259166066
 21
2.787094829892731
 31
0.0
  0
POLYLINE
  5
142
330
1F
100
AcDbEntity
  8
DEFAULT
100
AcDb2dPolyline
 66
     1
 10
0.0
 20
0.0
 30
0.0
  0
VERTEX
  5
143
330
142
100
AcDbEntity
  8
DEFAULT
100
AcDbVertex
100
AcDb2dVertex
 10
43.87210036562686
 20
0.982261290663768
 30
0.0
  0
VERTEX
  5
144
330
142
100
AcDbEntity
  8
DEFAULT
100
AcDbVertex
100
AcDb2dVertex
 10
43.81976435521958
 20
1.980890822579707
 30
0.0
  0
VERTEX
  5
145
330
142
100
AcDbEntity
  8
DEFAULT
100
AcDbVertex
100
AcDb2dVertex
 10
42.82113482330273
 20
1.928554812172376
 30
0.0
  0
SEQEND
  5
146
330
142
100
AcDbEntity
  8
DEFAULT
  0
CIRCLE
  5
147
330
1F
100
AcDbEntity
  8
DEFAULT
100
AcDbCircle
 10
42.87347083371093
 20
0.929925280256484
 30
0.0
 40
1.0
  0
CIRCLE
  5
148
330
1F
100
AcDbEntity
  8
DEFAULT
100
AcDbCircle
 10
23.61131259166066
 20
0.8961468225797069
 30
0.0
 40
1.0
  0
POLYLINE
  5
149
330
1F
100
AcDbEntity
  8
DEFAULT
100
AcDb2dPolyline
 66
     1
 10
0.0
 20
0.0
 30
0.0
  0
VERTEX
  5
14A
330
149
100
AcDbEntity
  8
DEFAULT
100
AcDbVertex
100
AcDb2dVertex
 10
24.61131259166066
 20
0.8961468225797069
 30
0.0
  0
VERTEX
  5
14B
330
149
100
AcDbEntity
  8
DEFAULT
100
AcDbVertex
100
AcDb2dVertex
 10
24.61131259166066
 20
1.896146822579707
 30
0.0
  0
VERTEX
  5
14C
330
149
100
AcDbEntity
  8
DEFAULT
100
AcDbVertex
100
AcDb2dVertex
 10
23.61131259165975
 20
1.896146822579707
 30
0.0
  0
SEQEND
  5
14D
330
149
100
AcDbEntity
  8
DEFAULT
  0
ARC
  5
14E
330
1F
100
AcDbEntity
  8
DEFAULT
100
AcDbCircle
 10
29.61131259166066
 20
2.787094829892731
 30
0.0
 40
5.0
100
AcDbArc
 50
169.9999998447598
 51
180.0
  0
ARC
  5
14F
330
1F
100
AcDbEntity
  8
DEFAULT
100
AcDbCircle
 10
-9.294531153451656
 20
59.11254825557659
 30
0.0
 40
0.3373712409164806
100
AcDbArc
 50
167.8207783040675
 51
16.23090628189714
  0
ARC
  5
150
330
1F
100
AcDbEntity
  8
DEFAULT
100
AcDbCircle
 10
-3.148033278224464
 20
57.73930496904831
 30
0.0
 40
6.004667958240741
100
AcDbArc
 50
136.2296369167568
 51
165.8536141729982
  0
ARC
  5
151
330
1F
100
AcDbEntity
  8
DEFAULT
100
AcDbCircle
 10
-0.0000122014709895
 20
52.65069042323635
 30
0.0
 40
11.89263937875097
100
AcDbArc
 50
51.00111379195951
 51
128.9988862080405
  0
ARC
  5
152
330
1F
100
AcDbEntity
  8
DEFAULT
100
AcDbCircle
 10
3.147725966122788
 20
57.73919914680145
 30
0.0
 40
6.004945457893307
100
AcDbArc
 50
14.14675975361673
 51
43.76922486833183
  0
ARC
  5
153
330
1F
100
AcDbEntity
  8
DEFAULT
100
AcDbCircle
 10
9.294483347567692
 20
59.11254825557658
 30
0.0
 40
0.337371240916483
100
AcDbArc
 50
163.7690937181005
 51
12.17922169593487
  0
ENDSEC
  0
SECTION
  2
OBJECTS
  0
DICTIONARY
  5
C
330
0
100
AcDbDictionary
  3
ACAD_GROUP
350
D
  3
ACAD_LAYOUT
350
1A
  3
ACAD_MLEADERSTYLE
350
175
  3
ACAD_MLINESTYLE
350
17
  3
ACAD_PLOTSETTINGS
350
19
  3
ACAD_TABLESTYLE
350
174
  3
ACAD_VISUALSTYLE
350
2A
  3
ACDBHEADERROUNDTRIPXREC
350
154
  0
DICTIONARY
  5
D
102
{ACAD_REACTORS
330
C
102
}
330
C
100
AcDbDictionary
  0
DICTIONARY
  5
1A
102
{ACAD_REACTORS
330
C
102
}
330
C
100
AcDbDictionary
  0
DICTIONARY
  5
175
102
{ACAD_REACTORS
330
C
102
}
330
C
100
AcDbDictionary
  0
DICTIONARY
  5
17
102
{ACAD_REACTORS
330
C
102
}
330
C
100
AcDbDictionary
  3
STANDARD
350
18
  0
DICTIONARY
  5
19
102
{ACAD_REACTORS
330
C
102
}
330
C
100
AcDbDictionary
  0
DICTIONARY
  5
174
102
{ACAD_REACTORS
330
C
102
}
330
C
100
AcDbDictionary
  0
DICTIONARY
  5
2A
102
{ACAD_REACTORS
330
C
102
}
330
C
100
AcDbDictionary
  3
2DWIREFRAME
350
2F
  3
3D_HIDDEN
350
31
  3
3DWIREFRAME
350
30
  3
BASIC
350
32
  3
BRIGHTEN
350
36
  3
COLORCHANGE
350
3A
  3
CONCEPTUAL
350
34
  3
DIM
350
35
  3
FACEPATTERN
350
39
  3
FLAT
350
2B
  3
FLATWITHEDGES
350
2C
  3
GOURAUD
350
2D
  3
GOURAUDWITHEDGES
350
2E
  3
LINEPATTERN
350
38
  3
REALISTIC
350
33
  3
THICKEN
350
37
  0
DICTIONARY
  5
154
102
{ACAD_REACTORS
330
C
102
}
330
C
100
AcDbDictionary
  3
CEPSNTYPE
350
15D
  3
DIMSTYLEDATA
350
173
  3
FINGERPRINTGUID
350
15E
  3
HYPERLINKBASE
350
157
  3
INSUNITS
350
15C
  3
LAYOUTDICT
350
159
  3
LWETCUNION
350
15B
  3
PLOTSETDICT
350
15A
  3
PSVPSCALE
350
160
  3
PUCSBASE
350
163
  3
PUCSORGBACK
350
169
  3
PUCSORGBOTTOM
350
165
  3
PUCSORGFRONT
350
168
  3
PUCSORGLEFT
350
166
  3
PUCSORGRIGHT
350
167
  3
PUCSORGTOP
350
164
  3
PUCSORTHOREF
350
161
  3
PUCSORTHOVIEW
350
162
  3
STYLESHEET
350
158
  3
TSTACKALIGN
350
155
  3
TSTACKSIZE
350
156
  3
UCSBASE
350
16C
  3
UCSORGBACK
350
172
  3
UCSORGBOTTOM
350
16E
  3
UCSORGFRONT
350
171
  3
UCSORGLEFT
350
16F
  3
UCSORGRIGHT
350
170
  3
UCSORGTOP
350
16D
  3
UCSORTHOREF
350
16A
  3
UCSORTHOVIEW
350
16B
  3
VERSIONGUID
350
15F
  0
MLINESTYLE
  5
18
102
{ACAD_REACTORS
330
17
102
}
330
17
100
AcDbMlineStyle
  2
Standard
 70
     0
  3

 62
   256
 51
90.0
 52
90.0
 71
     2
 49
0.5
 62
   256
  6
BYLAYER
 49
-0.5
 62
   256
  6
BYLAYER
  0
VISUALSTYLE
  5
2F
102
{ACAD_REACTORS
330
2A
102
}
330
2A
100
AcDbVisualStyle
  2
2dWireframe
 70
     4
 71
     0
 72
     2
 73
     0
 90
        0
 40
-0.6
 41
-30.0
 62
     5
 63
     7
 74
     1
 91
        4
 64
     7
 65
   257
 75
     1
175
     1
 42
1.0
 92
        0
 66
   257
 43
1.0
 76
     1
 77
     6
 78
     2
 67
     7
 79
     5
170
     0
171
     0
290
     0
174
     0
 93
        1
 44
0.0
173
     0
291
     0
 45
0.0
1001
ACAD
1000
AcDbSavedByObjectVersion
1070
     0
  0
VISUALSTYLE
  5
31
102
{ACAD_REACTORS
330
2A
102
}
330
2A
100
AcDbVisualStyle
  2
3D Hidden
 70
     6
 71
     1
 72
     2
 73
     2
 90
        0
 40
-0.6
 41
-30.0
 62
     5
 63
     7
 74
     2
 91
        2
 64
     7
 65
   257
 75
     2
175
     1
 42
40.0
 92
        0
 66
   257
 43
1.0
 76
     1
 77
     6
 78
     2
 67
     7
 79
     3
170
     0
171
     0
290
     0
174
     0
 93
        1
 44
0.0
173
     0
291
     0
 45
0.0
1001
ACAD
1000
AcDbSavedByObjectVersion
1070
     0
  0
VISUALSTYLE
  5
30
102
{ACAD_REACTORS
330
2A
102
}
330
2A
100
AcDbVisualStyle
  2
3dWireframe
 70
     5
 71
     0
 72
     2
 73
     0
 90
        0
 40
-0.6
 41
-30.0
 62
     5
 63
     7
 74
     1
 91
        4
 64
     7
 65
   257
 75
     1
175
     1
 42
1.0
 92
        0
 66
   257
 43
1.0
 76
     1
 77
     6
 78
     2
 67
     7
 79
     5
170
     0
171
     0
290
     0
174
     0
 93
        1
 44
0.0
173
     0
291
     0
 45
0.0
1001
ACAD
1000
AcDbSavedByObjectVersion
1070
     0
  0
VISUALSTYLE
  5
32
102
{ACAD_REACTORS
330
2A
102
}
330
2A
100
AcDbVisualStyle
  2
Basic
 70
     7
 71
     1
 72
     0
 73
     1
 90
        0
 40
-0.6
 41
-30.0
 62
     5
 63
     7
 74
     0
 91
        4
 64
     7
 65
   257
 75
     1
175
     1
 42
1.0
 92
        8
 66
     7
 43
1.0
 76
     1
 77
     6
 78
     2
 67
     7
 79
     5
170
     0
171
     0
290
     0
174
     0
 93
        1
 44
0.0
173
     0
291
     1
 45
0.0
1001
ACAD
1000
AcDbSavedByObjectVersion
1070
     0
  0
VISUALSTYLE
  5
36
102
{ACAD_REACTORS
330
2A
102
}
330
2A
100
AcDbVisualStyle
  2
Brighten
 70
    12
 71
     2
 72
     2
 73
     0
 90
        0
 40
-0.6
 41
-30.0
 62
     5
 63
     7
 74
     1
 91
        4
 64
     7
 65
   257
 75
     1
175
     1
 42
1.0
 92
        8
 66
     7
 43
1.0
 76
     1
 77
     6
 78
     2
 67
     7
 79
     5
170
     0
171
     0
290
     0
174
     0
 93
        1
 44
50.0
173
     0
291
     1
 45
0.0
1001
ACAD
1000
AcDbSavedByObjectVersion
1070
     0
  0
VISUALSTYLE
  5
3A
102
{ACAD_REACTORS
330
2A
102
}
330
2A
100
AcDbVisualStyle
  2
ColorChange
 70
    16
 71
     2
 72
     2
 73
     3
 90
        0
 40
-0.6
 41
-30.0
 62
     5
 63
     8
 74
     1
 91
        4
 64
     7
 65
   257
 75
     1
175
     1
 42
1.0
 92
        8
 66
     8
 43
1.0
 76
     1
 77
     6
 78
     2
 67
     7
 79
     5
170
     0
171
     0
290
     0
174
     0
 93
        1
 44
0.0
173
     0
291
     1
 45
0.0
1001
ACAD
1000
AcDbSavedByObjectVersion
1070
     0
  0
VISUALSTYLE
  5
34
102
{ACAD_REACTORS
330
2A
102
}
330
2A
100
AcDbVisualStyle
  2
Conceptual
 70
     9
 71
     3
 72
     2
 73
     0
 90
        0
 40
-0.6
 41
-30.0
 62
     5
 63
     7
 74
     2
 91
        2
 64
     7
 65
   257
 75
     1
175
     1
 42
40.0
 92
        8
 66
     7
 43
1.0
 76
     1
 77
     6
 78
     2
 67
     7
 79
     3
170
     0
171
     0
290
     0
174
     0
 93
        1
 44
0.0
173
     0
291
     0
 45
0.0
1001
ACAD
1000
AcDbSavedByObjectVersion
1070
     0
  0
VISUALSTYLE
  5
35
102
{ACAD_REACTORS
330
2A
102
}
330
2A
100
AcDbVisualStyle
  2
Dim
 70
    11
 71
     2
 72
     2
 73
     0
 90
        0
 40
-0.6
 41
-30.0
 62
     5
 63
     7
 74
     1
 91
        4
 64
     7
 65
   257
 75
     1
175
     1
 42
1.0
 92
        8
 66
     7
 43
1.0
 76
     1
 77
     6
 78
     2
 67
     7
 79
     5
170
     0
171
     0
290
     0
174
     0
 93
        1
 44
-50.0
173
     0
291
     1
 45
0.0
1001
ACAD
1000
AcDbSavedByObjectVersion
1070
     0
  0
VISUALSTYLE
  5
39
102
{ACAD_REACTORS
330
2A
102
}
330
2A
100
AcDbVisualStyle
  2
Facepattern
 70
    15
 71
     2
 72
     2
 73
     0
 90
        0
 40
-0.6
 41
-30.0
 62
     5
 63
     7
 74
     1
 91
        4
 64
     7
 65
   257
 75
     1
175
     1
 42
1.0
 92
        8
 66
     7
 43
1.0
 76
     1
 77
     6
 78
     2
 67
     7
 79
     5
170
     0
171
     0
290
     0
174
     0
 93
        1
 44
0.0
173
     0
291
     1
 45
0.0
1001
ACAD
1000
AcDbSavedByObjectVersion
1070
     0
  0
VISUALSTYLE
  5
2B
102
{ACAD_REACTORS
330
2A
102
}
330
2A
100
AcDbVisualStyle
  2
Flat
 70
     0
 71
     2
 72
     1
 73
     1
 90
        2
 40
-0.6
 41
30.0
 62
     5
 63
     7
 74
     0
 91
        4
 64
     7
 65
   257
 75
     1
175
     1
 42
1.0
 92
        8
 66
     7
 43
1.0
 76
     1
 77
     6
 78
     2
 67
     7
 79
     5
170
     0
171
     0
290
     0
174
     0
 93
       13
 44
0.0
173
     0
291
     1
 45
0.0
1001
ACAD
1000
AcDbSavedByObjectVersion
1070
     0
  0
VISUALSTYLE
  5
2C
102
{ACAD_REACTORS
330
2A
102
}
330
2A
100
AcDbVisualStyle
  2
FlatWithEdges
 70
     1
 71
     2
 72
     1
 73
     1
 90
        2
 40
-0.6
 41
30.0
 62
     5
 63
     7
 74
     1
 91
        4
 64
     7
 65
   257
 75
     1
175
     1
 42
1.0
 92
        0
 66
   257
 43
1.0
 76
     1
 77
     6
 78
     2
 67
     7
 79
     5
170
     0
171
     0
290
     0
174
     0
 93
       13
 44
0.0
173
     0
291
     1
 45
0.0
1001
ACAD
1000
AcDbSavedByObjectVersion
1070
     0
  0
VISUALSTYLE
  5
2D
102
{ACAD_REACTORS
330
2A
102
}
330
2A
100
AcDbVisualStyle
  2
Gouraud
 70
     2
 71
     2
 72
     2
 73
     1
 90
        2
 40
-0.6
 41
30.0
 62
     5
 63
     7
 74
     0
 91
        4
 64
     7
 65
   257
 75
     1
175
     1
 42
1.0
 92
        0
 66
     7
 43
1.0
 76
     1
 77
     6
 78
     2
 67
     7
 79
     5
170
     0
171
     0
290
     0
174
     0
 93
       13
 44
0.0
173
     0
291
     1
 45
0.0
1001
ACAD
1000
AcDbSavedByObjectVersion
1070
     0
  0
VISUALSTYLE
  5
2E
102
{ACAD_REACTORS
330
2A
102
}
330
2A
100
AcDbVisualStyle
  2
GouraudWithEdges
 70
     3
 71
     2
 72
     2
 73
     1
 90
        2
 40
-0.6
 41
30.0
 62
     5
 63
     7
 74
     1
 91
        4
 64
     7
 65
   257
 75
     1
175
     1
 42
1.0
 92
        0
 66
   257
 43
1.0
 76
     1
 77
     6
 78
     2
 67
     7
 79
     5
170
     0
171
     0
290
     0
174
     0
 93
       13
 44
0.0
173
     0
291
     1
 45
0.0
1001
ACAD
1000
AcDbSavedByObjectVersion
1070
     0
  0
VISUALSTYLE
  5
38
102
{ACAD_REACTORS
330
2A
102
}
330
2A
100
AcDbVisualStyle
  2
Linepattern
 70
    14
 71
     2
 72
     2
 73
     0
 90
        0
 40
-0.6
 41
-30.0
 62
     5
 63
     7
 74
     1
 91
        4
 64
     7
 65
   257
 75
     7
175
     7
 42
1.0
 92
        8
 66
     7
 43
1.0
 76
     1
 77
     6
 78
     2
 67
     7
 79
     5
170
     0
171
     0
290
     0
174
     0
 93
        1
 44
0.0
173
     0
291
     1
 45
0.0
1001
ACAD
1000
AcDbSavedByObjectVersion
1070
     0
  0
VISUALSTYLE
  5
33
102
{ACAD_REACTORS
330
2A
102
}
330
2A
100
AcDbVisualStyle
  2
Realistic
 70
     8
 71
     2
 72
     2
 73
     0
 90
        0
 40
-0.6
 41
-30.0
 62
     5
 63
     7
 74
     1
 91
        0
 64
     7
 65
   257
 75
     1
175
     1
 42
1.0
 92
        8
 66
     8
 43
1.0
 76
     1
 77
     6
 78
     2
 67
     7
 79
     5
170
     0
171
     0
290
     0
174
     0
 93
       13
 44
0.0
173
     0
291
     0
 45
0.0
1001
ACAD
1000
AcDbSavedByObjectVersion
1070
     0
  0
VISUALSTYLE
  5
37
102
{ACAD_REACTORS
330
2A
102
}
330
2A
100
AcDbVisualStyle
  2
Thicken
 70
    13
 71
     2
 72
     2
 73
     0
 90
        0
 40
-0.6
 41
-30.0
 62
     5
 63
     7
 74
     1
 91
        4
 64
     7
 65
   257
 75
     1
175
     1
 42
1.0
 92
       12
 66
     7
 43
1.0
 76
     1
 77
     6
 78
     2
 67
     7
 79
     5
170
     0
171
     0
290
     0
174
     0
 93
        1
 44
0.0
173
     0
291
     1
 45
0.0
1001
ACAD
1000
AcDbSavedByObjectVersion
1070
     0
  0
XRECORD
  5
15D
102
{ACAD_REACTORS
330
154
102
}
330
154
100
AcDbXrecord
 90
        0
  0
XRECORD
  5
173
102
{ACAD_REACTORS
330
154
102
}
330
154
100
AcDbXrecord
1000
DSTYLE
1002
{
1070
   279
 70
     2
1070
   340
340
11
1002
}
  0
XRECORD
  5
15E
102
{ACAD_REACTORS
330
154
102
}
330
154
100
AcDbXrecord
  1
{DAEC2063-8014-4F7D-9941-7FEF6504C1CC}
  0
XRECORD
  5
157
102
{ACAD_REACTORS
330
154
102
}
330
154
100
AcDbXrecord
  1

  0
XRECORD
  5
15C
102
{ACAD_REACTORS
330
154
102
}
330
154
100
AcDbXrecord
 90
        1
  0
XRECORD
  5
159
102
{ACAD_REACTORS
330
154
102
}
330
154
100
AcDbXrecord
340
1A
  0
XRECORD
  5
15B
102
{ACAD_REACTORS
330
154
102
}
330
154
100
AcDbXrecord
 90
    10781
  0
XRECORD
  5
15A
102
{ACAD_REACTORS
330
154
102
}
330
154
100
AcDbXrecord
340
19
  0
XRECORD
  5
160
102
{ACAD_REACTORS
330
154
102
}
330
154
100
AcDbXrecord
 40
0.0
  0
XRECORD
  5
163
102
{ACAD_REACTORS
330
154
102
}
330
154
100
AcDbXrecord
340
0
  0
XRECORD
  5
169
102
{ACAD_REACTORS
330
154
102
}
330
154
100
AcDbXrecord
 10
0.0
 20
0.0
 30
0.0
  0
XRECORD
  5
165
102
{ACAD_REACTORS
330
154
102
}
330
154
100
AcDbXrecord
 10
0.0
 20
0.0
 30
0.0
  0
XRECORD
  5
168
102
{ACAD_REACTORS
330
154
102
}
330
154
100
AcDbXrecord
 10
0.0
 20
0.0
 30
0.0
  0
XRECORD
  5
166
102
{ACAD_REACTORS
330
154
102
}
330
154
100
AcDbXrecord
 10
0.0
 20
0.0
 30
0.0
  0
XRECORD
  5
167
102
{ACAD_REACTORS
330
154
102
}
330
154
100
AcDbXrecord
 10
0.0
 20
0.0
 30
0.0
  0
XRECORD
  5
164
102
{ACAD_REACTORS
330
154
102
}
330
154
100
AcDbXrecord
 10
0.0
 20
0.0
 30
0.0
  0
XRECORD
  5
161
102
{ACAD_REACTORS
330
154
102
}
330
154
100
AcDbXrecord
340
0
  0
XRECORD
  5
162
102
{ACAD_REACTORS
330
154
102
}
330
154
100
AcDbXrecord
 70
     0
  0
XRECORD
  5
158
102
{ACAD_REACTORS
330
154
102
}
330
154
100
AcDbXrecord
  1

  0
XRECORD
  5
155
102
{ACAD_REACTORS
330
154
102
}
330
154
100
AcDbXrecord
 90
        1
  0
XRECORD
  5
156
102
{ACAD_REACTORS
330
154
102
}
330
154
100
AcDbXrecord
 90
       70
  0
XRECORD
  5
16C
102
{ACAD_REACTORS
330
154
102
}
330
154
100
AcDbXrecord
340
0
  0
XRECORD
  5
172
102
{ACAD_REACTORS
330
154
102
}
330
154
100
AcDbXrecord
 10
0.0
 20
0.0
 30
0.0
  0
XRECORD
  5
16E
102
{ACAD_REACTORS
330
154
102
}
330
154
100
AcDbXrecord
 10
0.0
 20
0.0
 30
0.0
  0
XRECORD
  5
171
102
{ACAD_REACTORS
330
154
102
}
330
154
100
AcDbXrecord
 10
0.0
 20
0.0
 30
0.0
  0
XRECORD
  5
16F
102
{ACAD_REACTORS
330
154
102
}
330
154
100
AcDbXrecord
 10
0.0
 20
0.0
 30
0.0
  0
XRECORD
  5
170
102
{ACAD_REACTORS
330
154
102
}
330
154
100
AcDbXrecord
 10
0.0
 20
0.0
 30
0.0
  0
XRECORD
  5
16D
102
{ACAD_REACTORS
330
154
102
}
330
154
100
AcDbXrecord
 10
0.0
 20
0.0
 30
0.0
  0
XRECORD
  5
16A
102
{ACAD_REACTORS
330
154
102
}
330
154
100
AcDbXrecord
340
0
  0
XRECORD
  5
16B
102
{ACAD_REACTORS
330
154
102
}
330
154
100
AcDbXrecord
 70
     0
  0
XRECORD
  5
15F
102
{ACAD_REACTORS
330
154
102
}
330
154
100
AcDbXrecord
  1
{FAEB1C32-E019-11D5-929B-00C0DF256EC4}
  0
ENDSEC
  0
EOF
