  0
SECTION
  2
HEADER
  9
$ACADVER
  1
AC1014
  9
$ACADMAINTVER
 70
     9
  9
$DWGCODEPAGE
  3
ANSI_1252
  9
$INSBASE
 10
0.0
 20
0.0
 30
0.0
  9
$EXTMIN
 10
-11.56578654921906
 20
-0.0485672984093348
 30
0.0
  9
$EXTMAX
 10
43.87347083371091
 20
65.16023819586096
 30
0.0
  9
$LIMMIN
 10
0.0
 20
0.0
  9
$LIMMAX
 10
12.0
 20
9.0
  9
$ORTHOMODE
 70
     0
  9
$REGENMODE
 70
     1
  9
$FILLMODE
 70
     1
  9
$QTEXTMODE
 70
     0
  9
$MIRRTEXT
 70
     1
  9
$DRAGMODE
 70
     2
  9
$LTSCALE
 40
0.0393700787401575
  9
$OSMODE
 70
    37
  9
$ATTMODE
 70
     1
  9
$TEXTSIZE
 40
0.2
  9
$TRACEWID
 40
0.05
  9
$TEXTSTYLE
  7
STANDARD
  9
$CLAYER
  8
DEFAULT
  9
$CELTYPE
  6
BYLAYER
  9
$CECOLOR
 62
   256
  9
$CELTSCALE
 40
1.0
  9
$DELOBJ
 70
     1
  9
$DISPSILH
 70
     0
  9
$DIMSCALE
 40
1.0
  9
$DIMASZ
 40
0.18
  9
$DIMEXO
 40
0.0625
  9
$DIMDLI
 40
0.38
  9
$DIMRND
 40
0.0
  9
$DIMDLE
 40
0.0
  9
$DIMEXE
 40
0.18
  9
$DIMTP
 40
0.0
  9
$DIMTM
 40
0.0
  9
$DIMTXT
 40
0.18
  9
$DIMCEN
 40
0.09
  9
$DIMTSZ
 40
0.0
  9
$DIMTOL
 70
     0
  9
$DIMLIM
 70
     0
  9
$DIMTIH
 70
     1
  9
$DIMTOH
 70
     1
  9
$DIMSE1
 70
     0
  9
$DIMSE2
 70
     0
  9
$DIMTAD
 70
     0
  9
$DIMZIN
 70
     0
  9
$DIMBLK
  1

  9
$DIMASO
 70
     1
  9
$DIMSHO
 70
     1
  9
$DIMPOST
  1

  9
$DIMAPOST
  1

  9
$DIMALT
 70
     0
  9
$DIMALTD
 70
     2
  9
$DIMALTF
 40
25.4
  9
$DIMLFAC
 40
1.0
  9
$DIMTOFL
 70
     0
  9
$DIMTVP
 40
0.0
  9
$DIMTIX
 70
     0
  9
$DIMSOXD
 70
     0
  9
$DIMSAH
 70
     0
  9
$DIMBLK1
  1

  9
$DIMBLK2
  1

  9
$DIMSTYLE
  2
STANDARD
  9
$DIMCLRD
 70
     0
  9
$DIMCLRE
 70
     0
  9
$DIMCLRT
 70
     0
  9
$DIMTFAC
 40
1.0
  9
$DIMGAP
 40
0.09
  9
$DIMJUST
 70
     0
  9
$DIMSD1
 70
     0
  9
$DIMSD2
 70
     0
  9
$DIMTOLJ
 70
     1
  9
$DIMTZIN
 70
     0
  9
$DIMALTZ
 70
     0
  9
$DIMALTTZ
 70
     0
  9
$DIMFIT
 70
     5
  9
$DIMUPT
 70
     0
  9
$DIMUNIT
 70
     2
  9
$DIMDEC
 70
     4
  9
$DIMTDEC
 70
     4
  9
$DIMALTU
 70
     2
  9
$DIMALTTD
 70
     2
  9
$DIMTXSTY
  7
STANDARD
  9
$DIMAUNIT
 70
     0
  9
$LUNITS
 70
     2
  9
$LUPREC
 70
     3
  9
$SKETCHINC
 40
0.1
  9
$FILLETRAD
 40
0.5
  9
$AUNITS
 70
     0
  9
$AUPREC
 70
     0
  9
$MENU
  1
.
  9
$ELEVATION
 40
0.0
  9
$PELEVATION
 40
0.0
  9
$THICKNESS
 40
0.0
  9
$LIMCHECK
 70
     0
  9
$CHAMFERA
 40
0.5
  9
$CHAMFERB
 40
0.5
  9
$CHAMFERC
 40
1.0
  9
$CHAMFERD
 40
0.0
  9
$SKPOLY
 70
     0
  9
$TDCREATE
 40
2454817.630662581
  9
$TDUPDATE
 40
2454817.630662593
  9
$TDINDWG
 40
0.0000000116
  9
$TDUSRTIMER
 40
0.0000000116
  9
$USRTIMER
 70
     1
  9
$ANGBASE
 50
0.0
  9
$ANGDIR
 70
     0
  9
$PDMODE
 70
     0
  9
$PDSIZE
 40
0.0
  9
$PLINEWID
 40
0.0
  9
$COORDS
 70
     1
  9
$SPLFRAME
 70
     0
  9
$SPLINETYPE
 70
     6
  9
$SPLINESEGS
 70
     8
  9
$ATTDIA
 70
     0
  9
$ATTREQ
 70
     1
  9
$HANDLING
 70
     1
  9
$HANDSEED
  5
1DF
  9
$SURFTAB1
 70
     6
  9
$SURFTAB2
 70
     6
  9
$SURFTYPE
 70
     6
  9
$SURFU
 70
     6
  9
$SURFV
 70
     6
  9
$UCSNAME
  2

  9
$UCSORG
 10
0.0
 20
0.0
 30
0.0
  9
$UCSXDIR
 10
1.0
 20
0.0
 30
0.0
  9
$UCSYDIR
 10
0.0
 20
1.0
 30
0.0
  9
$PUCSNAME
  2

  9
$PUCSORG
 10
0.0
 20
0.0
 30
0.0
  9
$PUCSXDIR
 10
1.0
 20
0.0
 30
0.0
  9
$PUCSYDIR
 10
0.0
 20
1.0
 30
0.0
  9
$USERI1
 70
     0
  9
$USERI2
 70
     0
  9
$USERI3
 70
     0
  9
$USERI4
 70
     0
  9
$USERI5
 70
     0
  9
$USERR1
 40
0.0
  9
$USERR2
 40
0.0
  9
$USERR3
 40
0.0
  9
$USERR4
 40
0.0
  9
$USERR5
 40
0.0
  9
$WORLDVIEW
 70
     1
  9
$SHADEDGE
 70
     3
  9
$SHADEDIF
 70
    70
  9
$TILEMODE
 70
     1
  9
$MAXACTVP
 70
    64
  9
$PINSBASE
 10
0.0
 20
0.0
 30
0.0
  9
$PLIMCHECK
 70
     0
  9
$PEXTMIN
 10
1.000000000000000E+20
 20
1.000000000000000E+20
 30
1.000000000000000E+20
  9
$PEXTMAX
 10
-1.000000000000000E+20
 20
-1.000000000000000E+20
 30
-1.000000000000000E+20
  9
$PLIMMIN
 10
0.0
 20
0.0
  9
$PLIMMAX
 10
12.0
 20
9.0
  9
$UNITMODE
 70
     0
  9
$VISRETAIN
 70
     1
  9
$PLINEGEN
 70
     0
  9
$PSLTSCALE
 70
     1
  9
$TREEDEPTH
 70
  3020
  9
$PICKSTYLE
 70
     1
  9
$CMLSTYLE
  2
STANDARD
  9
$CMLJUST
 70
     0
  9
$CMLSCALE
 40
1.0
  9
$PROXYGRAPHICS
 70
     1
  9
$MEASUREMENT
 70
     0
  0
ENDSEC
  0
SECTION
  2
CLASSES
  0
CLASS
  1
ACDBDICTIONARYWDFLT
  2
AcDbDictionaryWithDefault
  3
ObjectDBX Classes
 90
        0
280
     0
281
     0
  0
CLASS
  1
VISUALSTYLE
  2
AcDbVisualStyle
  3
ObjectDBX Classes
 90
     4095
280
     0
281
     0
  0
CLASS
  1
XRECORD
  2
AcDbXrecord
  3
AutoCAD 2000
 90
        0
280
     0
281
     0
  0
CLASS
  1
LWPOLYLINE
  2
AcDbPolyline
  3
AutoCAD 2000
 90
        0
280
     0
281
     1
  0
CLASS
  1
HATCH
  2
AcDbHatch
  3
AutoCAD 2000
 90
        0
280
     0
281
     1
  0
CLASS
  1
ACDBPLACEHOLDER
  2
AcDbPlaceHolder
  3
ObjectDBX Classes
 90
        0
280
     0
281
     0
  0
CLASS
  1
LAYOUT
  2
AcDbLayout
  3
ObjectDBX Classes
 90
        0
280
     0
281
     0
  0
ENDSEC
  0
SECTION
  2
TABLES
  0
TABLE
  2
VPORT
  5
8
330
0
100
AcDbSymbolTable
 70
     1
  0
VPORT
  5
29
330
8
100
AcDbSymbolTableRecord
100
AcDbViewportTableRecord
  2
*ACTIVE
 70
     0
 10
0.0
 20
0.0
 11
1.0
 21
1.0
 12
0.0
 22
0.0
 13
0.0
 23
0.0
 14
0.5
 24
0.5
 15
0.5
 25
0.5
 16
0.0
 26
0.0
 36
1.0
 17
16.15384214224593
 27
32.55583544872581
 37
0.0
 40
66.5129816041557
 41
0.8501805386973582
 42
50.0
 43
0.0
 44
0.0
 50
0.0
 51
0.0
 71
     0
 72
   100
 73
     1
 74
     3
 75
     0
 76
     0
 77
     0
 78
     0
  0
ENDTAB
  0
TABLE
  2
LTYPE
  5
5
330
0
100
AcDbSymbolTable
 70
     1
  0
LTYPE
  5
14
330
5
100
AcDbSymbolTableRecord
100
AcDbLinetypeTableRecord
  2
BYBLOCK
 70
     0
  3

 72
    65
 73
     0
 40
0.0
  0
LTYPE
  5
15
330
5
100
AcDbSymbolTableRecord
100
AcDbLinetypeTableRecord
  2
BYLAYER
 70
     0
  3

 72
    65
 73
     0
 40
0.0
  0
LTYPE
  5
16
330
5
100
AcDbSymbolTableRecord
100
AcDbLinetypeTableRecord
  2
CONTINUOUS
 70
     0
  3
Solid line
 72
    65
 73
     0
 40
0.0
  0
ENDTAB
  0
TABLE
  2
LAYER
  5
2
330
0
100
AcDbSymbolTable
 70
     2
  0
LAYER
  5
10
330
2
100
AcDbSymbolTableRecord
100
AcDbLayerTableRecord
  2
0
 70
     0
 62
     7
  6
CONTINUOUS
  0
LAYER
  5
3B
330
2
100
AcDbSymbolTableRecord
100
AcDbLayerTableRecord
  2
DEFAULT
 70
     0
 62
     7
  6
CONTINUOUS
  0
ENDTAB
  0
TABLE
  2
STYLE
  5
3
330
0
100
AcDbSymbolTable
 70
     1
  0
STYLE
  5
11
330
3
100
AcDbSymbolTableRecord
100
AcDbTextStyleTableRecord
  2
STANDARD
 70
     0
 40
0.0
 41
1.0
 50
0.0
 71
     0
 42
0.2
  3
txt
  4

  0
ENDTAB
  0
TABLE
  2
VIEW
  5
6
330
0
100
AcDbSymbolTable
 70
     0
  0
ENDTAB
  0
TABLE
  2
UCS
  5
7
330
0
100
AcDbSymbolTable
 70
     0
  0
ENDTAB
  0
TABLE
  2
APPID
  5
9
330
0
100
AcDbSymbolTable
 70
     1
  0
APPID
  5
12
330
9
100
AcDbSymbolTableRecord
100
AcDbRegAppTableRecord
  2
ACAD
 70
     0
  0
ENDTAB
  0
TABLE
  2
DIMSTYLE
  5
A
330
0
100
AcDbSymbolTable
 70
     1
  0
DIMSTYLE
105
27
330
A
100
AcDbSymbolTableRecord
100
AcDbDimStyleTableRecord
  2
STANDARD
 70
     0
  3

  4

  5

  6

  7

 40
1.0
 41
0.18
 42
0.0625
 43
0.38
 44
0.18
 45
0.0
 46
0.0
 47
0.0
 48
0.0
140
0.18
141
0.09
142
0.0
143
25.4
144
1.0
145
0.0
146
1.0
147
0.09
 71
     0
 72
     0
 73
     1
 74
     1
 75
     0
 76
     0
 77
     0
 78
     0
170
     0
171
     2
172
     0
173
     0
174
     0
175
     0
176
     0
177
     0
178
     0
270
     2
271
     4
272
     4
273
     2
274
     2
340
11
275
     0
280
     0
281
     0
282
     0
283
     1
284
     0
285
     0
286
     0
287
     3
288
     0
  0
ENDTAB
  0
TABLE
  2
BLOCK_RECORD
  5
1
330
0
100
AcDbSymbolTable
 70
     1
  0
BLOCK_RECORD
  5
1F
330
1
100
AcDbSymbolTableRecord
100
AcDbBlockTableRecord
  2
*MODEL_SPACE
  0
BLOCK_RECORD
  5
1B
330
1
100
AcDbSymbolTableRecord
100
AcDbBlockTableRecord
  2
*PAPER_SPACE
  0
ENDTAB
  0
ENDSEC
  0
SECTION
  2
BLOCKS
  0
BLOCK
  5
20
330
1F
100
AcDbEntity
  8
0
100
AcDbBlockBegin
  2
*MODEL_SPACE
 70
     0
 10
0.0
 20
0.0
 30
0.0
  3
*MODEL_SPACE
  1

  0
ENDBLK
  5
21
330
1F
100
AcDbEntity
  8
0
100
AcDbBlockEnd
  0
BLOCK
  5
1C
330
1B
100
AcDbEntity
 67
     1
  8
0
100
AcDbBlockBegin
  2
*PAPER_SPACE
 70
     0
 10
0.0
 20
0.0
 30
0.0
  3
*PAPER_SPACE
  1

  0
ENDBLK
  5
1D
330
1B
100
AcDbEntity
 67
     1
  8
0
100
AcDbBlockEnd
  0
ENDSEC
  0
SECTION
  2
ENTITIES
  0
POLYLINE
  5
3C
330
1F
100
AcDbEntity
  8
DEFAULT
100
AcDb2dPolyline
 66
     1
 10
0.0
 20
0.0
 30
0.0
  0
VERTEX
  5
3D
330
3C
100
AcDbEntity
  8
DEFAULT
100
AcDbVertex
100
AcDb2dVertex
 10
-10.24926545078094
 20
0.6121838777122144
 30
0.0
  0
VERTEX
  5
3E
330
3C
100
AcDbEntity
  8
DEFAULT
100
AcDbVertex
100
AcDb2dVertex
 10
-10.81578654921906
 20
0.6121838777122144
 30
0.0
  0
VERTEX
  5
3F
330
3C
100
AcDbEntity
  8
DEFAULT
100
AcDbVertex
100
AcDb2dVertex
 10
-10.81578654921906
 20
2.016550701590667
 30
0.0
  0
VERTEX
  5
40
330
3C
100
AcDbEntity
  8
DEFAULT
100
AcDbVertex
100
AcDb2dVertex
 10
-10.24926545078094
 20
2.016550701590667
 30
0.0
  0
VERTEX
  5
41
330
3C
100
AcDbEntity
  8
DEFAULT
100
AcDbVertex
100
AcDb2dVertex
 10
-10.24926545078094
 20
0.6121838777122144
 30
0.0
  0
SEQEND
  5
42
330
3C
100
AcDbEntity
  8
DEFAULT
  0
LINE
  5
43
330
1F
100
AcDbEntity
  8
DEFAULT
100
AcDbLine
 10
23.86131259166065
 20
1.951432701590665
 30
0.0
 11
24.61131259166065
 21
1.951432701590665
 31
0.0
  0
ARC
  5
44
330
1F
100
AcDbEntity
  8
DEFAULT
100
AcDbCircle
 10
-9.878786549219056
 20
0.516550701590667
 30
0.0
 40
0.5
100
AcDbArc
 50
180.0
 51
222.1869302658521
  0
LINE
  5
45
330
1F
100
AcDbEntity
  8
DEFAULT
100
AcDbLine
 10
-10.37878654921906
 20
0.516550701590667
 30
0.0
 11
-10.37878654921906
 21
0.6121838777122139
 31
0.0
  0
LINE
  5
46
330
1F
100
AcDbEntity
  8
DEFAULT
100
AcDbLine
 10
-8.312265450780943
 20
0.516550701590667
 30
0.0
 11
-8.312265450780943
 21
1.516550701590667
 31
0.0
  0
ARC
  5
47
330
1F
100
AcDbEntity
  8
DEFAULT
100
AcDbCircle
 10
-8.812265450780943
 20
1.516550701590667
 30
0.0
 40
0.5
100
AcDbArc
 50
0.0
 51
90.0
  0
POLYLINE
  5
48
330
1F
100
AcDbEntity
  8
DEFAULT
100
AcDb2dPolyline
 66
     1
 10
0.0
 20
0.0
 30
0.0
  0
VERTEX
  5
49
330
48
100
AcDbEntity
  8
DEFAULT
100
AcDbVertex
100
AcDb2dVertex
 10
-8.812265450780943
 20
2.016550701590667
 30
0.0
  0
VERTEX
  5
4A
330
48
100
AcDbEntity
  8
DEFAULT
100
AcDbVertex
100
AcDb2dVertex
 10
-9.062265450780943
 20
2.016550701590667
 30
0.0
  0
VERTEX
  5
4B
330
48
100
AcDbEntity
  8
DEFAULT
100
AcDbVertex
100
AcDb2dVertex
 10
-9.062265450780943
 20
0.016550701590667
 30
0.0
  0
SEQEND
  5
4C
330
48
100
AcDbEntity
  8
DEFAULT
  0
LINE
  5
4D
330
1F
100
AcDbEntity
  8
DEFAULT
100
AcDbLine
 10
-9.062265450780943
 20
0.016550701590667
 30
0.0
 11
-8.812265450780936
 21
0.016550701590667
 31
0.0
  0
ARC
  5
4E
330
1F
100
AcDbEntity
  8
DEFAULT
100
AcDbCircle
 10
-8.812265450780943
 20
0.516550701590667
 30
0.0
 40
0.5
100
AcDbArc
 50
270.0000000000008
 51
0.0
  0
ARC
  5
4F
330
1F
100
AcDbEntity
  8
DEFAULT
100
AcDbCircle
 10
-9.99773962197288
 20
44.84839816887867
 30
0.0
 40
0.5
100
AcDbArc
 50
40.02211333086422
 51
90.0
  0
LINE
  5
50
330
1F
100
AcDbEntity
  8
DEFAULT
100
AcDbLine
 10
-9.99773962197288
 20
45.34839816887867
 30
0.0
 11
-10.157527
 21
45.34839816887867
 31
0.0
  0
LINE
  5
51
330
1F
100
AcDbEntity
  8
DEFAULT
100
AcDbLine
 10
-10.24773962197288
 20
43.47846675311055
 30
0.0
 11
-10.24773962197288
 21
43.34839816887867
 31
0.0
  0
LINE
  5
52
330
1F
100
AcDbEntity
  8
DEFAULT
100
AcDbLine
 10
-10.24773962197288
 20
43.34839816887867
 30
0.0
 11
-9.997739621972872
 21
43.34839816887867
 31
0.0
  0
ARC
  5
53
330
1F
100
AcDbEntity
  8
DEFAULT
100
AcDbCircle
 10
-9.99773962197288
 20
43.84839816887867
 30
0.0
 40
0.5
100
AcDbArc
 50
270.0000000000008
 51
0.0
  0
LINE
  5
54
330
1F
100
AcDbEntity
  8
DEFAULT
100
AcDbLine
 10
-9.49773962197288
 20
43.84839816887867
 30
0.0
 11
-9.49773962197288
 21
43.97424372744992
 31
0.0
  0
LINE
  5
55
330
1F
100
AcDbEntity
  8
DEFAULT
100
AcDbLine
 10
9.717474000000001
 20
62.79292763393612
 30
0.0
 11
9.877260635385836
 21
62.79292763393612
 31
0.0
  0
ARC
  5
56
330
1F
100
AcDbEntity
  8
DEFAULT
100
AcDbCircle
 10
9.877260635385829
 20
63.29292763393612
 30
0.0
 40
0.5
100
AcDbArc
 50
270.0000000000008
 51
0.0
  0
LINE
  5
57
330
1F
100
AcDbEntity
  8
DEFAULT
100
AcDbLine
 10
10.37726063538583
 20
63.29292763393612
 30
0.0
 11
10.37726063538583
 21
64.29292763393612
 31
0.0
  0
ARC
  5
58
330
1F
100
AcDbEntity
  8
DEFAULT
100
AcDbCircle
 10
9.877260635385829
 20
64.29292763393612
 30
0.0
 40
0.5
100
AcDbArc
 50
0.0
 51
90.0
  0
POLYLINE
  5
59
330
1F
100
AcDbEntity
  8
DEFAULT
100
AcDb2dPolyline
 66
     1
 10
0.0
 20
0.0
 30
0.0
  0
VERTEX
  5
5A
330
59
100
AcDbEntity
  8
DEFAULT
100
AcDbVertex
100
AcDb2dVertex
 10
9.877260635385829
 20
64.79292763393612
 30
0.0
  0
VERTEX
  5
5B
330
59
100
AcDbEntity
  8
DEFAULT
100
AcDbVertex
100
AcDb2dVertex
 10
9.627260635385829
 20
64.79292763393612
 30
0.0
  0
VERTEX
  5
5C
330
59
100
AcDbEntity
  8
DEFAULT
100
AcDbVertex
100
AcDb2dVertex
 10
9.627260635385829
 20
63.40277639646362
 30
0.0
  0
SEQEND
  5
5D
330
59
100
AcDbEntity
  8
DEFAULT
  0
LINE
  5
5E
330
1F
100
AcDbEntity
  8
DEFAULT
100
AcDbLine
 10
8.970527
 20
62.79292763393612
 30
0.0
 11
8.81073953694771
 21
62.79292763393612
 31
0.0
  0
ARC
  5
5F
330
1F
100
AcDbEntity
  8
DEFAULT
100
AcDbCircle
 10
8.810739536947716
 20
63.29292763393612
 30
0.0
 40
0.5
100
AcDbArc
 50
180.0
 51
269.9999999999992
  0
LINE
  5
60
330
1F
100
AcDbEntity
  8
DEFAULT
100
AcDbLine
 10
8.310739536947716
 20
63.29292763393612
 30
0.0
 11
8.310739536947716
 21
64.29292763393612
 31
0.0
  0
ARC
  5
61
330
1F
100
AcDbEntity
  8
DEFAULT
100
AcDbCircle
 10
8.810739536947716
 20
64.29292763393612
 30
0.0
 40
0.5
100
AcDbArc
 50
90.0
 51
180.0
  0
POLYLINE
  5
62
330
1F
100
AcDbEntity
  8
DEFAULT
100
AcDb2dPolyline
 66
     1
 10
0.0
 20
0.0
 30
0.0
  0
VERTEX
  5
63
330
62
100
AcDbEntity
  8
DEFAULT
100
AcDbVertex
100
AcDb2dVertex
 10
8.810739536947716
 20
64.79292763393612
 30
0.0
  0
VERTEX
  5
64
330
62
100
AcDbEntity
  8
DEFAULT
100
AcDbVertex
100
AcDb2dVertex
 10
9.060739536947716
 20
64.79292763393612
 30
0.0
  0
VERTEX
  5
65
330
62
100
AcDbEntity
  8
DEFAULT
100
AcDbVertex
100
AcDb2dVertex
 10
9.060739536947716
 20
63.40277639646321
 30
0.0
  0
SEQEND
  5
66
330
62
100
AcDbEntity
  8
DEFAULT
  0
POLYLINE
  5
67
330
1F
100
AcDbEntity
  8
DEFAULT
100
AcDb2dPolyline
 66
     1
 10
0.0
 20
0.0
 30
0.0
  0
VERTEX
  5
68
330
67
100
AcDbEntity
  8
DEFAULT
100
AcDbVertex
100
AcDb2dVertex
 10
9.627260635385827
 20
63.40277639646361
 30
0.0
  0
VERTEX
  5
69
330
67
100
AcDbEntity
  8
DEFAULT
100
AcDbVertex
100
AcDb2dVertex
 10
9.627260635385829
 20
64.79292763393612
 30
0.0
  0
VERTEX
  5
6A
330
67
100
AcDbEntity
  8
DEFAULT
100
AcDbVertex
100
AcDb2dVertex
 10
9.060739536947716
 20
64.79292763393612
 30
0.0
  0
VERTEX
  5
6B
330
67
100
AcDbEntity
  8
DEFAULT
100
AcDbVertex
100
AcDb2dVertex
 10
9.060739536947716
 20
63.40277639646321
 30
0.0
  0
SEQEND
  5
6C
330
67
100
AcDbEntity
  8
DEFAULT
  0
POLYLINE
  5
6D
330
1F
100
AcDbEntity
  8
DEFAULT
100
AcDb2dPolyline
 66
     1
 10
0.0
 20
0.0
 30
0.0
  0
VERTEX
  5
6E
330
6D
100
AcDbEntity
  8
DEFAULT
100
AcDbVertex
100
AcDb2dVertex
 10
10.24773962197288
 20
43.47846675311055
 30
0.0
  0
VERTEX
  5
6F
330
6D
100
AcDbEntity
  8
DEFAULT
100
AcDbVertex
100
AcDb2dVertex
 10
10.24773962197288
 20
43.34839816887867
 30
0.0
  0
VERTEX
  5
70
330
6D
100
AcDbEntity
  8
DEFAULT
100
AcDbVertex
100
AcDb2dVertex
 10
10.53100017119194
 20
43.34839816887867
 30
0.0
  0
SEQEND
  5
71
330
6D
100
AcDbEntity
  8
DEFAULT
  0
POLYLINE
  5
72
330
1F
100
AcDbEntity
  8
DEFAULT
100
AcDb2dPolyline
 66
     1
 10
0.0
 20
0.0
 30
0.0
  0
VERTEX
  5
73
330
72
100
AcDbEntity
  8
DEFAULT
100
AcDbVertex
100
AcDb2dVertex
 10
10.53100017119194
 20
43.34839816887867
 30
0.0
  0
VERTEX
  5
74
330
72
100
AcDbEntity
  8
DEFAULT
100
AcDbVertex
100
AcDb2dVertex
 10
10.81426072041099
 20
43.34839816887867
 30
0.0
  0
VERTEX
  5
75
330
72
100
AcDbEntity
  8
DEFAULT
100
AcDbVertex
100
AcDb2dVertex
 10
10.81426072041099
 20
43.4784669510052
 30
0.0
  0
SEQEND
  5
76
330
72
100
AcDbEntity
  8
DEFAULT
  0
LINE
  5
77
330
1F
100
AcDbEntity
  8
DEFAULT
100
AcDbLine
 10
10.81426072041099
 20
43.47846695100522
 30
0.0
 11
10.81426072041099
 21
43.34839816887867
 31
0.0
  0
LINE
  5
78
330
1F
100
AcDbEntity
  8
DEFAULT
100
AcDbLine
 10
10.81426072041099
 20
43.34839816887867
 30
0.0
 11
11.064260720411
 21
43.34839816887867
 31
0.0
  0
ARC
  5
79
330
1F
100
AcDbEntity
  8
DEFAULT
100
AcDbCircle
 10
11.06426072041099
 20
43.84839816887867
 30
0.0
 40
0.5
100
AcDbArc
 50
270.0000000000008
 51
0.0
  0
LINE
  5
7A
330
1F
100
AcDbEntity
  8
DEFAULT
100
AcDbLine
 10
11.56426072041099
 20
43.84839816887867
 30
0.0
 11
11.56426072041099
 21
44.84839816887867
 31
0.0
  0
ARC
  5
7B
330
1F
100
AcDbEntity
  8
DEFAULT
100
AcDbCircle
 10
11.06426072041099
 20
44.84839816887867
 30
0.0
 40
0.5
100
AcDbArc
 50
0.0
 51
90.0
  0
LINE
  5
7C
330
1F
100
AcDbEntity
  8
DEFAULT
100
AcDbLine
 10
11.06426072041099
 20
45.34839816887867
 30
0.0
 11
10.904474
 21
45.34839816887867
 31
0.0
  0
LINE
  5
7D
330
1F
100
AcDbEntity
  8
DEFAULT
100
AcDbLine
 10
10.24773962197288
 20
43.47846675311055
 30
0.0
 11
10.24773962197288
 21
43.34839816887867
 31
0.0
  0
LINE
  5
7E
330
1F
100
AcDbEntity
  8
DEFAULT
100
AcDbLine
 10
10.24773962197288
 20
43.34839816887867
 30
0.0
 11
9.997739621972872
 21
43.34839816887867
 31
0.0
  0
ARC
  5
7F
330
1F
100
AcDbEntity
  8
DEFAULT
100
AcDbCircle
 10
9.99773962197288
 20
43.84839816887867
 30
0.0
 40
0.5
100
AcDbArc
 50
180.0
 51
269.9999999999992
  0
LINE
  5
80
330
1F
100
AcDbEntity
  8
DEFAULT
100
AcDbLine
 10
9.49773962197288
 20
43.84839816887867
 30
0.0
 11
9.49773962197288
 21
43.97424372744992
 31
0.0
  0
ARC
  5
81
330
1F
100
AcDbEntity
  8
DEFAULT
100
AcDbCircle
 10
9.99773962197288
 20
44.84839816887867
 30
0.0
 40
0.5
100
AcDbArc
 50
90.0
 51
139.9778866691358
  0
LINE
  5
82
330
1F
100
AcDbEntity
  8
DEFAULT
100
AcDbLine
 10
9.99773962197288
 20
45.34839816887867
 30
0.0
 11
10.157527
 21
45.34839816887867
 31
0.0
  0
POLYLINE
  5
83
330
1F
100
AcDbEntity
  8
DEFAULT
100
AcDb2dPolyline
 66
     1
 10
0.0
 20
0.0
 30
0.0
  0
VERTEX
  5
84
330
83
100
AcDbEntity
  8
DEFAULT
100
AcDbVertex
100
AcDb2dVertex
 10
-9.628786549219056
 20
1.852326495086112
 30
0.0
  0
VERTEX
  5
85
330
83
100
AcDbEntity
  8
DEFAULT
100
AcDbVertex
100
AcDb2dVertex
 10
-9.628786549219056
 20
2.016550701590667
 30
0.0
  0
VERTEX
  5
86
330
83
100
AcDbEntity
  8
DEFAULT
100
AcDbVertex
100
AcDb2dVertex
 10
-9.062265450780943
 20
2.016550701590667
 30
0.0
  0
VERTEX
  5
87
330
83
100
AcDbEntity
  8
DEFAULT
100
AcDbVertex
100
AcDb2dVertex
 10
-9.062265450780943
 20
0.6121838777122144
 30
0.0
  0
VERTEX
  5
88
330
83
100
AcDbEntity
  8
DEFAULT
100
AcDbVertex
100
AcDb2dVertex
 10
-9.499265450780944
 20
0.6121838777122144
 30
0.0
  0
SEQEND
  5
89
330
83
100
AcDbEntity
  8
DEFAULT
  0
LINE
  5
8A
330
1F
100
AcDbEntity
  8
DEFAULT
100
AcDbLine
 10
-10.81426072041099
 20
43.47846695100522
 30
0.0
 11
-10.81426072041099
 21
43.34839816887867
 31
0.0
  0
LINE
  5
8B
330
1F
100
AcDbEntity
  8
DEFAULT
100
AcDbLine
 10
-10.81426072041099
 20
43.34839816887867
 30
0.0
 11
-11.064260720411
 21
43.34839816887867
 31
0.0
  0
ARC
  5
8C
330
1F
100
AcDbEntity
  8
DEFAULT
100
AcDbCircle
 10
-11.06426072041099
 20
43.84839816887867
 30
0.0
 40
0.5
100
AcDbArc
 50
180.0
 51
269.9999999999992
  0
LINE
  5
8D
330
1F
100
AcDbEntity
  8
DEFAULT
100
AcDbLine
 10
-11.56426072041099
 20
43.84839816887867
 30
0.0
 11
-11.56426072041099
 21
44.84839816887867
 31
0.0
  0
ARC
  5
8E
330
1F
100
AcDbEntity
  8
DEFAULT
100
AcDbCircle
 10
-11.06426072041099
 20
44.84839816887867
 30
0.0
 40
0.5
100
AcDbArc
 50
90.0
 51
180.0
  0
LINE
  5
8F
330
1F
100
AcDbEntity
  8
DEFAULT
100
AcDbLine
 10
-11.06426072041099
 20
45.34839816887867
 30
0.0
 11
-10.904474
 21
45.34839816887867
 31
0.0
  0
LINE
  5
90
330
1F
100
AcDbEntity
  8
DEFAULT
100
AcDbLine
 10
-9.499265450780944
 20
0.516550701590667
 30
0.0
 11
-9.499265450780944
 21
1.516550701590667
 31
0.0
  0
ARC
  5
91
330
1F
100
AcDbEntity
  8
DEFAULT
100
AcDbCircle
 10
-9.999265450780944
 20
1.516550701590667
 30
0.0
 40
0.5
100
AcDbArc
 50
0.0
 51
90.0
  0
POLYLINE
  5
92
330
1F
100
AcDbEntity
  8
DEFAULT
100
AcDb2dPolyline
 66
     1
 10
0.0
 20
0.0
 30
0.0
  0
VERTEX
  5
93
330
92
100
AcDbEntity
  8
DEFAULT
100
AcDbVertex
100
AcDb2dVertex
 10
-9.999265450780944
 20
2.016550701590667
 30
0.0
  0
VERTEX
  5
94
330
92
100
AcDbEntity
  8
DEFAULT
100
AcDbVertex
100
AcDb2dVertex
 10
-10.24926545078094
 20
2.016550701590667
 30
0.0
  0
VERTEX
  5
95
330
92
100
AcDbEntity
  8
DEFAULT
100
AcDbVertex
100
AcDb2dVertex
 10
-10.24926545078094
 20
0.016550701590667
 30
0.0
  0
SEQEND
  5
96
330
92
100
AcDbEntity
  8
DEFAULT
  0
LINE
  5
97
330
1F
100
AcDbEntity
  8
DEFAULT
100
AcDbLine
 10
-10.24926545078094
 20
0.016550701590667
 30
0.0
 11
-9.999265450780937
 21
0.016550701590667
 31
0.0
  0
ARC
  5
98
330
1F
100
AcDbEntity
  8
DEFAULT
100
AcDbCircle
 10
-9.999265450780944
 20
0.516550701590667
 30
0.0
 40
0.5
100
AcDbArc
 50
270.0000000000008
 51
0.0
  0
LINE
  5
99
330
1F
100
AcDbEntity
  8
DEFAULT
100
AcDbLine
 10
-11.56578654921906
 20
0.516550701590667
 30
0.0
 11
-11.56578654921906
 21
1.516550701590667
 31
0.0
  0
ARC
  5
9A
330
1F
100
AcDbEntity
  8
DEFAULT
100
AcDbCircle
 10
-11.06578654921906
 20
1.516550701590667
 30
0.0
 40
0.5
100
AcDbArc
 50
90.0
 51
180.0
  0
POLYLINE
  5
9B
330
1F
100
AcDbEntity
  8
DEFAULT
100
AcDb2dPolyline
 66
     1
 10
0.0
 20
0.0
 30
0.0
  0
VERTEX
  5
9C
330
9B
100
AcDbEntity
  8
DEFAULT
100
AcDbVertex
100
AcDb2dVertex
 10
-11.06578654921906
 20
2.016550701590667
 30
0.0
  0
VERTEX
  5
9D
330
9B
100
AcDbEntity
  8
DEFAULT
100
AcDbVertex
100
AcDb2dVertex
 10
-10.81578654921906
 20
2.016550701590667
 30
0.0
  0
VERTEX
  5
9E
330
9B
100
AcDbEntity
  8
DEFAULT
100
AcDbVertex
100
AcDb2dVertex
 10
-10.81578654921906
 20
0.016550701590667
 30
0.0
  0
SEQEND
  5
9F
330
9B
100
AcDbEntity
  8
DEFAULT
  0
LINE
  5
A0
330
1F
100
AcDbEntity
  8
DEFAULT
100
AcDbLine
 10
-10.81578654921906
 20
0.016550701590667
 30
0.0
 11
-11.06578654921906
 21
0.016550701590667
 31
0.0
  0
ARC
  5
A1
330
1F
100
AcDbEntity
  8
DEFAULT
100
AcDbCircle
 10
-11.06578654921906
 20
0.516550701590667
 30
0.0
 40
0.5
100
AcDbArc
 50
180.0
 51
269.9999999999992
  0
LINE
  5
A2
330
1F
100
AcDbEntity
  8
DEFAULT
100
AcDbLine
 10
23.86131259166065
 20
2.907998069641762
 30
0.0
 11
23.86131259166065
 21
1.951432701590665
 31
0.0
  0
LINE
  5
A3
330
1F
100
AcDbEntity
  8
DEFAULT
100
AcDbLine
 10
23.93727383379155
 20
3.776238998764034
 30
0.0
 11
26.43262635521957
 21
17.92808570159067
 31
0.0
  0
ARC
  5
A4
330
1F
100
AcDbEntity
  8
DEFAULT
100
AcDbCircle
 10
28.86131259166065
 20
2.907998069641762
 30
0.0
 40
5.0
100
AcDbArc
 50
169.999999525398
 51
180.0
  0
LINE
  5
A5
330
1F
100
AcDbEntity
  8
DEFAULT
100
AcDbLine
 10
9.628786549219056
 20
0.1807749080952199
 30
0.0
 11
9.628786549219056
 21
0.016550701590667
 31
0.0
  0
LINE
  5
A6
330
1F
100
AcDbEntity
  8
DEFAULT
100
AcDbLine
 10
9.628786549219056
 20
0.016550701590667
 30
0.0
 11
9.878786549219063
 21
0.016550701590667
 31
0.0
  0
ARC
  5
A7
330
1F
100
AcDbEntity
  8
DEFAULT
100
AcDbCircle
 10
9.878786549219056
 20
0.516550701590667
 30
0.0
 40
0.5
100
AcDbArc
 50
270.0000000000008
 51
276.9197421452103
  0
LINE
  5
A8
330
1F
100
AcDbEntity
  8
DEFAULT
100
AcDbLine
 10
11.56578654921906
 20
0.516550701590667
 30
0.0
 11
11.56578654921906
 21
1.516550701590667
 31
0.0
  0
ARC
  5
A9
330
1F
100
AcDbEntity
  8
DEFAULT
100
AcDbCircle
 10
11.06578654921906
 20
1.516550701590667
 30
0.0
 40
0.5
100
AcDbArc
 50
0.0
 51
90.0
  0
POLYLINE
  5
AA
330
1F
100
AcDbEntity
  8
DEFAULT
100
AcDb2dPolyline
 66
     1
 10
0.0
 20
0.0
 30
0.0
  0
VERTEX
  5
AB
330
AA
100
AcDbEntity
  8
DEFAULT
100
AcDbVertex
100
AcDb2dVertex
 10
11.06578654921906
 20
2.016550701590667
 30
0.0
  0
VERTEX
  5
AC
330
AA
100
AcDbEntity
  8
DEFAULT
100
AcDbVertex
100
AcDb2dVertex
 10
10.81578654921906
 20
2.016550701590667
 30
0.0
  0
VERTEX
  5
AD
330
AA
100
AcDbEntity
  8
DEFAULT
100
AcDbVertex
100
AcDb2dVertex
 10
10.81578654921906
 20
0.016550701590667
 30
0.0
  0
SEQEND
  5
AE
330
AA
100
AcDbEntity
  8
DEFAULT
  0
LINE
  5
AF
330
1F
100
AcDbEntity
  8
DEFAULT
100
AcDbLine
 10
10.81578654921906
 20
0.016550701590667
 30
0.0
 11
11.06578654921906
 21
0.016550701590667
 31
0.0
  0
ARC
  5
B0
330
1F
100
AcDbEntity
  8
DEFAULT
100
AcDbCircle
 10
11.06578654921906
 20
0.516550701590667
 30
0.0
 40
0.5
100
AcDbArc
 50
270.0000000000008
 51
0.0
  0
LINE
  5
B1
330
1F
100
AcDbEntity
  8
DEFAULT
100
AcDbLine
 10
9.499265450780944
 20
0.516550701590667
 30
0.0
 11
9.499265450780944
 21
1.516550701590667
 31
0.0
  0
ARC
  5
B2
330
1F
100
AcDbEntity
  8
DEFAULT
100
AcDbCircle
 10
9.999265450780944
 20
1.516550701590667
 30
0.0
 40
0.5
100
AcDbArc
 50
90.0
 51
180.0
  0
POLYLINE
  5
B3
330
1F
100
AcDbEntity
  8
DEFAULT
100
AcDb2dPolyline
 66
     1
 10
0.0
 20
0.0
 30
0.0
  0
VERTEX
  5
B4
330
B3
100
AcDbEntity
  8
DEFAULT
100
AcDbVertex
100
AcDb2dVertex
 10
9.999265450780944
 20
2.016550701590667
 30
0.0
  0
VERTEX
  5
B5
330
B3
100
AcDbEntity
  8
DEFAULT
100
AcDbVertex
100
AcDb2dVertex
 10
10.24926545078094
 20
2.016550701590667
 30
0.0
  0
VERTEX
  5
B6
330
B3
100
AcDbEntity
  8
DEFAULT
100
AcDbVertex
100
AcDb2dVertex
 10
10.24926545078094
 20
0.016550701590667
 30
0.0
  0
SEQEND
  5
B7
330
B3
100
AcDbEntity
  8
DEFAULT
  0
LINE
  5
B8
330
1F
100
AcDbEntity
  8
DEFAULT
100
AcDbLine
 10
10.24926545078094
 20
0.016550701590667
 30
0.0
 11
9.999265450780937
 21
0.016550701590667
 31
0.0
  0
ARC
  5
B9
330
1F
100
AcDbEntity
  8
DEFAULT
100
AcDbCircle
 10
9.999265450780944
 20
0.516550701590667
 30
0.0
 40
0.5
100
AcDbArc
 50
180.0
 51
269.9999999999992
  0
POLYLINE
  5
BA
330
1F
100
AcDbEntity
  8
DEFAULT
100
AcDb2dPolyline
 66
     1
 10
0.0
 20
0.0
 30
0.0
  0
VERTEX
  5
BB
330
BA
100
AcDbEntity
  8
DEFAULT
100
AcDbVertex
100
AcDb2dVertex
 10
9.628786549219056
 20
1.852326495086112
 30
0.0
  0
VERTEX
  5
BC
330
BA
100
AcDbEntity
  8
DEFAULT
100
AcDbVertex
100
AcDb2dVertex
 10
9.628786549219056
 20
2.016550701590667
 30
0.0
  0
VERTEX
  5
BD
330
BA
100
AcDbEntity
  8
DEFAULT
100
AcDbVertex
100
AcDb2dVertex
 10
9.062265450780943
 20
2.016550701590667
 30
0.0
  0
VERTEX
  5
BE
330
BA
100
AcDbEntity
  8
DEFAULT
100
AcDbVertex
100
AcDb2dVertex
 10
9.062265450780943
 20
0.6121838777122144
 30
0.0
  0
VERTEX
  5
BF
330
BA
100
AcDbEntity
  8
DEFAULT
100
AcDbVertex
100
AcDb2dVertex
 10
9.499265450780944
 20
0.6121838777122144
 30
0.0
  0
SEQEND
  5
C0
330
BA
100
AcDbEntity
  8
DEFAULT
  0
LINE
  5
C1
330
1F
100
AcDbEntity
  8
DEFAULT
100
AcDbLine
 10
8.312265450780943
 20
0.516550701590667
 30
0.0
 11
8.312265450780943
 21
1.516550701590667
 31
0.0
  0
ARC
  5
C2
330
1F
100
AcDbEntity
  8
DEFAULT
100
AcDbCircle
 10
8.812265450780943
 20
1.516550701590667
 30
0.0
 40
0.5
100
AcDbArc
 50
90.0
 51
180.0
  0
POLYLINE
  5
C3
330
1F
100
AcDbEntity
  8
DEFAULT
100
AcDb2dPolyline
 66
     1
 10
0.0
 20
0.0
 30
0.0
  0
VERTEX
  5
C4
330
C3
100
AcDbEntity
  8
DEFAULT
100
AcDbVertex
100
AcDb2dVertex
 10
8.812265450780943
 20
2.016550701590667
 30
0.0
  0
VERTEX
  5
C5
330
C3
100
AcDbEntity
  8
DEFAULT
100
AcDbVertex
100
AcDb2dVertex
 10
9.062265450780943
 20
2.016550701590667
 30
0.0
  0
VERTEX
  5
C6
330
C3
100
AcDbEntity
  8
DEFAULT
100
AcDbVertex
100
AcDb2dVertex
 10
9.062265450780943
 20
0.016550701590667
 30
0.0
  0
SEQEND
  5
C7
330
C3
100
AcDbEntity
  8
DEFAULT
  0
LINE
  5
C8
330
1F
100
AcDbEntity
  8
DEFAULT
100
AcDbLine
 10
9.062265450780943
 20
0.016550701590667
 30
0.0
 11
8.812265450780936
 21
0.016550701590667
 31
0.0
  0
ARC
  5
C9
330
1F
100
AcDbEntity
  8
DEFAULT
100
AcDbCircle
 10
8.812265450780943
 20
0.516550701590667
 30
0.0
 40
0.5
100
AcDbArc
 50
180.0
 51
269.9999999999992
  0
ARC
  5
CA
330
1F
100
AcDbEntity
  8
DEFAULT
100
AcDbCircle
 10
9.878786549219056
 20
0.516550701590667
 30
0.0
 40
0.5
100
AcDbArc
 50
317.8130697341478
 51
0.0
  0
LINE
  5
CB
330
1F
100
AcDbEntity
  8
DEFAULT
100
AcDbLine
 10
10.37878654921906
 20
0.516550701590667
 30
0.0
 11
10.37878654921906
 21
0.6121838777122139
 31
0.0
  0
POLYLINE
  5
CC
330
1F
100
AcDbEntity
  8
DEFAULT
100
AcDb2dPolyline
 66
     1
 10
0.0
 20
0.0
 30
0.0
  0
VERTEX
  5
CD
330
CC
100
AcDbEntity
  8
DEFAULT
100
AcDbVertex
100
AcDb2dVertex
 10
10.24926545078094
 20
0.6121838777122144
 30
0.0
  0
VERTEX
  5
CE
330
CC
100
AcDbEntity
  8
DEFAULT
100
AcDbVertex
100
AcDb2dVertex
 10
10.81578654921906
 20
0.6121838777122144
 30
0.0
  0
VERTEX
  5
CF
330
CC
100
AcDbEntity
  8
DEFAULT
100
AcDbVertex
100
AcDb2dVertex
 10
10.81578654921906
 20
2.016550701590667
 30
0.0
  0
VERTEX
  5
D0
330
CC
100
AcDbEntity
  8
DEFAULT
100
AcDbVertex
100
AcDb2dVertex
 10
10.24926545078094
 20
2.016550701590667
 30
0.0
  0
VERTEX
  5
D1
330
CC
100
AcDbEntity
  8
DEFAULT
100
AcDbVertex
100
AcDb2dVertex
 10
10.24926545078094
 20
0.6121838777122144
 30
0.0
  0
SEQEND
  5
D2
330
CC
100
AcDbEntity
  8
DEFAULT
  0
POLYLINE
  5
D3
330
1F
100
AcDbEntity
  8
DEFAULT
100
AcDb2dPolyline
 66
     1
 10
0.0
 20
0.0
 30
0.0
  0
VERTEX
  5
D4
330
D3
100
AcDbEntity
  8
DEFAULT
100
AcDbVertex
100
AcDb2dVertex
 10
-10.53100017119194
 20
43.34839816887867
 30
0.0
  0
VERTEX
  5
D5
330
D3
100
AcDbEntity
  8
DEFAULT
100
AcDbVertex
100
AcDb2dVertex
 10
-10.81426072041099
 20
43.34839816887867
 30
0.0
  0
VERTEX
  5
D6
330
D3
100
AcDbEntity
  8
DEFAULT
100
AcDbVertex
100
AcDb2dVertex
 10
-10.81426072041099
 20
43.4784669510052
 30
0.0
  0
SEQEND
  5
D7
330
D3
100
AcDbEntity
  8
DEFAULT
  0
POLYLINE
  5
D8
330
1F
100
AcDbEntity
  8
DEFAULT
100
AcDb2dPolyline
 66
     1
 10
0.0
 20
0.0
 30
0.0
  0
VERTEX
  5
D9
330
D8
100
AcDbEntity
  8
DEFAULT
100
AcDbVertex
100
AcDb2dVertex
 10
-10.24773962197288
 20
43.47846675311055
 30
0.0
  0
VERTEX
  5
DA
330
D8
100
AcDbEntity
  8
DEFAULT
100
AcDbVertex
100
AcDb2dVertex
 10
-10.24773962197288
 20
43.34839816887867
 30
0.0
  0
VERTEX
  5
DB
330
D8
100
AcDbEntity
  8
DEFAULT
100
AcDbVertex
100
AcDb2dVertex
 10
-10.53100017119194
 20
43.34839816887867
 30
0.0
  0
SEQEND
  5
DC
330
D8
100
AcDbEntity
  8
DEFAULT
  0
ARC
  5
DD
330
1F
100
AcDbEntity
  8
DEFAULT
100
AcDbCircle
 10
-9.878786549219056
 20
1.516550701590667
 30
0.0
 40
0.5
100
AcDbArc
 50
90.0
 51
96.91974214521034
  0
POLYLINE
  5
DE
330
1F
100
AcDbEntity
  8
DEFAULT
100
AcDb2dPolyline
 66
     1
 10
0.0
 20
0.0
 30
0.0
  0
VERTEX
  5
DF
330
DE
100
AcDbEntity
  8
DEFAULT
100
AcDbVertex
100
AcDb2dVertex
 10
-9.878786549219056
 20
2.016550701590667
 30
0.0
  0
VERTEX
  5
E0
330
DE
100
AcDbEntity
  8
DEFAULT
100
AcDbVertex
100
AcDb2dVertex
 10
-9.628786549219056
 20
2.016550701590667
 30
0.0
  0
VERTEX
  5
E1
330
DE
100
AcDbEntity
  8
DEFAULT
100
AcDbVertex
100
AcDb2dVertex
 10
-9.628786549219056
 20
1.852326495086112
 30
0.0
  0
SEQEND
  5
E2
330
DE
100
AcDbEntity
  8
DEFAULT
  0
CIRCLE
  5
E3
330
1F
100
AcDbEntity
  8
DEFAULT
100
AcDbCircle
 10
23.61131259166065
 20
0.9514327015906652
 30
0.0
 40
1.0
  0
LINE
  5
E4
330
1F
100
AcDbEntity
  8
DEFAULT
100
AcDbLine
 10
-9.628786549219056
 20
0.1807749080952199
 30
0.0
 11
-9.628786549219056
 21
0.016550701590667
 31
0.0
  0
LINE
  5
E5
330
1F
100
AcDbEntity
  8
DEFAULT
100
AcDbLine
 10
-9.628786549219056
 20
0.016550701590667
 30
0.0
 11
-9.878786549219063
 21
0.016550701590667
 31
0.0
  0
ARC
  5
E6
330
1F
100
AcDbEntity
  8
DEFAULT
100
AcDbCircle
 10
-9.878786549219056
 20
0.516550701590667
 30
0.0
 40
0.5
100
AcDbArc
 50
263.0802578547896
 51
269.9999999999992
  0
POLYLINE
  5
E7
330
1F
100
AcDbEntity
  8
DEFAULT
100
AcDb2dPolyline
 66
     1
 10
0.0
 20
0.0
 30
0.0
  0
VERTEX
  5
E8
330
E7
100
AcDbEntity
  8
DEFAULT
100
AcDbVertex
100
AcDb2dVertex
 10
24.61131259166065
 20
0.9514327015906652
 30
0.0
  0
VERTEX
  5
E9
330
E7
100
AcDbEntity
  8
DEFAULT
100
AcDbVertex
100
AcDb2dVertex
 10
24.61131259166065
 20
1.951432701590665
 30
0.0
  0
VERTEX
  5
EA
330
E7
100
AcDbEntity
  8
DEFAULT
100
AcDbVertex
100
AcDb2dVertex
 10
23.61131259165973
 20
1.951432701590665
 30
0.0
  0
SEQEND
  5
EB
330
E7
100
AcDbEntity
  8
DEFAULT
  0
LINE
  5
EC
330
1F
100
AcDbEntity
  8
DEFAULT
100
AcDbLine
 10
24.61131259166065
 20
1.951432701590665
 30
0.0
 11
24.61131259166065
 21
2.842380708903689
 31
0.0
  0
LINE
  5
ED
330
1F
100
AcDbEntity
  8
DEFAULT
100
AcDbLine
 10
27.31824735521957
 20
18.63161370159067
 30
0.0
 11
24.68727382895207
 21
3.710621610579786
 31
0.0
  0
ARC
  5
EE
330
1F
100
AcDbEntity
  8
DEFAULT
100
AcDbCircle
 10
29.61131259166065
 20
2.842380708903689
 30
0.0
 40
5.0
100
AcDbArc
 50
169.9999998447598
 51
180.0
  0
POLYLINE
  5
EF
330
1F
100
AcDbEntity
  8
DEFAULT
100
AcDb2dPolyline
 66
     1
 10
0.0
 20
0.0
 30
0.0
  0
VERTEX
  5
F0
330
EF
100
AcDbEntity
  8
DEFAULT
100
AcDbVertex
100
AcDb2dVertex
 10
43.87210036562685
 20
1.037547169674726
 30
0.0
  0
VERTEX
  5
F1
330
EF
100
AcDbEntity
  8
DEFAULT
100
AcDbVertex
100
AcDb2dVertex
 10
43.81976435521957
 20
2.036176701590666
 30
0.0
  0
VERTEX
  5
F2
330
EF
100
AcDbEntity
  8
DEFAULT
100
AcDbVertex
100
AcDb2dVertex
 10
42.82113482330271
 20
1.983840691183334
 30
0.0
  0
SEQEND
  5
F3
330
EF
100
AcDbEntity
  8
DEFAULT
  0
CIRCLE
  5
F4
330
1F
100
AcDbEntity
  8
DEFAULT
100
AcDbCircle
 10
42.87347083371091
 20
0.9852111592674423
 30
0.0
 40
1.0
  0
POLYLINE
  5
F5
330
1F
100
AcDbEntity
  8
DEFAULT
100
AcDb2dPolyline
 66
     1
 10
0.0
 20
0.0
 30
0.0
  0
VERTEX
  5
F6
330
F5
100
AcDbEntity
  8
DEFAULT
100
AcDbVertex
100
AcDb2dVertex
 10
-9.627260635385827
 20
63.40277639646361
 30
0.0
  0
VERTEX
  5
F7
330
F5
100
AcDbEntity
  8
DEFAULT
100
AcDbVertex
100
AcDb2dVertex
 10
-9.627260635385829
 20
64.79292763393612
 30
0.0
  0
VERTEX
  5
F8
330
F5
100
AcDbEntity
  8
DEFAULT
100
AcDbVertex
100
AcDb2dVertex
 10
-9.060739536947716
 20
64.79292763393612
 30
0.0
  0
VERTEX
  5
F9
330
F5
100
AcDbEntity
  8
DEFAULT
100
AcDbVertex
100
AcDb2dVertex
 10
-9.060739536947716
 20
63.40277639646321
 30
0.0
  0
SEQEND
  5
FA
330
F5
100
AcDbEntity
  8
DEFAULT
  0
LINE
  5
FB
330
1F
100
AcDbEntity
  8
DEFAULT
100
AcDbLine
 10
-8.970527
 20
62.79292763393612
 30
0.0
 11
-8.81073953694771
 21
62.79292763393612
 31
0.0
  0
ARC
  5
FC
330
1F
100
AcDbEntity
  8
DEFAULT
100
AcDbCircle
 10
-8.810739536947716
 20
63.29292763393612
 30
0.0
 40
0.5
100
AcDbArc
 50
270.0000000000008
 51
0.0
  0
LINE
  5
FD
330
1F
100
AcDbEntity
  8
DEFAULT
100
AcDbLine
 10
-8.310739536947716
 20
63.29292763393612
 30
0.0
 11
-8.310739536947716
 21
64.29292763393612
 31
0.0
  0
ARC
  5
FE
330
1F
100
AcDbEntity
  8
DEFAULT
100
AcDbCircle
 10
-8.810739536947716
 20
64.29292763393612
 30
0.0
 40
0.5
100
AcDbArc
 50
0.0
 51
90.0
  0
POLYLINE
  5
FF
330
1F
100
AcDbEntity
  8
DEFAULT
100
AcDb2dPolyline
 66
     1
 10
0.0
 20
0.0
 30
0.0
  0
VERTEX
  5
100
330
FF
100
AcDbEntity
  8
DEFAULT
100
AcDbVertex
100
AcDb2dVertex
 10
-8.810739536947716
 20
64.79292763393612
 30
0.0
  0
VERTEX
  5
101
330
FF
100
AcDbEntity
  8
DEFAULT
100
AcDbVertex
100
AcDb2dVertex
 10
-9.060739536947716
 20
64.79292763393612
 30
0.0
  0
VERTEX
  5
102
330
FF
100
AcDbEntity
  8
DEFAULT
100
AcDbVertex
100
AcDb2dVertex
 10
-9.060739536947716
 20
63.40277639646321
 30
0.0
  0
SEQEND
  5
103
330
FF
100
AcDbEntity
  8
DEFAULT
  0
LINE
  5
104
330
1F
100
AcDbEntity
  8
DEFAULT
100
AcDbLine
 10
-9.717474000000001
 20
62.79292763393612
 30
0.0
 11
-9.877260635385836
 21
62.79292763393612
 31
0.0
  0
ARC
  5
105
330
1F
100
AcDbEntity
  8
DEFAULT
100
AcDbCircle
 10
-9.877260635385829
 20
63.29292763393612
 30
0.0
 40
0.5
100
AcDbArc
 50
180.0
 51
269.9999999999992
  0
LINE
  5
106
330
1F
100
AcDbEntity
  8
DEFAULT
100
AcDbLine
 10
-10.37726063538583
 20
63.29292763393612
 30
0.0
 11
-10.37726063538583
 21
64.29292763393612
 31
0.0
  0
ARC
  5
107
330
1F
100
AcDbEntity
  8
DEFAULT
100
AcDbCircle
 10
-9.877260635385829
 20
64.29292763393612
 30
0.0
 40
0.5
100
AcDbArc
 50
90.0
 51
180.0
  0
POLYLINE
  5
108
330
1F
100
AcDbEntity
  8
DEFAULT
100
AcDb2dPolyline
 66
     1
 10
0.0
 20
0.0
 30
0.0
  0
VERTEX
  5
109
330
108
100
AcDbEntity
  8
DEFAULT
100
AcDbVertex
100
AcDb2dVertex
 10
-9.877260635385829
 20
64.79292763393612
 30
0.0
  0
VERTEX
  5
10A
330
108
100
AcDbEntity
  8
DEFAULT
100
AcDbVertex
100
AcDb2dVertex
 10
-9.627260635385829
 20
64.79292763393612
 30
0.0
  0
VERTEX
  5
10B
330
108
100
AcDbEntity
  8
DEFAULT
100
AcDbVertex
100
AcDb2dVertex
 10
-9.627260635385829
 20
63.40277639646362
 30
0.0
  0
SEQEND
  5
10C
330
108
100
AcDbEntity
  8
DEFAULT
  0
ARC
  5
10D
330
1F
100
AcDbEntity
  8
DEFAULT
100
AcDbCircle
 10
10.5739143456001
 20
44.5924928023356
 30
0.0
 40
0.4164956701464372
100
AcDbArc
 50
180.9737633663647
 51
264.0793351525076
  0
LINE
  5
10E
330
1F
100
AcDbEntity
  8
DEFAULT
100
AcDbLine
 10
10.49776119411604
 20
44.17693545421071
 30
0.0
 11
9.553139651443612
 21
44.17693545421071
 31
0.0
  0
LINE
  5
10F
330
1F
100
AcDbEntity
  8
DEFAULT
100
AcDbLine
 10
-9.931000000000001
 20
48.2563734542107
 30
0.0
 11
-9.931000000000001
 21
57.5691494542107
 31
0.0
  0
ARC
  5
110
330
1F
100
AcDbEntity
  8
DEFAULT
100
AcDbCircle
 10
-9.991047972524605
 20
57.56364466753487
 30
0.0
 40
0.0602997651791616
100
AcDbArc
 50
5.237844328539053
 51
58.69656146525305
  0
LINE
  5
111
330
1F
100
AcDbEntity
  8
DEFAULT
100
AcDbLine
 10
26.19165635521957
 20
16.56148770159067
 30
0.0
 11
26.18961635521957
 21
16.55967670159067
 31
0.0
  0
ARC
  5
112
330
1F
100
AcDbEntity
  8
DEFAULT
100
AcDbCircle
 10
-10.53100008616685
 20
43.72187162426071
 30
0.0
 40
0.37347345538205
100
AcDbArc
 50
180.0
 51
359.9999739120492
  0
LINE
  5
113
330
1F
100
AcDbEntity
  8
DEFAULT
100
AcDbLine
 10
-9.949371000000003
 20
48.16322245421071
 30
0.0
 11
-9.931000000000001
 21
48.2563734542107
 31
0.0
  0
ARC
  5
114
330
1F
100
AcDbEntity
  8
DEFAULT
100
AcDbCircle
 10
-0.0000119514709898
 20
52.70561151787366
 30
0.0
 40
12.4546266779873
100
AcDbArc
 50
51.00853242770145
 51
128.9914675722982
  0
ARC
  5
115
330
1F
100
AcDbEntity
  8
DEFAULT
100
AcDbCircle
 10
3.130239334103939
 20
57.76464284985366
 30
0.0
 40
6.595781884831924
100
AcDbArc
 50
13.11341444064246
 51
44.47752146815609
  0
LINE
  5
116
330
1F
100
AcDbEntity
  8
DEFAULT
100
AcDbLine
 10
28.10985235521957
 20
27.73592370159067
 30
0.0
 11
28.10686535521957
 21
27.73734070159067
 31
0.0
  0
LINE
  5
117
330
1F
100
AcDbEntity
  8
DEFAULT
100
AcDbLine
 10
9.624309
 20
24.23584070159067
 30
0.0
 11
9.521999999999998
 21
27.68916770159067
 31
0.0
  0
LINE
  5
118
330
1F
100
AcDbEntity
  8
DEFAULT
100
AcDbLine
 10
9.317381999999998
 20
30.30598470159067
 30
0.0
 11
9.019331999999999
 21
33.30507970159067
 31
0.0
  0
LINE
  5
119
330
1F
100
AcDbEntity
  8
DEFAULT
100
AcDbLine
 10
8.166615
 20
34.33022570159066
 30
0.0
 11
7.650527
 21
34.31186070159066
 31
0.0
  0
LINE
  5
11A
330
1F
100
AcDbEntity
  8
DEFAULT
100
AcDbLine
 10
-9.624309
 20
24.23584070159067
 30
0.0
 11
-9.521999999999998
 21
27.68916770159067
 31
0.0
  0
LINE
  5
11B
330
1F
100
AcDbEntity
  8
DEFAULT
100
AcDbLine
 10
-9.317381999999998
 20
30.30598470159067
 30
0.0
 11
-9.019331999999999
 21
33.30507970159067
 31
0.0
  0
LINE
  5
11C
330
1F
100
AcDbEntity
  8
DEFAULT
100
AcDbLine
 10
-8.166615
 20
34.33022570159066
 30
0.0
 11
-7.650527
 21
34.31186070159066
 31
0.0
  0
LINE
  5
11D
330
1F
100
AcDbEntity
  8
DEFAULT
100
AcDbLine
 10
9.624309
 20
19.32326827163865
 30
0.0
 11
9.624309
 21
24.23584070159067
 31
0.0
  0
LINE
  5
11E
330
1F
100
AcDbEntity
  8
DEFAULT
100
AcDbLine
 10
9.521999999999998
 20
27.68916770159067
 30
0.0
 11
9.317381999999998
 21
30.30598470159067
 31
0.0
  0
ARC
  5
11F
330
1F
100
AcDbEntity
  8
DEFAULT
100
AcDbCircle
 10
8.107660281482609
 20
33.41396890264448
 30
0.0
 40
0.9181515019050982
100
AcDbArc
 50
353.1889126880641
 51
86.31849211405478
  0
LINE
  5
120
330
1F
100
AcDbEntity
  8
DEFAULT
100
AcDbLine
 10
-9.624309
 20
19.37366475997541
 30
0.0
 11
-9.624309
 21
24.23584070159067
 31
0.0
  0
LINE
  5
121
330
1F
100
AcDbEntity
  8
DEFAULT
100
AcDbLine
 10
-9.521999999999998
 20
27.68916770159067
 30
0.0
 11
-9.317381999999998
 21
30.30598470159067
 31
0.0
  0
ARC
  5
122
330
1F
100
AcDbEntity
  8
DEFAULT
100
AcDbCircle
 10
-8.107660281482609
 20
33.41396890264448
 30
0.0
 40
0.9181515019050982
100
AcDbArc
 50
93.68150788594522
 51
186.8110873119363
  0
ARC
  5
123
330
1F
100
AcDbEntity
  8
DEFAULT
100
AcDbCircle
 10
-10.57396215147061
 20
44.59249280232326
 30
0.0
 40
0.4164956701327825
100
AcDbArc
 50
275.9206648458283
 51
359.0262366352995
  0
LINE
  5
124
330
1F
100
AcDbEntity
  8
DEFAULT
100
AcDbLine
 10
-10.157527
 20
43.72187145421071
 30
0.0
 11
-10.157527
 21
44.17693545421071
 31
0.0
  0
LINE
  5
125
330
1F
100
AcDbEntity
  8
DEFAULT
100
AcDbLine
 10
-8.759571999999999
 20
30.24941470159067
 30
0.0
 11
-8.962356
 21
27.65604470159066
 31
0.0
  0
LINE
  5
126
330
1F
100
AcDbEntity
  8
DEFAULT
100
AcDbLine
 10
-9.624309
 20
60.29552845421071
 30
0.0
 11
-9.624309
 21
59.23897245421072
 31
0.0
  0
LINE
  5
127
330
1F
100
AcDbEntity
  8
DEFAULT
100
AcDbLine
 10
-8.970527
 20
60.9108524542107
 30
0.0
 11
-8.970527
 21
63.15937145421071
 31
0.0
  0
SPLINE
  5
128
330
1F
100
AcDbEntity
  8
DEFAULT
100
AcDbSpline
210
0.0
220
0.0
230
1.0
 70
    15
 71
     2
 72
    20
 73
    17
 74
     0
 42
0.0000000001
 43
0.0000000001
 40
-3024.637267821216
 40
-3024.637267821216
 40
-3024.637267821216
 40
-3024.136839611807
 40
-3024.136839611807
 40
-3022.566043285012
 40
-3022.566043285012
 40
-3005.894314307433
 40
-3005.894314307433
 40
-3004.323517980637
 40
-3004.323517980637
 40
-3003.823089771229
 40
-3003.823089771229
 40
-3003.037691607831
 40
-3003.037691607831
 40
-2985.365962630251
 40
-2985.365962630251
 40
-2984.580564466854
 40
-2984.580564466854
 40
-2984.580564466854
 10
-9.633552396565591
 20
19.27796754901546
 30
0.0
 41
1.0
 10
-9.633552396565559
 20
19.02775344431112
 30
0.0
 41
1.0
 10
-9.633552396565525
 20
18.77753933960679
 30
0.0
 41
1.0
 10
-9.633552396565454
 20
17.77753933960685
 30
0.0
 41
0.7071067811865667
 10
-8.63355239656551
 20
17.77753933960686
 30
0.0
 41
1.0
 10
-0.0000000000001776
 20
17.7775393396067
 30
0.0
 41
1.0
 10
8.62723380100184
 20
17.76883777949031
 30
0.0
 41
1.0
 10
9.627233801002074
 20
17.76883777949015
 30
0.0
 41
0.7071067811864646
 10
9.627233801001996
 20
18.76883777949039
 30
0.0
 41
1.0
 10
9.627233801001978
 20
19.01905188419477
 30
0.0
 41
1.0
 10
9.627233801001957
 20
19.26926598889916
 30
0.0
 41
1.0
 10
9.627233801001923
 20
19.76926598889916
 30
0.0
 41
0.707106781186545
 10
9.127233801001918
 20
19.76926598889912
 30
0.0
 41
1.0
 10
-0.0000000000001776
 20
19.77796754901539
 30
0.0
 41
1.0
 10
-9.13355239656559
 20
19.77796754901542
 30
0.0
 41
1.0
 10
-9.633552396565554
 20
19.77796754901541
 30
0.0
 41
0.7071067811865714
 10
-9.633552396565591
 20
19.27796754901546
 30
0.0
 41
1.0
  0
LINE
  5
129
330
1F
100
AcDbEntity
  8
DEFAULT
100
AcDbLine
 10
-11.112629
 20
48.16322245421071
 30
0.0
 11
-11.003086
 21
48.09185045421071
 31
0.0
  0
ARC
  5
12A
330
1F
100
AcDbEntity
  8
DEFAULT
100
AcDbCircle
 10
-10.531
 20
51.15213726591546
 30
0.0
 40
3.096485194747443
100
AcDbArc
 50
261.2305632035671
 51
278.769436796433
  0
LINE
  5
12B
330
1F
100
AcDbEntity
  8
DEFAULT
100
AcDbLine
 10
-10.058914
 20
48.09185045421071
 30
0.0
 11
-9.949371000000003
 21
48.16322245421071
 31
0.0
  0
LINE
  5
12C
330
1F
100
AcDbEntity
  8
DEFAULT
100
AcDbLine
 10
-8.914588
 20
60.9361254542107
 30
0.0
 11
-9.486207272262
 21
60.6711040372407
 31
0.0
  0
LINE
  5
12D
330
1F
100
AcDbEntity
  8
DEFAULT
100
AcDbLine
 10
-9.717474000000001
 20
63.15937145421071
 30
0.0
 11
-9.717474000000001
 21
60.2182054542107
 31
0.0
  0
ARC
  5
12E
330
1F
100
AcDbEntity
  8
DEFAULT
100
AcDbCircle
 10
-9.38955888981643
 20
60.25407020444479
 30
0.0
 40
0.4280865888179529
100
AcDbArc
 50
43.4101457613793
 51
103.0480612111664
  0
ARC
  5
12F
330
1F
100
AcDbEntity
  8
DEFAULT
100
AcDbCircle
 10
-9.34455782854363
 20
60.21778839431623
 30
0.0
 40
0.371266252443039
100
AcDbArc
 50
48.88285079275334
 51
220.9529757894804
  0
ARC
  5
130
330
1F
100
AcDbEntity
  8
DEFAULT
100
AcDbCircle
 10
9.294483347567692
 20
59.16783413458754
 30
0.0
 40
0.337371240916483
100
AcDbArc
 50
163.7690937181005
 51
12.17922169593481
  0
ARC
  5
131
330
1F
100
AcDbEntity
  8
DEFAULT
100
AcDbCircle
 10
3.147725966122788
 20
57.79448502581241
 30
0.0
 40
6.004945457893307
100
AcDbArc
 50
14.14675975361708
 51
43.76922486833216
  0
ARC
  5
132
330
1F
100
AcDbEntity
  8
DEFAULT
100
AcDbCircle
 10
-0.0000122014709895
 20
52.70597630224731
 30
0.0
 40
11.89263937875097
100
AcDbArc
 50
51.00111379195925
 51
128.9988862080402
  0
ARC
  5
133
330
1F
100
AcDbEntity
  8
DEFAULT
100
AcDbCircle
 10
-3.148033278224464
 20
57.79459084805927
 30
0.0
 40
6.004667958240741
100
AcDbArc
 50
136.2296369167568
 51
165.8536141729983
  0
ARC
  5
134
330
1F
100
AcDbEntity
  8
DEFAULT
100
AcDbCircle
 10
-9.294531153451656
 20
59.16783413458755
 30
0.0
 40
0.3373712409164806
100
AcDbArc
 50
167.8207783040675
 51
16.23090628189714
  0
LINE
  5
135
330
1F
100
AcDbEntity
  8
DEFAULT
100
AcDbLine
 10
-10.157527
 20
44.58541445421071
 30
0.0
 11
-10.157527
 21
48.0788324542107
 31
0.0
  0
LINE
  5
136
330
1F
100
AcDbEntity
  8
DEFAULT
100
AcDbLine
 10
-7.670106999999998
 20
33.75122770159066
 30
0.0
 11
-8.197087
 21
33.76999170159067
 31
0.0
  0
ARC
  5
137
330
1F
100
AcDbEntity
  8
DEFAULT
100
AcDbCircle
 10
-7.935625335976225
 20
33.30902311444448
 30
0.0
 40
0.5299568285149553
100
AcDbArc
 50
119.5619337704161
 51
186.8511133035107
  0
LINE
  5
138
330
1F
100
AcDbEntity
  8
DEFAULT
100
AcDbLine
 10
-8.461797999999998
 20
33.24580470159067
 30
0.0
 11
-8.759571999999999
 21
30.24941470159067
 31
0.0
  0
ARC
  5
139
330
1F
100
AcDbEntity
  8
DEFAULT
100
AcDbCircle
 10
-9.34400008616695
 20
63.15937162426071
 30
0.0
 40
0.37347345538195
100
AcDbArc
 50
359.9999739120492
 51
180.0000260878963
  0
ARC
  5
13A
330
1F
100
AcDbEntity
  8
DEFAULT
100
AcDbCircle
 10
9.34352524158919
 20
60.21238512634716
 30
0.0
 40
0.2930037426607381
100
AcDbArc
 50
15.92405339014559
 51
135.4561680363898
  0
LINE
  5
13B
330
1F
100
AcDbEntity
  8
DEFAULT
100
AcDbLine
 10
-9.959717999999997
 20
57.61516645421071
 30
0.0
 11
-10.051971
 21
57.63449445421072
 31
0.0
  0
ARC
  5
13C
330
1F
100
AcDbEntity
  8
DEFAULT
100
AcDbCircle
 10
-10.53129804447055
 20
48.80403268458728
 30
0.0
 40
8.843461397006378
100
AcDbArc
 50
86.89297209060143
 51
93.04850336068272
  0
LINE
  5
13D
330
1F
100
AcDbEntity
  8
DEFAULT
100
AcDbLine
 10
27.50891235521957
 20
30.34112870159067
 30
0.0
 11
27.50558735521957
 21
30.34400970159067
 31
0.0
  0
LINE
  5
13E
330
1F
100
AcDbEntity
  8
DEFAULT
100
AcDbLine
 10
26.48418528748957
 20
18.22049129591067
 30
0.0
 11
26.49604590247957
 21
18.11816908616067
 31
0.0
  0
ARC
  5
13F
330
1F
100
AcDbEntity
  8
DEFAULT
100
AcDbCircle
 10
41.00073635521957
 20
16.37448670159067
 30
0.0
 40
1.827500275345789
100
AcDbArc
 50
46.98400882044922
 51
93.0000003894707
  0
LINE
  5
140
330
1F
100
AcDbEntity
  8
DEFAULT
100
AcDbLine
 10
42.72725135521956
 20
22.88256770159067
 30
0.0
 11
43.81976435521957
 21
2.036176701590666
 31
0.0
  0
LINE
  5
141
330
1F
100
AcDbEntity
  8
DEFAULT
100
AcDbLine
 10
26.49604590247957
 20
18.11816908616067
 30
0.0
 11
26.43262637394957
 21
17.92808616688067
 31
0.0
  0
SPLINE
  5
142
330
1F
100
AcDbEntity
  8
DEFAULT
100
AcDbSpline
210
0.0
220
0.0
230
1.0
 70
     8
 71
     3
 72
     9
 73
     5
 74
     0
 42
0.0000000001
 43
0.0000000001
 40
0.0
 40
0.0
 40
0.0
 40
0.0
 40
1.0
 40
1.9858303401092
 40
1.9858303401092
 40
1.9858303401092
 40
1.9858303401092
 10
43.42054312843982
 20
18.88170391257701
 30
0.0
 10
43.70127060207941
 20
18.58906369064839
 30
0.0
 10
43.83845134078198
 20
18.03084242811176
 30
0.0
 10
43.53646528132495
 20
17.72392956373227
 30
0.0
 10
42.99386047879818
 20
17.79536230056822
 30
0.0
  0
LINE
  5
143
330
1F
100
AcDbEntity
  8
DEFAULT
100
AcDbLine
 10
24.59258584562704
 20
17.06958043925898
 30
0.0
 11
26.49494635521957
 21
18.28151770159067
 31
0.0
  0
LINE
  5
144
330
1F
100
AcDbEntity
  8
DEFAULT
100
AcDbLine
 10
38.55303160988276
 20
26.08002765806437
 30
0.0
 11
38.54360236837638
 21
26.08025624431218
 31
0.0
  0
ARC
  5
145
330
1F
100
AcDbEntity
  8
DEFAULT
100
AcDbCircle
 10
37.44602335521946
 20
-19.19516029840895
 30
0.0
 40
45.28871849375989
100
AcDbArc
 50
88.61129206441134
 51
99.8350872731326
  0
LINE
  5
146
330
1F
100
AcDbEntity
  8
DEFAULT
100
AcDbLine
 10
29.71012512346257
 20
25.42797161044444
 30
0.0
 11
29.51796048116409
 21
26.53643817141373
 31
0.0
  0
ARC
  5
147
330
1F
100
AcDbEntity
  8
DEFAULT
100
AcDbCircle
 10
37.44602335522051
 20
-19.19516029842364
 30
0.0
 40
46.41371865667977
100
AcDbArc
 50
87.96303149724862
 51
99.83508737323514
  0
LINE
  5
148
330
1F
100
AcDbEntity
  8
DEFAULT
100
AcDbLine
 10
39.09576735085537
 20
27.18922957888628
 30
0.0
 11
39.11938269787952
 21
27.1883896567258
 31
0.0
  0
LINE
  5
149
330
1F
100
AcDbEntity
  8
DEFAULT
100
AcDbLine
 10
39.11938269787952
 20
27.1883896567258
 30
0.0
 11
38.55732335521957
 21
26.08842670159067
 31
0.0
  0
LINE
  5
14A
330
1F
100
AcDbEntity
  8
DEFAULT
100
AcDbLine
 10
38.55732335521957
 20
26.08842670159067
 30
0.0
 11
38.55303160988276
 21
26.08002765806437
 31
0.0
  0
ARC
  5
14B
330
1F
100
AcDbEntity
  8
DEFAULT
100
AcDbCircle
 10
-10.79224826697437
 20
26.81248810107651
 30
0.0
 40
0.8612499741073247
100
AcDbArc
 50
317.4841388879289
 51
0.1237216047580648
  0
ARC
  5
14C
330
1F
100
AcDbEntity
  8
DEFAULT
100
AcDbCircle
 10
-10.5309995
 20
26.63899720159067
 30
0.0
 40
0.373473500000334
100
AcDbArc
 50
359.9999232933804
 51
180.0
  0
ARC
  5
14D
330
1F
100
AcDbEntity
  8
DEFAULT
100
AcDbCircle
 10
-10.26975073302563
 20
26.81248810107651
 30
0.0
 40
0.8612499741073247
100
AcDbArc
 50
179.8762783952419
 51
222.515861112071
  0
ARC
  5
14E
330
1F
100
AcDbEntity
  8
DEFAULT
100
AcDbCircle
 10
-10.25145632125833
 20
26.16968857621723
 30
0.0
 40
0.8795729386842909
100
AcDbArc
 50
180.4673471941474
 51
222.0616251811865
  0
LINE
  5
14F
330
1F
100
AcDbEntity
  8
DEFAULT
100
AcDbLine
 10
-11.131
 20
26.16251420159067
 30
0.0
 11
-11.13099979781551
 21
26.83646470159067
 31
0.0
  0
ARC
  5
150
330
1F
100
AcDbEntity
  8
DEFAULT
100
AcDbCircle
 10
-10.23100738510844
 20
26.83646470159067
 30
0.0
 40
0.8999924127070678
100
AcDbArc
 50
167.017264017992
 51
180.0000000000002
  0
ARC
  5
151
330
1F
100
AcDbEntity
  8
DEFAULT
100
AcDbCircle
 10
-10.96182806137841
 20
27.00495638168561
 30
0.0
 40
0.1500002079981347
100
AcDbArc
 50
106.7956646253485
 51
167.0173979759047
  0
ARC
  5
152
330
1F
100
AcDbEntity
  8
DEFAULT
100
AcDbCircle
 10
-10.53099975
 20
25.57756486791146
 30
0.0
 40
1.640993020681423
100
AcDbArc
 50
73.20462773094867
 51
106.7953722690512
  0
ARC
  5
153
330
1F
100
AcDbEntity
  8
DEFAULT
100
AcDbCircle
 10
-10.10017065892709
 20
27.00495644616996
 30
0.0
 40
0.1499999209663498
100
AcDbArc
 50
12.98260202363213
 51
73.20461337408626
  0
ARC
  5
154
330
1F
100
AcDbEntity
  8
DEFAULT
100
AcDbCircle
 10
-10.83099161489156
 20
26.83646470159067
 30
0.0
 40
0.8999924127070678
100
AcDbArc
 50
0.0
 51
12.98273598200803
  0
LINE
  5
155
330
1F
100
AcDbEntity
  8
DEFAULT
100
AcDbLine
 10
-9.930999202184488
 20
26.83646470159067
 30
0.0
 11
-9.930999
 21
26.16251420159067
 31
0.0
  0
ARC
  5
156
330
1F
100
AcDbEntity
  8
DEFAULT
100
AcDbCircle
 10
9.991000166640646
 20
57.56364466753487
 30
0.0
 40
0.0602997651791616
100
AcDbArc
 50
121.303438534747
 51
174.762155671461
  0
LINE
  5
157
330
1F
100
AcDbEntity
  8
DEFAULT
100
AcDbLine
 10
9.959670194116036
 20
57.61516645421071
 30
0.0
 11
10.05192319411604
 21
57.63449445421072
 31
0.0
  0
ARC
  5
158
330
1F
100
AcDbEntity
  8
DEFAULT
100
AcDbCircle
 10
10.53125023858659
 20
48.80403268458728
 30
0.0
 40
8.843461397006378
100
AcDbArc
 50
86.95149663931721
 51
93.10702790939854
  0
LINE
  5
159
330
1F
100
AcDbEntity
  8
DEFAULT
100
AcDbLine
 10
11.00155719411604
 20
57.63497945421071
 30
0.0
 11
11.10223419411604
 21
57.61517345421073
 31
0.0
  0
ARC
  5
15A
330
1F
100
AcDbEntity
  8
DEFAULT
100
AcDbCircle
 10
11.07090422159144
 20
57.56365166753488
 30
0.0
 40
0.0602997651791616
100
AcDbArc
 50
5.237844328539053
 51
58.69656146525305
  0
LINE
  5
15B
330
1F
100
AcDbEntity
  8
DEFAULT
100
AcDbLine
 10
11.13095219411604
 20
57.56915645421071
 30
0.0
 11
11.13095219411604
 21
48.2563339542107
 31
0.0
  0
LINE
  5
15C
330
1F
100
AcDbEntity
  8
DEFAULT
100
AcDbLine
 10
11.13095219411604
 20
48.2563339542107
 30
0.0
 11
11.13094919411604
 21
48.2557544542107
 31
0.0
  0
LINE
  5
15D
330
1F
100
AcDbEntity
  8
DEFAULT
100
AcDbLine
 10
11.13094919411604
 20
48.2557544542107
 30
0.0
 11
11.13076319411604
 21
48.2472994542107
 31
0.0
  0
LINE
  5
15E
330
1F
100
AcDbEntity
  8
DEFAULT
100
AcDbLine
 10
11.13076319411604
 20
48.2472994542107
 30
0.0
 11
11.11258119411604
 21
48.16322245421071
 31
0.0
  0
LINE
  5
15F
330
1F
100
AcDbEntity
  8
DEFAULT
100
AcDbLine
 10
11.11258119411604
 20
48.16322245421071
 30
0.0
 11
11.00303819411604
 21
48.09185045421071
 31
0.0
  0
ARC
  5
160
330
1F
100
AcDbEntity
  8
DEFAULT
100
AcDbCircle
 10
10.53095219411604
 20
51.15213726591546
 30
0.0
 40
3.096485194747443
100
AcDbArc
 50
261.2305632035672
 51
278.769436796433
  0
LINE
  5
161
330
1F
100
AcDbEntity
  8
DEFAULT
100
AcDbLine
 10
10.05886619411604
 20
48.09185045421071
 30
0.0
 11
9.949323194116044
 21
48.16322245421071
 31
0.0
  0
ARC
  5
162
330
1F
100
AcDbEntity
  8
DEFAULT
100
AcDbCircle
 10
9.344510022659671
 20
60.21778839431624
 30
0.0
 40
0.3712662524430437
100
AcDbArc
 50
319.0470242105184
 51
131.1171492072459
  0
ARC
  5
163
330
1F
100
AcDbEntity
  8
DEFAULT
100
AcDbCircle
 10
9.389511083932472
 20
60.25407020444479
 30
0.0
 40
0.4280865888179529
100
AcDbArc
 50
76.95193878883428
 51
136.5898542386217
  0
LINE
  5
164
330
1F
100
AcDbEntity
  8
DEFAULT
100
AcDbLine
 10
8.914540194116043
 20
60.9361254542107
 30
0.0
 11
9.48615946637804
 21
60.6711040372407
 31
0.0
  0
LINE
  5
165
330
1F
100
AcDbEntity
  8
DEFAULT
100
AcDbLine
 10
-10.904474
 20
48.07883445421069
 30
0.0
 11
-10.904474
 21
43.72187145421071
 31
0.0
  0
LINE
  5
166
330
1F
100
AcDbEntity
  8
DEFAULT
100
AcDbLine
 10
7.670106999999998
 20
33.75122770159066
 30
0.0
 11
8.197087
 21
33.76999170159067
 31
0.0
  0
ARC
  5
167
330
1F
100
AcDbEntity
  8
DEFAULT
100
AcDbCircle
 10
7.935625335976225
 20
33.30902311444448
 30
0.0
 40
0.5299568285149553
100
AcDbArc
 50
353.1488866964893
 51
60.43806622958373
  0
LINE
  5
168
330
1F
100
AcDbEntity
  8
DEFAULT
100
AcDbLine
 10
8.461797999999998
 20
33.24580470159067
 30
0.0
 11
8.759571999999999
 21
30.24941470159067
 31
0.0
  0
LINE
  5
169
330
1F
100
AcDbEntity
  8
DEFAULT
100
AcDbLine
 10
8.759571999999999
 20
30.24941470159067
 30
0.0
 11
8.962356
 21
27.65604470159066
 31
0.0
  0
LINE
  5
16A
330
1F
100
AcDbEntity
  8
DEFAULT
100
AcDbLine
 10
8.962356
 20
27.65604470159066
 30
0.0
 11
9.063690999999999
 21
24.23670970159067
 31
0.0
  0
LINE
  5
16B
330
1F
100
AcDbEntity
  8
DEFAULT
100
AcDbLine
 10
9.063690999999999
 20
24.23670970159067
 30
0.0
 11
9.063690999999999
 21
19.7694751784885
 31
0.0
  0
ARC
  5
16C
330
1F
100
AcDbEntity
  8
DEFAULT
100
AcDbCircle
 10
24.76483343699928
 20
16.73794272436386
 30
0.0
 40
0.373701494075674
100
AcDbArc
 50
117.4466791902413
 51
302.384609635307
  0
LINE
  5
16D
330
1F
100
AcDbEntity
  8
DEFAULT
100
AcDbLine
 10
26.67222535521957
 20
18.74552470159067
 30
0.0
 11
27.64899635521957
 21
24.28506870159067
 31
0.0
  0
ARC
  5
16E
330
1F
100
AcDbEntity
  8
DEFAULT
100
AcDbCircle
 10
19.3186175850133
 20
25.73095289037343
 30
0.0
 40
8.454927057194245
100
AcDbArc
 50
350.1534033066483
 51
12.83585698515439
  0
LINE
  5
16F
330
1F
100
AcDbEntity
  8
DEFAULT
100
AcDbLine
 10
27.56226035521957
 20
27.60928870159067
 30
0.0
 11
26.26987935521957
 21
33.21203470159067
 31
0.0
  0
ARC
  5
170
330
1F
100
AcDbEntity
  8
DEFAULT
100
AcDbCircle
 10
25.5669595731272
 20
33.04861579671589
 30
0.0
 40
0.7216660990563775
100
AcDbArc
 50
13.0879637730957
 51
91.90581877395726
  0
LINE
  5
171
330
1F
100
AcDbEntity
  8
DEFAULT
100
AcDbLine
 10
25.54295935521957
 20
33.76988270159067
 30
0.0
 11
22.29351835522005
 21
33.65702470159068
 31
0.0
  0
ARC
  5
172
330
1F
100
AcDbEntity
  8
DEFAULT
100
AcDbCircle
 10
22.28648185521957
 20
33.93729920159066
 30
0.0
 40
0.2803628143718395
100
AcDbArc
 50
91.43815110015304
 51
271.438151100153
  0
LINE
  5
173
330
1F
100
AcDbEntity
  8
DEFAULT
100
AcDbLine
 10
22.27944535521909
 20
34.21757370159065
 30
0.0
 11
25.52637935521957
 21
34.33034570159066
 31
0.0
  0
ARC
  5
174
330
1F
100
AcDbEntity
  8
DEFAULT
100
AcDbCircle
 10
25.57125332487438
 20
33.05247533742086
 30
0.0
 40
1.278658023388598
100
AcDbArc
 50
12.94532142205937
 51
92.01118445160957
  0
LINE
  5
175
330
1F
100
AcDbEntity
  8
DEFAULT
100
AcDbLine
 10
26.81741335521957
 20
33.33892170159066
 30
0.0
 11
28.10985235521957
 21
27.73592370159067
 31
0.0
  0
ARC
  5
176
330
1F
100
AcDbEntity
  8
DEFAULT
100
AcDbCircle
 10
19.31016275010704
 20
25.73090365430144
 30
0.0
 40
9.025222575446943
100
AcDbArc
 50
350.1533385667927
 51
12.83577957528344
  0
LINE
  5
177
330
1F
100
AcDbEntity
  8
DEFAULT
100
AcDbLine
 10
28.20243435521957
 20
24.18748270159067
 30
0.0
 11
27.22566335521957
 21
18.64793870159067
 31
0.0
  0
LINE
  5
178
330
1F
100
AcDbEntity
  8
DEFAULT
100
AcDbLine
 10
41.77232235521957
 20
18.03042970159067
 30
0.0
 11
26.93550518050482
 21
16.4609749989212
 31
0.0
  0
ARC
  5
179
330
1F
100
AcDbEntity
  8
DEFAULT
100
AcDbCircle
 10
25.05919192872729
 20
33.81177640227668
 30
0.0
 40
17.45191119360821
100
AcDbArc
 50
268.9927868957973
 51
273.6238602141111
  0
ARC
  5
17A
330
1F
100
AcDbEntity
  8
DEFAULT
100
AcDbCircle
 10
10.79224826697437
 20
26.81248810107651
 30
0.0
 40
0.8612499741073247
100
AcDbArc
 50
179.8762783952419
 51
222.515861112071
  0
LINE
  5
17B
330
1F
100
AcDbEntity
  8
DEFAULT
100
AcDbLine
 10
10.15747919411604
 20
43.72187145421071
 30
0.0
 11
10.15747919411604
 21
44.17693545421071
 31
0.0
  0
LINE
  5
17C
330
1F
100
AcDbEntity
  8
DEFAULT
100
AcDbLine
 10
10.90442619411604
 20
48.07883445421069
 30
0.0
 11
10.90442619411604
 21
43.72187145421071
 31
0.0
  0
ARC
  5
17D
330
1F
100
AcDbEntity
  8
DEFAULT
100
AcDbCircle
 10
10.53095228028289
 20
43.72187162426071
 30
0.0
 40
0.37347345538205
100
AcDbArc
 50
180.0000260879508
 51
0.0
  0
ARC
  5
17E
330
1F
100
AcDbEntity
  8
DEFAULT
100
AcDbCircle
 10
9.343952280282991
 20
63.15937162426071
 30
0.0
 40
0.37347345538195
100
AcDbArc
 50
359.9999739121037
 51
180.0000260879508
  0
LINE
  5
17F
330
1F
100
AcDbEntity
  8
DEFAULT
100
AcDbLine
 10
8.970479194116042
 20
60.9108524542107
 30
0.0
 11
8.970479194116042
 21
63.15937145421071
 31
0.0
  0
LINE
  5
180
330
1F
100
AcDbEntity
  8
DEFAULT
100
AcDbLine
 10
43.07079235521957
 20
1.996924701590665
 30
0.0
 11
41.97827935521957
 21
22.84331570159067
 31
0.0
  0
LINE
  5
181
330
1F
100
AcDbEntity
  8
DEFAULT
100
AcDbLine
 10
40.90509239705683
 20
18.19948190328851
 30
0.0
 11
27.11461433101474
 21
17.47675345184144
 31
0.0
  0
LINE
  5
182
330
1F
100
AcDbEntity
  8
DEFAULT
100
AcDbLine
 10
-9.717472999999998
 20
2.016550701590667
 30
0.0
 11
-9.717472999999998
 21
17.24535170159067
 31
0.0
  0
LINE
  5
183
330
1F
100
AcDbEntity
  8
DEFAULT
100
AcDbLine
 10
-8.970526
 20
17.24535170159067
 30
0.0
 11
-8.970526
 21
2.016550701590667
 31
0.0
  0
LINE
  5
184
330
1F
100
AcDbEntity
  8
DEFAULT
100
AcDbLine
 10
9.717472999999998
 20
2.016550701590667
 30
0.0
 11
9.717472999999998
 21
17.24535170159067
 31
0.0
  0
LINE
  5
185
330
1F
100
AcDbEntity
  8
DEFAULT
100
AcDbLine
 10
27.31824735521957
 20
18.63161370159067
 30
0.0
 11
26.57964135521957
 21
18.76184970159067
 31
0.0
  0
LINE
  5
186
330
1F
100
AcDbEntity
  8
DEFAULT
100
AcDbLine
 10
8.970526
 20
17.24535170159067
 30
0.0
 11
8.970526
 21
2.016550701590667
 31
0.0
  0
LINE
  5
187
330
1F
100
AcDbEntity
  8
DEFAULT
100
AcDbLine
 10
27.24738535521957
 20
18.22973470159067
 30
0.0
 11
40.86610235521957
 21
18.94346170159067
 31
0.0
  0
LINE
  5
188
330
1F
100
AcDbEntity
  8
DEFAULT
100
AcDbLine
 10
9.930999202184488
 20
26.83646470159067
 30
0.0
 11
9.930999
 21
26.16251420159067
 31
0.0
  0
ARC
  5
189
330
1F
100
AcDbEntity
  8
DEFAULT
100
AcDbCircle
 10
10.81054267874167
 20
26.16968857621723
 30
0.0
 40
0.8795729386842895
100
AcDbArc
 50
180.4673471941472
 51
222.0616251811862
  0
ARC
  5
18A
330
1F
100
AcDbEntity
  8
DEFAULT
100
AcDbCircle
 10
10.26975073302563
 20
26.81248810107651
 30
0.0
 40
0.8612499741073247
100
AcDbArc
 50
317.4841388879287
 51
0.1237216047580651
  0
ARC
  5
18B
330
1F
100
AcDbEntity
  8
DEFAULT
100
AcDbCircle
 10
10.25145632125833
 20
26.16968857621723
 30
0.0
 40
0.8795729386842909
100
AcDbArc
 50
317.9383748188135
 51
359.5326528058528
  0
ARC
  5
18C
330
1F
100
AcDbEntity
  8
DEFAULT
100
AcDbCircle
 10
10.23100738510844
 20
26.83646470159067
 30
0.0
 40
0.8999924127070678
100
AcDbArc
 50
0.0
 51
12.98273598200803
  0
LINE
  5
18D
330
1F
100
AcDbEntity
  8
DEFAULT
100
AcDbLine
 10
11.131
 20
26.16251420159067
 30
0.0
 11
11.13099979781551
 21
26.83646470159067
 31
0.0
  0
ARC
  5
18E
330
1F
100
AcDbEntity
  8
DEFAULT
100
AcDbCircle
 10
10.5309995
 20
26.63899720159067
 30
0.0
 40
0.373473500000334
100
AcDbArc
 50
0.0
 51
180.0000767066196
  0
ARC
  5
18F
330
1F
100
AcDbEntity
  8
DEFAULT
100
AcDbCircle
 10
0.0
 20
342.3678121021387
 30
0.0
 40
308.1509366474075
100
AcDbArc
 50
268.5773596630036
 51
271.4226403369962
  0
LINE
  5
190
330
1F
100
AcDbEntity
  8
DEFAULT
100
AcDbLine
 10
-11.001605
 20
57.63497945421071
 30
0.0
 11
-11.102282
 21
57.61517345421073
 31
0.0
  0
ARC
  5
191
330
1F
100
AcDbEntity
  8
DEFAULT
100
AcDbCircle
 10
-11.0709520274754
 20
57.56365166753488
 30
0.0
 40
0.0602997651791616
100
AcDbArc
 50
121.303438534747
 51
174.762155671461
  0
SPLINE
  5
192
330
1F
100
AcDbEntity
  8
DEFAULT
100
AcDbSpline
210
0.0
220
0.0
230
1.0
 70
    12
 71
     2
 72
    14
 73
    11
 74
     0
 42
0.0000000001
 43
0.0000000001
 40
-37.83956168228067
 40
-37.83956168228067
 40
-37.83956168228067
 40
-23.18809796348266
 40
-23.18809796348266
 40
-21.61730163668769
 40
-21.61730163668769
 40
-4.040510463327674
 40
-4.040510463327674
 40
-2.469714136532703
 40
-2.469714136532703
 40
12.09335831093076
 40
12.09335831093076
 40
12.09335831093076
 10
-9.614841471015243
 20
59.09527198391618
 30
0.0
 41
1.0
 10
-9.614841471015243
 20
51.76954012451716
 30
0.0
 41
1.0
 10
-9.614841471015243
 20
44.44380826511816
 30
0.0
 41
1.0
 10
-9.614841471015243
 20
43.44380826511809
 30
0.0
 41
0.7071067811865213
 10
-8.614841471015168
 20
43.44380826511816
 30
0.0
 41
1.0
 10
-0.0000336892674309
 20
43.44380826511816
 30
0.0
 41
1.0
 10
8.589407892706515
 20
43.44380826511816
 30
0.0
 41
1.0
 10
9.589407892706587
 20
43.44380826511809
 30
0.0
 41
0.7071067811865213
 10
9.589407892706589
 20
44.44380826511816
 30
0.0
 41
1.0
 10
9.589407892706589
 20
51.72534448884988
 30
0.0
 41
1.0
 10
9.589407892706589
 20
59.00688071258163
 30
0.0
 41
1.0
  0
ARC
  5
193
330
1F
100
AcDbEntity
  8
DEFAULT
100
AcDbCircle
 10
0.0000000000000018
 20
48.63165002082017
 30
0.0
 40
32.33222042123736
100
AcDbArc
 50
256.1064861405879
 51
283.8935138594118
  0
LINE
  5
194
330
1F
100
AcDbEntity
  8
DEFAULT
100
AcDbLine
 10
-9.614841471015243
 20
44.9284744542107
 30
0.0
 11
-10.157527
 21
44.9284744542107
 31
0.0
  0
LINE
  5
195
330
1F
100
AcDbEntity
  8
DEFAULT
100
AcDbLine
 10
-10.15752599999993
 20
17.24550120159067
 30
0.0
 11
-10.157526
 21
2.016550701590667
 31
0.0
  0
LINE
  5
196
330
1F
100
AcDbEntity
  8
DEFAULT
100
AcDbLine
 10
9.589407892706589
 20
44.9284744542107
 30
0.0
 11
10.15747919411604
 21
44.9284744542107
 31
0.0
  0
LINE
  5
197
330
1F
100
AcDbEntity
  8
DEFAULT
100
AcDbLine
 10
26.48418535521957
 20
18.22049170159067
 30
0.0
 11
26.57964135521957
 21
18.76184970159067
 31
0.0
  0
LINE
  5
198
330
1F
100
AcDbEntity
  8
DEFAULT
100
AcDbLine
 10
26.31925435521957
 20
17.28512470159067
 30
0.0
 11
24.96498835521957
 21
16.42236170159067
 31
0.0
  0
ARC
  5
199
330
1F
100
AcDbEntity
  8
DEFAULT
100
AcDbCircle
 10
41.00073635521957
 20
16.37448670159067
 30
0.0
 40
2.572500298332921
100
AcDbArc
 50
62.25388557033772
 51
92.99999388829411
  0
ARC
  5
19A
330
1F
100
AcDbEntity
  8
DEFAULT
100
AcDbCircle
 10
38.35824735521957
 20
22.65359870159067
 30
0.0
 40
3.624999710190126
100
AcDbArc
 50
2.999986772102856
 51
85.41520751577465
  0
LINE
  5
19B
330
1F
100
AcDbEntity
  8
DEFAULT
100
AcDbLine
 10
10.904473
 20
2.016550701590667
 30
0.0
 11
10.904473
 21
26.63899770159067
 31
0.0
  0
ARC
  5
19C
330
1F
100
AcDbEntity
  8
DEFAULT
100
AcDbCircle
 10
38.35824735521957
 20
22.65359870159067
 30
0.0
 40
4.374999475996649
100
AcDbArc
 50
2.99998957248157
 51
81.40574845339829
  0
LINE
  5
19D
330
1F
100
AcDbEntity
  8
DEFAULT
100
AcDbLine
 10
9.58870660205815
 20
18.49393770159067
 30
0.0
 11
10.157526
 21
18.49393770159067
 31
0.0
  0
LINE
  5
19E
330
1F
100
AcDbEntity
  8
DEFAULT
100
AcDbLine
 10
10.157526
 20
18.49393770159067
 30
0.0
 11
10.157526
 21
26.63899670159067
 31
0.0
  0
ARC
  5
19F
330
1F
100
AcDbEntity
  8
DEFAULT
100
AcDbCircle
 10
-3.130520700777053
 20
57.76473522805816
 30
0.0
 40
6.595533456034633
100
AcDbArc
 50
135.5214841029619
 51
166.8869067991937
  0
LINE
  5
1A0
330
1F
100
AcDbEntity
  8
DEFAULT
100
AcDbLine
 10
-10.497809
 20
44.17693545421071
 30
0.0
 11
-9.578573229752267
 21
44.17693545421071
 31
0.0
  0
ARC
  5
1A1
330
1F
100
AcDbEntity
  8
DEFAULT
100
AcDbCircle
 10
-9.34357304747315
 20
60.21238512634714
 30
0.0
 40
0.2930037426607494
100
AcDbArc
 50
44.54383196361193
 51
164.0759466098522
  0
LINE
  5
1A2
330
1F
100
AcDbEntity
  8
DEFAULT
100
AcDbLine
 10
9.624261194116041
 20
60.29552845421071
 30
0.0
 11
9.624261194116041
 21
59.23897245421072
 31
0.0
  0
ARC
  5
1A3
330
1F
100
AcDbEntity
  8
DEFAULT
100
AcDbCircle
 10
41.01409064223756
 20
15.65304542935207
 30
0.0
 40
4.129884245648721
100
AcDbArc
 50
74.07894774905047
 51
92.80896338279351
  0
LINE
  5
1A4
330
1F
100
AcDbEntity
  8
DEFAULT
100
AcDbLine
 10
42.91563753762717
 20
19.28794501292113
 30
0.0
 11
43.42054312843982
 21
18.88170391257701
 31
0.0
  0
ARC
  5
1A5
330
1F
100
AcDbEntity
  8
DEFAULT
100
AcDbCircle
 10
-0.0000238962206238
 20
39.31029019853042
 30
0.0
 40
21.62529071419742
100
AcDbArc
 50
64.51060549271007
 51
115.4893945012289
  0
LINE
  5
1A6
330
1F
100
AcDbEntity
  8
DEFAULT
100
AcDbLine
 10
27.25990188932342
 20
19.11488847789796
 30
0.0
 11
40.81170144002959
 21
19.77796754901532
 31
0.0
  0
LINE
  5
1A7
330
1F
100
AcDbEntity
  8
DEFAULT
100
AcDbLine
 10
9.71742619411604
 20
63.15937145421071
 30
0.0
 11
9.71742619411604
 21
60.2182054542107
 31
0.0
  0
LINE
  5
1A8
330
1F
100
AcDbEntity
  8
DEFAULT
100
AcDbLine
 10
10.15747919411604
 20
44.58541445421071
 30
0.0
 11
10.15747919411604
 21
48.0788324542107
 31
0.0
  0
ARC
  5
1A9
330
1F
100
AcDbEntity
  8
DEFAULT
100
AcDbCircle
 10
-10.81054267874167
 20
26.16968857621723
 30
0.0
 40
0.8795729386842895
100
AcDbArc
 50
317.9383748188138
 51
359.5326528058528
  0
LINE
  5
1AA
330
1F
100
AcDbEntity
  8
DEFAULT
100
AcDbLine
 10
-10.904473
 20
2.016550701590667
 30
0.0
 11
-10.904473
 21
26.63899770159067
 31
0.0
  0
ARC
  5
1AB
330
1F
100
AcDbEntity
  8
DEFAULT
100
AcDbCircle
 10
10.10017065892709
 20
27.00495644616996
 30
0.0
 40
0.1499999209663498
100
AcDbArc
 50
106.7953866259137
 51
167.0173979763679
  0
ARC
  5
1AC
330
1F
100
AcDbEntity
  8
DEFAULT
100
AcDbCircle
 10
10.83099161489156
 20
26.83646470159067
 30
0.0
 40
0.8999924127070678
100
AcDbArc
 50
167.017264017992
 51
180.0000000000002
  0
ARC
  5
1AD
330
1F
100
AcDbEntity
  8
DEFAULT
100
AcDbCircle
 10
10.96182806137841
 20
27.00495638168561
 30
0.0
 40
0.1500002079981347
100
AcDbArc
 50
12.98260202409527
 51
73.20433537465154
  0
ARC
  5
1AE
330
1F
100
AcDbEntity
  8
DEFAULT
100
AcDbCircle
 10
10.53099975
 20
25.57756486791146
 30
0.0
 40
1.640993020681423
100
AcDbArc
 50
73.2046277309488
 51
106.7953722690513
  0
SPLINE
  5
1AF
330
1F
100
AcDbEntity
  8
DEFAULT
100
AcDbSpline
210
0.0
220
0.0
230
1.0
 70
     8
 71
     3
 72
     8
 73
     4
 74
     0
 42
0.0000000001
 43
0.0000000001
 40
0.0
 40
0.0
 40
0.0
 40
0.0
 40
1.0
 40
1.0
 40
1.0
 40
1.0
 10
22.02774615395294
 20
33.82368994054229
 30
0.0
 10
25.88216404004616
 20
29.88648920910786
 30
0.0
 10
27.69806535521957
 20
24.59797170159067
 30
0.0
 10
24.40618726993102
 20
16.8429462172659
 30
0.0
  0
LINE
  5
1B0
330
1F
100
AcDbEntity
  8
DEFAULT
100
AcDbLine
 10
9.930952194116042
 20
48.2563734542107
 30
0.0
 11
9.930952194116042
 21
57.5691494542107
 31
0.0
  0
LINE
  5
1B1
330
1F
100
AcDbEntity
  8
DEFAULT
100
AcDbLine
 10
9.949323194116044
 20
48.16322245421071
 30
0.0
 11
9.930952194116042
 21
48.2563734542107
 31
0.0
  0
LINE
  5
1B2
330
1F
100
AcDbEntity
  8
DEFAULT
100
AcDbLine
 10
10.157526
 20
2.016550701590667
 30
0.0
 11
10.15752599999993
 21
17.24550120159067
 31
0.0
  0
LINE
  5
1B3
330
1F
100
AcDbEntity
  8
DEFAULT
100
AcDbLine
 10
10.15752599999993
 20
17.24550120159067
 30
0.0
 11
-10.15752599999993
 21
17.24550120159067
 31
0.0
  0
LINE
  5
1B4
330
1F
100
AcDbEntity
  8
DEFAULT
100
AcDbLine
 10
-10.157526
 20
26.63899670159067
 30
0.0
 11
-10.157526
 21
18.49393770159067
 31
0.0
  0
LINE
  5
1B5
330
1F
100
AcDbEntity
  8
DEFAULT
100
AcDbLine
 10
-10.157526
 20
18.49393770159067
 30
0.0
 11
-9.592494579866756
 21
18.49393770159067
 31
0.0
  0
ARC
  5
1B6
330
1F
100
AcDbEntity
  8
DEFAULT
100
AcDbCircle
 10
0.0
 20
364.2483584078278
 30
0.0
 40
330.5861218297694
100
AcDbArc
 50
268.6705304058545
 51
271.3294695941456
  0
LINE
  5
1B7
330
1F
100
AcDbEntity
  8
DEFAULT
100
AcDbLine
 10
-8.962356
 20
27.65604470159066
 30
0.0
 11
-9.063690999999999
 21
24.23670970159067
 31
0.0
  0
LINE
  5
1B8
330
1F
100
AcDbEntity
  8
DEFAULT
100
AcDbLine
 10
-9.063690999999999
 20
24.23670970159067
 30
0.0
 11
-9.063690999999999
 21
19.77796627549265
 31
0.0
  0
LINE
  5
1B9
330
1F
100
AcDbEntity
  8
DEFAULT
100
AcDbLine
 10
-11.131
 20
48.2563339542107
 30
0.0
 11
-11.130997
 21
48.2557544542107
 31
0.0
  0
LINE
  5
1BA
330
1F
100
AcDbEntity
  8
DEFAULT
100
AcDbLine
 10
-11.130997
 20
48.2557544542107
 30
0.0
 11
-11.130811
 21
48.2472994542107
 31
0.0
  0
LINE
  5
1BB
330
1F
100
AcDbEntity
  8
DEFAULT
100
AcDbLine
 10
-11.130811
 20
48.2472994542107
 30
0.0
 11
-11.112629
 21
48.16322245421071
 31
0.0
  0
LINE
  5
1BC
330
1F
100
AcDbEntity
  8
DEFAULT
100
AcDbLine
 10
-11.131
 20
57.56915645421071
 30
0.0
 11
-11.131
 21
48.2563339542107
 31
0.0
  0
ENDSEC
  0
SECTION
  2
OBJECTS
  0
DICTIONARY
  5
C
330
0
100
AcDbDictionary
  3
ACAD_GROUP
350
D
  3
ACAD_LAYOUT
350
1A
  3
ACAD_MLEADERSTYLE
350
1DE
  3
ACAD_MLINESTYLE
350
17
  3
ACAD_PLOTSETTINGS
350
19
  3
ACAD_TABLESTYLE
350
1DD
  3
ACAD_VISUALSTYLE
350
2A
  3
ACDBHEADERROUNDTRIPXREC
350
1BD
  0
DICTIONARY
  5
D
102
{ACAD_REACTORS
330
C
102
}
330
C
100
AcDbDictionary
  0
DICTIONARY
  5
1A
102
{ACAD_REACTORS
330
C
102
}
330
C
100
AcDbDictionary
  0
DICTIONARY
  5
1DE
102
{ACAD_REACTORS
330
C
102
}
330
C
100
AcDbDictionary
  0
DICTIONARY
  5
17
102
{ACAD_REACTORS
330
C
102
}
330
C
100
AcDbDictionary
  3
STANDARD
350
18
  0
DICTIONARY
  5
19
102
{ACAD_REACTORS
330
C
102
}
330
C
100
AcDbDictionary
  0
DICTIONARY
  5
1DD
102
{ACAD_REACTORS
330
C
102
}
330
C
100
AcDbDictionary
  0
DICTIONARY
  5
2A
102
{ACAD_REACTORS
330
C
102
}
330
C
100
AcDbDictionary
  3
2DWIREFRAME
350
2F
  3
3D_HIDDEN
350
31
  3
3DWIREFRAME
350
30
  3
BASIC
350
32
  3
BRIGHTEN
350
36
  3
COLORCHANGE
350
3A
  3
CONCEPTUAL
350
34
  3
DIM
350
35
  3
FACEPATTERN
350
39
  3
FLAT
350
2B
  3
FLATWITHEDGES
350
2C
  3
GOURAUD
350
2D
  3
GOURAUDWITHEDGES
350
2E
  3
LINEPATTERN
350
38
  3
REALISTIC
350
33
  3
THICKEN
350
37
  0
DICTIONARY
  5
1BD
102
{ACAD_REACTORS
330
C
102
}
330
C
100
AcDbDictionary
  3
CEPSNTYPE
350
1C6
  3
DIMSTYLEDATA
350
1DC
  3
FINGERPRINTGUID
350
1C7
  3
HYPERLINKBASE
350
1C0
  3
INSUNITS
350
1C5
  3
LAYOUTDICT
350
1C2
  3
LWETCUNION
350
1C4
  3
PLOTSETDICT
350
1C3
  3
PSVPSCALE
350
1C9
  3
PUCSBASE
350
1CC
  3
PUCSORGBACK
350
1D2
  3
PUCSORGBOTTOM
350
1CE
  3
PUCSORGFRONT
350
1D1
  3
PUCSORGLEFT
350
1CF
  3
PUCSORGRIGHT
350
1D0
  3
PUCSORGTOP
350
1CD
  3
PUCSORTHOREF
350
1CA
  3
PUCSORTHOVIEW
350
1CB
  3
STYLESHEET
350
1C1
  3
TSTACKALIGN
350
1BE
  3
TSTACKSIZE
350
1BF
  3
UCSBASE
350
1D5
  3
UCSORGBACK
350
1DB
  3
UCSORGBOTTOM
350
1D7
  3
UCSORGFRONT
350
1DA
  3
UCSORGLEFT
350
1D8
  3
UCSORGRIGHT
350
1D9
  3
UCSORGTOP
350
1D6
  3
UCSORTHOREF
350
1D3
  3
UCSORTHOVIEW
350
1D4
  3
VERSIONGUID
350
1C8
  0
MLINESTYLE
  5
18
102
{ACAD_REACTORS
330
17
102
}
330
17
100
AcDbMlineStyle
  2
Standard
 70
     0
  3

 62
   256
 51
90.0
 52
90.0
 71
     2
 49
0.5
 62
   256
  6
BYLAYER
 49
-0.5
 62
   256
  6
BYLAYER
  0
VISUALSTYLE
  5
2F
102
{ACAD_REACTORS
330
2A
102
}
330
2A
100
AcDbVisualStyle
  2
2dWireframe
 70
     4
 71
     0
 72
     2
 73
     0
 90
        0
 40
-0.6
 41
-30.0
 62
     5
 63
     7
 74
     1
 91
        4
 64
     7
 65
   257
 75
     1
175
     1
 42
1.0
 92
        0
 66
   257
 43
1.0
 76
     1
 77
     6
 78
     2
 67
     7
 79
     5
170
     0
171
     0
290
     0
174
     0
 93
        1
 44
0.0
173
     0
291
     0
 45
0.0
1001
ACAD
1000
AcDbSavedByObjectVersion
1070
     0
  0
VISUALSTYLE
  5
31
102
{ACAD_REACTORS
330
2A
102
}
330
2A
100
AcDbVisualStyle
  2
3D Hidden
 70
     6
 71
     1
 72
     2
 73
     2
 90
        0
 40
-0.6
 41
-30.0
 62
     5
 63
     7
 74
     2
 91
        2
 64
     7
 65
   257
 75
     2
175
     1
 42
40.0
 92
        0
 66
   257
 43
1.0
 76
     1
 77
     6
 78
     2
 67
     7
 79
     3
170
     0
171
     0
290
     0
174
     0
 93
        1
 44
0.0
173
     0
291
     0
 45
0.0
1001
ACAD
1000
AcDbSavedByObjectVersion
1070
     0
  0
VISUALSTYLE
  5
30
102
{ACAD_REACTORS
330
2A
102
}
330
2A
100
AcDbVisualStyle
  2
3dWireframe
 70
     5
 71
     0
 72
     2
 73
     0
 90
        0
 40
-0.6
 41
-30.0
 62
     5
 63
     7
 74
     1
 91
        4
 64
     7
 65
   257
 75
     1
175
     1
 42
1.0
 92
        0
 66
   257
 43
1.0
 76
     1
 77
     6
 78
     2
 67
     7
 79
     5
170
     0
171
     0
290
     0
174
     0
 93
        1
 44
0.0
173
     0
291
     0
 45
0.0
1001
ACAD
1000
AcDbSavedByObjectVersion
1070
     0
  0
VISUALSTYLE
  5
32
102
{ACAD_REACTORS
330
2A
102
}
330
2A
100
AcDbVisualStyle
  2
Basic
 70
     7
 71
     1
 72
     0
 73
     1
 90
        0
 40
-0.6
 41
-30.0
 62
     5
 63
     7
 74
     0
 91
        4
 64
     7
 65
   257
 75
     1
175
     1
 42
1.0
 92
        8
 66
     7
 43
1.0
 76
     1
 77
     6
 78
     2
 67
     7
 79
     5
170
     0
171
     0
290
     0
174
     0
 93
        1
 44
0.0
173
     0
291
     1
 45
0.0
1001
ACAD
1000
AcDbSavedByObjectVersion
1070
     0
  0
VISUALSTYLE
  5
36
102
{ACAD_REACTORS
330
2A
102
}
330
2A
100
AcDbVisualStyle
  2
Brighten
 70
    12
 71
     2
 72
     2
 73
     0
 90
        0
 40
-0.6
 41
-30.0
 62
     5
 63
     7
 74
     1
 91
        4
 64
     7
 65
   257
 75
     1
175
     1
 42
1.0
 92
        8
 66
     7
 43
1.0
 76
     1
 77
     6
 78
     2
 67
     7
 79
     5
170
     0
171
     0
290
     0
174
     0
 93
        1
 44
50.0
173
     0
291
     1
 45
0.0
1001
ACAD
1000
AcDbSavedByObjectVersion
1070
     0
  0
VISUALSTYLE
  5
3A
102
{ACAD_REACTORS
330
2A
102
}
330
2A
100
AcDbVisualStyle
  2
ColorChange
 70
    16
 71
     2
 72
     2
 73
     3
 90
        0
 40
-0.6
 41
-30.0
 62
     5
 63
     8
 74
     1
 91
        4
 64
     7
 65
   257
 75
     1
175
     1
 42
1.0
 92
        8
 66
     8
 43
1.0
 76
     1
 77
     6
 78
     2
 67
     7
 79
     5
170
     0
171
     0
290
     0
174
     0
 93
        1
 44
0.0
173
     0
291
     1
 45
0.0
1001
ACAD
1000
AcDbSavedByObjectVersion
1070
     0
  0
VISUALSTYLE
  5
34
102
{ACAD_REACTORS
330
2A
102
}
330
2A
100
AcDbVisualStyle
  2
Conceptual
 70
     9
 71
     3
 72
     2
 73
     0
 90
        0
 40
-0.6
 41
-30.0
 62
     5
 63
     7
 74
     2
 91
        2
 64
     7
 65
   257
 75
     1
175
     1
 42
40.0
 92
        8
 66
     7
 43
1.0
 76
     1
 77
     6
 78
     2
 67
     7
 79
     3
170
     0
171
     0
290
     0
174
     0
 93
        1
 44
0.0
173
     0
291
     0
 45
0.0
1001
ACAD
1000
AcDbSavedByObjectVersion
1070
     0
  0
VISUALSTYLE
  5
35
102
{ACAD_REACTORS
330
2A
102
}
330
2A
100
AcDbVisualStyle
  2
Dim
 70
    11
 71
     2
 72
     2
 73
     0
 90
        0
 40
-0.6
 41
-30.0
 62
     5
 63
     7
 74
     1
 91
        4
 64
     7
 65
   257
 75
     1
175
     1
 42
1.0
 92
        8
 66
     7
 43
1.0
 76
     1
 77
     6
 78
     2
 67
     7
 79
     5
170
     0
171
     0
290
     0
174
     0
 93
        1
 44
-50.0
173
     0
291
     1
 45
0.0
1001
ACAD
1000
AcDbSavedByObjectVersion
1070
     0
  0
VISUALSTYLE
  5
39
102
{ACAD_REACTORS
330
2A
102
}
330
2A
100
AcDbVisualStyle
  2
Facepattern
 70
    15
 71
     2
 72
     2
 73
     0
 90
        0
 40
-0.6
 41
-30.0
 62
     5
 63
     7
 74
     1
 91
        4
 64
     7
 65
   257
 75
     1
175
     1
 42
1.0
 92
        8
 66
     7
 43
1.0
 76
     1
 77
     6
 78
     2
 67
     7
 79
     5
170
     0
171
     0
290
     0
174
     0
 93
        1
 44
0.0
173
     0
291
     1
 45
0.0
1001
ACAD
1000
AcDbSavedByObjectVersion
1070
     0
  0
VISUALSTYLE
  5
2B
102
{ACAD_REACTORS
330
2A
102
}
330
2A
100
AcDbVisualStyle
  2
Flat
 70
     0
 71
     2
 72
     1
 73
     1
 90
        2
 40
-0.6
 41
30.0
 62
     5
 63
     7
 74
     0
 91
        4
 64
     7
 65
   257
 75
     1
175
     1
 42
1.0
 92
        8
 66
     7
 43
1.0
 76
     1
 77
     6
 78
     2
 67
     7
 79
     5
170
     0
171
     0
290
     0
174
     0
 93
       13
 44
0.0
173
     0
291
     1
 45
0.0
1001
ACAD
1000
AcDbSavedByObjectVersion
1070
     0
  0
VISUALSTYLE
  5
2C
102
{ACAD_REACTORS
330
2A
102
}
330
2A
100
AcDbVisualStyle
  2
FlatWithEdges
 70
     1
 71
     2
 72
     1
 73
     1
 90
        2
 40
-0.6
 41
30.0
 62
     5
 63
     7
 74
     1
 91
        4
 64
     7
 65
   257
 75
     1
175
     1
 42
1.0
 92
        0
 66
   257
 43
1.0
 76
     1
 77
     6
 78
     2
 67
     7
 79
     5
170
     0
171
     0
290
     0
174
     0
 93
       13
 44
0.0
173
     0
291
     1
 45
0.0
1001
ACAD
1000
AcDbSavedByObjectVersion
1070
     0
  0
VISUALSTYLE
  5
2D
102
{ACAD_REACTORS
330
2A
102
}
330
2A
100
AcDbVisualStyle
  2
Gouraud
 70
     2
 71
     2
 72
     2
 73
     1
 90
        2
 40
-0.6
 41
30.0
 62
     5
 63
     7
 74
     0
 91
        4
 64
     7
 65
   257
 75
     1
175
     1
 42
1.0
 92
        0
 66
     7
 43
1.0
 76
     1
 77
     6
 78
     2
 67
     7
 79
     5
170
     0
171
     0
290
     0
174
     0
 93
       13
 44
0.0
173
     0
291
     1
 45
0.0
1001
ACAD
1000
AcDbSavedByObjectVersion
1070
     0
  0
VISUALSTYLE
  5
2E
102
{ACAD_REACTORS
330
2A
102
}
330
2A
100
AcDbVisualStyle
  2
GouraudWithEdges
 70
     3
 71
     2
 72
     2
 73
     1
 90
        2
 40
-0.6
 41
30.0
 62
     5
 63
     7
 74
     1
 91
        4
 64
     7
 65
   257
 75
     1
175
     1
 42
1.0
 92
        0
 66
   257
 43
1.0
 76
     1
 77
     6
 78
     2
 67
     7
 79
     5
170
     0
171
     0
290
     0
174
     0
 93
       13
 44
0.0
173
     0
291
     1
 45
0.0
1001
ACAD
1000
AcDbSavedByObjectVersion
1070
     0
  0
VISUALSTYLE
  5
38
102
{ACAD_REACTORS
330
2A
102
}
330
2A
100
AcDbVisualStyle
  2
Linepattern
 70
    14
 71
     2
 72
     2
 73
     0
 90
        0
 40
-0.6
 41
-30.0
 62
     5
 63
     7
 74
     1
 91
        4
 64
     7
 65
   257
 75
     7
175
     7
 42
1.0
 92
        8
 66
     7
 43
1.0
 76
     1
 77
     6
 78
     2
 67
     7
 79
     5
170
     0
171
     0
290
     0
174
     0
 93
        1
 44
0.0
173
     0
291
     1
 45
0.0
1001
ACAD
1000
AcDbSavedByObjectVersion
1070
     0
  0
VISUALSTYLE
  5
33
102
{ACAD_REACTORS
330
2A
102
}
330
2A
100
AcDbVisualStyle
  2
Realistic
 70
     8
 71
     2
 72
     2
 73
     0
 90
        0
 40
-0.6
 41
-30.0
 62
     5
 63
     7
 74
     1
 91
        0
 64
     7
 65
   257
 75
     1
175
     1
 42
1.0
 92
        8
 66
     8
 43
1.0
 76
     1
 77
     6
 78
     2
 67
     7
 79
     5
170
     0
171
     0
290
     0
174
     0
 93
       13
 44
0.0
173
     0
291
     0
 45
0.0
1001
ACAD
1000
AcDbSavedByObjectVersion
1070
     0
  0
VISUALSTYLE
  5
37
102
{ACAD_REACTORS
330
2A
102
}
330
2A
100
AcDbVisualStyle
  2
Thicken
 70
    13
 71
     2
 72
     2
 73
     0
 90
        0
 40
-0.6
 41
-30.0
 62
     5
 63
     7
 74
     1
 91
        4
 64
     7
 65
   257
 75
     1
175
     1
 42
1.0
 92
       12
 66
     7
 43
1.0
 76
     1
 77
     6
 78
     2
 67
     7
 79
     5
170
     0
171
     0
290
     0
174
     0
 93
        1
 44
0.0
173
     0
291
     1
 45
0.0
1001
ACAD
1000
AcDbSavedByObjectVersion
1070
     0
  0
XRECORD
  5
1C6
102
{ACAD_REACTORS
330
1BD
102
}
330
1BD
100
AcDbXrecord
 90
        0
  0
XRECORD
  5
1DC
102
{ACAD_REACTORS
330
1BD
102
}
330
1BD
100
AcDbXrecord
1000
DSTYLE
1002
{
1070
   279
 70
     2
1070
   340
340
11
1002
}
  0
XRECORD
  5
1C7
102
{ACAD_REACTORS
330
1BD
102
}
330
1BD
100
AcDbXrecord
  1
{286599B2-F0B5-42BA-9AC6-6A2806266DF6}
  0
XRECORD
  5
1C0
102
{ACAD_REACTORS
330
1BD
102
}
330
1BD
100
AcDbXrecord
  1

  0
XRECORD
  5
1C5
102
{ACAD_REACTORS
330
1BD
102
}
330
1BD
100
AcDbXrecord
 90
        1
  0
XRECORD
  5
1C2
102
{ACAD_REACTORS
330
1BD
102
}
330
1BD
100
AcDbXrecord
340
1A
  0
XRECORD
  5
1C4
102
{ACAD_REACTORS
330
1BD
102
}
330
1BD
100
AcDbXrecord
 90
    10781
  0
XRECORD
  5
1C3
102
{ACAD_REACTORS
330
1BD
102
}
330
1BD
100
AcDbXrecord
340
19
  0
XRECORD
  5
1C9
102
{ACAD_REACTORS
330
1BD
102
}
330
1BD
100
AcDbXrecord
 40
0.0
  0
XRECORD
  5
1CC
102
{ACAD_REACTORS
330
1BD
102
}
330
1BD
100
AcDbXrecord
340
0
  0
XRECORD
  5
1D2
102
{ACAD_REACTORS
330
1BD
102
}
330
1BD
100
AcDbXrecord
 10
0.0
 20
0.0
 30
0.0
  0
XRECORD
  5
1CE
102
{ACAD_REACTORS
330
1BD
102
}
330
1BD
100
AcDbXrecord
 10
0.0
 20
0.0
 30
0.0
  0
XRECORD
  5
1D1
102
{ACAD_REACTORS
330
1BD
102
}
330
1BD
100
AcDbXrecord
 10
0.0
 20
0.0
 30
0.0
  0
XRECORD
  5
1CF
102
{ACAD_REACTORS
330
1BD
102
}
330
1BD
100
AcDbXrecord
 10
0.0
 20
0.0
 30
0.0
  0
XRECORD
  5
1D0
102
{ACAD_REACTORS
330
1BD
102
}
330
1BD
100
AcDbXrecord
 10
0.0
 20
0.0
 30
0.0
  0
XRECORD
  5
1CD
102
{ACAD_REACTORS
330
1BD
102
}
330
1BD
100
AcDbXrecord
 10
0.0
 20
0.0
 30
0.0
  0
XRECORD
  5
1CA
102
{ACAD_REACTORS
330
1BD
102
}
330
1BD
100
AcDbXrecord
340
0
  0
XRECORD
  5
1CB
102
{ACAD_REACTORS
330
1BD
102
}
330
1BD
100
AcDbXrecord
 70
     0
  0
XRECORD
  5
1C1
102
{ACAD_REACTORS
330
1BD
102
}
330
1BD
100
AcDbXrecord
  1

  0
XRECORD
  5
1BE
102
{ACAD_REACTORS
330
1BD
102
}
330
1BD
100
AcDbXrecord
 90
        1
  0
XRECORD
  5
1BF
102
{ACAD_REACTORS
330
1BD
102
}
330
1BD
100
AcDbXrecord
 90
       70
  0
XRECORD
  5
1D5
102
{ACAD_REACTORS
330
1BD
102
}
330
1BD
100
AcDbXrecord
340
0
  0
XRECORD
  5
1DB
102
{ACAD_REACTORS
330
1BD
102
}
330
1BD
100
AcDbXrecord
 10
0.0
 20
0.0
 30
0.0
  0
XRECORD
  5
1D7
102
{ACAD_REACTORS
330
1BD
102
}
330
1BD
100
AcDbXrecord
 10
0.0
 20
0.0
 30
0.0
  0
XRECORD
  5
1DA
102
{ACAD_REACTORS
330
1BD
102
}
330
1BD
100
AcDbXrecord
 10
0.0
 20
0.0
 30
0.0
  0
XRECORD
  5
1D8
102
{ACAD_REACTORS
330
1BD
102
}
330
1BD
100
AcDbXrecord
 10
0.0
 20
0.0
 30
0.0
  0
XRECORD
  5
1D9
102
{ACAD_REACTORS
330
1BD
102
}
330
1BD
100
AcDbXrecord
 10
0.0
 20
0.0
 30
0.0
  0
XRECORD
  5
1D6
102
{ACAD_REACTORS
330
1BD
102
}
330
1BD
100
AcDbXrecord
 10
0.0
 20
0.0
 30
0.0
  0
XRECORD
  5
1D3
102
{ACAD_REACTORS
330
1BD
102
}
330
1BD
100
AcDbXrecord
340
0
  0
XRECORD
  5
1D4
102
{ACAD_REACTORS
330
1BD
102
}
330
1BD
100
AcDbXrecord
 70
     0
  0
XRECORD
  5
1C8
102
{ACAD_REACTORS
330
1BD
102
}
330
1BD
100
AcDbXrecord
  1
{FAEB1C32-E019-11D5-929B-00C0DF256EC4}
  0
ENDSEC
  0
EOF
