  0
SECTION
  2
HEADER
  9
$ACADVER
  1
AC1021
  9
$ACADMAINTVER
 70
    25
  9
$DWGCODEPAGE
  3
ANSI_1252
  9
$INSBASE
 10
0.0
 20
0.0
 30
0.0
  9
$EXTMIN
 10
1.000000000000000E+20
 20
1.000000000000000E+20
 30
1.000000000000000E+20
  9
$EXTMAX
 10
-1.000000000000000E+20
 20
-1.000000000000000E+20
 30
-1.000000000000000E+20
  9
$LIMMIN
 10
0.0
 20
0.0
  9
$LIMMAX
 10
12.0
 20
9.0
  9
$ORTHOMODE
 70
     0
  9
$REGENMODE
 70
     1
  9
$FILLMODE
 70
     1
  9
$QTEXTMODE
 70
     0
  9
$MIRRTEXT
 70
     1
  9
$LTSCALE
 40
1.0
  9
$ATTMODE
 70
     1
  9
$TEXTSIZE
 40
0.2
  9
$TRACEWID
 40
0.05
  9
$TEXTSTYLE
  7
Standard
  9
$CLAYER
  8
Layer 01
  9
$CELTYPE
  6
ByLayer
  9
$CECOLOR
 62
   256
  9
$CELTSCALE
 40
1.0
  9
$DISPSILH
 70
     0
  9
$DIMSCALE
 40
1.0
  9
$DIMASZ
 40
0.18
  9
$DIMEXO
 40
0.0625
  9
$DIMDLI
 40
0.38
  9
$DIMRND
 40
0.0
  9
$DIMDLE
 40
0.0
  9
$DIMEXE
 40
0.18
  9
$DIMTP
 40
0.0
  9
$DIMTM
 40
0.0
  9
$DIMTXT
 40
0.18
  9
$DIMCEN
 40
0.09
  9
$DIMTSZ
 40
0.0
  9
$DIMTOL
 70
     0
  9
$DIMLIM
 70
     0
  9
$DIMTIH
 70
     1
  9
$DIMTOH
 70
     1
  9
$DIMSE1
 70
     0
  9
$DIMSE2
 70
     0
  9
$DIMTAD
 70
     0
  9
$DIMZIN
 70
     0
  9
$DIMBLK
  1

  9
$DIMASO
 70
     1
  9
$DIMSHO
 70
     1
  9
$DIMPOST
  1

  9
$DIMAPOST
  1

  9
$DIMALT
 70
     0
  9
$DIMALTD
 70
     2
  9
$DIMALTF
 40
25.4
  9
$DIMLFAC
 40
1.0
  9
$DIMTOFL
 70
     0
  9
$DIMTVP
 40
0.0
  9
$DIMTIX
 70
     0
  9
$DIMSOXD
 70
     0
  9
$DIMSAH
 70
     0
  9
$DIMBLK1
  1

  9
$DIMBLK2
  1

  9
$DIMSTYLE
  2
STANDARD_ACAD
  9
$DIMCLRD
 70
     0
  9
$DIMCLRE
 70
     0
  9
$DIMCLRT
 70
     0
  9
$DIMTFAC
 40
1.0
  9
$DIMGAP
 40
0.09
  9
$DIMJUST
 70
     0
  9
$DIMSD1
 70
     0
  9
$DIMSD2
 70
     0
  9
$DIMTOLJ
 70
     1
  9
$DIMTZIN
 70
     0
  9
$DIMALTZ
 70
     0
  9
$DIMALTTZ
 70
     0
  9
$DIMUPT
 70
     0
  9
$DIMDEC
 70
     4
  9
$DIMTDEC
 70
     4
  9
$DIMALTU
 70
     2
  9
$DIMALTTD
 70
     2
  9
$DIMTXSTY
  7
Standard
  9
$DIMAUNIT
 70
     0
  9
$DIMADEC
 70
     0
  9
$DIMALTRND
 40
0.0
  9
$DIMAZIN
 70
     0
  9
$DIMDSEP
 70
    46
  9
$DIMATFIT
 70
     3
  9
$DIMFRAC
 70
     0
  9
$DIMLDRBLK
  1

  9
$DIMLUNIT
 70
     2
  9
$DIMLWD
 70
    -2
  9
$DIMLWE
 70
    -2
  9
$DIMTMOVE
 70
     2
  9
$DIMFXL
 40
1.0
  9
$DIMFXLON
 70
     0
  9
$DIMJOGANG
 40
0.7853981633974483
  9
$DIMTFILL
 70
     0
  9
$DIMTFILLCLR
 70
     0
  9
$DIMARCSYM
 70
     0
  9
$DIMLTYPE
  6

  9
$DIMLTEX1
  6

  9
$DIMLTEX2
  6

  9
$LUNITS
 70
     2
  9
$LUPREC
 70
     3
  9
$SKETCHINC
 40
0.1
  9
$FILLETRAD
 40
0.5
  9
$AUNITS
 70
     0
  9
$AUPREC
 70
     0
  9
$MENU
  1
.
  9
$ELEVATION
 40
0.0
  9
$PELEVATION
 40
0.0
  9
$THICKNESS
 40
0.0
  9
$LIMCHECK
 70
     0
  9
$CHAMFERA
 40
0.0
  9
$CHAMFERB
 40
0.0
  9
$CHAMFERC
 40
0.0
  9
$CHAMFERD
 40
0.0
  9
$SKPOLY
 70
     0
  9
$TDCREATE
 40
2459535.48921647
  9
$TDUCREATE
 40
2459535.697549803
  9
$TDUPDATE
 40
2459535.489236331
  9
$TDUUPDATE
 40
2459535.697569665
  9
$TDINDWG
 40
0.0000000116
  9
$TDUSRTIMER
 40
0.0000000116
  9
$USRTIMER
 70
     1
  9
$ANGBASE
 50
0.0
  9
$ANGDIR
 70
     0
  9
$PDMODE
 70
     0
  9
$PDSIZE
 40
0.0
  9
$PLINEWID
 40
0.0
  9
$SPLFRAME
 70
     0
  9
$SPLINETYPE
 70
     6
  9
$SPLINESEGS
 70
     8
  9
$HANDSEED
  5
1BC
  9
$SURFTAB1
 70
     6
  9
$SURFTAB2
 70
     6
  9
$SURFTYPE
 70
     6
  9
$SURFU
 70
     6
  9
$SURFV
 70
     6
  9
$UCSBASE
  2

  9
$UCSNAME
  2

  9
$UCSORG
 10
0.0
 20
0.0
 30
0.0
  9
$UCSXDIR
 10
1.0
 20
0.0
 30
0.0
  9
$UCSYDIR
 10
0.0
 20
1.0
 30
0.0
  9
$UCSORTHOREF
  2

  9
$UCSORTHOVIEW
 70
     0
  9
$UCSORGTOP
 10
0.0
 20
0.0
 30
0.0
  9
$UCSORGBOTTOM
 10
0.0
 20
0.0
 30
0.0
  9
$UCSORGLEFT
 10
0.0
 20
0.0
 30
0.0
  9
$UCSORGRIGHT
 10
0.0
 20
0.0
 30
0.0
  9
$UCSORGFRONT
 10
0.0
 20
0.0
 30
0.0
  9
$UCSORGBACK
 10
0.0
 20
0.0
 30
0.0
  9
$PUCSBASE
  2

  9
$PUCSNAME
  2

  9
$PUCSORG
 10
0.0
 20
0.0
 30
0.0
  9
$PUCSXDIR
 10
1.0
 20
0.0
 30
0.0
  9
$PUCSYDIR
 10
0.0
 20
1.0
 30
0.0
  9
$PUCSORTHOREF
  2

  9
$PUCSORTHOVIEW
 70
     0
  9
$PUCSORGTOP
 10
0.0
 20
0.0
 30
0.0
  9
$PUCSORGBOTTOM
 10
0.0
 20
0.0
 30
0.0
  9
$PUCSORGLEFT
 10
0.0
 20
0.0
 30
0.0
  9
$PUCSORGRIGHT
 10
0.0
 20
0.0
 30
0.0
  9
$PUCSORGFRONT
 10
0.0
 20
0.0
 30
0.0
  9
$PUCSORGBACK
 10
0.0
 20
0.0
 30
0.0
  9
$USERI1
 70
     0
  9
$USERI2
 70
     0
  9
$USERI3
 70
     0
  9
$USERI4
 70
     0
  9
$USERI5
 70
     0
  9
$USERR1
 40
0.0
  9
$USERR2
 40
0.0
  9
$USERR3
 40
0.0
  9
$USERR4
 40
0.0
  9
$USERR5
 40
0.0
  9
$WORLDVIEW
 70
     1
  9
$SHADEDGE
 70
     3
  9
$SHADEDIF
 70
    70
  9
$TILEMODE
 70
     1
  9
$MAXACTVP
 70
    64
  9
$PINSBASE
 10
0.0
 20
0.0
 30
0.0
  9
$PLIMCHECK
 70
     0
  9
$PEXTMIN
 10
1.000000000000000E+20
 20
1.000000000000000E+20
 30
1.000000000000000E+20
  9
$PEXTMAX
 10
-1.000000000000000E+20
 20
-1.000000000000000E+20
 30
-1.000000000000000E+20
  9
$PLIMMIN
 10
0.0
 20
0.0
  9
$PLIMMAX
 10
12.0
 20
9.0
  9
$UNITMODE
 70
     0
  9
$VISRETAIN
 70
     1
  9
$PLINEGEN
 70
     0
  9
$PSLTSCALE
 70
     1
  9
$TREEDEPTH
 70
  3020
  9
$CMLSTYLE
  2
Standard
  9
$CMLJUST
 70
     0
  9
$CMLSCALE
 40
1.0
  9
$PROXYGRAPHICS
 70
     1
  9
$MEASUREMENT
 70
     0
  9
$CELWEIGHT
370
    -1
  9
$ENDCAPS
280
     0
  9
$JOINSTYLE
280
     0
  9
$LWDISPLAY
290
     0
  9
$INSUNITS
 70
     1
  9
$HYPERLINKBASE
  1

  9
$STYLESHEET
  1

  9
$XEDIT
290
     1
  9
$CEPSNTYPE
380
     0
  9
$PSTYLEMODE
290
     1
  9
$FINGERPRINTGUID
  2
{f0905f8b-8b85-41f7-8a0e-64efe3288ebe}
  9
$VERSIONGUID
  2
{FAEB1C32-E019-11D5-929B-00C0DF256EC4}
  9
$EXTNAMES
290
     1
  9
$PSVPSCALE
 40
0.0
  9
$OLESTARTUP
290
     0
  9
$SORTENTS
280
   127
  9
$INDEXCTL
280
     0
  9
$HIDETEXT
280
     1
  9
$XCLIPFRAME
290
     0
  9
$HALOGAP
280
     0
  9
$OBSCOLOR
 70
   257
  9
$OBSLTYPE
280
     0
  9
$INTERSECTIONDISPLAY
280
     0
  9
$INTERSECTIONCOLOR
 70
   257
  9
$DIMASSOC
280
     2
  9
$PROJECTNAME
  1

  9
$CAMERADISPLAY
290
     0
  9
$LENSLENGTH
 40
50.0
  9
$CAMERAHEIGHT
 40
0.0
  9
$STEPSPERSEC
 40
2.0
  9
$STEPSIZE
 40
6.0
  9
$3DDWFPREC
 40
2.0
  9
$PSOLWIDTH
 40
0.25
  9
$PSOLHEIGHT
 40
4.0
  9
$LOFTANG1
 40
1.570796326794897
  9
$LOFTANG2
 40
1.570796326794897
  9
$LOFTMAG1
 40
0.0
  9
$LOFTMAG2
 40
0.0
  9
$LOFTPARAM
 70
     7
  9
$LOFTNORMALS
280
     1
  9
$LATITUDE
 40
37.795
  9
$LONGITUDE
 40
-122.394
  9
$NORTHDIRECTION
 40
0.0
  9
$TIMEZONE
 70
 -8000
  9
$LIGHTGLYPHDISPLAY
280
     1
  9
$TILEMODELIGHTSYNCH
280
     1
  9
$CMATERIAL
347
44
  9
$SOLIDHIST
280
     0
  9
$SHOWHIST
280
     1
  9
$DWFFRAME
280
     2
  9
$DGNFRAME
280
     2
  9
$REALWORLDSCALE
290
     1
  9
$INTERFERECOLOR
 62
   256
  9
$CSHADOW
280
     0
  9
$SHADOWPLANELOCATION
 40
0.0
  0
ENDSEC
  0
SECTION
  2
CLASSES
  0
CLASS
  1
ACDBDICTIONARYWDFLT
  2
AcDbDictionaryWithDefault
  3
ObjectDBX Classes
 90
        0
 91
        3
280
     0
281
     0
  0
CLASS
  1
VISUALSTYLE
  2
AcDbVisualStyle
  3
ObjectDBX Classes
 90
     4095
 91
        3
280
     0
281
     0
  0
CLASS
  1
MATERIAL
  2
AcDbMaterial
  3
ObjectDBX Classes
 90
     1153
 91
        3
280
     0
281
     0
  0
CLASS
  1
SCALE
  2
AcDbScale
  3
ObjectDBX Classes
 90
     1153
 91
        3
280
     0
281
     0
  0
CLASS
  1
TABLESTYLE
  2
AcDbTableStyle
  3
ObjectDBX Classes
 90
     4095
 91
        3
280
     0
281
     0
  0
CLASS
  1
MLEADERSTYLE
  2
AcDbMLeaderStyle
  3
ACDB_MLEADERSTYLE_CLASS
 90
     4095
 91
        3
280
     0
281
     0
  0
CLASS
  1
SUN
  2
AcDbSun
  3
SCENEOE
 90
     1153
 91
        3
280
     0
281
     0
  0
CLASS
  1
DICTIONARYVAR
  2
AcDbDictionaryVar
  3
ObjectDBX Classes
 90
        0
 91
        3
280
     0
281
     0
  0
CLASS
  1
CELLSTYLEMAP
  2
AcDbCellStyleMap
  3
ObjectDBX Classes
 90
     1152
 91
        3
280
     0
281
     0
  0
ENDSEC
  0
SECTION
  2
TABLES
  0
TABLE
  2
VPORT
  5
8
330
0
100
AcDbSymbolTable
 70
     1
  0
VPORT
  5
29
330
8
100
AcDbSymbolTableRecord
100
AcDbViewportTableRecord
  2
*Active
 70
     0
 10
0.0
 20
0.0
 11
1.0
 21
1.0
 12
10.42990654205607
 22
4.5
 13
0.0
 23
0.0
 14
0.5
 24
0.5
 15
0.5
 25
0.5
 16
0.0
 26
0.0
 36
1.0
 17
0.0
 27
0.0
 37
0.0
 40
9.0
 41
1.972972972850329
 42
50.0
 43
0.0
 44
0.0
 50
0.0
 51
0.0
 71
     0
 72
   100
 73
     1
 74
     3
 75
     0
 76
     0
 77
     0
 78
     0
281
     0
 65
     1
110
0.0
120
0.0
130
0.0
111
1.0
121
0.0
131
0.0
112
0.0
122
1.0
132
0.0
 79
     0
146
0.0
348
2F
 60
     3
 61
     5
292
     1
282
     1
141
0.0
142
0.0
 63
   250
361
6D
  0
ENDTAB
  0
TABLE
  2
LTYPE
  5
5
330
0
100
AcDbSymbolTable
 70
     1
  0
LTYPE
  5
14
330
5
100
AcDbSymbolTableRecord
100
AcDbLinetypeTableRecord
  2
ByBlock
 70
     0
  3

 72
    65
 73
     0
 40
0.0
  0
LTYPE
  5
15
330
5
100
AcDbSymbolTableRecord
100
AcDbLinetypeTableRecord
  2
ByLayer
 70
     0
  3

 72
    65
 73
     0
 40
0.0
  0
LTYPE
  5
16
330
5
100
AcDbSymbolTableRecord
100
AcDbLinetypeTableRecord
  2
Continuous
 70
     0
  3
Solid line
 72
    65
 73
     0
 40
0.0
  0
ENDTAB
  0
TABLE
  2
LAYER
  5
2
330
0
100
AcDbSymbolTable
 70
     2
  0
LAYER
  5
10
330
2
100
AcDbSymbolTableRecord
100
AcDbLayerTableRecord
  2
0
 70
     0
 62
     7
  6
Continuous
370
    -3
390
F
347
46
  0
LAYER
  5
6E
330
2
100
AcDbSymbolTableRecord
100
AcDbLayerTableRecord
  2
Layer 01
 70
     0
 62
    18
420
        0
  6
Continuous
370
    -3
390
F
347
46
  0
ENDTAB
  0
TABLE
  2
STYLE
  5
3
330
0
100
AcDbSymbolTable
 70
     1
  0
STYLE
  5
11
330
3
100
AcDbSymbolTableRecord
100
AcDbTextStyleTableRecord
  2
Standard
 70
     0
 40
0.0
 41
1.0
 50
0.0
 71
     0
 42
0.2
  3
txt
  4

  0
ENDTAB
  0
TABLE
  2
VIEW
  5
6
330
0
100
AcDbSymbolTable
 70
     0
  0
ENDTAB
  0
TABLE
  2
UCS
  5
7
330
0
100
AcDbSymbolTable
 70
     0
  0
ENDTAB
  0
TABLE
  2
APPID
  5
9
330
0
100
AcDbSymbolTable
 70
     2
  0
APPID
  5
12
330
9
100
AcDbSymbolTableRecord
100
AcDbRegAppTableRecord
  2
ACAD
 70
     0
  0
APPID
  5
1B4
330
9
100
AcDbSymbolTableRecord
100
AcDbRegAppTableRecord
  2
ACAD_MLEADERVER
 70
     0
  0
ENDTAB
  0
TABLE
  2
DIMSTYLE
  5
A
330
0
100
AcDbSymbolTable
 70
     1
100
AcDbDimStyleTable
  0
DIMSTYLE
105
27
330
A
100
AcDbSymbolTableRecord
100
AcDbDimStyleTableRecord
  2
STANDARD_ACAD
 70
     0
178
     0
340
11
  0
ENDTAB
  0
TABLE
  2
BLOCK_RECORD
  5
1
330
0
100
AcDbSymbolTable
 70
     1
  0
BLOCK_RECORD
  5
1F
330
1
100
AcDbSymbolTableRecord
100
AcDbBlockTableRecord
  2
*Model_Space
340
22
 70
     0
280
     1
281
     0
  0
BLOCK_RECORD
  5
1B
330
1
100
AcDbSymbolTableRecord
100
AcDbBlockTableRecord
  2
*Paper_Space
340
1E
 70
     0
280
     1
281
     0
  0
BLOCK_RECORD
  5
23
330
1
100
AcDbSymbolTableRecord
100
AcDbBlockTableRecord
  2
*Paper_Space0
340
26
 70
     0
280
     1
281
     0
  0
ENDTAB
  0
ENDSEC
  0
SECTION
  2
BLOCKS
  0
BLOCK
  5
20
330
1F
100
AcDbEntity
  8
0
100
AcDbBlockBegin
  2
*Model_Space
 70
     0
 10
0.0
 20
0.0
 30
0.0
  3
*Model_Space
  1

  0
ENDBLK
  5
21
330
1F
100
AcDbEntity
  8
0
100
AcDbBlockEnd
  0
BLOCK
  5
1C
330
1B
100
AcDbEntity
 67
     1
  8
0
100
AcDbBlockBegin
  2
*Paper_Space
 70
     0
 10
0.0
 20
0.0
 30
0.0
  3
*Paper_Space
  1

  0
ENDBLK
  5
1D
330
1B
100
AcDbEntity
 67
     1
  8
0
100
AcDbBlockEnd
  0
BLOCK
  5
24
330
23
100
AcDbEntity
  8
0
100
AcDbBlockBegin
  2
*Paper_Space0
 70
     0
 10
0.0
 20
0.0
 30
0.0
  3
*Paper_Space0
  1

  0
ENDBLK
  5
25
330
23
100
AcDbEntity
  8
0
100
AcDbBlockEnd
  0
ENDSEC
  0
SECTION
  2
ENTITIES
  0
LINE
  5
6F
330
1F
100
AcDbEntity
  8
Layer 01
 62
    18
420
        0
370
    -3
100
AcDbLine
 10
27.16218996386482
 20
2.94710355638
 30
0.0
 11
27.15968427665481
 21
2.660000000000001
 31
0.0
  0
SPLINE
  5
70
330
1F
100
AcDbEntity
  8
Layer 01
 62
    18
420
        0
370
    -3
100
AcDbSpline
210
0.0
220
0.0
230
1.0
 70
    24
 71
     3
 72
    15
 73
    11
 74
     0
 42
0.000000001
 43
0.0000000001
 40
-1.916782829577127
 40
-1.916782829577127
 40
-1.916782829577127
 40
-1.916782829577127
 40
-1.716935017517749
 40
-1.517087157810928
 40
-1.317239298104107
 40
-1.117391438397286
 40
-0.9175435786904655
 40
-0.7176957189836448
 40
-0.5178478592768241
 40
-0.3179999995700031
 40
-0.3179999995700031
 40
-0.3179999995700031
 40
-0.3179999995700031
 10
27.15968427665481
 20
2.660000000000001
 30
0.0
 10
27.15717858323524
 20
2.66
 30
0.0
 10
27.13113384786786
 20
2.66
 30
0.0
 10
27.01993921005482
 20
2.66
 30
0.0
 10
26.85350096248482
 20
2.66
 30
0.0
 10
26.6571785529548
 20
2.66
 30
0.0
 10
26.46085614157479
 20
2.66
 30
0.0
 10
26.2944178995248
 20
2.66
 30
0.0
 10
26.18322323264482
 20
2.66
 30
0.0
 10
26.15717855015481
 20
2.66
 30
0.0
 10
26.15717855139982
 20
2.659999999999999
 30
0.0
  0
LINE
  5
71
330
1F
100
AcDbEntity
  8
Layer 01
 62
    18
420
        0
370
    -3
100
AcDbLine
 10
26.15717855139982
 20
2.659999999999999
 30
0.0
 11
26.15717855264481
 21
2.977999999570001
 31
0.0
  0
SPLINE
  5
72
330
1F
100
AcDbEntity
  8
Layer 01
 62
    18
420
        0
370
    -3
100
AcDbSpline
210
0.0
220
0.0
230
1.0
 70
     8
 71
     3
 72
    13
 73
     9
 74
     0
 42
0.000000001
 43
0.0000000001
 40
0.0
 40
0.0
 40
0.0
 40
0.0
 40
0.2819885000087054
 40
0.5639770000171852
 40
0.8459655018017416
 40
1.127954003586523
 40
1.691931004452155
 40
2.255908008021268
 40
2.255908008021268
 40
2.255908008021268
 40
2.255908008021268
 10
26.15717855264481
 20
2.977999999570001
 30
0.0
 10
26.15717855264481
 20
3.057424956769001
 30
0.0
 10
26.16578971020482
 20
3.221742408836
 30
0.0
 10
26.21033698450481
 20
3.478958137286
 30
0.0
 10
26.29581082382481
 20
3.735734964666001
 30
0.0
 10
26.4688332758748
 20
4.064479903449001
 30
0.0
 10
26.79551609191481
 20
4.426578588035001
 30
0.0
 10
27.15710173436483
 20
4.621687079688
 30
0.0
 10
27.3543684867148
 20
4.694330100417
 30
0.0
  0
LINE
  5
73
330
1F
100
AcDbEntity
  8
Layer 01
 62
    18
420
        0
370
    -3
100
AcDbLine
 10
27.3543684867148
 20
4.694330100417
 30
0.0
 11
38.08669446742471
 21
8.56792716127118
 31
0.0
  0
SPLINE
  5
74
330
1F
100
AcDbEntity
  8
Layer 01
 62
    18
420
        0
370
    -3
100
AcDbSpline
210
0.0
220
0.0
230
1.0
 70
     8
 71
     3
 72
     8
 73
     4
 74
     0
 42
0.000000001
 43
0.0000000001
 40
3.359679226953278
 40
3.359679226953278
 40
3.359679226953278
 40
3.359679226953278
 40
4.359679226953277
 40
4.359679226953277
 40
4.359679226953277
 40
4.359679226953277
 10
38.08669446742471
 20
8.56792716127118
 30
0.0
 10
38.29268212660415
 20
8.64227387722109
 30
0.0
 10
38.40594182176798
 20
8.816441924870619
 30
0.0
 10
38.40594182176798
 20
9.038343371197058
 30
0.0
  0
ARC
  5
75
330
1F
100
AcDbEntity
  8
Layer 01
 62
    18
420
        0
370
    -3
100
AcDbCircle
 10
-38.55456812193952
 20
8.214041224502473
 30
0.0
 40
0.1726372984835197
210
0.0
220
0.0
230
-1.0
100
AcDbArc
 50
116.2275098422732
 51
221.391122200145
  0
SPLINE
  5
76
330
1F
100
AcDbEntity
  8
Layer 01
 62
    18
420
        0
370
    -3
100
AcDbSpline
210
0.0
220
0.0
230
1.0
 70
     8
 71
     3
 72
     8
 73
     4
 74
     0
 42
0.000000001
 43
0.0000000001
 40
1.386605877429086
 40
1.386605877429086
 40
1.386605877429086
 40
1.386605877429086
 40
11.70382074254408
 40
11.70382074254408
 40
11.70382074254408
 40
11.70382074254408
 10
38.6840829588387
 20
8.099894197161996
 30
0.0
 10
37.66740329395384
 20
6.946337209790697
 30
0.0
 10
36.63494380999944
 20
5.754564577297664
 30
0.0
 10
35.5864858447886
 20
4.550134624661659
 30
0.0
  0
SPLINE
  5
77
330
1F
100
AcDbEntity
  8
Layer 01
 62
    18
420
        0
370
    -3
100
AcDbSpline
210
0.0
220
0.0
230
1.0
 70
     8
 71
     3
 72
    16
 73
    12
 74
     0
 42
0.000000001
 43
0.0000000001
 40
11.70382074254408
 40
11.70382074254408
 40
11.70382074254408
 40
11.70382074254408
 40
12.70382074254408
 40
13.70382074254408
 40
14.70382074254408
 40
14.70382074254408
 40
14.70382074254408
 40
15.00896327010301
 40
15.00896327010301
 40
15.00896327010301
 40
16.33796063910242
 40
16.33796063910242
 40
16.33796063910242
 40
16.33796063910242
 10
35.5864858447886
 20
4.550134624661659
 30
0.0
 10
35.46387127091074
 20
4.409279511430207
 30
0.0
 10
35.29493536785162
 20
4.072909368259662
 30
0.0
 10
35.18584359809833
 20
3.523051663340835
 30
0.0
 10
35.16760437911736
 20
3.151076826494333
 30
0.0
 10
35.16760437911736
 20
2.96514252755893
 30
0.0
 10
35.16760437911736
 20
2.863428351705954
 30
0.0
 10
35.16760437911736
 20
2.761714175852977
 30
0.0
 10
35.16760437911736
 20
2.66
 30
0.0
 10
35.50093079988687
 20
2.66
 30
0.0
 10
35.83425722065641
 20
2.66
 30
0.0
 10
36.16758364142595
 20
2.66
 30
0.0
  0
LINE
  5
78
330
1F
100
AcDbEntity
  8
Layer 01
 62
    18
420
        0
370
    -3
100
AcDbLine
 10
36.16758364142595
 20
2.66
 30
0.0
 11
36.16758364142595
 21
2.959054780787676
 31
0.0
  0
SPLINE
  5
79
330
1F
100
AcDbEntity
  8
Layer 01
 62
    18
420
        0
370
    -3
100
AcDbSpline
210
0.0
220
0.0
230
1.0
 70
     8
 71
     3
 72
    10
 73
     6
 74
     0
 42
0.000000001
 43
0.0000000001
 40
16.6370154198901
 40
16.6370154198901
 40
16.6370154198901
 40
16.6370154198901
 40
17.6370154198901
 40
18.6370154198901
 40
19.60628460233125
 40
19.60628460233125
 40
19.60628460233125
 40
19.60628460233125
 10
36.16758364142595
 20
2.959054780787676
 30
0.0
 10
36.16758364142595
 20
3.057656589661288
 30
0.0
 10
36.17617384758776
 20
3.255044948166628
 30
0.0
 10
36.21005040054672
 20
3.54578753928809
 30
0.0
 10
36.25196176307307
 20
3.736732677405545
 30
0.0
 10
36.29210790916099
 20
3.823657386686779
 30
0.0
  0
LINE
  5
7A
330
1F
100
AcDbEntity
  8
Layer 01
 62
    18
420
        0
370
    -3
100
AcDbLine
 10
36.29210790916099
 20
3.823657386686779
 30
0.0
 11
39.21024738367919
 21
6.361091168969759
 31
0.0
  0
SPLINE
  5
7B
330
1F
100
AcDbEntity
  8
Layer 01
 62
    18
420
        0
370
    -3
100
AcDbSpline
210
0.0
220
0.0
230
1.0
 70
     8
 71
     3
 72
     8
 73
     4
 74
     0
 42
0.000000001
 43
0.0000000001
 40
20.60834143197916
 40
20.60834143197916
 40
20.60834143197916
 40
20.60834143197916
 40
21.60834143197916
 40
21.60834143197916
 40
21.60834143197916
 40
21.60834143197916
 10
39.21024738367919
 20
6.361091168969759
 30
0.0
 10
39.74468898654544
 20
6.825808564972281
 30
0.0
 10
40.56631842021366
 20
6.56323336136311
 30
0.0
 10
41.37727399599285
 20
6.298976430573436
 30
0.0
  0
SPLINE
  5
7C
330
1F
100
AcDbEntity
  8
Layer 01
 62
    18
420
        0
370
    -3
100
AcDbSpline
210
0.0
220
0.0
230
1.0
 70
    24
 71
     2
 72
     6
 73
     3
 74
     0
 42
0.000000001
 43
0.0000000001
 40
21.60834143197916
 40
21.60834143197916
 40
21.60834143197916
 40
22.60834143197916
 40
22.60834143197916
 40
22.60834143197916
 10
41.37727399599285
 20
6.298976430573436
 30
0.0
 10
45.33450774678411
 20
5.009477379535237
 30
0.0
 10
49.29174149757537
 20
3.719978328497037
 30
0.0
  0
SPLINE
  5
7D
330
1F
100
AcDbEntity
  8
Layer 01
 62
    18
420
        0
370
    -3
100
AcDbSpline
210
0.0
220
0.0
230
1.0
 70
     8
 71
     3
 72
    10
 73
     6
 74
     0
 42
0.000000001
 43
0.0000000001
 40
22.60834143197916
 40
22.60834143197916
 40
22.60834143197916
 40
22.60834143197916
 40
23.60834143197916
 40
24.60834143197916
 40
25.60834143197916
 40
25.60834143197916
 40
25.60834143197916
 40
25.60834143197916
 10
49.29174149757537
 20
3.719978328497037
 30
0.0
 10
49.39085117164655
 20
3.687682578811303
 30
0.0
 10
49.57628299644983
 20
3.545913869899429
 30
0.0
 10
49.71081252307349
 20
3.261053243588954
 30
0.0
 10
49.74275526383778
 20
3.054905350518871
 30
0.0
 10
49.74275526383778
 20
2.951502799791164
 30
0.0
  0
LINE
  5
7E
330
1F
100
AcDbEntity
  8
Layer 01
 62
    18
420
        0
370
    -3
100
AcDbLine
 10
49.74275526383778
 20
2.951502799791164
 30
0.0
 11
49.74275526383772
 21
2.66
 31
0.0
  0
LINE
  5
7F
330
1F
100
AcDbEntity
  8
Layer 01
 62
    18
420
        0
370
    -3
100
AcDbLine
 10
49.74275526383772
 20
2.66
 30
0.0
 11
50.74672698683662
 21
2.66
 31
0.0
  0
LINE
  5
80
330
1F
100
AcDbEntity
  8
Layer 01
 62
    18
420
        0
370
    -3
100
AcDbLine
 10
50.74672698683662
 20
2.66
 30
0.0
 11
50.74592723413807
 21
2.97205977835274
 31
0.0
  0
SPLINE
  5
81
330
1F
100
AcDbEntity
  8
Layer 01
 62
    18
420
        0
370
    -3
100
AcDbSpline
210
0.0
220
0.0
230
1.0
 70
     8
 71
     3
 72
    10
 73
     6
 74
     0
 42
0.000000001
 43
0.0000000001
 40
28.10489049688844
 40
28.10489049688844
 40
28.10489049688844
 40
28.10489049688844
 40
29.10489049688844
 40
30.10489049688844
 40
31.10489049688844
 40
31.10489049688844
 40
31.10489049688844
 40
31.10489049688844
 10
50.74592723413807
 20
2.97205977835274
 30
0.0
 10
50.74521213931118
 20
3.205827458050116
 30
0.0
 10
50.68236435065089
 20
3.676658268527276
 30
0.0
 10
50.33342911614128
 20
4.303353535194909
 30
0.0
 10
49.94743296938461
 20
4.587576935805236
 30
0.0
 10
49.73377544296571
 20
4.683581636010758
 30
0.0
  0
LINE
  5
82
330
1F
100
AcDbEntity
  8
Layer 01
 62
    18
420
        0
370
    -3
100
AcDbLine
 10
49.73377544296571
 20
4.683581636010758
 30
0.0
 11
41.1946156003776
 21
8.488734560984394
 31
0.0
  0
SPLINE
  5
83
330
1F
100
AcDbEntity
  8
Layer 01
 62
    18
420
        0
370
    -3
100
AcDbSpline
210
0.0
220
0.0
230
1.0
 70
     8
 71
     3
 72
     8
 73
     4
 74
     0
 42
0.000000001
 43
0.0000000001
 40
32.1879718645672
 40
32.1879718645672
 40
32.1879718645672
 40
32.1879718645672
 40
33.1879718645672
 40
33.1879718645672
 40
33.1879718645672
 40
33.1879718645672
 10
41.1946156003776
 20
8.488734560984394
 30
0.0
 10
41.00943079501164
 20
8.57125515045557
 30
0.0
 10
40.98841528352162
 20
8.797170536089848
 30
0.0
 10
40.98841528352162
 20
9.038343371197058
 30
0.0
  0
SPLINE
  5
84
330
1F
100
AcDbEntity
  8
Layer 01
 62
    18
420
        0
370
    -3
100
AcDbSpline
210
0.0
220
0.0
230
1.0
 70
     8
 71
     3
 72
    11
 73
     7
 74
     0
 42
0.000000001
 43
0.0000000001
 40
-1.047599960560763
 40
-1.047599960560763
 40
-1.047599960560763
 40
-1.047599960560763
 40
-0.7856999713438224
 40
-0.5237999804773305
 40
-0.2618999908663871
 40
0.0
 40
0.0
 40
0.0
 40
0.0
 10
27.16218996386482
 20
2.94710355638
 30
0.0
 10
27.16305545329891
 20
3.04627199749716
 30
0.0
 10
27.20398079142481
 20
3.231559583542001
 30
0.0
 10
27.3360828786048
 20
3.451293778943
 30
0.0
 10
27.52018013529479
 20
3.615147057935001
 30
0.0
 10
27.67483978971484
 20
3.684782353291901
 30
0.0
 10
27.7583865614248
 20
3.70677838263
 30
0.0
  0
SPLINE
  5
85
330
1F
100
AcDbEntity
  8
Layer 01
 62
    18
420
        0
370
    -3
100
AcDbSpline
210
0.0
220
0.0
230
1.0
 70
    24
 71
     2
 72
     6
 73
     3
 74
     0
 42
0.000000001
 43
0.0000000001
 40
0.0
 40
0.0
 40
0.0
 40
1.0
 40
1.0
 40
1.0
 10
36.96029317542821
 20
6.129438213827797
 30
0.0
 10
32.35933986842652
 20
4.918108298228899
 30
0.0
 10
27.75838656142483
 20
3.70677838263
 30
0.0
  0
SPLINE
  5
86
330
1F
100
AcDbEntity
  8
Layer 01
 62
    18
420
        0
370
    -3
100
AcDbSpline
210
0.0
220
0.0
230
1.0
 70
    28
 71
     2
 72
     6
 73
     3
 74
     0
 42
0.000000001
 43
0.0000000001
 40
0.1335621904161464
 40
0.1335621904161464
 40
0.1335621904161464
 40
1.413562190416147
 40
1.413562190416147
 40
1.413562190416147
 10
27.01655355264526
 20
1.280000000000001
 30
0.0
 41
1.0
 10
27.01655355264526
 20
1.92
 30
0.0
 41
1.0
 10
27.01655355264526
 20
2.559999999999999
 30
0.0
 41
1.0
  0
LINE
  5
87
330
1F
100
AcDbEntity
  8
Layer 01
 62
    18
420
        0
370
    -3
100
AcDbLine
 10
27.01655355264526
 20
2.559999999999999
 30
0.0
 11
25.73655355264529
 21
2.559999999999999
 31
0.0
  0
LINE
  5
88
330
1F
100
AcDbEntity
  8
Layer 01
100
AcDbLine
 10
26.31342855264526
 20
2.559999999999999
 30
0.0
 11
27.00092855264526
 21
2.559999999999999
 31
0.0
  0
LINE
  5
89
330
1F
100
AcDbEntity
  8
Layer 01
100
AcDbLine
 10
27.00092855264526
 20
2.559999999999999
 30
0.0
 11
27.00092855264526
 21
2.66
 31
0.0
  0
LINE
  5
8A
330
1F
100
AcDbEntity
  8
Layer 01
100
AcDbLine
 10
27.00092855264526
 20
2.66
 30
0.0
 11
26.31342855264526
 21
2.66
 31
0.0
  0
LINE
  5
8B
330
1F
100
AcDbEntity
  8
Layer 01
100
AcDbLine
 10
26.31342855264526
 20
2.66
 30
0.0
 11
26.31342855264526
 21
2.559999999999999
 31
0.0
  0
CIRCLE
  5
8C
330
1F
100
AcDbEntity
  8
Layer 01
100
AcDbCircle
 10
25.73655355264526
 20
1.28000000000003
 30
0.0
 40
1.000000000000028
  0
CIRCLE
  5
8D
330
1F
100
AcDbEntity
  8
Layer 01
100
AcDbCircle
 10
25.73655355264526
 20
1.28000000000003
 30
0.0
 40
1.062500000000028
  0
CIRCLE
  5
8E
330
1F
100
AcDbEntity
  8
Layer 01
100
AcDbCircle
 10
25.73655355264523
 20
1.280000000000058
 30
0.0
 40
1.280000000000058
  0
SPLINE
  5
8F
330
1F
100
AcDbEntity
  8
Layer 01
 62
    18
420
        0
370
    -3
100
AcDbSpline
210
0.0
220
0.0
230
1.0
 70
    28
 71
     2
 72
     6
 73
     3
 74
     0
 42
0.000000001
 43
0.0000000001
 40
0.1335621904161464
 40
0.1335621904161464
 40
0.1335621904161464
 40
1.413562190416147
 40
1.413562190416147
 40
1.413562190416147
 10
36.02697194599526
 20
1.280000000000001
 30
0.0
 41
1.0
 10
36.02697194599526
 20
1.92
 30
0.0
 41
1.0
 10
36.02697194599526
 20
2.559999999999999
 30
0.0
 41
1.0
  0
LINE
  5
90
330
1F
100
AcDbEntity
  8
Layer 01
 62
    18
420
        0
370
    -3
100
AcDbLine
 10
36.02697194599526
 20
2.559999999999999
 30
0.0
 11
34.74697194599528
 21
2.559999999999999
 31
0.0
  0
LINE
  5
91
330
1F
100
AcDbEntity
  8
Layer 01
100
AcDbLine
 10
35.32384694599526
 20
2.559999999999999
 30
0.0
 11
36.01134694599526
 21
2.559999999999999
 31
0.0
  0
LINE
  5
92
330
1F
100
AcDbEntity
  8
Layer 01
100
AcDbLine
 10
36.01134694599526
 20
2.559999999999999
 30
0.0
 11
36.01134694599526
 21
2.66
 31
0.0
  0
LINE
  5
93
330
1F
100
AcDbEntity
  8
Layer 01
100
AcDbLine
 10
36.01134694599526
 20
2.66
 30
0.0
 11
35.32384694599526
 21
2.66
 31
0.0
  0
LINE
  5
94
330
1F
100
AcDbEntity
  8
Layer 01
100
AcDbLine
 10
35.32384694599526
 20
2.66
 30
0.0
 11
35.32384694599526
 21
2.559999999999999
 31
0.0
  0
CIRCLE
  5
95
330
1F
100
AcDbEntity
  8
Layer 01
100
AcDbCircle
 10
34.74697194599526
 20
1.28000000000003
 30
0.0
 40
1.000000000000028
  0
CIRCLE
  5
96
330
1F
100
AcDbEntity
  8
Layer 01
100
AcDbCircle
 10
34.74697194599526
 20
1.28000000000003
 30
0.0
 40
1.062500000000028
  0
CIRCLE
  5
97
330
1F
100
AcDbEntity
  8
Layer 01
100
AcDbCircle
 10
34.74697194599523
 20
1.280000000000058
 30
0.0
 40
1.280000000000058
  0
SPLINE
  5
98
330
1F
100
AcDbEntity
  8
Layer 01
 62
    18
420
        0
370
    -3
100
AcDbSpline
210
0.0
220
0.0
230
1.0
 70
    28
 71
     2
 72
     6
 73
     3
 74
     0
 42
0.000000001
 43
0.0000000001
 40
0.1335621904161464
 40
0.1335621904161464
 40
0.1335621904161464
 40
1.413562190416147
 40
1.413562190416147
 40
1.413562190416147
 10
50.60613515929415
 20
1.280000000000001
 30
0.0
 41
1.0
 10
50.60613515929415
 20
1.92
 30
0.0
 41
1.0
 10
50.60613515929415
 20
2.559999999999999
 30
0.0
 41
1.0
  0
LINE
  5
99
330
1F
100
AcDbEntity
  8
Layer 01
 62
    18
420
        0
370
    -3
100
AcDbLine
 10
50.60613515929415
 20
2.559999999999999
 30
0.0
 11
49.32613515929418
 21
2.559999999999999
 31
0.0
  0
LINE
  5
9A
330
1F
100
AcDbEntity
  8
Layer 01
100
AcDbLine
 10
49.90301015929415
 20
2.559999999999999
 30
0.0
 11
50.59051015929415
 21
2.559999999999999
 31
0.0
  0
LINE
  5
9B
330
1F
100
AcDbEntity
  8
Layer 01
100
AcDbLine
 10
50.59051015929415
 20
2.559999999999999
 30
0.0
 11
50.59051015929415
 21
2.66
 31
0.0
  0
LINE
  5
9C
330
1F
100
AcDbEntity
  8
Layer 01
100
AcDbLine
 10
50.59051015929415
 20
2.66
 30
0.0
 11
49.90301015929415
 21
2.66
 31
0.0
  0
LINE
  5
9D
330
1F
100
AcDbEntity
  8
Layer 01
100
AcDbLine
 10
49.90301015929415
 20
2.66
 30
0.0
 11
49.90301015929415
 21
2.559999999999999
 31
0.0
  0
CIRCLE
  5
9E
330
1F
100
AcDbEntity
  8
Layer 01
100
AcDbCircle
 10
49.32613515929415
 20
1.28000000000003
 30
0.0
 40
1.000000000000028
  0
CIRCLE
  5
9F
330
1F
100
AcDbEntity
  8
Layer 01
100
AcDbCircle
 10
49.32613515929415
 20
1.28000000000003
 30
0.0
 40
1.062500000000028
  0
CIRCLE
  5
A0
330
1F
100
AcDbEntity
  8
Layer 01
100
AcDbCircle
 10
49.32613515929413
 20
1.280000000000058
 30
0.0
 40
1.280000000000058
  0
LINE
  5
A1
330
1F
100
AcDbEntity
  8
Layer 01
100
AcDbLine
 10
-12.04176994109358
 20
0.8425000000000011
 30
0.0
 11
-12.76051994109358
 21
0.8425000000000011
 31
0.0
  0
LINE
  5
A2
330
1F
100
AcDbEntity
  8
Layer 01
100
AcDbLine
 10
-12.76051994109358
 20
0.8425000000000011
 30
0.0
 11
-12.76051994109358
 21
2.557558593749994
 31
0.0
  0
LINE
  5
A3
330
1F
100
AcDbEntity
  8
Layer 01
100
AcDbLine
 10
-12.76051994109358
 20
2.557558593749994
 30
0.0
 11
-12.04176994109358
 21
2.557558593749994
 31
0.0
  0
LINE
  5
A4
330
1F
100
AcDbEntity
  8
Layer 01
100
AcDbLine
 10
-12.04176994109358
 20
2.557558593749994
 30
0.0
 11
-12.04176994109358
 21
0.8425000000000011
 31
0.0
  0
LINE
  5
A5
330
1F
100
AcDbEntity
  8
Layer 01
100
AcDbLine
 10
-12.05739494109346
 20
2.559999999999985
 30
0.0
 11
-12.74489494109366
 21
2.559999999999985
 31
0.0
  0
LINE
  5
A6
330
1F
100
AcDbEntity
  8
Layer 01
100
AcDbLine
 10
-12.74489494109366
 20
2.559999999999985
 30
0.0
 11
-12.74489494109366
 21
2.641962854402951
 31
0.0
  0
LINE
  5
A7
330
1F
100
AcDbEntity
  8
Layer 01
100
AcDbLine
 10
-12.74489494109366
 20
2.641962854402951
 30
0.0
 11
-12.05739494109346
 21
2.641962854402951
 31
0.0
  0
LINE
  5
A8
330
1F
100
AcDbEntity
  8
Layer 01
100
AcDbLine
 10
-12.05739494109346
 20
2.641962854402951
 30
0.0
 11
-12.05739494109346
 21
2.559999999999985
 31
0.0
  0
LINE
  5
A9
330
1F
100
AcDbEntity
  8
Layer 01
 62
    18
420
        0
370
    -3
100
AcDbLine
 10
-12.02614494109358
 20
2.56000000000001
 30
0.0
 11
-11.65114494109358
 21
2.559999999999999
 31
0.0
  0
SPLINE
  5
AA
330
1F
100
AcDbEntity
  8
Layer 01
 62
    18
420
        0
370
    -3
100
AcDbSpline
210
0.0
220
0.0
230
1.0
 70
    12
 71
     2
 72
     6
 73
     3
 74
     0
 42
0.000000001
 43
0.0000000001
 40
-4.021238596594936
 40
-4.021238596594936
 40
-4.021238596594936
 40
-3.824889055745573
 40
-3.824889055745573
 40
-3.824889055745573
 10
-11.65114494109358
 20
2.559999999999999
 30
0.0
 41
1.0
 10
-11.52614494109361
 20
2.560000000000001
 30
0.0
 41
0.7071067811865476
 10
-11.52614494109358
 20
2.434999999999999
 30
0.0
 41
1.0
  0
SPLINE
  5
AB
330
1F
100
AcDbEntity
  8
Layer 01
 62
    18
420
        0
370
    -3
100
AcDbSpline
210
0.0
220
0.0
230
1.0
 70
    28
 71
     2
 72
     8
 73
     5
 74
     0
 42
0.000000001
 43
0.0000000001
 40
-3.824889055745573
 40
-3.824889055745573
 40
-3.824889055745573
 40
-2.010619298297468
 40
-2.010619298297468
 40
-0.1963495408493621
 40
-0.1963495408493621
 40
-0.1963495408493621
 10
-11.52614494109358
 20
2.434999999999999
 30
0.0
 41
1.0
 10
-11.52614494109359
 20
2.435
 30
0.0
 41
0.7071067811865476
 10
-11.52614494109358
 20
1.280000000000001
 30
0.0
 41
1.0
 10
-11.52614494109359
 20
0.125000000000001
 30
0.0
 41
0.7071067811865476
 10
-11.52614494109358
 20
0.125
 30
0.0
 41
1.0
  0
SPLINE
  5
AC
330
1F
100
AcDbEntity
  8
Layer 01
 62
    18
420
        0
370
    -3
100
AcDbSpline
210
0.0
220
0.0
230
1.0
 70
    12
 71
     2
 72
     6
 73
     3
 74
     0
 42
0.000000001
 43
0.0000000001
 40
-0.1963495408493621
 40
-0.1963495408493621
 40
-0.1963495408493621
 40
0.0
 40
0.0
 40
0.0
 10
-11.52614494109358
 20
0.125
 30
0.0
 41
1.0
 10
-11.52614494109361
 20
0.0
 30
0.0
 41
0.7071067811865476
 10
-11.65114494109358
 20
0.0
 30
0.0
 41
1.0
  0
LINE
  5
AD
330
1F
100
AcDbEntity
  8
Layer 01
 62
    18
420
        0
370
    -3
100
AcDbLine
 10
-11.65114494109358
 20
0.0
 30
0.0
 11
-12.02614494109358
 21
0.0000000000000162
 31
0.0
  0
LINE
  5
AE
330
1F
100
AcDbEntity
  8
Layer 01
 62
    18
420
        0
370
    -3
100
AcDbLine
 10
-12.02614494109358
 20
0.0000000000000162
 30
0.0
 11
-12.02614494109358
 21
2.56000000000001
 31
0.0
  0
LINE
  5
AF
330
1F
100
AcDbEntity
  8
Layer 01
 62
    18
420
        0
370
    -3
100
AcDbLine
 10
-12.77614494109358
 20
2.56000000000001
 30
0.0
 11
-13.15114494109358
 21
2.559999999999999
 31
0.0
  0
SPLINE
  5
B0
330
1F
100
AcDbEntity
  8
Layer 01
 62
    18
420
        0
370
    -3
100
AcDbSpline
210
0.0
220
0.0
230
1.0
 70
    12
 71
     2
 72
     6
 73
     3
 74
     0
 42
0.000000001
 43
0.0000000001
 40
-4.021238596594936
 40
-4.021238596594936
 40
-4.021238596594936
 40
-3.824889055745573
 40
-3.824889055745573
 40
-3.824889055745573
 10
-13.15114494109358
 20
2.559999999999999
 30
0.0
 41
1.0
 10
-13.27614494109358
 20
2.560000000000001
 30
0.0
 41
0.7071067811865476
 10
-13.27614494109358
 20
2.434999999999999
 30
0.0
 41
1.0
  0
SPLINE
  5
B1
330
1F
100
AcDbEntity
  8
Layer 01
 62
    18
420
        0
370
    -3
100
AcDbSpline
210
0.0
220
0.0
230
1.0
 70
    28
 71
     2
 72
     8
 73
     5
 74
     0
 42
0.000000001
 43
0.0000000001
 40
-3.824889055745573
 40
-3.824889055745573
 40
-3.824889055745573
 40
-2.010619298297468
 40
-2.010619298297468
 40
-0.1963495408493621
 40
-0.1963495408493621
 40
-0.1963495408493621
 10
-13.27614494109358
 20
2.434999999999999
 30
0.0
 41
1.0
 10
-13.2761449410936
 20
2.435
 30
0.0
 41
0.7071067811865476
 10
-13.27614494109358
 20
1.280000000000001
 30
0.0
 41
1.0
 10
-13.2761449410936
 20
0.125000000000001
 30
0.0
 41
0.7071067811865476
 10
-13.27614494109358
 20
0.125
 30
0.0
 41
1.0
  0
SPLINE
  5
B2
330
1F
100
AcDbEntity
  8
Layer 01
 62
    18
420
        0
370
    -3
100
AcDbSpline
210
0.0
220
0.0
230
1.0
 70
    12
 71
     2
 72
     6
 73
     3
 74
     0
 42
0.000000001
 43
0.0000000001
 40
-0.1963495408493621
 40
-0.1963495408493621
 40
-0.1963495408493621
 40
0.0
 40
0.0
 40
0.0
 10
-13.27614494109358
 20
0.125
 30
0.0
 41
1.0
 10
-13.27614494109358
 20
0.0
 30
0.0
 41
0.7071067811865476
 10
-13.15114494109358
 20
0.0
 30
0.0
 41
1.0
  0
LINE
  5
B3
330
1F
100
AcDbEntity
  8
Layer 01
 62
    18
420
        0
370
    -3
100
AcDbLine
 10
-13.15114494109358
 20
0.0
 30
0.0
 11
-12.77614494109358
 21
0.0000000000000162
 31
0.0
  0
LINE
  5
B4
330
1F
100
AcDbEntity
  8
Layer 01
 62
    18
420
        0
370
    -3
100
AcDbLine
 10
-12.77614494109358
 20
0.0000000000000162
 30
0.0
 11
-12.77614494109358
 21
2.56000000000001
 31
0.0
  0
LINE
  5
B5
330
1F
100
AcDbEntity
  8
Layer 01
100
AcDbLine
 10
-7.304712658498289
 20
0.8425000000000011
 30
0.0
 11
-8.023462658498289
 21
0.8425000000000011
 31
0.0
  0
LINE
  5
B6
330
1F
100
AcDbEntity
  8
Layer 01
100
AcDbLine
 10
-8.023462658498289
 20
0.8425000000000011
 30
0.0
 11
-8.023462658498289
 21
2.557558593749994
 31
0.0
  0
LINE
  5
B7
330
1F
100
AcDbEntity
  8
Layer 01
100
AcDbLine
 10
-8.023462658498289
 20
2.557558593749994
 30
0.0
 11
-7.304712658498289
 21
2.557558593749994
 31
0.0
  0
LINE
  5
B8
330
1F
100
AcDbEntity
  8
Layer 01
100
AcDbLine
 10
-7.304712658498289
 20
2.557558593749994
 30
0.0
 11
-7.304712658498289
 21
0.8425000000000011
 31
0.0
  0
LINE
  5
B9
330
1F
100
AcDbEntity
  8
Layer 01
100
AcDbLine
 10
-7.320337658498175
 20
2.559999999999985
 30
0.0
 11
-8.007837658498374
 21
2.559999999999985
 31
0.0
  0
LINE
  5
BA
330
1F
100
AcDbEntity
  8
Layer 01
100
AcDbLine
 10
-8.007837658498374
 20
2.559999999999985
 30
0.0
 11
-8.007837658498374
 21
2.641962854402951
 31
0.0
  0
LINE
  5
BB
330
1F
100
AcDbEntity
  8
Layer 01
100
AcDbLine
 10
-8.007837658498374
 20
2.641962854402951
 30
0.0
 11
-7.320337658498175
 21
2.641962854402951
 31
0.0
  0
LINE
  5
BC
330
1F
100
AcDbEntity
  8
Layer 01
100
AcDbLine
 10
-7.320337658498175
 20
2.641962854402951
 30
0.0
 11
-7.320337658498175
 21
2.559999999999985
 31
0.0
  0
LINE
  5
BD
330
1F
100
AcDbEntity
  8
Layer 01
 62
    18
420
        0
370
    -3
100
AcDbLine
 10
-7.289087658498289
 20
2.56000000000001
 30
0.0
 11
-6.914087658498289
 21
2.559999999999999
 31
0.0
  0
SPLINE
  5
BE
330
1F
100
AcDbEntity
  8
Layer 01
 62
    18
420
        0
370
    -3
100
AcDbSpline
210
0.0
220
0.0
230
1.0
 70
    12
 71
     2
 72
     6
 73
     3
 74
     0
 42
0.000000001
 43
0.0000000001
 40
-4.021238596594936
 40
-4.021238596594936
 40
-4.021238596594936
 40
-3.824889055745573
 40
-3.824889055745573
 40
-3.824889055745573
 10
-6.914087658498289
 20
2.559999999999999
 30
0.0
 41
1.0
 10
-6.789087658498311
 20
2.560000000000001
 30
0.0
 41
0.7071067811865476
 10
-6.789087658498289
 20
2.434999999999999
 30
0.0
 41
1.0
  0
SPLINE
  5
BF
330
1F
100
AcDbEntity
  8
Layer 01
 62
    18
420
        0
370
    -3
100
AcDbSpline
210
0.0
220
0.0
230
1.0
 70
    28
 71
     2
 72
     8
 73
     5
 74
     0
 42
0.000000001
 43
0.0000000001
 40
-3.824889055745573
 40
-3.824889055745573
 40
-3.824889055745573
 40
-2.010619298297468
 40
-2.010619298297468
 40
-0.1963495408493621
 40
-0.1963495408493621
 40
-0.1963495408493621
 10
-6.789087658498289
 20
2.434999999999999
 30
0.0
 41
1.0
 10
-6.789087658498291
 20
2.435
 30
0.0
 41
0.7071067811865476
 10
-6.789087658498289
 20
1.280000000000001
 30
0.0
 41
1.0
 10
-6.789087658498291
 20
0.125000000000001
 30
0.0
 41
0.7071067811865476
 10
-6.789087658498289
 20
0.125
 30
0.0
 41
1.0
  0
SPLINE
  5
C0
330
1F
100
AcDbEntity
  8
Layer 01
 62
    18
420
        0
370
    -3
100
AcDbSpline
210
0.0
220
0.0
230
1.0
 70
    12
 71
     2
 72
     6
 73
     3
 74
     0
 42
0.000000001
 43
0.0000000001
 40
-0.1963495408493621
 40
-0.1963495408493621
 40
-0.1963495408493621
 40
0.0
 40
0.0
 40
0.0
 10
-6.789087658498289
 20
0.125
 30
0.0
 41
1.0
 10
-6.789087658498311
 20
0.0
 30
0.0
 41
0.7071067811865476
 10
-6.914087658498289
 20
0.0
 30
0.0
 41
1.0
  0
LINE
  5
C1
330
1F
100
AcDbEntity
  8
Layer 01
 62
    18
420
        0
370
    -3
100
AcDbLine
 10
-6.914087658498289
 20
0.0
 30
0.0
 11
-7.289087658498289
 21
0.0000000000000162
 31
0.0
  0
LINE
  5
C2
330
1F
100
AcDbEntity
  8
Layer 01
 62
    18
420
        0
370
    -3
100
AcDbLine
 10
-7.289087658498289
 20
0.0000000000000162
 30
0.0
 11
-7.289087658498289
 21
2.56000000000001
 31
0.0
  0
LINE
  5
C3
330
1F
100
AcDbEntity
  8
Layer 01
 62
    18
420
        0
370
    -3
100
AcDbLine
 10
-8.039087658498289
 20
2.56000000000001
 30
0.0
 11
-8.414087658498289
 21
2.559999999999999
 31
0.0
  0
SPLINE
  5
C4
330
1F
100
AcDbEntity
  8
Layer 01
 62
    18
420
        0
370
    -3
100
AcDbSpline
210
0.0
220
0.0
230
1.0
 70
    12
 71
     2
 72
     6
 73
     3
 74
     0
 42
0.000000001
 43
0.0000000001
 40
-4.021238596594936
 40
-4.021238596594936
 40
-4.021238596594936
 40
-3.824889055745573
 40
-3.824889055745573
 40
-3.824889055745573
 10
-8.414087658498289
 20
2.559999999999999
 30
0.0
 41
1.0
 10
-8.539087658498286
 20
2.560000000000001
 30
0.0
 41
0.7071067811865476
 10
-8.539087658498289
 20
2.434999999999999
 30
0.0
 41
1.0
  0
SPLINE
  5
C5
330
1F
100
AcDbEntity
  8
Layer 01
 62
    18
420
        0
370
    -3
100
AcDbSpline
210
0.0
220
0.0
230
1.0
 70
    28
 71
     2
 72
     8
 73
     5
 74
     0
 42
0.000000001
 43
0.0000000001
 40
-3.824889055745573
 40
-3.824889055745573
 40
-3.824889055745573
 40
-2.010619298297468
 40
-2.010619298297468
 40
-0.1963495408493621
 40
-0.1963495408493621
 40
-0.1963495408493621
 10
-8.539087658498289
 20
2.434999999999999
 30
0.0
 41
1.0
 10
-8.539087658498305
 20
2.435
 30
0.0
 41
0.7071067811865476
 10
-8.539087658498289
 20
1.280000000000001
 30
0.0
 41
1.0
 10
-8.539087658498305
 20
0.125000000000001
 30
0.0
 41
0.7071067811865476
 10
-8.539087658498289
 20
0.125
 30
0.0
 41
1.0
  0
SPLINE
  5
C6
330
1F
100
AcDbEntity
  8
Layer 01
 62
    18
420
        0
370
    -3
100
AcDbSpline
210
0.0
220
0.0
230
1.0
 70
    12
 71
     2
 72
     6
 73
     3
 74
     0
 42
0.000000001
 43
0.0000000001
 40
-0.1963495408493621
 40
-0.1963495408493621
 40
-0.1963495408493621
 40
0.0
 40
0.0
 40
0.0
 10
-8.539087658498289
 20
0.125
 30
0.0
 41
1.0
 10
-8.539087658498286
 20
0.0
 30
0.0
 41
0.7071067811865476
 10
-8.414087658498289
 20
0.0
 30
0.0
 41
1.0
  0
LINE
  5
C7
330
1F
100
AcDbEntity
  8
Layer 01
 62
    18
420
        0
370
    -3
100
AcDbLine
 10
-8.414087658498289
 20
0.0
 30
0.0
 11
-8.039087658498289
 21
0.0000000000000162
 31
0.0
  0
LINE
  5
C8
330
1F
100
AcDbEntity
  8
Layer 01
 62
    18
420
        0
370
    -3
100
AcDbLine
 10
-8.039087658498289
 20
0.0000000000000162
 30
0.0
 11
-8.039087658498289
 21
2.56000000000001
 31
0.0
  0
LINE
  5
C9
330
1F
100
AcDbEntity
  8
Layer 01
100
AcDbLine
 10
-0.359058984302294
 20
0.8425000000000011
 30
0.0
 11
0.359691015697706
 21
0.8425000000000011
 31
0.0
  0
LINE
  5
CA
330
1F
100
AcDbEntity
  8
Layer 01
100
AcDbLine
 10
0.359691015697706
 20
0.8425000000000011
 30
0.0
 11
0.359691015697706
 21
2.557558593749994
 31
0.0
  0
LINE
  5
CB
330
1F
100
AcDbEntity
  8
Layer 01
100
AcDbLine
 10
0.359691015697706
 20
2.557558593749994
 30
0.0
 11
-0.359058984302294
 21
2.557558593749994
 31
0.0
  0
LINE
  5
CC
330
1F
100
AcDbEntity
  8
Layer 01
100
AcDbLine
 10
-0.359058984302294
 20
2.557558593749994
 30
0.0
 11
-0.359058984302294
 21
0.8425000000000011
 31
0.0
  0
LINE
  5
CD
330
1F
100
AcDbEntity
  8
Layer 01
100
AcDbLine
 10
-0.3434339843024077
 20
2.559999999999985
 30
0.0
 11
0.3440660156977913
 21
2.559999999999985
 31
0.0
  0
LINE
  5
CE
330
1F
100
AcDbEntity
  8
Layer 01
100
AcDbLine
 10
0.3440660156977913
 20
2.559999999999985
 30
0.0
 11
0.3440660156977913
 21
2.641962854402951
 31
0.0
  0
LINE
  5
CF
330
1F
100
AcDbEntity
  8
Layer 01
100
AcDbLine
 10
0.3440660156977913
 20
2.641962854402951
 30
0.0
 11
-0.3434339843024077
 21
2.641962854402951
 31
0.0
  0
LINE
  5
D0
330
1F
100
AcDbEntity
  8
Layer 01
100
AcDbLine
 10
-0.3434339843024077
 20
2.641962854402951
 30
0.0
 11
-0.3434339843024077
 21
2.559999999999985
 31
0.0
  0
LINE
  5
D1
330
1F
100
AcDbEntity
  8
Layer 01
 62
    18
420
        0
370
    -3
100
AcDbLine
 10
-0.374683984302294
 20
2.56000000000001
 30
0.0
 11
-0.749683984302294
 21
2.559999999999999
 31
0.0
  0
SPLINE
  5
D2
330
1F
100
AcDbEntity
  8
Layer 01
 62
    18
420
        0
370
    -3
100
AcDbSpline
210
0.0
220
0.0
230
1.0
 70
    12
 71
     2
 72
     6
 73
     3
 74
     0
 42
0.000000001
 43
0.0000000001
 40
-4.021238596594936
 40
-4.021238596594936
 40
-4.021238596594936
 40
-3.824889055745573
 40
-3.824889055745573
 40
-3.824889055745573
 10
-0.749683984302294
 20
2.559999999999999
 30
0.0
 41
1.0
 10
-0.8746839843022889
 20
2.560000000000001
 30
0.0
 41
0.7071067811865476
 10
-0.874683984302294
 20
2.434999999999999
 30
0.0
 41
1.0
  0
SPLINE
  5
D3
330
1F
100
AcDbEntity
  8
Layer 01
 62
    18
420
        0
370
    -3
100
AcDbSpline
210
0.0
220
0.0
230
1.0
 70
    28
 71
     2
 72
     8
 73
     5
 74
     0
 42
0.000000001
 43
0.0000000001
 40
-3.824889055745573
 40
-3.824889055745573
 40
-3.824889055745573
 40
-2.010619298297468
 40
-2.010619298297468
 40
-0.1963495408493621
 40
-0.1963495408493621
 40
-0.1963495408493621
 10
-0.874683984302294
 20
2.434999999999999
 30
0.0
 41
1.0
 10
-0.874683984302309
 20
2.435
 30
0.0
 41
0.7071067811865476
 10
-0.874683984302294
 20
1.280000000000001
 30
0.0
 41
1.0
 10
-0.874683984302309
 20
0.125000000000001
 30
0.0
 41
0.7071067811865476
 10
-0.874683984302294
 20
0.125
 30
0.0
 41
1.0
  0
SPLINE
  5
D4
330
1F
100
AcDbEntity
  8
Layer 01
 62
    18
420
        0
370
    -3
100
AcDbSpline
210
0.0
220
0.0
230
1.0
 70
    12
 71
     2
 72
     6
 73
     3
 74
     0
 42
0.000000001
 43
0.0000000001
 40
-0.1963495408493621
 40
-0.1963495408493621
 40
-0.1963495408493621
 40
0.0
 40
0.0
 40
0.0
 10
-0.874683984302294
 20
0.125
 30
0.0
 41
1.0
 10
-0.8746839843022889
 20
0.0
 30
0.0
 41
0.7071067811865476
 10
-0.749683984302294
 20
0.0
 30
0.0
 41
1.0
  0
LINE
  5
D5
330
1F
100
AcDbEntity
  8
Layer 01
 62
    18
420
        0
370
    -3
100
AcDbLine
 10
-0.749683984302294
 20
0.0
 30
0.0
 11
-0.374683984302294
 21
0.0000000000000162
 31
0.0
  0
LINE
  5
D6
330
1F
100
AcDbEntity
  8
Layer 01
 62
    18
420
        0
370
    -3
100
AcDbLine
 10
-0.374683984302294
 20
0.0000000000000162
 30
0.0
 11
-0.374683984302294
 21
2.56000000000001
 31
0.0
  0
LINE
  5
D7
330
1F
100
AcDbEntity
  8
Layer 01
 62
    18
420
        0
370
    -3
100
AcDbLine
 10
0.375316015697706
 20
2.56000000000001
 30
0.0
 11
0.750316015697706
 21
2.559999999999999
 31
0.0
  0
SPLINE
  5
D8
330
1F
100
AcDbEntity
  8
Layer 01
 62
    18
420
        0
370
    -3
100
AcDbSpline
210
0.0
220
0.0
230
1.0
 70
    12
 71
     2
 72
     6
 73
     3
 74
     0
 42
0.000000001
 43
0.0000000001
 40
-4.021238596594936
 40
-4.021238596594936
 40
-4.021238596594936
 40
-3.824889055745573
 40
-3.824889055745573
 40
-3.824889055745573
 10
0.750316015697706
 20
2.559999999999999
 30
0.0
 41
1.0
 10
0.8753160156976849
 20
2.560000000000001
 30
0.0
 41
0.7071067811865476
 10
0.875316015697706
 20
2.434999999999999
 30
0.0
 41
1.0
  0
SPLINE
  5
D9
330
1F
100
AcDbEntity
  8
Layer 01
 62
    18
420
        0
370
    -3
100
AcDbSpline
210
0.0
220
0.0
230
1.0
 70
    28
 71
     2
 72
     8
 73
     5
 74
     0
 42
0.000000001
 43
0.0000000001
 40
-3.824889055745573
 40
-3.824889055745573
 40
-3.824889055745573
 40
-2.010619298297468
 40
-2.010619298297468
 40
-0.1963495408493621
 40
-0.1963495408493621
 40
-0.1963495408493621
 10
0.875316015697706
 20
2.434999999999999
 30
0.0
 41
1.0
 10
0.875316015697705
 20
2.435
 30
0.0
 41
0.7071067811865476
 10
0.875316015697706
 20
1.280000000000001
 30
0.0
 41
1.0
 10
0.875316015697705
 20
0.125000000000001
 30
0.0
 41
0.7071067811865476
 10
0.875316015697706
 20
0.125
 30
0.0
 41
1.0
  0
SPLINE
  5
DA
330
1F
100
AcDbEntity
  8
Layer 01
 62
    18
420
        0
370
    -3
100
AcDbSpline
210
0.0
220
0.0
230
1.0
 70
    12
 71
     2
 72
     6
 73
     3
 74
     0
 42
0.000000001
 43
0.0000000001
 40
-0.1963495408493621
 40
-0.1963495408493621
 40
-0.1963495408493621
 40
0.0
 40
0.0
 40
0.0
 10
0.875316015697706
 20
0.125
 30
0.0
 41
1.0
 10
0.8753160156976849
 20
0.0
 30
0.0
 41
0.7071067811865476
 10
0.750316015697706
 20
0.0
 30
0.0
 41
1.0
  0
LINE
  5
DB
330
1F
100
AcDbEntity
  8
Layer 01
 62
    18
420
        0
370
    -3
100
AcDbLine
 10
0.750316015697706
 20
0.0
 30
0.0
 11
0.375316015697706
 21
0.0000000000000162
 31
0.0
  0
LINE
  5
DC
330
1F
100
AcDbEntity
  8
Layer 01
 62
    18
420
        0
370
    -3
100
AcDbLine
 10
0.375316015697706
 20
0.0000000000000162
 30
0.0
 11
0.375316015697706
 21
2.56000000000001
 31
0.0
  0
LINE
  5
DD
330
1F
100
AcDbEntity
  8
Layer 01
100
AcDbLine
 10
12.04240197248899
 20
0.8425000000000011
 30
0.0
 11
12.76115197248899
 21
0.8425000000000011
 31
0.0
  0
LINE
  5
DE
330
1F
100
AcDbEntity
  8
Layer 01
100
AcDbLine
 10
12.76115197248899
 20
0.8425000000000011
 30
0.0
 11
12.76115197248899
 21
2.557558593749994
 31
0.0
  0
LINE
  5
DF
330
1F
100
AcDbEntity
  8
Layer 01
100
AcDbLine
 10
12.76115197248899
 20
2.557558593749994
 30
0.0
 11
12.04240197248899
 21
2.557558593749994
 31
0.0
  0
LINE
  5
E0
330
1F
100
AcDbEntity
  8
Layer 01
100
AcDbLine
 10
12.04240197248899
 20
2.557558593749994
 30
0.0
 11
12.04240197248899
 21
0.8425000000000011
 31
0.0
  0
LINE
  5
E1
330
1F
100
AcDbEntity
  8
Layer 01
100
AcDbLine
 10
12.05802697248888
 20
2.559999999999985
 30
0.0
 11
12.74552697248907
 21
2.559999999999985
 31
0.0
  0
LINE
  5
E2
330
1F
100
AcDbEntity
  8
Layer 01
100
AcDbLine
 10
12.74552697248907
 20
2.559999999999985
 30
0.0
 11
12.74552697248907
 21
2.641962854402951
 31
0.0
  0
LINE
  5
E3
330
1F
100
AcDbEntity
  8
Layer 01
100
AcDbLine
 10
12.74552697248907
 20
2.641962854402951
 30
0.0
 11
12.05802697248888
 21
2.641962854402951
 31
0.0
  0
LINE
  5
E4
330
1F
100
AcDbEntity
  8
Layer 01
100
AcDbLine
 10
12.05802697248888
 20
2.641962854402951
 30
0.0
 11
12.05802697248888
 21
2.559999999999985
 31
0.0
  0
LINE
  5
E5
330
1F
100
AcDbEntity
  8
Layer 01
 62
    18
420
        0
370
    -3
100
AcDbLine
 10
12.02677697248899
 20
2.56000000000001
 30
0.0
 11
11.65177697248899
 21
2.559999999999999
 31
0.0
  0
SPLINE
  5
E6
330
1F
100
AcDbEntity
  8
Layer 01
 62
    18
420
        0
370
    -3
100
AcDbSpline
210
0.0
220
0.0
230
1.0
 70
    12
 71
     2
 72
     6
 73
     3
 74
     0
 42
0.000000001
 43
0.0000000001
 40
-4.021238596594936
 40
-4.021238596594936
 40
-4.021238596594936
 40
-3.824889055745573
 40
-3.824889055745573
 40
-3.824889055745573
 10
11.65177697248899
 20
2.559999999999999
 30
0.0
 41
1.0
 10
11.526776972489
 20
2.560000000000001
 30
0.0
 41
0.7071067811865476
 10
11.52677697248899
 20
2.434999999999999
 30
0.0
 41
1.0
  0
SPLINE
  5
E7
330
1F
100
AcDbEntity
  8
Layer 01
 62
    18
420
        0
370
    -3
100
AcDbSpline
210
0.0
220
0.0
230
1.0
 70
    28
 71
     2
 72
     8
 73
     5
 74
     0
 42
0.000000001
 43
0.0000000001
 40
-3.824889055745573
 40
-3.824889055745573
 40
-3.824889055745573
 40
-2.010619298297468
 40
-2.010619298297468
 40
-0.1963495408493621
 40
-0.1963495408493621
 40
-0.1963495408493621
 10
11.52677697248899
 20
2.434999999999999
 30
0.0
 41
1.0
 10
11.52677697248898
 20
2.435
 30
0.0
 41
0.7071067811865476
 10
11.52677697248899
 20
1.280000000000001
 30
0.0
 41
1.0
 10
11.52677697248898
 20
0.125000000000001
 30
0.0
 41
0.7071067811865476
 10
11.52677697248899
 20
0.125
 30
0.0
 41
1.0
  0
SPLINE
  5
E8
330
1F
100
AcDbEntity
  8
Layer 01
 62
    18
420
        0
370
    -3
100
AcDbSpline
210
0.0
220
0.0
230
1.0
 70
    12
 71
     2
 72
     6
 73
     3
 74
     0
 42
0.000000001
 43
0.0000000001
 40
-0.1963495408493621
 40
-0.1963495408493621
 40
-0.1963495408493621
 40
0.0
 40
0.0
 40
0.0
 10
11.52677697248899
 20
0.125
 30
0.0
 41
1.0
 10
11.526776972489
 20
0.0
 30
0.0
 41
0.7071067811865476
 10
11.65177697248899
 20
0.0
 30
0.0
 41
1.0
  0
LINE
  5
E9
330
1F
100
AcDbEntity
  8
Layer 01
 62
    18
420
        0
370
    -3
100
AcDbLine
 10
11.65177697248899
 20
0.0
 30
0.0
 11
12.02677697248899
 21
0.0000000000000162
 31
0.0
  0
LINE
  5
EA
330
1F
100
AcDbEntity
  8
Layer 01
 62
    18
420
        0
370
    -3
100
AcDbLine
 10
12.02677697248899
 20
0.0000000000000162
 30
0.0
 11
12.02677697248899
 21
2.56000000000001
 31
0.0
  0
LINE
  5
EB
330
1F
100
AcDbEntity
  8
Layer 01
 62
    18
420
        0
370
    -3
100
AcDbLine
 10
12.77677697248899
 20
2.56000000000001
 30
0.0
 11
13.15177697248899
 21
2.559999999999999
 31
0.0
  0
SPLINE
  5
EC
330
1F
100
AcDbEntity
  8
Layer 01
 62
    18
420
        0
370
    -3
100
AcDbSpline
210
0.0
220
0.0
230
1.0
 70
    12
 71
     2
 72
     6
 73
     3
 74
     0
 42
0.000000001
 43
0.0000000001
 40
-4.021238596594936
 40
-4.021238596594936
 40
-4.021238596594936
 40
-3.824889055745573
 40
-3.824889055745573
 40
-3.824889055745573
 10
13.15177697248899
 20
2.559999999999999
 30
0.0
 41
1.0
 10
13.27677697248898
 20
2.560000000000001
 30
0.0
 41
0.7071067811865476
 10
13.27677697248899
 20
2.434999999999999
 30
0.0
 41
1.0
  0
SPLINE
  5
ED
330
1F
100
AcDbEntity
  8
Layer 01
 62
    18
420
        0
370
    -3
100
AcDbSpline
210
0.0
220
0.0
230
1.0
 70
    28
 71
     2
 72
     8
 73
     5
 74
     0
 42
0.000000001
 43
0.0000000001
 40
-3.824889055745573
 40
-3.824889055745573
 40
-3.824889055745573
 40
-2.010619298297468
 40
-2.010619298297468
 40
-0.1963495408493621
 40
-0.1963495408493621
 40
-0.1963495408493621
 10
13.27677697248899
 20
2.434999999999999
 30
0.0
 41
1.0
 10
13.276776972489
 20
2.435
 30
0.0
 41
0.7071067811865476
 10
13.27677697248899
 20
1.280000000000001
 30
0.0
 41
1.0
 10
13.276776972489
 20
0.125000000000001
 30
0.0
 41
0.7071067811865476
 10
13.27677697248899
 20
0.125
 30
0.0
 41
1.0
  0
SPLINE
  5
EE
330
1F
100
AcDbEntity
  8
Layer 01
 62
    18
420
        0
370
    -3
100
AcDbSpline
210
0.0
220
0.0
230
1.0
 70
    12
 71
     2
 72
     6
 73
     3
 74
     0
 42
0.000000001
 43
0.0000000001
 40
-0.1963495408493621
 40
-0.1963495408493621
 40
-0.1963495408493621
 40
0.0
 40
0.0
 40
0.0
 10
13.27677697248899
 20
0.125
 30
0.0
 41
1.0
 10
13.27677697248898
 20
0.0
 30
0.0
 41
0.7071067811865476
 10
13.15177697248899
 20
0.0
 30
0.0
 41
1.0
  0
LINE
  5
EF
330
1F
100
AcDbEntity
  8
Layer 01
 62
    18
420
        0
370
    -3
100
AcDbLine
 10
13.15177697248899
 20
0.0
 30
0.0
 11
12.77677697248899
 21
0.0000000000000162
 31
0.0
  0
LINE
  5
F0
330
1F
100
AcDbEntity
  8
Layer 01
 62
    18
420
        0
370
    -3
100
AcDbLine
 10
12.77677697248899
 20
0.0000000000000162
 30
0.0
 11
12.77677697248899
 21
2.56000000000001
 31
0.0
  0
LINE
  5
F1
330
1F
100
AcDbEntity
  8
Layer 01
100
AcDbLine
 10
7.305344689893701
 20
0.8425000000000011
 30
0.0
 11
8.024094689893701
 21
0.8425000000000011
 31
0.0
  0
LINE
  5
F2
330
1F
100
AcDbEntity
  8
Layer 01
100
AcDbLine
 10
8.024094689893701
 20
0.8425000000000011
 30
0.0
 11
8.024094689893701
 21
2.557558593749994
 31
0.0
  0
LINE
  5
F3
330
1F
100
AcDbEntity
  8
Layer 01
100
AcDbLine
 10
8.024094689893701
 20
2.557558593749994
 30
0.0
 11
7.305344689893701
 21
2.557558593749994
 31
0.0
  0
LINE
  5
F4
330
1F
100
AcDbEntity
  8
Layer 01
100
AcDbLine
 10
7.305344689893701
 20
2.557558593749994
 30
0.0
 11
7.305344689893701
 21
0.8425000000000011
 31
0.0
  0
LINE
  5
F5
330
1F
100
AcDbEntity
  8
Layer 01
100
AcDbLine
 10
7.320969689893587
 20
2.559999999999985
 30
0.0
 11
8.008469689893786
 21
2.559999999999985
 31
0.0
  0
LINE
  5
F6
330
1F
100
AcDbEntity
  8
Layer 01
100
AcDbLine
 10
8.008469689893786
 20
2.559999999999985
 30
0.0
 11
8.008469689893786
 21
2.641962854402951
 31
0.0
  0
LINE
  5
F7
330
1F
100
AcDbEntity
  8
Layer 01
100
AcDbLine
 10
8.008469689893786
 20
2.641962854402951
 30
0.0
 11
7.320969689893587
 21
2.641962854402951
 31
0.0
  0
LINE
  5
F8
330
1F
100
AcDbEntity
  8
Layer 01
100
AcDbLine
 10
7.320969689893587
 20
2.641962854402951
 30
0.0
 11
7.320969689893587
 21
2.559999999999985
 31
0.0
  0
LINE
  5
F9
330
1F
100
AcDbEntity
  8
Layer 01
 62
    18
420
        0
370
    -3
100
AcDbLine
 10
7.289719689893701
 20
2.56000000000001
 30
0.0
 11
6.914719689893701
 21
2.559999999999999
 31
0.0
  0
SPLINE
  5
FA
330
1F
100
AcDbEntity
  8
Layer 01
 62
    18
420
        0
370
    -3
100
AcDbSpline
210
0.0
220
0.0
230
1.0
 70
    12
 71
     2
 72
     6
 73
     3
 74
     0
 42
0.000000001
 43
0.0000000001
 40
-4.021238596594936
 40
-4.021238596594936
 40
-4.021238596594936
 40
-3.824889055745573
 40
-3.824889055745573
 40
-3.824889055745573
 10
6.914719689893701
 20
2.559999999999999
 30
0.0
 41
1.0
 10
6.789719689893707
 20
2.560000000000001
 30
0.0
 41
0.7071067811865476
 10
6.789719689893701
 20
2.434999999999999
 30
0.0
 41
1.0
  0
SPLINE
  5
FB
330
1F
100
AcDbEntity
  8
Layer 01
 62
    18
420
        0
370
    -3
100
AcDbSpline
210
0.0
220
0.0
230
1.0
 70
    28
 71
     2
 72
     8
 73
     5
 74
     0
 42
0.000000001
 43
0.0000000001
 40
-3.824889055745573
 40
-3.824889055745573
 40
-3.824889055745573
 40
-2.010619298297468
 40
-2.010619298297468
 40
-0.1963495408493621
 40
-0.1963495408493621
 40
-0.1963495408493621
 10
6.789719689893701
 20
2.434999999999999
 30
0.0
 41
1.0
 10
6.789719689893687
 20
2.435
 30
0.0
 41
0.7071067811865476
 10
6.789719689893701
 20
1.280000000000001
 30
0.0
 41
1.0
 10
6.789719689893687
 20
0.125000000000001
 30
0.0
 41
0.7071067811865476
 10
6.789719689893701
 20
0.125
 30
0.0
 41
1.0
  0
SPLINE
  5
FC
330
1F
100
AcDbEntity
  8
Layer 01
 62
    18
420
        0
370
    -3
100
AcDbSpline
210
0.0
220
0.0
230
1.0
 70
    12
 71
     2
 72
     6
 73
     3
 74
     0
 42
0.000000001
 43
0.0000000001
 40
-0.1963495408493621
 40
-0.1963495408493621
 40
-0.1963495408493621
 40
0.0
 40
0.0
 40
0.0
 10
6.789719689893701
 20
0.125
 30
0.0
 41
1.0
 10
6.789719689893707
 20
0.0
 30
0.0
 41
0.7071067811865476
 10
6.914719689893701
 20
0.0
 30
0.0
 41
1.0
  0
LINE
  5
FD
330
1F
100
AcDbEntity
  8
Layer 01
 62
    18
420
        0
370
    -3
100
AcDbLine
 10
6.914719689893701
 20
0.0
 30
0.0
 11
7.289719689893701
 21
0.0000000000000162
 31
0.0
  0
LINE
  5
FE
330
1F
100
AcDbEntity
  8
Layer 01
 62
    18
420
        0
370
    -3
100
AcDbLine
 10
7.289719689893701
 20
0.0000000000000162
 30
0.0
 11
7.289719689893701
 21
2.56000000000001
 31
0.0
  0
LINE
  5
FF
330
1F
100
AcDbEntity
  8
Layer 01
 62
    18
420
        0
370
    -3
100
AcDbLine
 10
8.039719689893701
 20
2.56000000000001
 30
0.0
 11
8.414719689893701
 21
2.559999999999999
 31
0.0
  0
SPLINE
  5
100
330
1F
100
AcDbEntity
  8
Layer 01
 62
    18
420
        0
370
    -3
100
AcDbSpline
210
0.0
220
0.0
230
1.0
 70
    12
 71
     2
 72
     6
 73
     3
 74
     0
 42
0.000000001
 43
0.0000000001
 40
-4.021238596594936
 40
-4.021238596594936
 40
-4.021238596594936
 40
-3.824889055745573
 40
-3.824889055745573
 40
-3.824889055745573
 10
8.414719689893701
 20
2.559999999999999
 30
0.0
 41
1.0
 10
8.539719689893682
 20
2.560000000000001
 30
0.0
 41
0.7071067811865476
 10
8.539719689893701
 20
2.434999999999999
 30
0.0
 41
1.0
  0
SPLINE
  5
101
330
1F
100
AcDbEntity
  8
Layer 01
 62
    18
420
        0
370
    -3
100
AcDbSpline
210
0.0
220
0.0
230
1.0
 70
    28
 71
     2
 72
     8
 73
     5
 74
     0
 42
0.000000001
 43
0.0000000001
 40
-3.824889055745573
 40
-3.824889055745573
 40
-3.824889055745573
 40
-2.010619298297468
 40
-2.010619298297468
 40
-0.1963495408493621
 40
-0.1963495408493621
 40
-0.1963495408493621
 10
8.539719689893701
 20
2.434999999999999
 30
0.0
 41
1.0
 10
8.539719689893701
 20
2.435
 30
0.0
 41
0.7071067811865476
 10
8.539719689893701
 20
1.280000000000001
 30
0.0
 41
1.0
 10
8.539719689893701
 20
0.125000000000001
 30
0.0
 41
0.7071067811865476
 10
8.539719689893701
 20
0.125
 30
0.0
 41
1.0
  0
SPLINE
  5
102
330
1F
100
AcDbEntity
  8
Layer 01
 62
    18
420
        0
370
    -3
100
AcDbSpline
210
0.0
220
0.0
230
1.0
 70
    12
 71
     2
 72
     6
 73
     3
 74
     0
 42
0.000000001
 43
0.0000000001
 40
-0.1963495408493621
 40
-0.1963495408493621
 40
-0.1963495408493621
 40
0.0
 40
0.0
 40
0.0
 10
8.539719689893701
 20
0.125
 30
0.0
 41
1.0
 10
8.539719689893682
 20
0.0
 30
0.0
 41
0.7071067811865476
 10
8.414719689893701
 20
0.0
 30
0.0
 41
1.0
  0
LINE
  5
103
330
1F
100
AcDbEntity
  8
Layer 01
 62
    18
420
        0
370
    -3
100
AcDbLine
 10
8.414719689893701
 20
0.0
 30
0.0
 11
8.039719689893701
 21
0.0000000000000162
 31
0.0
  0
LINE
  5
104
330
1F
100
AcDbEntity
  8
Layer 01
 62
    18
420
        0
370
    -3
100
AcDbLine
 10
8.039719689893701
 20
0.0000000000000162
 30
0.0
 11
8.039719689893701
 21
2.56000000000001
 31
0.0
  0
SPLINE
  5
105
330
1F
100
AcDbEntity
  8
Layer 01
 62
    18
420
        0
370
    -3
100
AcDbSpline
210
0.0
220
0.0
230
1.0
 70
    28
 71
     2
 72
     6
 73
     3
 74
     0
 42
0.000000001
 43
0.0000000001
 40
0.6877120449782234
 40
0.6877120449782234
 40
0.6877120449782234
 40
1.0
 40
1.0
 40
1.0
 10
-1.290604699481321
 20
9.350631326218835
 30
0.0
 41
1.0
 10
-1.290604699481321
 20
9.194487348707947
 30
0.0
 41
1.0
 10
-1.290604699481321
 20
9.038343371197058
 30
0.0
 41
1.0
  0
SPLINE
  5
106
330
1F
100
AcDbEntity
  8
Layer 01
 62
    18
420
        0
370
    -3
100
AcDbSpline
210
0.0
220
0.0
230
1.0
 70
     8
 71
     3
 72
     8
 73
     4
 74
     0
 42
0.000000001
 43
0.0000000001
 40
0.0
 40
0.0
 40
0.0
 40
0.0
 40
1.0
 40
1.0
 40
1.0
 40
1.0
 10
-1.290604699481321
 20
9.038343371197058
 30
0.0
 10
-1.290604699481321
 20
8.799067435747153
 30
0.0
 10
-1.40851933788781
 20
8.607612400093515
 30
0.0
 10
-1.628222002769689
 20
8.525928003974816
 30
0.0
  0
LINE
  5
107
330
1F
100
AcDbEntity
  8
Layer 01
 62
    18
420
        0
370
    -3
100
AcDbLine
 10
-1.628222002769689
 20
8.525928003974816
 30
0.0
 11
-2.498525184675856
 21
8.2023534588394
 31
0.0
  0
SPLINE
  5
108
330
1F
100
AcDbEntity
  8
Layer 01
 62
    18
420
        0
370
    -3
100
AcDbSpline
210
0.0
220
0.0
230
1.0
 70
     8
 71
     3
 72
     8
 73
     4
 74
     0
 42
0.000000001
 43
0.0000000001
 40
1.970386901344031
 40
1.970386901344031
 40
1.970386901344031
 40
1.970386901344031
 40
12.30758939765491
 40
12.30758939765491
 40
12.30758939765491
 40
12.30758939765491
 10
-2.498525184675856
 20
8.2023534588394
 30
0.0
 10
-5.588873378812707
 20
7.053376835500232
 30
0.0
 10
-8.672639517778038
 20
5.883287055073922
 30
0.0
 10
-11.7501591554753
 20
4.692159031561298
 30
0.0
  0
SPLINE
  5
109
330
1F
100
AcDbEntity
  8
Layer 01
 62
    18
420
        0
370
    -3
100
AcDbSpline
210
0.0
220
0.0
230
1.0
 70
     8
 71
     3
 72
    10
 73
     6
 74
     0
 42
0.000000001
 43
0.0000000001
 40
12.30758939765491
 40
12.30758939765491
 40
12.30758939765491
 40
12.30758939765491
 40
13.30758880502214
 40
14.30758910133852
 40
15.30758939765491
 40
15.30758939765491
 40
15.30758939765491
 40
15.30758939765491
 10
-11.7501591554753
 20
4.692159031561298
 30
0.0
 10
-11.9787094732892
 20
4.604440285607874
 30
0.0
 10
-12.40713598916892
 20
4.343884677805423
 30
0.0
 10
-12.82314807745354
 20
3.714963854602609
 30
0.0
 10
-12.90045520150085
 20
3.220680868371634
 30
0.0
 10
-12.900823541531
 20
2.976025263214478
 30
0.0
  0
LINE
  5
10A
330
1F
100
AcDbEntity
  8
Layer 01
 62
    18
420
        0
370
    -3
100
AcDbLine
 10
-12.900823541531
 20
2.976025263214478
 30
0.0
 11
-12.900823541531
 21
2.660000027462374
 31
0.0
  0
LINE
  5
10B
330
1F
100
AcDbEntity
  8
Layer 01
 62
    18
420
        0
370
    -3
100
AcDbLine
 10
-12.900823541531
 20
2.660000027462374
 30
0.0
 11
-11.89876819419524
 21
2.660000027462374
 31
0.0
  0
LINE
  5
10C
330
1F
100
AcDbEntity
  8
Layer 01
 62
    18
420
        0
370
    -3
100
AcDbLine
 10
-11.89876819419524
 20
2.660000027462374
 30
0.0
 11
-11.89638683002516
 21
2.94840423577509
 31
0.0
  0
SPLINE
  5
10D
330
1F
100
AcDbEntity
  8
Layer 01
 62
    18
420
        0
370
    -3
100
AcDbSpline
210
0.0
220
0.0
230
1.0
 70
     8
 71
     3
 72
    10
 73
     6
 74
     0
 42
0.000000001
 43
0.0000000001
 40
16.91169282488544
 40
16.91169282488544
 40
16.91169282488544
 40
16.91169282488544
 40
17.91169419419654
 40
18.91169556350765
 40
19.91169282488544
 40
19.91169282488544
 40
19.91169282488544
 40
19.91169282488544
 10
-11.89638683002516
 20
2.94840423577509
 30
0.0
 10
-11.89483421118265
 20
3.059173696719871
 30
0.0
 10
-11.84866743826427
 20
3.280038757360498
 30
0.0
 10
-11.65660233618206
 20
3.560131284597627
 30
0.0
 10
-11.45980631747076
 20
3.674266213931759
 30
0.0
 10
-11.35361381300109
 20
3.706028102095756
 30
0.0
  0
SPLINE
  5
10E
330
1F
100
AcDbEntity
  8
Layer 01
 62
    18
420
        0
370
    -3
100
AcDbSpline
210
0.0
220
0.0
230
1.0
 70
    24
 71
     2
 72
     6
 73
     3
 74
     0
 42
0.000000001
 43
0.0000000001
 40
19.91169282488544
 40
19.91169282488544
 40
19.91169282488544
 40
24.69690751412082
 40
24.69690751412082
 40
24.69690751412082
 10
-11.35361381300109
 20
3.706028102095756
 30
0.0
 10
-9.153206169118192
 20
4.315565733593309
 30
0.0
 10
-6.952798525235295
 20
4.925103365090862
 30
0.0
  0
SPLINE
  5
10F
330
1F
100
AcDbEntity
  8
Layer 01
 62
    18
420
        0
370
    -3
100
AcDbSpline
210
0.0
220
0.0
230
1.0
 70
     8
 71
     3
 72
     8
 73
     4
 74
     0
 42
0.000000001
 43
0.0000000001
 40
0.0
 40
0.0
 40
0.0
 40
0.0
 40
1.0
 40
1.0
 40
1.0
 40
1.0
 10
1.29123673087679
 20
9.038343371197058
 30
0.0
 10
1.29123673087679
 20
8.799067435747153
 30
0.0
 10
1.409151369283279
 20
8.607612400093515
 30
0.0
 10
1.628854034165158
 20
8.525928003974816
 30
0.0
  0
LINE
  5
110
330
1F
100
AcDbEntity
  8
Layer 01
 62
    18
420
        0
370
    -3
100
AcDbLine
 10
1.628854034165158
 20
8.525928003974816
 30
0.0
 11
2.499157216071325
 21
8.2023534588394
 31
0.0
  0
SPLINE
  5
111
330
1F
100
AcDbEntity
  8
Layer 01
 62
    18
420
        0
370
    -3
100
AcDbSpline
210
0.0
220
0.0
230
1.0
 70
     8
 71
     3
 72
     8
 73
     4
 74
     0
 42
0.000000001
 43
0.0000000001
 40
1.970386901344031
 40
1.970386901344031
 40
1.970386901344031
 40
1.970386901344031
 40
12.30758939765491
 40
12.30758939765491
 40
12.30758939765491
 40
12.30758939765491
 10
2.499157216071325
 20
8.2023534588394
 30
0.0
 10
5.589505410208176
 20
7.053376835500232
 30
0.0
 10
8.673271549173506
 20
5.883287055073922
 30
0.0
 10
11.75079118687077
 20
4.692159031561298
 30
0.0
  0
SPLINE
  5
112
330
1F
100
AcDbEntity
  8
Layer 01
 62
    18
420
        0
370
    -3
100
AcDbSpline
210
0.0
220
0.0
230
1.0
 70
     8
 71
     3
 72
    10
 73
     6
 74
     0
 42
0.000000001
 43
0.0000000001
 40
12.30758939765491
 40
12.30758939765491
 40
12.30758939765491
 40
12.30758939765491
 40
13.30758880502214
 40
14.30758910133852
 40
15.30758939765491
 40
15.30758939765491
 40
15.30758939765491
 40
15.30758939765491
 10
11.75079118687077
 20
4.692159031561298
 30
0.0
 10
11.97934150468467
 20
4.604440285607874
 30
0.0
 10
12.40776802056439
 20
4.343884677805423
 30
0.0
 10
12.82378010884901
 20
3.714963854602609
 30
0.0
 10
12.90108723289632
 20
3.220680868371634
 30
0.0
 10
12.90145557292647
 20
2.976025263214478
 30
0.0
  0
LINE
  5
113
330
1F
100
AcDbEntity
  8
Layer 01
 62
    18
420
        0
370
    -3
100
AcDbLine
 10
12.90145557292647
 20
2.976025263214478
 30
0.0
 11
12.90145557292647
 21
2.660000027462374
 31
0.0
  0
LINE
  5
114
330
1F
100
AcDbEntity
  8
Layer 01
 62
    18
420
        0
370
    -3
100
AcDbLine
 10
12.90145557292647
 20
2.660000027462374
 30
0.0
 11
11.89940022559071
 21
2.660000027462374
 31
0.0
  0
LINE
  5
115
330
1F
100
AcDbEntity
  8
Layer 01
 62
    18
420
        0
370
    -3
100
AcDbLine
 10
11.89940022559071
 20
2.660000027462374
 30
0.0
 11
11.89701886142063
 21
2.94840423577509
 31
0.0
  0
SPLINE
  5
116
330
1F
100
AcDbEntity
  8
Layer 01
 62
    18
420
        0
370
    -3
100
AcDbSpline
210
0.0
220
0.0
230
1.0
 70
     8
 71
     3
 72
    10
 73
     6
 74
     0
 42
0.000000001
 43
0.0000000001
 40
16.91169282488544
 40
16.91169282488544
 40
16.91169282488544
 40
16.91169282488544
 40
17.91169419419654
 40
18.91169556350765
 40
19.91169282488544
 40
19.91169282488544
 40
19.91169282488544
 40
19.91169282488544
 10
11.89701886142063
 20
2.94840423577509
 30
0.0
 10
11.89546624257812
 20
3.059173696719871
 30
0.0
 10
11.84929946965974
 20
3.280038757360498
 30
0.0
 10
11.65723436757753
 20
3.560131284597627
 30
0.0
 10
11.46043834886623
 20
3.674266213931759
 30
0.0
 10
11.35424584439656
 20
3.706028102095756
 30
0.0
  0
SPLINE
  5
117
330
1F
100
AcDbEntity
  8
Layer 01
 62
    18
420
        0
370
    -3
100
AcDbSpline
210
0.0
220
0.0
230
1.0
 70
    24
 71
     2
 72
     6
 73
     3
 74
     0
 42
0.000000001
 43
0.0000000001
 40
19.91169282488544
 40
19.91169282488544
 40
19.91169282488544
 40
24.69690751412082
 40
24.69690751412082
 40
24.69690751412082
 10
11.35424584439656
 20
3.706028102095756
 30
0.0
 10
9.153838200513661
 20
4.315565733593309
 30
0.0
 10
6.953430556630764
 20
4.925103365090862
 30
0.0
  0
LINE
  5
118
330
1F
100
AcDbEntity
  8
Layer 01
100
AcDbLine
 10
-0.4902176778281842
 20
6.559711164179893
 30
0.0
 11
-0.4858703105375071
 21
2.660015047140962
 31
0.0
  0
LINE
  5
119
330
1F
100
AcDbEntity
  8
Layer 01
100
AcDbLine
 10
-0.4858703105375071
 20
2.660015047140962
 30
0.0
 11
0.4865023419329759
 21
2.660015047140962
 31
0.0
  0
LINE
  5
11A
330
1F
100
AcDbEntity
  8
Layer 01
100
AcDbLine
 10
0.4865023419329759
 20
2.660015047140962
 30
0.0
 11
0.490849709223653
 21
6.559711164179893
 31
0.0
  0
SPLINE
  5
11B
330
1F
100
AcDbEntity
  8
Layer 01
 62
    18
420
        0
370
    -3
100
AcDbSpline
210
0.0
220
0.0
230
1.0
 70
     8
 71
     3
 72
    38
 73
    34
 74
     0
 42
0.000000001
 43
0.0000000001
 40
0.0
 40
0.0
 40
0.0
 40
0.0
 40
1.0
 40
1.0
 40
1.0
 40
11.28486217378214
 40
11.28486217378214
 40
11.28486217378214
 40
12.28486217378214
 40
13.28486217378214
 40
14.28486217378214
 40
14.28486217378214
 40
14.28486217378214
 40
15.28486217378214
 40
15.28486217378214
 40
15.28486217378214
 40
16.28486217378214
 40
16.28486217378214
 40
16.28486217378214
 40
17.28486217378214
 40
17.28486217378214
 40
17.28486217378214
 40
18.28486217378214
 40
19.28486217378214
 40
20.28486217378214
 40
20.28486217378214
 40
20.28486217378214
 40
30.45426649504478
 40
30.45426649504478
 40
30.45426649504478
 40
31.45426649504478
 40
32.45426649504478
 40
33.45426649504478
 40
33.45426649504478
 40
33.45426649504478
 40
33.45426649504478
 10
-1.361922677194343
 20
8.371582862631115
 30
0.0
 10
-1.437360357716955
 20
8.294543444532307
 30
0.0
 10
-1.532357527705528
 20
8.234435584183263
 30
0.0
 10
-1.624521924377547
 20
8.179015039256042
 30
0.0
 10
-3.500243328706688
 20
7.051101158047842
 30
0.0
 10
-5.546401381391206
 20
5.797524541772678
 30
0.0
 10
-7.383786966622125
 20
4.654510472998699
 30
0.0
 10
-7.56744199755002
 20
4.540261027569803
 30
0.0
 10
-7.875480955849469
 20
4.223468685302253
 30
0.0
 10
-8.120328459429288
 20
3.613868238591643
 30
0.0
 10
-8.161533690690163
 20
3.18097833645605
 30
0.0
 10
-8.162126576265138
 20
2.965301623166255
 30
0.0
 10
-8.162425096238707
 20
2.856707638983066
 30
0.0
 10
-8.162723616212276
 20
2.748113654799877
 30
0.0
 10
-8.163022136185845
 20
2.639519670616688
 30
0.0
 10
-7.829122496055703
 20
2.639637840084681
 30
0.0
 10
-7.49522285592559
 20
2.639756009552674
 30
0.0
 10
-7.16132321579542
 20
2.639874179020667
 30
0.0
 10
-7.160906879617812
 20
2.744172583654192
 30
0.0
 10
-7.160490543440233
 20
2.848470988287717
 30
0.0
 10
-7.160074207262625
 20
2.952769392921243
 30
0.0
 10
-7.159700624501511
 20
3.046357430858468
 30
0.0
 10
-7.144108322571782
 20
3.234235210459508
 30
0.0
 10
-7.073292032719735
 20
3.505691476678612
 30
0.0
 10
-6.988855741647626
 20
3.688922596758531
 30
0.0
 10
-6.901949867403033
 20
3.728160189528874
 30
0.0
 10
-5.001439855237408
 20
4.586231505898809
 30
0.0
 10
-3.088662869202608
 20
5.447135412309795
 30
0.0
 10
-1.172855456185857
 20
6.308677347936803
 30
0.0
 10
-1.048952060314747
 20
6.364396921200931
 30
0.0
 10
-0.7992582131872439
 20
6.470513656320038
 30
0.0
 10
-0.4089137741675017
 20
6.595885632695476
 30
0.0
 10
-0.1350716207415417
 20
6.601108121683287
 30
0.0
 10
0.0003160156977344
 20
6.601132079008405
 30
0.0
  0
SPLINE
  5
11C
330
1F
100
AcDbEntity
  8
Layer 01
 62
    18
420
        0
370
    -3
100
AcDbSpline
210
0.0
220
0.0
230
1.0
 70
     8
 71
     3
 72
    38
 73
    34
 74
     0
 42
0.000000001
 43
0.0000000001
 40
33.45426649504478
 40
33.45426649504478
 40
33.45426649504478
 40
33.45426649504478
 40
34.45426649504478
 40
35.45426649504478
 40
36.45426649504478
 40
36.45426649504478
 40
36.45426649504478
 40
46.62367081630741
 40
46.62367081630741
 40
46.62367081630741
 40
47.62367081630741
 40
48.62367081630741
 40
49.62367081630741
 40
49.62367081630741
 40
49.62367081630741
 40
50.62367081630741
 40
50.62367081630741
 40
50.62367081630741
 40
51.62367081630741
 40
51.62367081630741
 40
51.62367081630741
 40
52.62367081630741
 40
52.62367081630741
 40
52.62367081630741
 40
53.62367081630741
 40
54.62367081630741
 40
55.62367081630741
 40
55.62367081630741
 40
55.62367081630741
 40
65.90853299008955
 40
65.90853299008955
 40
65.90853299008955
 40
66.90853299008955
 40
66.90853299008955
 40
66.90853299008955
 40
66.90853299008955
 10
0.0003160156977344
 20
6.601132079008405
 30
0.0
 10
0.1357036521370105
 20
6.601156036333522
 30
0.0
 10
0.4095476366896094
 20
6.596030462361103
 30
0.0
 10
0.799936421299293
 20
6.470796639514006
 30
0.0
 10
1.049667808257993
 20
6.364768279471229
 30
0.0
 10
1.173590915923427
 20
6.309092559990756
 30
0.0
 10
3.089703114789216
 20
5.448228696205295
 30
0.0
 10
5.002784661059735
 20
4.588001789106208
 30
0.0
 10
6.903598231755524
 20
3.730603130501368
 30
0.0
 10
6.990517987021121
 20
3.691396296796102
 30
0.0
 10
7.075019119603724
 20
3.5081950707958
 30
0.0
 10
7.145931475326762
 20
3.236763883965993
 30
0.0
 10
7.161590267564236
 20
3.048891634357521
 30
0.0
 10
7.161996971775096
 20
2.955303734494859
 30
0.0
 10
7.162450219874813
 20
2.851005483737373
 30
0.0
 10
7.162903467974502
 20
2.746707232979887
 30
0.0
 10
7.16335671607419
 20
2.642408982222401
 30
0.0
 10
7.497256377114866
 20
2.642408982222401
 30
0.0
 10
7.831156038155513
 20
2.642408982222401
 30
0.0
 10
8.16505569919616
 20
2.642408982222401
 30
0.0
 10
8.164718747056952
 20
2.751002853956533
 30
0.0
 10
8.164381794917631
 20
2.859596725690665
 30
0.0
 10
8.164044842778395
 20
2.968190597424798
 30
0.0
 10
8.163375627715737
 20
3.183867087381384
 30
0.0
 10
8.122017196216035
 20
3.616742379582395
 30
0.0
 10
7.876953966030328
 20
4.226256134841439
 30
0.0
 10
7.5688029119558
 20
4.542939440088709
 30
0.0
 10
7.385107458836956
 20
4.657123881539327
 30
0.0
 10
5.547317467853333
 20
5.799487614887886
 30
0.0
 10
3.500715893617553
 20
7.052340002750576
 30
0.0
 10
1.624595430000426
 20
8.179589982159609
 30
0.0
 10
1.532411425374647
 20
8.234977905979758
 30
0.0
 10
1.437392988735439
 20
8.295052142389533
 30
0.0
 10
1.361928048138424
 20
8.372064857731353
 30
0.0
  0
LINE
  5
11D
330
1F
100
AcDbEntity
  8
Layer 01
 62
    18
420
        0
370
    -3
100
AcDbLine
 10
-12.74898401208492
 20
65.03346621374146
 30
0.0
 11
-13.15178841016379
 21
65.03346621374143
 31
0.0
  0
SPLINE
  5
11E
330
1F
100
AcDbEntity
  8
Layer 01
 62
    18
420
        0
370
    -3
100
AcDbSpline
210
0.0
220
0.0
230
1.0
 70
    12
 71
     2
 72
     8
 73
     5
 74
     0
 42
0.000000001
 43
0.0000000001
 40
0.2329072774705146
 40
0.2329072774705146
 40
0.2329072774705146
 40
0.3364606680637892
 40
0.3364606680637892
 40
0.4400140586570621
 40
0.4400140586570621
 40
0.4400140586570621
 10
-13.15178841016379
 20
65.03346621374143
 30
0.0
 41
1.0
 10
-13.20356510546038
 20
65.03346621374143
 30
0.0
 41
0.8535533905932737
 10
-13.24017675781206
 20
65.07007786609311
 30
0.0
 41
0.8535533905932737
 10
-13.27678841016374
 20
65.1066895184448
 30
0.0
 41
0.8535533905932737
 10
-13.27678841016379
 20
65.15846621374143
 30
0.0
 41
1.0
  0
LINE
  5
11F
330
1F
100
AcDbEntity
  8
Layer 01
 62
    18
420
        0
370
    -3
100
AcDbLine
 10
-13.27678841016379
 20
65.15846621374143
 30
0.0
 11
-13.27678841016379
 21
67.46846621374142
 31
0.0
  0
SPLINE
  5
120
330
1F
100
AcDbEntity
  8
Layer 01
 62
    18
420
        0
370
    -3
100
AcDbSpline
210
0.0
220
0.0
230
1.0
 70
    12
 71
     2
 72
     8
 73
     5
 74
     0
 42
0.000000001
 43
0.0000000001
 40
2.750014058657046
 40
2.750014058657046
 40
2.750014058657046
 40
2.853567449250319
 40
2.853567449250319
 40
2.957120839843594
 40
2.957120839843594
 40
2.957120839843594
 10
-13.27678841016379
 20
67.46846621374142
 30
0.0
 41
1.0
 10
-13.27678841016374
 20
67.52024290903805
 30
0.0
 41
0.8535533905932737
 10
-13.24017675781206
 20
67.55685456138973
 30
0.0
 41
0.8535533905932737
 10
-13.20356510546038
 20
67.59346621374141
 30
0.0
 41
0.8535533905932737
 10
-13.15178841016379
 20
67.59346621374142
 30
0.0
 41
1.0
  0
LINE
  5
121
330
1F
100
AcDbEntity
  8
Layer 01
 62
    18
420
        0
370
    -3
100
AcDbLine
 10
-13.15178841016379
 20
67.59346621374142
 30
0.0
 11
-12.77678841016379
 21
67.5934662137414
 31
0.0
  0
LINE
  5
122
330
1F
100
AcDbEntity
  8
Layer 01
 62
    18
420
        0
370
    -3
100
AcDbLine
 10
-12.77678841016379
 20
67.5934662137414
 30
0.0
 11
-12.77678841016379
 21
65.72227136654803
 31
0.0
  0
LINE
  5
123
330
1F
100
AcDbEntity
  8
Layer 01
 62
    18
420
        0
370
    -3
100
AcDbLine
 10
-12.15875634896693
 20
64.79630237444019
 30
0.0
 11
-12.54794330385894
 21
64.91417372419703
 31
0.0
  0
SPLINE
  5
124
330
1F
100
AcDbEntity
  8
Layer 01
 62
    18
420
        0
370
    -3
100
AcDbSpline
210
0.0
220
0.0
230
1.0
 70
     8
 71
     3
 72
    12
 73
     8
 74
     0
 42
0.000000001
 43
0.0000000001
 40
0.0
 40
0.0
 40
0.0
 40
0.0
 40
1.0
 40
2.0
 40
3.0
 40
4.0
 40
5.0
 40
5.0
 40
5.0
 40
5.0
 10
-12.54794330385894
 20
64.91417372419703
 30
0.0
 10
-12.64931781362984
 20
64.94503099041745
 30
0.0
 10
-12.82978826237368
 20
65.07451972466147
 30
0.0
 10
-12.93640217799657
 20
65.39074823030101
 30
0.0
 10
-12.83326625753722
 20
65.70850623430727
 30
0.0
 10
-12.56125487973071
 20
65.90183729955923
 30
0.0
 10
-12.33913950256849
 20
65.9006557052258
 30
0.0
 10
-12.23896719284002
 20
65.86609379783275
 30
0.0
  0
LINE
  5
125
330
1F
100
AcDbEntity
  8
Layer 01
 62
    18
420
        0
370
    -3
100
AcDbLine
 10
-12.23896719284002
 20
65.86609379783275
 30
0.0
 11
-11.78187696481564
 21
65.7076645384728
 31
0.0
  0
LINE
  5
126
330
1F
100
AcDbEntity
  8
Layer 01
 62
    18
420
        0
370
    -3
100
AcDbLine
 10
-12.04241980321089
 20
65.79802319485526
 30
0.0
 11
-12.04241980321089
 21
67.59346621374142
 31
0.0
  0
LINE
  5
127
330
1F
100
AcDbEntity
  8
Layer 01
 62
    18
420
        0
370
    -3
100
AcDbLine
 10
-12.04241980321089
 20
67.59346621374142
 30
0.0
 11
-12.76116660668745
 21
67.59346621374142
 31
0.0
  0
LINE
  5
128
330
1F
100
AcDbEntity
  8
Layer 01
 62
    18
420
        0
370
    -3
100
AcDbLine
 10
-12.76116660668745
 20
67.59346621374142
 30
0.0
 11
-12.76116424530832
 21
65.73916639502198
 31
0.0
  0
LINE
  5
129
330
1F
100
AcDbEntity
  8
Layer 01
 62
    18
420
        0
370
    -3
100
AcDbLine
 10
-12.02679480321089
 20
65.79255388141108
 30
0.0
 11
-12.02679480321089
 21
67.5934662137414
 31
0.0
  0
LINE
  5
12A
330
1F
100
AcDbEntity
  8
Layer 01
 62
    18
420
        0
370
    -3
100
AcDbLine
 10
-12.02679480321089
 20
67.5934662137414
 30
0.0
 11
-11.65179480321089
 21
67.59346621374142
 31
0.0
  0
SPLINE
  5
12B
330
1F
100
AcDbEntity
  8
Layer 01
 62
    18
420
        0
370
    -3
100
AcDbSpline
210
0.0
220
0.0
230
1.0
 70
    12
 71
     2
 72
     8
 73
     5
 74
     0
 42
0.000000001
 43
0.0000000001
 40
0.2329072774705146
 40
0.2329072774705146
 40
0.2329072774705146
 40
0.3364606680637892
 40
0.3364606680637892
 40
0.4400140586570621
 40
0.4400140586570621
 40
0.4400140586570621
 10
-11.65179480321089
 20
67.59346621374142
 30
0.0
 41
1.0
 10
-11.60001810791425
 20
67.59346621374141
 30
0.0
 41
0.8535533905932737
 10
-11.56340645556257
 20
67.55685456138973
 30
0.0
 41
0.8535533905932737
 10
-11.52679480321089
 20
67.52024290903805
 30
0.0
 41
0.8535533905932737
 10
-11.52679480321089
 20
67.46846621374142
 30
0.0
 41
1.0
  0
LINE
  5
12C
330
1F
100
AcDbEntity
  8
Layer 01
 62
    18
420
        0
370
    -3
100
AcDbLine
 10
-11.52679480321089
 20
67.46846621374142
 30
0.0
 11
-11.52679480321089
 21
66.2191190677149
 31
0.0
  0
LINE
  5
12D
330
1F
100
AcDbEntity
  8
Layer 01
 62
    18
420
        0
370
    -3
100
AcDbLine
 10
12.74895474368668
 20
65.03346621374146
 30
0.0
 11
13.15175914176555
 21
65.03346621374143
 31
0.0
  0
SPLINE
  5
12E
330
1F
100
AcDbEntity
  8
Layer 01
 62
    18
420
        0
370
    -3
100
AcDbSpline
210
0.0
220
0.0
230
1.0
 70
    12
 71
     2
 72
     8
 73
     5
 74
     0
 42
0.000000001
 43
0.0000000001
 40
0.2329072774705146
 40
0.2329072774705146
 40
0.2329072774705146
 40
0.3364606680637892
 40
0.3364606680637892
 40
0.4400140586570621
 40
0.4400140586570621
 40
0.4400140586570621
 10
13.15175914176555
 20
65.03346621374143
 30
0.0
 41
1.0
 10
13.20353583706217
 20
65.03346621374143
 30
0.0
 41
0.8535533905932737
 10
13.24014748941385
 20
65.07007786609311
 30
0.0
 41
0.8535533905932737
 10
13.27675914176553
 20
65.1066895184448
 30
0.0
 41
0.8535533905932737
 10
13.27675914176555
 20
65.15846621374143
 30
0.0
 41
1.0
  0
LINE
  5
12F
330
1F
100
AcDbEntity
  8
Layer 01
 62
    18
420
        0
370
    -3
100
AcDbLine
 10
13.27675914176555
 20
65.15846621374143
 30
0.0
 11
13.27675914176555
 21
67.46846621374142
 31
0.0
  0
SPLINE
  5
130
330
1F
100
AcDbEntity
  8
Layer 01
 62
    18
420
        0
370
    -3
100
AcDbSpline
210
0.0
220
0.0
230
1.0
 70
    12
 71
     2
 72
     8
 73
     5
 74
     0
 42
0.000000001
 43
0.0000000001
 40
2.750014058657046
 40
2.750014058657046
 40
2.750014058657046
 40
2.853567449250319
 40
2.853567449250319
 40
2.957120839843594
 40
2.957120839843594
 40
2.957120839843594
 10
13.27675914176555
 20
67.46846621374142
 30
0.0
 41
1.0
 10
13.27675914176553
 20
67.52024290903805
 30
0.0
 41
0.8535533905932737
 10
13.24014748941385
 20
67.55685456138973
 30
0.0
 41
0.8535533905932737
 10
13.20353583706217
 20
67.59346621374141
 30
0.0
 41
0.8535533905932737
 10
13.15175914176555
 20
67.59346621374142
 30
0.0
 41
1.0
  0
LINE
  5
131
330
1F
100
AcDbEntity
  8
Layer 01
 62
    18
420
        0
370
    -3
100
AcDbLine
 10
13.15175914176555
 20
67.59346621374142
 30
0.0
 11
12.77675914176555
 21
67.5934662137414
 31
0.0
  0
LINE
  5
132
330
1F
100
AcDbEntity
  8
Layer 01
 62
    18
420
        0
370
    -3
100
AcDbLine
 10
12.77675914176555
 20
67.5934662137414
 30
0.0
 11
12.77675914176555
 21
65.72227136654803
 31
0.0
  0
LINE
  5
133
330
1F
100
AcDbEntity
  8
Layer 01
 62
    18
420
        0
370
    -3
100
AcDbLine
 10
12.1587270805687
 20
64.79630237444019
 30
0.0
 11
12.54791403546071
 21
64.91417372419703
 31
0.0
  0
SPLINE
  5
134
330
1F
100
AcDbEntity
  8
Layer 01
 62
    18
420
        0
370
    -3
100
AcDbSpline
210
0.0
220
0.0
230
1.0
 70
     8
 71
     3
 72
    12
 73
     8
 74
     0
 42
0.000000001
 43
0.0000000001
 40
0.0
 40
0.0
 40
0.0
 40
0.0
 40
1.0
 40
2.0
 40
3.0
 40
4.0
 40
5.0
 40
5.0
 40
5.0
 40
5.0
 10
12.54791403546071
 20
64.91417372419703
 30
0.0
 10
12.6492885452316
 20
64.94503099041745
 30
0.0
 10
12.82975899397545
 20
65.07451972466147
 30
0.0
 10
12.93637290959833
 20
65.39074823030101
 30
0.0
 10
12.83323698913898
 20
65.70850623430727
 30
0.0
 10
12.56122561133247
 20
65.90183729955923
 30
0.0
 10
12.33911023417025
 20
65.9006557052258
 30
0.0
 10
12.23893792444179
 20
65.86609379783275
 30
0.0
  0
LINE
  5
135
330
1F
100
AcDbEntity
  8
Layer 01
 62
    18
420
        0
370
    -3
100
AcDbLine
 10
12.23893792444179
 20
65.86609379783275
 30
0.0
 11
11.7818476964174
 21
65.7076645384728
 31
0.0
  0
LINE
  5
136
330
1F
100
AcDbEntity
  8
Layer 01
 62
    18
420
        0
370
    -3
100
AcDbLine
 10
12.04239053481265
 20
65.79802319485526
 30
0.0
 11
12.04239053481265
 21
67.59346621374142
 31
0.0
  0
LINE
  5
137
330
1F
100
AcDbEntity
  8
Layer 01
 62
    18
420
        0
370
    -3
100
AcDbLine
 10
12.04239053481265
 20
67.59346621374142
 30
0.0
 11
12.76113733828922
 21
67.59346621374142
 31
0.0
  0
LINE
  5
138
330
1F
100
AcDbEntity
  8
Layer 01
 62
    18
420
        0
370
    -3
100
AcDbLine
 10
12.76113733828922
 20
67.59346621374142
 30
0.0
 11
12.76113497691009
 21
65.73916639502198
 31
0.0
  0
LINE
  5
139
330
1F
100
AcDbEntity
  8
Layer 01
 62
    18
420
        0
370
    -3
100
AcDbLine
 10
12.02676553481265
 20
65.79255388141108
 30
0.0
 11
12.02676553481265
 21
67.5934662137414
 31
0.0
  0
LINE
  5
13A
330
1F
100
AcDbEntity
  8
Layer 01
 62
    18
420
        0
370
    -3
100
AcDbLine
 10
12.02676553481265
 20
67.5934662137414
 30
0.0
 11
11.65176553481265
 21
67.59346621374142
 31
0.0
  0
SPLINE
  5
13B
330
1F
100
AcDbEntity
  8
Layer 01
 62
    18
420
        0
370
    -3
100
AcDbSpline
210
0.0
220
0.0
230
1.0
 70
    12
 71
     2
 72
     8
 73
     5
 74
     0
 42
0.000000001
 43
0.0000000001
 40
0.2329072774705146
 40
0.2329072774705146
 40
0.2329072774705146
 40
0.3364606680637892
 40
0.3364606680637892
 40
0.4400140586570621
 40
0.4400140586570621
 40
0.4400140586570621
 10
11.65176553481265
 20
67.59346621374142
 30
0.0
 41
1.0
 10
11.59998883951604
 20
67.59346621374141
 30
0.0
 41
0.8535533905932737
 10
11.56337718716436
 20
67.55685456138973
 30
0.0
 41
0.8535533905932737
 10
11.52676553481268
 20
67.52024290903805
 30
0.0
 41
0.8535533905932737
 10
11.52676553481265
 20
67.46846621374142
 30
0.0
 41
1.0
  0
LINE
  5
13C
330
1F
100
AcDbEntity
  8
Layer 01
 62
    18
420
        0
370
    -3
100
AcDbLine
 10
11.52676553481265
 20
67.46846621374142
 30
0.0
 11
11.52676553481265
 21
66.2191190677149
 31
0.0
  0
LINE
  5
13D
330
1F
100
AcDbEntity
  8
Layer 01
 62
    18
420
        0
370
    -3
100
AcDbLine
 10
0.3749821692765352
 20
74.732689759898
 30
0.0
 11
0.3749821692765352
 21
76.60388460709136
 31
0.0
  0
LINE
  5
13E
330
1F
100
AcDbEntity
  8
Layer 01
 62
    18
420
        0
370
    -3
100
AcDbLine
 10
0.3749821692765352
 20
76.60388460709136
 30
0.0
 11
0.7499821692765352
 21
76.60388460709139
 31
0.0
  0
SPLINE
  5
13F
330
1F
100
AcDbEntity
  8
Layer 01
 62
    18
420
        0
370
    -3
100
AcDbSpline
210
0.0
220
0.0
230
1.0
 70
    12
 71
     2
 72
     8
 73
     5
 74
     0
 42
0.000000001
 43
0.0000000001
 40
0.2329072774705146
 40
0.2329072774705146
 40
0.2329072774705146
 40
0.3364606680637892
 40
0.3364606680637892
 40
0.4400140586570621
 40
0.4400140586570621
 40
0.4400140586570621
 10
0.7499821692765352
 20
76.60388460709139
 30
0.0
 41
1.0
 10
0.8017588645731585
 20
76.60388460709137
 30
0.0
 41
0.8535533905932737
 10
0.83837051692484
 20
76.56727295473969
 30
0.0
 41
0.8535533905932737
 10
0.8749821692765216
 20
76.53066130238801
 30
0.0
 41
0.8535533905932737
 10
0.8749821692765352
 20
76.47888460709139
 30
0.0
 41
1.0
  0
LINE
  5
140
330
1F
100
AcDbEntity
  8
Layer 01
 62
    18
420
        0
370
    -3
100
AcDbLine
 10
0.8749821692765352
 20
76.47888460709139
 30
0.0
 11
0.8749821692765352
 21
74.37735733538341
 31
0.0
  0
LINE
  5
141
330
1F
100
AcDbEntity
  8
Layer 01
 62
    18
420
        0
370
    -3
100
AcDbLine
 10
-0.3593864376763634
 20
74.74957941327952
 30
0.0
 11
-0.3593864376763634
 21
76.60388460709139
 31
0.0
  0
LINE
  5
142
330
1F
100
AcDbEntity
  8
Layer 01
 62
    18
420
        0
370
    -3
100
AcDbLine
 10
-0.3593864376763634
 20
76.60388460709139
 30
0.0
 11
0.3593603658001996
 21
76.60388460709139
 31
0.0
  0
LINE
  5
143
330
1F
100
AcDbEntity
  8
Layer 01
 62
    18
420
        0
370
    -3
100
AcDbLine
 10
0.3593603658001996
 20
76.60388460709139
 30
0.0
 11
0.3593580044210682
 21
74.74958478837195
 31
0.0
  0
SPLINE
  5
144
330
1F
100
AcDbEntity
  8
Layer 01
 62
    18
420
        0
370
    -3
100
AcDbSpline
210
0.0
220
0.0
230
1.0
 70
     8
 71
     2
 72
    11
 73
     8
 74
     0
 42
0.000000001
 43
0.0000000001
 40
-20.0
 40
-20.0
 40
-20.0
 40
-19.0
 40
-18.0
 40
-17.0
 40
-16.0
 40
-15.0
 40
-14.0
 40
-14.0
 40
-14.0
 10
9.275977365909768
 20
67.72791928069691
 30
0.0
 10
9.398346949451991
 20
66.45330050289539
 30
0.0
 10
9.620503594891574
 20
63.90199811840238
 30
0.0
 10
9.823832968022856
 20
61.34913329363743
 30
0.0
 10
10.0125528578269
 20
58.79514239865288
 30
0.0
 10
10.18795163190467
 20
56.24024182262591
 30
0.0
 10
10.36900477856966
 20
53.68553538034035
 30
0.0
 10
10.42490884725896
 20
52.40639057029317
 30
0.0
  0
SPLINE
  5
145
330
1F
100
AcDbEntity
  8
Layer 01
 62
    18
420
        0
370
    -3
100
AcDbSpline
210
0.0
220
0.0
230
1.0
 70
     8
 71
     2
 72
    13
 73
    10
 74
     0
 42
0.000000001
 43
0.0000000001
 40
-14.0
 40
-14.0
 40
-14.0
 40
-13.0
 40
-12.0
 40
-11.0
 40
-10.0
 40
-9.0
 40
-8.0
 40
-7.0
 40
-6.0
 40
-6.0
 40
-6.0
 10
10.42490884725896
 20
52.40639057029317
 30
0.0
 10
10.43113580274277
 20
52.14274511091207
 30
0.0
 10
10.40304572850539
 20
51.61608762572585
 30
0.0
 10
10.32480831876657
 20
51.09467332708721
 30
0.0
 10
10.1943518661875
 20
50.58076630532246
 30
0.0
 10
9.894933249918921
 20
50.13866979766984
 30
0.0
 10
9.431414094729973
 20
49.87538073472967
 30
0.0
 10
8.936951838371243
 20
49.69245794956221
 30
0.0
 10
8.4286847172026
 20
49.55153363595546
 30
0.0
 10
8.170774557899762
 20
49.49686241291192
 30
0.0
  0
SPLINE
  5
146
330
1F
100
AcDbEntity
  8
Layer 01
 62
    18
420
        0
370
    -3
100
AcDbSpline
210
0.0
220
0.0
230
1.0
 70
     8
 71
     2
 72
    11
 73
     8
 74
     0
 42
0.000000001
 43
0.0000000001
 40
-6.0
 40
-6.0
 40
-6.0
 40
-5.0
 40
-4.0
 40
-3.0
 40
-2.0
 40
-1.0
 40
0.0
 40
0.0
 40
0.0
 10
8.170774557899762
 20
49.49686241291192
 30
0.0
 10
7.500496388648344
 20
49.35961521871003
 30
0.0
 10
6.14103044429794
 20
49.20774589268806
 30
0.0
 10
4.780313143472938
 20
49.07337689409626
 30
0.0
 10
3.416662565356461
 20
48.97109177540961
 30
0.0
 10
2.050806323104723
 20
48.90483408632582
 30
0.0
 10
0.683724968531294
 20
48.87277981982966
 30
0.0
 10
0.0
 20
48.87272518232446
 30
0.0
  0
SPLINE
  5
147
330
1F
100
AcDbEntity
  8
Layer 01
 62
    18
420
        0
370
    -3
100
AcDbSpline
210
0.0
220
0.0
230
1.0
 70
     8
 71
     2
 72
    11
 73
     8
 74
     0
 42
0.000000001
 43
0.0000000001
 40
0.0
 40
0.0
 40
0.0
 40
1.0
 40
2.0
 40
3.0
 40
4.0
 40
5.0
 40
6.0
 40
6.0
 40
6.0
 10
0.0
 20
48.87272518232446
 30
0.0
 10
-0.683724968531294
 20
48.87277981982966
 30
0.0
 10
-2.050806323104723
 20
48.90483408632582
 30
0.0
 10
-3.416662565356461
 20
48.97109177540961
 30
0.0
 10
-4.780313143472938
 20
49.07337689409626
 30
0.0
 10
-6.14103044429794
 20
49.20774589268806
 30
0.0
 10
-7.500496388648344
 20
49.35961521871003
 30
0.0
 10
-8.170774557899762
 20
49.49686241291192
 30
0.0
  0
SPLINE
  5
148
330
1F
100
AcDbEntity
  8
Layer 01
 62
    18
420
        0
370
    -3
100
AcDbSpline
210
0.0
220
0.0
230
1.0
 70
     8
 71
     2
 72
    13
 73
    10
 74
     0
 42
0.000000001
 43
0.0000000001
 40
6.0
 40
6.0
 40
6.0
 40
7.0
 40
8.0
 40
9.0
 40
10.0
 40
11.0
 40
12.0
 40
13.0
 40
14.0
 40
14.0
 40
14.0
 10
-8.170774557899762
 20
49.49686241291192
 30
0.0
 10
-8.4286847172026
 20
49.55153363595546
 30
0.0
 10
-8.936951838371243
 20
49.69245794956221
 30
0.0
 10
-9.431414094729973
 20
49.87538073472967
 30
0.0
 10
-9.894933249918921
 20
50.13866979766984
 30
0.0
 10
-10.1943518661875
 20
50.58076630532246
 30
0.0
 10
-10.32480831876657
 20
51.09467332708721
 30
0.0
 10
-10.40304572850539
 20
51.61608762572585
 30
0.0
 10
-10.43113580274277
 20
52.14274511091207
 30
0.0
 10
-10.42490884725896
 20
52.40639057029317
 30
0.0
  0
SPLINE
  5
149
330
1F
100
AcDbEntity
  8
Layer 01
 62
    18
420
        0
370
    -3
100
AcDbSpline
210
0.0
220
0.0
230
1.0
 70
     8
 71
     2
 72
    11
 73
     8
 74
     0
 42
0.000000001
 43
0.0000000001
 40
14.0
 40
14.0
 40
14.0
 40
15.0
 40
16.0
 40
17.0
 40
18.0
 40
19.0
 40
20.0
 40
20.0
 40
20.0
 10
-10.42490884725896
 20
52.40639057029317
 30
0.0
 10
-10.36900477856966
 20
53.68553538034035
 30
0.0
 10
-10.18795163190467
 20
56.24024182262591
 30
0.0
 10
-10.0125528578269
 20
58.79514239865288
 30
0.0
 10
-9.823832968022856
 20
61.34913329363743
 30
0.0
 10
-9.620503594891574
 20
63.90199811840238
 30
0.0
 10
-9.398346949451991
 20
66.45330050289539
 30
0.0
 10
-9.275977365909768
 20
67.72791928069691
 30
0.0
  0
SPLINE
  5
14A
330
1F
100
AcDbEntity
  8
Layer 01
 62
    18
420
        0
370
    -3
100
AcDbSpline
210
0.0
220
0.0
230
1.0
 70
     8
 71
     2
 72
    33
 73
    30
 74
     0
 42
0.000000001
 43
0.0000000001
 40
-28.1302246105418
 40
-28.1302246105418
 40
-28.1302246105418
 40
-27.0
 40
-26.0
 40
-25.0
 40
-24.0
 40
-23.0
 40
-22.0
 40
-21.0
 40
-20.0
 40
-19.0
 40
-18.0
 40
-17.0
 40
-16.0
 40
-15.0
 40
-14.0
 40
-13.0
 40
-12.0
 40
-11.0
 40
-10.0
 40
-9.0
 40
-8.0
 40
-7.0
 40
-6.0
 40
-5.0
 40
-4.0
 40
-3.0
 40
-2.0
 40
-1.0
 40
0.0
 40
0.0
 40
0.0
 10
9.602194360983304
 20
68.7152360851342
 30
0.0
 10
10.10884952556805
 20
68.31157360080567
 30
0.0
 10
10.86012701462002
 20
67.35577413517257
 30
0.0
 10
11.45413038370384
 20
66.3835783747893
 30
0.0
 10
11.95158376833939
 20
65.35848079127274
 30
0.0
 10
12.34433407528661
 20
64.28892507793802
 30
0.0
 10
12.63239273672417
 20
63.18679179376738
 30
0.0
 10
12.84718783512864
 20
62.06851526565642
 30
0.0
 10
13.02342860793024
 20
60.94368226690772
 30
0.0
 10
13.16645580791416
 20
59.81414767388352
 30
0.0
 10
13.28105471998686
 20
58.68139145382258
 30
0.0
 10
13.36671549984695
 20
57.54607135211706
 30
0.0
 10
13.42265302096331
 20
56.40891761291121
 30
0.0
 10
13.45385349454023
 20
55.27079841516812
 30
0.0
 10
13.44302183646013
 20
54.13199608935599
 30
0.0
 10
13.36958856414142
 20
52.99670383076969
 30
0.0
 10
13.24780640331957
 20
51.85853637533906
 30
0.0
 10
12.75310676633032
 20
50.81555367016325
 30
0.0
 10
11.82404515860048
 20
50.13122005130034
 30
0.0
 10
10.74069874693271
 20
49.76519062235808
 30
0.0
 10
9.634180478724915
 20
49.49736884138698
 30
0.0
 10
8.510152210709634
 20
49.3139319964932
 30
0.0
 10
7.380736743460517
 20
49.17027285317779
 30
0.0
 10
6.248914040019486
 20
49.04715505596898
 30
0.0
 10
5.115925672272908
 20
48.93534759357079
 30
0.0
 10
3.981490887294257
 20
48.83906988362064
 30
0.0
 10
2.845166404253973
 20
48.7682413158684
 30
0.0
 10
1.707550963600056
 20
48.72277855734244
 30
0.0
 10
0.5692587057185392
 20
48.700120571059
 30
0.0
 10
0.0
 20
48.70010451096501
 30
0.0
  0
SPLINE
  5
14B
330
1F
100
AcDbEntity
  8
Layer 01
 62
    18
420
        0
370
    -3
100
AcDbSpline
210
0.0
220
0.0
230
1.0
 70
     8
 71
     2
 72
    33
 73
    30
 74
     0
 42
0.000000001
 43
0.0000000001
 40
0.0
 40
0.0
 40
0.0
 40
1.0
 40
2.0
 40
3.0
 40
4.0
 40
5.0
 40
6.0
 40
7.0
 40
8.0
 40
9.0
 40
10.0
 40
11.0
 40
12.0
 40
13.0
 40
14.0
 40
15.0
 40
16.0
 40
17.0
 40
18.0
 40
19.0
 40
20.0
 40
21.0
 40
22.0
 40
23.0
 40
24.0
 40
25.0
 40
26.0
 40
27.0
 40
28.1302246105418
 40
28.1302246105418
 40
28.1302246105418
 10
0.0
 20
48.70010451096501
 30
0.0
 10
-0.5692587057185392
 20
48.700120571059
 30
0.0
 10
-1.707550963600056
 20
48.72277855734244
 30
0.0
 10
-2.845166404253973
 20
48.7682413158684
 30
0.0
 10
-3.981490887294257
 20
48.83906988362064
 30
0.0
 10
-5.115925672272908
 20
48.93534759357079
 30
0.0
 10
-6.248914040019486
 20
49.04715505596898
 30
0.0
 10
-7.380736743460517
 20
49.17027285317779
 30
0.0
 10
-8.510152210709634
 20
49.3139319964932
 30
0.0
 10
-9.634180478724915
 20
49.49736884138698
 30
0.0
 10
-10.74069874693271
 20
49.76519062235808
 30
0.0
 10
-11.82404515860048
 20
50.13122005130034
 30
0.0
 10
-12.75310676633032
 20
50.81555367016325
 30
0.0
 10
-13.24780640331957
 20
51.85853637533906
 30
0.0
 10
-13.36958856414142
 20
52.99670383076969
 30
0.0
 10
-13.44302183646013
 20
54.13199608935599
 30
0.0
 10
-13.45385349454023
 20
55.27079841516812
 30
0.0
 10
-13.42265302096331
 20
56.40891761291121
 30
0.0
 10
-13.36671549984695
 20
57.54607135211706
 30
0.0
 10
-13.28105471998686
 20
58.68139145382258
 30
0.0
 10
-13.16645580791416
 20
59.81414767388352
 30
0.0
 10
-13.02342860793024
 20
60.94368226690772
 30
0.0
 10
-12.84718783512864
 20
62.06851526565642
 30
0.0
 10
-12.63239273672417
 20
63.18679179376738
 30
0.0
 10
-12.34433407528661
 20
64.28892507793802
 30
0.0
 10
-11.95158376833939
 20
65.35848079127274
 30
0.0
 10
-11.45413038370384
 20
66.3835783747893
 30
0.0
 10
-10.86012701462002
 20
67.35577413517257
 30
0.0
 10
-10.10884952556805
 20
68.31157360080567
 30
0.0
 10
-9.602194360983304
 20
68.7152360851342
 30
0.0
  0
SPLINE
  5
14C
330
1F
100
AcDbEntity
  8
Layer 01
 62
    18
420
        0
370
    -3
100
AcDbSpline
210
0.0
220
0.0
230
1.0
 70
     8
 71
     2
 72
    11
 73
     8
 74
     0
 42
0.000000001
 43
0.0000000001
 40
0.0
 40
0.0
 40
0.0
 40
1.0
 40
2.0
 40
3.0
 40
4.0
 40
5.0
 40
6.0
 40
6.0
 40
6.0
 10
-9.475865549274971
 20
69.02579437628384
 30
0.0
 10
-9.396892273076134
 20
69.37223536548481
 30
0.0
 10
-9.255105609192356
 20
70.06860328940175
 30
0.0
 10
-9.116196514693485
 20
70.76552415663011
 30
0.0
 10
-8.977903223115732
 20
71.46257270765437
 30
0.0
 10
-8.834334038019506
 20
72.15856157055836
 30
0.0
 10
-8.671233081150092
 20
72.85037693655272
 30
0.0
 10
-8.568566415313995
 20
73.19067003386186
 30
0.0
  0
SPLINE
  5
14D
330
1F
100
AcDbEntity
  8
Layer 01
 62
    18
420
        0
370
    -3
100
AcDbSpline
210
0.0
220
0.0
230
1.0
 70
     8
 71
     2
 72
    11
 73
     8
 74
     0
 42
0.000000001
 43
0.0000000001
 40
6.0
 40
6.0
 40
6.0
 40
7.0
 40
8.0
 40
9.0
 40
10.0
 40
11.0
 40
12.0
 40
12.0
 40
12.0
 10
-8.568566415313995
 20
73.19067003386186
 30
0.0
 10
-8.537257706105606
 20
73.29444410251895
 30
0.0
 10
-8.476329050852286
 20
73.51784170226256
 30
0.0
 10
-8.351534725699082
 20
73.69813081205186
 30
0.0
 10
-8.16033253076779
 20
73.80661608111166
 30
0.0
 10
-7.958811663283399
 20
73.887208361857
 30
0.0
 10
-7.752772731810836
 20
73.95769126055708
 30
0.0
 10
-7.646395132099684
 20
73.97969649703933
 30
0.0
  0
SPLINE
  5
14E
330
1F
100
AcDbEntity
  8
Layer 01
 62
    18
420
        0
370
    -3
100
AcDbSpline
210
0.0
220
0.0
230
1.0
 70
     8
 71
     2
 72
    11
 73
     8
 74
     0
 42
0.000000001
 43
0.0000000001
 40
12.0
 40
12.0
 40
12.0
 40
13.0
 40
14.0
 40
15.0
 40
16.0
 40
17.0
 40
18.0
 40
18.0
 40
18.0
 10
-7.646395132099684
 20
73.97969649703933
 30
0.0
 10
-7.020221334601075
 20
74.10922660986711
 30
0.0
 10
-5.744475828077441
 20
74.19777473478999
 30
0.0
 10
-4.469425359656952
 20
74.27272110705812
 30
0.0
 10
-3.193077538726072
 20
74.32769699920476
 30
0.0
 10
-1.916112638497822
 20
74.36405926238061
 30
0.0
 10
-0.6387422170229797
 20
74.38141823536759
 30
0.0
 10
0.0
 20
74.38138576544185
 30
0.0
  0
SPLINE
  5
14F
330
1F
100
AcDbEntity
  8
Layer 01
 62
    18
420
        0
370
    -3
100
AcDbSpline
210
0.0
220
0.0
230
1.0
 70
     8
 71
     2
 72
    11
 73
     8
 74
     0
 42
0.000000001
 43
0.0000000001
 40
18.0
 40
18.0
 40
18.0
 40
19.0
 40
20.0
 40
21.0
 40
22.0
 40
23.0
 40
24.0
 40
24.0
 40
24.0
 10
0.0
 20
74.38138576544185
 30
0.0
 10
0.6387422170229797
 20
74.38141823536759
 30
0.0
 10
1.916112638497822
 20
74.36405926238061
 30
0.0
 10
3.193077538726072
 20
74.32769699920476
 30
0.0
 10
4.469425359656952
 20
74.27272110705812
 30
0.0
 10
5.744475828077441
 20
74.19777473478999
 30
0.0
 10
7.020221334601075
 20
74.10922660986711
 30
0.0
 10
7.646395132099684
 20
73.97969649703933
 30
0.0
  0
SPLINE
  5
150
330
1F
100
AcDbEntity
  8
Layer 01
 62
    18
420
        0
370
    -3
100
AcDbSpline
210
0.0
220
0.0
230
1.0
 70
     8
 71
     2
 72
    11
 73
     8
 74
     0
 42
0.000000001
 43
0.0000000001
 40
24.0
 40
24.0
 40
24.0
 40
25.0
 40
26.0
 40
27.0
 40
28.0
 40
29.0
 40
30.0
 40
30.0
 40
30.0
 10
7.646395132099684
 20
73.97969649703933
 30
0.0
 10
7.752772731810836
 20
73.95769126055708
 30
0.0
 10
7.958811663283399
 20
73.887208361857
 30
0.0
 10
8.16033253076779
 20
73.80661608111166
 30
0.0
 10
8.351534725699082
 20
73.69813081205186
 30
0.0
 10
8.476329050852286
 20
73.51784170226256
 30
0.0
 10
8.537257706105606
 20
73.29444410251895
 30
0.0
 10
8.568566415313995
 20
73.19067003386186
 30
0.0
  0
SPLINE
  5
151
330
1F
100
AcDbEntity
  8
Layer 01
 62
    18
420
        0
370
    -3
100
AcDbSpline
210
0.0
220
0.0
230
1.0
 70
     8
 71
     2
 72
    11
 73
     8
 74
     0
 42
0.000000001
 43
0.0000000001
 40
30.0
 40
30.0
 40
30.0
 40
31.0
 40
32.0
 40
33.0
 40
34.0
 40
35.0
 40
36.0
 40
36.0
 40
36.0
 10
8.568566415313995
 20
73.19067003386186
 30
0.0
 10
8.671233081150092
 20
72.85037693655272
 30
0.0
 10
8.834334038019506
 20
72.15856157055836
 30
0.0
 10
8.977903223115732
 20
71.46257270765437
 30
0.0
 10
9.116196514693485
 20
70.76552415663011
 30
0.0
 10
9.255105609192356
 20
70.06860328940175
 30
0.0
 10
9.396892273076134
 20
69.37223536548481
 30
0.0
 10
9.475865549274971
 20
69.02579437628384
 30
0.0
  0
SPLINE
  5
152
330
1F
100
AcDbEntity
  8
Layer 01
 62
    18
420
        0
370
    -3
100
AcDbSpline
210
0.0
220
0.0
230
1.0
 70
     8
 71
     3
 72
     8
 73
     4
 74
     0
 42
0.000000001
 43
0.0000000001
 40
36.0
 40
36.0
 40
36.0
 40
36.0
 40
37.0
 40
37.0
 40
37.0
 40
37.0
 10
9.475865549274971
 20
69.02579437628384
 30
0.0
 10
9.526886222081203
 20
68.80197622908943
 30
0.0
 10
9.725571935578785
 20
68.56974849335148
 30
0.0
 10
9.676549171999199
 20
68.38124217816988
 30
0.0
  0
SPLINE
  5
153
330
1F
100
AcDbEntity
  8
Layer 01
 62
    18
420
        0
370
    -3
100
AcDbSpline
210
0.0
220
0.0
230
1.0
 70
     8
 71
     2
 72
    23
 73
    20
 74
     0
 42
0.000000001
 43
0.0000000001
 40
37.0
 40
37.0
 40
37.0
 40
38.0
 40
39.0
 40
40.0
 40
41.0
 40
42.0
 40
43.0
 40
44.0
 40
45.0
 40
46.0
 40
47.0
 40
48.0
 40
49.0
 40
50.0
 40
51.0
 40
52.0
 40
53.0
 40
54.0
 40
55.0
 40
55.0
 40
55.0
 10
9.676549171999199
 20
68.38124217816988
 30
0.0
 10
9.604719573521322
 20
68.10503716765359
 30
0.0
 10
9.244915769777833
 20
67.65834148658627
 30
0.0
 10
8.718349890177592
 20
67.4384837255505
 30
0.0
 10
8.157947589915494
 20
67.36849988691151
 30
0.0
 10
7.595385393343349
 20
67.34592619610487
 30
0.0
 10
7.032289051111746
 20
67.35359481207635
 30
0.0
 10
6.469641740336698
 20
67.37446091939944
 30
0.0
 10
5.907374375374758
 20
67.40387271238569
 30
0.0
 10
5.345309523243429
 20
67.43683659085193
 30
0.0
 10
4.783447547959184
 20
67.47306760467347
 30
0.0
 10
4.221573615839219
 20
67.50918393550256
 30
0.0
 10
3.659119929307792
 20
67.53494173876479
 30
0.0
 10
3.096422940893035
 20
67.55446860734145
 30
0.0
 10
2.533521745711738
 20
67.56666873345358
 30
0.0
 10
1.970550922638495
 20
67.5748694551906
 30
0.0
 10
1.407556080071686
 20
67.58114169008903
 30
0.0
 10
0.8445410781639566
 20
67.58523776189344
 30
0.0
 10
0.2815149052128163
 20
67.58726195409827
 30
0.0
 10
0.0
 20
67.58725960709185
 30
0.0
  0
SPLINE
  5
154
330
1F
100
AcDbEntity
  8
Layer 01
 62
    18
420
        0
370
    -3
100
AcDbSpline
210
0.0
220
0.0
230
1.0
 70
     8
 71
     2
 72
    23
 73
    20
 74
     0
 42
0.000000001
 43
0.0000000001
 40
55.0
 40
55.0
 40
55.0
 40
56.0
 40
57.0
 40
58.0
 40
59.0
 40
60.0
 40
61.0
 40
62.0
 40
63.0
 40
64.0
 40
65.0
 40
66.0
 40
67.0
 40
68.0
 40
69.0
 40
70.0
 40
71.0
 40
72.0
 40
73.0
 40
73.0
 40
73.0
 10
0.0
 20
67.58725960709185
 30
0.0
 10
-0.2815149052128163
 20
67.58726195409827
 30
0.0
 10
-0.8445410781639566
 20
67.58523776189344
 30
0.0
 10
-1.407556080071686
 20
67.58114169008903
 30
0.0
 10
-1.970550922638495
 20
67.5748694551906
 30
0.0
 10
-2.533521745711738
 20
67.56666873345358
 30
0.0
 10
-3.096422940893035
 20
67.55446860734145
 30
0.0
 10
-3.659119929307792
 20
67.53494173876479
 30
0.0
 10
-4.221573615839219
 20
67.50918393550256
 30
0.0
 10
-4.783447547959184
 20
67.47306760467347
 30
0.0
 10
-5.345309523243429
 20
67.43683659085193
 30
0.0
 10
-5.907374375374758
 20
67.40387271238569
 30
0.0
 10
-6.469641740336698
 20
67.37446091939944
 30
0.0
 10
-7.032289051111746
 20
67.35359481207635
 30
0.0
 10
-7.595385393343349
 20
67.34592619610487
 30
0.0
 10
-8.157947589915494
 20
67.36849988691151
 30
0.0
 10
-8.718349890177592
 20
67.4384837255505
 30
0.0
 10
-9.244915769777833
 20
67.65834148658627
 30
0.0
 10
-9.604719573521322
 20
68.10503716765359
 30
0.0
 10
-9.676549171999199
 20
68.38124217816988
 30
0.0
  0
SPLINE
  5
155
330
1F
100
AcDbEntity
  8
Layer 01
 62
    18
420
        0
370
    -3
100
AcDbSpline
210
0.0
220
0.0
230
1.0
 70
     8
 71
     3
 72
     8
 73
     4
 74
     0
 42
0.000000001
 43
0.0000000001
 40
73.0
 40
73.0
 40
73.0
 40
73.0
 40
74.0
 40
74.0
 40
74.0
 40
74.0
 10
-9.676549171999199
 20
68.38124217816988
 30
0.0
 10
-9.725571935578785
 20
68.56974849335148
 30
0.0
 10
-9.526886222081203
 20
68.80197622908943
 30
0.0
 10
-9.475865549274971
 20
69.02579437628384
 30
0.0
  0
LINE
  5
156
330
1F
100
AcDbEntity
  8
Layer 01
 62
    18
420
        0
370
    -3
100
AcDbLine
 10
-0.3750114376763634
 20
74.732689759898
 30
0.0
 11
-0.3750114376763634
 21
76.60388460709136
 31
0.0
  0
LINE
  5
157
330
1F
100
AcDbEntity
  8
Layer 01
 62
    18
420
        0
370
    -3
100
AcDbLine
 10
-0.3750114376763634
 20
76.60388460709136
 30
0.0
 11
-0.7500114376763634
 21
76.60388460709139
 31
0.0
  0
SPLINE
  5
158
330
1F
100
AcDbEntity
  8
Layer 01
 62
    18
420
        0
370
    -3
100
AcDbSpline
210
0.0
220
0.0
230
1.0
 70
    12
 71
     2
 72
     8
 73
     5
 74
     0
 42
0.000000001
 43
0.0000000001
 40
0.2329072774705146
 40
0.2329072774705146
 40
0.2329072774705146
 40
0.3364606680637892
 40
0.3364606680637892
 40
0.4400140586570621
 40
0.4400140586570621
 40
0.4400140586570621
 10
-0.7500114376763634
 20
76.60388460709139
 30
0.0
 41
1.0
 10
-0.8017881329729681
 20
76.60388460709137
 30
0.0
 41
0.8535533905932737
 10
-0.8383997853246496
 20
76.56727295473969
 30
0.0
 41
0.8535533905932737
 10
-0.8750114376763312
 20
76.53066130238801
 30
0.0
 41
0.8535533905932737
 10
-0.8750114376763634
 20
76.47888460709139
 30
0.0
 41
1.0
  0
LINE
  5
159
330
1F
100
AcDbEntity
  8
Layer 01
 62
    18
420
        0
370
    -3
100
AcDbLine
 10
-0.8750114376763634
 20
76.47888460709139
 30
0.0
 11
-0.8750114376763634
 21
74.37735733538341
 31
0.0
  0
SPLINE
  5
15A
330
1F
100
AcDbEntity
  8
Layer 01
 62
    18
420
        0
370
    -3
100
AcDbSpline
210
0.0
220
0.0
230
1.0
 70
     8
 71
     3
 72
    12
 73
     8
 74
     0
 42
0.000000001
 43
0.0000000001
 40
0.0
 40
0.0
 40
0.0
 40
0.0
 40
1.0
 40
2.0
 40
3.0
 40
4.0
 40
5.0
 40
5.0
 40
5.0
 40
5.0
 10
-0.5004178316706316
 20
74.39464011803008
 30
0.0
 10
-0.502334835411574
 20
74.50056726003544
 30
0.0
 10
-0.4348445566600674
 20
74.71213721985787
 30
0.0
 10
-0.16704968259981
 20
74.91109016031223
 30
0.0
 10
0.1670785056460034
 20
74.91107021103919
 30
0.0
 10
0.4348539494907584
 20
74.71209340018862
 30
0.0
 10
0.5023220076948007
 20
74.50051541540105
 30
0.0
 10
0.5003942540848527
 20
74.39458866011199
 30
0.0
  0
SPLINE
  5
15B
330
1F
100
AcDbEntity
  8
Layer 01
 62
    18
420
        0
370
    -3
100
AcDbSpline
210
0.0
220
0.0
230
1.0
 70
     8
 71
     3
 72
    12
 73
     8
 74
     0
 42
0.000000001
 43
0.0000000001
 40
0.0
 40
0.0
 40
0.0
 40
0.0
 40
1.0
 40
2.0
 40
3.0
 40
4.0
 40
5.0
 40
5.0
 40
5.0
 40
5.0
 10
52.33153200428109
 20
12.97725931950529
 30
0.0
 10
52.24644990706571
 20
13.07718105157115
 30
0.0
 10
52.04557849173776
 20
13.25355015148064
 30
0.0
 10
51.8654414452312
 20
13.61007281672089
 30
0.0
 10
51.7370322509868
 20
13.98286982904065
 30
0.0
 10
51.62941080991894
 20
14.36301720803837
 30
0.0
 10
51.53920010574868
 20
14.61036999164879
 30
0.0
 10
51.49739345210597
 20
14.73512905580121
 30
0.0
  0
SPLINE
  5
15C
330
1F
100
AcDbEntity
  8
Layer 01
 62
    18
420
        0
370
    -3
100
AcDbSpline
210
0.0
220
0.0
230
1.0
 70
     8
 71
     3
 72
    29
 73
    25
 74
     0
 42
0.000000001
 43
0.0000000001
 40
5.0
 40
5.0
 40
5.0
 40
5.0
 40
6.0
 40
7.0
 40
8.0
 40
9.0
 40
10.0
 40
11.0
 40
12.0
 40
13.0
 40
14.0
 40
15.0
 40
16.0
 40
17.0
 40
18.0
 40
19.0
 40
20.0
 40
21.0
 40
22.0
 40
23.0
 40
24.0
 40
25.0
 40
26.0
 40
27.0
 40
27.0
 40
27.0
 40
27.0
 10
51.49739345210597
 20
14.73512905580121
 30
0.0
 10
51.33410989413423
 20
15.22049712682328
 30
0.0
 10
51.05579250581812
 20
16.20634430272811
 30
0.0
 10
50.67232174339799
 20
17.69379652610051
 30
0.0
 10
50.23332990359475
 20
19.16604579917201
 30
0.0
 10
49.71463070252489
 20
20.61350840682476
 30
0.0
 10
48.96353171095174
 20
21.96578927519586
 30
0.0
 10
47.75611308603609
 20
22.98637166326569
 30
0.0
 10
46.22735049010893
 20
23.31017581083488
 30
0.0
 10
44.69430071846969
 20
23.3558718431538
 30
0.0
 10
43.15799116012343
 20
23.38880340166919
 30
0.0
 10
41.62235750410429
 20
23.4220548583134
 30
0.0
 10
40.0868308569525
 20
23.44587826075893
 30
0.0
 10
38.55004309387462
 20
23.49951426457091
 30
0.0
 10
37.01742415789354
 20
23.34782097061879
 30
0.0
 10
35.55142473354397
 20
22.8183028770788
 30
0.0
 10
34.37747398203297
 20
21.78484842828125
 30
0.0
 10
33.6382198531698
 20
20.42148638301441
 30
0.0
 10
33.16705906423468
 20
18.95709207490476
 30
0.0
 10
32.8037377632885
 20
17.4645920641556
 30
0.0
 10
32.49654557824468
 20
15.95929137548278
 30
0.0
 10
32.20877010675738
 20
14.45047345065134
 30
0.0
 10
31.88647528977427
 20
12.94894646468102
 30
0.0
 10
31.68072005460368
 20
11.94514539042483
 30
0.0
 10
31.61112819257497
 20
11.43823258228375
 30
0.0
  0
SPLINE
  5
15D
330
1F
100
AcDbEntity
  8
Layer 01
 62
    18
420
        0
370
    -3
100
AcDbSpline
210
0.0
220
0.0
230
1.0
 70
     8
 71
     3
 72
     8
 73
     4
 74
     0
 42
0.000000001
 43
0.0000000001
 40
27.0
 40
27.0
 40
27.0
 40
27.0
 40
28.0
 40
28.0
 40
28.0
 40
28.0
 10
31.61112819257497
 20
11.43823258228375
 30
0.0
 10
31.58289796886547
 20
11.23260132658973
 30
0.0
 10
31.64836496188528
 20
11.0274823700025
 30
0.0
 10
31.80976791365319
 20
10.90899127082089
 30
0.0
  0
SPLINE
  5
15E
330
1F
100
AcDbEntity
  8
Layer 01
 62
    18
420
        0
370
    -3
100
AcDbSpline
210
0.0
220
0.0
230
1.0
 70
     8
 71
     3
 72
    20
 73
    16
 74
     0
 42
0.000000001
 43
0.0000000001
 40
28.0
 40
28.0
 40
28.0
 40
28.0
 40
29.0
 40
30.0
 40
31.0
 40
32.0
 40
33.0
 40
34.0
 40
35.0
 40
36.0
 40
37.0
 40
38.0
 40
39.0
 40
40.0
 40
41.0
 40
41.0
 40
41.0
 40
41.0
 10
31.80976791365319
 20
10.90899127082089
 30
0.0
 10
32.25406662369718
 20
10.58281729480964
 30
0.0
 10
33.25739894540891
 20
10.11048474461767
 30
0.0
 10
34.85872474900387
 20
9.700260113100423
 30
0.0
 10
36.49179170767556
 20
9.455323518448445
 30
0.0
 10
38.13925584819881
 20
9.347882206580248
 30
0.0
 10
39.78980293437471
 20
9.35079171559672
 30
0.0
 10
41.43707791348751
 20
9.453792382868587
 30
0.0
 10
43.07528062082545
 20
9.655934237236426
 30
0.0
 10
44.69642197956415
 20
9.966414971509316
 30
0.0
 10
46.29613056679125
 20
10.37243470010149
 30
0.0
 10
47.87634066310511
 20
10.84573905048535
 30
0.0
 10
49.43816029342545
 20
11.38435268310485
 30
0.0
 10
50.95746342931173
 20
12.01231439228708
 30
0.0
 10
51.95845178145228
 20
12.50654441351126
 30
0.0
 10
52.32448113330437
 20
12.92644949480755
 30
0.0
  0
SPLINE
  5
15F
330
1F
100
AcDbEntity
  8
Layer 01
 62
    18
420
        0
370
    -3
100
AcDbSpline
210
0.0
220
0.0
230
1.0
 70
     8
 71
     3
 72
     8
 73
     4
 74
     0
 42
0.000000001
 43
0.0000000001
 40
41.0
 40
41.0
 40
41.0
 40
41.0
 40
42.0
 40
42.0
 40
42.0
 40
42.0
 10
52.32448113330437
 20
12.92644949480755
 30
0.0
 10
52.33407748133314
 20
12.93745832587196
 30
0.0
 10
52.34023463475728
 20
12.95596957329913
 30
0.0
 10
52.33969907505164
 20
12.97067150430013
 30
0.0
  0
SPLINE
  5
160
330
1F
100
AcDbEntity
  8
Layer 01
 62
    18
420
        0
370
    -3
100
AcDbSpline
210
0.0
220
0.0
230
1.0
 70
     8
 71
     3
 72
     8
 73
     4
 74
     0
 42
0.000000001
 43
0.0000000001
 40
42.0
 40
42.0
 40
42.0
 40
42.0
 40
43.0
 40
43.0
 40
43.0
 40
43.0
 10
52.33969907505164
 20
12.97067150430013
 30
0.0
 10
52.33022672656963
 20
13.2307019216917
 30
0.0
 10
52.31042806902911
 20
13.51482903580137
 30
0.0
 10
52.13953307498323
 20
13.72553890012751
 30
0.0
  0
ARC
  5
161
330
1F
100
AcDbEntity
  8
Layer 01
 62
    18
420
        0
370
    -3
100
AcDbCircle
 10
51.93479722746454
 20
13.55948909721686
 30
0.0
 40
0.2636082402085658
100
AcDbArc
 50
39.04357693164825
 51
119.3694875253889
  0
SPLINE
  5
162
330
1F
100
AcDbEntity
  8
Layer 01
 62
    18
420
        0
370
    -3
100
AcDbSpline
210
0.0
220
0.0
230
1.0
 70
     8
 71
     3
 72
    12
 73
     8
 74
     0
 42
0.000000001
 43
0.0000000001
 40
0.0010836541650222
 40
0.0010836541650222
 40
0.0010836541650222
 40
0.0010836541650222
 40
1.0
 40
2.0
 40
3.0
 40
4.0
 40
5.0
 40
5.0
 40
5.0
 40
5.0
 10
50.91767686962979
 20
16.74630884034282
 30
0.0
 10
51.11971676254149
 20
16.66793712570973
 30
0.0
 10
51.51287507885075
 20
16.46354702175793
 30
0.0
 10
51.93292645632226
 20
15.9465095405634
 30
0.0
 10
52.13572849733785
 20
15.31721128863397
 30
0.0
 10
52.18752986607527
 20
14.66547033846996
 30
0.0
 10
52.13974973788123
 20
14.22448648500649
 30
0.0
 10
52.02755580468286
 20
14.03361711171331
 30
0.0
  0
ARC
  5
163
330
1F
100
AcDbEntity
  8
Layer 01
 62
    18
420
        0
370
    -3
100
AcDbCircle
 10
-51.33203392105821
 20
14.44244821123979
 30
0.0
 40
0.806779745990708
210
0.0
220
0.0
230
-1.0
100
AcDbArc
 50
210.4472165873231
 51
234.0643961100989
  0
SPLINE
  5
164
330
1F
100
AcDbEntity
  8
Layer 01
 62
    18
420
        0
370
    -3
100
AcDbSpline
210
0.0
220
0.0
230
1.0
 70
     8
 71
     3
 72
    16
 73
    12
 74
     0
 42
0.000000001
 43
0.0000000001
 40
0.0
 40
0.0
 40
0.0
 40
0.0
 40
1.0
 40
2.0
 40
3.0
 40
4.0
 40
5.0
 40
6.0
 40
7.0
 40
8.0
 40
9.0
 40
9.0
 40
9.0
 40
9.0
 10
33.57560311798741
 20
20.1393771255964
 30
0.0
 10
33.50486942485202
 20
20.81796401035496
 30
0.0
 10
33.2966171156896
 20
22.16508598369038
 30
0.0
 10
32.92183953564998
 20
24.18039109526221
 30
0.0
 10
32.22723400281322
 20
26.10939734478414
 30
0.0
 10
31.45456434351198
 20
28.0026141273926
 30
0.0
 10
30.70258383992299
 20
29.90569730190218
 30
0.0
 10
29.98542032089418
 20
31.82070549310871
 30
0.0
 10
29.30214972877695
 20
33.752672041195
 30
0.0
 10
28.76068260734931
 20
35.71620563878977
 30
0.0
 10
28.46249471738625
 20
37.15005563140915
 30
0.0
 10
27.98111218331977
 20
37.65024628939999
 30
0.0
  0
SPLINE
  5
165
330
1F
100
AcDbEntity
  8
Layer 01
 62
    18
420
        0
370
    -3
100
AcDbSpline
210
0.0
220
0.0
230
1.0
 70
     8
 71
     3
 72
    13
 73
     9
 74
     0
 42
0.000000001
 43
0.0000000001
 40
9.0
 40
9.0
 40
9.0
 40
9.0
 40
10.0
 40
11.0
 40
12.0
 40
13.0
 40
14.0
 40
15.0
 40
15.0
 40
15.0
 40
15.0
 10
27.98111218331977
 20
37.65024628939999
 30
0.0
 10
27.93538525528373
 20
37.69775981679995
 30
0.0
 10
27.77386700508364
 20
37.80505018628449
 30
0.0
 10
27.58572532411878
 20
37.86906046682483
 30
0.0
 10
27.38817411451595
 20
37.88791727028243
 30
0.0
 10
27.19069932313221
 20
37.87787268384112
 30
0.0
 10
26.99510728896419
 20
37.85006559601112
 30
0.0
 10
26.86520611727124
 20
37.82915166895961
 30
0.0
 10
26.80078192590477
 20
37.81550898113171
 30
0.0
  0
ARC
  5
166
330
1F
100
AcDbEntity
  8
Layer 01
 62
    18
420
        0
370
    -3
100
AcDbCircle
 10
26.9793584493232
 20
36.9722258786085
 30
0.0
 40
0.8619837386618053
100
AcDbArc
 50
101.956514353884
 51
111.8592591253313
  0
SPLINE
  5
167
330
1F
100
AcDbEntity
  8
Layer 01
 62
    18
420
        0
370
    -3
100
AcDbSpline
210
0.0
220
0.0
230
1.0
 70
     8
 71
     3
 72
    24
 73
    20
 74
     0
 42
0.000000001
 43
0.0000000001
 40
15.14898139153787
 40
15.14898139153787
 40
15.14898139153787
 40
15.14898139153787
 40
16.14898139153787
 40
17.14898139153787
 40
18.14898139153787
 40
19.14898139153787
 40
20.14898139153787
 40
21.14898139153787
 40
22.14898139153787
 40
23.14898139153787
 40
24.14898139153787
 40
25.14898139153787
 40
26.14898139153787
 40
27.14898139153787
 40
28.14898139153787
 40
29.14898139153787
 40
30.14898139153787
 40
31.14898139153787
 40
32.14898139153787
 40
32.14898139153787
 40
32.14898139153787
 40
32.14898139153787
 10
26.65841782057478
 20
37.77223405265171
 30
0.0
 10
26.66348275772842
 20
37.23900568113318
 30
0.0
 10
26.78861010240936
 20
36.17882035548894
 30
0.0
 10
27.12214452501604
 20
34.61510982224606
 30
0.0
 10
27.53470579997636
 20
33.07084858873087
 30
0.0
 10
27.99878325475905
 20
31.5414904217207
 30
0.0
 10
28.49329521245394
 20
30.02176136436436
 30
0.0
 10
29.01414455393763
 20
28.51090138758709
 30
0.0
 10
29.5325822587418
 20
26.99925319663747
 30
0.0
 10
30.04612841502208
 20
25.48589110483927
 30
0.0
 10
30.52298317676994
 20
23.96034757334077
 30
0.0
 10
30.9055744525601
 20
22.40715497446948
 30
0.0
 10
31.12397293713886
 20
20.82151256567126
 30
0.0
 10
31.16213707512924
 20
19.22160748352291
 30
0.0
 10
31.0584157767799
 20
17.62607484788478
 30
0.0
 10
30.90258763288341
 20
16.0358541287247
 30
0.0
 10
30.79994278784329
 20
14.43971276867999
 30
0.0
 10
30.78809074517906
 20
12.84474336323969
 30
0.0
 10
30.99037597468805
 20
11.77256188381731
 30
0.0
 10
31.3286740530348
 20
11.34542059804172
 30
0.0
  0
SPLINE
  5
168
330
1F
100
AcDbEntity
  8
Layer 01
 62
    18
420
        0
370
    -3
100
AcDbSpline
210
0.0
220
0.0
230
1.0
 70
     8
 71
     3
 72
     8
 73
     4
 74
     0
 42
0.000000001
 43
0.0000000001
 40
32.14898139153787
 40
32.14898139153787
 40
32.14898139153787
 40
32.14898139153787
 40
33.14898139153787
 40
33.14898139153787
 40
33.14898139153787
 40
33.14898139153787
 10
31.3286740530348
 20
11.34542059804172
 30
0.0
 10
31.34713396531774
 20
11.32211277818542
 30
0.0
 10
31.3668216872951
 20
11.32358158552717
 30
0.0
 10
31.37876800651995
 20
11.35063860366307
 30
0.0
  0
SPLINE
  5
169
330
1F
100
AcDbEntity
  8
Layer 01
 62
    18
420
        0
370
    -3
100
AcDbSpline
210
0.0
220
0.0
230
1.0
 70
     8
 71
     3
 72
     8
 73
     4
 74
     0
 42
0.000000001
 43
0.0000000001
 40
33.14898139153787
 40
33.14898139153787
 40
33.14898139153787
 40
33.14898139153787
 40
34.14898139153787
 40
34.14898139153787
 40
34.14898139153787
 40
34.14898139153787
 10
31.37876800651995
 20
11.35063860366307
 30
0.0
 10
31.46516028861811
 20
11.54630703504631
 30
0.0
 10
31.51601662070192
 20
11.75494641523561
 30
0.0
 10
31.5890085336251
 20
11.95566841662523
 30
0.0
  0
ARC
  5
16A
330
1F
100
AcDbEntity
  8
Layer 01
 62
    18
420
        0
370
    -3
100
AcDbCircle
 10
-31.86997387054868
 20
11.85349627174238
 30
0.0
 40
0.2989659976360924
210
0.0
220
0.0
230
-1.0
100
AcDbArc
 50
19.98363450087679
 51
60.14660576477215
  0
SPLINE
  5
16B
330
1F
100
AcDbEntity
  8
Layer 01
 62
    18
420
        0
370
    -3
100
AcDbSpline
210
0.0
220
0.0
230
1.0
 70
     8
 71
     3
 72
    24
 73
    20
 74
     0
 42
0.000000001
 43
0.0000000001
 40
0.0
 40
0.0
 40
0.0
 40
0.0
 40
1.0
 40
2.0
 40
3.0
 40
4.0
 40
5.0
 40
6.0
 40
7.0
 40
8.0
 40
9.0
 40
10.0
 40
11.0
 40
12.0
 40
13.0
 40
14.0
 40
15.0
 40
16.0
 40
17.0
 40
17.0
 40
17.0
 40
17.0
 10
-13.449962521635
 20
23.14904420441498
 30
0.0
 10
-13.3290840381101
 20
22.38034420752263
 30
0.0
 10
-13.17138683624427
 20
20.82806587508367
 30
0.0
 10
-12.63721654907377
 20
18.55308667918305
 30
0.0
 10
-11.85668766152355
 20
16.33708895858923
 30
0.0
 10
-10.30960778247993
 20
14.50064833872354
 30
0.0
 10
-8.146078598698608
 20
13.52964671604973
 30
0.0
 10
-5.830288970666089
 20
13.16850153768199
 30
0.0
 10
-3.502014948794624
 20
12.99451381433327
 30
0.0
 10
-1.167944188104713
 20
12.89983860394831
 30
0.0
 10
1.167944503330062
 20
12.89983861497491
 30
0.0
 10
3.502014860957075
 20
12.99451380791741
 30
0.0
 10
5.830289008551659
 20
13.16850155242266
 30
0.0
 10
8.146078537812286
 20
13.52964666383402
 30
0.0
 10
10.30960800910938
 20
14.5006485389085
 30
0.0
 10
11.85668758470203
 20
16.33708882689506
 30
0.0
 10
12.63721667710001
 20
18.55308708694675
 30
0.0
 10
13.17138678887468
 20
20.82806570379629
 30
0.0
 10
13.32908404766712
 20
22.38034424198526
 30
0.0
 10
13.449962521635
 20
23.14904420441498
 30
0.0
  0
SPLINE
  5
16C
330
1F
100
AcDbEntity
  8
Layer 01
 62
    18
420
        0
370
    -3
100
AcDbSpline
210
0.0
220
0.0
230
1.0
 70
     8
 71
     3
 72
    24
 73
    20
 74
     0
 42
0.000000001
 43
0.0000000001
 40
0.0
 40
0.0
 40
0.0
 40
0.0
 40
1.0
 40
2.0
 40
3.0
 40
4.0
 40
5.0
 40
6.0
 40
7.0
 40
8.0
 40
9.0
 40
10.0
 40
11.0
 40
12.0
 40
13.0
 40
14.0
 40
15.0
 40
16.0
 40
17.0
 40
17.0
 40
17.0
 40
17.0
 10
-10.80499999999998
 20
16.73581577635998
 30
0.0
 10
-10.57343886007732
 20
16.34022696120737
 30
0.0
 10
-10.02233681183228
 20
15.59242182279668
 30
0.0
 10
-8.875633174287884
 20
14.79397938849048
 30
0.0
 10
-7.549038018367668
 20
14.38842374708732
 30
0.0
 10
-6.184419252812205
 20
14.19509865029654
 30
0.0
 10
-4.816805594971186
 20
14.03033532359771
 30
0.0
 10
-3.441654461370177
 20
13.94434111812795
 30
0.0
 10
-2.065975737642901
 20
13.87566808625829
 30
0.0
 10
-0.6887366714204006
 20
13.84592754889819
 30
0.0
 10
0.6887278391496636
 20
13.84649841601901
 30
0.0
 10
2.065974762311242
 20
13.8755976101015
 30
0.0
 10
3.441654642193242
 20
13.94435999700778
 30
0.0
 10
4.816805575267693
 20
14.03033026893943
 30
0.0
 10
6.18441915762142
 20
14.19509999065803
 30
0.0
 10
7.549038027685981
 20
14.38842338655435
 30
0.0
 10
8.875633159849144
 20
14.79397947467822
 30
0.0
 10
10.02233686281485
 20
15.59242183982647
 30
0.0
 10
10.57343885506145
 20
16.3402269660535
 30
0.0
 10
10.80499999999998
 20
16.73581577635998
 30
0.0
  0
SPLINE
  5
16D
330
1F
100
AcDbEntity
  8
Layer 01
 62
    18
420
        0
370
    -3
100
AcDbSpline
210
0.0
220
0.0
230
1.0
 70
     8
 71
     3
 72
    24
 73
    20
 74
     0
 42
0.000000001
 43
0.0000000001
 40
0.0
 40
0.0
 40
0.0
 40
0.0
 40
1.0
 40
2.0
 40
3.0
 40
4.0
 40
5.0
 40
6.0
 40
7.0
 40
8.0
 40
9.0
 40
10.0
 40
11.0
 40
12.0
 40
13.0
 40
14.0
 40
15.0
 40
16.0
 40
17.0
 40
17.0
 40
17.0
 40
17.0
 10
-10.58643497392518
 20
16.38931999963609
 30
0.0
 10
-10.23044049981348
 20
16.61763919652451
 30
0.0
 10
-9.404422499720908
 20
16.80956008571048
 30
0.0
 10
-8.151580911204377
 20
16.86590660460836
 30
0.0
 10
-6.897794970818694
 20
16.91013628229629
 30
0.0
 10
-5.643991685874681
 20
16.95006969072344
 30
0.0
 10
-4.389993266958669
 20
16.98458755575896
 30
0.0
 10
-3.135903727059286
 20
17.0151718609263
 30
0.0
 10
-1.881661814409227
 20
17.0393394032346
 30
0.0
 10
-0.6272379209794394
 20
17.05109475173287
 30
0.0
 10
0.6272379037419853
 20
17.05109475236073
 30
0.0
 10
1.881661914601921
 20
17.03933940128596
 30
0.0
 10
3.135903491145712
 20
17.01517186595408
 30
0.0
 10
4.389993336737518
 20
16.98458755441931
 30
0.0
 10
5.643991658329327
 20
16.95006969064693
 30
0.0
 10
6.897794996148406
 20
16.91013628438838
 30
0.0
 10
8.151580983534927
 20
16.86590659141688
 30
0.0
 10
9.404422224621896
 20
16.80956013461995
 30
0.0
 10
10.23044065895229
 20
16.61763914780193
 30
0.0
 10
10.58643497392518
 20
16.38931999963609
 30
0.0
  0
SPLINE
  5
16E
330
1F
100
AcDbEntity
  8
Layer 01
 62
    18
420
        0
370
    -3
100
AcDbSpline
210
0.0
220
0.0
230
1.0
 70
     8
 71
     3
 72
    12
 73
     8
 74
     0
 42
0.000000001
 43
0.0000000001
 40
-5.0
 40
-5.0
 40
-5.0
 40
-5.0
 40
-4.0
 40
-3.0
 40
-2.0
 40
-1.0
 40
0.0
 40
0.0
 40
0.0
 40
0.0
 10
-9.649440163378102
 20
19.24608250946238
 30
0.0
 10
-9.619796504363762
 20
20.29241467026925
 30
0.0
 10
-9.542143549149301
 20
22.3849805226204
 30
0.0
 10
-9.29817329815836
 20
25.51622196807775
 30
0.0
 10
-9.052161107866056
 20
28.64687209552223
 30
0.0
 10
-8.809732355132724
 20
31.7779190818569
 30
0.0
 10
-8.640844421527333
 20
33.87110197878049
 30
0.0
 10
-8.56810077072501
 20
34.91536952053998
 30
0.0
  0
SPLINE
  5
16F
330
1F
100
AcDbEntity
  8
Layer 01
 62
    18
420
        0
370
    -3
100
AcDbSpline
210
0.0
220
0.0
230
1.0
 70
     8
 71
     3
 72
    14
 73
    10
 74
     0
 42
0.000000001
 43
0.0000000001
 40
0.0
 40
0.0
 40
0.0
 40
0.0
 40
1.0
 40
2.0
 40
3.0
 40
4.0
 40
5.0
 40
6.0
 40
7.0
 40
7.0
 40
7.0
 40
7.0
 10
-8.56810077072501
 20
34.91536952053998
 30
0.0
 10
-8.548091503375787
 20
35.2026114749472
 30
0.0
 10
-8.497919230544568
 20
35.77516060269448
 30
0.0
 10
-8.446153444266542
 20
36.6401228166194
 30
0.0
 10
-8.040518122542096
 20
37.44953812340505
 30
0.0
 10
-7.214581036392957
 20
37.8088993624601
 30
0.0
 10
-6.3513651004167
 20
37.86001688765401
 30
0.0
 10
-5.48820540376235
 20
37.86501625665394
 30
0.0
 10
-4.912664917909041
 20
37.85146644356484
 30
0.0
 10
-4.624875594494853
 20
37.85125560944574
 30
0.0
  0
SPLINE
  5
170
330
1F
100
AcDbEntity
  8
Layer 01
 62
    18
420
        0
370
    -3
100
AcDbSpline
210
0.0
220
0.0
230
1.0
 70
     8
 71
     3
 72
     8
 73
     4
 74
     0
 42
0.000000001
 43
0.0000000001
 40
7.0
 40
7.0
 40
7.0
 40
7.0
 40
11.62491139471491
 40
11.62491139471491
 40
11.62491139471491
 40
11.62491139471491
 10
-4.624875594494853
 20
37.85125560944574
 30
0.0
 10
-3.077704569579254
 20
37.85012215377666
 30
0.0
 10
-1.536009135654609
 20
37.8522828425921
 30
0.0
 10
0.0
 20
37.85271823997457
 30
0.0
  0
SPLINE
  5
171
330
1F
100
AcDbEntity
  8
Layer 01
 62
    18
420
        0
370
    -3
100
AcDbSpline
210
0.0
220
0.0
230
1.0
 70
     8
 71
     3
 72
     8
 73
     4
 74
     0
 42
0.000000001
 43
0.0000000001
 40
11.62491139471491
 40
11.62491139471491
 40
11.62491139471491
 40
11.62491139471491
 40
16.24982278942981
 40
16.24982278942981
 40
16.24982278942981
 40
16.24982278942981
 10
0.0
 20
37.85271823997457
 30
0.0
 10
1.536009135654609
 20
37.8522828425921
 30
0.0
 10
3.077704569579254
 20
37.85012215377666
 30
0.0
 10
4.624875594494853
 20
37.85125560944574
 30
0.0
  0
SPLINE
  5
172
330
1F
100
AcDbEntity
  8
Layer 01
 62
    18
420
        0
370
    -3
100
AcDbSpline
210
0.0
220
0.0
230
1.0
 70
     8
 71
     3
 72
    14
 73
    10
 74
     0
 42
0.000000001
 43
0.0000000001
 40
16.24982278942981
 40
16.24982278942981
 40
16.24982278942981
 40
16.24982278942981
 40
17.24982278942981
 40
18.24982278942981
 40
19.24982278942981
 40
20.24982278942981
 40
21.24982278942981
 40
22.24982278942981
 40
23.24982278942981
 40
23.24982278942981
 40
23.24982278942981
 40
23.24982278942981
 10
4.624875594494853
 20
37.85125560944574
 30
0.0
 10
4.912664917909041
 20
37.85146644356484
 30
0.0
 10
5.48820540376235
 20
37.86501625665394
 30
0.0
 10
6.3513651004167
 20
37.86001688765401
 30
0.0
 10
7.214581036392957
 20
37.8088993624601
 30
0.0
 10
8.040518122542096
 20
37.44953812340505
 30
0.0
 10
8.446153444266542
 20
36.6401228166194
 30
0.0
 10
8.497919230544568
 20
35.77516060269448
 30
0.0
 10
8.548091503375787
 20
35.2026114749472
 30
0.0
 10
8.56810077072501
 20
34.91536952053998
 30
0.0
  0
SPLINE
  5
173
330
1F
100
AcDbEntity
  8
Layer 01
 62
    18
420
        0
370
    -3
100
AcDbSpline
210
0.0
220
0.0
230
1.0
 70
     8
 71
     3
 72
    12
 73
     8
 74
     0
 42
0.000000001
 43
0.0000000001
 40
23.24982278942981
 40
23.24982278942981
 40
23.24982278942981
 40
23.24982278942981
 40
24.24982278942981
 40
25.24982278942981
 40
26.24982278942981
 40
27.24982278942981
 40
28.24982278942981
 40
28.24982278942981
 40
28.24982278942981
 40
28.24982278942981
 10
8.56810077072501
 20
34.91536952053998
 30
0.0
 10
8.640844421527333
 20
33.87110197878049
 30
0.0
 10
8.809732355132724
 20
31.7779190818569
 30
0.0
 10
9.052161107866056
 20
28.64687209552223
 30
0.0
 10
9.29817329815836
 20
25.51622196807775
 30
0.0
 10
9.542143549149301
 20
22.3849805226204
 30
0.0
 10
9.619796504363762
 20
20.29241467026925
 30
0.0
 10
9.649440163378102
 20
19.24608250946238
 30
0.0
  0
SPLINE
  5
174
330
1F
100
AcDbEntity
  8
Layer 01
 62
    18
420
        0
370
    -3
100
AcDbSpline
210
0.0
220
0.0
230
1.0
 70
     8
 71
     3
 72
    19
 73
    15
 74
     0
 42
0.000000001
 43
0.0000000001
 40
-12.0
 40
-12.0
 40
-12.0
 40
-12.0
 40
-11.0
 40
-10.0
 40
-9.0
 40
-8.0
 40
-7.0
 40
-6.0
 40
-5.0
 40
-4.0
 40
-3.0
 40
-2.0
 40
-1.0
 40
0.0
 40
0.0
 40
0.0
 40
0.0
 10
9.3837275121127
 20
16.77152812786172
 30
0.0
 10
9.406146443155507
 20
17.01256983282161
 30
0.0
 10
9.452997984896257
 20
17.49446249945394
 30
0.0
 10
9.529143606729406
 20
18.21671718159873
 30
0.0
 10
9.610904575110709
 20
18.93832715869361
 30
0.0
 10
9.69855067894781
 20
19.65935154529209
 30
0.0
 10
9.82701305150934
 20
20.37472386419581
 30
0.0
 10
10.02924679817866
 20
21.07354272451728
 30
0.0
 10
10.30524676497546
 20
21.74601689950731
 30
0.0
 10
10.66053275873898
 20
22.38302047993923
 30
0.0
 10
11.10014077035399
 20
22.95638225561492
 30
0.0
 10
11.67844321628073
 20
23.4445022941319
 30
0.0
 10
12.42940992903567
 20
23.45657169408267
 30
0.0
 10
12.90388697753738
 20
23.39268713036779
 30
0.0
 10
13.14547923981812
 20
23.36660881740999
 30
0.0
  0
SPLINE
  5
175
330
1F
100
AcDbEntity
  8
Layer 01
 62
    18
420
        0
370
    -3
100
AcDbSpline
210
0.0
220
0.0
230
1.0
 70
     8
 71
     3
 72
     8
 73
     4
 74
     0
 42
0.000000001
 43
0.0000000001
 40
0.0
 40
0.0
 40
0.0
 40
0.0
 40
1.0
 40
1.0
 40
1.0
 40
1.0
 10
13.14547923981812
 20
23.36660881740999
 30
0.0
 10
13.3174806546825
 20
23.34804238368537
 30
0.0
 10
13.45333476147428
 20
23.30703033498968
 30
0.0
 10
13.45068119389148
 20
23.16176366565721
 30
0.0
  0
SPLINE
  5
176
330
1F
100
AcDbEntity
  8
Layer 01
 62
    18
420
        0
370
    -3
100
AcDbSpline
210
0.0
220
0.0
230
1.0
 70
     8
 71
     3
 72
    16
 73
    12
 74
     0
 42
0.000000001
 43
0.0000000001
 40
1.0
 40
1.0
 40
1.0
 40
1.0
 40
2.0
 40
3.0
 40
4.0
 40
5.0
 40
6.0
 40
7.0
 40
8.0
 40
9.0
 40
10.0
 40
10.0
 40
10.0
 40
10.0
 10
13.45068119389148
 20
23.16176366565721
 30
0.0
 10
13.43514614992316
 20
22.31131459104319
 30
0.0
 10
13.40483797333613
 20
20.60932184412056
 30
0.0
 10
13.15078759041813
 20
18.06691381139446
 30
0.0
 10
12.6052778932403
 20
15.56695510881482
 30
0.0
 10
11.60010947706141
 20
13.20291898278503
 30
0.0
 10
9.933239515667168
 20
11.2138861320866
 30
0.0
 10
7.625196343650543
 20
10.01968348161128
 30
0.0
 10
5.093197362845757
 20
9.60245492535207
 30
0.0
 10
2.553189462002791
 20
9.375633821703781
 30
0.0
 10
0.8505119444559739
 20
9.333351874253445
 30
0.0
 10
0.0
 20
9.333844841693796
 30
0.0
  0
SPLINE
  5
177
330
1F
100
AcDbEntity
  8
Layer 01
 62
    18
420
        0
370
    -3
100
AcDbSpline
210
0.0
220
0.0
230
1.0
 70
     8
 71
     3
 72
    16
 73
    12
 74
     0
 42
0.000000001
 43
0.0000000001
 40
10.0
 40
10.0
 40
10.0
 40
10.0
 40
11.0
 40
12.0
 40
13.0
 40
14.0
 40
15.0
 40
16.0
 40
17.0
 40
18.0
 40
19.0
 40
19.0
 40
19.0
 40
19.0
 10
0.0
 20
9.333844841693796
 30
0.0
 10
-0.8505119444559739
 20
9.333351874253445
 30
0.0
 10
-2.553189462002791
 20
9.375633821703781
 30
0.0
 10
-5.093197362845757
 20
9.60245492535207
 30
0.0
 10
-7.625196343650543
 20
10.01968348161128
 30
0.0
 10
-9.933239515667168
 20
11.2138861320866
 30
0.0
 10
-11.60010947706141
 20
13.20291898278503
 30
0.0
 10
-12.6052778932403
 20
15.56695510881482
 30
0.0
 10
-13.15078759041813
 20
18.06691381139446
 30
0.0
 10
-13.40483797333613
 20
20.60932184412056
 30
0.0
 10
-13.43514614992316
 20
22.31131459104319
 30
0.0
 10
-13.45068119389148
 20
23.16176366565721
 30
0.0
  0
SPLINE
  5
178
330
1F
100
AcDbEntity
  8
Layer 01
 62
    18
420
        0
370
    -3
100
AcDbSpline
210
0.0
220
0.0
230
1.0
 70
     8
 71
     3
 72
     8
 73
     4
 74
     0
 42
0.000000001
 43
0.0000000001
 40
19.0
 40
19.0
 40
19.0
 40
19.0
 40
20.0
 40
20.0
 40
20.0
 40
20.0
 10
-13.45068119389148
 20
23.16176366565721
 30
0.0
 10
-13.45333476147428
 20
23.30703033498968
 30
0.0
 10
-13.3174806546825
 20
23.34804238368537
 30
0.0
 10
-13.14547923981812
 20
23.36660881740999
 30
0.0
  0
SPLINE
  5
179
330
1F
100
AcDbEntity
  8
Layer 01
 62
    18
420
        0
370
    -3
100
AcDbSpline
210
0.0
220
0.0
230
1.0
 70
     8
 71
     3
 72
    19
 73
    15
 74
     0
 42
0.000000001
 43
0.0000000001
 40
20.0
 40
20.0
 40
20.0
 40
20.0
 40
21.0
 40
22.0
 40
23.0
 40
24.0
 40
25.0
 40
26.0
 40
27.0
 40
28.0
 40
29.0
 40
30.0
 40
31.0
 40
32.0
 40
32.0
 40
32.0
 40
32.0
 10
-13.14547923981812
 20
23.36660881740999
 30
0.0
 10
-12.90388697753738
 20
23.39268713036779
 30
0.0
 10
-12.42940992903567
 20
23.45657169408267
 30
0.0
 10
-11.67844321628073
 20
23.4445022941319
 30
0.0
 10
-11.10014077035399
 20
22.95638225561492
 30
0.0
 10
-10.66053275873898
 20
22.38302047993923
 30
0.0
 10
-10.30524676497546
 20
21.74601689950731
 30
0.0
 10
-10.02924679817866
 20
21.07354272451728
 30
0.0
 10
-9.82701305150934
 20
20.37472386419581
 30
0.0
 10
-9.69855067894781
 20
19.65935154529209
 30
0.0
 10
-9.610904575110709
 20
18.93832715869361
 30
0.0
 10
-9.529143606729406
 20
18.21671718159873
 30
0.0
 10
-9.452997984896257
 20
17.49446249945394
 30
0.0
 10
-9.406146443155507
 20
17.01256983282161
 30
0.0
 10
-9.3837275121127
 20
16.77152812786172
 30
0.0
  0
SPLINE
  5
17A
330
1F
100
AcDbEntity
  8
Layer 01
 62
    18
420
        0
370
    -3
100
AcDbSpline
210
0.0
220
0.0
230
1.0
 70
    28
 71
     2
 72
     8
 73
     5
 74
     0
 42
0.000000001
 43
0.0000000001
 40
0.0
 40
0.0
 40
0.0
 40
2.028269913883952
 40
2.028269913883952
 40
4.056539827767905
 40
4.056539827767905
 40
4.056539827767905
 10
38.40594182176798
 20
9.038343371197058
 30
0.0
 41
1.0
 10
38.40594182176794
 20
9.038343371197058
 30
0.0
 41
0.7071067811865476
 10
39.69717855264483
 20
9.038343371197058
 30
0.0
 41
1.0
 10
40.9884152835216
 20
9.038343371197058
 30
0.0
 41
0.7071067811865476
 10
40.98841528352162
 20
9.038343371197058
 30
0.0
 41
1.0
  0
SPLINE
  5
17B
330
1F
100
AcDbEntity
  8
Layer 01
 62
    18
420
        0
370
    -3
100
AcDbSpline
210
0.0
220
0.0
230
1.0
 70
    28
 71
     2
 72
     6
 73
     3
 74
     0
 42
0.000000001
 43
0.0000000001
 40
0.6985645120323611
 40
0.6985645120323611
 40
0.6985645120323611
 40
1.0
 40
1.0
 40
1.0
 10
38.40594182176798
 20
9.339778859164698
 30
0.0
 41
1.0
 10
38.40594182176798
 20
9.189061115180877
 30
0.0
 41
1.0
 10
38.40594182176798
 20
9.038343371197058
 30
0.0
 41
1.0
  0
SPLINE
  5
17C
330
1F
100
AcDbEntity
  8
Layer 01
 62
    18
420
        0
370
    -3
100
AcDbSpline
210
0.0
220
0.0
230
1.0
 70
    28
 71
     2
 72
     6
 73
     3
 74
     0
 42
0.000000001
 43
0.0000000001
 40
0.0
 40
0.0
 40
0.0
 40
0.3722016022840928
 40
0.3722016022840928
 40
0.3722016022840928
 10
40.98841528352162
 20
9.038343371197058
 30
0.0
 41
1.0
 10
40.98841528352162
 20
9.224444172339105
 30
0.0
 41
1.0
 10
40.98841528352162
 20
9.410544973481151
 30
0.0
 41
1.0
  0
SPLINE
  5
17D
330
1F
100
AcDbEntity
  8
Layer 01
 62
    18
420
        0
370
    -3
100
AcDbSpline
210
0.0
220
0.0
230
1.0
 70
    28
 71
     2
 72
     8
 73
     5
 74
     0
 42
0.000000001
 43
0.0000000001
 40
2.028269913883952
 40
2.028269913883952
 40
2.028269913883952
 40
4.056539827767905
 40
4.056539827767905
 40
6.084809741651857
 40
6.084809741651857
 40
6.084809741651857
 10
1.29123673087679
 20
9.038343371197058
 30
0.0
 41
1.0
 10
1.291236730876811
 20
9.038343371197058
 30
0.0
 41
0.7071067811865476
 10
-0.0000000000000284
 20
9.038343371197058
 30
0.0
 41
1.0
 10
-1.291236730876831
 20
9.038343371197058
 30
0.0
 41
0.7071067811865476
 10
-1.291236730876818
 20
9.038343371197058
 30
0.0
 41
1.0
  0
SPLINE
  5
17E
330
1F
100
AcDbEntity
  8
Layer 01
 62
    18
420
        0
370
    -3
100
AcDbSpline
210
0.0
220
0.0
230
1.0
 70
    28
 71
     2
 72
     6
 73
     3
 74
     0
 42
0.000000001
 43
0.0000000001
 40
0.6877120449782234
 40
0.6877120449782234
 40
0.6877120449782234
 40
1.0
 40
1.0
 40
1.0
 10
1.29123673087679
 20
9.350631326218835
 30
0.0
 41
1.0
 10
1.29123673087679
 20
9.194487348707947
 30
0.0
 41
1.0
 10
1.29123673087679
 20
9.038343371197058
 30
0.0
 41
1.0
  0
ENDSEC
  0
SECTION
  2
OBJECTS
  0
DICTIONARY
  5
C
330
0
100
AcDbDictionary
281
     1
  3
ACAD_DETAILVIEWSTYLE
350
1BA
  3
ACAD_GROUP
350
D
  3
ACAD_LAYOUT
350
1A
  3
ACAD_MATERIAL
350
43
  3
ACAD_MLEADERSTYLE
350
6B
  3
ACAD_MLINESTYLE
350
17
  3
ACAD_PLOTSETTINGS
350
19
  3
ACAD_PLOTSTYLENAME
350
E
  3
ACAD_SCALELIST
350
47
  3
ACAD_SECTIONVIEWSTYLE
350
1BB
  3
ACAD_TABLESTYLE
350
69
  3
ACAD_VISUALSTYLE
350
2A
  3
ACDB_RECOMPOSE_DATA
350
1B7
  3
AcDbVariableDictionary
350
17F
  0
SUN
  5
6D
330
29
100
AcDbSun
 90
        1
290
     0
 63
     7
421
 16777215
 40
1.0
291
     1
 91
  2455826
 92
 54000000
292
     0
 70
     2
 71
   256
280
     1
  0
DICTIONARY
  5
1BA
102
{ACAD_REACTORS
330
C
102
}
330
C
100
AcDbDictionary
281
     1
  0
DICTIONARY
  5
D
102
{ACAD_REACTORS
330
C
102
}
330
C
100
AcDbDictionary
281
     1
  0
DICTIONARY
  5
1A
102
{ACAD_REACTORS
330
C
102
}
330
C
100
AcDbDictionary
281
     1
  3
Layout1
350
1E
  3
Layout2
350
26
  3
Model
350
22
  0
DICTIONARY
  5
43
102
{ACAD_REACTORS
330
C
102
}
330
C
100
AcDbDictionary
281
     1
  3
ByBlock
350
45
  3
ByLayer
350
44
  3
Global
350
46
  0
DICTIONARY
  5
6B
102
{ACAD_REACTORS
330
C
102
}
330
C
100
AcDbDictionary
281
     1
  3
Standard
350
6C
  0
DICTIONARY
  5
17
102
{ACAD_REACTORS
330
C
102
}
330
C
100
AcDbDictionary
281
     1
  3
Standard
350
18
  0
DICTIONARY
  5
19
102
{ACAD_REACTORS
330
C
102
}
330
C
100
AcDbDictionary
281
     1
  0
ACDBDICTIONARYWDFLT
  5
E
102
{ACAD_REACTORS
330
C
102
}
330
C
100
AcDbDictionary
281
     1
  3
Normal
350
F
100
AcDbDictionaryWithDefault
340
F
  0
DICTIONARY
  5
47
102
{ACAD_REACTORS
330
C
102
}
330
C
100
AcDbDictionary
281
     1
  3
A0
350
48
  3
A1
350
49
  3
A2
350
4A
  3
A3
350
4B
  3
A4
350
4C
  3
A5
350
4D
  3
A6
350
4E
  3
A7
350
4F
  3
A8
350
50
  3
A9
350
51
  3
B0
350
52
  3
B1
350
53
  3
B2
350
54
  3
B3
350
55
  3
B4
350
56
  3
B5
350
57
  3
B6
350
58
  3
B7
350
59
  3
B8
350
5A
  3
B9
350
5B
  3
C0
350
5C
  3
C1
350
5D
  3
C2
350
5E
  3
C3
350
5F
  3
C4
350
60
  3
C5
350
61
  3
C6
350
62
  3
C7
350
63
  3
C8
350
64
  3
C9
350
65
  3
D0
350
66
  3
D1
350
67
  3
D2
350
68
  0
DICTIONARY
  5
1BB
102
{ACAD_REACTORS
330
C
102
}
330
C
100
AcDbDictionary
281
     1
  0
DICTIONARY
  5
69
102
{ACAD_REACTORS
330
C
102
}
330
C
100
AcDbDictionary
281
     1
  3
Standard
350
6A
  0
DICTIONARY
  5
2A
102
{ACAD_REACTORS
330
C
102
}
330
C
100
AcDbDictionary
281
     1
  3
2dWireframe
350
2F
  3
Basic
350
32
  3
Brighten
350
36
  3
ColorChange
350
3A
  3
Conceptual
350
34
  3
Dim
350
35
  3
EdgeColorOff
350
3D
  3
Facepattern
350
39
  3
Flat
350
2B
  3
FlatWithEdges
350
2C
  3
Gouraud
350
2D
  3
GouraudWithEdges
350
2E
  3
Hidden
350
31
  3
JitterOff
350
3B
  3
Linepattern
350
38
  3
OverhangOff
350
3C
  3
Realistic
350
33
  3
Shaded
350
42
  3
Shaded with edges
350
41
  3
Shades of Gray
350
3E
  3
Sketchy
350
3F
  3
Thicken
350
37
  3
Wireframe
350
30
  3
X-Ray
350
40
  0
XRECORD
  5
1B7
102
{ACAD_REACTORS
330
C
102
}
330
C
100
AcDbXrecord
280
     1
 90
        1
330
6A
  0
DICTIONARY
  5
17F
102
{ACAD_REACTORS
330
C
102
}
330
C
100
AcDbDictionary
281
     1
  3
CANNOSCALE
350
180
  3
CMLEADERSTYLE
350
1B9
  3
CTABLESTYLE
350
1B8
  3
XCLIPFRAME
350
181
  0
LAYOUT
  5
1E
102
{ACAD_REACTORS
330
1A
102
}
330
1A
100
AcDbPlotSettings
  1

  2
none_device
  4

  6

 40
0.0
 41
0.0
 42
0.0
 43
0.0
 44
0.0
 45
0.0
 46
0.0
 47
0.0
 48
0.0
 49
0.0
140
0.0
141
0.0
142
1.0
143
1.0
 70
   688
 72
     0
 73
     0
 74
     5
  7

 75
    16
 76
     0
 77
     2
 78
   300
147
1.0
148
0.0
149
0.0
100
AcDbLayout
  1
Layout1
 70
     1
 71
     1
 10
0.0
 20
0.0
 11
12.0
 21
9.0
 12
0.0
 22
0.0
 32
0.0
 14
1.000000000000000E+20
 24
1.000000000000000E+20
 34
1.000000000000000E+20
 15
-1.000000000000000E+20
 25
-1.000000000000000E+20
 35
-1.000000000000000E+20
146
0.0
 13
0.0
 23
0.0
 33
0.0
 16
1.0
 26
0.0
 36
0.0
 17
0.0
 27
1.0
 37
0.0
 76
     0
330
1B
  0
LAYOUT
  5
26
102
{ACAD_REACTORS
330
1A
102
}
330
1A
100
AcDbPlotSettings
  1

  2
none_device
  4

  6

 40
0.0
 41
0.0
 42
0.0
 43
0.0
 44
0.0
 45
0.0
 46
0.0
 47
0.0
 48
0.0
 49
0.0
140
0.0
141
0.0
142
1.0
143
1.0
 70
   688
 72
     0
 73
     0
 74
     5
  7

 75
    16
 76
     0
 77
     2
 78
   300
147
1.0
148
0.0
149
0.0
100
AcDbLayout
  1
Layout2
 70
     1
 71
     2
 10
0.0
 20
0.0
 11
0.0
 21
0.0
 12
0.0
 22
0.0
 32
0.0
 14
0.0
 24
0.0
 34
0.0
 15
0.0
 25
0.0
 35
0.0
146
0.0
 13
0.0
 23
0.0
 33
0.0
 16
1.0
 26
0.0
 36
0.0
 17
0.0
 27
1.0
 37
0.0
 76
     0
330
23
  0
LAYOUT
  5
22
102
{ACAD_REACTORS
330
1A
102
}
330
1A
100
AcDbPlotSettings
  1

  2
none_device
  4
Letter_(8.50_x_11.00_Inches)
  6

 40
6.35
 41
6.35
 42
6.35000508
 43
6.35000508
 44
215.9
 45
279.4
 46
0.0
 47
0.0
 48
0.0
 49
0.0
140
0.0
141
0.0
142
1.0
143
1.0
 70
  1712
 72
     0
 73
     0
 74
     0
  7

 75
     0
 76
     0
 77
     2
 78
   300
147
1.0
148
0.0
149
0.0
100
AcDbLayout
  1
Model
 70
     1
 71
     0
 10
0.0
 20
0.0
 11
12.0
 21
9.0
 12
0.0
 22
0.0
 32
0.0
 14
1.000000000000000E+20
 24
1.000000000000000E+20
 34
1.000000000000000E+20
 15
-1.000000000000000E+20
 25
-1.000000000000000E+20
 35
-1.000000000000000E+20
146
0.0
 13
0.0
 23
0.0
 33
0.0
 16
1.0
 26
0.0
 36
0.0
 17
0.0
 27
1.0
 37
0.0
 76
     0
330
1F
331
29
  0
MATERIAL
  5
45
102
{ACAD_REACTORS
330
43
102
}
330
43
100
AcDbMaterial
  1
ByBlock
 72
     1
 94
      127
  0
MATERIAL
  5
44
102
{ACAD_REACTORS
330
43
102
}
330
43
100
AcDbMaterial
  1
ByLayer
 72
     1
 94
      127
  0
MATERIAL
  5
46
102
{ACAD_REACTORS
330
43
102
}
330
43
100
AcDbMaterial
  1
Global
 72
     1
 94
      127
  0
MLEADERSTYLE
  5
6C
102
{ACAD_REACTORS
330
6B
102
}
102
{ACAD_XDICTIONARY
360
1B5
102
}
330
6B
100
AcDbMLeaderStyle
170
     2
171
     1
172
     0
 90
        2
 40
0.0
 41
0.0
173
     1
 91
-1056964608
340
14
 92
       -2
290
     1
 42
0.09
291
     1
 43
0.36
  3
Standard
341
0
 44
0.18
300

342
11
174
     1
178
     6
175
     1
176
     0
 93
-1056964608
 45
0.18
292
     0
297
     0
 46
0.18
343
0
 94
-1056964608
 47
1.0
 49
1.0
140
1.0
293
     1
141
0.0
294
     1
177
     0
142
1.0
295
     0
296
     0
143
0.125
1001
ACAD_MLEADERVER
1070
     2
  0
MLINESTYLE
  5
18
102
{ACAD_REACTORS
330
17
102
}
330
17
100
AcDbMlineStyle
  2
Standard
 70
     0
  3

 62
   256
 51
90.0
 52
90.0
 71
     2
 49
0.5
 62
   256
  6
BYLAYER
 49
-0.5
 62
   256
  6
BYLAYER
  0
ACDBPLACEHOLDER
  5
F
102
{ACAD_REACTORS
330
E
102
}
330
E
  0
SCALE
  5
48
102
{ACAD_REACTORS
330
47
102
}
330
47
100
AcDbScale
 70
     0
300
1:1
140
1.0
141
1.0
290
     1
  0
SCALE
  5
49
102
{ACAD_REACTORS
330
47
102
}
330
47
100
AcDbScale
 70
     0
300
1:2
140
1.0
141
2.0
290
     0
  0
SCALE
  5
4A
102
{ACAD_REACTORS
330
47
102
}
330
47
100
AcDbScale
 70
     0
300
1:4
140
1.0
141
4.0
290
     0
  0
SCALE
  5
4B
102
{ACAD_REACTORS
330
47
102
}
330
47
100
AcDbScale
 70
     0
300
1:5
140
1.0
141
5.0
290
     0
  0
SCALE
  5
4C
102
{ACAD_REACTORS
330
47
102
}
330
47
100
AcDbScale
 70
     0
300
1:8
140
1.0
141
8.0
290
     0
  0
SCALE
  5
4D
102
{ACAD_REACTORS
330
47
102
}
330
47
100
AcDbScale
 70
     0
300
1:10
140
1.0
141
10.0
290
     0
  0
SCALE
  5
4E
102
{ACAD_REACTORS
330
47
102
}
330
47
100
AcDbScale
 70
     0
300
1:16
140
1.0
141
16.0
290
     0
  0
SCALE
  5
4F
102
{ACAD_REACTORS
330
47
102
}
330
47
100
AcDbScale
 70
     0
300
1:20
140
1.0
141
20.0
290
     0
  0
SCALE
  5
50
102
{ACAD_REACTORS
330
47
102
}
330
47
100
AcDbScale
 70
     0
300
1:30
140
1.0
141
30.0
290
     0
  0
SCALE
  5
51
102
{ACAD_REACTORS
330
47
102
}
330
47
100
AcDbScale
 70
     0
300
1:40
140
1.0
141
40.0
290
     0
  0
SCALE
  5
52
102
{ACAD_REACTORS
330
47
102
}
330
47
100
AcDbScale
 70
     0
300
1:50
140
1.0
141
50.0
290
     0
  0
SCALE
  5
53
102
{ACAD_REACTORS
330
47
102
}
330
47
100
AcDbScale
 70
     0
300
1:100
140
1.0
141
100.0
290
     0
  0
SCALE
  5
54
102
{ACAD_REACTORS
330
47
102
}
330
47
100
AcDbScale
 70
     0
300
2:1
140
2.0
141
1.0
290
     0
  0
SCALE
  5
55
102
{ACAD_REACTORS
330
47
102
}
330
47
100
AcDbScale
 70
     0
300
4:1
140
4.0
141
1.0
290
     0
  0
SCALE
  5
56
102
{ACAD_REACTORS
330
47
102
}
330
47
100
AcDbScale
 70
     0
300
8:1
140
8.0
141
1.0
290
     0
  0
SCALE
  5
57
102
{ACAD_REACTORS
330
47
102
}
330
47
100
AcDbScale
 70
     0
300
10:1
140
10.0
141
1.0
290
     0
  0
SCALE
  5
58
102
{ACAD_REACTORS
330
47
102
}
330
47
100
AcDbScale
 70
     0
300
100:1
140
100.0
141
1.0
290
     0
  0
SCALE
  5
59
102
{ACAD_REACTORS
330
47
102
}
330
47
100
AcDbScale
 70
     0
300
1/128" = 1'-0"
140
0.0078125
141
12.0
290
     0
  0
SCALE
  5
5A
102
{ACAD_REACTORS
330
47
102
}
330
47
100
AcDbScale
 70
     0
300
1/64" = 1'-0"
140
0.015625
141
12.0
290
     0
  0
SCALE
  5
5B
102
{ACAD_REACTORS
330
47
102
}
330
47
100
AcDbScale
 70
     0
300
1/32" = 1'-0"
140
0.03125
141
12.0
290
     0
  0
SCALE
  5
5C
102
{ACAD_REACTORS
330
47
102
}
330
47
100
AcDbScale
 70
     0
300
1/16" = 1'-0"
140
0.0625
141
12.0
290
     0
  0
SCALE
  5
5D
102
{ACAD_REACTORS
330
47
102
}
330
47
100
AcDbScale
 70
     0
300
3/32" = 1'-0"
140
0.09375
141
12.0
290
     0
  0
SCALE
  5
5E
102
{ACAD_REACTORS
330
47
102
}
330
47
100
AcDbScale
 70
     0
300
1/8" = 1'-0"
140
0.125
141
12.0
290
     0
  0
SCALE
  5
5F
102
{ACAD_REACTORS
330
47
102
}
330
47
100
AcDbScale
 70
     0
300
3/16" = 1'-0"
140
0.1875
141
12.0
290
     0
  0
SCALE
  5
60
102
{ACAD_REACTORS
330
47
102
}
330
47
100
AcDbScale
 70
     0
300
1/4" = 1'-0"
140
0.25
141
12.0
290
     0
  0
SCALE
  5
61
102
{ACAD_REACTORS
330
47
102
}
330
47
100
AcDbScale
 70
     0
300
3/8" = 1'-0"
140
0.375
141
12.0
290
     0
  0
SCALE
  5
62
102
{ACAD_REACTORS
330
47
102
}
330
47
100
AcDbScale
 70
     0
300
1/2" = 1'-0"
140
0.5
141
12.0
290
     0
  0
SCALE
  5
63
102
{ACAD_REACTORS
330
47
102
}
330
47
100
AcDbScale
 70
     0
300
3/4" = 1'-0"
140
0.75
141
12.0
290
     0
  0
SCALE
  5
64
102
{ACAD_REACTORS
330
47
102
}
330
47
100
AcDbScale
 70
     0
300
1" = 1'-0"
140
1.0
141
12.0
290
     0
  0
SCALE
  5
65
102
{ACAD_REACTORS
330
47
102
}
330
47
100
AcDbScale
 70
     0
300
1-1/2" = 1'-0"
140
1.5
141
12.0
290
     0
  0
SCALE
  5
66
102
{ACAD_REACTORS
330
47
102
}
330
47
100
AcDbScale
 70
     0
300
3" = 1'-0"
140
3.0
141
12.0
290
     0
  0
SCALE
  5
67
102
{ACAD_REACTORS
330
47
102
}
330
47
100
AcDbScale
 70
     0
300
6" = 1'-0"
140
6.0
141
12.0
290
     0
  0
SCALE
  5
68
102
{ACAD_REACTORS
330
47
102
}
330
47
100
AcDbScale
 70
     0
300
1'-0" = 1'-0"
140
12.0
141
12.0
290
     0
  0
TABLESTYLE
  5
6A
102
{ACAD_REACTORS
330
69
102
}
102
{ACAD_XDICTIONARY
360
1B2
102
}
330
69
100
AcDbTableStyle
  3
Standard
 70
     0
 71
     0
 40
0.06
 41
0.06
280
     0
281
     0
  7
Standard
140
0.18
170
     2
 62
     0
 63
   257
283
     0
 90
        4
 91
        0
  1

274
    -2
284
     1
 64
     0
275
    -2
285
     1
 65
     0
276
    -2
286
     1
 66
     0
277
    -2
287
     1
 67
     0
278
    -2
288
     1
 68
     0
279
    -2
289
     1
 69
     0
  7
Standard
140
0.25
170
     5
 62
     0
 63
   257
283
     0
 90
        4
 91
        0
  1

274
    -2
284
     1
 64
     0
275
    -2
285
     1
 65
     0
276
    -2
286
     1
 66
     0
277
    -2
287
     1
 67
     0
278
    -2
288
     1
 68
     0
279
    -2
289
     1
 69
     0
  7
Standard
140
0.18
170
     5
 62
     0
 63
   257
283
     0
 90
        4
 91
        0
  1

274
    -2
284
     1
 64
     0
275
    -2
285
     1
 65
     0
276
    -2
286
     1
 66
     0
277
    -2
287
     1
 67
     0
278
    -2
288
     1
 68
     0
279
    -2
289
     1
 69
     0
  0
VISUALSTYLE
  5
2F
102
{ACAD_REACTORS
330
2A
102
}
102
{ACAD_XDICTIONARY
360
18A
102
}
330
2A
100
AcDbVisualStyle
  2
2dWireframe
 70
     4
 71
     0
 72
     2
 73
     0
 90
        0
 40
0.6
 41
30.0
 62
     5
 63
     7
421
 16777215
 74
     1
 91
        4
 64
     7
 65
   257
 75
     1
175
     1
 42
1.0
 92
        0
 66
   257
 43
1.0
 76
     1
 77
     6
 78
     2
 67
     7
 79
     5
170
     0
171
     0
290
     0
174
     0
 93
        1
 44
0.0
173
     0
291
     0
 45
0.0
  0
VISUALSTYLE
  5
32
102
{ACAD_REACTORS
330
2A
102
}
102
{ACAD_XDICTIONARY
360
190
102
}
330
2A
100
AcDbVisualStyle
  2
Basic
 70
     7
 71
     1
 72
     0
 73
     1
 90
        0
 40
0.6
 41
30.0
 62
     5
 63
     7
421
 16777215
 74
     0
 91
        4
 64
     7
 65
   257
 75
     1
175
     1
 42
1.0
 92
        8
 66
     7
 43
1.0
 76
     1
 77
     6
 78
     2
 67
     7
 79
     5
170
     0
171
     0
290
     0
174
     0
 93
        1
 44
0.0
173
     0
291
     1
 45
0.0
  0
VISUALSTYLE
  5
36
102
{ACAD_REACTORS
330
2A
102
}
102
{ACAD_XDICTIONARY
360
198
102
}
330
2A
100
AcDbVisualStyle
  2
Brighten
 70
    12
 71
     2
 72
     2
 73
     0
 90
        0
 40
0.6
 41
30.0
 62
     5
 63
     7
421
 16777215
 74
     1
 91
        4
 64
     7
 65
   257
 75
     1
175
     1
 42
1.0
 92
        8
 66
     7
 43
1.0
 76
     1
 77
     6
 78
     2
 67
     7
 79
     5
170
     0
171
     0
290
     0
174
     0
 93
        1
 44
50.0
173
     0
291
     1
 45
0.0
  0
VISUALSTYLE
  5
3A
102
{ACAD_REACTORS
330
2A
102
}
102
{ACAD_XDICTIONARY
360
1A0
102
}
330
2A
100
AcDbVisualStyle
  2
ColorChange
 70
    16
 71
     2
 72
     2
 73
     3
 90
        0
 40
0.6
 41
30.0
 62
     5
 63
     8
421
  8421504
 74
     1
 91
        4
 64
     7
 65
   257
 75
     1
175
     1
 42
1.0
 92
        8
 66
     8
424
  8421504
 43
1.0
 76
     1
 77
     6
 78
     2
 67
     7
 79
     5
170
     0
171
     0
290
     0
174
     0
 93
        1
 44
0.0
173
     0
291
     1
 45
0.0
  0
VISUALSTYLE
  5
34
102
{ACAD_REACTORS
330
2A
102
}
102
{ACAD_XDICTIONARY
360
194
102
}
330
2A
100
AcDbVisualStyle
  2
Conceptual
 70
     9
 71
     3
 72
     2
 73
     0
 90
        0
 40
0.6
 41
30.0
 62
     5
 63
     7
421
 16777215
 74
     2
 91
        2
 64
     7
 65
   257
 75
     1
175
     1
 42
179.0
 92
        8
 66
     7
 43
1.0
 76
     1
 77
     6
 78
     2
 67
     7
 79
     3
170
     0
171
     0
290
     0
174
     0
 93
        1
 44
0.0
173
     0
291
     0
 45
0.0
  0
VISUALSTYLE
  5
35
102
{ACAD_REACTORS
330
2A
102
}
102
{ACAD_XDICTIONARY
360
196
102
}
330
2A
100
AcDbVisualStyle
  2
Dim
 70
    11
 71
     2
 72
     2
 73
     0
 90
        0
 40
0.6
 41
30.0
 62
     5
 63
     7
421
 16777215
 74
     1
 91
        4
 64
     7
 65
   257
 75
     1
175
     1
 42
1.0
 92
        8
 66
     7
 43
1.0
 76
     1
 77
     6
 78
     2
 67
     7
 79
     5
170
     0
171
     0
290
     0
174
     0
 93
        1
 44
-50.0
173
     0
291
     1
 45
0.0
  0
VISUALSTYLE
  5
3D
102
{ACAD_REACTORS
330
2A
102
}
102
{ACAD_XDICTIONARY
360
1A6
102
}
330
2A
100
AcDbVisualStyle
  2
EdgeColorOff
 70
    22
 71
     2
 72
     2
 73
     0
 90
        0
 40
0.6
 41
30.0
 62
     5
 63
     7
421
 16777215
 74
     1
 91
        4
 64
     7
 65
   257
 75
     1
175
     1
 42
1.0
 92
        8
 66
     7
 43
1.0
 76
     1
 77
     6
 78
     2
 67
     7
 79
     5
170
     0
171
     0
290
     0
174
     0
 93
        1
 44
0.0
173
     0
291
     1
 45
0.0
  0
VISUALSTYLE
  5
39
102
{ACAD_REACTORS
330
2A
102
}
102
{ACAD_XDICTIONARY
360
19E
102
}
330
2A
100
AcDbVisualStyle
  2
Facepattern
 70
    15
 71
     2
 72
     2
 73
     0
 90
        0
 40
0.6
 41
30.0
 62
     5
 63
     7
421
 16777215
 74
     1
 91
        4
 64
     7
 65
   257
 75
     1
175
     1
 42
1.0
 92
        8
 66
     7
 43
1.0
 76
     1
 77
     6
 78
     2
 67
     7
 79
     5
170
     0
171
     0
290
     0
174
     0
 93
        1
 44
0.0
173
     0
291
     1
 45
0.0
  0
VISUALSTYLE
  5
2B
102
{ACAD_REACTORS
330
2A
102
}
102
{ACAD_XDICTIONARY
360
182
102
}
330
2A
100
AcDbVisualStyle
  2
Flat
 70
     0
 71
     2
 72
     1
 73
     1
 90
        2
 40
0.6
 41
30.0
 62
     5
 63
     7
421
 16777215
 74
     0
 91
        0
 64
     7
 65
   257
 75
     1
175
     1
 42
1.0
 92
        8
 66
     7
 43
1.0
 76
     1
 77
     6
 78
     2
 67
     7
 79
     5
170
     0
171
     0
290
     0
174
     0
 93
       13
 44
0.0
173
     0
291
     1
 45
0.0
  0
VISUALSTYLE
  5
2C
102
{ACAD_REACTORS
330
2A
102
}
102
{ACAD_XDICTIONARY
360
184
102
}
330
2A
100
AcDbVisualStyle
  2
FlatWithEdges
 70
     1
 71
     2
 72
     1
 73
     1
 90
        2
 40
0.6
 41
30.0
 62
     5
 63
     7
421
 16777215
 74
     1
 91
        0
 64
     7
 65
   257
 75
     1
175
     1
 42
1.0
 92
        0
 66
   257
 43
1.0
 76
     1
 77
     6
 78
     2
 67
     7
 79
     5
170
     0
171
     0
290
     0
174
     0
 93
       13
 44
0.0
173
     0
291
     1
 45
0.0
  0
VISUALSTYLE
  5
2D
102
{ACAD_REACTORS
330
2A
102
}
102
{ACAD_XDICTIONARY
360
186
102
}
330
2A
100
AcDbVisualStyle
  2
Gouraud
 70
     2
 71
     2
 72
     2
 73
     1
 90
        2
 40
0.6
 41
30.0
 62
     5
 63
     7
421
 16777215
 74
     0
 91
        0
 64
     7
 65
   257
 75
     1
175
     1
 42
1.0
 92
        0
 66
     7
 43
1.0
 76
     1
 77
     6
 78
     2
 67
     7
 79
     5
170
     0
171
     0
290
     0
174
     0
 93
       13
 44
0.0
173
     0
291
     1
 45
0.0
  0
VISUALSTYLE
  5
2E
102
{ACAD_REACTORS
330
2A
102
}
102
{ACAD_XDICTIONARY
360
188
102
}
330
2A
100
AcDbVisualStyle
  2
GouraudWithEdges
 70
     3
 71
     2
 72
     2
 73
     1
 90
        2
 40
0.6
 41
30.0
 62
     5
 63
     7
421
 16777215
 74
     1
 91
        0
 64
     7
 65
   257
 75
     1
175
     1
 42
1.0
 92
        0
 66
   257
 43
1.0
 76
     1
 77
     6
 78
     2
 67
     7
 79
     5
170
     0
171
     0
290
     0
174
     0
 93
       13
 44
0.0
173
     0
291
     1
 45
0.0
  0
VISUALSTYLE
  5
31
102
{ACAD_REACTORS
330
2A
102
}
102
{ACAD_XDICTIONARY
360
18E
102
}
330
2A
100
AcDbVisualStyle
  2
Hidden
 70
     6
 71
     1
 72
     2
 73
     2
 90
        0
 40
0.6
 41
30.0
 62
     5
 63
     7
421
 16777215
 74
     2
 91
        2
 64
     7
 65
   257
 75
     2
175
     1
 42
40.0
 92
        0
 66
   257
 43
1.0
 76
     1
 77
     6
 78
     2
 67
     7
 79
     3
170
     0
171
     0
290
     0
174
     0
 93
        1
 44
0.0
173
     0
291
     0
 45
0.0
  0
VISUALSTYLE
  5
3B
102
{ACAD_REACTORS
330
2A
102
}
102
{ACAD_XDICTIONARY
360
1A2
102
}
330
2A
100
AcDbVisualStyle
  2
JitterOff
 70
    20
 71
     2
 72
     2
 73
     0
 90
        0
 40
0.6
 41
30.0
 62
     5
 63
     7
421
 16777215
 74
     1
 91
        4
 64
     7
 65
   257
 75
     1
175
     1
 42
1.0
 92
       10
 66
     7
 43
1.0
 76
     1
 77
     6
 78
     2
 67
     7
 79
     5
170
     0
171
     0
290
     0
174
     0
 93
        1
 44
0.0
173
     0
291
     1
 45
0.0
  0
VISUALSTYLE
  5
38
102
{ACAD_REACTORS
330
2A
102
}
102
{ACAD_XDICTIONARY
360
19C
102
}
330
2A
100
AcDbVisualStyle
  2
Linepattern
 70
    14
 71
     2
 72
     2
 73
     0
 90
        0
 40
0.6
 41
30.0
 62
     5
 63
     7
421
 16777215
 74
     1
 91
        4
 64
     7
 65
   257
 75
     7
175
     7
 42
1.0
 92
        8
 66
     7
 43
1.0
 76
     1
 77
     6
 78
     2
 67
     7
 79
     5
170
     0
171
     0
290
     0
174
     0
 93
        1
 44
0.0
173
     0
291
     1
 45
0.0
  0
VISUALSTYLE
  5
3C
102
{ACAD_REACTORS
330
2A
102
}
102
{ACAD_XDICTIONARY
360
1A4
102
}
330
2A
100
AcDbVisualStyle
  2
OverhangOff
 70
    21
 71
     2
 72
     2
 73
     0
 90
        0
 40
0.6
 41
30.0
 62
     5
 63
     7
421
 16777215
 74
     1
 91
        4
 64
     7
 65
   257
 75
     1
175
     1
 42
1.0
 92
        9
 66
     7
 43
1.0
 76
     1
 77
     6
 78
     2
 67
     7
 79
     5
170
     0
171
     0
290
     0
174
     0
 93
        1
 44
0.0
173
     0
291
     1
 45
0.0
  0
VISUALSTYLE
  5
33
102
{ACAD_REACTORS
330
2A
102
}
102
{ACAD_XDICTIONARY
360
192
102
}
330
2A
100
AcDbVisualStyle
  2
Realistic
 70
     8
 71
     2
 72
     3
 73
     0
 90
        2
 40
0.6
 41
30.0
 62
     5
 63
     7
421
 16777215
 74
     0
 91
        0
 64
     7
 65
   257
 75
     1
175
     1
 42
1.0
 92
        8
 66
   257
 43
1.0
 76
     1
 77
     6
 78
     2
 67
     7
 79
     3
170
     0
171
     0
290
     0
174
     0
 93
       13
 44
0.0
173
     0
291
     0
 45
0.0
  0
VISUALSTYLE
  5
42
102
{ACAD_REACTORS
330
2A
102
}
102
{ACAD_XDICTIONARY
360
1B0
102
}
330
2A
100
AcDbVisualStyle
  2
Shaded
 70
    27
 71
     2
 72
     2
 73
     1
 90
        2
 40
0.6
 41
30.0
 62
     5
 63
     7
421
 16777215
 74
     0
 91
        4
 64
     7
 65
   257
 75
     1
175
     1
 42
1.0
 92
        8
 66
   257
 43
1.0
 76
     1
 77
     6
 78
     2
 67
     8
425
  7895160
 79
     3
170
     0
171
     0
290
     0
174
     0
 93
        5
 44
0.0
173
     0
291
     0
 45
0.0
  0
VISUALSTYLE
  5
41
102
{ACAD_REACTORS
330
2A
102
}
102
{ACAD_XDICTIONARY
360
1AE
102
}
330
2A
100
AcDbVisualStyle
  2
Shaded with edges
 70
    26
 71
     2
 72
     2
 73
     1
 90
        2
 40
0.6
 41
30.0
 62
     5
 63
     7
421
 16777215
 74
     1
 91
       10
 64
     7
 65
   257
 75
     2
175
     1
 42
1.0
 92
        8
 66
   257
 43
1.0
 76
     1
 77
     6
 78
     2
 67
     7
 79
     3
170
     0
171
     0
290
     0
174
     0
 93
        5
 44
0.0
173
     0
291
     0
 45
0.0
  0
VISUALSTYLE
  5
3E
102
{ACAD_REACTORS
330
2A
102
}
102
{ACAD_XDICTIONARY
360
1A8
102
}
330
2A
100
AcDbVisualStyle
  2
Shades of Gray
 70
    23
 71
     2
 72
     2
 73
     3
 90
        0
 40
0.6
 41
30.0
 62
     5
 63
     7
421
 16777215
 74
     2
 91
        2
 64
     7
 65
     7
 75
     1
175
     1
 42
40.0
 92
        8
 66
     7
 43
1.0
 76
     1
 77
     6
 78
     2
 67
     7
 79
     3
170
     0
171
     0
290
     0
174
     0
 93
        1
 44
0.0
173
     0
291
     0
 45
0.0
  0
VISUALSTYLE
  5
3F
102
{ACAD_REACTORS
330
2A
102
}
102
{ACAD_XDICTIONARY
360
1AA
102
}
330
2A
100
AcDbVisualStyle
  2
Sketchy
 70
    24
 71
     1
 72
     2
 73
     2
 90
        0
 40
0.6
 41
30.0
 62
     5
 63
     7
421
 16777215
 74
     2
 91
        2
 64
     7
 65
     7
 75
     1
175
     1
 42
40.0
 92
       11
 66
     7
 43
1.0
 76
     1
 77
     6
 78
     2
 67
     7
 79
     6
170
     0
171
     0
290
     0
174
     0
 93
        1
 44
0.0
173
     0
291
     0
 45
0.0
  0
VISUALSTYLE
  5
37
102
{ACAD_REACTORS
330
2A
102
}
102
{ACAD_XDICTIONARY
360
19A
102
}
330
2A
100
AcDbVisualStyle
  2
Thicken
 70
    13
 71
     2
 72
     2
 73
     0
 90
        0
 40
0.6
 41
30.0
 62
     5
 63
     7
421
 16777215
 74
     1
 91
        4
 64
     7
 65
   257
 75
     1
175
     1
 42
1.0
 92
       12
 66
     7
 43
1.0
 76
     1
 77
     6
 78
     2
 67
     7
 79
     5
170
     0
171
     0
290
     0
174
     0
 93
        1
 44
0.0
173
     0
291
     1
 45
0.0
  0
VISUALSTYLE
  5
30
102
{ACAD_REACTORS
330
2A
102
}
102
{ACAD_XDICTIONARY
360
18C
102
}
330
2A
100
AcDbVisualStyle
  2
Wireframe
 70
     5
 71
     0
 72
     2
 73
     0
 90
        0
 40
0.6
 41
30.0
 62
     5
 63
     7
421
 16777215
 74
     1
 91
        4
 64
     7
 65
   257
 75
     1
175
     1
 42
1.0
 92
        0
 66
   257
 43
1.0
 76
     1
 77
     6
 78
     2
 67
     7
 79
     3
170
     0
171
     0
290
     0
174
     0
 93
        1
 44
0.0
173
     0
291
     0
 45
0.0
  0
VISUALSTYLE
  5
40
102
{ACAD_REACTORS
330
2A
102
}
102
{ACAD_XDICTIONARY
360
1AC
102
}
330
2A
100
AcDbVisualStyle
  2
X-Ray
 70
    25
 71
     2
 72
     2
 73
     1
 90
        1
 40
0.5
 41
30.0
 62
     5
 63
     7
421
 16777215
 74
     1
 91
        0
 64
     7
 65
   257
 75
     1
175
     1
 42
1.0
 92
        8
 66
     7
 43
1.0
 76
     1
 77
     6
 78
     2
 67
     7
 79
     3
170
     0
171
     0
290
     0
174
     0
 93
       13
 44
0.0
173
     0
291
     0
 45
0.0
  0
DICTIONARYVAR
  5
180
102
{ACAD_REACTORS
330
17F
102
}
330
17F
100
DictionaryVariables
280
     0
  1
1:1
  0
DICTIONARYVAR
  5
1B9
102
{ACAD_REACTORS
330
17F
102
}
330
17F
100
DictionaryVariables
280
     0
  1
Standard
  0
DICTIONARYVAR
  5
1B8
102
{ACAD_REACTORS
330
17F
102
}
330
17F
100
DictionaryVariables
280
     0
  1
Standard
  0
DICTIONARYVAR
  5
181
102
{ACAD_REACTORS
330
17F
102
}
330
17F
100
DictionaryVariables
280
     0
  1
2
  0
DICTIONARY
  5
1B5
330
6C
100
AcDbDictionary
280
     1
281
     1
  3
ACAD_XREC_ROUNDTRIP
360
1B6
  0
DICTIONARY
  5
1B2
330
6A
100
AcDbDictionary
280
     1
281
     1
  3
ACAD_ROUNDTRIP_2008_TABLESTYLE_CELLSTYLEMAP
360
1B3
  0
DICTIONARY
  5
18A
330
2F
100
AcDbDictionary
280
     1
281
     1
  3
ACAD_XREC_ROUNDTRIP
360
18B
  0
DICTIONARY
  5
190
330
32
100
AcDbDictionary
280
     1
281
     1
  3
ACAD_XREC_ROUNDTRIP
360
191
  0
DICTIONARY
  5
198
330
36
100
AcDbDictionary
280
     1
281
     1
  3
ACAD_XREC_ROUNDTRIP
360
199
  0
DICTIONARY
  5
1A0
330
3A
100
AcDbDictionary
280
     1
281
     1
  3
ACAD_XREC_ROUNDTRIP
360
1A1
  0
DICTIONARY
  5
194
330
34
100
AcDbDictionary
280
     1
281
     1
  3
ACAD_XREC_ROUNDTRIP
360
195
  0
DICTIONARY
  5
196
330
35
100
AcDbDictionary
280
     1
281
     1
  3
ACAD_XREC_ROUNDTRIP
360
197
  0
DICTIONARY
  5
1A6
330
3D
100
AcDbDictionary
280
     1
281
     1
  3
ACAD_XREC_ROUNDTRIP
360
1A7
  0
DICTIONARY
  5
19E
330
39
100
AcDbDictionary
280
     1
281
     1
  3
ACAD_XREC_ROUNDTRIP
360
19F
  0
DICTIONARY
  5
182
330
2B
100
AcDbDictionary
280
     1
281
     1
  3
ACAD_XREC_ROUNDTRIP
360
183
  0
DICTIONARY
  5
184
330
2C
100
AcDbDictionary
280
     1
281
     1
  3
ACAD_XREC_ROUNDTRIP
360
185
  0
DICTIONARY
  5
186
330
2D
100
AcDbDictionary
280
     1
281
     1
  3
ACAD_XREC_ROUNDTRIP
360
187
  0
DICTIONARY
  5
188
330
2E
100
AcDbDictionary
280
     1
281
     1
  3
ACAD_XREC_ROUNDTRIP
360
189
  0
DICTIONARY
  5
18E
330
31
100
AcDbDictionary
280
     1
281
     1
  3
ACAD_XREC_ROUNDTRIP
360
18F
  0
DICTIONARY
  5
1A2
330
3B
100
AcDbDictionary
280
     1
281
     1
  3
ACAD_XREC_ROUNDTRIP
360
1A3
  0
DICTIONARY
  5
19C
330
38
100
AcDbDictionary
280
     1
281
     1
  3
ACAD_XREC_ROUNDTRIP
360
19D
  0
DICTIONARY
  5
1A4
330
3C
100
AcDbDictionary
280
     1
281
     1
  3
ACAD_XREC_ROUNDTRIP
360
1A5
  0
DICTIONARY
  5
192
330
33
100
AcDbDictionary
280
     1
281
     1
  3
ACAD_XREC_ROUNDTRIP
360
193
  0
DICTIONARY
  5
1B0
330
42
100
AcDbDictionary
280
     1
281
     1
  3
ACAD_XREC_ROUNDTRIP
360
1B1
  0
DICTIONARY
  5
1AE
330
41
100
AcDbDictionary
280
     1
281
     1
  3
ACAD_XREC_ROUNDTRIP
360
1AF
  0
DICTIONARY
  5
1A8
330
3E
100
AcDbDictionary
280
     1
281
     1
  3
ACAD_XREC_ROUNDTRIP
360
1A9
  0
DICTIONARY
  5
1AA
330
3F
100
AcDbDictionary
280
     1
281
     1
  3
ACAD_XREC_ROUNDTRIP
360
1AB
  0
DICTIONARY
  5
19A
330
37
100
AcDbDictionary
280
     1
281
     1
  3
ACAD_XREC_ROUNDTRIP
360
19B
  0
DICTIONARY
  5
18C
330
30
100
AcDbDictionary
280
     1
281
     1
  3
ACAD_XREC_ROUNDTRIP
360
18D
  0
DICTIONARY
  5
1AC
330
40
100
AcDbDictionary
280
     1
281
     1
  3
ACAD_XREC_ROUNDTRIP
360
1AD
  0
XRECORD
  5
1B6
102
{ACAD_REACTORS
330
1B5
102
}
330
1B5
100
AcDbXrecord
280
     1
102
ACAD_ROUNDTRIP_2010_MLEADER_STYLE
  0
CELLSTYLEMAP
  5
1B3
102
{ACAD_REACTORS
330
1B2
102
}
330
1B2
100
AcDbCellStyleMap
 90
        3
300
CELLSTYLE
  1
TABLEFORMAT_BEGIN
 90
        5
170
     1
 91
        0
 92
    32768
 62
   257
 93
        1
300
CONTENTFORMAT
  1
CONTENTFORMAT_BEGIN
 90
        0
 91
        0
 92
        4
 93
        0
300

 40
0.0
140
1.0
 94
        5
 62
     0
340
11
144
0.25
309
CONTENTFORMAT_END
171
     1
301
MARGIN
  1
CELLMARGIN_BEGIN
 40
0.06
 40
0.06
 40
0.06
 40
0.06
 40
0.06
 40
0.06
309
CELLMARGIN_END
 94
        6
 95
        1
302
GRIDFORMAT
  1
GRIDFORMAT_BEGIN
 90
        0
 91
        1
 62
     0
 92
       -2
340
14
 93
        0
 40
0.045
309
GRIDFORMAT_END
 95
        2
302
GRIDFORMAT
  1
GRIDFORMAT_BEGIN
 90
        0
 91
        1
 62
     0
 92
       -2
340
14
 93
        0
 40
0.045
309
GRIDFORMAT_END
 95
        4
302
GRIDFORMAT
  1
GRIDFORMAT_BEGIN
 90
        0
 91
        1
 62
     0
 92
       -2
340
14
 93
        0
 40
0.045
309
GRIDFORMAT_END
 95
        8
302
GRIDFORMAT
  1
GRIDFORMAT_BEGIN
 90
        0
 91
        1
 62
     0
 92
       -2
340
14
 93
        0
 40
0.045
309
GRIDFORMAT_END
 95
       16
302
GRIDFORMAT
  1
GRIDFORMAT_BEGIN
 90
        0
 91
        1
 62
     0
 92
       -2
340
14
 93
        0
 40
0.045
309
GRIDFORMAT_END
 95
       32
302
GRIDFORMAT
  1
GRIDFORMAT_BEGIN
 90
        0
 91
        1
 62
     0
 92
       -2
340
14
 93
        0
 40
0.045
309
GRIDFORMAT_END
309
TABLEFORMAT_END
  1
CELLSTYLE_BEGIN
 90
        1
 91
        1
300
_TITLE
309
CELLSTYLE_END
300
CELLSTYLE
  1
TABLEFORMAT_BEGIN
 90
        5
170
     1
 91
        0
 92
        0
 62
   257
 93
        1
300
CONTENTFORMAT
  1
CONTENTFORMAT_BEGIN
 90
        0
 91
        0
 92
        4
 93
        0
300

 40
0.0
140
1.0
 94
        5
 62
     0
340
11
144
0.18
309
CONTENTFORMAT_END
171
     1
301
MARGIN
  1
CELLMARGIN_BEGIN
 40
0.06
 40
0.06
 40
0.06
 40
0.06
 40
0.06
 40
0.06
309
CELLMARGIN_END
 94
        6
 95
        1
302
GRIDFORMAT
  1
GRIDFORMAT_BEGIN
 90
        0
 91
        1
 62
     0
 92
       -2
340
14
 93
        0
 40
0.045
309
GRIDFORMAT_END
 95
        2
302
GRIDFORMAT
  1
GRIDFORMAT_BEGIN
 90
        0
 91
        1
 62
     0
 92
       -2
340
14
 93
        0
 40
0.045
309
GRIDFORMAT_END
 95
        4
302
GRIDFORMAT
  1
GRIDFORMAT_BEGIN
 90
        0
 91
        1
 62
     0
 92
       -2
340
14
 93
        0
 40
0.045
309
GRIDFORMAT_END
 95
        8
302
GRIDFORMAT
  1
GRIDFORMAT_BEGIN
 90
        0
 91
        1
 62
     0
 92
       -2
340
14
 93
        0
 40
0.045
309
GRIDFORMAT_END
 95
       16
302
GRIDFORMAT
  1
GRIDFORMAT_BEGIN
 90
        0
 91
        1
 62
     0
 92
       -2
340
14
 93
        0
 40
0.045
309
GRIDFORMAT_END
 95
       32
302
GRIDFORMAT
  1
GRIDFORMAT_BEGIN
 90
        0
 91
        1
 62
     0
 92
       -2
340
14
 93
        0
 40
0.045
309
GRIDFORMAT_END
309
TABLEFORMAT_END
  1
CELLSTYLE_BEGIN
 90
        2
 91
        1
300
_HEADER
309
CELLSTYLE_END
300
CELLSTYLE
  1
TABLEFORMAT_BEGIN
 90
        5
170
     1
 91
        0
 92
        0
 62
   257
 93
        1
300
CONTENTFORMAT
  1
CONTENTFORMAT_BEGIN
 90
        0
 91
        0
 92
        4
 93
        0
300

 40
0.0
140
1.0
 94
        2
 62
     0
340
11
144
0.18
309
CONTENTFORMAT_END
171
     1
301
MARGIN
  1
CELLMARGIN_BEGIN
 40
0.06
 40
0.06
 40
0.06
 40
0.06
 40
0.06
 40
0.06
309
CELLMARGIN_END
 94
        6
 95
        1
302
GRIDFORMAT
  1
GRIDFORMAT_BEGIN
 90
        0
 91
        1
 62
     0
 92
       -2
340
14
 93
        0
 40
0.045
309
GRIDFORMAT_END
 95
        2
302
GRIDFORMAT
  1
GRIDFORMAT_BEGIN
 90
        0
 91
        1
 62
     0
 92
       -2
340
14
 93
        0
 40
0.045
309
GRIDFORMAT_END
 95
        4
302
GRIDFORMAT
  1
GRIDFORMAT_BEGIN
 90
        0
 91
        1
 62
     0
 92
       -2
340
14
 93
        0
 40
0.045
309
GRIDFORMAT_END
 95
        8
302
GRIDFORMAT
  1
GRIDFORMAT_BEGIN
 90
        0
 91
        1
 62
     0
 92
       -2
340
14
 93
        0
 40
0.045
309
GRIDFORMAT_END
 95
       16
302
GRIDFORMAT
  1
GRIDFORMAT_BEGIN
 90
        0
 91
        1
 62
     0
 92
       -2
340
14
 93
        0
 40
0.045
309
GRIDFORMAT_END
 95
       32
302
GRIDFORMAT
  1
GRIDFORMAT_BEGIN
 90
        0
 91
        1
 62
     0
 92
       -2
340
14
 93
        0
 40
0.045
309
GRIDFORMAT_END
309
TABLEFORMAT_END
  1
CELLSTYLE_BEGIN
 90
        3
 91
        2
300
_DATA
309
CELLSTYLE_END
  0
XRECORD
  5
18B
102
{ACAD_REACTORS
330
18A
102
}
330
18A
100
AcDbXrecord
280
     1
102
RTVSPropertyOp0
 70
     1
102
RTVSPropertyOp1
 70
     1
102
RTVSPropertyOp2
 70
     1
102
RTVSPropertyOp3
 70
     1
102
RTVSPropertyOp4
 70
     1
102
RTVSPropertyOp5
 70
     1
102
RTVSPropertyOp6
 70
     1
102
RTVSPropertyOp7
 70
     1
102
RTVSPropertyOp8
 70
     1
102
RTVSPropertyOp9
 70
     1
102
RTVSPropertyOp10
 70
     1
102
RTVSPropertyOp11
 70
     1
102
RTVSPropertyOp12
 70
     1
102
RTVSPropertyOp13
 70
     1
102
RTVSPropertyOp14
 70
     1
102
RTVSPropertyOp15
 70
     1
102
RTVSPropertyOp16
 70
     1
102
RTVSPropertyOp17
 70
     1
102
RTVSPropertyOp18
 70
     1
102
RTVSPropertyOp19
 70
     1
102
RTVSPropertyOp20
 70
     1
102
RTVSPropertyOp21
 70
     1
102
RTVSPropertyOp22
 70
     1
102
RTVSPropertyOp23
 70
     1
102
RTVSPropertyOp24
 70
     1
102
RTVSPropertyOp25
 70
     1
102
RTVSPropertyOp26
 70
     1
102
RTVSPropertyOp27
 70
     1
102
RTVSPropertyOp28
 70
     1
102
RTVSPropertyOp29
 70
     1
102
RTVSPropertyOp30
 70
     1
102
RTVSPropertyOp31
 70
     1
102
RTVSPropertyOp32
 70
     1
102
RTVSPropertyOp33
 70
     1
102
RTVSPropertyOp34
 70
     1
102
RTVSPropertyOp35
 70
     1
102
RTVSPropertyOp36
 70
     1
102
RTVSPropertyOp37
 70
     1
102
RTVSPropertyOp38
 70
     1
102
RTVSPropertyOp39
 70
     1
102
RTVSPropertyOp40
 70
     1
102
RTVSPropertyOp41
 70
     1
102
RTVSPropertyOp42
 70
     1
102
RTVSPropertyOp43
 70
     1
102
RTVSPropertyOp44
 70
     1
102
RTVSPropertyOp45
 70
     1
102
RTVSPropertyOp46
 70
     1
102
RTVSPropertyOp47
 70
     1
102
RTVSPropertyOp48
 70
     1
102
RTVSPropertyOp49
 70
     1
102
RTVSPropertyOp50
 70
     1
102
RTVSPropertyOp51
 70
     0
102
RTVSPropertyOp52
 70
     0
102
RTVSPropertyOp53
 70
     1
102
RTVSPropertyOp54
 70
     1
102
RTVSPropertyOp55
 70
     1
102
RTVSPropertyOp56
 70
     1
102
RTVSPropertyOp57
 70
     1
102
RTVSPost2010Prop28
280
     1
102
RTVSPost2010PropOp28
 70
     1
102
RTVSPost2010Prop29
280
     1
102
RTVSPost2010PropOp29
 70
     1
102
RTVSPost2010Prop30
280
     0
102
RTVSPost2010PropOp30
 70
     1
102
RTVSPost2010Prop31
280
     0
102
RTVSPost2010PropOp31
 70
     1
102
RTVSPost2010Prop32
280
     0
102
RTVSPost2010PropOp32
 70
     1
102
RTVSPost2010Prop33
280
     0
102
RTVSPost2010PropOp33
 70
     1
102
RTVSPost2010Prop34
280
     0
102
RTVSPost2010PropOp34
 70
     1
102
RTVSPost2010Prop35
280
     0
102
RTVSPost2010PropOp35
 70
     1
102
RTVSPost2010Prop36
280
     0
102
RTVSPost2010PropOp36
 70
     1
102
RTVSPost2010Prop37
 90
       50
102
RTVSPost2010PropOp37
 70
     1
102
RTVSPost2010Prop38
140
0.0
102
RTVSPost2010PropOp38
 70
     1
102
RTVSPost2010Prop39
140
1.0
102
RTVSPost2010PropOp39
 70
     1
102
RTVSPost2010Prop40
 90
        0
102
RTVSPost2010PropOp40
 70
     1
102
RTVSPost2010Prop41ColorIndex
 90
       18
102
RTVSPost2010Prop41ColorRGB
 90
        0
102
RTVSPost2010PropOp41
 70
     1
102
RTVSPost2010Prop42
 90
       50
102
RTVSPost2010PropOp42
 70
     1
102
RTVSPost2010Prop43
 90
        3
102
RTVSPost2010PropOp43
 70
     1
102
RTVSPost2010Prop44ColorIndex
 90
        5
102
RTVSPost2010Prop44ColorRGB
 90
      255
102
RTVSPost2010PropOp44
 70
     1
102
RTVSPost2010Prop45
280
     0
102
RTVSPost2010PropOp45
 70
     1
102
RTVSPost2010Prop46
 90
       50
102
RTVSPost2010PropOp46
 70
     1
102
RTVSPost2010Prop47
 90
       50
102
RTVSPost2010PropOp47
 70
     1
102
RTVSPost2010Prop48
 90
       50
102
RTVSPost2010PropOp48
 70
     1
102
RTVSPost2010Prop49
280
     0
102
RTVSPost2010PropOp49
 70
     1
102
RTVSPost2010Prop50
 90
       50
102
RTVSPost2010PropOp50
 70
     1
102
RTVSPost2010Prop51ColorIndex
 90
      256
102
RTVSPost2010Prop51ColorRGB
 90
-16777216
102
RTVSPost2010PropOp51
 70
     0
102
RTVSPost2010Prop52
140
1.0
102
RTVSPost2010PropOp52
 70
     0
102
RTVSPost2010Prop53
 90
        2
102
RTVSPost2010PropOp53
 70
     1
102
RTVSPost2010Prop54
  1
strokes_ogs.tif
102
RTVSPost2010PropOp54
 70
     1
102
RTVSPost2010Prop55
280
     0
102
RTVSPost2010PropOp55
 70
     1
102
RTVSPost2010Prop56
140
1.0
102
RTVSPost2010PropOp56
 70
     1
102
RTVSPost2010Prop57
140
1.0
102
RTVSPost2010PropOp57
 70
     1
  0
XRECORD
  5
191
102
{ACAD_REACTORS
330
190
102
}
330
190
100
AcDbXrecord
280
     1
102
RTVSPropertyOp0
 70
     1
102
RTVSPropertyOp1
 70
     1
102
RTVSPropertyOp2
 70
     1
102
RTVSPropertyOp3
 70
     1
102
RTVSPropertyOp4
 70
     1
102
RTVSPropertyOp5
 70
     1
102
RTVSPropertyOp6
 70
     1
102
RTVSPropertyOp7
 70
     1
102
RTVSPropertyOp8
 70
     1
102
RTVSPropertyOp9
 70
     1
102
RTVSPropertyOp10
 70
     1
102
RTVSPropertyOp11
 70
     1
102
RTVSPropertyOp12
 70
     1
102
RTVSPropertyOp13
 70
     1
102
RTVSPropertyOp14
 70
     1
102
RTVSPropertyOp15
 70
     1
102
RTVSPropertyOp16
 70
     1
102
RTVSPropertyOp17
 70
     1
102
RTVSPropertyOp18
 70
     1
102
RTVSPropertyOp19
 70
     1
102
RTVSPropertyOp20
 70
     1
102
RTVSPropertyOp21
 70
     1
102
RTVSPropertyOp22
 70
     1
102
RTVSPropertyOp23
 70
     1
102
RTVSPropertyOp24
 70
     1
102
RTVSPropertyOp25
 70
     1
102
RTVSPropertyOp26
 70
     1
102
RTVSPropertyOp27
 70
     1
102
RTVSPropertyOp28
 70
     1
102
RTVSPropertyOp29
 70
     1
102
RTVSPropertyOp30
 70
     1
102
RTVSPropertyOp31
 70
     1
102
RTVSPropertyOp32
 70
     1
102
RTVSPropertyOp33
 70
     1
102
RTVSPropertyOp34
 70
     1
102
RTVSPropertyOp35
 70
     1
102
RTVSPropertyOp36
 70
     1
102
RTVSPropertyOp37
 70
     1
102
RTVSPropertyOp38
 70
     1
102
RTVSPropertyOp39
 70
     1
102
RTVSPropertyOp40
 70
     1
102
RTVSPropertyOp41
 70
     1
102
RTVSPropertyOp42
 70
     1
102
RTVSPropertyOp43
 70
     1
102
RTVSPropertyOp44
 70
     1
102
RTVSPropertyOp45
 70
     1
102
RTVSPropertyOp46
 70
     1
102
RTVSPropertyOp47
 70
     1
102
RTVSPropertyOp48
 70
     1
102
RTVSPropertyOp49
 70
     1
102
RTVSPropertyOp50
 70
     1
102
RTVSPropertyOp51
 70
     0
102
RTVSPropertyOp52
 70
     0
102
RTVSPropertyOp53
 70
     1
102
RTVSPropertyOp54
 70
     1
102
RTVSPropertyOp55
 70
     1
102
RTVSPropertyOp56
 70
     1
102
RTVSPropertyOp57
 70
     1
102
RTVSPost2010Prop28
280
     0
102
RTVSPost2010PropOp28
 70
     1
102
RTVSPost2010Prop29
280
     1
102
RTVSPost2010PropOp29
 70
     1
102
RTVSPost2010Prop30
280
     1
102
RTVSPost2010PropOp30
 70
     1
102
RTVSPost2010Prop31
280
     0
102
RTVSPost2010PropOp31
 70
     1
102
RTVSPost2010Prop32
280
     0
102
RTVSPost2010PropOp32
 70
     1
102
RTVSPost2010Prop33
280
     0
102
RTVSPost2010PropOp33
 70
     1
102
RTVSPost2010Prop34
280
     0
102
RTVSPost2010PropOp34
 70
     1
102
RTVSPost2010Prop35
280
     0
102
RTVSPost2010PropOp35
 70
     1
102
RTVSPost2010Prop36
280
     0
102
RTVSPost2010PropOp36
 70
     1
102
RTVSPost2010Prop37
 90
       50
102
RTVSPost2010PropOp37
 70
     1
102
RTVSPost2010Prop38
140
0.0
102
RTVSPost2010PropOp38
 70
     1
102
RTVSPost2010Prop39
140
1.0
102
RTVSPost2010PropOp39
 70
     1
102
RTVSPost2010Prop40
 90
        0
102
RTVSPost2010PropOp40
 70
     1
102
RTVSPost2010Prop41ColorIndex
 90
       18
102
RTVSPost2010Prop41ColorRGB
 90
        0
102
RTVSPost2010PropOp41
 70
     1
102
RTVSPost2010Prop42
 90
       50
102
RTVSPost2010PropOp42
 70
     1
102
RTVSPost2010Prop43
 90
        3
102
RTVSPost2010PropOp43
 70
     1
102
RTVSPost2010Prop44ColorIndex
 90
        5
102
RTVSPost2010Prop44ColorRGB
 90
      255
102
RTVSPost2010PropOp44
 70
     1
102
RTVSPost2010Prop45
280
     0
102
RTVSPost2010PropOp45
 70
     1
102
RTVSPost2010Prop46
 90
       50
102
RTVSPost2010PropOp46
 70
     1
102
RTVSPost2010Prop47
 90
       50
102
RTVSPost2010PropOp47
 70
     1
102
RTVSPost2010Prop48
 90
       50
102
RTVSPost2010PropOp48
 70
     1
102
RTVSPost2010Prop49
280
     0
102
RTVSPost2010PropOp49
 70
     1
102
RTVSPost2010Prop50
 90
       50
102
RTVSPost2010PropOp50
 70
     1
102
RTVSPost2010Prop51ColorIndex
 90
      256
102
RTVSPost2010Prop51ColorRGB
 90
-16777216
102
RTVSPost2010PropOp51
 70
     0
102
RTVSPost2010Prop52
140
1.0
102
RTVSPost2010PropOp52
 70
     0
102
RTVSPost2010Prop53
 90
        2
102
RTVSPost2010PropOp53
 70
     1
102
RTVSPost2010Prop54
  1
strokes_ogs.tif
102
RTVSPost2010PropOp54
 70
     1
102
RTVSPost2010Prop55
280
     0
102
RTVSPost2010PropOp55
 70
     1
102
RTVSPost2010Prop56
140
1.0
102
RTVSPost2010PropOp56
 70
     1
102
RTVSPost2010Prop57
140
1.0
102
RTVSPost2010PropOp57
 70
     1
  0
XRECORD
  5
199
102
{ACAD_REACTORS
330
198
102
}
330
198
100
AcDbXrecord
280
     1
102
RTVSPropertyOp0
 70
     1
102
RTVSPropertyOp1
 70
     1
102
RTVSPropertyOp2
 70
     1
102
RTVSPropertyOp3
 70
     1
102
RTVSPropertyOp4
 70
     1
102
RTVSPropertyOp5
 70
     1
102
RTVSPropertyOp6
 70
     1
102
RTVSPropertyOp7
 70
     1
102
RTVSPropertyOp8
 70
     1
102
RTVSPropertyOp9
 70
     1
102
RTVSPropertyOp10
 70
     1
102
RTVSPropertyOp11
 70
     1
102
RTVSPropertyOp12
 70
     1
102
RTVSPropertyOp13
 70
     1
102
RTVSPropertyOp14
 70
     1
102
RTVSPropertyOp15
 70
     1
102
RTVSPropertyOp16
 70
     1
102
RTVSPropertyOp17
 70
     1
102
RTVSPropertyOp18
 70
     1
102
RTVSPropertyOp19
 70
     1
102
RTVSPropertyOp20
 70
     1
102
RTVSPropertyOp21
 70
     1
102
RTVSPropertyOp22
 70
     1
102
RTVSPropertyOp23
 70
     1
102
RTVSPropertyOp24
 70
     1
102
RTVSPropertyOp25
 70
     1
102
RTVSPropertyOp26
 70
     1
102
RTVSPropertyOp27
 70
     1
102
RTVSPropertyOp28
 70
     1
102
RTVSPropertyOp29
 70
     1
102
RTVSPropertyOp30
 70
     1
102
RTVSPropertyOp31
 70
     1
102
RTVSPropertyOp32
 70
     1
102
RTVSPropertyOp33
 70
     1
102
RTVSPropertyOp34
 70
     1
102
RTVSPropertyOp35
 70
     1
102
RTVSPropertyOp36
 70
     1
102
RTVSPropertyOp37
 70
     1
102
RTVSPropertyOp38
 70
     1
102
RTVSPropertyOp39
 70
     1
102
RTVSPropertyOp40
 70
     1
102
RTVSPropertyOp41
 70
     1
102
RTVSPropertyOp42
 70
     1
102
RTVSPropertyOp43
 70
     1
102
RTVSPropertyOp44
 70
     1
102
RTVSPropertyOp45
 70
     1
102
RTVSPropertyOp46
 70
     1
102
RTVSPropertyOp47
 70
     1
102
RTVSPropertyOp48
 70
     1
102
RTVSPropertyOp49
 70
     1
102
RTVSPropertyOp50
 70
     1
102
RTVSPropertyOp51
 70
     0
102
RTVSPropertyOp52
 70
     0
102
RTVSPropertyOp53
 70
     1
102
RTVSPropertyOp54
 70
     1
102
RTVSPropertyOp55
 70
     1
102
RTVSPropertyOp56
 70
     1
102
RTVSPropertyOp57
 70
     1
102
RTVSPost2010Prop28
280
     0
102
RTVSPost2010PropOp28
 70
     1
102
RTVSPost2010Prop29
280
     1
102
RTVSPost2010PropOp29
 70
     1
102
RTVSPost2010Prop30
280
     1
102
RTVSPost2010PropOp30
 70
     1
102
RTVSPost2010Prop31
280
     0
102
RTVSPost2010PropOp31
 70
     1
102
RTVSPost2010Prop32
280
     0
102
RTVSPost2010PropOp32
 70
     1
102
RTVSPost2010Prop33
280
     0
102
RTVSPost2010PropOp33
 70
     1
102
RTVSPost2010Prop34
280
     0
102
RTVSPost2010PropOp34
 70
     1
102
RTVSPost2010Prop35
280
     0
102
RTVSPost2010PropOp35
 70
     1
102
RTVSPost2010Prop36
280
     0
102
RTVSPost2010PropOp36
 70
     1
102
RTVSPost2010Prop37
 90
       50
102
RTVSPost2010PropOp37
 70
     1
102
RTVSPost2010Prop38
140
0.0
102
RTVSPost2010PropOp38
 70
     1
102
RTVSPost2010Prop39
140
1.0
102
RTVSPost2010PropOp39
 70
     1
102
RTVSPost2010Prop40
 90
        0
102
RTVSPost2010PropOp40
 70
     1
102
RTVSPost2010Prop41ColorIndex
 90
       18
102
RTVSPost2010Prop41ColorRGB
 90
        0
102
RTVSPost2010PropOp41
 70
     1
102
RTVSPost2010Prop42
 90
       50
102
RTVSPost2010PropOp42
 70
     1
102
RTVSPost2010Prop43
 90
        3
102
RTVSPost2010PropOp43
 70
     1
102
RTVSPost2010Prop44ColorIndex
 90
        5
102
RTVSPost2010Prop44ColorRGB
 90
      255
102
RTVSPost2010PropOp44
 70
     1
102
RTVSPost2010Prop45
280
     0
102
RTVSPost2010PropOp45
 70
     1
102
RTVSPost2010Prop46
 90
       50
102
RTVSPost2010PropOp46
 70
     1
102
RTVSPost2010Prop47
 90
       50
102
RTVSPost2010PropOp47
 70
     1
102
RTVSPost2010Prop48
 90
       50
102
RTVSPost2010PropOp48
 70
     1
102
RTVSPost2010Prop49
280
     0
102
RTVSPost2010PropOp49
 70
     1
102
RTVSPost2010Prop50
 90
       50
102
RTVSPost2010PropOp50
 70
     1
102
RTVSPost2010Prop51ColorIndex
 90
      256
102
RTVSPost2010Prop51ColorRGB
 90
-16777216
102
RTVSPost2010PropOp51
 70
     0
102
RTVSPost2010Prop52
140
1.0
102
RTVSPost2010PropOp52
 70
     0
102
RTVSPost2010Prop53
 90
        2
102
RTVSPost2010PropOp53
 70
     1
102
RTVSPost2010Prop54
  1
strokes_ogs.tif
102
RTVSPost2010PropOp54
 70
     1
102
RTVSPost2010Prop55
280
     0
102
RTVSPost2010PropOp55
 70
     1
102
RTVSPost2010Prop56
140
1.0
102
RTVSPost2010PropOp56
 70
     1
102
RTVSPost2010Prop57
140
1.0
102
RTVSPost2010PropOp57
 70
     1
  0
XRECORD
  5
1A1
102
{ACAD_REACTORS
330
1A0
102
}
330
1A0
100
AcDbXrecord
280
     1
102
RTVSPropertyOp0
 70
     1
102
RTVSPropertyOp1
 70
     1
102
RTVSPropertyOp2
 70
     1
102
RTVSPropertyOp3
 70
     1
102
RTVSPropertyOp4
 70
     1
102
RTVSPropertyOp5
 70
     1
102
RTVSPropertyOp6
 70
     1
102
RTVSPropertyOp7
 70
     1
102
RTVSPropertyOp8
 70
     1
102
RTVSPropertyOp9
 70
     1
102
RTVSPropertyOp10
 70
     1
102
RTVSPropertyOp11
 70
     1
102
RTVSPropertyOp12
 70
     1
102
RTVSPropertyOp13
 70
     1
102
RTVSPropertyOp14
 70
     1
102
RTVSPropertyOp15
 70
     1
102
RTVSPropertyOp16
 70
     1
102
RTVSPropertyOp17
 70
     1
102
RTVSPropertyOp18
 70
     1
102
RTVSPropertyOp19
 70
     1
102
RTVSPropertyOp20
 70
     1
102
RTVSPropertyOp21
 70
     1
102
RTVSPropertyOp22
 70
     1
102
RTVSPropertyOp23
 70
     1
102
RTVSPropertyOp24
 70
     1
102
RTVSPropertyOp25
 70
     1
102
RTVSPropertyOp26
 70
     1
102
RTVSPropertyOp27
 70
     1
102
RTVSPropertyOp28
 70
     1
102
RTVSPropertyOp29
 70
     1
102
RTVSPropertyOp30
 70
     1
102
RTVSPropertyOp31
 70
     1
102
RTVSPropertyOp32
 70
     1
102
RTVSPropertyOp33
 70
     1
102
RTVSPropertyOp34
 70
     1
102
RTVSPropertyOp35
 70
     1
102
RTVSPropertyOp36
 70
     1
102
RTVSPropertyOp37
 70
     1
102
RTVSPropertyOp38
 70
     1
102
RTVSPropertyOp39
 70
     1
102
RTVSPropertyOp40
 70
     1
102
RTVSPropertyOp41
 70
     1
102
RTVSPropertyOp42
 70
     1
102
RTVSPropertyOp43
 70
     1
102
RTVSPropertyOp44
 70
     1
102
RTVSPropertyOp45
 70
     1
102
RTVSPropertyOp46
 70
     1
102
RTVSPropertyOp47
 70
     1
102
RTVSPropertyOp48
 70
     1
102
RTVSPropertyOp49
 70
     1
102
RTVSPropertyOp50
 70
     1
102
RTVSPropertyOp51
 70
     0
102
RTVSPropertyOp52
 70
     0
102
RTVSPropertyOp53
 70
     1
102
RTVSPropertyOp54
 70
     1
102
RTVSPropertyOp55
 70
     1
102
RTVSPropertyOp56
 70
     1
102
RTVSPropertyOp57
 70
     1
102
RTVSPost2010Prop28
280
     0
102
RTVSPost2010PropOp28
 70
     1
102
RTVSPost2010Prop29
280
     1
102
RTVSPost2010PropOp29
 70
     1
102
RTVSPost2010Prop30
280
     1
102
RTVSPost2010PropOp30
 70
     1
102
RTVSPost2010Prop31
280
     0
102
RTVSPost2010PropOp31
 70
     1
102
RTVSPost2010Prop32
280
     0
102
RTVSPost2010PropOp32
 70
     1
102
RTVSPost2010Prop33
280
     0
102
RTVSPost2010PropOp33
 70
     1
102
RTVSPost2010Prop34
280
     0
102
RTVSPost2010PropOp34
 70
     1
102
RTVSPost2010Prop35
280
     0
102
RTVSPost2010PropOp35
 70
     1
102
RTVSPost2010Prop36
280
     0
102
RTVSPost2010PropOp36
 70
     1
102
RTVSPost2010Prop37
 90
       50
102
RTVSPost2010PropOp37
 70
     1
102
RTVSPost2010Prop38
140
0.0
102
RTVSPost2010PropOp38
 70
     1
102
RTVSPost2010Prop39
140
1.0
102
RTVSPost2010PropOp39
 70
     1
102
RTVSPost2010Prop40
 90
        0
102
RTVSPost2010PropOp40
 70
     1
102
RTVSPost2010Prop41ColorIndex
 90
       18
102
RTVSPost2010Prop41ColorRGB
 90
        0
102
RTVSPost2010PropOp41
 70
     1
102
RTVSPost2010Prop42
 90
       50
102
RTVSPost2010PropOp42
 70
     1
102
RTVSPost2010Prop43
 90
        3
102
RTVSPost2010PropOp43
 70
     1
102
RTVSPost2010Prop44ColorIndex
 90
        5
102
RTVSPost2010Prop44ColorRGB
 90
      255
102
RTVSPost2010PropOp44
 70
     1
102
RTVSPost2010Prop45
280
     0
102
RTVSPost2010PropOp45
 70
     1
102
RTVSPost2010Prop46
 90
       50
102
RTVSPost2010PropOp46
 70
     1
102
RTVSPost2010Prop47
 90
       50
102
RTVSPost2010PropOp47
 70
     1
102
RTVSPost2010Prop48
 90
       50
102
RTVSPost2010PropOp48
 70
     1
102
RTVSPost2010Prop49
280
     0
102
RTVSPost2010PropOp49
 70
     1
102
RTVSPost2010Prop50
 90
       50
102
RTVSPost2010PropOp50
 70
     1
102
RTVSPost2010Prop51ColorIndex
 90
      256
102
RTVSPost2010Prop51ColorRGB
 90
-16777216
102
RTVSPost2010PropOp51
 70
     0
102
RTVSPost2010Prop52
140
1.0
102
RTVSPost2010PropOp52
 70
     0
102
RTVSPost2010Prop53
 90
        2
102
RTVSPost2010PropOp53
 70
     1
102
RTVSPost2010Prop54
  1
strokes_ogs.tif
102
RTVSPost2010PropOp54
 70
     1
102
RTVSPost2010Prop55
280
     0
102
RTVSPost2010PropOp55
 70
     1
102
RTVSPost2010Prop56
140
1.0
102
RTVSPost2010PropOp56
 70
     1
102
RTVSPost2010Prop57
140
1.0
102
RTVSPost2010PropOp57
 70
     1
  0
XRECORD
  5
195
102
{ACAD_REACTORS
330
194
102
}
330
194
100
AcDbXrecord
280
     1
102
RTVSPropertyOp0
 70
     1
102
RTVSPropertyOp1
 70
     1
102
RTVSPropertyOp2
 70
     1
102
RTVSPropertyOp3
 70
     1
102
RTVSPropertyOp4
 70
     1
102
RTVSPropertyOp5
 70
     1
102
RTVSPropertyOp6
 70
     1
102
RTVSPropertyOp7
 70
     1
102
RTVSPropertyOp8
 70
     1
102
RTVSPropertyOp9
 70
     1
102
RTVSPropertyOp10
 70
     1
102
RTVSPropertyOp11
 70
     1
102
RTVSPropertyOp12
 70
     1
102
RTVSPropertyOp13
 70
     1
102
RTVSPropertyOp14
 70
     1
102
RTVSPropertyOp15
 70
     1
102
RTVSPropertyOp16
 70
     1
102
RTVSPropertyOp17
 70
     1
102
RTVSPropertyOp18
 70
     1
102
RTVSPropertyOp19
 70
     1
102
RTVSPropertyOp20
 70
     1
102
RTVSPropertyOp21
 70
     1
102
RTVSPropertyOp22
 70
     1
102
RTVSPropertyOp23
 70
     1
102
RTVSPropertyOp24
 70
     1
102
RTVSPropertyOp25
 70
     1
102
RTVSPropertyOp26
 70
     1
102
RTVSPropertyOp27
 70
     1
102
RTVSPropertyOp28
 70
     1
102
RTVSPropertyOp29
 70
     1
102
RTVSPropertyOp30
 70
     1
102
RTVSPropertyOp31
 70
     1
102
RTVSPropertyOp32
 70
     1
102
RTVSPropertyOp33
 70
     1
102
RTVSPropertyOp34
 70
     1
102
RTVSPropertyOp35
 70
     1
102
RTVSPropertyOp36
 70
     1
102
RTVSPropertyOp37
 70
     1
102
RTVSPropertyOp38
 70
     1
102
RTVSPropertyOp39
 70
     1
102
RTVSPropertyOp40
 70
     1
102
RTVSPropertyOp41
 70
     1
102
RTVSPropertyOp42
 70
     1
102
RTVSPropertyOp43
 70
     1
102
RTVSPropertyOp44
 70
     1
102
RTVSPropertyOp45
 70
     1
102
RTVSPropertyOp46
 70
     1
102
RTVSPropertyOp47
 70
     1
102
RTVSPropertyOp48
 70
     1
102
RTVSPropertyOp49
 70
     1
102
RTVSPropertyOp50
 70
     1
102
RTVSPropertyOp51
 70
     0
102
RTVSPropertyOp52
 70
     0
102
RTVSPropertyOp53
 70
     1
102
RTVSPropertyOp54
 70
     1
102
RTVSPropertyOp55
 70
     1
102
RTVSPropertyOp56
 70
     1
102
RTVSPropertyOp57
 70
     1
102
RTVSPost2010Prop28
280
     0
102
RTVSPost2010PropOp28
 70
     1
102
RTVSPost2010Prop29
280
     1
102
RTVSPost2010PropOp29
 70
     1
102
RTVSPost2010Prop30
280
     1
102
RTVSPost2010PropOp30
 70
     1
102
RTVSPost2010Prop31
280
     0
102
RTVSPost2010PropOp31
 70
     1
102
RTVSPost2010Prop32
280
     0
102
RTVSPost2010PropOp32
 70
     1
102
RTVSPost2010Prop33
280
     0
102
RTVSPost2010PropOp33
 70
     1
102
RTVSPost2010Prop34
280
     0
102
RTVSPost2010PropOp34
 70
     1
102
RTVSPost2010Prop35
280
     0
102
RTVSPost2010PropOp35
 70
     1
102
RTVSPost2010Prop36
280
     0
102
RTVSPost2010PropOp36
 70
     1
102
RTVSPost2010Prop37
 90
       50
102
RTVSPost2010PropOp37
 70
     1
102
RTVSPost2010Prop38
140
0.0
102
RTVSPost2010PropOp38
 70
     1
102
RTVSPost2010Prop39
140
1.0
102
RTVSPost2010PropOp39
 70
     1
102
RTVSPost2010Prop40
 90
        0
102
RTVSPost2010PropOp40
 70
     1
102
RTVSPost2010Prop41ColorIndex
 90
       18
102
RTVSPost2010Prop41ColorRGB
 90
        0
102
RTVSPost2010PropOp41
 70
     1
102
RTVSPost2010Prop42
 90
       50
102
RTVSPost2010PropOp42
 70
     1
102
RTVSPost2010Prop43
 90
        3
102
RTVSPost2010PropOp43
 70
     1
102
RTVSPost2010Prop44ColorIndex
 90
        5
102
RTVSPost2010Prop44ColorRGB
 90
      255
102
RTVSPost2010PropOp44
 70
     1
102
RTVSPost2010Prop45
280
     0
102
RTVSPost2010PropOp45
 70
     1
102
RTVSPost2010Prop46
 90
       50
102
RTVSPost2010PropOp46
 70
     1
102
RTVSPost2010Prop47
 90
       50
102
RTVSPost2010PropOp47
 70
     1
102
RTVSPost2010Prop48
 90
       50
102
RTVSPost2010PropOp48
 70
     1
102
RTVSPost2010Prop49
280
     0
102
RTVSPost2010PropOp49
 70
     1
102
RTVSPost2010Prop50
 90
       50
102
RTVSPost2010PropOp50
 70
     1
102
RTVSPost2010Prop51ColorIndex
 90
      256
102
RTVSPost2010Prop51ColorRGB
 90
-16777216
102
RTVSPost2010PropOp51
 70
     0
102
RTVSPost2010Prop52
140
1.0
102
RTVSPost2010PropOp52
 70
     0
102
RTVSPost2010Prop53
 90
        2
102
RTVSPost2010PropOp53
 70
     1
102
RTVSPost2010Prop54
  1
strokes_ogs.tif
102
RTVSPost2010PropOp54
 70
     1
102
RTVSPost2010Prop55
280
     0
102
RTVSPost2010PropOp55
 70
     1
102
RTVSPost2010Prop56
140
1.0
102
RTVSPost2010PropOp56
 70
     1
102
RTVSPost2010Prop57
140
1.0
102
RTVSPost2010PropOp57
 70
     1
  0
XRECORD
  5
197
102
{ACAD_REACTORS
330
196
102
}
330
196
100
AcDbXrecord
280
     1
102
RTVSPropertyOp0
 70
     1
102
RTVSPropertyOp1
 70
     1
102
RTVSPropertyOp2
 70
     1
102
RTVSPropertyOp3
 70
     1
102
RTVSPropertyOp4
 70
     1
102
RTVSPropertyOp5
 70
     1
102
RTVSPropertyOp6
 70
     1
102
RTVSPropertyOp7
 70
     1
102
RTVSPropertyOp8
 70
     1
102
RTVSPropertyOp9
 70
     1
102
RTVSPropertyOp10
 70
     1
102
RTVSPropertyOp11
 70
     1
102
RTVSPropertyOp12
 70
     1
102
RTVSPropertyOp13
 70
     1
102
RTVSPropertyOp14
 70
     1
102
RTVSPropertyOp15
 70
     1
102
RTVSPropertyOp16
 70
     1
102
RTVSPropertyOp17
 70
     1
102
RTVSPropertyOp18
 70
     1
102
RTVSPropertyOp19
 70
     1
102
RTVSPropertyOp20
 70
     1
102
RTVSPropertyOp21
 70
     1
102
RTVSPropertyOp22
 70
     1
102
RTVSPropertyOp23
 70
     1
102
RTVSPropertyOp24
 70
     1
102
RTVSPropertyOp25
 70
     1
102
RTVSPropertyOp26
 70
     1
102
RTVSPropertyOp27
 70
     1
102
RTVSPropertyOp28
 70
     1
102
RTVSPropertyOp29
 70
     1
102
RTVSPropertyOp30
 70
     1
102
RTVSPropertyOp31
 70
     1
102
RTVSPropertyOp32
 70
     1
102
RTVSPropertyOp33
 70
     1
102
RTVSPropertyOp34
 70
     1
102
RTVSPropertyOp35
 70
     1
102
RTVSPropertyOp36
 70
     1
102
RTVSPropertyOp37
 70
     1
102
RTVSPropertyOp38
 70
     1
102
RTVSPropertyOp39
 70
     1
102
RTVSPropertyOp40
 70
     1
102
RTVSPropertyOp41
 70
     1
102
RTVSPropertyOp42
 70
     1
102
RTVSPropertyOp43
 70
     1
102
RTVSPropertyOp44
 70
     1
102
RTVSPropertyOp45
 70
     1
102
RTVSPropertyOp46
 70
     1
102
RTVSPropertyOp47
 70
     1
102
RTVSPropertyOp48
 70
     1
102
RTVSPropertyOp49
 70
     1
102
RTVSPropertyOp50
 70
     1
102
RTVSPropertyOp51
 70
     0
102
RTVSPropertyOp52
 70
     0
102
RTVSPropertyOp53
 70
     1
102
RTVSPropertyOp54
 70
     1
102
RTVSPropertyOp55
 70
     1
102
RTVSPropertyOp56
 70
     1
102
RTVSPropertyOp57
 70
     1
102
RTVSPost2010Prop28
280
     0
102
RTVSPost2010PropOp28
 70
     1
102
RTVSPost2010Prop29
280
     1
102
RTVSPost2010PropOp29
 70
     1
102
RTVSPost2010Prop30
280
     1
102
RTVSPost2010PropOp30
 70
     1
102
RTVSPost2010Prop31
280
     0
102
RTVSPost2010PropOp31
 70
     1
102
RTVSPost2010Prop32
280
     0
102
RTVSPost2010PropOp32
 70
     1
102
RTVSPost2010Prop33
280
     0
102
RTVSPost2010PropOp33
 70
     1
102
RTVSPost2010Prop34
280
     0
102
RTVSPost2010PropOp34
 70
     1
102
RTVSPost2010Prop35
280
     0
102
RTVSPost2010PropOp35
 70
     1
102
RTVSPost2010Prop36
280
     0
102
RTVSPost2010PropOp36
 70
     1
102
RTVSPost2010Prop37
 90
       50
102
RTVSPost2010PropOp37
 70
     1
102
RTVSPost2010Prop38
140
0.0
102
RTVSPost2010PropOp38
 70
     1
102
RTVSPost2010Prop39
140
1.0
102
RTVSPost2010PropOp39
 70
     1
102
RTVSPost2010Prop40
 90
        0
102
RTVSPost2010PropOp40
 70
     1
102
RTVSPost2010Prop41ColorIndex
 90
       18
102
RTVSPost2010Prop41ColorRGB
 90
        0
102
RTVSPost2010PropOp41
 70
     1
102
RTVSPost2010Prop42
 90
       50
102
RTVSPost2010PropOp42
 70
     1
102
RTVSPost2010Prop43
 90
        3
102
RTVSPost2010PropOp43
 70
     1
102
RTVSPost2010Prop44ColorIndex
 90
        5
102
RTVSPost2010Prop44ColorRGB
 90
      255
102
RTVSPost2010PropOp44
 70
     1
102
RTVSPost2010Prop45
280
     0
102
RTVSPost2010PropOp45
 70
     1
102
RTVSPost2010Prop46
 90
       50
102
RTVSPost2010PropOp46
 70
     1
102
RTVSPost2010Prop47
 90
       50
102
RTVSPost2010PropOp47
 70
     1
102
RTVSPost2010Prop48
 90
       50
102
RTVSPost2010PropOp48
 70
     1
102
RTVSPost2010Prop49
280
     0
102
RTVSPost2010PropOp49
 70
     1
102
RTVSPost2010Prop50
 90
       50
102
RTVSPost2010PropOp50
 70
     1
102
RTVSPost2010Prop51ColorIndex
 90
      256
102
RTVSPost2010Prop51ColorRGB
 90
-16777216
102
RTVSPost2010PropOp51
 70
     0
102
RTVSPost2010Prop52
140
1.0
102
RTVSPost2010PropOp52
 70
     0
102
RTVSPost2010Prop53
 90
        2
102
RTVSPost2010PropOp53
 70
     1
102
RTVSPost2010Prop54
  1
strokes_ogs.tif
102
RTVSPost2010PropOp54
 70
     1
102
RTVSPost2010Prop55
280
     0
102
RTVSPost2010PropOp55
 70
     1
102
RTVSPost2010Prop56
140
1.0
102
RTVSPost2010PropOp56
 70
     1
102
RTVSPost2010Prop57
140
1.0
102
RTVSPost2010PropOp57
 70
     1
  0
XRECORD
  5
1A7
102
{ACAD_REACTORS
330
1A6
102
}
330
1A6
100
AcDbXrecord
280
     1
102
RTVSPropertyOp0
 70
     0
102
RTVSPropertyOp1
 70
     0
102
RTVSPropertyOp2
 70
     0
102
RTVSPropertyOp3
 70
     0
102
RTVSPropertyOp4
 70
     0
102
RTVSPropertyOp5
 70
     0
102
RTVSPropertyOp6
 70
     0
102
RTVSPropertyOp7
 70
     0
102
RTVSPropertyOp8
 70
     0
102
RTVSPropertyOp9
 70
     0
102
RTVSPropertyOp10
 70
     0
102
RTVSPropertyOp11
 70
     0
102
RTVSPropertyOp12
 70
     0
102
RTVSPropertyOp13
 70
     0
102
RTVSPropertyOp14
 70
     2
102
RTVSPropertyOp15
 70
     0
102
RTVSPropertyOp16
 70
     0
102
RTVSPropertyOp17
 70
     0
102
RTVSPropertyOp18
 70
     0
102
RTVSPropertyOp19
 70
     0
102
RTVSPropertyOp20
 70
     0
102
RTVSPropertyOp21
 70
     0
102
RTVSPropertyOp22
 70
     0
102
RTVSPropertyOp23
 70
     0
102
RTVSPropertyOp24
 70
     0
102
RTVSPropertyOp25
 70
     0
102
RTVSPropertyOp26
 70
     0
102
RTVSPropertyOp27
 70
     0
102
RTVSPropertyOp28
 70
     0
102
RTVSPropertyOp29
 70
     0
102
RTVSPropertyOp30
 70
     0
102
RTVSPropertyOp31
 70
     0
102
RTVSPropertyOp32
 70
     0
102
RTVSPropertyOp33
 70
     0
102
RTVSPropertyOp34
 70
     0
102
RTVSPropertyOp35
 70
     0
102
RTVSPropertyOp36
 70
     0
102
RTVSPropertyOp37
 70
     0
102
RTVSPropertyOp38
 70
     0
102
RTVSPropertyOp39
 70
     0
102
RTVSPropertyOp40
 70
     0
102
RTVSPropertyOp41
 70
     0
102
RTVSPropertyOp42
 70
     0
102
RTVSPropertyOp43
 70
     0
102
RTVSPropertyOp44
 70
     0
102
RTVSPropertyOp45
 70
     0
102
RTVSPropertyOp46
 70
     0
102
RTVSPropertyOp47
 70
     0
102
RTVSPropertyOp48
 70
     0
102
RTVSPropertyOp49
 70
     0
102
RTVSPropertyOp50
 70
     0
102
RTVSPropertyOp51
 70
     0
102
RTVSPropertyOp52
 70
     0
102
RTVSPropertyOp53
 70
     0
102
RTVSPropertyOp54
 70
     0
102
RTVSPropertyOp55
 70
     0
102
RTVSPropertyOp56
 70
     0
102
RTVSPropertyOp57
 70
     0
102
RTVSPost2010Prop28
280
     0
102
RTVSPost2010PropOp28
 70
     0
102
RTVSPost2010Prop29
280
     1
102
RTVSPost2010PropOp29
 70
     0
102
RTVSPost2010Prop30
280
     1
102
RTVSPost2010PropOp30
 70
     0
102
RTVSPost2010Prop31
280
     0
102
RTVSPost2010PropOp31
 70
     0
102
RTVSPost2010Prop32
280
     0
102
RTVSPost2010PropOp32
 70
     0
102
RTVSPost2010Prop33
280
     0
102
RTVSPost2010PropOp33
 70
     0
102
RTVSPost2010Prop34
280
     0
102
RTVSPost2010PropOp34
 70
     0
102
RTVSPost2010Prop35
280
     0
102
RTVSPost2010PropOp35
 70
     0
102
RTVSPost2010Prop36
280
     0
102
RTVSPost2010PropOp36
 70
     0
102
RTVSPost2010Prop37
 90
       50
102
RTVSPost2010PropOp37
 70
     0
102
RTVSPost2010Prop38
140
0.0
102
RTVSPost2010PropOp38
 70
     0
102
RTVSPost2010Prop39
140
1.0
102
RTVSPost2010PropOp39
 70
     0
102
RTVSPost2010Prop40
 90
        0
102
RTVSPost2010PropOp40
 70
     0
102
RTVSPost2010Prop41ColorIndex
 90
       18
102
RTVSPost2010Prop41ColorRGB
 90
        0
102
RTVSPost2010PropOp41
 70
     0
102
RTVSPost2010Prop42
 90
       50
102
RTVSPost2010PropOp42
 70
     0
102
RTVSPost2010Prop43
 90
        3
102
RTVSPost2010PropOp43
 70
     0
102
RTVSPost2010Prop44ColorIndex
 90
        5
102
RTVSPost2010Prop44ColorRGB
 90
      255
102
RTVSPost2010PropOp44
 70
     0
102
RTVSPost2010Prop45
280
     0
102
RTVSPost2010PropOp45
 70
     0
102
RTVSPost2010Prop46
 90
       50
102
RTVSPost2010PropOp46
 70
     0
102
RTVSPost2010Prop47
 90
       50
102
RTVSPost2010PropOp47
 70
     0
102
RTVSPost2010Prop48
 90
       50
102
RTVSPost2010PropOp48
 70
     0
102
RTVSPost2010Prop49
280
     0
102
RTVSPost2010PropOp49
 70
     0
102
RTVSPost2010Prop50
 90
       50
102
RTVSPost2010PropOp50
 70
     0
102
RTVSPost2010Prop51ColorIndex
 90
      256
102
RTVSPost2010Prop51ColorRGB
 90
-16777216
102
RTVSPost2010PropOp51
 70
     0
102
RTVSPost2010Prop52
140
1.0
102
RTVSPost2010PropOp52
 70
     0
102
RTVSPost2010Prop53
 90
        2
102
RTVSPost2010PropOp53
 70
     0
102
RTVSPost2010Prop54
  1
strokes_ogs.tif
102
RTVSPost2010PropOp54
 70
     0
102
RTVSPost2010Prop55
280
     0
102
RTVSPost2010PropOp55
 70
     0
102
RTVSPost2010Prop56
140
1.0
102
RTVSPost2010PropOp56
 70
     0
102
RTVSPost2010Prop57
140
1.0
102
RTVSPost2010PropOp57
 70
     0
  0
XRECORD
  5
19F
102
{ACAD_REACTORS
330
19E
102
}
330
19E
100
AcDbXrecord
280
     1
102
RTVSPropertyOp0
 70
     1
102
RTVSPropertyOp1
 70
     1
102
RTVSPropertyOp2
 70
     1
102
RTVSPropertyOp3
 70
     1
102
RTVSPropertyOp4
 70
     1
102
RTVSPropertyOp5
 70
     1
102
RTVSPropertyOp6
 70
     1
102
RTVSPropertyOp7
 70
     1
102
RTVSPropertyOp8
 70
     1
102
RTVSPropertyOp9
 70
     1
102
RTVSPropertyOp10
 70
     1
102
RTVSPropertyOp11
 70
     1
102
RTVSPropertyOp12
 70
     1
102
RTVSPropertyOp13
 70
     1
102
RTVSPropertyOp14
 70
     1
102
RTVSPropertyOp15
 70
     1
102
RTVSPropertyOp16
 70
     1
102
RTVSPropertyOp17
 70
     1
102
RTVSPropertyOp18
 70
     1
102
RTVSPropertyOp19
 70
     1
102
RTVSPropertyOp20
 70
     1
102
RTVSPropertyOp21
 70
     1
102
RTVSPropertyOp22
 70
     1
102
RTVSPropertyOp23
 70
     1
102
RTVSPropertyOp24
 70
     1
102
RTVSPropertyOp25
 70
     1
102
RTVSPropertyOp26
 70
     1
102
RTVSPropertyOp27
 70
     1
102
RTVSPropertyOp28
 70
     1
102
RTVSPropertyOp29
 70
     1
102
RTVSPropertyOp30
 70
     1
102
RTVSPropertyOp31
 70
     1
102
RTVSPropertyOp32
 70
     1
102
RTVSPropertyOp33
 70
     1
102
RTVSPropertyOp34
 70
     1
102
RTVSPropertyOp35
 70
     1
102
RTVSPropertyOp36
 70
     1
102
RTVSPropertyOp37
 70
     1
102
RTVSPropertyOp38
 70
     1
102
RTVSPropertyOp39
 70
     1
102
RTVSPropertyOp40
 70
     1
102
RTVSPropertyOp41
 70
     1
102
RTVSPropertyOp42
 70
     1
102
RTVSPropertyOp43
 70
     1
102
RTVSPropertyOp44
 70
     1
102
RTVSPropertyOp45
 70
     1
102
RTVSPropertyOp46
 70
     1
102
RTVSPropertyOp47
 70
     1
102
RTVSPropertyOp48
 70
     1
102
RTVSPropertyOp49
 70
     1
102
RTVSPropertyOp50
 70
     1
102
RTVSPropertyOp51
 70
     0
102
RTVSPropertyOp52
 70
     0
102
RTVSPropertyOp53
 70
     1
102
RTVSPropertyOp54
 70
     1
102
RTVSPropertyOp55
 70
     1
102
RTVSPropertyOp56
 70
     1
102
RTVSPropertyOp57
 70
     1
102
RTVSPost2010Prop28
280
     0
102
RTVSPost2010PropOp28
 70
     1
102
RTVSPost2010Prop29
280
     1
102
RTVSPost2010PropOp29
 70
     1
102
RTVSPost2010Prop30
280
     1
102
RTVSPost2010PropOp30
 70
     1
102
RTVSPost2010Prop31
280
     0
102
RTVSPost2010PropOp31
 70
     1
102
RTVSPost2010Prop32
280
     0
102
RTVSPost2010PropOp32
 70
     1
102
RTVSPost2010Prop33
280
     0
102
RTVSPost2010PropOp33
 70
     1
102
RTVSPost2010Prop34
280
     0
102
RTVSPost2010PropOp34
 70
     1
102
RTVSPost2010Prop35
280
     0
102
RTVSPost2010PropOp35
 70
     1
102
RTVSPost2010Prop36
280
     0
102
RTVSPost2010PropOp36
 70
     1
102
RTVSPost2010Prop37
 90
       50
102
RTVSPost2010PropOp37
 70
     1
102
RTVSPost2010Prop38
140
0.0
102
RTVSPost2010PropOp38
 70
     1
102
RTVSPost2010Prop39
140
1.0
102
RTVSPost2010PropOp39
 70
     1
102
RTVSPost2010Prop40
 90
        0
102
RTVSPost2010PropOp40
 70
     1
102
RTVSPost2010Prop41ColorIndex
 90
       18
102
RTVSPost2010Prop41ColorRGB
 90
        0
102
RTVSPost2010PropOp41
 70
     1
102
RTVSPost2010Prop42
 90
       50
102
RTVSPost2010PropOp42
 70
     1
102
RTVSPost2010Prop43
 90
        3
102
RTVSPost2010PropOp43
 70
     1
102
RTVSPost2010Prop44ColorIndex
 90
        5
102
RTVSPost2010Prop44ColorRGB
 90
      255
102
RTVSPost2010PropOp44
 70
     1
102
RTVSPost2010Prop45
280
     0
102
RTVSPost2010PropOp45
 70
     1
102
RTVSPost2010Prop46
 90
       50
102
RTVSPost2010PropOp46
 70
     1
102
RTVSPost2010Prop47
 90
       50
102
RTVSPost2010PropOp47
 70
     1
102
RTVSPost2010Prop48
 90
       50
102
RTVSPost2010PropOp48
 70
     1
102
RTVSPost2010Prop49
280
     0
102
RTVSPost2010PropOp49
 70
     1
102
RTVSPost2010Prop50
 90
       50
102
RTVSPost2010PropOp50
 70
     1
102
RTVSPost2010Prop51ColorIndex
 90
      256
102
RTVSPost2010Prop51ColorRGB
 90
-16777216
102
RTVSPost2010PropOp51
 70
     0
102
RTVSPost2010Prop52
140
1.0
102
RTVSPost2010PropOp52
 70
     0
102
RTVSPost2010Prop53
 90
        2
102
RTVSPost2010PropOp53
 70
     1
102
RTVSPost2010Prop54
  1
strokes_ogs.tif
102
RTVSPost2010PropOp54
 70
     1
102
RTVSPost2010Prop55
280
     0
102
RTVSPost2010PropOp55
 70
     1
102
RTVSPost2010Prop56
140
1.0
102
RTVSPost2010PropOp56
 70
     1
102
RTVSPost2010Prop57
140
1.0
102
RTVSPost2010PropOp57
 70
     1
  0
XRECORD
  5
183
102
{ACAD_REACTORS
330
182
102
}
330
182
100
AcDbXrecord
280
     1
102
RTVSPropertyOp0
 70
     1
102
RTVSPropertyOp1
 70
     1
102
RTVSPropertyOp2
 70
     1
102
RTVSPropertyOp3
 70
     1
102
RTVSPropertyOp4
 70
     1
102
RTVSPropertyOp5
 70
     1
102
RTVSPropertyOp6
 70
     1
102
RTVSPropertyOp7
 70
     1
102
RTVSPropertyOp8
 70
     1
102
RTVSPropertyOp9
 70
     1
102
RTVSPropertyOp10
 70
     1
102
RTVSPropertyOp11
 70
     1
102
RTVSPropertyOp12
 70
     1
102
RTVSPropertyOp13
 70
     1
102
RTVSPropertyOp14
 70
     1
102
RTVSPropertyOp15
 70
     1
102
RTVSPropertyOp16
 70
     1
102
RTVSPropertyOp17
 70
     1
102
RTVSPropertyOp18
 70
     1
102
RTVSPropertyOp19
 70
     1
102
RTVSPropertyOp20
 70
     1
102
RTVSPropertyOp21
 70
     1
102
RTVSPropertyOp22
 70
     1
102
RTVSPropertyOp23
 70
     1
102
RTVSPropertyOp24
 70
     1
102
RTVSPropertyOp25
 70
     1
102
RTVSPropertyOp26
 70
     1
102
RTVSPropertyOp27
 70
     1
102
RTVSPropertyOp28
 70
     1
102
RTVSPropertyOp29
 70
     1
102
RTVSPropertyOp30
 70
     1
102
RTVSPropertyOp31
 70
     1
102
RTVSPropertyOp32
 70
     1
102
RTVSPropertyOp33
 70
     1
102
RTVSPropertyOp34
 70
     1
102
RTVSPropertyOp35
 70
     1
102
RTVSPropertyOp36
 70
     1
102
RTVSPropertyOp37
 70
     1
102
RTVSPropertyOp38
 70
     1
102
RTVSPropertyOp39
 70
     1
102
RTVSPropertyOp40
 70
     1
102
RTVSPropertyOp41
 70
     1
102
RTVSPropertyOp42
 70
     1
102
RTVSPropertyOp43
 70
     1
102
RTVSPropertyOp44
 70
     1
102
RTVSPropertyOp45
 70
     1
102
RTVSPropertyOp46
 70
     1
102
RTVSPropertyOp47
 70
     1
102
RTVSPropertyOp48
 70
     1
102
RTVSPropertyOp49
 70
     1
102
RTVSPropertyOp50
 70
     1
102
RTVSPropertyOp51
 70
     0
102
RTVSPropertyOp52
 70
     0
102
RTVSPropertyOp53
 70
     1
102
RTVSPropertyOp54
 70
     1
102
RTVSPropertyOp55
 70
     1
102
RTVSPropertyOp56
 70
     1
102
RTVSPropertyOp57
 70
     1
102
RTVSPost2010Prop28
280
     0
102
RTVSPost2010PropOp28
 70
     1
102
RTVSPost2010Prop29
280
     1
102
RTVSPost2010PropOp29
 70
     1
102
RTVSPost2010Prop30
280
     1
102
RTVSPost2010PropOp30
 70
     1
102
RTVSPost2010Prop31
280
     0
102
RTVSPost2010PropOp31
 70
     1
102
RTVSPost2010Prop32
280
     0
102
RTVSPost2010PropOp32
 70
     1
102
RTVSPost2010Prop33
280
     0
102
RTVSPost2010PropOp33
 70
     1
102
RTVSPost2010Prop34
280
     0
102
RTVSPost2010PropOp34
 70
     1
102
RTVSPost2010Prop35
280
     0
102
RTVSPost2010PropOp35
 70
     1
102
RTVSPost2010Prop36
280
     0
102
RTVSPost2010PropOp36
 70
     1
102
RTVSPost2010Prop37
 90
       50
102
RTVSPost2010PropOp37
 70
     1
102
RTVSPost2010Prop38
140
0.0
102
RTVSPost2010PropOp38
 70
     1
102
RTVSPost2010Prop39
140
1.0
102
RTVSPost2010PropOp39
 70
     1
102
RTVSPost2010Prop40
 90
        0
102
RTVSPost2010PropOp40
 70
     1
102
RTVSPost2010Prop41ColorIndex
 90
       18
102
RTVSPost2010Prop41ColorRGB
 90
        0
102
RTVSPost2010PropOp41
 70
     1
102
RTVSPost2010Prop42
 90
       50
102
RTVSPost2010PropOp42
 70
     1
102
RTVSPost2010Prop43
 90
        3
102
RTVSPost2010PropOp43
 70
     1
102
RTVSPost2010Prop44ColorIndex
 90
        5
102
RTVSPost2010Prop44ColorRGB
 90
      255
102
RTVSPost2010PropOp44
 70
     1
102
RTVSPost2010Prop45
280
     0
102
RTVSPost2010PropOp45
 70
     1
102
RTVSPost2010Prop46
 90
       50
102
RTVSPost2010PropOp46
 70
     1
102
RTVSPost2010Prop47
 90
       50
102
RTVSPost2010PropOp47
 70
     1
102
RTVSPost2010Prop48
 90
       50
102
RTVSPost2010PropOp48
 70
     1
102
RTVSPost2010Prop49
280
     0
102
RTVSPost2010PropOp49
 70
     1
102
RTVSPost2010Prop50
 90
       50
102
RTVSPost2010PropOp50
 70
     1
102
RTVSPost2010Prop51ColorIndex
 90
      256
102
RTVSPost2010Prop51ColorRGB
 90
-16777216
102
RTVSPost2010PropOp51
 70
     0
102
RTVSPost2010Prop52
140
1.0
102
RTVSPost2010PropOp52
 70
     0
102
RTVSPost2010Prop53
 90
        2
102
RTVSPost2010PropOp53
 70
     1
102
RTVSPost2010Prop54
  1
strokes_ogs.tif
102
RTVSPost2010PropOp54
 70
     1
102
RTVSPost2010Prop55
280
     0
102
RTVSPost2010PropOp55
 70
     1
102
RTVSPost2010Prop56
140
1.0
102
RTVSPost2010PropOp56
 70
     1
102
RTVSPost2010Prop57
140
1.0
102
RTVSPost2010PropOp57
 70
     1
  0
XRECORD
  5
185
102
{ACAD_REACTORS
330
184
102
}
330
184
100
AcDbXrecord
280
     1
102
RTVSPropertyOp0
 70
     1
102
RTVSPropertyOp1
 70
     1
102
RTVSPropertyOp2
 70
     1
102
RTVSPropertyOp3
 70
     1
102
RTVSPropertyOp4
 70
     1
102
RTVSPropertyOp5
 70
     1
102
RTVSPropertyOp6
 70
     1
102
RTVSPropertyOp7
 70
     1
102
RTVSPropertyOp8
 70
     1
102
RTVSPropertyOp9
 70
     1
102
RTVSPropertyOp10
 70
     1
102
RTVSPropertyOp11
 70
     1
102
RTVSPropertyOp12
 70
     1
102
RTVSPropertyOp13
 70
     1
102
RTVSPropertyOp14
 70
     1
102
RTVSPropertyOp15
 70
     1
102
RTVSPropertyOp16
 70
     1
102
RTVSPropertyOp17
 70
     1
102
RTVSPropertyOp18
 70
     1
102
RTVSPropertyOp19
 70
     1
102
RTVSPropertyOp20
 70
     1
102
RTVSPropertyOp21
 70
     1
102
RTVSPropertyOp22
 70
     1
102
RTVSPropertyOp23
 70
     1
102
RTVSPropertyOp24
 70
     1
102
RTVSPropertyOp25
 70
     1
102
RTVSPropertyOp26
 70
     1
102
RTVSPropertyOp27
 70
     1
102
RTVSPropertyOp28
 70
     1
102
RTVSPropertyOp29
 70
     1
102
RTVSPropertyOp30
 70
     1
102
RTVSPropertyOp31
 70
     1
102
RTVSPropertyOp32
 70
     1
102
RTVSPropertyOp33
 70
     1
102
RTVSPropertyOp34
 70
     1
102
RTVSPropertyOp35
 70
     1
102
RTVSPropertyOp36
 70
     1
102
RTVSPropertyOp37
 70
     1
102
RTVSPropertyOp38
 70
     1
102
RTVSPropertyOp39
 70
     1
102
RTVSPropertyOp40
 70
     1
102
RTVSPropertyOp41
 70
     1
102
RTVSPropertyOp42
 70
     1
102
RTVSPropertyOp43
 70
     1
102
RTVSPropertyOp44
 70
     1
102
RTVSPropertyOp45
 70
     1
102
RTVSPropertyOp46
 70
     1
102
RTVSPropertyOp47
 70
     1
102
RTVSPropertyOp48
 70
     1
102
RTVSPropertyOp49
 70
     1
102
RTVSPropertyOp50
 70
     1
102
RTVSPropertyOp51
 70
     0
102
RTVSPropertyOp52
 70
     0
102
RTVSPropertyOp53
 70
     1
102
RTVSPropertyOp54
 70
     1
102
RTVSPropertyOp55
 70
     1
102
RTVSPropertyOp56
 70
     1
102
RTVSPropertyOp57
 70
     1
102
RTVSPost2010Prop28
280
     0
102
RTVSPost2010PropOp28
 70
     1
102
RTVSPost2010Prop29
280
     1
102
RTVSPost2010PropOp29
 70
     1
102
RTVSPost2010Prop30
280
     1
102
RTVSPost2010PropOp30
 70
     1
102
RTVSPost2010Prop31
280
     0
102
RTVSPost2010PropOp31
 70
     1
102
RTVSPost2010Prop32
280
     0
102
RTVSPost2010PropOp32
 70
     1
102
RTVSPost2010Prop33
280
     0
102
RTVSPost2010PropOp33
 70
     1
102
RTVSPost2010Prop34
280
     0
102
RTVSPost2010PropOp34
 70
     1
102
RTVSPost2010Prop35
280
     0
102
RTVSPost2010PropOp35
 70
     1
102
RTVSPost2010Prop36
280
     0
102
RTVSPost2010PropOp36
 70
     1
102
RTVSPost2010Prop37
 90
       50
102
RTVSPost2010PropOp37
 70
     1
102
RTVSPost2010Prop38
140
0.0
102
RTVSPost2010PropOp38
 70
     1
102
RTVSPost2010Prop39
140
1.0
102
RTVSPost2010PropOp39
 70
     1
102
RTVSPost2010Prop40
 90
        0
102
RTVSPost2010PropOp40
 70
     1
102
RTVSPost2010Prop41ColorIndex
 90
       18
102
RTVSPost2010Prop41ColorRGB
 90
        0
102
RTVSPost2010PropOp41
 70
     1
102
RTVSPost2010Prop42
 90
       50
102
RTVSPost2010PropOp42
 70
     1
102
RTVSPost2010Prop43
 90
        3
102
RTVSPost2010PropOp43
 70
     1
102
RTVSPost2010Prop44ColorIndex
 90
        5
102
RTVSPost2010Prop44ColorRGB
 90
      255
102
RTVSPost2010PropOp44
 70
     1
102
RTVSPost2010Prop45
280
     0
102
RTVSPost2010PropOp45
 70
     1
102
RTVSPost2010Prop46
 90
       50
102
RTVSPost2010PropOp46
 70
     1
102
RTVSPost2010Prop47
 90
       50
102
RTVSPost2010PropOp47
 70
     1
102
RTVSPost2010Prop48
 90
       50
102
RTVSPost2010PropOp48
 70
     1
102
RTVSPost2010Prop49
280
     0
102
RTVSPost2010PropOp49
 70
     1
102
RTVSPost2010Prop50
 90
       50
102
RTVSPost2010PropOp50
 70
     1
102
RTVSPost2010Prop51ColorIndex
 90
      256
102
RTVSPost2010Prop51ColorRGB
 90
-16777216
102
RTVSPost2010PropOp51
 70
     0
102
RTVSPost2010Prop52
140
1.0
102
RTVSPost2010PropOp52
 70
     0
102
RTVSPost2010Prop53
 90
        2
102
RTVSPost2010PropOp53
 70
     1
102
RTVSPost2010Prop54
  1
strokes_ogs.tif
102
RTVSPost2010PropOp54
 70
     1
102
RTVSPost2010Prop55
280
     0
102
RTVSPost2010PropOp55
 70
     1
102
RTVSPost2010Prop56
140
1.0
102
RTVSPost2010PropOp56
 70
     1
102
RTVSPost2010Prop57
140
1.0
102
RTVSPost2010PropOp57
 70
     1
  0
XRECORD
  5
187
102
{ACAD_REACTORS
330
186
102
}
330
186
100
AcDbXrecord
280
     1
102
RTVSPropertyOp0
 70
     1
102
RTVSPropertyOp1
 70
     1
102
RTVSPropertyOp2
 70
     1
102
RTVSPropertyOp3
 70
     1
102
RTVSPropertyOp4
 70
     1
102
RTVSPropertyOp5
 70
     1
102
RTVSPropertyOp6
 70
     1
102
RTVSPropertyOp7
 70
     1
102
RTVSPropertyOp8
 70
     1
102
RTVSPropertyOp9
 70
     1
102
RTVSPropertyOp10
 70
     1
102
RTVSPropertyOp11
 70
     1
102
RTVSPropertyOp12
 70
     1
102
RTVSPropertyOp13
 70
     1
102
RTVSPropertyOp14
 70
     1
102
RTVSPropertyOp15
 70
     1
102
RTVSPropertyOp16
 70
     1
102
RTVSPropertyOp17
 70
     1
102
RTVSPropertyOp18
 70
     1
102
RTVSPropertyOp19
 70
     1
102
RTVSPropertyOp20
 70
     1
102
RTVSPropertyOp21
 70
     1
102
RTVSPropertyOp22
 70
     1
102
RTVSPropertyOp23
 70
     1
102
RTVSPropertyOp24
 70
     1
102
RTVSPropertyOp25
 70
     1
102
RTVSPropertyOp26
 70
     1
102
RTVSPropertyOp27
 70
     1
102
RTVSPropertyOp28
 70
     1
102
RTVSPropertyOp29
 70
     1
102
RTVSPropertyOp30
 70
     1
102
RTVSPropertyOp31
 70
     1
102
RTVSPropertyOp32
 70
     1
102
RTVSPropertyOp33
 70
     1
102
RTVSPropertyOp34
 70
     1
102
RTVSPropertyOp35
 70
     1
102
RTVSPropertyOp36
 70
     1
102
RTVSPropertyOp37
 70
     1
102
RTVSPropertyOp38
 70
     1
102
RTVSPropertyOp39
 70
     1
102
RTVSPropertyOp40
 70
     1
102
RTVSPropertyOp41
 70
     1
102
RTVSPropertyOp42
 70
     1
102
RTVSPropertyOp43
 70
     1
102
RTVSPropertyOp44
 70
     1
102
RTVSPropertyOp45
 70
     1
102
RTVSPropertyOp46
 70
     1
102
RTVSPropertyOp47
 70
     1
102
RTVSPropertyOp48
 70
     1
102
RTVSPropertyOp49
 70
     1
102
RTVSPropertyOp50
 70
     1
102
RTVSPropertyOp51
 70
     0
102
RTVSPropertyOp52
 70
     0
102
RTVSPropertyOp53
 70
     1
102
RTVSPropertyOp54
 70
     1
102
RTVSPropertyOp55
 70
     1
102
RTVSPropertyOp56
 70
     1
102
RTVSPropertyOp57
 70
     1
102
RTVSPost2010Prop28
280
     0
102
RTVSPost2010PropOp28
 70
     1
102
RTVSPost2010Prop29
280
     1
102
RTVSPost2010PropOp29
 70
     1
102
RTVSPost2010Prop30
280
     1
102
RTVSPost2010PropOp30
 70
     1
102
RTVSPost2010Prop31
280
     0
102
RTVSPost2010PropOp31
 70
     1
102
RTVSPost2010Prop32
280
     0
102
RTVSPost2010PropOp32
 70
     1
102
RTVSPost2010Prop33
280
     0
102
RTVSPost2010PropOp33
 70
     1
102
RTVSPost2010Prop34
280
     0
102
RTVSPost2010PropOp34
 70
     1
102
RTVSPost2010Prop35
280
     0
102
RTVSPost2010PropOp35
 70
     1
102
RTVSPost2010Prop36
280
     0
102
RTVSPost2010PropOp36
 70
     1
102
RTVSPost2010Prop37
 90
       50
102
RTVSPost2010PropOp37
 70
     1
102
RTVSPost2010Prop38
140
0.0
102
RTVSPost2010PropOp38
 70
     1
102
RTVSPost2010Prop39
140
1.0
102
RTVSPost2010PropOp39
 70
     1
102
RTVSPost2010Prop40
 90
        0
102
RTVSPost2010PropOp40
 70
     1
102
RTVSPost2010Prop41ColorIndex
 90
       18
102
RTVSPost2010Prop41ColorRGB
 90
        0
102
RTVSPost2010PropOp41
 70
     1
102
RTVSPost2010Prop42
 90
       50
102
RTVSPost2010PropOp42
 70
     1
102
RTVSPost2010Prop43
 90
        3
102
RTVSPost2010PropOp43
 70
     1
102
RTVSPost2010Prop44ColorIndex
 90
        5
102
RTVSPost2010Prop44ColorRGB
 90
      255
102
RTVSPost2010PropOp44
 70
     1
102
RTVSPost2010Prop45
280
     0
102
RTVSPost2010PropOp45
 70
     1
102
RTVSPost2010Prop46
 90
       50
102
RTVSPost2010PropOp46
 70
     1
102
RTVSPost2010Prop47
 90
       50
102
RTVSPost2010PropOp47
 70
     1
102
RTVSPost2010Prop48
 90
       50
102
RTVSPost2010PropOp48
 70
     1
102
RTVSPost2010Prop49
280
     0
102
RTVSPost2010PropOp49
 70
     1
102
RTVSPost2010Prop50
 90
       50
102
RTVSPost2010PropOp50
 70
     1
102
RTVSPost2010Prop51ColorIndex
 90
      256
102
RTVSPost2010Prop51ColorRGB
 90
-16777216
102
RTVSPost2010PropOp51
 70
     0
102
RTVSPost2010Prop52
140
1.0
102
RTVSPost2010PropOp52
 70
     0
102
RTVSPost2010Prop53
 90
        2
102
RTVSPost2010PropOp53
 70
     1
102
RTVSPost2010Prop54
  1
strokes_ogs.tif
102
RTVSPost2010PropOp54
 70
     1
102
RTVSPost2010Prop55
280
     0
102
RTVSPost2010PropOp55
 70
     1
102
RTVSPost2010Prop56
140
1.0
102
RTVSPost2010PropOp56
 70
     1
102
RTVSPost2010Prop57
140
1.0
102
RTVSPost2010PropOp57
 70
     1
  0
XRECORD
  5
189
102
{ACAD_REACTORS
330
188
102
}
330
188
100
AcDbXrecord
280
     1
102
RTVSPropertyOp0
 70
     1
102
RTVSPropertyOp1
 70
     1
102
RTVSPropertyOp2
 70
     1
102
RTVSPropertyOp3
 70
     1
102
RTVSPropertyOp4
 70
     1
102
RTVSPropertyOp5
 70
     1
102
RTVSPropertyOp6
 70
     1
102
RTVSPropertyOp7
 70
     1
102
RTVSPropertyOp8
 70
     1
102
RTVSPropertyOp9
 70
     1
102
RTVSPropertyOp10
 70
     1
102
RTVSPropertyOp11
 70
     1
102
RTVSPropertyOp12
 70
     1
102
RTVSPropertyOp13
 70
     1
102
RTVSPropertyOp14
 70
     1
102
RTVSPropertyOp15
 70
     1
102
RTVSPropertyOp16
 70
     1
102
RTVSPropertyOp17
 70
     1
102
RTVSPropertyOp18
 70
     1
102
RTVSPropertyOp19
 70
     1
102
RTVSPropertyOp20
 70
     1
102
RTVSPropertyOp21
 70
     1
102
RTVSPropertyOp22
 70
     1
102
RTVSPropertyOp23
 70
     1
102
RTVSPropertyOp24
 70
     1
102
RTVSPropertyOp25
 70
     1
102
RTVSPropertyOp26
 70
     1
102
RTVSPropertyOp27
 70
     1
102
RTVSPropertyOp28
 70
     1
102
RTVSPropertyOp29
 70
     1
102
RTVSPropertyOp30
 70
     1
102
RTVSPropertyOp31
 70
     1
102
RTVSPropertyOp32
 70
     1
102
RTVSPropertyOp33
 70
     1
102
RTVSPropertyOp34
 70
     1
102
RTVSPropertyOp35
 70
     1
102
RTVSPropertyOp36
 70
     1
102
RTVSPropertyOp37
 70
     1
102
RTVSPropertyOp38
 70
     1
102
RTVSPropertyOp39
 70
     1
102
RTVSPropertyOp40
 70
     1
102
RTVSPropertyOp41
 70
     1
102
RTVSPropertyOp42
 70
     1
102
RTVSPropertyOp43
 70
     1
102
RTVSPropertyOp44
 70
     1
102
RTVSPropertyOp45
 70
     1
102
RTVSPropertyOp46
 70
     1
102
RTVSPropertyOp47
 70
     1
102
RTVSPropertyOp48
 70
     1
102
RTVSPropertyOp49
 70
     1
102
RTVSPropertyOp50
 70
     1
102
RTVSPropertyOp51
 70
     0
102
RTVSPropertyOp52
 70
     0
102
RTVSPropertyOp53
 70
     1
102
RTVSPropertyOp54
 70
     1
102
RTVSPropertyOp55
 70
     1
102
RTVSPropertyOp56
 70
     1
102
RTVSPropertyOp57
 70
     1
102
RTVSPost2010Prop28
280
     0
102
RTVSPost2010PropOp28
 70
     1
102
RTVSPost2010Prop29
280
     1
102
RTVSPost2010PropOp29
 70
     1
102
RTVSPost2010Prop30
280
     1
102
RTVSPost2010PropOp30
 70
     1
102
RTVSPost2010Prop31
280
     0
102
RTVSPost2010PropOp31
 70
     1
102
RTVSPost2010Prop32
280
     0
102
RTVSPost2010PropOp32
 70
     1
102
RTVSPost2010Prop33
280
     0
102
RTVSPost2010PropOp33
 70
     1
102
RTVSPost2010Prop34
280
     0
102
RTVSPost2010PropOp34
 70
     1
102
RTVSPost2010Prop35
280
     0
102
RTVSPost2010PropOp35
 70
     1
102
RTVSPost2010Prop36
280
     0
102
RTVSPost2010PropOp36
 70
     1
102
RTVSPost2010Prop37
 90
       50
102
RTVSPost2010PropOp37
 70
     1
102
RTVSPost2010Prop38
140
0.0
102
RTVSPost2010PropOp38
 70
     1
102
RTVSPost2010Prop39
140
1.0
102
RTVSPost2010PropOp39
 70
     1
102
RTVSPost2010Prop40
 90
        0
102
RTVSPost2010PropOp40
 70
     1
102
RTVSPost2010Prop41ColorIndex
 90
       18
102
RTVSPost2010Prop41ColorRGB
 90
        0
102
RTVSPost2010PropOp41
 70
     1
102
RTVSPost2010Prop42
 90
       50
102
RTVSPost2010PropOp42
 70
     1
102
RTVSPost2010Prop43
 90
        3
102
RTVSPost2010PropOp43
 70
     1
102
RTVSPost2010Prop44ColorIndex
 90
        5
102
RTVSPost2010Prop44ColorRGB
 90
      255
102
RTVSPost2010PropOp44
 70
     1
102
RTVSPost2010Prop45
280
     0
102
RTVSPost2010PropOp45
 70
     1
102
RTVSPost2010Prop46
 90
       50
102
RTVSPost2010PropOp46
 70
     1
102
RTVSPost2010Prop47
 90
       50
102
RTVSPost2010PropOp47
 70
     1
102
RTVSPost2010Prop48
 90
       50
102
RTVSPost2010PropOp48
 70
     1
102
RTVSPost2010Prop49
280
     0
102
RTVSPost2010PropOp49
 70
     1
102
RTVSPost2010Prop50
 90
       50
102
RTVSPost2010PropOp50
 70
     1
102
RTVSPost2010Prop51ColorIndex
 90
      256
102
RTVSPost2010Prop51ColorRGB
 90
-16777216
102
RTVSPost2010PropOp51
 70
     0
102
RTVSPost2010Prop52
140
1.0
102
RTVSPost2010PropOp52
 70
     0
102
RTVSPost2010Prop53
 90
        2
102
RTVSPost2010PropOp53
 70
     1
102
RTVSPost2010Prop54
  1
strokes_ogs.tif
102
RTVSPost2010PropOp54
 70
     1
102
RTVSPost2010Prop55
280
     0
102
RTVSPost2010PropOp55
 70
     1
102
RTVSPost2010Prop56
140
1.0
102
RTVSPost2010PropOp56
 70
     1
102
RTVSPost2010Prop57
140
1.0
102
RTVSPost2010PropOp57
 70
     1
  0
XRECORD
  5
18F
102
{ACAD_REACTORS
330
18E
102
}
330
18E
100
AcDbXrecord
280
     1
102
RTVSPropertyOp0
 70
     1
102
RTVSPropertyOp1
 70
     1
102
RTVSPropertyOp2
 70
     1
102
RTVSPropertyOp3
 70
     1
102
RTVSPropertyOp4
 70
     1
102
RTVSPropertyOp5
 70
     1
102
RTVSPropertyOp6
 70
     1
102
RTVSPropertyOp7
 70
     1
102
RTVSPropertyOp8
 70
     1
102
RTVSPropertyOp9
 70
     1
102
RTVSPropertyOp10
 70
     1
102
RTVSPropertyOp11
 70
     1
102
RTVSPropertyOp12
 70
     1
102
RTVSPropertyOp13
 70
     1
102
RTVSPropertyOp14
 70
     1
102
RTVSPropertyOp15
 70
     1
102
RTVSPropertyOp16
 70
     1
102
RTVSPropertyOp17
 70
     1
102
RTVSPropertyOp18
 70
     1
102
RTVSPropertyOp19
 70
     1
102
RTVSPropertyOp20
 70
     1
102
RTVSPropertyOp21
 70
     1
102
RTVSPropertyOp22
 70
     1
102
RTVSPropertyOp23
 70
     1
102
RTVSPropertyOp24
 70
     1
102
RTVSPropertyOp25
 70
     1
102
RTVSPropertyOp26
 70
     1
102
RTVSPropertyOp27
 70
     1
102
RTVSPropertyOp28
 70
     1
102
RTVSPropertyOp29
 70
     1
102
RTVSPropertyOp30
 70
     1
102
RTVSPropertyOp31
 70
     1
102
RTVSPropertyOp32
 70
     1
102
RTVSPropertyOp33
 70
     1
102
RTVSPropertyOp34
 70
     1
102
RTVSPropertyOp35
 70
     1
102
RTVSPropertyOp36
 70
     1
102
RTVSPropertyOp37
 70
     1
102
RTVSPropertyOp38
 70
     1
102
RTVSPropertyOp39
 70
     1
102
RTVSPropertyOp40
 70
     1
102
RTVSPropertyOp41
 70
     1
102
RTVSPropertyOp42
 70
     1
102
RTVSPropertyOp43
 70
     1
102
RTVSPropertyOp44
 70
     1
102
RTVSPropertyOp45
 70
     1
102
RTVSPropertyOp46
 70
     1
102
RTVSPropertyOp47
 70
     1
102
RTVSPropertyOp48
 70
     1
102
RTVSPropertyOp49
 70
     1
102
RTVSPropertyOp50
 70
     1
102
RTVSPropertyOp51
 70
     0
102
RTVSPropertyOp52
 70
     0
102
RTVSPropertyOp53
 70
     1
102
RTVSPropertyOp54
 70
     1
102
RTVSPropertyOp55
 70
     1
102
RTVSPropertyOp56
 70
     1
102
RTVSPropertyOp57
 70
     1
102
RTVSPost2010Prop28
280
     0
102
RTVSPost2010PropOp28
 70
     1
102
RTVSPost2010Prop29
280
     1
102
RTVSPost2010PropOp29
 70
     1
102
RTVSPost2010Prop30
280
     1
102
RTVSPost2010PropOp30
 70
     1
102
RTVSPost2010Prop31
280
     0
102
RTVSPost2010PropOp31
 70
     1
102
RTVSPost2010Prop32
280
     0
102
RTVSPost2010PropOp32
 70
     1
102
RTVSPost2010Prop33
280
     0
102
RTVSPost2010PropOp33
 70
     1
102
RTVSPost2010Prop34
280
     0
102
RTVSPost2010PropOp34
 70
     1
102
RTVSPost2010Prop35
280
     0
102
RTVSPost2010PropOp35
 70
     1
102
RTVSPost2010Prop36
280
     0
102
RTVSPost2010PropOp36
 70
     1
102
RTVSPost2010Prop37
 90
       50
102
RTVSPost2010PropOp37
 70
     1
102
RTVSPost2010Prop38
140
0.0
102
RTVSPost2010PropOp38
 70
     1
102
RTVSPost2010Prop39
140
1.0
102
RTVSPost2010PropOp39
 70
     1
102
RTVSPost2010Prop40
 90
        0
102
RTVSPost2010PropOp40
 70
     1
102
RTVSPost2010Prop41ColorIndex
 90
       18
102
RTVSPost2010Prop41ColorRGB
 90
        0
102
RTVSPost2010PropOp41
 70
     1
102
RTVSPost2010Prop42
 90
       50
102
RTVSPost2010PropOp42
 70
     1
102
RTVSPost2010Prop43
 90
        3
102
RTVSPost2010PropOp43
 70
     1
102
RTVSPost2010Prop44ColorIndex
 90
        5
102
RTVSPost2010Prop44ColorRGB
 90
      255
102
RTVSPost2010PropOp44
 70
     1
102
RTVSPost2010Prop45
280
     0
102
RTVSPost2010PropOp45
 70
     1
102
RTVSPost2010Prop46
 90
       50
102
RTVSPost2010PropOp46
 70
     1
102
RTVSPost2010Prop47
 90
       50
102
RTVSPost2010PropOp47
 70
     1
102
RTVSPost2010Prop48
 90
       50
102
RTVSPost2010PropOp48
 70
     1
102
RTVSPost2010Prop49
280
     0
102
RTVSPost2010PropOp49
 70
     1
102
RTVSPost2010Prop50
 90
       50
102
RTVSPost2010PropOp50
 70
     1
102
RTVSPost2010Prop51ColorIndex
 90
      256
102
RTVSPost2010Prop51ColorRGB
 90
-16777216
102
RTVSPost2010PropOp51
 70
     0
102
RTVSPost2010Prop52
140
1.0
102
RTVSPost2010PropOp52
 70
     0
102
RTVSPost2010Prop53
 90
        2
102
RTVSPost2010PropOp53
 70
     1
102
RTVSPost2010Prop54
  1
strokes_ogs.tif
102
RTVSPost2010PropOp54
 70
     1
102
RTVSPost2010Prop55
280
     0
102
RTVSPost2010PropOp55
 70
     1
102
RTVSPost2010Prop56
140
1.0
102
RTVSPost2010PropOp56
 70
     1
102
RTVSPost2010Prop57
140
1.0
102
RTVSPost2010PropOp57
 70
     1
  0
XRECORD
  5
1A3
102
{ACAD_REACTORS
330
1A2
102
}
330
1A2
100
AcDbXrecord
280
     1
102
RTVSPropertyOp0
 70
     0
102
RTVSPropertyOp1
 70
     0
102
RTVSPropertyOp2
 70
     0
102
RTVSPropertyOp3
 70
     0
102
RTVSPropertyOp4
 70
     0
102
RTVSPropertyOp5
 70
     0
102
RTVSPropertyOp6
 70
     0
102
RTVSPropertyOp7
 70
     0
102
RTVSPropertyOp8
 70
     0
102
RTVSPropertyOp9
 70
     0
102
RTVSPropertyOp10
 70
     0
102
RTVSPropertyOp11
 70
     0
102
RTVSPropertyOp12
 70
     0
102
RTVSPropertyOp13
 70
     0
102
RTVSPropertyOp14
 70
     2
102
RTVSPropertyOp15
 70
     0
102
RTVSPropertyOp16
 70
     0
102
RTVSPropertyOp17
 70
     0
102
RTVSPropertyOp18
 70
     0
102
RTVSPropertyOp19
 70
     0
102
RTVSPropertyOp20
 70
     0
102
RTVSPropertyOp21
 70
     0
102
RTVSPropertyOp22
 70
     0
102
RTVSPropertyOp23
 70
     0
102
RTVSPropertyOp24
 70
     0
102
RTVSPropertyOp25
 70
     0
102
RTVSPropertyOp26
 70
     0
102
RTVSPropertyOp27
 70
     0
102
RTVSPropertyOp28
 70
     0
102
RTVSPropertyOp29
 70
     0
102
RTVSPropertyOp30
 70
     0
102
RTVSPropertyOp31
 70
     0
102
RTVSPropertyOp32
 70
     0
102
RTVSPropertyOp33
 70
     0
102
RTVSPropertyOp34
 70
     0
102
RTVSPropertyOp35
 70
     0
102
RTVSPropertyOp36
 70
     0
102
RTVSPropertyOp37
 70
     0
102
RTVSPropertyOp38
 70
     0
102
RTVSPropertyOp39
 70
     0
102
RTVSPropertyOp40
 70
     0
102
RTVSPropertyOp41
 70
     0
102
RTVSPropertyOp42
 70
     0
102
RTVSPropertyOp43
 70
     0
102
RTVSPropertyOp44
 70
     0
102
RTVSPropertyOp45
 70
     0
102
RTVSPropertyOp46
 70
     0
102
RTVSPropertyOp47
 70
     0
102
RTVSPropertyOp48
 70
     0
102
RTVSPropertyOp49
 70
     0
102
RTVSPropertyOp50
 70
     0
102
RTVSPropertyOp51
 70
     0
102
RTVSPropertyOp52
 70
     0
102
RTVSPropertyOp53
 70
     0
102
RTVSPropertyOp54
 70
     0
102
RTVSPropertyOp55
 70
     0
102
RTVSPropertyOp56
 70
     0
102
RTVSPropertyOp57
 70
     0
102
RTVSPost2010Prop28
280
     0
102
RTVSPost2010PropOp28
 70
     0
102
RTVSPost2010Prop29
280
     1
102
RTVSPost2010PropOp29
 70
     0
102
RTVSPost2010Prop30
280
     1
102
RTVSPost2010PropOp30
 70
     0
102
RTVSPost2010Prop31
280
     0
102
RTVSPost2010PropOp31
 70
     0
102
RTVSPost2010Prop32
280
     0
102
RTVSPost2010PropOp32
 70
     0
102
RTVSPost2010Prop33
280
     0
102
RTVSPost2010PropOp33
 70
     0
102
RTVSPost2010Prop34
280
     0
102
RTVSPost2010PropOp34
 70
     0
102
RTVSPost2010Prop35
280
     0
102
RTVSPost2010PropOp35
 70
     0
102
RTVSPost2010Prop36
280
     0
102
RTVSPost2010PropOp36
 70
     0
102
RTVSPost2010Prop37
 90
       50
102
RTVSPost2010PropOp37
 70
     0
102
RTVSPost2010Prop38
140
0.0
102
RTVSPost2010PropOp38
 70
     0
102
RTVSPost2010Prop39
140
1.0
102
RTVSPost2010PropOp39
 70
     0
102
RTVSPost2010Prop40
 90
        0
102
RTVSPost2010PropOp40
 70
     0
102
RTVSPost2010Prop41ColorIndex
 90
       18
102
RTVSPost2010Prop41ColorRGB
 90
        0
102
RTVSPost2010PropOp41
 70
     0
102
RTVSPost2010Prop42
 90
       50
102
RTVSPost2010PropOp42
 70
     0
102
RTVSPost2010Prop43
 90
        3
102
RTVSPost2010PropOp43
 70
     0
102
RTVSPost2010Prop44ColorIndex
 90
        5
102
RTVSPost2010Prop44ColorRGB
 90
      255
102
RTVSPost2010PropOp44
 70
     0
102
RTVSPost2010Prop45
280
     0
102
RTVSPost2010PropOp45
 70
     0
102
RTVSPost2010Prop46
 90
       50
102
RTVSPost2010PropOp46
 70
     0
102
RTVSPost2010Prop47
 90
       50
102
RTVSPost2010PropOp47
 70
     0
102
RTVSPost2010Prop48
 90
       50
102
RTVSPost2010PropOp48
 70
     0
102
RTVSPost2010Prop49
280
     0
102
RTVSPost2010PropOp49
 70
     0
102
RTVSPost2010Prop50
 90
       50
102
RTVSPost2010PropOp50
 70
     0
102
RTVSPost2010Prop51ColorIndex
 90
      256
102
RTVSPost2010Prop51ColorRGB
 90
-16777216
102
RTVSPost2010PropOp51
 70
     0
102
RTVSPost2010Prop52
140
1.0
102
RTVSPost2010PropOp52
 70
     0
102
RTVSPost2010Prop53
 90
        2
102
RTVSPost2010PropOp53
 70
     0
102
RTVSPost2010Prop54
  1
strokes_ogs.tif
102
RTVSPost2010PropOp54
 70
     0
102
RTVSPost2010Prop55
280
     0
102
RTVSPost2010PropOp55
 70
     0
102
RTVSPost2010Prop56
140
1.0
102
RTVSPost2010PropOp56
 70
     0
102
RTVSPost2010Prop57
140
1.0
102
RTVSPost2010PropOp57
 70
     0
  0
XRECORD
  5
19D
102
{ACAD_REACTORS
330
19C
102
}
330
19C
100
AcDbXrecord
280
     1
102
RTVSPropertyOp0
 70
     1
102
RTVSPropertyOp1
 70
     1
102
RTVSPropertyOp2
 70
     1
102
RTVSPropertyOp3
 70
     1
102
RTVSPropertyOp4
 70
     1
102
RTVSPropertyOp5
 70
     1
102
RTVSPropertyOp6
 70
     1
102
RTVSPropertyOp7
 70
     1
102
RTVSPropertyOp8
 70
     1
102
RTVSPropertyOp9
 70
     1
102
RTVSPropertyOp10
 70
     1
102
RTVSPropertyOp11
 70
     1
102
RTVSPropertyOp12
 70
     1
102
RTVSPropertyOp13
 70
     1
102
RTVSPropertyOp14
 70
     1
102
RTVSPropertyOp15
 70
     1
102
RTVSPropertyOp16
 70
     1
102
RTVSPropertyOp17
 70
     1
102
RTVSPropertyOp18
 70
     1
102
RTVSPropertyOp19
 70
     1
102
RTVSPropertyOp20
 70
     1
102
RTVSPropertyOp21
 70
     1
102
RTVSPropertyOp22
 70
     1
102
RTVSPropertyOp23
 70
     1
102
RTVSPropertyOp24
 70
     1
102
RTVSPropertyOp25
 70
     1
102
RTVSPropertyOp26
 70
     1
102
RTVSPropertyOp27
 70
     1
102
RTVSPropertyOp28
 70
     1
102
RTVSPropertyOp29
 70
     1
102
RTVSPropertyOp30
 70
     1
102
RTVSPropertyOp31
 70
     1
102
RTVSPropertyOp32
 70
     1
102
RTVSPropertyOp33
 70
     1
102
RTVSPropertyOp34
 70
     1
102
RTVSPropertyOp35
 70
     1
102
RTVSPropertyOp36
 70
     1
102
RTVSPropertyOp37
 70
     1
102
RTVSPropertyOp38
 70
     1
102
RTVSPropertyOp39
 70
     1
102
RTVSPropertyOp40
 70
     1
102
RTVSPropertyOp41
 70
     1
102
RTVSPropertyOp42
 70
     1
102
RTVSPropertyOp43
 70
     1
102
RTVSPropertyOp44
 70
     1
102
RTVSPropertyOp45
 70
     1
102
RTVSPropertyOp46
 70
     1
102
RTVSPropertyOp47
 70
     1
102
RTVSPropertyOp48
 70
     1
102
RTVSPropertyOp49
 70
     1
102
RTVSPropertyOp50
 70
     1
102
RTVSPropertyOp51
 70
     0
102
RTVSPropertyOp52
 70
     0
102
RTVSPropertyOp53
 70
     1
102
RTVSPropertyOp54
 70
     1
102
RTVSPropertyOp55
 70
     1
102
RTVSPropertyOp56
 70
     1
102
RTVSPropertyOp57
 70
     1
102
RTVSPost2010Prop28
280
     0
102
RTVSPost2010PropOp28
 70
     1
102
RTVSPost2010Prop29
280
     1
102
RTVSPost2010PropOp29
 70
     1
102
RTVSPost2010Prop30
280
     1
102
RTVSPost2010PropOp30
 70
     1
102
RTVSPost2010Prop31
280
     0
102
RTVSPost2010PropOp31
 70
     1
102
RTVSPost2010Prop32
280
     0
102
RTVSPost2010PropOp32
 70
     1
102
RTVSPost2010Prop33
280
     0
102
RTVSPost2010PropOp33
 70
     1
102
RTVSPost2010Prop34
280
     0
102
RTVSPost2010PropOp34
 70
     1
102
RTVSPost2010Prop35
280
     0
102
RTVSPost2010PropOp35
 70
     1
102
RTVSPost2010Prop36
280
     0
102
RTVSPost2010PropOp36
 70
     1
102
RTVSPost2010Prop37
 90
       50
102
RTVSPost2010PropOp37
 70
     1
102
RTVSPost2010Prop38
140
0.0
102
RTVSPost2010PropOp38
 70
     1
102
RTVSPost2010Prop39
140
1.0
102
RTVSPost2010PropOp39
 70
     1
102
RTVSPost2010Prop40
 90
        0
102
RTVSPost2010PropOp40
 70
     1
102
RTVSPost2010Prop41ColorIndex
 90
       18
102
RTVSPost2010Prop41ColorRGB
 90
        0
102
RTVSPost2010PropOp41
 70
     1
102
RTVSPost2010Prop42
 90
       50
102
RTVSPost2010PropOp42
 70
     1
102
RTVSPost2010Prop43
 90
        3
102
RTVSPost2010PropOp43
 70
     1
102
RTVSPost2010Prop44ColorIndex
 90
        5
102
RTVSPost2010Prop44ColorRGB
 90
      255
102
RTVSPost2010PropOp44
 70
     1
102
RTVSPost2010Prop45
280
     0
102
RTVSPost2010PropOp45
 70
     1
102
RTVSPost2010Prop46
 90
       50
102
RTVSPost2010PropOp46
 70
     1
102
RTVSPost2010Prop47
 90
       50
102
RTVSPost2010PropOp47
 70
     1
102
RTVSPost2010Prop48
 90
       50
102
RTVSPost2010PropOp48
 70
     1
102
RTVSPost2010Prop49
280
     0
102
RTVSPost2010PropOp49
 70
     1
102
RTVSPost2010Prop50
 90
       50
102
RTVSPost2010PropOp50
 70
     1
102
RTVSPost2010Prop51ColorIndex
 90
      256
102
RTVSPost2010Prop51ColorRGB
 90
-16777216
102
RTVSPost2010PropOp51
 70
     0
102
RTVSPost2010Prop52
140
1.0
102
RTVSPost2010PropOp52
 70
     0
102
RTVSPost2010Prop53
 90
        2
102
RTVSPost2010PropOp53
 70
     1
102
RTVSPost2010Prop54
  1
strokes_ogs.tif
102
RTVSPost2010PropOp54
 70
     1
102
RTVSPost2010Prop55
280
     0
102
RTVSPost2010PropOp55
 70
     1
102
RTVSPost2010Prop56
140
1.0
102
RTVSPost2010PropOp56
 70
     1
102
RTVSPost2010Prop57
140
1.0
102
RTVSPost2010PropOp57
 70
     1
  0
XRECORD
  5
1A5
102
{ACAD_REACTORS
330
1A4
102
}
330
1A4
100
AcDbXrecord
280
     1
102
RTVSPropertyOp0
 70
     0
102
RTVSPropertyOp1
 70
     0
102
RTVSPropertyOp2
 70
     0
102
RTVSPropertyOp3
 70
     0
102
RTVSPropertyOp4
 70
     0
102
RTVSPropertyOp5
 70
     0
102
RTVSPropertyOp6
 70
     0
102
RTVSPropertyOp7
 70
     0
102
RTVSPropertyOp8
 70
     0
102
RTVSPropertyOp9
 70
     0
102
RTVSPropertyOp10
 70
     0
102
RTVSPropertyOp11
 70
     0
102
RTVSPropertyOp12
 70
     0
102
RTVSPropertyOp13
 70
     0
102
RTVSPropertyOp14
 70
     2
102
RTVSPropertyOp15
 70
     0
102
RTVSPropertyOp16
 70
     0
102
RTVSPropertyOp17
 70
     0
102
RTVSPropertyOp18
 70
     0
102
RTVSPropertyOp19
 70
     0
102
RTVSPropertyOp20
 70
     0
102
RTVSPropertyOp21
 70
     0
102
RTVSPropertyOp22
 70
     0
102
RTVSPropertyOp23
 70
     0
102
RTVSPropertyOp24
 70
     0
102
RTVSPropertyOp25
 70
     0
102
RTVSPropertyOp26
 70
     0
102
RTVSPropertyOp27
 70
     0
102
RTVSPropertyOp28
 70
     0
102
RTVSPropertyOp29
 70
     0
102
RTVSPropertyOp30
 70
     0
102
RTVSPropertyOp31
 70
     0
102
RTVSPropertyOp32
 70
     0
102
RTVSPropertyOp33
 70
     0
102
RTVSPropertyOp34
 70
     0
102
RTVSPropertyOp35
 70
     0
102
RTVSPropertyOp36
 70
     0
102
RTVSPropertyOp37
 70
     0
102
RTVSPropertyOp38
 70
     0
102
RTVSPropertyOp39
 70
     0
102
RTVSPropertyOp40
 70
     0
102
RTVSPropertyOp41
 70
     0
102
RTVSPropertyOp42
 70
     0
102
RTVSPropertyOp43
 70
     0
102
RTVSPropertyOp44
 70
     0
102
RTVSPropertyOp45
 70
     0
102
RTVSPropertyOp46
 70
     0
102
RTVSPropertyOp47
 70
     0
102
RTVSPropertyOp48
 70
     0
102
RTVSPropertyOp49
 70
     0
102
RTVSPropertyOp50
 70
     0
102
RTVSPropertyOp51
 70
     0
102
RTVSPropertyOp52
 70
     0
102
RTVSPropertyOp53
 70
     0
102
RTVSPropertyOp54
 70
     0
102
RTVSPropertyOp55
 70
     0
102
RTVSPropertyOp56
 70
     0
102
RTVSPropertyOp57
 70
     0
102
RTVSPost2010Prop28
280
     0
102
RTVSPost2010PropOp28
 70
     0
102
RTVSPost2010Prop29
280
     1
102
RTVSPost2010PropOp29
 70
     0
102
RTVSPost2010Prop30
280
     1
102
RTVSPost2010PropOp30
 70
     0
102
RTVSPost2010Prop31
280
     0
102
RTVSPost2010PropOp31
 70
     0
102
RTVSPost2010Prop32
280
     0
102
RTVSPost2010PropOp32
 70
     0
102
RTVSPost2010Prop33
280
     0
102
RTVSPost2010PropOp33
 70
     0
102
RTVSPost2010Prop34
280
     0
102
RTVSPost2010PropOp34
 70
     0
102
RTVSPost2010Prop35
280
     0
102
RTVSPost2010PropOp35
 70
     0
102
RTVSPost2010Prop36
280
     0
102
RTVSPost2010PropOp36
 70
     0
102
RTVSPost2010Prop37
 90
       50
102
RTVSPost2010PropOp37
 70
     0
102
RTVSPost2010Prop38
140
0.0
102
RTVSPost2010PropOp38
 70
     0
102
RTVSPost2010Prop39
140
1.0
102
RTVSPost2010PropOp39
 70
     0
102
RTVSPost2010Prop40
 90
        0
102
RTVSPost2010PropOp40
 70
     0
102
RTVSPost2010Prop41ColorIndex
 90
       18
102
RTVSPost2010Prop41ColorRGB
 90
        0
102
RTVSPost2010PropOp41
 70
     0
102
RTVSPost2010Prop42
 90
       50
102
RTVSPost2010PropOp42
 70
     0
102
RTVSPost2010Prop43
 90
        3
102
RTVSPost2010PropOp43
 70
     0
102
RTVSPost2010Prop44ColorIndex
 90
        5
102
RTVSPost2010Prop44ColorRGB
 90
      255
102
RTVSPost2010PropOp44
 70
     0
102
RTVSPost2010Prop45
280
     0
102
RTVSPost2010PropOp45
 70
     0
102
RTVSPost2010Prop46
 90
       50
102
RTVSPost2010PropOp46
 70
     0
102
RTVSPost2010Prop47
 90
       50
102
RTVSPost2010PropOp47
 70
     0
102
RTVSPost2010Prop48
 90
       50
102
RTVSPost2010PropOp48
 70
     0
102
RTVSPost2010Prop49
280
     0
102
RTVSPost2010PropOp49
 70
     0
102
RTVSPost2010Prop50
 90
       50
102
RTVSPost2010PropOp50
 70
     0
102
RTVSPost2010Prop51ColorIndex
 90
      256
102
RTVSPost2010Prop51ColorRGB
 90
-16777216
102
RTVSPost2010PropOp51
 70
     0
102
RTVSPost2010Prop52
140
1.0
102
RTVSPost2010PropOp52
 70
     0
102
RTVSPost2010Prop53
 90
        2
102
RTVSPost2010PropOp53
 70
     0
102
RTVSPost2010Prop54
  1
strokes_ogs.tif
102
RTVSPost2010PropOp54
 70
     0
102
RTVSPost2010Prop55
280
     0
102
RTVSPost2010PropOp55
 70
     0
102
RTVSPost2010Prop56
140
1.0
102
RTVSPost2010PropOp56
 70
     0
102
RTVSPost2010Prop57
140
1.0
102
RTVSPost2010PropOp57
 70
     0
  0
XRECORD
  5
193
102
{ACAD_REACTORS
330
192
102
}
330
192
100
AcDbXrecord
280
     1
102
RTVSPropertyOp0
 70
     1
102
RTVSPropertyOp1
 70
     1
102
RTVSPropertyOp2
 70
     1
102
RTVSPropertyOp3
 70
     1
102
RTVSPropertyOp4
 70
     1
102
RTVSPropertyOp5
 70
     1
102
RTVSPropertyOp6
 70
     1
102
RTVSPropertyOp7
 70
     1
102
RTVSPropertyOp8
 70
     1
102
RTVSPropertyOp9
 70
     1
102
RTVSPropertyOp10
 70
     1
102
RTVSPropertyOp11
 70
     1
102
RTVSPropertyOp12
 70
     1
102
RTVSPropertyOp13
 70
     1
102
RTVSPropertyOp14
 70
     1
102
RTVSPropertyOp15
 70
     1
102
RTVSPropertyOp16
 70
     1
102
RTVSPropertyOp17
 70
     1
102
RTVSPropertyOp18
 70
     1
102
RTVSPropertyOp19
 70
     1
102
RTVSPropertyOp20
 70
     1
102
RTVSPropertyOp21
 70
     1
102
RTVSPropertyOp22
 70
     1
102
RTVSPropertyOp23
 70
     1
102
RTVSPropertyOp24
 70
     1
102
RTVSPropertyOp25
 70
     1
102
RTVSPropertyOp26
 70
     1
102
RTVSPropertyOp27
 70
     1
102
RTVSPropertyOp28
 70
     1
102
RTVSPropertyOp29
 70
     1
102
RTVSPropertyOp30
 70
     1
102
RTVSPropertyOp31
 70
     1
102
RTVSPropertyOp32
 70
     1
102
RTVSPropertyOp33
 70
     1
102
RTVSPropertyOp34
 70
     1
102
RTVSPropertyOp35
 70
     1
102
RTVSPropertyOp36
 70
     1
102
RTVSPropertyOp37
 70
     1
102
RTVSPropertyOp38
 70
     1
102
RTVSPropertyOp39
 70
     1
102
RTVSPropertyOp40
 70
     1
102
RTVSPropertyOp41
 70
     1
102
RTVSPropertyOp42
 70
     1
102
RTVSPropertyOp43
 70
     1
102
RTVSPropertyOp44
 70
     1
102
RTVSPropertyOp45
 70
     1
102
RTVSPropertyOp46
 70
     1
102
RTVSPropertyOp47
 70
     1
102
RTVSPropertyOp48
 70
     1
102
RTVSPropertyOp49
 70
     1
102
RTVSPropertyOp50
 70
     1
102
RTVSPropertyOp51
 70
     0
102
RTVSPropertyOp52
 70
     0
102
RTVSPropertyOp53
 70
     1
102
RTVSPropertyOp54
 70
     1
102
RTVSPropertyOp55
 70
     1
102
RTVSPropertyOp56
 70
     1
102
RTVSPropertyOp57
 70
     1
102
RTVSPost2010Prop28
280
     0
102
RTVSPost2010PropOp28
 70
     1
102
RTVSPost2010Prop29
280
     1
102
RTVSPost2010PropOp29
 70
     1
102
RTVSPost2010Prop30
280
     1
102
RTVSPost2010PropOp30
 70
     1
102
RTVSPost2010Prop31
280
     0
102
RTVSPost2010PropOp31
 70
     1
102
RTVSPost2010Prop32
280
     0
102
RTVSPost2010PropOp32
 70
     1
102
RTVSPost2010Prop33
280
     0
102
RTVSPost2010PropOp33
 70
     1
102
RTVSPost2010Prop34
280
     0
102
RTVSPost2010PropOp34
 70
     1
102
RTVSPost2010Prop35
280
     0
102
RTVSPost2010PropOp35
 70
     1
102
RTVSPost2010Prop36
280
     0
102
RTVSPost2010PropOp36
 70
     1
102
RTVSPost2010Prop37
 90
       50
102
RTVSPost2010PropOp37
 70
     1
102
RTVSPost2010Prop38
140
0.0
102
RTVSPost2010PropOp38
 70
     1
102
RTVSPost2010Prop39
140
1.0
102
RTVSPost2010PropOp39
 70
     1
102
RTVSPost2010Prop40
 90
        0
102
RTVSPost2010PropOp40
 70
     1
102
RTVSPost2010Prop41ColorIndex
 90
       18
102
RTVSPost2010Prop41ColorRGB
 90
        0
102
RTVSPost2010PropOp41
 70
     1
102
RTVSPost2010Prop42
 90
       50
102
RTVSPost2010PropOp42
 70
     1
102
RTVSPost2010Prop43
 90
        3
102
RTVSPost2010PropOp43
 70
     1
102
RTVSPost2010Prop44ColorIndex
 90
        5
102
RTVSPost2010Prop44ColorRGB
 90
      255
102
RTVSPost2010PropOp44
 70
     1
102
RTVSPost2010Prop45
280
     0
102
RTVSPost2010PropOp45
 70
     1
102
RTVSPost2010Prop46
 90
       50
102
RTVSPost2010PropOp46
 70
     1
102
RTVSPost2010Prop47
 90
       50
102
RTVSPost2010PropOp47
 70
     1
102
RTVSPost2010Prop48
 90
       50
102
RTVSPost2010PropOp48
 70
     1
102
RTVSPost2010Prop49
280
     0
102
RTVSPost2010PropOp49
 70
     1
102
RTVSPost2010Prop50
 90
       50
102
RTVSPost2010PropOp50
 70
     1
102
RTVSPost2010Prop51ColorIndex
 90
      256
102
RTVSPost2010Prop51ColorRGB
 90
-16777216
102
RTVSPost2010PropOp51
 70
     0
102
RTVSPost2010Prop52
140
1.0
102
RTVSPost2010PropOp52
 70
     0
102
RTVSPost2010Prop53
 90
        2
102
RTVSPost2010PropOp53
 70
     1
102
RTVSPost2010Prop54
  1
strokes_ogs.tif
102
RTVSPost2010PropOp54
 70
     1
102
RTVSPost2010Prop55
280
     0
102
RTVSPost2010PropOp55
 70
     1
102
RTVSPost2010Prop56
140
1.0
102
RTVSPost2010PropOp56
 70
     1
102
RTVSPost2010Prop57
140
1.0
102
RTVSPost2010PropOp57
 70
     1
  0
XRECORD
  5
1B1
102
{ACAD_REACTORS
330
1B0
102
}
330
1B0
100
AcDbXrecord
280
     1
102
RTVSPropertyOp0
 70
     1
102
RTVSPropertyOp1
 70
     1
102
RTVSPropertyOp2
 70
     1
102
RTVSPropertyOp3
 70
     1
102
RTVSPropertyOp4
 70
     1
102
RTVSPropertyOp5
 70
     1
102
RTVSPropertyOp6
 70
     1
102
RTVSPropertyOp7
 70
     1
102
RTVSPropertyOp8
 70
     1
102
RTVSPropertyOp9
 70
     1
102
RTVSPropertyOp10
 70
     1
102
RTVSPropertyOp11
 70
     1
102
RTVSPropertyOp12
 70
     1
102
RTVSPropertyOp13
 70
     1
102
RTVSPropertyOp14
 70
     1
102
RTVSPropertyOp15
 70
     1
102
RTVSPropertyOp16
 70
     1
102
RTVSPropertyOp17
 70
     1
102
RTVSPropertyOp18
 70
     1
102
RTVSPropertyOp19
 70
     1
102
RTVSPropertyOp20
 70
     1
102
RTVSPropertyOp21
 70
     1
102
RTVSPropertyOp22
 70
     1
102
RTVSPropertyOp23
 70
     1
102
RTVSPropertyOp24
 70
     1
102
RTVSPropertyOp25
 70
     1
102
RTVSPropertyOp26
 70
     1
102
RTVSPropertyOp27
 70
     1
102
RTVSPropertyOp28
 70
     1
102
RTVSPropertyOp29
 70
     1
102
RTVSPropertyOp30
 70
     1
102
RTVSPropertyOp31
 70
     1
102
RTVSPropertyOp32
 70
     1
102
RTVSPropertyOp33
 70
     1
102
RTVSPropertyOp34
 70
     1
102
RTVSPropertyOp35
 70
     1
102
RTVSPropertyOp36
 70
     1
102
RTVSPropertyOp37
 70
     1
102
RTVSPropertyOp38
 70
     1
102
RTVSPropertyOp39
 70
     1
102
RTVSPropertyOp40
 70
     1
102
RTVSPropertyOp41
 70
     1
102
RTVSPropertyOp42
 70
     1
102
RTVSPropertyOp43
 70
     1
102
RTVSPropertyOp44
 70
     1
102
RTVSPropertyOp45
 70
     1
102
RTVSPropertyOp46
 70
     1
102
RTVSPropertyOp47
 70
     1
102
RTVSPropertyOp48
 70
     1
102
RTVSPropertyOp49
 70
     1
102
RTVSPropertyOp50
 70
     1
102
RTVSPropertyOp51
 70
     0
102
RTVSPropertyOp52
 70
     0
102
RTVSPropertyOp53
 70
     1
102
RTVSPropertyOp54
 70
     1
102
RTVSPropertyOp55
 70
     1
102
RTVSPropertyOp56
 70
     1
102
RTVSPropertyOp57
 70
     1
102
RTVSPost2010Prop28
280
     0
102
RTVSPost2010PropOp28
 70
     1
102
RTVSPost2010Prop29
280
     1
102
RTVSPost2010PropOp29
 70
     1
102
RTVSPost2010Prop30
280
     1
102
RTVSPost2010PropOp30
 70
     1
102
RTVSPost2010Prop31
280
     0
102
RTVSPost2010PropOp31
 70
     1
102
RTVSPost2010Prop32
280
     0
102
RTVSPost2010PropOp32
 70
     1
102
RTVSPost2010Prop33
280
     0
102
RTVSPost2010PropOp33
 70
     1
102
RTVSPost2010Prop34
280
     0
102
RTVSPost2010PropOp34
 70
     1
102
RTVSPost2010Prop35
280
     0
102
RTVSPost2010PropOp35
 70
     1
102
RTVSPost2010Prop36
280
     0
102
RTVSPost2010PropOp36
 70
     1
102
RTVSPost2010Prop37
 90
       50
102
RTVSPost2010PropOp37
 70
     1
102
RTVSPost2010Prop38
140
0.0
102
RTVSPost2010PropOp38
 70
     1
102
RTVSPost2010Prop39
140
1.0
102
RTVSPost2010PropOp39
 70
     1
102
RTVSPost2010Prop40
 90
        0
102
RTVSPost2010PropOp40
 70
     1
102
RTVSPost2010Prop41ColorIndex
 90
       18
102
RTVSPost2010Prop41ColorRGB
 90
        0
102
RTVSPost2010PropOp41
 70
     1
102
RTVSPost2010Prop42
 90
       50
102
RTVSPost2010PropOp42
 70
     1
102
RTVSPost2010Prop43
 90
        3
102
RTVSPost2010PropOp43
 70
     1
102
RTVSPost2010Prop44ColorIndex
 90
        5
102
RTVSPost2010Prop44ColorRGB
 90
      255
102
RTVSPost2010PropOp44
 70
     1
102
RTVSPost2010Prop45
280
     0
102
RTVSPost2010PropOp45
 70
     1
102
RTVSPost2010Prop46
 90
       50
102
RTVSPost2010PropOp46
 70
     1
102
RTVSPost2010Prop47
 90
       50
102
RTVSPost2010PropOp47
 70
     1
102
RTVSPost2010Prop48
 90
       50
102
RTVSPost2010PropOp48
 70
     1
102
RTVSPost2010Prop49
280
     0
102
RTVSPost2010PropOp49
 70
     1
102
RTVSPost2010Prop50
 90
       50
102
RTVSPost2010PropOp50
 70
     1
102
RTVSPost2010Prop51ColorIndex
 90
      256
102
RTVSPost2010Prop51ColorRGB
 90
-16777216
102
RTVSPost2010PropOp51
 70
     0
102
RTVSPost2010Prop52
140
1.0
102
RTVSPost2010PropOp52
 70
     0
102
RTVSPost2010Prop53
 90
        2
102
RTVSPost2010PropOp53
 70
     1
102
RTVSPost2010Prop54
  1
strokes_ogs.tif
102
RTVSPost2010PropOp54
 70
     1
102
RTVSPost2010Prop55
280
     0
102
RTVSPost2010PropOp55
 70
     1
102
RTVSPost2010Prop56
140
1.0
102
RTVSPost2010PropOp56
 70
     1
102
RTVSPost2010Prop57
140
1.0
102
RTVSPost2010PropOp57
 70
     1
  0
XRECORD
  5
1AF
102
{ACAD_REACTORS
330
1AE
102
}
330
1AE
100
AcDbXrecord
280
     1
102
RTVSPropertyOp0
 70
     1
102
RTVSPropertyOp1
 70
     1
102
RTVSPropertyOp2
 70
     1
102
RTVSPropertyOp3
 70
     1
102
RTVSPropertyOp4
 70
     1
102
RTVSPropertyOp5
 70
     1
102
RTVSPropertyOp6
 70
     1
102
RTVSPropertyOp7
 70
     1
102
RTVSPropertyOp8
 70
     1
102
RTVSPropertyOp9
 70
     1
102
RTVSPropertyOp10
 70
     1
102
RTVSPropertyOp11
 70
     1
102
RTVSPropertyOp12
 70
     1
102
RTVSPropertyOp13
 70
     1
102
RTVSPropertyOp14
 70
     1
102
RTVSPropertyOp15
 70
     1
102
RTVSPropertyOp16
 70
     1
102
RTVSPropertyOp17
 70
     1
102
RTVSPropertyOp18
 70
     1
102
RTVSPropertyOp19
 70
     1
102
RTVSPropertyOp20
 70
     1
102
RTVSPropertyOp21
 70
     1
102
RTVSPropertyOp22
 70
     1
102
RTVSPropertyOp23
 70
     1
102
RTVSPropertyOp24
 70
     1
102
RTVSPropertyOp25
 70
     1
102
RTVSPropertyOp26
 70
     1
102
RTVSPropertyOp27
 70
     1
102
RTVSPropertyOp28
 70
     1
102
RTVSPropertyOp29
 70
     1
102
RTVSPropertyOp30
 70
     1
102
RTVSPropertyOp31
 70
     1
102
RTVSPropertyOp32
 70
     1
102
RTVSPropertyOp33
 70
     1
102
RTVSPropertyOp34
 70
     1
102
RTVSPropertyOp35
 70
     1
102
RTVSPropertyOp36
 70
     1
102
RTVSPropertyOp37
 70
     1
102
RTVSPropertyOp38
 70
     1
102
RTVSPropertyOp39
 70
     1
102
RTVSPropertyOp40
 70
     1
102
RTVSPropertyOp41
 70
     1
102
RTVSPropertyOp42
 70
     1
102
RTVSPropertyOp43
 70
     1
102
RTVSPropertyOp44
 70
     1
102
RTVSPropertyOp45
 70
     1
102
RTVSPropertyOp46
 70
     1
102
RTVSPropertyOp47
 70
     1
102
RTVSPropertyOp48
 70
     1
102
RTVSPropertyOp49
 70
     1
102
RTVSPropertyOp50
 70
     1
102
RTVSPropertyOp51
 70
     0
102
RTVSPropertyOp52
 70
     0
102
RTVSPropertyOp53
 70
     1
102
RTVSPropertyOp54
 70
     1
102
RTVSPropertyOp55
 70
     1
102
RTVSPropertyOp56
 70
     1
102
RTVSPropertyOp57
 70
     1
102
RTVSPost2010Prop28
280
     0
102
RTVSPost2010PropOp28
 70
     1
102
RTVSPost2010Prop29
280
     1
102
RTVSPost2010PropOp29
 70
     1
102
RTVSPost2010Prop30
280
     1
102
RTVSPost2010PropOp30
 70
     1
102
RTVSPost2010Prop31
280
     0
102
RTVSPost2010PropOp31
 70
     1
102
RTVSPost2010Prop32
280
     0
102
RTVSPost2010PropOp32
 70
     1
102
RTVSPost2010Prop33
280
     0
102
RTVSPost2010PropOp33
 70
     1
102
RTVSPost2010Prop34
280
     0
102
RTVSPost2010PropOp34
 70
     1
102
RTVSPost2010Prop35
280
     0
102
RTVSPost2010PropOp35
 70
     1
102
RTVSPost2010Prop36
280
     0
102
RTVSPost2010PropOp36
 70
     1
102
RTVSPost2010Prop37
 90
       50
102
RTVSPost2010PropOp37
 70
     1
102
RTVSPost2010Prop38
140
0.0
102
RTVSPost2010PropOp38
 70
     1
102
RTVSPost2010Prop39
140
1.0
102
RTVSPost2010PropOp39
 70
     1
102
RTVSPost2010Prop40
 90
        0
102
RTVSPost2010PropOp40
 70
     1
102
RTVSPost2010Prop41ColorIndex
 90
       18
102
RTVSPost2010Prop41ColorRGB
 90
        0
102
RTVSPost2010PropOp41
 70
     1
102
RTVSPost2010Prop42
 90
       50
102
RTVSPost2010PropOp42
 70
     1
102
RTVSPost2010Prop43
 90
        3
102
RTVSPost2010PropOp43
 70
     1
102
RTVSPost2010Prop44ColorIndex
 90
        5
102
RTVSPost2010Prop44ColorRGB
 90
      255
102
RTVSPost2010PropOp44
 70
     1
102
RTVSPost2010Prop45
280
     0
102
RTVSPost2010PropOp45
 70
     1
102
RTVSPost2010Prop46
 90
       50
102
RTVSPost2010PropOp46
 70
     1
102
RTVSPost2010Prop47
 90
       50
102
RTVSPost2010PropOp47
 70
     1
102
RTVSPost2010Prop48
 90
       50
102
RTVSPost2010PropOp48
 70
     1
102
RTVSPost2010Prop49
280
     0
102
RTVSPost2010PropOp49
 70
     1
102
RTVSPost2010Prop50
 90
       50
102
RTVSPost2010PropOp50
 70
     1
102
RTVSPost2010Prop51ColorIndex
 90
      256
102
RTVSPost2010Prop51ColorRGB
 90
-16777216
102
RTVSPost2010PropOp51
 70
     0
102
RTVSPost2010Prop52
140
1.0
102
RTVSPost2010PropOp52
 70
     0
102
RTVSPost2010Prop53
 90
        2
102
RTVSPost2010PropOp53
 70
     1
102
RTVSPost2010Prop54
  1
strokes_ogs.tif
102
RTVSPost2010PropOp54
 70
     1
102
RTVSPost2010Prop55
280
     0
102
RTVSPost2010PropOp55
 70
     1
102
RTVSPost2010Prop56
140
1.0
102
RTVSPost2010PropOp56
 70
     1
102
RTVSPost2010Prop57
140
1.0
102
RTVSPost2010PropOp57
 70
     1
  0
XRECORD
  5
1A9
102
{ACAD_REACTORS
330
1A8
102
}
330
1A8
100
AcDbXrecord
280
     1
102
RTVSPropertyOp0
 70
     1
102
RTVSPropertyOp1
 70
     1
102
RTVSPropertyOp2
 70
     1
102
RTVSPropertyOp3
 70
     1
102
RTVSPropertyOp4
 70
     1
102
RTVSPropertyOp5
 70
     1
102
RTVSPropertyOp6
 70
     1
102
RTVSPropertyOp7
 70
     1
102
RTVSPropertyOp8
 70
     1
102
RTVSPropertyOp9
 70
     1
102
RTVSPropertyOp10
 70
     1
102
RTVSPropertyOp11
 70
     1
102
RTVSPropertyOp12
 70
     1
102
RTVSPropertyOp13
 70
     1
102
RTVSPropertyOp14
 70
     1
102
RTVSPropertyOp15
 70
     1
102
RTVSPropertyOp16
 70
     1
102
RTVSPropertyOp17
 70
     1
102
RTVSPropertyOp18
 70
     1
102
RTVSPropertyOp19
 70
     1
102
RTVSPropertyOp20
 70
     1
102
RTVSPropertyOp21
 70
     1
102
RTVSPropertyOp22
 70
     1
102
RTVSPropertyOp23
 70
     1
102
RTVSPropertyOp24
 70
     1
102
RTVSPropertyOp25
 70
     1
102
RTVSPropertyOp26
 70
     1
102
RTVSPropertyOp27
 70
     1
102
RTVSPropertyOp28
 70
     1
102
RTVSPropertyOp29
 70
     1
102
RTVSPropertyOp30
 70
     1
102
RTVSPropertyOp31
 70
     1
102
RTVSPropertyOp32
 70
     1
102
RTVSPropertyOp33
 70
     1
102
RTVSPropertyOp34
 70
     1
102
RTVSPropertyOp35
 70
     1
102
RTVSPropertyOp36
 70
     1
102
RTVSPropertyOp37
 70
     1
102
RTVSPropertyOp38
 70
     1
102
RTVSPropertyOp39
 70
     1
102
RTVSPropertyOp40
 70
     1
102
RTVSPropertyOp41
 70
     1
102
RTVSPropertyOp42
 70
     1
102
RTVSPropertyOp43
 70
     1
102
RTVSPropertyOp44
 70
     1
102
RTVSPropertyOp45
 70
     1
102
RTVSPropertyOp46
 70
     1
102
RTVSPropertyOp47
 70
     1
102
RTVSPropertyOp48
 70
     1
102
RTVSPropertyOp49
 70
     1
102
RTVSPropertyOp50
 70
     1
102
RTVSPropertyOp51
 70
     0
102
RTVSPropertyOp52
 70
     0
102
RTVSPropertyOp53
 70
     1
102
RTVSPropertyOp54
 70
     1
102
RTVSPropertyOp55
 70
     1
102
RTVSPropertyOp56
 70
     1
102
RTVSPropertyOp57
 70
     1
102
RTVSPost2010Prop28
280
     0
102
RTVSPost2010PropOp28
 70
     1
102
RTVSPost2010Prop29
280
     1
102
RTVSPost2010PropOp29
 70
     1
102
RTVSPost2010Prop30
280
     1
102
RTVSPost2010PropOp30
 70
     1
102
RTVSPost2010Prop31
280
     0
102
RTVSPost2010PropOp31
 70
     1
102
RTVSPost2010Prop32
280
     0
102
RTVSPost2010PropOp32
 70
     1
102
RTVSPost2010Prop33
280
     0
102
RTVSPost2010PropOp33
 70
     1
102
RTVSPost2010Prop34
280
     0
102
RTVSPost2010PropOp34
 70
     1
102
RTVSPost2010Prop35
280
     0
102
RTVSPost2010PropOp35
 70
     1
102
RTVSPost2010Prop36
280
     0
102
RTVSPost2010PropOp36
 70
     1
102
RTVSPost2010Prop37
 90
       50
102
RTVSPost2010PropOp37
 70
     1
102
RTVSPost2010Prop38
140
0.0
102
RTVSPost2010PropOp38
 70
     1
102
RTVSPost2010Prop39
140
1.0
102
RTVSPost2010PropOp39
 70
     1
102
RTVSPost2010Prop40
 90
        0
102
RTVSPost2010PropOp40
 70
     1
102
RTVSPost2010Prop41ColorIndex
 90
       18
102
RTVSPost2010Prop41ColorRGB
 90
        0
102
RTVSPost2010PropOp41
 70
     1
102
RTVSPost2010Prop42
 90
       50
102
RTVSPost2010PropOp42
 70
     1
102
RTVSPost2010Prop43
 90
        3
102
RTVSPost2010PropOp43
 70
     1
102
RTVSPost2010Prop44ColorIndex
 90
        5
102
RTVSPost2010Prop44ColorRGB
 90
      255
102
RTVSPost2010PropOp44
 70
     1
102
RTVSPost2010Prop45
280
     0
102
RTVSPost2010PropOp45
 70
     1
102
RTVSPost2010Prop46
 90
       50
102
RTVSPost2010PropOp46
 70
     1
102
RTVSPost2010Prop47
 90
       50
102
RTVSPost2010PropOp47
 70
     1
102
RTVSPost2010Prop48
 90
       50
102
RTVSPost2010PropOp48
 70
     1
102
RTVSPost2010Prop49
280
     0
102
RTVSPost2010PropOp49
 70
     1
102
RTVSPost2010Prop50
 90
       50
102
RTVSPost2010PropOp50
 70
     1
102
RTVSPost2010Prop51ColorIndex
 90
      256
102
RTVSPost2010Prop51ColorRGB
 90
-16777216
102
RTVSPost2010PropOp51
 70
     0
102
RTVSPost2010Prop52
140
1.0
102
RTVSPost2010PropOp52
 70
     0
102
RTVSPost2010Prop53
 90
        2
102
RTVSPost2010PropOp53
 70
     1
102
RTVSPost2010Prop54
  1
strokes_ogs.tif
102
RTVSPost2010PropOp54
 70
     1
102
RTVSPost2010Prop55
280
     0
102
RTVSPost2010PropOp55
 70
     1
102
RTVSPost2010Prop56
140
1.0
102
RTVSPost2010PropOp56
 70
     1
102
RTVSPost2010Prop57
140
1.0
102
RTVSPost2010PropOp57
 70
     1
  0
XRECORD
  5
1AB
102
{ACAD_REACTORS
330
1AA
102
}
330
1AA
100
AcDbXrecord
280
     1
102
RTVSPropertyOp0
 70
     1
102
RTVSPropertyOp1
 70
     1
102
RTVSPropertyOp2
 70
     1
102
RTVSPropertyOp3
 70
     1
102
RTVSPropertyOp4
 70
     1
102
RTVSPropertyOp5
 70
     1
102
RTVSPropertyOp6
 70
     1
102
RTVSPropertyOp7
 70
     1
102
RTVSPropertyOp8
 70
     1
102
RTVSPropertyOp9
 70
     1
102
RTVSPropertyOp10
 70
     1
102
RTVSPropertyOp11
 70
     1
102
RTVSPropertyOp12
 70
     1
102
RTVSPropertyOp13
 70
     1
102
RTVSPropertyOp14
 70
     1
102
RTVSPropertyOp15
 70
     1
102
RTVSPropertyOp16
 70
     1
102
RTVSPropertyOp17
 70
     1
102
RTVSPropertyOp18
 70
     1
102
RTVSPropertyOp19
 70
     1
102
RTVSPropertyOp20
 70
     1
102
RTVSPropertyOp21
 70
     1
102
RTVSPropertyOp22
 70
     1
102
RTVSPropertyOp23
 70
     1
102
RTVSPropertyOp24
 70
     1
102
RTVSPropertyOp25
 70
     1
102
RTVSPropertyOp26
 70
     1
102
RTVSPropertyOp27
 70
     1
102
RTVSPropertyOp28
 70
     1
102
RTVSPropertyOp29
 70
     1
102
RTVSPropertyOp30
 70
     1
102
RTVSPropertyOp31
 70
     1
102
RTVSPropertyOp32
 70
     1
102
RTVSPropertyOp33
 70
     1
102
RTVSPropertyOp34
 70
     1
102
RTVSPropertyOp35
 70
     1
102
RTVSPropertyOp36
 70
     1
102
RTVSPropertyOp37
 70
     1
102
RTVSPropertyOp38
 70
     1
102
RTVSPropertyOp39
 70
     1
102
RTVSPropertyOp40
 70
     1
102
RTVSPropertyOp41
 70
     1
102
RTVSPropertyOp42
 70
     1
102
RTVSPropertyOp43
 70
     1
102
RTVSPropertyOp44
 70
     1
102
RTVSPropertyOp45
 70
     1
102
RTVSPropertyOp46
 70
     1
102
RTVSPropertyOp47
 70
     1
102
RTVSPropertyOp48
 70
     1
102
RTVSPropertyOp49
 70
     1
102
RTVSPropertyOp50
 70
     1
102
RTVSPropertyOp51
 70
     0
102
RTVSPropertyOp52
 70
     0
102
RTVSPropertyOp53
 70
     1
102
RTVSPropertyOp54
 70
     1
102
RTVSPropertyOp55
 70
     1
102
RTVSPropertyOp56
 70
     1
102
RTVSPropertyOp57
 70
     1
102
RTVSPost2010Prop28
280
     0
102
RTVSPost2010PropOp28
 70
     1
102
RTVSPost2010Prop29
280
     1
102
RTVSPost2010PropOp29
 70
     1
102
RTVSPost2010Prop30
280
     1
102
RTVSPost2010PropOp30
 70
     1
102
RTVSPost2010Prop31
280
     0
102
RTVSPost2010PropOp31
 70
     1
102
RTVSPost2010Prop32
280
     0
102
RTVSPost2010PropOp32
 70
     1
102
RTVSPost2010Prop33
280
     0
102
RTVSPost2010PropOp33
 70
     1
102
RTVSPost2010Prop34
280
     0
102
RTVSPost2010PropOp34
 70
     1
102
RTVSPost2010Prop35
280
     0
102
RTVSPost2010PropOp35
 70
     1
102
RTVSPost2010Prop36
280
     0
102
RTVSPost2010PropOp36
 70
     1
102
RTVSPost2010Prop37
 90
       50
102
RTVSPost2010PropOp37
 70
     1
102
RTVSPost2010Prop38
140
0.0
102
RTVSPost2010PropOp38
 70
     1
102
RTVSPost2010Prop39
140
1.0
102
RTVSPost2010PropOp39
 70
     1
102
RTVSPost2010Prop40
 90
        0
102
RTVSPost2010PropOp40
 70
     1
102
RTVSPost2010Prop41ColorIndex
 90
       18
102
RTVSPost2010Prop41ColorRGB
 90
        0
102
RTVSPost2010PropOp41
 70
     1
102
RTVSPost2010Prop42
 90
       50
102
RTVSPost2010PropOp42
 70
     1
102
RTVSPost2010Prop43
 90
        3
102
RTVSPost2010PropOp43
 70
     1
102
RTVSPost2010Prop44ColorIndex
 90
        5
102
RTVSPost2010Prop44ColorRGB
 90
      255
102
RTVSPost2010PropOp44
 70
     1
102
RTVSPost2010Prop45
280
     0
102
RTVSPost2010PropOp45
 70
     1
102
RTVSPost2010Prop46
 90
       50
102
RTVSPost2010PropOp46
 70
     1
102
RTVSPost2010Prop47
 90
       50
102
RTVSPost2010PropOp47
 70
     1
102
RTVSPost2010Prop48
 90
       50
102
RTVSPost2010PropOp48
 70
     1
102
RTVSPost2010Prop49
280
     0
102
RTVSPost2010PropOp49
 70
     1
102
RTVSPost2010Prop50
 90
       50
102
RTVSPost2010PropOp50
 70
     1
102
RTVSPost2010Prop51ColorIndex
 90
      256
102
RTVSPost2010Prop51ColorRGB
 90
-16777216
102
RTVSPost2010PropOp51
 70
     0
102
RTVSPost2010Prop52
140
1.0
102
RTVSPost2010PropOp52
 70
     0
102
RTVSPost2010Prop53
 90
        2
102
RTVSPost2010PropOp53
 70
     1
102
RTVSPost2010Prop54
  1
strokes_ogs.tif
102
RTVSPost2010PropOp54
 70
     1
102
RTVSPost2010Prop55
280
     0
102
RTVSPost2010PropOp55
 70
     1
102
RTVSPost2010Prop56
140
1.0
102
RTVSPost2010PropOp56
 70
     1
102
RTVSPost2010Prop57
140
1.0
102
RTVSPost2010PropOp57
 70
     1
  0
XRECORD
  5
19B
102
{ACAD_REACTORS
330
19A
102
}
330
19A
100
AcDbXrecord
280
     1
102
RTVSPropertyOp0
 70
     1
102
RTVSPropertyOp1
 70
     1
102
RTVSPropertyOp2
 70
     1
102
RTVSPropertyOp3
 70
     1
102
RTVSPropertyOp4
 70
     1
102
RTVSPropertyOp5
 70
     1
102
RTVSPropertyOp6
 70
     1
102
RTVSPropertyOp7
 70
     1
102
RTVSPropertyOp8
 70
     1
102
RTVSPropertyOp9
 70
     1
102
RTVSPropertyOp10
 70
     1
102
RTVSPropertyOp11
 70
     1
102
RTVSPropertyOp12
 70
     1
102
RTVSPropertyOp13
 70
     1
102
RTVSPropertyOp14
 70
     1
102
RTVSPropertyOp15
 70
     1
102
RTVSPropertyOp16
 70
     1
102
RTVSPropertyOp17
 70
     1
102
RTVSPropertyOp18
 70
     1
102
RTVSPropertyOp19
 70
     1
102
RTVSPropertyOp20
 70
     1
102
RTVSPropertyOp21
 70
     1
102
RTVSPropertyOp22
 70
     1
102
RTVSPropertyOp23
 70
     1
102
RTVSPropertyOp24
 70
     1
102
RTVSPropertyOp25
 70
     1
102
RTVSPropertyOp26
 70
     1
102
RTVSPropertyOp27
 70
     1
102
RTVSPropertyOp28
 70
     1
102
RTVSPropertyOp29
 70
     1
102
RTVSPropertyOp30
 70
     1
102
RTVSPropertyOp31
 70
     1
102
RTVSPropertyOp32
 70
     1
102
RTVSPropertyOp33
 70
     1
102
RTVSPropertyOp34
 70
     1
102
RTVSPropertyOp35
 70
     1
102
RTVSPropertyOp36
 70
     1
102
RTVSPropertyOp37
 70
     1
102
RTVSPropertyOp38
 70
     1
102
RTVSPropertyOp39
 70
     1
102
RTVSPropertyOp40
 70
     1
102
RTVSPropertyOp41
 70
     1
102
RTVSPropertyOp42
 70
     1
102
RTVSPropertyOp43
 70
     1
102
RTVSPropertyOp44
 70
     1
102
RTVSPropertyOp45
 70
     1
102
RTVSPropertyOp46
 70
     1
102
RTVSPropertyOp47
 70
     1
102
RTVSPropertyOp48
 70
     1
102
RTVSPropertyOp49
 70
     1
102
RTVSPropertyOp50
 70
     1
102
RTVSPropertyOp51
 70
     0
102
RTVSPropertyOp52
 70
     0
102
RTVSPropertyOp53
 70
     1
102
RTVSPropertyOp54
 70
     1
102
RTVSPropertyOp55
 70
     1
102
RTVSPropertyOp56
 70
     1
102
RTVSPropertyOp57
 70
     1
102
RTVSPost2010Prop28
280
     0
102
RTVSPost2010PropOp28
 70
     1
102
RTVSPost2010Prop29
280
     1
102
RTVSPost2010PropOp29
 70
     1
102
RTVSPost2010Prop30
280
     1
102
RTVSPost2010PropOp30
 70
     1
102
RTVSPost2010Prop31
280
     0
102
RTVSPost2010PropOp31
 70
     1
102
RTVSPost2010Prop32
280
     0
102
RTVSPost2010PropOp32
 70
     1
102
RTVSPost2010Prop33
280
     0
102
RTVSPost2010PropOp33
 70
     1
102
RTVSPost2010Prop34
280
     0
102
RTVSPost2010PropOp34
 70
     1
102
RTVSPost2010Prop35
280
     0
102
RTVSPost2010PropOp35
 70
     1
102
RTVSPost2010Prop36
280
     0
102
RTVSPost2010PropOp36
 70
     1
102
RTVSPost2010Prop37
 90
       50
102
RTVSPost2010PropOp37
 70
     1
102
RTVSPost2010Prop38
140
0.0
102
RTVSPost2010PropOp38
 70
     1
102
RTVSPost2010Prop39
140
1.0
102
RTVSPost2010PropOp39
 70
     1
102
RTVSPost2010Prop40
 90
        0
102
RTVSPost2010PropOp40
 70
     1
102
RTVSPost2010Prop41ColorIndex
 90
       18
102
RTVSPost2010Prop41ColorRGB
 90
        0
102
RTVSPost2010PropOp41
 70
     1
102
RTVSPost2010Prop42
 90
       50
102
RTVSPost2010PropOp42
 70
     1
102
RTVSPost2010Prop43
 90
        3
102
RTVSPost2010PropOp43
 70
     1
102
RTVSPost2010Prop44ColorIndex
 90
        5
102
RTVSPost2010Prop44ColorRGB
 90
      255
102
RTVSPost2010PropOp44
 70
     1
102
RTVSPost2010Prop45
280
     0
102
RTVSPost2010PropOp45
 70
     1
102
RTVSPost2010Prop46
 90
       50
102
RTVSPost2010PropOp46
 70
     1
102
RTVSPost2010Prop47
 90
       50
102
RTVSPost2010PropOp47
 70
     1
102
RTVSPost2010Prop48
 90
       50
102
RTVSPost2010PropOp48
 70
     1
102
RTVSPost2010Prop49
280
     0
102
RTVSPost2010PropOp49
 70
     1
102
RTVSPost2010Prop50
 90
       50
102
RTVSPost2010PropOp50
 70
     1
102
RTVSPost2010Prop51ColorIndex
 90
      256
102
RTVSPost2010Prop51ColorRGB
 90
-16777216
102
RTVSPost2010PropOp51
 70
     0
102
RTVSPost2010Prop52
140
1.0
102
RTVSPost2010PropOp52
 70
     0
102
RTVSPost2010Prop53
 90
        2
102
RTVSPost2010PropOp53
 70
     1
102
RTVSPost2010Prop54
  1
strokes_ogs.tif
102
RTVSPost2010PropOp54
 70
     1
102
RTVSPost2010Prop55
280
     0
102
RTVSPost2010PropOp55
 70
     1
102
RTVSPost2010Prop56
140
1.0
102
RTVSPost2010PropOp56
 70
     1
102
RTVSPost2010Prop57
140
1.0
102
RTVSPost2010PropOp57
 70
     1
  0
XRECORD
  5
18D
102
{ACAD_REACTORS
330
18C
102
}
330
18C
100
AcDbXrecord
280
     1
102
RTVSPropertyOp0
 70
     1
102
RTVSPropertyOp1
 70
     1
102
RTVSPropertyOp2
 70
     1
102
RTVSPropertyOp3
 70
     1
102
RTVSPropertyOp4
 70
     1
102
RTVSPropertyOp5
 70
     1
102
RTVSPropertyOp6
 70
     1
102
RTVSPropertyOp7
 70
     1
102
RTVSPropertyOp8
 70
     1
102
RTVSPropertyOp9
 70
     1
102
RTVSPropertyOp10
 70
     1
102
RTVSPropertyOp11
 70
     1
102
RTVSPropertyOp12
 70
     1
102
RTVSPropertyOp13
 70
     1
102
RTVSPropertyOp14
 70
     1
102
RTVSPropertyOp15
 70
     1
102
RTVSPropertyOp16
 70
     1
102
RTVSPropertyOp17
 70
     1
102
RTVSPropertyOp18
 70
     1
102
RTVSPropertyOp19
 70
     1
102
RTVSPropertyOp20
 70
     1
102
RTVSPropertyOp21
 70
     1
102
RTVSPropertyOp22
 70
     1
102
RTVSPropertyOp23
 70
     1
102
RTVSPropertyOp24
 70
     1
102
RTVSPropertyOp25
 70
     1
102
RTVSPropertyOp26
 70
     1
102
RTVSPropertyOp27
 70
     1
102
RTVSPropertyOp28
 70
     1
102
RTVSPropertyOp29
 70
     1
102
RTVSPropertyOp30
 70
     1
102
RTVSPropertyOp31
 70
     1
102
RTVSPropertyOp32
 70
     1
102
RTVSPropertyOp33
 70
     1
102
RTVSPropertyOp34
 70
     1
102
RTVSPropertyOp35
 70
     1
102
RTVSPropertyOp36
 70
     1
102
RTVSPropertyOp37
 70
     1
102
RTVSPropertyOp38
 70
     1
102
RTVSPropertyOp39
 70
     1
102
RTVSPropertyOp40
 70
     1
102
RTVSPropertyOp41
 70
     1
102
RTVSPropertyOp42
 70
     1
102
RTVSPropertyOp43
 70
     1
102
RTVSPropertyOp44
 70
     1
102
RTVSPropertyOp45
 70
     1
102
RTVSPropertyOp46
 70
     1
102
RTVSPropertyOp47
 70
     1
102
RTVSPropertyOp48
 70
     1
102
RTVSPropertyOp49
 70
     1
102
RTVSPropertyOp50
 70
     1
102
RTVSPropertyOp51
 70
     0
102
RTVSPropertyOp52
 70
     0
102
RTVSPropertyOp53
 70
     1
102
RTVSPropertyOp54
 70
     1
102
RTVSPropertyOp55
 70
     1
102
RTVSPropertyOp56
 70
     1
102
RTVSPropertyOp57
 70
     1
102
RTVSPost2010Prop28
280
     0
102
RTVSPost2010PropOp28
 70
     1
102
RTVSPost2010Prop29
280
     1
102
RTVSPost2010PropOp29
 70
     1
102
RTVSPost2010Prop30
280
     1
102
RTVSPost2010PropOp30
 70
     1
102
RTVSPost2010Prop31
280
     0
102
RTVSPost2010PropOp31
 70
     1
102
RTVSPost2010Prop32
280
     0
102
RTVSPost2010PropOp32
 70
     1
102
RTVSPost2010Prop33
280
     0
102
RTVSPost2010PropOp33
 70
     1
102
RTVSPost2010Prop34
280
     0
102
RTVSPost2010PropOp34
 70
     1
102
RTVSPost2010Prop35
280
     0
102
RTVSPost2010PropOp35
 70
     1
102
RTVSPost2010Prop36
280
     0
102
RTVSPost2010PropOp36
 70
     1
102
RTVSPost2010Prop37
 90
       50
102
RTVSPost2010PropOp37
 70
     1
102
RTVSPost2010Prop38
140
0.0
102
RTVSPost2010PropOp38
 70
     1
102
RTVSPost2010Prop39
140
1.0
102
RTVSPost2010PropOp39
 70
     1
102
RTVSPost2010Prop40
 90
        0
102
RTVSPost2010PropOp40
 70
     1
102
RTVSPost2010Prop41ColorIndex
 90
       18
102
RTVSPost2010Prop41ColorRGB
 90
        0
102
RTVSPost2010PropOp41
 70
     1
102
RTVSPost2010Prop42
 90
       50
102
RTVSPost2010PropOp42
 70
     1
102
RTVSPost2010Prop43
 90
        3
102
RTVSPost2010PropOp43
 70
     1
102
RTVSPost2010Prop44ColorIndex
 90
        5
102
RTVSPost2010Prop44ColorRGB
 90
      255
102
RTVSPost2010PropOp44
 70
     1
102
RTVSPost2010Prop45
280
     0
102
RTVSPost2010PropOp45
 70
     1
102
RTVSPost2010Prop46
 90
       50
102
RTVSPost2010PropOp46
 70
     1
102
RTVSPost2010Prop47
 90
       50
102
RTVSPost2010PropOp47
 70
     1
102
RTVSPost2010Prop48
 90
       50
102
RTVSPost2010PropOp48
 70
     1
102
RTVSPost2010Prop49
280
     0
102
RTVSPost2010PropOp49
 70
     1
102
RTVSPost2010Prop50
 90
       50
102
RTVSPost2010PropOp50
 70
     1
102
RTVSPost2010Prop51ColorIndex
 90
      256
102
RTVSPost2010Prop51ColorRGB
 90
-16777216
102
RTVSPost2010PropOp51
 70
     0
102
RTVSPost2010Prop52
140
1.0
102
RTVSPost2010PropOp52
 70
     0
102
RTVSPost2010Prop53
 90
        2
102
RTVSPost2010PropOp53
 70
     1
102
RTVSPost2010Prop54
  1
strokes_ogs.tif
102
RTVSPost2010PropOp54
 70
     1
102
RTVSPost2010Prop55
280
     0
102
RTVSPost2010PropOp55
 70
     1
102
RTVSPost2010Prop56
140
1.0
102
RTVSPost2010PropOp56
 70
     1
102
RTVSPost2010Prop57
140
1.0
102
RTVSPost2010PropOp57
 70
     1
  0
XRECORD
  5
1AD
102
{ACAD_REACTORS
330
1AC
102
}
330
1AC
100
AcDbXrecord
280
     1
102
RTVSPropertyOp0
 70
     1
102
RTVSPropertyOp1
 70
     1
102
RTVSPropertyOp2
 70
     1
102
RTVSPropertyOp3
 70
     1
102
RTVSPropertyOp4
 70
     1
102
RTVSPropertyOp5
 70
     1
102
RTVSPropertyOp6
 70
     1
102
RTVSPropertyOp7
 70
     1
102
RTVSPropertyOp8
 70
     1
102
RTVSPropertyOp9
 70
     1
102
RTVSPropertyOp10
 70
     1
102
RTVSPropertyOp11
 70
     1
102
RTVSPropertyOp12
 70
     1
102
RTVSPropertyOp13
 70
     1
102
RTVSPropertyOp14
 70
     1
102
RTVSPropertyOp15
 70
     1
102
RTVSPropertyOp16
 70
     1
102
RTVSPropertyOp17
 70
     1
102
RTVSPropertyOp18
 70
     1
102
RTVSPropertyOp19
 70
     1
102
RTVSPropertyOp20
 70
     1
102
RTVSPropertyOp21
 70
     1
102
RTVSPropertyOp22
 70
     1
102
RTVSPropertyOp23
 70
     1
102
RTVSPropertyOp24
 70
     1
102
RTVSPropertyOp25
 70
     1
102
RTVSPropertyOp26
 70
     1
102
RTVSPropertyOp27
 70
     1
102
RTVSPropertyOp28
 70
     1
102
RTVSPropertyOp29
 70
     1
102
RTVSPropertyOp30
 70
     1
102
RTVSPropertyOp31
 70
     1
102
RTVSPropertyOp32
 70
     1
102
RTVSPropertyOp33
 70
     1
102
RTVSPropertyOp34
 70
     1
102
RTVSPropertyOp35
 70
     1
102
RTVSPropertyOp36
 70
     1
102
RTVSPropertyOp37
 70
     1
102
RTVSPropertyOp38
 70
     1
102
RTVSPropertyOp39
 70
     1
102
RTVSPropertyOp40
 70
     1
102
RTVSPropertyOp41
 70
     1
102
RTVSPropertyOp42
 70
     1
102
RTVSPropertyOp43
 70
     1
102
RTVSPropertyOp44
 70
     1
102
RTVSPropertyOp45
 70
     1
102
RTVSPropertyOp46
 70
     1
102
RTVSPropertyOp47
 70
     1
102
RTVSPropertyOp48
 70
     1
102
RTVSPropertyOp49
 70
     1
102
RTVSPropertyOp50
 70
     1
102
RTVSPropertyOp51
 70
     0
102
RTVSPropertyOp52
 70
     0
102
RTVSPropertyOp53
 70
     1
102
RTVSPropertyOp54
 70
     1
102
RTVSPropertyOp55
 70
     1
102
RTVSPropertyOp56
 70
     1
102
RTVSPropertyOp57
 70
     1
102
RTVSPost2010Prop28
280
     0
102
RTVSPost2010PropOp28
 70
     1
102
RTVSPost2010Prop29
280
     1
102
RTVSPost2010PropOp29
 70
     1
102
RTVSPost2010Prop30
280
     1
102
RTVSPost2010PropOp30
 70
     1
102
RTVSPost2010Prop31
280
     0
102
RTVSPost2010PropOp31
 70
     1
102
RTVSPost2010Prop32
280
     0
102
RTVSPost2010PropOp32
 70
     1
102
RTVSPost2010Prop33
280
     0
102
RTVSPost2010PropOp33
 70
     1
102
RTVSPost2010Prop34
280
     0
102
RTVSPost2010PropOp34
 70
     1
102
RTVSPost2010Prop35
280
     0
102
RTVSPost2010PropOp35
 70
     1
102
RTVSPost2010Prop36
280
     0
102
RTVSPost2010PropOp36
 70
     1
102
RTVSPost2010Prop37
 90
       50
102
RTVSPost2010PropOp37
 70
     1
102
RTVSPost2010Prop38
140
0.0
102
RTVSPost2010PropOp38
 70
     1
102
RTVSPost2010Prop39
140
1.0
102
RTVSPost2010PropOp39
 70
     1
102
RTVSPost2010Prop40
 90
        0
102
RTVSPost2010PropOp40
 70
     1
102
RTVSPost2010Prop41ColorIndex
 90
       18
102
RTVSPost2010Prop41ColorRGB
 90
        0
102
RTVSPost2010PropOp41
 70
     1
102
RTVSPost2010Prop42
 90
       50
102
RTVSPost2010PropOp42
 70
     1
102
RTVSPost2010Prop43
 90
        3
102
RTVSPost2010PropOp43
 70
     1
102
RTVSPost2010Prop44ColorIndex
 90
        5
102
RTVSPost2010Prop44ColorRGB
 90
      255
102
RTVSPost2010PropOp44
 70
     1
102
RTVSPost2010Prop45
280
     0
102
RTVSPost2010PropOp45
 70
     1
102
RTVSPost2010Prop46
 90
       50
102
RTVSPost2010PropOp46
 70
     1
102
RTVSPost2010Prop47
 90
       50
102
RTVSPost2010PropOp47
 70
     1
102
RTVSPost2010Prop48
 90
       50
102
RTVSPost2010PropOp48
 70
     1
102
RTVSPost2010Prop49
280
     0
102
RTVSPost2010PropOp49
 70
     1
102
RTVSPost2010Prop50
 90
       50
102
RTVSPost2010PropOp50
 70
     1
102
RTVSPost2010Prop51ColorIndex
 90
      256
102
RTVSPost2010Prop51ColorRGB
 90
-16777216
102
RTVSPost2010PropOp51
 70
     0
102
RTVSPost2010Prop52
140
1.0
102
RTVSPost2010PropOp52
 70
     0
102
RTVSPost2010Prop53
 90
        2
102
RTVSPost2010PropOp53
 70
     1
102
RTVSPost2010Prop54
  1
strokes_ogs.tif
102
RTVSPost2010PropOp54
 70
     1
102
RTVSPost2010Prop55
280
     0
102
RTVSPost2010PropOp55
 70
     1
102
RTVSPost2010Prop56
140
1.0
102
RTVSPost2010PropOp56
 70
     1
102
RTVSPost2010Prop57
140
1.0
102
RTVSPost2010PropOp57
 70
     1
  0
ENDSEC
  0
EOF
