  0
SECTION
  2
HEADER
  9
$ACADVER
  1
AC1021
  9
$ACADMAINTVER
 70
    25
  9
$DWGCODEPAGE
  3
ANSI_1252
  9
$INSBASE
 10
0.0
 20
0.0
 30
0.0
  9
$EXTMIN
 10
1.000000000000000E+20
 20
1.000000000000000E+20
 30
1.000000000000000E+20
  9
$EXTMAX
 10
-1.000000000000000E+20
 20
-1.000000000000000E+20
 30
-1.000000000000000E+20
  9
$LIMMIN
 10
0.0
 20
0.0
  9
$LIMMAX
 10
12.0
 20
9.0
  9
$ORTHOMODE
 70
     0
  9
$REGENMODE
 70
     1
  9
$FILLMODE
 70
     1
  9
$QTEXTMODE
 70
     0
  9
$MIRRTEXT
 70
     1
  9
$LTSCALE
 40
1.0
  9
$ATTMODE
 70
     1
  9
$TEXTSIZE
 40
0.2
  9
$TRACEWID
 40
0.05
  9
$TEXTSTYLE
  7
Standard
  9
$CLAYER
  8
Layer 01
  9
$CELTYPE
  6
ByLayer
  9
$CECOLOR
 62
   256
  9
$CELTSCALE
 40
1.0
  9
$DISPSILH
 70
     0
  9
$DIMSCALE
 40
1.0
  9
$DIMASZ
 40
0.18
  9
$DIMEXO
 40
0.0625
  9
$DIMDLI
 40
0.38
  9
$DIMRND
 40
0.0
  9
$DIMDLE
 40
0.0
  9
$DIMEXE
 40
0.18
  9
$DIMTP
 40
0.0
  9
$DIMTM
 40
0.0
  9
$DIMTXT
 40
0.18
  9
$DIMCEN
 40
0.09
  9
$DIMTSZ
 40
0.0
  9
$DIMTOL
 70
     0
  9
$DIMLIM
 70
     0
  9
$DIMTIH
 70
     1
  9
$DIMTOH
 70
     1
  9
$DIMSE1
 70
     0
  9
$DIMSE2
 70
     0
  9
$DIMTAD
 70
     0
  9
$DIMZIN
 70
     0
  9
$DIMBLK
  1

  9
$DIMASO
 70
     1
  9
$DIMSHO
 70
     1
  9
$DIMPOST
  1

  9
$DIMAPOST
  1

  9
$DIMALT
 70
     0
  9
$DIMALTD
 70
     2
  9
$DIMALTF
 40
25.4
  9
$DIMLFAC
 40
1.0
  9
$DIMTOFL
 70
     0
  9
$DIMTVP
 40
0.0
  9
$DIMTIX
 70
     0
  9
$DIMSOXD
 70
     0
  9
$DIMSAH
 70
     0
  9
$DIMBLK1
  1

  9
$DIMBLK2
  1

  9
$DIMSTYLE
  2
STANDARD_ACAD
  9
$DIMCLRD
 70
     0
  9
$DIMCLRE
 70
     0
  9
$DIMCLRT
 70
     0
  9
$DIMTFAC
 40
1.0
  9
$DIMGAP
 40
0.09
  9
$DIMJUST
 70
     0
  9
$DIMSD1
 70
     0
  9
$DIMSD2
 70
     0
  9
$DIMTOLJ
 70
     1
  9
$DIMTZIN
 70
     0
  9
$DIMALTZ
 70
     0
  9
$DIMALTTZ
 70
     0
  9
$DIMUPT
 70
     0
  9
$DIMDEC
 70
     4
  9
$DIMTDEC
 70
     4
  9
$DIMALTU
 70
     2
  9
$DIMALTTD
 70
     2
  9
$DIMTXSTY
  7
Standard
  9
$DIMAUNIT
 70
     0
  9
$DIMADEC
 70
     0
  9
$DIMALTRND
 40
0.0
  9
$DIMAZIN
 70
     0
  9
$DIMDSEP
 70
    46
  9
$DIMATFIT
 70
     3
  9
$DIMFRAC
 70
     0
  9
$DIMLDRBLK
  1

  9
$DIMLUNIT
 70
     2
  9
$DIMLWD
 70
    -2
  9
$DIMLWE
 70
    -2
  9
$DIMTMOVE
 70
     2
  9
$DIMFXL
 40
1.0
  9
$DIMFXLON
 70
     0
  9
$DIMJOGANG
 40
0.7853981633974483
  9
$DIMTFILL
 70
     0
  9
$DIMTFILLCLR
 70
     0
  9
$DIMARCSYM
 70
     0
  9
$DIMLTYPE
  6

  9
$DIMLTEX1
  6

  9
$DIMLTEX2
  6

  9
$LUNITS
 70
     2
  9
$LUPREC
 70
     3
  9
$SKETCHINC
 40
0.1
  9
$FILLETRAD
 40
0.5
  9
$AUNITS
 70
     0
  9
$AUPREC
 70
     0
  9
$MENU
  1
.
  9
$ELEVATION
 40
0.0
  9
$PELEVATION
 40
0.0
  9
$THICKNESS
 40
0.0
  9
$LIMCHECK
 70
     0
  9
$CHAMFERA
 40
0.0
  9
$CHAMFERB
 40
0.0
  9
$CHAMFERC
 40
0.0
  9
$CHAMFERD
 40
0.0
  9
$SKPOLY
 70
     0
  9
$TDCREATE
 40
2459656.493479977
  9
$TDUCREATE
 40
2459656.660146643
  9
$TDUPDATE
 40
2459656.493508021
  9
$TDUUPDATE
 40
2459656.660174687
  9
$TDINDWG
 40
0.0000000116
  9
$TDUSRTIMER
 40
0.0000000116
  9
$USRTIMER
 70
     1
  9
$ANGBASE
 50
0.0
  9
$ANGDIR
 70
     0
  9
$PDMODE
 70
     0
  9
$PDSIZE
 40
0.0
  9
$PLINEWID
 40
0.0
  9
$SPLFRAME
 70
     0
  9
$SPLINETYPE
 70
     6
  9
$SPLINESEGS
 70
     8
  9
$HANDSEED
  5
1EA
  9
$SURFTAB1
 70
     6
  9
$SURFTAB2
 70
     6
  9
$SURFTYPE
 70
     6
  9
$SURFU
 70
     6
  9
$SURFV
 70
     6
  9
$UCSBASE
  2

  9
$UCSNAME
  2

  9
$UCSORG
 10
0.0
 20
0.0
 30
0.0
  9
$UCSXDIR
 10
1.0
 20
0.0
 30
0.0
  9
$UCSYDIR
 10
0.0
 20
1.0
 30
0.0
  9
$UCSORTHOREF
  2

  9
$UCSORTHOVIEW
 70
     0
  9
$UCSORGTOP
 10
0.0
 20
0.0
 30
0.0
  9
$UCSORGBOTTOM
 10
0.0
 20
0.0
 30
0.0
  9
$UCSORGLEFT
 10
0.0
 20
0.0
 30
0.0
  9
$UCSORGRIGHT
 10
0.0
 20
0.0
 30
0.0
  9
$UCSORGFRONT
 10
0.0
 20
0.0
 30
0.0
  9
$UCSORGBACK
 10
0.0
 20
0.0
 30
0.0
  9
$PUCSBASE
  2

  9
$PUCSNAME
  2

  9
$PUCSORG
 10
0.0
 20
0.0
 30
0.0
  9
$PUCSXDIR
 10
1.0
 20
0.0
 30
0.0
  9
$PUCSYDIR
 10
0.0
 20
1.0
 30
0.0
  9
$PUCSORTHOREF
  2

  9
$PUCSORTHOVIEW
 70
     0
  9
$PUCSORGTOP
 10
0.0
 20
0.0
 30
0.0
  9
$PUCSORGBOTTOM
 10
0.0
 20
0.0
 30
0.0
  9
$PUCSORGLEFT
 10
0.0
 20
0.0
 30
0.0
  9
$PUCSORGRIGHT
 10
0.0
 20
0.0
 30
0.0
  9
$PUCSORGFRONT
 10
0.0
 20
0.0
 30
0.0
  9
$PUCSORGBACK
 10
0.0
 20
0.0
 30
0.0
  9
$USERI1
 70
     0
  9
$USERI2
 70
     0
  9
$USERI3
 70
     0
  9
$USERI4
 70
     0
  9
$USERI5
 70
     0
  9
$USERR1
 40
0.0
  9
$USERR2
 40
0.0
  9
$USERR3
 40
0.0
  9
$USERR4
 40
0.0
  9
$USERR5
 40
0.0
  9
$WORLDVIEW
 70
     1
  9
$SHADEDGE
 70
     3
  9
$SHADEDIF
 70
    70
  9
$TILEMODE
 70
     1
  9
$MAXACTVP
 70
    64
  9
$PINSBASE
 10
0.0
 20
0.0
 30
0.0
  9
$PLIMCHECK
 70
     0
  9
$PEXTMIN
 10
1.000000000000000E+20
 20
1.000000000000000E+20
 30
1.000000000000000E+20
  9
$PEXTMAX
 10
-1.000000000000000E+20
 20
-1.000000000000000E+20
 30
-1.000000000000000E+20
  9
$PLIMMIN
 10
0.0
 20
0.0
  9
$PLIMMAX
 10
12.0
 20
9.0
  9
$UNITMODE
 70
     0
  9
$VISRETAIN
 70
     1
  9
$PLINEGEN
 70
     0
  9
$PSLTSCALE
 70
     1
  9
$TREEDEPTH
 70
  3020
  9
$CMLSTYLE
  2
Standard
  9
$CMLJUST
 70
     0
  9
$CMLSCALE
 40
1.0
  9
$PROXYGRAPHICS
 70
     1
  9
$MEASUREMENT
 70
     0
  9
$CELWEIGHT
370
    -1
  9
$ENDCAPS
280
     0
  9
$JOINSTYLE
280
     0
  9
$LWDISPLAY
290
     0
  9
$INSUNITS
 70
     1
  9
$HYPERLINKBASE
  1

  9
$STYLESHEET
  1

  9
$XEDIT
290
     1
  9
$CEPSNTYPE
380
     0
  9
$PSTYLEMODE
290
     1
  9
$FINGERPRINTGUID
  2
{7e228359-d9a2-4c81-ab19-4f666b196a79}
  9
$VERSIONGUID
  2
{FAEB1C32-E019-11D5-929B-00C0DF256EC4}
  9
$EXTNAMES
290
     1
  9
$PSVPSCALE
 40
0.0
  9
$OLESTARTUP
290
     0
  9
$SORTENTS
280
   127
  9
$INDEXCTL
280
     0
  9
$HIDETEXT
280
     1
  9
$XCLIPFRAME
290
     0
  9
$HALOGAP
280
     0
  9
$OBSCOLOR
 70
   257
  9
$OBSLTYPE
280
     0
  9
$INTERSECTIONDISPLAY
280
     0
  9
$INTERSECTIONCOLOR
 70
   257
  9
$DIMASSOC
280
     2
  9
$PROJECTNAME
  1

  9
$CAMERADISPLAY
290
     0
  9
$LENSLENGTH
 40
50.0
  9
$CAMERAHEIGHT
 40
0.0
  9
$STEPSPERSEC
 40
2.0
  9
$STEPSIZE
 40
6.0
  9
$3DDWFPREC
 40
2.0
  9
$PSOLWIDTH
 40
0.25
  9
$PSOLHEIGHT
 40
4.0
  9
$LOFTANG1
 40
1.570796326794897
  9
$LOFTANG2
 40
1.570796326794897
  9
$LOFTMAG1
 40
0.0
  9
$LOFTMAG2
 40
0.0
  9
$LOFTPARAM
 70
     7
  9
$LOFTNORMALS
280
     1
  9
$LATITUDE
 40
37.795
  9
$LONGITUDE
 40
-122.394
  9
$NORTHDIRECTION
 40
0.0
  9
$TIMEZONE
 70
 -8000
  9
$LIGHTGLYPHDISPLAY
280
     1
  9
$TILEMODELIGHTSYNCH
280
     1
  9
$CMATERIAL
347
44
  9
$SOLIDHIST
280
     0
  9
$SHOWHIST
280
     1
  9
$DWFFRAME
280
     2
  9
$DGNFRAME
280
     2
  9
$REALWORLDSCALE
290
     1
  9
$INTERFERECOLOR
 62
   256
  9
$CSHADOW
280
     0
  9
$SHADOWPLANELOCATION
 40
0.0
  0
ENDSEC
  0
SECTION
  2
CLASSES
  0
CLASS
  1
ACDBDICTIONARYWDFLT
  2
AcDbDictionaryWithDefault
  3
ObjectDBX Classes
 90
        0
 91
        3
280
     0
281
     0
  0
CLASS
  1
VISUALSTYLE
  2
AcDbVisualStyle
  3
ObjectDBX Classes
 90
     4095
 91
        3
280
     0
281
     0
  0
CLASS
  1
MATERIAL
  2
AcDbMaterial
  3
ObjectDBX Classes
 90
     1153
 91
        3
280
     0
281
     0
  0
CLASS
  1
SCALE
  2
AcDbScale
  3
ObjectDBX Classes
 90
     1153
 91
        3
280
     0
281
     0
  0
CLASS
  1
TABLESTYLE
  2
AcDbTableStyle
  3
ObjectDBX Classes
 90
     4095
 91
        3
280
     0
281
     0
  0
CLASS
  1
MLEADERSTYLE
  2
AcDbMLeaderStyle
  3
ACDB_MLEADERSTYLE_CLASS
 90
     4095
 91
        3
280
     0
281
     0
  0
CLASS
  1
SUN
  2
AcDbSun
  3
SCENEOE
 90
     1153
 91
        3
280
     0
281
     0
  0
CLASS
  1
DICTIONARYVAR
  2
AcDbDictionaryVar
  3
ObjectDBX Classes
 90
        0
 91
        3
280
     0
281
     0
  0
CLASS
  1
CELLSTYLEMAP
  2
AcDbCellStyleMap
  3
ObjectDBX Classes
 90
     1152
 91
        3
280
     0
281
     0
  0
ENDSEC
  0
SECTION
  2
TABLES
  0
TABLE
  2
VPORT
  5
8
330
0
100
AcDbSymbolTable
 70
     1
  0
VPORT
  5
29
330
8
100
AcDbSymbolTableRecord
100
AcDbViewportTableRecord
  2
*Active
 70
     0
 10
0.0
 20
0.0
 11
1.0
 21
1.0
 12
10.42990654205607
 22
4.5
 13
0.0
 23
0.0
 14
0.5
 24
0.5
 15
0.5
 25
0.5
 16
0.0
 26
0.0
 36
1.0
 17
0.0
 27
0.0
 37
0.0
 40
9.0
 41
1.972972972850329
 42
50.0
 43
0.0
 44
0.0
 50
0.0
 51
0.0
 71
     0
 72
   100
 73
     1
 74
     3
 75
     0
 76
     0
 77
     0
 78
     0
281
     0
 65
     1
110
0.0
120
0.0
130
0.0
111
1.0
121
0.0
131
0.0
112
0.0
122
1.0
132
0.0
 79
     0
146
0.0
348
2F
 60
     3
 61
     5
292
     1
282
     1
141
0.0
142
0.0
 63
   250
361
6D
  0
ENDTAB
  0
TABLE
  2
LTYPE
  5
5
330
0
100
AcDbSymbolTable
 70
     1
  0
LTYPE
  5
14
330
5
100
AcDbSymbolTableRecord
100
AcDbLinetypeTableRecord
  2
ByBlock
 70
     0
  3

 72
    65
 73
     0
 40
0.0
  0
LTYPE
  5
15
330
5
100
AcDbSymbolTableRecord
100
AcDbLinetypeTableRecord
  2
ByLayer
 70
     0
  3

 72
    65
 73
     0
 40
0.0
  0
LTYPE
  5
16
330
5
100
AcDbSymbolTableRecord
100
AcDbLinetypeTableRecord
  2
Continuous
 70
     0
  3
Solid line
 72
    65
 73
     0
 40
0.0
  0
ENDTAB
  0
TABLE
  2
LAYER
  5
2
330
0
100
AcDbSymbolTable
 70
     2
  0
LAYER
  5
10
330
2
100
AcDbSymbolTableRecord
100
AcDbLayerTableRecord
  2
0
 70
     0
 62
     7
  6
Continuous
370
    -3
390
F
347
46
  0
LAYER
  5
6E
330
2
100
AcDbSymbolTableRecord
100
AcDbLayerTableRecord
  2
Layer 01
 70
     0
 62
    18
420
        0
  6
Continuous
370
    -3
390
F
347
46
  0
ENDTAB
  0
TABLE
  2
STYLE
  5
3
330
0
100
AcDbSymbolTable
 70
     1
  0
STYLE
  5
11
330
3
100
AcDbSymbolTableRecord
100
AcDbTextStyleTableRecord
  2
Standard
 70
     0
 40
0.0
 41
1.0
 50
0.0
 71
     0
 42
0.2
  3
txt
  4

  0
ENDTAB
  0
TABLE
  2
VIEW
  5
6
330
0
100
AcDbSymbolTable
 70
     0
  0
ENDTAB
  0
TABLE
  2
UCS
  5
7
330
0
100
AcDbSymbolTable
 70
     0
  0
ENDTAB
  0
TABLE
  2
APPID
  5
9
330
0
100
AcDbSymbolTable
 70
     2
  0
APPID
  5
12
330
9
100
AcDbSymbolTableRecord
100
AcDbRegAppTableRecord
  2
ACAD
 70
     0
  0
APPID
  5
1E2
330
9
100
AcDbSymbolTableRecord
100
AcDbRegAppTableRecord
  2
ACAD_MLEADERVER
 70
     0
  0
ENDTAB
  0
TABLE
  2
DIMSTYLE
  5
A
330
0
100
AcDbSymbolTable
 70
     1
100
AcDbDimStyleTable
  0
DIMSTYLE
105
27
330
A
100
AcDbSymbolTableRecord
100
AcDbDimStyleTableRecord
  2
STANDARD_ACAD
 70
     0
178
     0
340
11
  0
ENDTAB
  0
TABLE
  2
BLOCK_RECORD
  5
1
330
0
100
AcDbSymbolTable
 70
     1
  0
BLOCK_RECORD
  5
1F
330
1
100
AcDbSymbolTableRecord
100
AcDbBlockTableRecord
  2
*Model_Space
340
22
 70
     0
280
     1
281
     0
  0
BLOCK_RECORD
  5
1B
330
1
100
AcDbSymbolTableRecord
100
AcDbBlockTableRecord
  2
*Paper_Space
340
1E
 70
     0
280
     1
281
     0
  0
BLOCK_RECORD
  5
23
330
1
100
AcDbSymbolTableRecord
100
AcDbBlockTableRecord
  2
*Paper_Space0
340
26
 70
     0
280
     1
281
     0
  0
ENDTAB
  0
ENDSEC
  0
SECTION
  2
BLOCKS
  0
BLOCK
  5
20
330
1F
100
AcDbEntity
  8
0
100
AcDbBlockBegin
  2
*Model_Space
 70
     0
 10
0.0
 20
0.0
 30
0.0
  3
*Model_Space
  1

  0
ENDBLK
  5
21
330
1F
100
AcDbEntity
  8
0
100
AcDbBlockEnd
  0
BLOCK
  5
1C
330
1B
100
AcDbEntity
 67
     1
  8
0
100
AcDbBlockBegin
  2
*Paper_Space
 70
     0
 10
0.0
 20
0.0
 30
0.0
  3
*Paper_Space
  1

  0
ENDBLK
  5
1D
330
1B
100
AcDbEntity
 67
     1
  8
0
100
AcDbBlockEnd
  0
BLOCK
  5
24
330
23
100
AcDbEntity
  8
0
100
AcDbBlockBegin
  2
*Paper_Space0
 70
     0
 10
0.0
 20
0.0
 30
0.0
  3
*Paper_Space0
  1

  0
ENDBLK
  5
25
330
23
100
AcDbEntity
  8
0
100
AcDbBlockEnd
  0
ENDSEC
  0
SECTION
  2
ENTITIES
  0
SPLINE
  5
6F
330
1F
100
AcDbEntity
  8
Layer 01
370
    -3
100
AcDbSpline
210
0.0
220
0.0
230
1.0
 70
     8
 71
     2
 72
    12
 73
     9
 74
     0
 42
0.000000001
 43
0.0000000001
 40
4.362302166224193
 40
4.362302166224193
 40
4.362302166224193
 40
5.247500000000009
 40
5.247500000000009
 40
7.557500000000012
 40
7.557500000000012
 40
8.557500000000012
 40
8.557500000000012
 40
8.628381755356322
 40
8.628381755356322
 40
8.628381755356322
 10
12.91598568871305
 20
48.05759798215939
 30
0.0
 10
13.00661980406181
 20
48.0776135960326
 30
0.0
 10
13.01611205015615
 20
48.17877107916024
 30
0.0
 10
13.01611205015632
 20
49.33377107916024
 30
0.0
 10
13.01611205015649
 20
50.48877107916024
 30
0.0
 10
13.00538874545316
 20
50.60304777445688
 30
0.0
 10
12.89111205015655
 20
50.61377107916026
 30
0.0
 10
12.8556711724784
 20
50.61377107916026
 30
0.0
 10
12.82023029480024
 20
50.61377107916027
 30
0.0
  0
SPLINE
  5
70
330
1F
100
AcDbEntity
  8
Layer 01
100
AcDbSpline
210
0.0
220
0.0
230
1.0
 70
    12
 71
     2
 72
    12
 73
     9
 74
     0
 42
0.000000001
 43
0.0000000001
 40
0.229815913977341
 40
0.229815913977341
 40
0.229815913977341
 40
0.513458434074559
 40
0.513458434074559
 40
1.448988626566746
 40
1.448988626566746
 40
2.384518819058932
 40
2.384518819058932
 40
2.434523871099794
 40
2.434523871099794
 40
2.434523871099794
 10
6.766280897117554
 20
62.58713863991627
 30
0.0
 41
1.0
 10
6.852631850181808
 20
62.69964100747656
 30
0.0
 41
1.0
 10
6.938982803246063
 20
62.81214337503685
 30
0.0
 41
1.0
 10
7.298212018069078
 20
63.28016396278701
 30
0.0
 41
0.7163497032300439
 10
7.775523229124985
 20
62.93337453512122
 30
0.0
 41
1.0
 10
8.252834440180814
 20
62.58658510745547
 30
0.0
 41
0.7163497032300439
 10
7.918724963727698
 20
62.10031382814257
 30
0.0
 41
1.0
 10
7.904566241596797
 20
62.07970662321268
 30
0.0
 41
1.0
 10
7.890407519465896
 20
62.05909941828278
 30
0.0
 41
1.0
  0
SPLINE
  5
71
330
1F
100
AcDbEntity
  8
Layer 01
370
    -3
100
AcDbSpline
210
0.0
220
0.0
230
1.0
 70
     8
 71
     2
 72
    12
 73
     9
 74
     0
 42
0.000000001
 43
0.0000000001
 40
5.515167009987381
 40
5.515167009987381
 40
5.515167009987381
 40
7.557500000000012
 40
7.557500000000012
 40
8.557500000000012
 40
8.557500000000012
 40
8.901250000000015
 40
8.901250000000015
 40
10.71705927364772
 40
10.71705927364772
 40
10.71705927364772
 10
6.659832422605859
 20
62.62310906649155
 30
0.0
 10
6.659832422605689
 20
63.64427556149788
 30
0.0
 10
6.659832422605518
 20
64.66544205650419
 30
0.0
 10
6.670555727308852
 20
64.7797187518008
 30
0.0
 10
6.784832422605461
 20
64.79044205650419
 30
0.0
 10
6.956707422605461
 20
64.79044205650422
 30
0.0
 10
7.128582422605461
 20
64.79044205650425
 30
0.0
 10
7.128582422605632
 20
63.88253741968038
 30
0.0
 10
7.128582422605746
 20
62.97463278285654
 30
0.0
  0
POLYLINE
  5
72
330
1F
100
AcDbEntity
  8
Layer 01
100
AcDb2dPolyline
 66
     1
 10
0.0
 20
0.0
 30
0.0
  0
VERTEX
  5
73
330
72
100
AcDbEntity
  8
Layer 01
100
AcDbVertex
100
AcDb2dVertex
 10
7.894207422605234
 20
62.81955422968928
 30
0.0
  0
VERTEX
  5
74
330
72
100
AcDbEntity
  8
Layer 01
100
AcDbVertex
100
AcDb2dVertex
 10
7.894207422605518
 20
64.79044205650425
 30
0.0
  0
VERTEX
  5
75
330
72
100
AcDbEntity
  8
Layer 01
100
AcDbVertex
100
AcDb2dVertex
 10
7.175457422605518
 20
64.79044205650436
 30
0.0
  0
VERTEX
  5
76
330
72
100
AcDbEntity
  8
Layer 01
100
AcDbVertex
100
AcDb2dVertex
 10
7.175457422605234
 20
62.99772849227937
 30
0.0
  0
SEQEND
  5
77
330
72
100
AcDbEntity
  8
Layer 01
  0
SPLINE
  5
78
330
1F
100
AcDbEntity
  8
Layer 01
370
    -3
100
AcDbSpline
210
0.0
220
0.0
230
1.0
 70
     8
 71
     2
 72
    16
 73
    13
 74
     0
 42
0.000000001
 43
0.0000000001
 40
3.949233139557482
 40
3.949233139557482
 40
3.949233139557482
 40
4.247500000000009
 40
4.247500000000009
 40
5.247500000000009
 40
5.247500000000009
 40
7.557500000000012
 40
7.557500000000012
 40
8.557500000000012
 40
8.557500000000012
 40
8.901250000000015
 40
8.901250000000015
 40
10.94039829290933
 40
10.94039829290933
 40
10.94039829290933
 10
7.986565562162696
 20
62.23044205650422
 30
0.0
 10
8.135698992383936
 20
62.2304420565042
 30
0.0
 10
8.284832422605177
 20
62.23044205650418
 30
0.0
 10
8.399109117901844
 20
62.24116536120754
 30
0.0
 10
8.409832422605234
 20
62.35544205650418
 30
0.0
 10
8.409832422605405
 20
63.51044205650418
 30
0.0
 10
8.409832422605575
 20
64.66544205650419
 30
0.0
 10
8.399109117902242
 20
64.7797187518008
 30
0.0
 10
8.284832422605575
 20
64.79044205650419
 30
0.0
 10
8.112957422605575
 20
64.79044205650422
 30
0.0
 10
7.941082422605575
 20
64.79044205650425
 30
0.0
 10
7.941082422605461
 20
63.77086791004958
 30
0.0
 10
7.941082422605291
 20
62.75129376359492
 30
0.0
  0
SPLINE
  5
79
330
1F
100
AcDbEntity
  8
Layer 01
100
AcDbSpline
210
0.0
220
0.0
230
1.0
 70
    12
 71
     2
 72
     8
 73
     5
 74
     0
 42
0.000000001
 43
0.0000000001
 40
0.5169779812532017
 40
0.5169779812532017
 40
0.5169779812532017
 40
1.448988626566746
 40
1.448988626566746
 40
2.380994627411024
 40
2.380994627411024
 40
2.380994627411024
 10
-0.5237072876443944
 20
39.79014595890928
 30
0.0
 41
0.9978737942624241
 10
-0.5051786144360932
 20
39.20354179300305
 30
0.0
 41
0.717416820688924
 10
0.0817181049151259
 20
39.2035438320925
 30
0.0
 41
1.0
 10
0.6686107476063822
 20
39.2035458711678
 30
0.0
 41
0.7174182288798043
 10
0.6871392885770652
 20
39.79014596255777
 30
0.0
 41
0.997870999085599
  0
SPLINE
  5
7A
330
1F
100
AcDbEntity
  8
Layer 01
370
    -3
100
AcDbSpline
210
0.0
220
0.0
230
1.0
 70
     8
 71
     2
 72
    12
 73
     9
 74
     0
 42
0.000000001
 43
0.0000000001
 40
3.835880266176895
 40
3.835880266176895
 40
3.835880266176895
 40
3.903750000000006
 40
3.903750000000006
 40
4.247500000000009
 40
4.247500000000009
 40
5.247500000000009
 40
5.247500000000009
 40
5.62436931616539
 40
5.62436931616539
 40
5.62436931616539
 10
0.4879660081138582
 20
39.35997630165741
 30
0.0
 10
0.4879660081138013
 20
39.32604143474585
 30
0.0
 10
0.4879660081138013
 20
39.2921065678343
 30
0.0
 10
0.6598410081138013
 20
39.29210656783427
 30
0.0
 10
0.8317160081138013
 20
39.29210656783424
 30
0.0
 10
0.945992703410468
 20
39.30282987253759
 30
0.0
 10
0.9567160081138582
 20
39.41710656783423
 30
0.0
 10
0.9567160081138866
 20
39.60554122591692
 30
0.0
 10
0.956716008113915
 20
39.79397588399961
 30
0.0
  0
SPLINE
  5
7B
330
1F
100
AcDbEntity
  8
Layer 01
370
    -3
100
AcDbSpline
210
0.0
220
0.0
230
1.0
 70
     8
 71
     2
 72
    12
 73
     9
 74
     0
 42
0.000000001
 43
0.0000000001
 40
3.835880280111466
 40
3.835880280111466
 40
3.835880280111466
 40
3.903750000000006
 40
3.903750000000006
 40
4.247500000000009
 40
4.247500000000009
 40
5.247500000000009
 40
5.247500000000009
 40
5.624369310852406
 40
5.624369310852406
 40
5.624369310852406
 10
-0.3245339918855166
 20
39.35997628772284
 30
0.0
 10
-0.3245339918855166
 20
39.32604142777857
 30
0.0
 10
-0.3245339918855166
 20
39.2921065678343
 30
0.0
 10
-0.4964089918855166
 20
39.29210656783427
 30
0.0
 10
-0.6682839918855166
 20
39.29210656783424
 30
0.0
 10
-0.7825606871821265
 20
39.30282987253759
 30
0.0
 10
-0.7932839918855166
 20
39.41710656783423
 30
0.0
 10
-0.793283991885545
 20
39.60554122326043
 30
0.0
 10
-0.7932839918855734
 20
39.79397587868663
 30
0.0
  0
SPLINE
  5
7C
330
1F
100
AcDbEntity
  8
Layer 01
370
    -3
100
AcDbSpline
210
0.0
220
0.0
230
1.0
 70
     8
 71
     2
 72
    12
 73
     9
 74
     0
 42
0.000000001
 43
0.0000000001
 40
4.362302166224193
 40
4.362302166224193
 40
4.362302166224193
 40
5.247500000000009
 40
5.247500000000009
 40
7.557500000000012
 40
7.557500000000012
 40
8.557500000000012
 40
8.557500000000012
 40
8.628381755356322
 40
8.628381755356322
 40
8.628381755356322
 10
-12.75255425706203
 20
48.05759798215939
 30
0.0
 10
-12.84318837241078
 20
48.0776135960326
 30
0.0
 10
-12.85268061850513
 20
48.17877107916024
 30
0.0
 10
-12.8526806185053
 20
49.33377107916024
 30
0.0
 10
-12.85268061850547
 20
50.48877107916024
 30
0.0
 10
-12.84195731380214
 20
50.60304777445688
 30
0.0
 10
-12.72768061850553
 20
50.61377107916026
 30
0.0
 10
-12.69223974082738
 20
50.61377107916026
 30
0.0
 10
-12.65679886314922
 20
50.61377107916027
 30
0.0
  0
SPLINE
  5
7D
330
1F
100
AcDbEntity
  8
Layer 01
100
AcDbSpline
210
0.0
220
0.0
230
1.0
 70
    12
 71
     2
 72
    12
 73
     9
 74
     0
 42
0.000000001
 43
0.0000000001
 40
0.229815913977341
 40
0.229815913977341
 40
0.229815913977341
 40
0.513458434074559
 40
0.513458434074559
 40
1.448988626566746
 40
1.448988626566746
 40
2.384518819058932
 40
2.384518819058932
 40
2.434523871099794
 40
2.434523871099794
 40
2.434523871099794
 10
-6.602849465466534
 20
62.58713863991627
 30
0.0
 41
1.0
 10
-6.689200418530788
 20
62.69964100747656
 30
0.0
 41
1.0
 10
-6.775551371595043
 20
62.81214337503685
 30
0.0
 41
1.0
 10
-7.134780586418062
 20
63.28016396278701
 30
0.0
 41
0.7163497032300439
 10
-7.612091797473965
 20
62.93337453512122
 30
0.0
 41
1.0
 10
-8.0894030085298
 20
62.58658510745547
 30
0.0
 41
0.7163497032300439
 10
-7.755293532076678
 20
62.10031382814257
 30
0.0
 41
1.0
 10
-7.741134809945777
 20
62.07970662321268
 30
0.0
 41
1.0
 10
-7.726976087814876
 20
62.05909941828278
 30
0.0
 41
1.0
  0
SPLINE
  5
7E
330
1F
100
AcDbEntity
  8
Layer 01
370
    -3
100
AcDbSpline
210
0.0
220
0.0
230
1.0
 70
     8
 71
     2
 72
    12
 73
     9
 74
     0
 42
0.000000001
 43
0.0000000001
 40
5.515167009987381
 40
5.515167009987381
 40
5.515167009987381
 40
7.557500000000012
 40
7.557500000000012
 40
8.557500000000012
 40
8.557500000000012
 40
8.901250000000015
 40
8.901250000000015
 40
10.71705927364772
 40
10.71705927364772
 40
10.71705927364772
 10
-6.496400990954839
 20
62.62310906649155
 30
0.0
 10
-6.496400990954669
 20
63.64427556149788
 30
0.0
 10
-6.496400990954498
 20
64.66544205650419
 30
0.0
 10
-6.507124295657832
 20
64.7797187518008
 30
0.0
 10
-6.621400990954442
 20
64.79044205650419
 30
0.0
 10
-6.793275990954442
 20
64.79044205650422
 30
0.0
 10
-6.965150990954442
 20
64.79044205650425
 30
0.0
 10
-6.965150990954612
 20
63.88253741968038
 30
0.0
 10
-6.965150990954726
 20
62.97463278285654
 30
0.0
  0
SPLINE
  5
7F
330
1F
100
AcDbEntity
  8
Layer 01
370
    -3
100
AcDbSpline
210
0.0
220
0.0
230
1.0
 70
    11
 71
     3
 72
    71
 73
    67
 74
     0
 42
0.000000001
 43
0.0000000001
 40
-18.0
 40
-18.0
 40
-18.0
 40
-18.0
 40
-17.0
 40
-16.0
 40
-15.0
 40
-15.0
 40
-15.0
 40
-13.99999990517161
 40
-12.99999981034322
 40
-12.0
 40
-12.0
 40
-12.0
 40
-11.0
 40
-10.0
 40
-10.0
 40
-10.0
 40
-9.0
 40
-8.0
 40
-7.0
 40
-6.0
 40
-6.0
 40
-6.0
 40
-5.0
 40
-4.0
 40
-3.0
 40
-2.0
 40
-1.0
 40
0.0
 40
0.0
 40
0.0
 40
1.0
 40
2.0
 40
3.0
 40
3.0
 40
3.0
 40
4.0
 40
5.0
 40
6.0
 40
6.0
 40
6.0
 40
7.0
 40
8.0
 40
9.0
 40
10.0
 40
11.0
 40
12.0
 40
12.0
 40
12.0
 40
13.0
 40
14.0
 40
15.0
 40
16.0
 40
16.0
 40
16.0
 40
17.0
 40
18.0
 40
18.0
 40
18.0
 40
18.99999981034322
 40
19.99999990517161
 40
21.0
 40
21.0
 40
21.0
 40
22.0
 40
23.0
 40
24.0
 40
24.0
 40
24.0
 40
24.0
 10
0.081715847091715
 20
57.65720373720268
 30
0.0
 10
-0.6198379850152094
 20
57.65751114862153
 30
0.0
 10
-2.023365129135499
 20
57.63206304557323
 30
0.0
 10
-4.121550943831778
 20
57.44052001123303
 30
0.0
 10
-5.498843262238438
 20
57.15581313950104
 30
0.0
 10
-6.170380718019658
 20
56.95154375832306
 30
0.0
 10
-6.382500156588094
 20
56.88583709359438
 30
0.0
 10
-6.796237953694913
 20
56.72340131799672
 30
0.0
 10
-7.418652838757339
 20
56.4896712961247
 30
0.0
 10
-7.866051239556583
 20
56.41819257214463
 30
0.0
 10
-8.084381341410221
 20
56.47389320616828
 30
0.0
 10
-8.366730190416035
 20
56.55026443193911
 30
0.0
 10
-8.932743875581934
 20
56.69818519387324
 30
0.0
 10
-9.50212946579893
 20
56.83267353766959
 30
0.0
 10
-9.787780942660106
 20
56.89547732494398
 30
0.0
 10
-9.992001896321455
 20
56.94037766808821
 30
0.0
 10
-10.23159847082255
 20
57.29714455822877
 30
0.0
 10
-10.30152291667844
 20
57.89286073048866
 30
0.0
 10
-10.20333289967019
 20
58.48565523397205
 30
0.0
 10
-10.07711410632862
 20
58.86256350895734
 30
0.0
 10
-9.998685672648264
 20
59.04521070300611
 30
0.0
 10
-9.868729008466829
 20
59.34785884918011
 30
0.0
 10
-9.553218708850125
 20
59.92798149166279
 30
0.0
 10
-8.989966932941854
 20
60.73849092327287
 30
0.0
 10
-8.421829690671728
 20
61.55183379057968
 30
0.0
 10
-7.632308885484406
 20
62.16531972011468
 30
0.0
 10
-6.725880350146042
 20
62.56732450096214
 30
0.0
 10
-6.092312359808432
 20
62.75029806612871
 30
0.0
 10
-5.773290180162292
 20
62.83137290346902
 30
0.0
 10
-5.136970767232526
 20
62.99308420817199
 30
0.0
 10
-3.843679532018371
 20
63.22496337487577
 30
0.0
 10
-1.886464828060866
 20
63.44540152411388
 30
0.0
 10
-0.5746803767736992
 20
63.51238939725437
 30
0.0
 10
0.081715847091715
 20
63.51331043219642
 30
0.0
 10
0.7381120709571292
 20
63.51238939725437
 30
0.0
 10
2.049896522244296
 20
63.44540152411388
 30
0.0
 10
4.0071112262018
 20
63.22496337487577
 30
0.0
 10
5.300402461415956
 20
62.99308420817199
 30
0.0
 10
5.936721874345722
 20
62.83137290346902
 30
0.0
 10
6.255744053991862
 20
62.75029806612871
 30
0.0
 10
6.889312044329472
 20
62.56732450096214
 30
0.0
 10
7.795740579667836
 20
62.16531972011468
 30
0.0
 10
8.585261384855158
 20
61.55183379057968
 30
0.0
 10
9.153398627125284
 20
60.73849092327287
 30
0.0
 10
9.716650403033555
 20
59.92798149166279
 30
0.0
 10
10.03216070265023
 20
59.34785884918011
 30
0.0
 10
10.16211736683169
 20
59.04521070300611
 30
0.0
 10
10.24054580051205
 20
58.86256350895734
 30
0.0
 10
10.36676459385362
 20
58.48565523397205
 30
0.0
 10
10.46495461086187
 20
57.89286073048866
 30
0.0
 10
10.39503016500598
 20
57.29714455822877
 30
0.0
 10
10.15543359050488
 20
56.94037766808821
 30
0.0
 10
9.951212636843536
 20
56.89547732494398
 30
0.0
 10
9.66556115998236
 20
56.83267353766959
 30
0.0
 10
9.096175569765364
 20
56.69818519387324
 30
0.0
 10
8.530161884599465
 20
56.55026443193911
 30
0.0
 10
8.247813035593651
 20
56.47389320616828
 30
0.0
 10
8.029482933740013
 20
56.41819257214463
 30
0.0
 10
7.582084532940769
 20
56.4896712961247
 30
0.0
 10
6.959669647878343
 20
56.72340131799672
 30
0.0
 10
6.545931850771524
 20
56.88583709359438
 30
0.0
 10
6.333812412203088
 20
56.95154375832306
 30
0.0
 10
5.662274956421868
 20
57.15581313950104
 30
0.0
 10
4.284982638015208
 20
57.44052001123303
 30
0.0
 10
2.186796823318929
 20
57.63206304557323
 30
0.0
 10
0.7832696791986393
 20
57.65751114862153
 30
0.0
 10
0.081715847091715
 20
57.65720373720268
 30
0.0
  0
SPLINE
  5
80
330
1F
100
AcDbEntity
  8
Layer 01
370
    -3
100
AcDbSpline
210
0.0
220
0.0
230
1.0
 70
     8
 71
     3
 72
    33
 73
    29
 74
     0
 42
0.000000001
 43
0.0000000001
 40
-8.0
 40
-8.0
 40
-8.0
 40
-8.0
 40
-7.0
 40
-6.0
 40
-6.0
 40
-6.0
 40
-5.0
 40
-4.0
 40
-3.0
 40
-2.0
 40
-2.0
 40
-2.0
 40
-1.0
 40
0.0
 40
0.0
 40
0.0
 40
1.0
 40
2.0
 40
2.0
 40
2.0
 40
3.0
 40
4.0
 40
5.0
 40
6.0
 40
6.0
 40
6.0
 40
7.0
 40
8.0
 40
8.0
 40
8.0
 40
8.0
 10
8.144144521381406
 20
56.45615265108182
 30
0.0
 10
8.511822056645087
 20
54.65536198832393
 30
0.0
 10
9.165774627543897
 20
51.03795746355221
 30
0.0
 10
9.786228820941119
 20
47.41491190080954
 30
0.0
 10
10.07634713285773
 20
45.60002317752633
 30
0.0
 10
10.16732329910315
 20
45.03090495428998
 30
0.0
 10
10.27407200662753
 20
43.88369668236919
 30
0.0
 10
9.99564309329
 20
42.13901454997261
 30
0.0
 10
8.853364735147494
 20
40.75130207956265
 30
0.0
 10
7.722543404883879
 20
40.37733287472085
 30
0.0
 10
7.161026187419168
 20
40.26969130050149
 30
0.0
 10
5.997470537345805
 20
40.04664032722728
 30
0.0
 10
3.631586945842258
 20
39.86757312782776
 30
0.0
 10
1.265728581356939
 20
39.78744687160743
 30
0.0
 10
0.081715847091715
 20
39.78618965112054
 30
0.0
 10
-1.102296887173509
 20
39.78744687160743
 30
0.0
 10
-3.468155251658828
 20
39.86757312782776
 30
0.0
 10
-5.834038843162375
 20
40.04664032722728
 30
0.0
 10
-6.997594493235738
 20
40.26969130050149
 30
0.0
 10
-7.559111710700449
 20
40.37733287472085
 30
0.0
 10
-8.689933040964064
 20
40.75130207956265
 30
0.0
 10
-9.83221139910657
 20
42.13901454997261
 30
0.0
 10
-10.1106403124441
 20
43.88369668236919
 30
0.0
 10
-10.00389160491972
 20
45.03090495428998
 30
0.0
 10
-9.912915438674304
 20
45.60002317752633
 30
0.0
 10
-9.622797126757689
 20
47.41491190080954
 30
0.0
 10
-9.002342933360495
 20
51.03795746355221
 30
0.0
 10
-8.348390362461657
 20
54.65536198832393
 30
0.0
 10
-7.980712827197976
 20
56.45615265108182
 30
0.0
  0
SPLINE
  5
81
330
1F
100
AcDbEntity
  8
Layer 01
370
    -3
100
AcDbSpline
210
0.0
220
0.0
230
1.0
 70
     8
 71
     3
 72
    27
 73
    23
 74
     0
 42
0.000000001
 43
0.0000000001
 40
-3.0
 40
-3.0
 40
-3.0
 40
-3.0
 40
-2.0
 40
-1.0
 40
0.0
 40
0.0
 40
0.0
 40
1.0
 40
2.0
 40
3.0
 40
3.0
 40
3.0
 40
4.0
 40
5.0
 40
6.0
 40
6.0
 40
6.0
 40
7.0
 40
8.0
 40
8.0
 40
8.0
 40
9.0
 40
9.0
 40
9.0
 40
9.0
 10
10.2631959933629
 20
58.78268817534519
 30
0.0
 10
10.40720561315999
 20
58.63093240196152
 30
0.0
 10
10.65998020624298
 20
58.29485845834944
 30
0.0
 10
10.93693047908877
 20
57.72963306711061
 30
0.0
 10
11.07402541741305
 20
57.33405485046257
 30
0.0
 10
11.14210533443173
 20
57.13635809580126
 30
0.0
 10
11.4387817074886
 20
56.27484182629787
 30
0.0
 10
11.94431180259488
 20
54.52272429437942
 30
0.0
 10
12.50763723248079
 20
51.84638907672121
 30
0.0
 10
12.72035533595175
 20
50.03342310033698
 30
0.0
 10
12.74342670913171
 20
49.12216331788905
 30
0.0
 10
12.75383400814039
 20
48.71110182811429
 30
0.0
 10
12.72774673645708
 20
47.88157538641741
 30
0.0
 10
12.46426189527074
 20
46.67980628346562
 30
0.0
 10
12.17736855192749
 20
45.83729760002275
 30
0.0
 10
11.80371584709172
 20
45.64304833707951
 30
0.0
 10
11.5507932114559
 20
45.51156250834578
 30
0.0
 10
11.03304531975073
 20
45.27251260180653
 30
0.0
 10
10.52812484079087
 20
45.00753093393972
 30
0.0
 10
10.27071584709171
 20
44.88504609610538
 30
0.0
 10
10.23908583688947
 20
44.87037918953312
 30
0.0
 10
10.20528522752804
 20
44.86125833826748
 30
0.0
 10
10.17161287273734
 20
44.85263862494106
 30
0.0
  0
SPLINE
  5
82
330
1F
100
AcDbEntity
  8
Layer 01
370
    -3
100
AcDbSpline
210
0.0
220
0.0
230
1.0
 70
     8
 71
     3
 72
    27
 73
    23
 74
     0
 42
0.000000001
 43
0.0000000001
 40
0.0
 40
0.0
 40
0.0
 40
0.0
 40
1.0
 40
2.0
 40
3.0
 40
3.0
 40
3.0
 40
4.0
 40
5.0
 40
6.0
 40
6.0
 40
6.0
 40
7.0
 40
8.0
 40
9.0
 40
9.0
 40
9.0
 40
10.0
 40
11.0
 40
11.0
 40
11.0
 40
12.0
 40
12.0
 40
12.0
 40
12.0
 10
9.994455752583406
 20
59.39986125869461
 30
0.0
 10
10.23308242985544
 20
59.23178671532438
 30
0.0
 10
10.65445210431636
 20
58.81887424521057
 30
0.0
 10
11.09735259334218
 20
58.05680850449584
 30
0.0
 10
11.28367900071922
 20
57.50193751620961
 30
0.0
 10
11.37447902568169
 20
57.22492896358206
 30
0.0
 10
11.65998105682434
 20
56.35393245833096
 30
0.0
 10
12.14057729952265
 20
54.58372841469203
 30
0.0
 10
12.68200138887619
 20
51.88678931735592
 30
0.0
 10
12.89977978396004
 20
50.06396455926431
 30
0.0
 10
12.92706439836172
 20
49.14742945124128
 30
0.0
 10
12.93935484687188
 20
48.73457305579921
 30
0.0
 10
12.93824792376947
 20
47.90173976813855
 30
0.0
 10
12.73766181686193
 20
46.68329695459219
 30
0.0
 10
12.48283290608157
 20
45.81026056111163
 30
0.0
 10
12.10355705491173
 20
45.62335058872076
 30
0.0
 10
11.8519308798966
 20
45.49934733019576
 30
0.0
 10
11.33557228011529
 20
45.27960402642006
 30
0.0
 10
10.82959787257562
 20
45.03714927352731
 30
0.0
 10
10.5723169810617
 20
44.92536904315128
 30
0.0
 10
10.44473870427959
 20
44.87377152383087
 30
0.0
 10
10.30822720496826
 20
44.85046202405196
 30
0.0
 10
10.17392508436279
 20
44.82320730050187
 30
0.0
  0
SPLINE
  5
83
330
1F
100
AcDbEntity
  8
Layer 01
370
    -3
100
AcDbSpline
210
0.0
220
0.0
230
1.0
 70
    12
 71
     2
 72
     6
 73
     3
 74
     0
 42
0.000000001
 43
0.0000000001
 40
0.2333152223443822
 40
0.2333152223443822
 40
0.2333152223443822
 40
0.3157762042634161
 40
0.3157762042634161
 40
0.3157762042634161
 10
0.0817154835899588
 20
57.64583283453771
 30
0.0
 41
0.9427839977480739
 10
0.0817156058376362
 20
57.6458330744623
 30
0.0
 41
0.9612810260884477
 10
0.081715847091715
 20
57.65720373720269
 30
0.0
 41
1.0
  0
SPLINE
  5
84
330
1F
100
AcDbEntity
  8
Layer 01
370
    -3
100
AcDbSpline
210
0.0
220
0.0
230
1.0
 70
     8
 71
     3
 72
    27
 73
    23
 74
     0
 42
0.000000001
 43
0.0000000001
 40
-3.0
 40
-3.0
 40
-3.0
 40
-3.0
 40
-2.0
 40
-1.0
 40
0.0
 40
0.0
 40
0.0
 40
1.0
 40
2.0
 40
3.0
 40
3.0
 40
3.0
 40
4.0
 40
5.0
 40
6.0
 40
6.0
 40
6.0
 40
7.0
 40
8.0
 40
8.0
 40
8.0
 40
9.0
 40
9.0
 40
9.0
 40
9.0
 10
-10.09976429917947
 20
58.78268817534519
 30
0.0
 10
-10.24377391897656
 20
58.63093240196152
 30
0.0
 10
-10.49654851205955
 20
58.29485845834944
 30
0.0
 10
-10.77349878490534
 20
57.72963306711061
 30
0.0
 10
-10.91059372322962
 20
57.33405485046257
 30
0.0
 10
-10.9786736402483
 20
57.13635809580126
 30
0.0
 10
-11.27535001330517
 20
56.27484182629787
 30
0.0
 10
-11.78088010841148
 20
54.52272429437942
 30
0.0
 10
-12.34420553829736
 20
51.84638907672121
 30
0.0
 10
-12.55692364176835
 20
50.03342310033698
 30
0.0
 10
-12.5799950149483
 20
49.12216331788905
 30
0.0
 10
-12.59040231395696
 20
48.71110182811429
 30
0.0
 10
-12.56431504227365
 20
47.88157538641741
 30
0.0
 10
-12.30083020108728
 20
46.67980628346562
 30
0.0
 10
-12.01393685774406
 20
45.83729760002275
 30
0.0
 10
-11.64028415290829
 20
45.64304833707951
 30
0.0
 10
-11.38736151727247
 20
45.51156250834578
 30
0.0
 10
-10.8696136255673
 20
45.27251260180653
 30
0.0
 10
-10.36469314660744
 20
45.00753093393972
 30
0.0
 10
-10.10728415290828
 20
44.88504609610538
 30
0.0
 10
-10.07565414270604
 20
44.87037918953312
 30
0.0
 10
-10.04185353334461
 20
44.86125833826748
 30
0.0
 10
-10.00818117855391
 20
44.85263862494106
 30
0.0
  0
SPLINE
  5
85
330
1F
100
AcDbEntity
  8
Layer 01
370
    -3
100
AcDbSpline
210
0.0
220
0.0
230
1.0
 70
     8
 71
     3
 72
    27
 73
    23
 74
     0
 42
0.000000001
 43
0.0000000001
 40
0.0
 40
0.0
 40
0.0
 40
0.0
 40
1.0
 40
2.0
 40
3.0
 40
3.0
 40
3.0
 40
4.0
 40
5.0
 40
6.0
 40
6.0
 40
6.0
 40
7.0
 40
8.0
 40
9.0
 40
9.0
 40
9.0
 40
10.0
 40
11.0
 40
11.0
 40
11.0
 40
12.0
 40
12.0
 40
12.0
 40
12.0
 10
-9.831024058399976
 20
59.39986125869461
 30
0.0
 10
-10.06965073567201
 20
59.23178671532438
 30
0.0
 10
-10.49102041013293
 20
58.81887424521057
 30
0.0
 10
-10.93392089915875
 20
58.05680850449584
 30
0.0
 10
-11.12024730653579
 20
57.50193751620961
 30
0.0
 10
-11.21104733149826
 20
57.22492896358206
 30
0.0
 10
-11.49654936264091
 20
56.35393245833096
 30
0.0
 10
-11.97714560533922
 20
54.58372841469203
 30
0.0
 10
-12.51856969469277
 20
51.88678931735592
 30
0.0
 10
-12.73634808977661
 20
50.06396455926431
 30
0.0
 10
-12.76363270417831
 20
49.14742945124128
 30
0.0
 10
-12.77592315268846
 20
48.73457305579921
 30
0.0
 10
-12.77481622958604
 20
47.90173976813855
 30
0.0
 10
-12.5742301226785
 20
46.68329695459219
 30
0.0
 10
-12.31940121189814
 20
45.81026056111163
 30
0.0
 10
-11.9401253607283
 20
45.62335058872076
 30
0.0
 10
-11.68849918571317
 20
45.49934733019576
 30
0.0
 10
-11.17214058593188
 20
45.27960402642006
 30
0.0
 10
-10.66616617839219
 20
45.03714927352731
 30
0.0
 10
-10.40888528687827
 20
44.92536904315128
 30
0.0
 10
-10.28130701009616
 20
44.87377152383087
 30
0.0
 10
-10.14479551078483
 20
44.85046202405196
 30
0.0
 10
-10.01049339017936
 20
44.82320730050187
 30
0.0
  0
SPLINE
  5
86
330
1F
100
AcDbEntity
  8
Layer 01
370
    -3
100
AcDbSpline
210
0.0
220
0.0
230
1.0
 70
    12
 71
     2
 72
     6
 73
     3
 74
     0
 42
0.000000001
 43
0.0000000001
 40
0.2333152223443822
 40
0.2333152223443822
 40
0.2333152223443822
 40
0.3157762042634161
 40
0.3157762042634161
 40
0.3157762042634161
 10
0.0817162105934804
 20
57.64583283453771
 30
0.0
 41
0.9427839977480739
 10
0.0817160883457836
 20
57.6458330744623
 30
0.0
 41
0.9612810260884477
 10
0.081715847091715
 20
57.65720373720269
 30
0.0
 41
1.0
  0
POLYLINE
  5
87
330
1F
100
AcDbEntity
  8
Layer 01
100
AcDb2dPolyline
 66
     1
 10
0.0
 20
0.0
 30
0.0
  0
VERTEX
  5
88
330
87
100
AcDbEntity
  8
Layer 01
100
AcDbVertex
100
AcDb2dVertex
 10
-7.730775990954214
 20
62.81955422968928
 30
0.0
  0
VERTEX
  5
89
330
87
100
AcDbEntity
  8
Layer 01
100
AcDbVertex
100
AcDb2dVertex
 10
-7.730775990954498
 20
64.79044205650425
 30
0.0
  0
VERTEX
  5
8A
330
87
100
AcDbEntity
  8
Layer 01
100
AcDbVertex
100
AcDb2dVertex
 10
-7.012025990954498
 20
64.79044205650436
 30
0.0
  0
VERTEX
  5
8B
330
87
100
AcDbEntity
  8
Layer 01
100
AcDbVertex
100
AcDb2dVertex
 10
-7.012025990954214
 20
62.99772849227937
 30
0.0
  0
SEQEND
  5
8C
330
87
100
AcDbEntity
  8
Layer 01
  0
SPLINE
  5
8D
330
1F
100
AcDbEntity
  8
Layer 01
370
    -3
100
AcDbSpline
210
0.0
220
0.0
230
1.0
 70
     8
 71
     2
 72
    16
 73
    13
 74
     0
 42
0.000000001
 43
0.0000000001
 40
3.949233139557482
 40
3.949233139557482
 40
3.949233139557482
 40
4.247500000000009
 40
4.247500000000009
 40
5.247500000000009
 40
5.247500000000009
 40
7.557500000000012
 40
7.557500000000012
 40
8.557500000000012
 40
8.557500000000012
 40
8.901250000000015
 40
8.901250000000015
 40
10.94039829290933
 40
10.94039829290933
 40
10.94039829290933
 10
-7.823134130511676
 20
62.23044205650422
 30
0.0
 10
-7.972267560732917
 20
62.2304420565042
 30
0.0
 10
-8.121400990954157
 20
62.23044205650418
 30
0.0
 10
-8.235677686250824
 20
62.24116536120754
 30
0.0
 10
-8.246400990954214
 20
62.35544205650418
 30
0.0
 10
-8.246400990954385
 20
63.51044205650418
 30
0.0
 10
-8.246400990954555
 20
64.66544205650419
 30
0.0
 10
-8.235677686251222
 20
64.7797187518008
 30
0.0
 10
-8.121400990954555
 20
64.79044205650419
 30
0.0
 10
-7.949525990954555
 20
64.79044205650422
 30
0.0
 10
-7.777650990954555
 20
64.79044205650425
 30
0.0
 10
-7.777650990954442
 20
63.77086791004958
 30
0.0
 10
-7.777650990954271
 20
62.75129376359492
 30
0.0
  0
SPLINE
  5
8E
330
1F
100
AcDbEntity
  8
Layer 01
100
AcDbSpline
210
0.0
220
0.0
230
1.0
 70
    12
 71
     2
 72
    22
 73
    19
 74
     0
 42
0.000000001
 43
0.0000000001
 40
-6.388581636377922
 40
-6.388581636377922
 40
-6.388581636377922
 40
-0.6134552906118463
 40
-0.6134552906118463
 40
-0.5552468102712178
 40
-0.5552468102712178
 40
-0.1591898675712409
 40
-0.1591898675712409
 40
0.0663715517922674
 40
0.0663715517922674
 40
0.2919329711557756
 40
0.2919329711557756
 40
0.6874614076735563
 40
0.6874614076735563
 40
0.7389396661920168
 40
0.7389396661920168
 40
1.345121365997126
 40
1.345121365997126
 40
6.601242940749453
 40
6.601242940749453
 40
6.601242940749453
 10
35.17645546549278
 20
10.3742210014161
 30
0.0
 41
1.0
 10
35.2396282091288
 20
10.63314540303053
 30
0.0
 41
1.0
 10
35.30280095276481
 20
10.89206980464495
 30
0.0
 41
1.0
 10
35.30954684884292
 20
10.92051733998093
 30
0.0
 41
0.9932311955651482
 10
35.30954684884293
 20
10.94975377924067
 30
0.0
 41
1.0
 10
35.30954684884294
 20
11.14778225059069
 30
0.0
 41
1.0
 10
35.30954684884296
 20
11.34581072194071
 30
0.0
 41
1.0
 10
35.34527990274582
 20
11.47264004403357
 30
0.0
 41
0.7972401598474562
 10
35.47704684884295
 20
11.47264004403358
 30
0.0
 41
1.0
 10
35.60881379494006
 20
11.47264004403357
 30
0.0
 41
0.7972401598474562
 10
35.64454684884294
 20
11.34581072194071
 30
0.0
 41
1.0
 10
35.64454684884294
 20
11.14804650368182
 30
0.0
 41
1.0
 10
35.64454684884294
 20
10.95028228542293
 30
0.0
 41
1.0
 10
35.64454684884294
 20
10.92445182358808
 30
0.0
 41
0.9947046578518036
 10
35.64982817066689
 20
10.89916703768047
 30
0.0
 41
1.0
 10
35.65581458706488
 20
10.8705065503968
 30
0.0
 41
1.0
 10
35.66180100346287
 20
10.84184606311313
 30
0.0
 41
1.0
 10
35.70042139727177
 20
10.61022153909685
 30
0.0
 41
0.9971031077474172
 10
35.77372839076219
 20
10.38713514406319
 30
0.0
 41
1.0
  0
SPLINE
  5
8F
330
1F
100
AcDbEntity
  8
Layer 01
370
    -3
100
AcDbSpline
210
0.0
220
0.0
230
1.0
 70
    12
 71
     3
 72
    23
 73
    19
 74
     0
 42
0.000000001
 43
0.0000000001
 40
5.785465826507016
 40
5.785465826507016
 40
5.785465826507016
 40
5.785465826507016
 40
6.805175635643224
 40
6.805175635643224
 40
6.805175635643224
 40
7.805175635643224
 40
7.805175635643224
 40
7.805175635643224
 40
8.516647408257924
 40
8.516647408257924
 40
8.516647408257924
 40
9.516647408257924
 40
9.516647408257924
 40
9.516647408257924
 40
11.7248291125332
 40
11.7248291125332
 40
11.7248291125332
 40
12.72908169902228
 40
12.72908169902228
 40
12.72908169902228
 40
12.72908169902228
 10
35.66180100346281
 20
10.84184606311313
 30
0.0
 41
0.9201034053163346
 10
36.02876347389305
 20
10.84184606311312
 30
0.0
 41
0.8099220934737946
 10
36.25248795544223
 20
10.84184606311313
 30
0.0
 41
0.8365542917016829
 10
36.25259308082298
 20
10.84184606311313
 30
0.0
 41
1.0
 10
36.2836786618297
 20
10.84184606311302
 30
0.0
 41
1.0
 10
36.31538835981689
 20
10.85835307271023
 30
0.0
 41
1.0
 10
36.33321831405547
 20
10.88381688630693
 30
0.0
 41
1.0
 10
36.46924612872284
 20
11.0780847386136
 30
0.0
 41
1.0
 10
36.60527394339021
 20
11.27235259092026
 30
0.0
 41
1.0
 10
36.74130175805757
 20
11.46662044322692
 30
0.0
 41
1.0
 10
36.77713492576487
 20
11.51779551024439
 30
0.0
 41
1.0
 10
36.84578278137812
 20
11.56153821000095
 30
0.0
 41
1.0
 10
36.90730491656532
 20
11.57240365129238
 30
0.0
 41
1.0
 10
37.63214580852122
 20
11.70041800146435
 30
0.0
 41
1.0
 10
38.35698670047714
 20
11.82843235163632
 30
0.0
 41
1.0
 10
39.08179086931648
 20
11.95665463487675
 30
0.0
 41
1.0
 10
39.14313010385794
 20
11.96692374277192
 30
0.0
 41
1.0
 10
39.19562155601139
 20
12.01629828848165
 30
0.0
 41
1.0
 10
39.20815382204844
 20
12.07733714114056
 30
0.0
 41
1.0
  0
SPLINE
  5
90
330
1F
100
AcDbEntity
  8
Layer 01
370
    -3
100
AcDbSpline
210
0.0
220
0.0
230
1.0
 70
    12
 71
     3
 72
    23
 73
    19
 74
     0
 42
0.000000001
 43
0.0000000001
 40
0.0265362779790751
 40
0.0265362779790751
 40
0.0265362779790751
 40
0.0265362779790751
 40
1.0
 40
1.0
 40
1.0
 40
1.988466736571221
 40
1.988466736571221
 40
1.988466736571221
 40
2.988466736571221
 40
2.988466736571221
 40
2.988466736571221
 40
3.368761396622346
 40
3.368761396622346
 40
3.368761396622346
 40
4.368761396622346
 40
4.368761396622346
 40
4.368761396622346
 40
5.387065665436708
 40
5.387065665436708
 40
5.387065665436708
 40
5.387065665436708
 10
33.10334339567939
 20
11.43088347699092
 30
0.0
 41
1.0
 10
33.12540503817607
 20
11.37472446529204
 30
0.0
 41
1.0
 10
33.18217802948476
 20
11.33426400798815
 30
0.0
 41
1.0
 10
33.24264982917742
 20
11.33250599081953
 30
0.0
 41
1.0
 10
33.57183285410449
 20
11.31831181209135
 30
0.0
 41
1.0
 10
33.9010157913182
 20
11.30411543566331
 30
0.0
 41
1.0
 10
34.23019872853158
 20
11.28991905923524
 30
0.0
 41
1.0
 10
34.29616462801491
 20
11.28707420722557
 30
0.0
 41
1.0
 10
34.36490359771739
 20
11.24941539063949
 30
0.0
 41
1.0
 10
34.40277037352757
 20
11.19533603172123
 30
0.0
 41
1.0
 10
34.47547972681838
 20
11.09149631658315
 30
0.0
 41
1.0
 10
34.54818908010918
 20
10.98765660144507
 30
0.0
 41
1.0
 10
34.62089843339999
 20
10.88381688630698
 30
0.0
 41
1.0
 10
34.63872838790866
 20
10.85835307301048
 30
0.0
 41
1.0
 10
34.73260924737573
 20
10.84184606311302
 30
0.0
 41
1.0
 10
34.7015236666324
 20
10.84184606311313
 30
0.0
 41
1.0
 10
34.70141871441767
 20
10.84184606311313
 30
0.0
 41
0.8367795808294206
 10
34.92433605254577
 20
10.84184606311313
 30
0.0
 41
0.8099957716056495
 10
35.29054729289944
 20
10.84184606311312
 30
0.0
 41
0.9196485723286866
  0
SPLINE
  5
91
330
1F
100
AcDbEntity
  8
Layer 01
370
    -3
100
AcDbSpline
210
0.0
220
0.0
230
1.0
 70
     8
 71
     3
 72
    32
 73
    28
 74
     0
 42
0.000000001
 43
0.0000000001
 40
-0.1599627054942684
 40
-0.1599627054942684
 40
-0.1599627054942684
 40
-0.1599627054942684
 40
0.2380110867119459
 40
0.2380110867119459
 40
0.2380110867119459
 40
0.3497734686124756
 40
0.3497734686124756
 40
0.3497734686124756
 40
1.573511435043543
 40
1.573511435043543
 40
1.573511435043543
 40
2.573511435043543
 40
2.573511435043543
 40
2.573511435043543
 40
3.573511435043543
 40
3.573511435043543
 40
3.573511435043543
 40
4.573511435043542
 40
4.573511435043542
 40
4.573511435043542
 40
6.47009527453016
 40
6.47009527453016
 40
6.47009527453016
 40
6.624369229497522
 40
6.624369229497522
 40
6.624369229497522
 40
6.983377661451593
 40
6.983377661451593
 40
6.983377661451593
 40
6.983377661451593
 10
31.74062616353345
 20
12.67700818598658
 30
0.0
 10
31.75792413735816
 20
12.54548287592755
 30
0.0
 10
31.77522211118288
 20
12.41395756586851
 30
0.0
 10
31.7925200850076
 20
12.28243225580948
 30
0.0
 10
31.79719274145887
 20
12.24641581968883
 30
0.0
 10
31.81596426369254
 20
12.21370573199789
 30
0.0
 10
31.84466643961088
 20
12.19145926662396
 30
0.0
 10
32.08039895897537
 20
12.00849740634873
 30
0.0
 10
32.58084960871008
 20
11.62177688619543
 30
0.0
 10
32.81776066014135
 20
11.44131252466645
 30
0.0
 10
32.84258762939311
 20
11.42240085664737
 30
0.0
 10
32.88009573376766
 20
11.40712660070406
 30
0.0
 10
32.90980874671146
 20
11.41028891668806
 30
0.0
 10
35.07803479500209
 20
11.64105029731264
 30
0.0
 10
37.2382841426932
 20
11.8698062629549
 30
0.0
 10
39.3905567897848
 20
12.09655681361487
 30
0.0
 10
39.41879597197752
 20
12.09953192465437
 30
0.0
 10
39.4596691252321
 20
12.11407415430675
 30
0.0
 10
39.48268820447595
 20
12.13041100987268
 30
0.0
 10
39.99800742148597
 20
12.49613787190109
 30
0.0
 10
40.5196216725567
 20
12.85379592874566
 30
0.0
 10
41.04360031142608
 20
13.20742283529206
 30
0.0
 10
41.08448428496936
 20
13.23520973586215
 30
0.0
 10
41.10737160940749
 20
13.28288225878389
 30
0.0
 10
41.10347635904978
 20
13.33217313738694
 30
0.0
 10
41.09408688383301
 20
13.45147369826698
 30
0.0
 10
41.08469740861624
 20
13.57077425914702
 30
0.0
 10
41.07530793339947
 20
13.69007482002705
 30
0.0
  0
LINE
  5
92
330
1F
100
AcDbEntity
  8
Layer 01
370
    -3
100
AcDbLine
 10
34.92587723816985
 20
10.84184606311313
 30
0.0
 11
34.92587723816985
 21
8.658333538803
 31
0.0
  0
SPLINE
  5
93
330
1F
100
AcDbEntity
  8
Layer 01
370
    -3
100
AcDbSpline
210
0.0
220
0.0
230
1.0
 70
    12
 71
     3
 72
    15
 73
    11
 74
     0
 42
0.000000001
 43
0.0000000001
 40
0.0711371013014714
 40
0.0711371013014714
 40
0.0711371013014714
 40
0.0711371013014714
 40
2.620734546527294
 40
2.620734546527294
 40
2.620734546527294
 40
3.620734546527294
 40
3.620734546527294
 40
3.620734546527294
 40
4.524234369620451
 40
5.524234369620451
 40
5.524234369620451
 40
5.524234369620451
 40
5.524234369620451
 10
43.68605343016208
 20
14.03033236231067
 30
0.0
 41
1.0
 10
42.84418603802018
 20
13.91395006253967
 30
0.0
 41
0.9999811127612036
 10
42.00146644705127
 20
13.80390808578084
 30
0.0
 41
0.9999811127612036
 10
41.15794240719381
 20
13.70021266720147
 30
0.0
 41
1.0
 10
38.5509564918475
 20
13.37973277220283
 30
0.0
 41
1.0
 10
33.98411201534535
 20
12.88066462795018
 30
0.0
 41
1.0
 10
31.36844530094308
 20
12.64261716227833
 30
0.0
 41
1.0
 10
31.04418760904579
 20
12.61310701048577
 30
0.0
 41
1.0
 10
30.36007589396388
 20
12.56152195074523
 30
0.0
 41
1.0
 10
29.67462867919031
 20
12.53224887786764
 30
0.0
 41
1.0
 10
29.31437297830684
 20
12.52302176217804
 30
0.0
 41
1.0
  0
SPLINE
  5
94
330
1F
100
AcDbEntity
  8
Layer 01
370
    -3
100
AcDbSpline
210
0.0
220
0.0
230
1.0
 70
    28
 71
     2
 72
     6
 73
     3
 74
     0
 42
0.000000001
 43
0.0000000001
 40
0.0
 40
0.0
 40
0.0
 40
2.183512524310132
 40
2.183512524310132
 40
2.183512524310132
 10
36.02823944289429
 20
8.658333538803
 30
0.0
 41
1.0
 10
36.02823944289429
 20
9.750089800958065
 30
0.0
 41
1.0
 10
36.02823944289429
 20
10.84184606311313
 30
0.0
 41
1.0
  0
SPLINE
  5
95
330
1F
100
AcDbEntity
  8
Layer 01
100
AcDbSpline
210
0.0
220
0.0
230
1.0
 70
    15
 71
     2
 72
    12
 73
     9
 74
     0
 42
0.000000001
 43
0.0000000001
 40
0.0
 40
0.0
 40
0.0
 40
1.570796326794897
 40
1.570796326794897
 40
3.141592653589793
 40
3.141592653589793
 40
4.71238898038469
 40
4.71238898038469
 40
6.283185307179586
 40
6.283185307179586
 40
6.283185307179586
 10
35.1732761557995
 20
10.34836917861818
 30
0.0
 41
1.0
 10
35.17331508084519
 20
10.18052762246311
 30
0.0
 41
0.7071067811865475
 10
35.47707522260578
 20
10.18059806912523
 30
0.0
 41
1.0
 10
35.78083536436638
 20
10.18066851578736
 30
0.0
 41
0.7071067811865475
 10
35.78079643932068
 20
10.34851007194243
 30
0.0
 41
1.0
 10
35.78075751427498
 20
10.51635162809751
 30
0.0
 41
0.7071067811865475
 10
35.4769973725144
 20
10.51628118143539
 30
0.0
 41
1.0
 10
35.17323723075383
 20
10.51621073477326
 30
0.0
 41
0.7071067811865475
 10
35.1732761557995
 20
10.34836917861818
 30
0.0
 41
1.0
  0
SPLINE
  5
96
330
1F
100
AcDbEntity
  8
Layer 01
370
    -3
100
AcDbSpline
210
0.0
220
0.0
230
1.0
 70
     8
 71
     3
 72
    18
 73
    14
 74
     0
 42
0.000000001
 43
0.0000000001
 40
-6.253548368907858
 40
-6.253548368907858
 40
-6.253548368907858
 40
-6.253548368907858
 40
-5.0
 40
-4.0
 40
-3.0
 40
-2.0
 40
-0.9999999999999998
 40
0.0000000000000004
 40
0.0000000000000004
 40
0.0000000000000004
 40
1.0
 40
2.0
 40
3.0
 40
3.0
 40
3.0
 40
3.0
 10
43.39959706970777
 20
13.99098095155334
 30
0.0
 10
43.31238714220407
 20
14.03536601744172
 30
0.0
 10
43.10889169958838
 20
14.13360738246708
 30
0.0
 10
43.05281033907207
 20
14.4281360911487
 30
0.0
 10
42.99789108371414
 20
14.68131012281087
 30
0.0
 10
42.95912154031603
 20
14.94227062845674
 30
0.0
 10
42.92464255134973
 20
15.20241016530304
 30
0.0
 10
42.90420587700646
 20
15.37645985203631
 30
0.0
 10
42.89537593524915
 20
15.46356967085078
 30
0.0
 10
42.82110230487103
 20
16.19629958717068
 30
0.0
 10
42.67945891147011
 20
17.66254567241833
 30
0.0
 10
42.45025455250644
 20
19.85987854863751
 30
0.0
 10
42.28722798622258
 20
21.32440474926671
 30
0.0
 10
42.16384693229298
 20
22.05046867760484
 30
0.0
  0
SPLINE
  5
97
330
1F
100
AcDbEntity
  8
Layer 01
370
    -3
100
AcDbSpline
210
0.0
220
0.0
230
1.0
 70
     8
 71
     2
 72
    21
 73
    18
 74
     0
 42
0.000000001
 43
0.0000000001
 40
0.0
 40
0.0
 40
0.0
 40
1.0
 40
2.0
 40
3.0
 40
4.0
 40
4.0
 40
5.0
 40
6.0
 40
7.0
 40
8.0
 40
9.0
 40
10.0
 40
11.0
 40
12.0
 40
13.0
 40
13.0
 40
14.0
 40
14.0
 40
14.0
 10
29.57299956275548
 20
24.24810265503124
 30
0.0
 10
29.31721177618883
 20
24.6256539925681
 30
0.0
 10
28.83049711202088
 20
25.39705287250972
 30
0.0
 10
28.36026663291133
 20
26.17855328270679
 30
0.0
 10
27.91563728955779
 20
26.97492217499809
 30
0.0
 10
27.70098723775467
 20
27.37726698302918
 30
0.0
 10
27.59588831998045
 20
27.57445248924258
 30
0.0
 10
27.39046013820595
 20
27.97131220917946
 30
0.0
 10
27.18323210790567
 20
28.36728391839961
 30
0.0
 10
26.95537979269534
 20
28.75190095209597
 30
0.0
 10
26.69863054059391
 20
29.11806187929475
 30
0.0
 10
26.40160117168926
 20
29.45286841546753
 30
0.0
 10
26.05534637932456
 20
29.73728956198802
 30
0.0
 10
25.65799917398104
 20
29.9459758408451
 30
0.0
 10
25.20183189958763
 20
30.05238086710568
 30
0.0
 10
24.97715436888296
 20
30.0460031458425
 30
0.0
 10
24.63623276425912
 20
30.03632570742636
 30
0.0
 10
24.29522950936556
 20
30.03058851632473
 30
0.0
  0
SPLINE
  5
98
330
1F
100
AcDbEntity
  8
Layer 01
370
    -3
100
AcDbSpline
210
0.0
220
0.0
230
1.0
 70
     8
 71
     3
 72
    41
 73
    37
 74
     0
 42
0.000000001
 43
0.0000000001
 40
-18.0
 40
-18.0
 40
-18.0
 40
-18.0
 40
-17.0
 40
-16.0
 40
-15.0
 40
-14.0
 40
-13.0
 40
-12.0
 40
-11.0
 40
-10.0
 40
-9.0
 40
-8.0
 40
-7.0
 40
-6.0
 40
-5.0
 40
-4.0
 40
-3.0
 40
-2.0
 40
-1.0
 40
0.0
 40
0.0
 40
0.0
 40
1.0
 40
2.0
 40
3.0
 40
4.0
 40
5.0
 40
6.0
 40
7.0
 40
8.0
 40
9.0
 40
10.0
 40
11.0
 40
12.0
 40
13.0
 40
14.0
 40
14.0
 40
14.0
 40
14.0
 10
43.66210655432334
 20
14.25636460632589
 30
0.0
 10
43.74555685358459
 20
14.26518828907276
 30
0.0
 10
43.9132426793164
 20
14.27454267341722
 30
0.0
 10
44.16504867500518
 20
14.27097224755386
 30
0.0
 10
44.41629200014034
 20
14.2545473499438
 30
0.0
 10
44.66668436154342
 20
14.22837812040784
 30
0.0
 10
44.91615521468276
 20
14.19463776800046
 30
0.0
 10
45.1647323819281
 20
14.15489549403659
 30
0.0
 10
45.4124867599659
 20
14.11033807611472
 30
0.0
 10
45.65950027780619
 20
14.06185818790703
 30
0.0
 10
45.90587179062834
 20
14.01022722615934
 30
0.0
 10
46.15168003026002
 20
13.95597422487089
 30
0.0
 10
46.397029249121
 20
13.8997262794946
 30
0.0
 10
46.64206318405897
 20
13.84198261366736
 30
0.0
 10
46.88675881489618
 20
13.7833370671989
 30
0.0
 10
47.13145055212397
 20
13.72276438005298
 30
0.0
 10
47.37468936636708
 20
13.66336460603199
 30
0.0
 10
47.62277471737636
 20
13.59727335748381
 30
0.0
 10
47.87004540355071
 20
13.68446272380901
 30
0.0
 10
47.99491926218317
 20
13.80331885574679
 30
0.0
 10
48.02572656618995
 20
13.88304314419876
 30
0.0
 10
48.05483313094118
 20
14.01718326046046
 30
0.0
 10
47.98806010591622
 20
14.30137071035692
 30
0.0
 10
47.65910875910791
 20
14.56367217194815
 30
0.0
 10
47.29056500315127
 20
14.73767916000552
 30
0.0
 10
46.91261552142774
 20
14.89335951869146
 30
0.0
 10
46.52689820399635
 20
15.02771210058098
 30
0.0
 10
46.14099318786839
 20
15.16150951323853
 30
0.0
 10
45.74948897453757
 20
15.27811229476041
 30
0.0
 10
45.35468993992342
 20
15.38294738738485
 30
0.0
 10
44.95519366422073
 20
15.46844843061472
 30
0.0
 10
44.55228023232374
 20
15.5358410565662
 30
0.0
 10
44.14668913139377
 20
15.5845120294621
 30
0.0
 10
43.73959438480114
 20
15.61829433552816
 30
0.0
 10
43.3314174834679
 20
15.63445020882665
 30
0.0
 10
43.05909157193454
 20
15.63357177053601
 30
0.0
 10
42.92296436956519
 20
15.63280012176418
 30
0.0
  0
SPLINE
  5
99
330
1F
100
AcDbEntity
  8
Layer 01
370
    -3
100
AcDbSpline
210
0.0
220
0.0
230
1.0
 70
     8
 71
     3
 72
    24
 73
    20
 74
     0
 42
0.000000001
 43
0.0000000001
 40
0.0
 40
0.0
 40
0.0
 40
0.0
 40
1.0
 40
2.0
 40
3.0
 40
4.0
 40
5.0
 40
5.0
 40
5.0
 40
6.0
 40
7.0
 40
8.0
 40
8.0
 40
8.0
 40
9.0
 40
10.0
 40
11.0
 40
12.0
 40
13.0
 40
13.0
 40
13.0
 40
13.0
 10
28.28862193515351
 20
24.04535086183725
 30
0.0
 10
28.43381881823041
 20
24.10353620953737
 30
0.0
 10
28.74486954684861
 20
24.09927882479179
 30
0.0
 10
29.20516974028976
 20
24.09501079473401
 30
0.0
 10
29.66703913079047
 20
24.08260289825881
 30
0.0
 10
30.12808762050307
 20
24.06049404388157
 30
0.0
 10
30.43510350980458
 20
24.03834018649504
 30
0.0
 10
30.58863969743135
 20
24.02811148819912
 30
0.0
 10
31.48620866038763
 20
23.96831475712365
 30
0.0
 10
33.28167508381941
 20
23.85378890622892
 30
0.0
 10
35.97507521794182
 20
23.68507694076435
 30
0.0
 10
37.76976062322365
 20
23.55856382271833
 30
0.0
 10
38.66659386747267
 20
23.4885582245384
 30
0.0
 10
38.93788907188664
 20
23.46738128535809
 30
0.0
 10
39.48072740328962
 20
23.42908223593903
 30
0.0
 10
40.29406252690472
 20
23.35655716754312
 30
0.0
 10
41.0993280308829
 20
23.21427488985298
 30
0.0
 10
41.84581216130971
 20
22.82518184393594
 30
0.0
 10
42.10526480453973
 20
22.31462815302204
 30
0.0
 10
42.16384693229298
 20
22.05046867760484
 30
0.0
  0
SPLINE
  5
9A
330
1F
100
AcDbEntity
  8
Layer 01
370
    -3
100
AcDbSpline
210
0.0
220
0.0
230
1.0
 70
     8
 71
     3
 72
    22
 73
    18
 74
     0
 42
0.000000001
 43
0.0000000001
 40
0.0
 40
0.0
 40
0.0
 40
0.0
 40
1.0
 40
2.0
 40
3.0
 40
3.0
 40
3.0
 40
4.0
 40
5.0
 40
6.0
 40
6.0
 40
6.0
 40
7.0
 40
8.0
 40
9.0
 40
10.0
 40
11.0
 40
11.0
 40
11.0
 40
11.0
 10
42.33858956519276
 20
20.8245840985898
 30
0.0
 10
42.41402200289951
 20
20.23815269171051
 30
0.0
 10
42.55222621164319
 20
19.06371784548706
 30
0.0
 10
42.74525274776335
 20
17.300476198404
 30
0.0
 10
42.8698545196161
 20
16.12453793109319
 30
0.0
 10
42.93563744671644
 20
15.53695064034774
 30
0.0
 10
42.94913469689007
 20
15.41639029115657
 30
0.0
 10
42.975451940624
 20
15.17462833161546
 30
0.0
 10
43.02653802640285
 20
14.81543387965727
 30
0.0
 10
43.06325813360561
 20
14.57222627231064
 30
0.0
 10
43.12205086424242
 20
14.46562842562133
 30
0.0
 10
43.14963299196205
 20
14.43702265471798
 30
0.0
 10
43.21030628495839
 20
14.38515703496842
 30
0.0
 10
43.3138377057044
 20
14.32516625577119
 30
0.0
 10
43.42583668663175
 20
14.28321754192346
 30
0.0
 10
43.54279946816027
 20
14.25880747878651
 30
0.0
 10
43.62241844790293
 20
14.25386754687343
 30
0.0
 10
43.6621051114742
 20
14.25636445345462
 30
0.0
  0
SPLINE
  5
9B
330
1F
100
AcDbEntity
  8
Layer 01
370
    -3
100
AcDbSpline
210
0.0
220
0.0
230
1.0
 70
     8
 71
     3
 72
    52
 73
    48
 74
     0
 42
0.000000001
 43
0.0000000001
 40
0.0
 40
0.0
 40
0.0
 40
0.0
 40
1.0
 40
2.0
 40
3.0
 40
4.0
 40
5.0
 40
5.0
 40
5.0
 40
6.0
 40
7.0
 40
8.0
 40
9.0
 40
9.0
 40
9.0
 40
10.0
 40
11.0
 40
12.0
 40
13.0
 40
14.0
 40
15.0
 40
15.0
 40
15.0
 40
15.13849084810448
 40
15.13849084810448
 40
15.13849084810448
 40
15.31683728278968
 40
15.31683728278968
 40
15.31683728278968
 40
16.31683728278968
 40
17.31683728278968
 40
18.31683728278968
 40
18.31683728278968
 40
18.31683728278968
 40
19.31683728278968
 40
19.31683728278968
 40
19.31683728278968
 40
20.31683728278968
 40
21.31683728278968
 40
22.31683728278968
 40
23.31683728278968
 40
24.31683728278968
 40
25.31683728278968
 40
25.31683728278968
 40
25.31683728278968
 40
26.31683728278968
 40
27.31683728278968
 40
27.31683728278968
 40
27.31683728278968
 40
27.31683728278968
 10
42.14436172914478
 20
22.13497839077239
 30
0.0
 10
42.0857837181004
 20
22.40116005445502
 30
0.0
 10
41.84605472036782
 20
22.92112042445028
 30
0.0
 10
41.1285799280349
 20
23.36951935405482
 30
0.0
 10
40.32735397212321
 20
23.56738376135112
 30
0.0
 10
39.5112957367048
 20
23.67261207638819
 30
0.0
 10
38.96485763591747
 20
23.71825701730125
 30
0.0
 10
38.69164879311575
 20
23.74078520523695
 30
0.0
 10
38.02480578154814
 20
23.79577158318188
 30
0.0
 10
36.69023979782264
 20
23.89489425888362
 30
0.0
 10
34.68670266352299
 20
24.01845272345322
 30
0.0
 10
32.68215634170735
 20
24.12406277456743
 30
0.0
 10
31.3454380159456
 20
24.18727080766729
 30
0.0
 10
30.67705136698726
 20
24.21825718038053
 30
0.0
 10
30.55871648880009
 20
24.22374251650525
 30
0.0
 10
30.32208974405978
 20
24.23541995693211
 30
0.0
 10
29.96689368093638
 20
24.24821181419385
 30
0.0
 10
29.61152446624743
 20
24.24952674009159
 30
0.0
 10
29.25599716874086
 20
24.24246676259889
 30
0.0
 10
28.90162531949196
 20
24.22849351640992
 30
0.0
 10
28.66348130594804
 20
24.20881043380187
 30
0.0
 10
28.55480793336068
 20
24.15753593597711
 30
0.0
 10
28.51644646667242
 20
24.14024619015245
 30
0.0
 10
28.47789231574552
 20
24.12338631907981
 30
0.0
 10
28.43910563762861
 20
24.10691409899491
 30
0.0
 10
28.38918228523221
 20
24.0857122717704
 30
0.0
 10
28.33901064753462
 20
24.06521040994204
 30
0.0
 10
28.2886219385245
 20
24.04535085328413
 30
0.0
 10
28.00282001316901
 20
23.93798250183824
 30
0.0
 10
27.81963509327068
 20
23.35139921757433
 30
0.0
 10
27.92509444071663
 20
22.5184361370314
 30
0.0
 10
28.04983318013663
 20
21.96798377141344
 30
0.0
 10
28.12378776536508
 20
21.69702063582989
 30
0.0
 10
28.80981631368383
 20
19.18347200354303
 30
0.0
 10
29.49584615544143
 20
16.66992405463343
 30
0.0
 10
30.18187439295181
 20
14.15637525570012
 30
0.0
 10
30.20299870612808
 20
14.08143434036692
 30
0.0
 10
30.24880366993884
 20
13.93256408433903
 30
0.0
 10
30.30308249324463
 20
13.70516106315266
 30
0.0
 10
30.34233679008315
 20
13.47498963378029
 30
0.0
 10
30.36269849969545
 20
13.24114936620923
 30
0.0
 10
30.35385056222822
 20
13.01021042285258
 30
0.0
 10
30.31603259283844
 20
12.84218064758948
 30
0.0
 10
30.2417006339945
 20
12.80821012879921
 30
0.0
 10
30.09411731784274
 20
12.74076293794837
 30
0.0
 10
29.79130419123607
 20
12.62269046885087
 30
0.0
 10
29.47526954065037
 20
12.54467257311146
 30
0.0
 10
29.31437297830684
 20
12.52302176217804
 30
0.0
  0
SPLINE
  5
9C
330
1F
100
AcDbEntity
  8
Layer 01
370
    -3
100
AcDbSpline
210
0.0
220
0.0
230
1.0
 70
     8
 71
     3
 72
    14
 73
    10
 74
     0
 42
0.000000001
 43
0.0000000001
 40
0.0
 40
0.0
 40
0.0
 40
0.0
 40
1.0
 40
2.0
 40
3.0
 40
3.0
 40
3.0
 40
4.0
 40
5.0
 40
5.0
 40
5.0
 40
5.0
 10
30.3292729238284
 20
13.5448424130631
 30
0.0
 10
30.32942717126269
 20
13.49470665547298
 30
0.0
 10
30.32632574939038
 20
13.39376693171225
 30
0.0
 10
30.30576600137749
 20
13.24582400980306
 30
0.0
 10
30.2710657458872
 20
13.14091692221823
 30
0.0
 10
30.22362613061821
 20
13.11913979179279
 30
0.0
 10
30.0777034288289
 20
13.05215405232425
 30
0.0
 10
29.77807732330874
 20
12.93534591290511
 30
0.0
 10
29.46555532769571
 20
12.85747532668301
 30
0.0
 10
29.30636112000812
 20
12.83591920583454
 30
0.0
  0
SPLINE
  5
9D
330
1F
100
AcDbEntity
  8
Layer 01
370
    -3
100
AcDbSpline
210
0.0
220
0.0
230
1.0
 70
     8
 71
     3
 72
    13
 73
     9
 74
     0
 42
0.000000001
 43
0.0000000001
 40
0.0
 40
0.0
 40
0.0
 40
0.0
 40
1.0
 40
2.0
 40
3.0
 40
4.0
 40
5.0
 40
6.0
 40
6.0
 40
6.0
 40
6.0
 10
24.97715436888296
 20
30.0460031458425
 30
0.0
 10
25.41027649345676
 20
30.0459446313761
 30
0.0
 10
26.07418474723156
 20
29.47606590882094
 30
0.0
 10
26.73071753744611
 20
28.43272843993365
 30
0.0
 10
27.33457585908789
 20
27.34570636734533
 30
0.0
 10
27.97858022413723
 20
26.28534048496554
 30
0.0
 10
28.65973762705815
 20
25.24779849716631
 30
0.0
 10
29.13410415171214
 20
24.5696680651542
 30
0.0
 10
29.39181228882842
 20
24.24589981288734
 30
0.0
  0
SPLINE
  5
9E
330
1F
100
AcDbEntity
  8
Layer 01
370
    -3
100
AcDbSpline
210
0.0
220
0.0
230
1.0
 70
     8
 71
     3
 72
     8
 73
     4
 74
     0
 42
0.000000001
 43
0.0000000001
 40
0.0
 40
0.0
 40
0.0
 40
0.0
 40
1.0
 40
1.0
 40
1.0
 40
1.0
 10
29.30636315249717
 20
12.8359196568772
 30
0.0
 10
27.63598564088406
 20
18.56747605102479
 30
0.0
 10
25.96560739040675
 20
24.29903222984146
 30
0.0
 10
24.29522950936556
 20
30.03058851632473
 30
0.0
  0
SPLINE
  5
9F
330
1F
100
AcDbEntity
  8
Layer 01
370
    -3
100
AcDbSpline
210
0.0
220
0.0
230
1.0
 70
    24
 71
     2
 72
     6
 73
     3
 74
     0
 42
0.000000001
 43
0.0000000001
 40
0.0
 40
0.0
 40
0.0
 40
0.3129999999999408
 40
0.3129999999999408
 40
0.3129999999999408
 10
29.30636112000812
 20
12.83591920583454
 30
0.0
 10
29.31036704915748
 20
12.67947048400629
 30
0.0
 10
29.31437297830684
 20
12.52302176217804
 30
0.0
  0
SPLINE
  5
A0
330
1F
100
AcDbEntity
  8
Layer 01
370
    -3
100
AcDbSpline
210
0.0
220
0.0
230
1.0
 70
    24
 71
     2
 72
     6
 73
     3
 74
     0
 42
0.000000001
 43
0.0000000001
 40
0.0857027756483554
 40
0.0857027756483554
 40
0.0857027756483554
 40
0.3129999999999872
 40
0.3129999999999872
 40
0.3129999999999872
 10
43.68605343016208
 20
14.03033236231067
 30
0.0
 10
43.67407927081814
 20
14.14334840788265
 30
0.0
 10
43.6621051114742
 20
14.25636445345462
 30
0.0
  0
SPLINE
  5
A1
330
1F
100
AcDbEntity
  8
Layer 01
370
    -3
100
AcDbSpline
210
0.0
220
0.0
230
1.0
 70
     8
 71
     3
 72
     8
 73
     4
 74
     0
 42
0.000000001
 43
0.0000000001
 40
1.171191079319495
 40
1.171191079319495
 40
1.171191079319495
 40
1.171191079319495
 40
1.177435375905397
 40
1.177435375905397
 40
1.177435375905397
 40
1.177435375905397
 10
37.85647072867488
 20
13.52223271875623
 30
0.0
 10
37.85519501791333
 20
13.52065570446882
 30
0.0
 10
37.8539152712662
 20
13.51908224801694
 30
0.0
 10
37.85263150913488
 20
13.51751238526129
 30
0.0
  0
SPLINE
  5
A2
330
1F
100
AcDbEntity
  8
Layer 01
370
    -3
100
AcDbSpline
210
0.0
220
0.0
230
1.0
 70
    15
 71
     3
 72
    41
 73
    37
 74
     0
 42
0.000000001
 43
0.0000000001
 40
0.0
 40
0.0
 40
0.0
 40
0.0
 40
0.1383626642783725
 40
0.1383626642783725
 40
0.1383626642783725
 40
0.48880278967803
 40
0.48880278967803
 40
0.48880278967803
 40
1.062715552849623
 40
1.062715552849623
 40
1.062715552849623
 40
7.332050809565348
 40
7.332050809565348
 40
7.332050809565348
 40
8.332050809565347
 40
8.332050809565347
 40
8.332050809565347
 40
8.586700412146529
 40
8.586700412146529
 40
8.586700412146529
 40
9.586700412146529
 40
9.586700412146529
 40
9.586700412146529
 40
15.85451322130595
 40
15.85451322130595
 40
15.85451322130595
 40
16.4284663383304
 40
16.4284663383304
 40
16.4284663383304
 40
16.53067804157141
 40
16.53067804157141
 40
16.53067804157141
 40
16.81207525873757
 40
16.81207525873757
 40
16.81207525873757
 40
17.19758578542417
 40
17.19758578542417
 40
17.19758578542417
 40
17.19758578542417
 10
-1.084234289786252
 20
11.33017032153515
 30
0.0
 41
1.0
 10
-1.084153793684919
 20
11.28404950368848
 30
0.0
 41
1.0
 10
-1.084073297583586
 20
11.23792868584181
 30
0.0
 41
1.0
 10
-1.083992801482253
 20
11.19180786799515
 30
0.0
 41
1.0
 10
-1.083608224237666
 20
10.97146156141844
 30
0.0
 41
0.8248515578739948
 10
-1.232188491158114
 20
10.8087454067089
 30
0.0
 41
0.8248515578739948
 10
-1.451662795398249
 20
10.78915784688484
 30
0.0
 41
1.0
 10
-1.642209059771072
 20
10.7721449435155
 30
0.0
 41
1.0
 10
-1.832755324143894
 20
10.75513204014616
 30
0.0
 41
1.0
 10
-2.023301588516716
 20
10.73811913677682
 30
0.0
 41
1.0
 10
-4.104826020730836
 20
10.55256623809471
 30
0.0
 41
1.0
 10
-6.186350452944954
 20
10.3670133394126
 30
0.0
 41
1.0
 10
-8.267874885159074
 20
10.18146044073049
 30
0.0
 41
1.0
 10
-8.293485176942227
 20
10.17917746782647
 30
0.0
 41
1.0
 10
-8.308296420485732
 20
10.19155322628973
 30
0.0
 41
1.0
 10
-8.31058443369426
 20
10.21716071189615
 30
0.0
 41
1.0
 10
-8.31813860217492
 20
10.30170710346238
 30
0.0
 41
1.0
 10
-8.325692770655584
 20
10.38625349502861
 30
0.0
 41
1.0
 10
-8.333246939136245
 20
10.47079988659484
 30
0.0
 41
1.0
 10
-8.335566581191614
 20
10.49676136283252
 30
0.0
 41
1.0
 10
-8.322301913996597
 20
10.51131583450491
 30
0.0
 41
1.0
 10
-8.29603516999046
 20
10.51366275219958
 30
0.0
 41
1.0
 10
-6.215054283368232
 20
10.69959713614625
 30
0.0
 41
1.0
 10
-4.134073396746032
 20
10.88553152009292
 30
0.0
 41
1.0
 10
-2.053092260334239
 20
11.07146310839708
 30
0.0
 41
1.0
 10
-1.862531802512583
 20
11.08846829755167
 30
0.0
 41
1.0
 10
-1.671971344690926
 20
11.10547348670626
 30
0.0
 41
1.0
 10
-1.48141088686927
 20
11.12247867586084
 30
0.0
 41
1.0
 10
-1.443939664194421
 20
11.12582289339199
 30
0.0
 41
0.8248515578757404
 10
-1.418572301549736
 20
11.15360370029348
 30
0.0
 41
0.8248515578757404
 10
-1.41863796107927
 20
11.19122380141605
 30
0.0
 41
1.0
 10
-1.418801660508602
 20
11.28502273095941
 30
0.0
 41
1.0
 10
-1.418965359937933
 20
11.37882166050278
 30
0.0
 41
1.0
 10
-1.419129059367265
 20
11.47262059004612
 30
0.0
 41
1.0
 10
-1.2849677695765
 20
11.50007606379034
 30
0.0
 41
0.8826428105183357
 10
-1.15849351687763
 20
11.44627919118101
 30
0.0
 41
0.8826428105183357
 10
-1.084234289786252
 20
11.33017032153515
 30
0.0
 41
1.0
  0
SPLINE
  5
A3
330
1F
100
AcDbEntity
  8
Layer 01
370
    -3
100
AcDbSpline
210
0.0
220
0.0
230
1.0
 70
    12
 71
     3
 72
    58
 73
    54
 74
     0
 42
0.000000001
 43
0.0000000001
 40
-7.026826110993997
 40
-7.026826110993997
 40
-7.026826110993997
 40
-7.026826110993997
 40
-6.976477371487086
 40
-6.926128631980174
 40
-6.926128631980174
 40
-6.926128631980174
 40
-5.048000372036355
 40
-5.048000372036355
 40
-5.048000372036355
 40
-4.048000372036354
 40
-4.048000372036354
 40
-4.048000372036354
 40
-3.048000372036354
 40
-2.048000372036354
 40
-1.048000372036354
 40
-0.0958211991766293
 40
-0.0958211991766293
 40
-0.0958211991766293
 40
-0.0281080309523327
 40
-0.0281080309523327
 40
-0.0281080309523327
 40
0.0000000000000009
 40
0.0000000000000009
 40
0.0000000000000009
 40
1.000000000000001
 40
2.000000000000001
 40
3.000000000000002
 40
4.000000000000002
 40
5.000000000000002
 40
6.000000000000003
 40
7.000000000000003
 40
7.000000000000003
 40
7.000000000000003
 40
7.02810803041165
 40
7.02810803041165
 40
7.02810803041165
 40
7.095821198714591
 40
7.095821198714591
 40
7.095821198714591
 40
8.048000371788728
 40
9.048000371788728
 40
10.04800037178873
 40
11.04800037178873
 40
11.04800037178873
 40
11.04800037178873
 40
12.04800037178873
 40
12.04800037178873
 40
12.04800037178873
 40
13.92612863173255
 40
13.92612863173255
 40
13.92612863173255
 40
13.97647737123946
 40
14.02682611074637
 40
14.02682611074637
 40
14.02682611074637
 40
14.02682611074637
 10
-1.943200045659069
 20
11.47052738954169
 30
0.0
 41
1.0
 10
-1.959360874958065
 20
11.47049031014709
 30
0.0
 41
1.0
 10
-2.152459552431253
 20
11.49762284604695
 30
0.0
 41
1.0
 10
-2.183284558273243
 20
11.51236180090875
 30
0.0
 41
1.0
 10
-2.197032790083256
 20
11.52168922571894
 30
0.0
 41
1.0
 10
-2.694616622017918
 20
11.84459191173494
 30
0.0
 41
1.0
 10
-3.19220045395258
 20
12.16749459775095
 30
0.0
 41
1.0
 10
-3.689784285887242
 20
12.49039728376695
 30
0.0
 41
1.0
 10
-3.720896031023528
 20
12.51058697930447
 30
0.0
 41
1.0
 10
-3.744201775370925
 20
12.54977898514634
 30
0.0
 41
1.0
 10
-3.748708904153517
 20
12.58691344439405
 30
0.0
 41
1.0
 10
-3.758067181590661
 20
12.66401675980438
 30
0.0
 41
1.0
 10
-3.771993599039007
 20
12.8188629974948
 30
0.0
 41
1.0
 10
-3.776760659482903
 20
13.05188245793344
 30
0.0
 41
1.0
 10
-3.782595257169618
 20
13.28117835633236
 30
0.0
 41
1.0
 10
-3.773631721583229
 20
13.43271061910453
 30
0.0
 41
1.0
 10
-3.767207170079816
 20
13.50638182067252
 30
0.0
 41
1.0
 10
-3.765079837088535
 20
13.53077623599009
 30
0.0
 41
0.8529153972233526
 10
-3.748137283326801
 20
13.54845568497395
 30
0.0
 41
0.8529153972233526
 10
-3.723855475164811
 20
13.55161904343078
 30
0.0
 41
1.0
 10
-3.713792773302638
 20
13.55292998093684
 30
0.0
 41
1.0
 10
-3.703730071440466
 20
13.55424091844289
 30
0.0
 41
1.0
 10
-3.693667369578293
 20
13.55555185594894
 30
0.0
 41
1.0
 10
-3.335666416781663
 20
13.60219110678347
 30
0.0
 41
1.0
 10
-2.614465093923087
 20
13.57115887198758
 30
0.0
 41
1.0
 10
-1.535165547079771
 20
13.54136623867869
 30
0.0
 41
1.0
 10
-0.4547257322899156
 20
13.52611536103503
 30
0.0
 41
1.0
 10
0.6255457507443509
 20
13.52611536106302
 30
0.0
 41
1.0
 10
1.705985560657695
 20
13.5413662387062
 30
0.0
 41
1.0
 10
2.785285109551381
 20
13.57115887181683
 30
0.0
 41
1.0
 10
3.506486425869554
 20
13.60219110697594
 30
0.0
 41
1.0
 10
3.864487384570509
 20
13.55555185594894
 30
0.0
 41
1.0
 10
3.874550086405075
 20
13.5542409184627
 30
0.0
 41
1.0
 10
3.884612788239641
 20
13.55292998097646
 30
0.0
 41
1.0
 10
3.894675490074206
 20
13.55161904349021
 30
0.0
 41
1.0
 10
3.918957298274315
 20
13.54845568506753
 30
0.0
 41
0.8529153968948395
 10
3.935899852073258
 20
13.53077623607309
 30
0.0
 41
0.8529153968948395
 10
3.93802718506773
 20
13.50638182072228
 30
0.0
 41
1.0
 10
3.944451736573512
 20
13.43271061913781
 30
0.0
 41
1.0
 10
3.953415272162317
 20
13.28117835634902
 30
0.0
 41
1.0
 10
3.947580674475176
 20
13.05188245793344
 30
0.0
 41
1.0
 10
3.94281361403128
 20
12.8188629974948
 30
0.0
 41
1.0
 10
3.928887196582934
 20
12.66401675980438
 30
0.0
 41
1.0
 10
3.91952891914579
 20
12.58691344439405
 30
0.0
 41
1.0
 10
3.915021790363198
 20
12.54977898514634
 30
0.0
 41
1.0
 10
3.891716046015802
 20
12.51058697930447
 30
0.0
 41
1.0
 10
3.860604300879515
 20
12.49039728376695
 30
0.0
 41
1.0
 10
3.363020468944853
 20
12.16749459775095
 30
0.0
 41
1.0
 10
2.865436637010191
 20
11.84459191173494
 30
0.0
 41
1.0
 10
2.367852805075529
 20
11.52168922571894
 30
0.0
 41
1.0
 10
2.354104573265516
 20
11.51236180090875
 30
0.0
 41
1.0
 10
2.323279567423526
 20
11.49762284604695
 30
0.0
 41
1.0
 10
2.130180889950338
 20
11.47049031014709
 30
0.0
 41
1.0
 10
2.114020060651342
 20
11.47052738954169
 30
0.0
 41
1.0
  0
SPLINE
  5
A4
330
1F
100
AcDbEntity
  8
Layer 01
370
    -3
100
AcDbSpline
210
0.0
220
0.0
230
1.0
 70
    15
 71
     3
 72
    69
 73
    65
 74
     0
 42
0.000000001
 43
0.0000000001
 40
-5.571270781496727
 40
-5.571270781496727
 40
-5.571270781496727
 40
-5.571270781496727
 40
-4.571270781496727
 40
-4.571270781496727
 40
-4.571270781496727
 40
-4.046612498065096
 40
-4.046612498065096
 40
-4.046612498065096
 40
-3.999776100892931
 40
-3.999776100892931
 40
-3.999776100892931
 40
-3.145950732749176
 40
-3.145950732749176
 40
-3.145950732749176
 40
-2.145950732749176
 40
-2.145950732749176
 40
-2.145950732749176
 40
0.8540492672508243
 40
0.8540492672508243
 40
0.8540492672508243
 40
0.8887546070008104
 40
0.8887546070008104
 40
0.8887546070008104
 40
0.9667723879017602
 40
0.9667723879017602
 40
0.9667723879017602
 40
1.0
 40
2.0
 40
3.0
 40
3.0
 40
3.0
 40
6.072919420562187
 40
6.072919420562187
 40
6.072919420562187
 40
7.072919420562187
 40
8.072919420562187
 40
8.106147032660427
 40
8.106147032660427
 40
8.106147032660427
 40
8.184164813561377
 40
8.184164813561377
 40
8.184164813561377
 40
8.218870153311364
 40
8.218870153311364
 40
8.218870153311364
 40
11.21887015331136
 40
11.21887015331136
 40
11.21887015331136
 40
12.21887015331136
 40
12.21887015331136
 40
12.21887015331136
 40
13.07269552145512
 40
13.07269552145512
 40
13.07269552145512
 40
13.11953191862728
 40
13.11953191862728
 40
13.11953191862728
 40
13.64419020205892
 40
13.64419020205892
 40
13.64419020205892
 40
14.64419020205892
 40
14.64419020205892
 40
14.64419020205892
 40
16.19524425349439
 40
16.19524425349439
 40
16.19524425349439
 40
16.19524425349439
 10
-0.6901170182215992
 20
10.84180765204094
 30
0.0
 41
1.0
 10
-0.7218611924790537
 20
10.84114631507725
 30
0.0
 41
1.0
 10
-0.7526604292216632
 20
10.85795500258863
 30
0.0
 41
1.0
 10
-0.7707422194311904
 20
10.88377847523469
 30
0.0
 41
1.0
 10
-0.8710448990275025
 20
11.02702554717102
 30
0.0
 41
1.0
 10
-0.971347578623752
 20
11.17027261910735
 30
0.0
 41
1.0
 10
-1.070632230673464
 20
11.3142325216059
 30
0.0
 41
1.0
 10
-1.079486433791168
 20
11.32781245807055
 30
0.0
 41
0.9282053529693961
 10
-1.093517460971403
 20
11.33593291763273
 30
0.0
 41
0.9282053529693961
 10
-1.109703254282522
 20
11.33684488370846
 30
0.0
 41
1.0
 10
-1.311076653091628
 20
11.34819098857575
 30
0.0
 41
1.0
 10
-1.512450051900733
 20
11.35953709344305
 30
0.0
 41
1.0
 10
-1.713823450709839
 20
11.37088319831035
 30
0.0
 41
1.0
 10
-1.886294261069935
 20
11.38060082691704
 30
0.0
 41
1.0
 10
-1.941701127596559
 20
11.41171650008744
 30
0.0
 41
1.0
 10
-1.97949146376564
 20
11.57714534913388
 30
0.0
 41
1.0
 10
-2.004184216769588
 20
11.73398284411448
 30
0.0
 41
0.9977343993837785
 10
-2.015873934530275
 20
11.89232134979575
 30
0.0
 41
0.9977343993837785
 10
-2.014481164352418
 20
12.05108467072957
 30
0.0
 41
1.0
 10
-2.014539632237017
 20
12.05291953671409
 30
0.0
 41
1.0
 10
-2.014598100121617
 20
12.05475440269861
 30
0.0
 41
1.0
 10
-2.014656568006217
 20
12.05658926868312
 30
0.0
 41
1.0
 10
-2.015581692835406
 20
12.08562196059313
 30
0.0
 41
0.807192318238581
 10
-1.995817496591995
 20
12.10690880165382
 30
0.0
 41
0.807192318238581
 10
-1.966796045854693
 20
12.10813699243438
 30
0.0
 41
1.0
 10
-1.963927439696334
 20
12.10825839214209
 30
0.0
 41
1.0
 10
-1.874798563349344
 20
12.11205152039836
 30
0.0
 41
1.0
 10
-1.705829556016539
 20
12.12457765876718
 30
0.0
 41
1.0
 10
-1.53543437636111
 20
12.12511218420691
 30
0.0
 41
1.0
 10
-1.451049702784957
 20
12.12637486012794
 30
0.0
 41
1.0
 10
-0.4267432292642279
 20
12.12637486012794
 30
0.0
 41
1.0
 10
0.597563244256501
 20
12.12637486012794
 30
0.0
 41
1.0
 10
1.62186971777723
 20
12.12637486012794
 30
0.0
 41
1.0
 10
1.706254391353383
 20
12.12511218420691
 30
0.0
 41
1.0
 10
1.876649571008812
 20
12.12457765876718
 30
0.0
 41
1.0
 10
2.045618578341617
 20
12.11205152039836
 30
0.0
 41
1.0
 10
2.134747454688608
 20
12.10825839214209
 30
0.0
 41
1.0
 10
2.137616060846966
 20
12.10813699243438
 30
0.0
 41
1.0
 10
2.166637511584268
 20
12.10690880165382
 30
0.0
 41
0.807192318238581
 10
2.18640170782768
 20
12.08562196059313
 30
0.0
 41
0.807192318238581
 10
2.18547658299849
 20
12.05658926868312
 30
0.0
 41
1.0
 10
2.18541811511389
 20
12.05475440269861
 30
0.0
 41
1.0
 10
2.185359647229291
 20
12.05291953671409
 30
0.0
 41
1.0
 10
2.185301179344691
 20
12.05108467072957
 30
0.0
 41
1.0
 10
2.186693949522549
 20
11.89232134979575
 30
0.0
 41
0.9977343993837785
 10
2.175004231761861
 20
11.73398284411448
 30
0.0
 41
0.9977343993837785
 10
2.150311478757914
 20
11.57714534913388
 30
0.0
 41
1.0
 10
2.112521142588832
 20
11.41171650008744
 30
0.0
 41
1.0
 10
2.057114276062208
 20
11.38060082691704
 30
0.0
 41
1.0
 10
1.884643465702112
 20
11.37088319831035
 30
0.0
 41
1.0
 10
1.683270066893006
 20
11.35953709344305
 30
0.0
 41
1.0
 10
1.481896668083901
 20
11.34819098857575
 30
0.0
 41
1.0
 10
1.280523269274795
 20
11.33684488370846
 30
0.0
 41
1.0
 10
1.264337475963676
 20
11.33593291763273
 30
0.0
 41
0.9282053529693961
 10
1.250306448783438
 20
11.32781245807055
 30
0.0
 41
0.9282053529693961
 10
1.241452245665715
 20
11.3142325216059
 30
0.0
 41
1.0
 10
1.142167593615982
 20
11.17027261910735
 30
0.0
 41
1.0
 10
1.041864914019732
 20
11.02702554717102
 30
0.0
 41
1.0
 10
0.941562234423442
 20
10.88377847523469
 30
0.0
 41
1.0
 10
0.9234804442139364
 20
10.85795500258863
 30
0.0
 41
1.0
 10
0.8926812074713268
 20
10.84114631507725
 30
0.0
 41
1.0
 10
0.8609370332138724
 20
10.84180765204094
 30
0.0
 41
1.0
 10
0.3439190160687152
 20
10.84180765204095
 30
0.0
 41
1.0
 10
-0.173099001076442
 20
10.84180765204095
 30
0.0
 41
1.0
 10
-0.6901170182215992
 20
10.84180765204094
 30
0.0
 41
1.0
  0
SPLINE
  5
A5
330
1F
100
AcDbEntity
  8
Layer 01
370
    -3
100
AcDbSpline
210
0.0
220
0.0
230
1.0
 70
     8
 71
     3
 72
    16
 73
    12
 74
     0
 42
0.000000001
 43
0.0000000001
 40
-2.0
 40
-2.0
 40
-2.0
 40
-2.0
 40
-1.0
 40
-1.0
 40
-1.0
 40
0.0
 40
0.0
 40
0.0
 40
1.0
 40
2.0
 40
3.0
 40
3.0
 40
3.0
 40
3.0
 10
9.8978695674991
 20
14.43179465869409
 30
0.0
 10
9.523173234569802
 20
14.173244589859
 30
0.0
 10
9.13779203758881
 20
13.93161615359811
 30
0.0
 10
8.741725976556125
 20
13.70690934991142
 30
0.0
 10
8.227257724666458
 20
13.41502744470858
 30
0.0
 10
7.522901395592982
 20
12.8701526008123
 30
0.0
 10
6.981669041140975
 20
12.80817170469406
 30
0.0
 10
6.637322018926142
 20
12.76870519164166
 30
0.0
 10
5.947200555955504
 20
12.70266187618774
 30
0.0
 10
4.90975429674225
 20
12.63183501821013
 30
0.0
 10
4.217306190832602
 20
12.59905476434655
 30
0.0
 10
3.870975130285075
 20
12.58551883316714
 30
0.0
  0
SPLINE
  5
A6
330
1F
100
AcDbEntity
  8
Layer 01
370
    -3
100
AcDbSpline
210
0.0
220
0.0
230
1.0
 70
     8
 71
     3
 72
    16
 73
    12
 74
     0
 42
0.000000001
 43
0.0000000001
 40
-2.0
 40
-2.0
 40
-2.0
 40
-2.0
 40
-1.0
 40
-1.0
 40
-1.0
 40
0.0
 40
0.0
 40
0.0
 40
1.0
 40
2.0
 40
3.0
 40
3.0
 40
3.0
 40
3.0
 10
-9.72706214278432
 20
14.43179465869409
 30
0.0
 10
-9.352365809855021
 20
14.173244589859
 30
0.0
 10
-8.966984612874029
 20
13.93161615359811
 30
0.0
 10
-8.570918551841345
 20
13.70690934991142
 30
0.0
 10
-8.056450299951678
 20
13.41502744470858
 30
0.0
 10
-7.352093970878201
 20
12.8701526008123
 30
0.0
 10
-6.810861616426195
 20
12.80817170469406
 30
0.0
 10
-6.466514594211361
 20
12.76870519164166
 30
0.0
 10
-5.776393131240724
 20
12.70266187618774
 30
0.0
 10
-4.738946872027469
 20
12.63183501821013
 30
0.0
 10
-4.046498766117821
 20
12.59905476434655
 30
0.0
 10
-3.700167705570294
 20
12.58551883316714
 30
0.0
  0
SPLINE
  5
A7
330
1F
100
AcDbEntity
  8
Layer 01
370
    -3
100
AcDbSpline
210
0.0
220
0.0
230
1.0
 70
     8
 71
     3
 72
    59
 73
    55
 74
     0
 42
0.000000001
 43
0.0000000001
 40
-10.0
 40
-10.0
 40
-10.0
 40
-10.0
 40
-9.0
 40
-8.0
 40
-7.0
 40
-7.0
 40
-7.0
 40
-6.0
 40
-5.0
 40
-4.0
 40
-3.0
 40
-3.0
 40
-3.0
 40
-2.0
 40
-1.0
 40
0.0
 40
0.0
 40
0.0
 40
1.0
 40
2.0
 40
3.0
 40
4.0
 40
4.0
 40
4.0
 40
5.0
 40
6.0
 40
7.0
 40
7.0
 40
7.0
 40
8.0
 40
9.0
 40
10.0
 40
10.0
 40
10.0
 40
11.0
 40
12.0
 40
13.0
 40
14.0
 40
14.0
 40
14.0
 40
15.0
 40
16.0
 40
17.0
 40
17.0
 40
17.0
 40
18.0
 40
19.0
 40
20.0
 40
21.0
 40
21.0
 40
21.0
 40
22.0
 40
23.0
 40
24.0
 40
24.0
 40
24.0
 40
24.0
 10
-8.295343099604821
 20
15.60466703506118
 30
0.0
 10
-8.471953803219833
 20
16.32050198982803
 30
0.0
 10
-8.835111857549379
 20
17.74962100066893
 30
0.0
 10
-9.401485854315723
 20
19.88797507946408
 30
0.0
 10
-9.832986134355991
 20
21.29837027541579
 30
0.0
 10
-10.01778247664541
 20
22.01218987713931
 30
0.0
 10
-10.08335471119159
 20
22.2654781498833
 30
0.0
 10
-10.20162997437572
 20
22.77423313016079
 30
0.0
 10
-10.30751764122971
 20
23.55679220132983
 30
0.0
 10
-10.19331314167491
 20
24.33859002022685
 30
0.0
 10
-10.0684770270361
 20
24.84567362488253
 30
0.0
 10
-9.994997807295391
 20
25.09686355863175
 30
0.0
 10
-9.869257443790701
 20
25.52670908080511
 30
0.0
 10
-9.572049531843362
 20
26.37247937226902
 30
0.0
 10
-9.051672739926317
 20
27.61077801106797
 30
0.0
 10
-8.750149959413449
 20
28.45601025290155
 30
0.0
 10
-8.536922267057406
 20
28.85073806848357
 30
0.0
 10
-8.427968682667682
 20
29.05243330745922
 30
0.0
 10
-8.157951289385664
 20
29.43244561927432
 30
0.0
 10
-7.579798176002697
 20
29.82986946938021
 30
0.0
 10
-6.904062028322926
 20
29.99867115111157
 30
0.0
 10
-6.445556421836045
 20
30.03459262495012
 30
0.0
 10
-6.215765660408721
 20
30.0391864849219
 30
0.0
 10
-5.515762703071118
 20
30.05318058784346
 30
0.0
 10
-4.115417630846935
 20
30.03897060744579
 30
0.0
 10
-2.015025056607101
 20
30.041162095955
 30
0.0
 10
-0.6147355415265565
 20
30.04167294175621
 30
0.0
 10
0.0854037124446165
 20
30.0418423331414
 30
0.0
 10
0.7855429664157896
 20
30.04167294175621
 30
0.0
 10
2.185832481496334
 20
30.041162095955
 30
0.0
 10
4.286225055736168
 20
30.03897060744579
 30
0.0
 10
5.686570127960351
 20
30.05318058784346
 30
0.0
 10
6.386573085297954
 20
30.0391864849219
 30
0.0
 10
6.616363846725307
 20
30.03459262495012
 30
0.0
 10
7.074869453212187
 20
29.99867115111157
 30
0.0
 10
7.75060560089193
 20
29.82986946938021
 30
0.0
 10
8.32875871427487
 20
29.43244561927432
 30
0.0
 10
8.598776107556915
 20
29.05243330745922
 30
0.0
 10
8.70772969194664
 20
28.85073806848357
 30
0.0
 10
8.920957384302682
 20
28.45601025290155
 30
0.0
 10
9.22248016481555
 20
27.61077801106797
 30
0.0
 10
9.742856956732595
 20
26.37247937226902
 30
0.0
 10
10.04006486867993
 20
25.52670908080511
 30
0.0
 10
10.16580523218462
 20
25.09686355863175
 30
0.0
 10
10.23928445192533
 20
24.84567362488253
 30
0.0
 10
10.36412056656414
 20
24.33859002022685
 30
0.0
 10
10.47832506611897
 20
23.55679220132983
 30
0.0
 10
10.37243739926495
 20
22.77423313016079
 30
0.0
 10
10.25416213608085
 20
22.2654781498833
 30
0.0
 10
10.18858990153464
 20
22.01218987713931
 30
0.0
 10
10.00379355924522
 20
21.29837027541579
 30
0.0
 10
9.572293279204956
 20
19.88797507946408
 30
0.0
 10
9.005919282438612
 20
17.74962100066893
 30
0.0
 10
8.642761228109038
 20
16.32050198982803
 30
0.0
 10
8.466150524494054
 20
15.60466703506118
 30
0.0
  0
SPLINE
  5
A8
330
1F
100
AcDbEntity
  8
Layer 01
370
    -3
100
AcDbSpline
210
0.0
220
0.0
230
1.0
 70
    11
 71
     3
 72
    55
 73
    51
 74
     0
 42
0.000000001
 43
0.0000000001
 40
-12.0
 40
-12.0
 40
-12.0
 40
-12.0
 40
-11.0
 40
-10.0
 40
-9.0
 40
-8.0
 40
-8.0
 40
-8.0
 40
-7.0
 40
-7.0
 40
-7.0
 40
-6.0
 40
-5.0
 40
-4.0
 40
-3.0
 40
-3.0
 40
-3.0
 40
-2.0
 40
-1.0
 40
0.0
 40
0.0
 40
0.0
 40
1.0
 40
2.0
 40
3.0
 40
3.0
 40
3.0
 40
4.0
 40
5.0
 40
6.0
 40
7.0
 40
7.0
 40
7.0
 40
8.0
 40
8.0
 40
8.0
 40
9.0
 40
10.0
 40
11.0
 40
12.0
 40
12.0
 40
12.0
 40
13.0
 40
14.0
 40
15.0
 40
15.0
 40
15.0
 40
16.0
 40
17.0
 40
18.0
 40
18.0
 40
18.0
 40
18.0
 10
9.172401382786603
 20
15.62044060184069
 30
0.0
 10
9.272515520204962
 20
15.62226311157425
 30
0.0
 10
9.47377030611807
 20
15.62085019467223
 30
0.0
 10
9.770190149197532
 20
15.5743078363736
 30
0.0
 10
10.06118716743214
 20
15.47627675939415
 30
0.0
 10
10.19168965841322
 20
15.30803269544857
 30
0.0
 10
10.20802788384182
 20
15.20729595089631
 30
0.0
 10
10.21020533362005
 20
15.19387042907053
 30
0.0
 10
10.20408182298777
 20
15.17434484360799
 30
0.0
 10
10.19807385578073
 20
15.16126815925769
 30
0.0
 10
9.989475057407162
 20
14.70724094036956
 30
0.0
 10
9.119168639851154
 20
14.14538810243069
 30
0.0
 10
7.670040849621358
 20
13.87235837139754
 30
0.0
 10
6.203626093475719
 20
13.76500668767374
 30
0.0
 10
5.22503454697798
 20
13.71813395055281
 30
0.0
 10
4.735403384444822
 20
13.7011814000094
 30
0.0
 10
4.218902190708576
 20
13.68329852558768
 30
0.0
 10
3.185846350070477
 20
13.64892038680074
 30
0.0
 10
1.635820430545351
 20
13.61232050888383
 30
0.0
 10
0.6022169602784686
 20
13.60210104474237
 30
0.0
 10
0.0854037124446165
 20
13.60209569873386
 30
0.0
 10
-0.4314095353892355
 20
13.60210104474237
 30
0.0
 10
-1.465013005656118
 20
13.61232050888383
 30
0.0
 10
-3.015038925181244
 20
13.64892038680074
 30
0.0
 10
-4.048094765819343
 20
13.68329852558768
 30
0.0
 10
-4.564595959555589
 20
13.7011814000094
 30
0.0
 10
-5.054227122088747
 20
13.71813395055281
 30
0.0
 10
-6.032818668586486
 20
13.76500668767374
 30
0.0
 10
-7.499233424732125
 20
13.87235837139754
 30
0.0
 10
-8.94836121496192
 20
14.14538810243069
 30
0.0
 10
-9.81866763251793
 20
14.70724094036956
 30
0.0
 10
-10.0272664308915
 20
15.16126815925769
 30
0.0
 10
-10.03327439809851
 20
15.17434484360799
 30
0.0
 10
-10.03939790873082
 20
15.19387042907053
 30
0.0
 10
-10.03722045895259
 20
15.20729595089631
 30
0.0
 10
-10.02088223352399
 20
15.30803269544857
 30
0.0
 10
-9.890379742542905
 20
15.47627675939415
 30
0.0
 10
-9.59938272430827
 20
15.5743078363736
 30
0.0
 10
-9.302962881228837
 20
15.62085019467223
 30
0.0
 10
-9.101708095315729
 20
15.62226311157425
 30
0.0
 10
-9.00159395789737
 20
15.62044060184069
 30
0.0
 10
-7.991726662587382
 20
15.6025837666425
 30
0.0
 10
-5.973164766318604
 20
15.53009290233449
 30
0.0
 10
-2.94463637792586
 20
15.44071871593026
 30
0.0
 10
-0.9244798932346328
 20
15.44596708479016
 30
0.0
 10
0.0854037124446165
 20
15.44349309709695
 30
0.0
 10
1.095287318123866
 20
15.44596708479016
 30
0.0
 10
3.115443802815093
 20
15.44071871593026
 30
0.0
 10
6.143972191207837
 20
15.53009290233449
 30
0.0
 10
8.162534087476615
 20
15.6025837666425
 30
0.0
 10
9.172401382786603
 20
15.62044060184069
 30
0.0
  0
SPLINE
  5
A9
330
1F
100
AcDbEntity
  8
Layer 01
370
    -3
100
AcDbSpline
210
0.0
220
0.0
230
1.0
 70
     8
 71
     3
 72
    39
 73
    35
 74
     0
 42
0.000000001
 43
0.0000000001
 40
-11.0
 40
-11.0
 40
-11.0
 40
-11.0
 40
-10.0
 40
-9.0
 40
-8.0
 40
-7.0
 40
-7.0
 40
-7.0
 40
-6.0
 40
-5.0
 40
-4.0
 40
-3.0
 40
-2.0
 40
-1.0
 40
0.0
 40
0.0
 40
0.0
 40
1.0
 40
2.0
 40
3.0
 40
4.0
 40
5.0
 40
5.0
 40
5.0
 40
5.328092411243431
 40
5.328092411243431
 40
5.328092411243431
 40
6.328092411243431
 40
7.32809241124343
 40
8.32809241124343
 40
9.32809241124343
 40
10.32809241124343
 40
11.32809241124343
 40
12.32809241124343
 40
12.32809241124343
 40
12.32809241124343
 40
12.32809241124343
 10
8.668182708308422
 20
14.09337534578862
 30
0.0
 10
8.87810934510756
 20
14.11716501446426
 30
0.0
 10
9.307663842350195
 20
14.12686819801724
 30
0.0
 10
9.902716459805987
 20
14.38506816332648
 30
0.0
 10
10.35658053618826
 20
14.84627505081601
 30
0.0
 10
10.52856377881719
 20
15.24149761710584
 30
0.0
 10
10.57600484641463
 20
15.44813477749063
 30
0.0
 10
10.66425942618548
 20
15.83254172021701
 30
0.0
 10
10.83312431799189
 20
16.60307423029363
 30
0.0
 10
11.0786160881286
 20
17.76054643942151
 30
0.0
 10
11.33151419475726
 20
18.9164097954521
 30
0.0
 10
11.60169413431353
 20
20.06849841399882
 30
0.0
 10
11.90811653694925
 20
21.21139078785618
 30
0.0
 10
12.22389603034142
 20
22.35170739061607
 30
0.0
 10
12.59101986833778
 20
23.06365233557413
 30
0.0
 10
12.87685482621109
 20
23.3407027475339
 30
0.0
 10
12.88597038289615
 20
23.3495381564483
 30
0.0
 10
12.90292747462323
 20
23.36848443959109
 30
0.0
 10
12.92671914526107
 20
23.39826721369643
 30
0.0
 10
12.94146295141243
 20
23.43462771384148
 30
0.0
 10
12.93403341225681
 20
23.47318965884093
 30
0.0
 10
12.92207876649601
 20
23.4956322910866
 30
0.0
 10
12.91466800263541
 20
23.5059875739261
 30
0.0
 10
12.85279659500074
 20
23.59244234941032
 30
0.0
 10
12.79039246002495
 20
23.67980744750221
 30
0.0
 10
12.72806526269008
 20
23.76718921491682
 30
0.0
 10
12.65091894850261
 20
23.85669316832177
 30
0.0
 10
12.43248715842762
 20
23.95051810530311
 30
0.0
 10
12.09829005238774
 20
24.04623669774678
 30
0.0
 10
11.75604252569173
 20
24.11789639771762
 30
0.0
 10
11.41184888924695
 20
24.17462927083826
 30
0.0
 10
11.06682489265083
 20
24.22949434918445
 30
0.0
 10
10.71820502692023
 20
24.25077020568373
 30
0.0
 10
10.48546826704592
 20
24.23798104508471
 30
0.0
 10
10.36927207409141
 20
24.23349608165024
 30
0.0
  0
SPLINE
  5
AA
330
1F
100
AcDbEntity
  8
Layer 01
370
    -3
100
AcDbSpline
210
0.0
220
0.0
230
1.0
 70
     8
 71
     3
 72
    22
 73
    18
 74
     0
 42
0.000000001
 43
0.0000000001
 40
-6.0
 40
-6.0
 40
-6.0
 40
-6.0
 40
-5.0
 40
-4.0
 40
-3.0
 40
-2.0
 40
-1.0
 40
0.0
 40
0.0
 40
0.0
 40
1.0
 40
2.0
 40
3.0
 40
4.0
 40
5.0
 40
6.0
 40
7.0
 40
7.0
 40
7.0
 40
7.0
 10
12.72806232240433
 20
23.767187117829
 30
0.0
 10
12.73602233819091
 20
23.75592789717532
 30
0.0
 10
12.74978857588667
 20
23.73127049184591
 30
0.0
 10
12.75193940305715
 20
23.68840750914291
 30
0.0
 10
12.73252612799487
 20
23.65068420191773
 30
0.0
 10
12.70714233283107
 20
23.61792135630358
 30
0.0
 10
12.67925674922637
 20
23.58707922864981
 30
0.0
 10
12.66048519321657
 20
23.56672998233533
 30
0.0
 10
12.6506248825842
 20
23.55701077220781
 30
0.0
 10
12.35298517032723
 20
23.26363026792467
 30
0.0
 10
11.95030023685592
 20
22.52416889733912
 30
0.0
 10
11.61433113561307
 20
21.32442177280642
 30
0.0
 10
11.29213556277418
 20
20.12248600863772
 30
0.0
 10
11.00863093789772
 20
18.91035986491435
 30
0.0
 10
10.74673592769071
 20
17.69343788856317
 30
0.0
 10
10.48127677819454
 20
16.47810531762922
 30
0.0
 10
10.32276717586242
 20
15.66176220808627
 30
0.0
 10
10.19073966293323
 20
15.26897758850879
 30
0.0
  0
SPLINE
  5
AB
330
1F
100
AcDbEntity
  8
Layer 01
370
    -3
100
AcDbSpline
210
0.0
220
0.0
230
1.0
 70
     8
 71
     2
 72
     6
 73
     3
 74
     0
 42
0.000000001
 43
0.0000000001
 40
0.0
 40
0.0
 40
0.0
 40
1.0
 40
1.0
 40
1.0
 10
8.741725976730578
 20
13.70690934991142
 30
0.0
 10
9.335825068279604
 20
14.04396955544145
 30
0.0
 10
9.897869567673553
 20
14.43179465869409
 30
0.0
  0
SPLINE
  5
AC
330
1F
100
AcDbEntity
  8
Layer 01
370
    -3
100
AcDbSpline
210
0.0
220
0.0
230
1.0
 70
     8
 71
     3
 72
    39
 73
    35
 74
     0
 42
0.000000001
 43
0.0000000001
 40
-11.0
 40
-11.0
 40
-11.0
 40
-11.0
 40
-10.0
 40
-9.0
 40
-8.0
 40
-7.0
 40
-7.0
 40
-7.0
 40
-6.0
 40
-5.0
 40
-4.0
 40
-3.0
 40
-2.0
 40
-1.0
 40
0.0
 40
0.0
 40
0.0
 40
1.0
 40
2.0
 40
3.0
 40
4.0
 40
5.0
 40
5.0
 40
5.0
 40
5.328092411243431
 40
5.328092411243431
 40
5.328092411243431
 40
6.328092411243431
 40
7.32809241124343
 40
8.32809241124343
 40
9.32809241124343
 40
10.32809241124343
 40
11.32809241124343
 40
12.32809241124343
 40
12.32809241124343
 40
12.32809241124343
 40
12.32809241124343
 10
-8.497375283419188
 20
14.09337534578862
 30
0.0
 10
-8.707301920218327
 20
14.11716501446426
 30
0.0
 10
-9.136856417460962
 20
14.12686819801724
 30
0.0
 10
-9.731909034916754
 20
14.38506816332648
 30
0.0
 10
-10.18577311129903
 20
14.84627505081601
 30
0.0
 10
-10.35775635392795
 20
15.24149761710584
 30
0.0
 10
-10.4051974215254
 20
15.44813477749063
 30
0.0
 10
-10.49345200129625
 20
15.83254172021701
 30
0.0
 10
-10.66231689310266
 20
16.60307423029363
 30
0.0
 10
-10.90780866323936
 20
17.76054643942151
 30
0.0
 10
-11.16070676986803
 20
18.9164097954521
 30
0.0
 10
-11.4308867094243
 20
20.06849841399882
 30
0.0
 10
-11.73730911206002
 20
21.21139078785618
 30
0.0
 10
-12.0530886054522
 20
22.35170739061607
 30
0.0
 10
-12.42021244344855
 20
23.06365233557413
 30
0.0
 10
-12.70604740132184
 20
23.3407027475339
 30
0.0
 10
-12.7151629580069
 20
23.3495381564483
 30
0.0
 10
-12.73212004973401
 20
23.36848443959109
 30
0.0
 10
-12.75591172037184
 20
23.39826721369643
 30
0.0
 10
-12.7706555265232
 20
23.43462771384148
 30
0.0
 10
-12.76322598736758
 20
23.47318965884093
 30
0.0
 10
-12.75127134160677
 20
23.4956322910866
 30
0.0
 10
-12.74386057774616
 20
23.5059875739261
 30
0.0
 10
-12.68198917011149
 20
23.59244234941032
 30
0.0
 10
-12.6195850351357
 20
23.67980744750221
 30
0.0
 10
-12.55725783780086
 20
23.76718921491682
 30
0.0
 10
-12.4801115236134
 20
23.85669316832177
 30
0.0
 10
-12.26167973353839
 20
23.95051810530311
 30
0.0
 10
-11.92748262749851
 20
24.04623669774678
 30
0.0
 10
-11.58523510080249
 20
24.11789639771762
 30
0.0
 10
-11.24104146435772
 20
24.17462927083826
 30
0.0
 10
-10.8960174677616
 20
24.22949434918445
 30
0.0
 10
-10.54739760203097
 20
24.25077020568373
 30
0.0
 10
-10.31466084215668
 20
24.23798104508471
 30
0.0
 10
-10.19846464920218
 20
24.23349608165024
 30
0.0
  0
SPLINE
  5
AD
330
1F
100
AcDbEntity
  8
Layer 01
370
    -3
100
AcDbSpline
210
0.0
220
0.0
230
1.0
 70
     8
 71
     3
 72
    22
 73
    18
 74
     0
 42
0.000000001
 43
0.0000000001
 40
-6.0
 40
-6.0
 40
-6.0
 40
-6.0
 40
-5.0
 40
-4.0
 40
-3.0
 40
-2.0
 40
-1.0
 40
0.0
 40
0.0
 40
0.0
 40
1.0
 40
2.0
 40
3.0
 40
4.0
 40
5.0
 40
6.0
 40
7.0
 40
7.0
 40
7.0
 40
7.0
 10
-12.55725489751508
 20
23.767187117829
 30
0.0
 10
-12.56521491330166
 20
23.75592789717532
 30
0.0
 10
-12.57898115099744
 20
23.73127049184591
 30
0.0
 10
-12.58113197816792
 20
23.68840750914291
 30
0.0
 10
-12.56171870310565
 20
23.65068420191773
 30
0.0
 10
-12.53633490794184
 20
23.61792135630358
 30
0.0
 10
-12.50844932433716
 20
23.58707922864981
 30
0.0
 10
-12.48967776832734
 20
23.56672998233533
 30
0.0
 10
-12.47981745769495
 20
23.55701077220781
 30
0.0
 10
-12.182177745438
 20
23.26363026792467
 30
0.0
 10
-11.77949281196669
 20
22.52416889733912
 30
0.0
 10
-11.44352371072384
 20
21.32442177280642
 30
0.0
 10
-11.12132813788494
 20
20.12248600863772
 30
0.0
 10
-10.83782351300849
 20
18.91035986491435
 30
0.0
 10
-10.57592850280147
 20
17.69343788856317
 30
0.0
 10
-10.31046935330531
 20
16.47810531762922
 30
0.0
 10
-10.15195975097319
 20
15.66176220808627
 30
0.0
 10
-10.01993223804399
 20
15.26897758850879
 30
0.0
  0
SPLINE
  5
AE
330
1F
100
AcDbEntity
  8
Layer 01
370
    -3
100
AcDbSpline
210
0.0
220
0.0
230
1.0
 70
    28
 71
     2
 72
     6
 73
     3
 74
     0
 42
0.000000001
 43
0.0000000001
 40
0.0
 40
0.0
 40
0.0
 40
2.188926367321351
 40
2.188926367321351
 40
2.188926367321351
 10
0.5992288360178009
 20
8.65833353882785
 30
0.0
 41
1.0
 10
0.5992288360178009
 20
9.752796722488526
 30
0.0
 41
1.0
 10
0.5992288360178009
 20
10.8472599061492
 30
0.0
 41
1.0
  0
SPLINE
  5
AF
330
1F
100
AcDbEntity
  8
Layer 01
370
    -3
100
AcDbSpline
210
0.0
220
0.0
230
1.0
 70
    28
 71
     2
 72
     6
 73
     3
 74
     0
 42
0.000000001
 43
0.0000000001
 40
0.0
 40
0.0
 40
0.0
 40
2.188926367321351
 40
2.188926367321351
 40
2.188926367321351
 10
-0.5031333687065853
 20
8.65833353882785
 30
0.0
 41
1.0
 10
-0.5031333687065853
 20
9.752796722488526
 30
0.0
 41
1.0
 10
-0.5031333687065853
 20
10.8472599061492
 30
0.0
 41
1.0
  0
SPLINE
  5
B0
330
1F
100
AcDbEntity
  8
Layer 01
370
    -3
100
AcDbSpline
210
0.0
220
0.0
230
1.0
 70
     8
 71
     3
 72
     8
 73
     4
 74
     0
 42
0.000000001
 43
0.0000000001
 40
0.0
 40
0.0
 40
0.0
 40
0.0
 40
0.012603904707568
 40
0.012603904707568
 40
0.012603904707568
 40
0.012603904707568
 10
-1.211724312340209
 20
6.974091556770006
 30
0.0
 10
-1.209595218960374
 20
6.975076266630126
 30
0.0
 10
-1.207458865828926
 20
6.9760698247173
 30
0.0
 10
-1.20531941537331
 20
6.977068339258835
 30
0.0
  0
LINE
  5
B1
330
1F
100
AcDbEntity
  8
Layer 01
370
    -3
100
AcDbLine
 10
1.051905516582792
 20
8.547396284486771
 30
0.0
 11
0.9409710609762101
 21
8.658331409097228
 31
0.0
  0
LINE
  5
B2
330
1F
100
AcDbEntity
  8
Layer 01
370
    -3
100
AcDbLine
 10
-0.8884612274374035
 20
8.547396284486773
 30
0.0
 11
1.051905516582792
 21
8.547396284486771
 31
0.0
  0
LINE
  5
B3
330
1F
100
AcDbEntity
  8
Layer 01
370
    -3
100
AcDbLine
 10
-0.7775267718308214
 20
8.658331409097228
 30
0.0
 11
-0.8884612274374035
 21
8.547396284486773
 31
0.0
  0
LINE
  5
B4
330
1F
100
AcDbEntity
  8
Layer 01
370
    -3
100
AcDbLine
 10
0.9409710609762101
 20
8.658331409097228
 30
0.0
 11
-0.7775267718308214
 21
8.658331409097228
 31
0.0
  0
LINE
  5
B5
330
1F
100
AcDbEntity
  8
Layer 01
100
AcDbLine
 10
-11.6027570096241
 20
2.66
 30
0.0
 11
-11.6027570096241
 21
0.764632751400999
 31
0.0
  0
LINE
  5
B6
330
1F
100
AcDbEntity
  8
Layer 01
100
AcDbLine
 10
-12.35303765073837
 20
2.660000000000005
 30
0.0
 11
-11.6027570096241
 21
2.66
 31
0.0
  0
LINE
  5
B7
330
1F
100
AcDbEntity
  8
Layer 01
100
AcDbLine
 10
-12.35303765073837
 20
0.764632751401004
 30
0.0
 11
-12.35303765073837
 21
2.660000000000005
 31
0.0
  0
LINE
  5
B8
330
1F
100
AcDbEntity
  8
Layer 01
100
AcDbLine
 10
-11.6027570096241
 20
0.764632751400999
 30
0.0
 11
-12.35303765073837
 21
0.764632751401004
 31
0.0
  0
SPLINE
  5
B9
330
1F
100
AcDbEntity
  8
Layer 01
370
    -3
100
AcDbSpline
210
0.0
220
0.0
230
1.0
 70
    12
 71
     2
 72
     6
 73
     3
 74
     0
 42
0.000000001
 43
0.0000000001
 40
8.435452881915827
 40
8.435452881915827
 40
8.435452881915827
 40
8.631802422765189
 40
8.631802422765189
 40
8.631802422765189
 10
-11.22576685303
 20
2.559999999999999
 30
0.0
 41
1.0
 10
-11.10076685302995
 20
2.560000000000001
 30
0.0
 41
0.7071067811865476
 10
-11.10076685303
 20
2.434999999999999
 30
0.0
 41
1.0
  0
SPLINE
  5
BA
330
1F
100
AcDbEntity
  8
Layer 01
370
    -3
100
AcDbSpline
210
0.0
220
0.0
230
1.0
 70
    24
 71
     2
 72
     6
 73
     3
 74
     0
 42
0.000000001
 43
0.0000000001
 40
8.091702881915827
 40
8.091702881915827
 40
8.091702881915827
 40
8.435452881915827
 40
8.435452881915827
 40
8.435452881915827
 10
-11.56951685303
 20
2.559999999999999
 30
0.0
 10
-11.39764185303
 20
2.559999999999999
 30
0.0
 10
-11.22576685303
 20
2.559999999999999
 30
0.0
  0
SPLINE
  5
BB
330
1F
100
AcDbEntity
  8
Layer 01
370
    -3
100
AcDbSpline
210
0.0
220
0.0
230
1.0
 70
    28
 71
     2
 72
     8
 73
     5
 74
     0
 42
0.000000001
 43
0.0000000001
 40
4.168639055745573
 40
4.168639055745573
 40
4.168639055745573
 40
6.1301709688307
 40
6.1301709688307
 40
8.091702881915827
 40
8.091702881915827
 40
8.091702881915827
 10
-11.56951685303
 20
0.0
 30
0.0
 41
1.0
 10
-11.56951685302995
 20
0.0
 30
0.0
 41
0.7071067811865476
 10
-11.56951685303
 20
1.280000000000001
 30
0.0
 41
1.0
 10
-11.56951685302995
 20
2.560000000000001
 30
0.0
 41
0.7071067811865476
 10
-11.56951685303
 20
2.559999999999999
 30
0.0
 41
1.0
  0
SPLINE
  5
BC
330
1F
100
AcDbEntity
  8
Layer 01
370
    -3
100
AcDbSpline
210
0.0
220
0.0
230
1.0
 70
    24
 71
     2
 72
     6
 73
     3
 74
     0
 42
0.000000001
 43
0.0000000001
 40
3.824889055745573
 40
3.824889055745573
 40
3.824889055745573
 40
4.168639055745573
 40
4.168639055745573
 40
4.168639055745573
 10
-11.22576685303
 20
0.0
 30
0.0
 10
-11.39764185303
 20
0.0
 30
0.0
 10
-11.56951685303
 20
0.0
 30
0.0
  0
SPLINE
  5
BD
330
1F
100
AcDbEntity
  8
Layer 01
370
    -3
100
AcDbSpline
210
0.0
220
0.0
230
1.0
 70
    12
 71
     2
 72
     6
 73
     3
 74
     0
 42
0.000000001
 43
0.0000000001
 40
3.628539514896211
 40
3.628539514896211
 40
3.628539514896211
 40
3.824889055745573
 40
3.824889055745573
 40
3.824889055745573
 10
-11.10076685303
 20
0.125
 30
0.0
 41
1.0
 10
-11.10076685302995
 20
0.0
 30
0.0
 41
0.7071067811865476
 10
-11.22576685303
 20
0.0
 30
0.0
 41
1.0
  0
SPLINE
  5
BE
330
1F
100
AcDbEntity
  8
Layer 01
370
    -3
100
AcDbSpline
210
0.0
220
0.0
230
1.0
 70
    28
 71
     2
 72
     8
 73
     5
 74
     0
 42
0.000000001
 43
0.0000000001
 40
0.0
 40
0.0
 40
0.0
 40
1.814269757448105
 40
1.814269757448105
 40
3.628539514896211
 40
3.628539514896211
 40
3.628539514896211
 10
-11.10076685303
 20
2.434999999999999
 30
0.0
 41
1.0
 10
-11.10076685302995
 20
2.435
 30
0.0
 41
0.7071067811865476
 10
-11.10076685303
 20
1.280000000000001
 30
0.0
 41
1.0
 10
-11.10076685302995
 20
0.125000000000001
 30
0.0
 41
0.7071067811865476
 10
-11.10076685303
 20
0.125
 30
0.0
 41
1.0
  0
SPLINE
  5
BF
330
1F
100
AcDbEntity
  8
Layer 01
370
    -3
100
AcDbSpline
210
0.0
220
0.0
230
1.0
 70
    12
 71
     2
 72
     6
 73
     3
 74
     0
 42
0.000000001
 43
0.0000000001
 40
8.435452881915827
 40
8.435452881915827
 40
8.435452881915827
 40
8.631802422765189
 40
8.631802422765189
 40
8.631802422765189
 10
-12.72576674331827
 20
2.559999999999999
 30
0.0
 41
1.0
 10
-12.85076674331828
 20
2.560000000000001
 30
0.0
 41
0.7071067811865476
 10
-12.85076674331827
 20
2.434999999999999
 30
0.0
 41
1.0
  0
SPLINE
  5
C0
330
1F
100
AcDbEntity
  8
Layer 01
370
    -3
100
AcDbSpline
210
0.0
220
0.0
230
1.0
 70
    24
 71
     2
 72
     6
 73
     3
 74
     0
 42
0.000000001
 43
0.0000000001
 40
8.091702881915827
 40
8.091702881915827
 40
8.091702881915827
 40
8.435452881915827
 40
8.435452881915827
 40
8.435452881915827
 10
-12.38201674331827
 20
2.559999999999999
 30
0.0
 10
-12.55389174331827
 20
2.559999999999999
 30
0.0
 10
-12.72576674331827
 20
2.559999999999999
 30
0.0
  0
SPLINE
  5
C1
330
1F
100
AcDbEntity
  8
Layer 01
370
    -3
100
AcDbSpline
210
0.0
220
0.0
230
1.0
 70
    28
 71
     2
 72
     8
 73
     5
 74
     0
 42
0.000000001
 43
0.0000000001
 40
4.168639055745573
 40
4.168639055745573
 40
4.168639055745573
 40
6.1301709688307
 40
6.1301709688307
 40
8.091702881915827
 40
8.091702881915827
 40
8.091702881915827
 10
-12.38201674331827
 20
0.0
 30
0.0
 41
1.0
 10
-12.38201674331828
 20
0.0
 30
0.0
 41
0.7071067811865476
 10
-12.38201674331827
 20
1.280000000000001
 30
0.0
 41
1.0
 10
-12.38201674331828
 20
2.560000000000001
 30
0.0
 41
0.7071067811865476
 10
-12.38201674331827
 20
2.559999999999999
 30
0.0
 41
1.0
  0
SPLINE
  5
C2
330
1F
100
AcDbEntity
  8
Layer 01
370
    -3
100
AcDbSpline
210
0.0
220
0.0
230
1.0
 70
    24
 71
     2
 72
     6
 73
     3
 74
     0
 42
0.000000001
 43
0.0000000001
 40
3.824889055745573
 40
3.824889055745573
 40
3.824889055745573
 40
4.168639055745573
 40
4.168639055745573
 40
4.168639055745573
 10
-12.72576674331827
 20
0.0
 30
0.0
 10
-12.55389174331827
 20
0.0
 30
0.0
 10
-12.38201674331827
 20
0.0
 30
0.0
  0
SPLINE
  5
C3
330
1F
100
AcDbEntity
  8
Layer 01
370
    -3
100
AcDbSpline
210
0.0
220
0.0
230
1.0
 70
    12
 71
     2
 72
     6
 73
     3
 74
     0
 42
0.000000001
 43
0.0000000001
 40
3.628539514896211
 40
3.628539514896211
 40
3.628539514896211
 40
3.824889055745573
 40
3.824889055745573
 40
3.824889055745573
 10
-12.85076674331827
 20
0.125
 30
0.0
 41
1.0
 10
-12.85076674331828
 20
0.0
 30
0.0
 41
0.7071067811865476
 10
-12.72576674331827
 20
0.0
 30
0.0
 41
1.0
  0
SPLINE
  5
C4
330
1F
100
AcDbEntity
  8
Layer 01
370
    -3
100
AcDbSpline
210
0.0
220
0.0
230
1.0
 70
    28
 71
     2
 72
     8
 73
     5
 74
     0
 42
0.000000001
 43
0.0000000001
 40
0.0
 40
0.0
 40
0.0
 40
1.814269757448105
 40
1.814269757448105
 40
3.628539514896211
 40
3.628539514896211
 40
3.628539514896211
 10
-12.85076674331827
 20
2.434999999999999
 30
0.0
 41
1.0
 10
-12.85076674331828
 20
2.435
 30
0.0
 41
0.7071067811865476
 10
-12.85076674331827
 20
1.280000000000001
 30
0.0
 41
1.0
 10
-12.85076674331828
 20
0.125000000000001
 30
0.0
 41
0.7071067811865476
 10
-12.85076674331827
 20
0.125
 30
0.0
 41
1.0
  0
LINE
  5
C5
330
1F
100
AcDbEntity
  8
Layer 01
100
AcDbLine
 10
-11.6027570096241
 20
2.559999999999999
 30
0.0
 11
-12.35303765073837
 21
2.559999999999999
 31
0.0
  0
LINE
  5
C6
330
1F
100
AcDbEntity
  8
Layer 01
100
AcDbLine
 10
-6.996477382073067
 20
2.66
 30
0.0
 11
-6.996477382073124
 21
0.764632751400999
 31
0.0
  0
LINE
  5
C7
330
1F
100
AcDbEntity
  8
Layer 01
100
AcDbLine
 10
-7.746758023187397
 20
2.660000000000005
 30
0.0
 11
-6.996477382073067
 21
2.66
 31
0.0
  0
LINE
  5
C8
330
1F
100
AcDbEntity
  8
Layer 01
100
AcDbLine
 10
-7.746758023187397
 20
0.764632751401004
 30
0.0
 11
-7.746758023187397
 21
2.660000000000005
 31
0.0
  0
LINE
  5
C9
330
1F
100
AcDbEntity
  8
Layer 01
100
AcDbLine
 10
-6.996477382073124
 20
0.764632751400999
 30
0.0
 11
-7.746758023187397
 21
0.764632751401004
 31
0.0
  0
SPLINE
  5
CA
330
1F
100
AcDbEntity
  8
Layer 01
370
    -3
100
AcDbSpline
210
0.0
220
0.0
230
1.0
 70
    12
 71
     2
 72
     6
 73
     3
 74
     0
 42
0.000000001
 43
0.0000000001
 40
8.435452881915827
 40
8.435452881915827
 40
8.435452881915827
 40
8.631802422765189
 40
8.631802422765189
 40
8.631802422765189
 10
-6.61948722547902
 20
2.559999999999999
 30
0.0
 41
1.0
 10
-6.494487225478962
 20
2.560000000000001
 30
0.0
 41
0.7071067811865476
 10
-6.49448722547902
 20
2.434999999999999
 30
0.0
 41
1.0
  0
SPLINE
  5
CB
330
1F
100
AcDbEntity
  8
Layer 01
370
    -3
100
AcDbSpline
210
0.0
220
0.0
230
1.0
 70
    24
 71
     2
 72
     6
 73
     3
 74
     0
 42
0.000000001
 43
0.0000000001
 40
8.091702881915827
 40
8.091702881915827
 40
8.091702881915827
 40
8.435452881915827
 40
8.435452881915827
 40
8.435452881915827
 10
-6.96323722547902
 20
2.559999999999999
 30
0.0
 10
-6.79136222547902
 20
2.559999999999999
 30
0.0
 10
-6.61948722547902
 20
2.559999999999999
 30
0.0
  0
SPLINE
  5
CC
330
1F
100
AcDbEntity
  8
Layer 01
370
    -3
100
AcDbSpline
210
0.0
220
0.0
230
1.0
 70
    28
 71
     2
 72
     8
 73
     5
 74
     0
 42
0.000000001
 43
0.0000000001
 40
4.168639055745573
 40
4.168639055745573
 40
4.168639055745573
 40
6.1301709688307
 40
6.1301709688307
 40
8.091702881915827
 40
8.091702881915827
 40
8.091702881915827
 10
-6.96323722547902
 20
0.0
 30
0.0
 41
1.0
 10
-6.96323722547896
 20
0.0
 30
0.0
 41
0.7071067811865476
 10
-6.96323722547902
 20
1.280000000000001
 30
0.0
 41
1.0
 10
-6.96323722547896
 20
2.560000000000001
 30
0.0
 41
0.7071067811865476
 10
-6.96323722547902
 20
2.559999999999999
 30
0.0
 41
1.0
  0
SPLINE
  5
CD
330
1F
100
AcDbEntity
  8
Layer 01
370
    -3
100
AcDbSpline
210
0.0
220
0.0
230
1.0
 70
    24
 71
     2
 72
     6
 73
     3
 74
     0
 42
0.000000001
 43
0.0000000001
 40
3.824889055745573
 40
3.824889055745573
 40
3.824889055745573
 40
4.168639055745573
 40
4.168639055745573
 40
4.168639055745573
 10
-6.61948722547902
 20
0.0
 30
0.0
 10
-6.79136222547902
 20
0.0
 30
0.0
 10
-6.96323722547902
 20
0.0
 30
0.0
  0
SPLINE
  5
CE
330
1F
100
AcDbEntity
  8
Layer 01
370
    -3
100
AcDbSpline
210
0.0
220
0.0
230
1.0
 70
    12
 71
     2
 72
     6
 73
     3
 74
     0
 42
0.000000001
 43
0.0000000001
 40
3.628539514896211
 40
3.628539514896211
 40
3.628539514896211
 40
3.824889055745573
 40
3.824889055745573
 40
3.824889055745573
 10
-6.49448722547902
 20
0.125
 30
0.0
 41
1.0
 10
-6.494487225478962
 20
0.0
 30
0.0
 41
0.7071067811865476
 10
-6.61948722547902
 20
0.0
 30
0.0
 41
1.0
  0
SPLINE
  5
CF
330
1F
100
AcDbEntity
  8
Layer 01
370
    -3
100
AcDbSpline
210
0.0
220
0.0
230
1.0
 70
    28
 71
     2
 72
     8
 73
     5
 74
     0
 42
0.000000001
 43
0.0000000001
 40
0.0
 40
0.0
 40
0.0
 40
1.814269757448105
 40
1.814269757448105
 40
3.628539514896211
 40
3.628539514896211
 40
3.628539514896211
 10
-6.49448722547902
 20
2.434999999999999
 30
0.0
 41
1.0
 10
-6.494487225478962
 20
2.435
 30
0.0
 41
0.7071067811865476
 10
-6.49448722547902
 20
1.280000000000001
 30
0.0
 41
1.0
 10
-6.494487225478962
 20
0.125000000000001
 30
0.0
 41
0.7071067811865476
 10
-6.49448722547902
 20
0.125
 30
0.0
 41
1.0
  0
SPLINE
  5
D0
330
1F
100
AcDbEntity
  8
Layer 01
370
    -3
100
AcDbSpline
210
0.0
220
0.0
230
1.0
 70
    12
 71
     2
 72
     6
 73
     3
 74
     0
 42
0.000000001
 43
0.0000000001
 40
8.435452881915827
 40
8.435452881915827
 40
8.435452881915827
 40
8.631802422765189
 40
8.631802422765189
 40
8.631802422765189
 10
-8.1194871157673
 20
2.559999999999999
 30
0.0
 41
1.0
 10
-8.244487115767285
 20
2.560000000000001
 30
0.0
 41
0.7071067811865476
 10
-8.2444871157673
 20
2.434999999999999
 30
0.0
 41
1.0
  0
SPLINE
  5
D1
330
1F
100
AcDbEntity
  8
Layer 01
370
    -3
100
AcDbSpline
210
0.0
220
0.0
230
1.0
 70
    24
 71
     2
 72
     6
 73
     3
 74
     0
 42
0.000000001
 43
0.0000000001
 40
8.091702881915827
 40
8.091702881915827
 40
8.091702881915827
 40
8.435452881915827
 40
8.435452881915827
 40
8.435452881915827
 10
-7.775737115767299
 20
2.559999999999999
 30
0.0
 10
-7.947612115767299
 20
2.559999999999999
 30
0.0
 10
-8.1194871157673
 20
2.559999999999999
 30
0.0
  0
SPLINE
  5
D2
330
1F
100
AcDbEntity
  8
Layer 01
370
    -3
100
AcDbSpline
210
0.0
220
0.0
230
1.0
 70
    28
 71
     2
 72
     8
 73
     5
 74
     0
 42
0.000000001
 43
0.0000000001
 40
4.168639055745573
 40
4.168639055745573
 40
4.168639055745573
 40
6.1301709688307
 40
6.1301709688307
 40
8.091702881915827
 40
8.091702881915827
 40
8.091702881915827
 10
-7.775737115767299
 20
0.0
 30
0.0
 41
1.0
 10
-7.775737115767287
 20
0.0
 30
0.0
 41
0.7071067811865476
 10
-7.775737115767299
 20
1.280000000000001
 30
0.0
 41
1.0
 10
-7.775737115767287
 20
2.560000000000001
 30
0.0
 41
0.7071067811865476
 10
-7.775737115767299
 20
2.559999999999999
 30
0.0
 41
1.0
  0
SPLINE
  5
D3
330
1F
100
AcDbEntity
  8
Layer 01
370
    -3
100
AcDbSpline
210
0.0
220
0.0
230
1.0
 70
    24
 71
     2
 72
     6
 73
     3
 74
     0
 42
0.000000001
 43
0.0000000001
 40
3.824889055745573
 40
3.824889055745573
 40
3.824889055745573
 40
4.168639055745573
 40
4.168639055745573
 40
4.168639055745573
 10
-8.1194871157673
 20
0.0
 30
0.0
 10
-7.947612115767299
 20
0.0
 30
0.0
 10
-7.775737115767299
 20
0.0
 30
0.0
  0
SPLINE
  5
D4
330
1F
100
AcDbEntity
  8
Layer 01
370
    -3
100
AcDbSpline
210
0.0
220
0.0
230
1.0
 70
    12
 71
     2
 72
     6
 73
     3
 74
     0
 42
0.000000001
 43
0.0000000001
 40
3.628539514896211
 40
3.628539514896211
 40
3.628539514896211
 40
3.824889055745573
 40
3.824889055745573
 40
3.824889055745573
 10
-8.2444871157673
 20
0.125
 30
0.0
 41
1.0
 10
-8.244487115767285
 20
0.0
 30
0.0
 41
0.7071067811865476
 10
-8.1194871157673
 20
0.0
 30
0.0
 41
1.0
  0
SPLINE
  5
D5
330
1F
100
AcDbEntity
  8
Layer 01
370
    -3
100
AcDbSpline
210
0.0
220
0.0
230
1.0
 70
    28
 71
     2
 72
     8
 73
     5
 74
     0
 42
0.000000001
 43
0.0000000001
 40
0.0
 40
0.0
 40
0.0
 40
1.814269757448105
 40
1.814269757448105
 40
3.628539514896211
 40
3.628539514896211
 40
3.628539514896211
 10
-8.2444871157673
 20
2.434999999999999
 30
0.0
 41
1.0
 10
-8.244487115767285
 20
2.435
 30
0.0
 41
0.7071067811865476
 10
-8.2444871157673
 20
1.280000000000001
 30
0.0
 41
1.0
 10
-8.244487115767285
 20
0.125000000000001
 30
0.0
 41
0.7071067811865476
 10
-8.2444871157673
 20
0.125
 30
0.0
 41
1.0
  0
LINE
  5
D6
330
1F
100
AcDbEntity
  8
Layer 01
100
AcDbLine
 10
-6.996477382073067
 20
2.559999999999999
 30
0.0
 11
-7.746758023187397
 21
2.559999999999999
 31
0.0
  0
LINE
  5
D7
330
1F
100
AcDbEntity
  8
Layer 01
100
AcDbLine
 10
0.4566395621400829
 20
2.66
 30
0.0
 11
0.4566395621400261
 21
0.764632751400999
 31
0.0
  0
LINE
  5
D8
330
1F
100
AcDbEntity
  8
Layer 01
100
AcDbLine
 10
-0.2936410789742467
 20
2.660000000000005
 30
0.0
 11
0.4566395621400829
 21
2.66
 31
0.0
  0
LINE
  5
D9
330
1F
100
AcDbEntity
  8
Layer 01
100
AcDbLine
 10
-0.2936410789742467
 20
0.764632751401004
 30
0.0
 11
-0.2936410789742467
 21
2.660000000000005
 31
0.0
  0
LINE
  5
DA
330
1F
100
AcDbEntity
  8
Layer 01
100
AcDbLine
 10
0.4566395621400261
 20
0.764632751400999
 30
0.0
 11
-0.2936410789742467
 21
0.764632751401004
 31
0.0
  0
SPLINE
  5
DB
330
1F
100
AcDbEntity
  8
Layer 01
370
    -3
100
AcDbSpline
210
0.0
220
0.0
230
1.0
 70
    12
 71
     2
 72
     6
 73
     3
 74
     0
 42
0.000000001
 43
0.0000000001
 40
8.435452881915827
 40
8.435452881915827
 40
8.435452881915827
 40
8.631802422765189
 40
8.631802422765189
 40
8.631802422765189
 10
0.8336297187341302
 20
2.559999999999999
 30
0.0
 41
1.0
 10
0.9586297187341938
 20
2.560000000000001
 30
0.0
 41
0.7071067811865476
 10
0.9586297187341302
 20
2.434999999999999
 30
0.0
 41
1.0
  0
SPLINE
  5
DC
330
1F
100
AcDbEntity
  8
Layer 01
370
    -3
100
AcDbSpline
210
0.0
220
0.0
230
1.0
 70
    24
 71
     2
 72
     6
 73
     3
 74
     0
 42
0.000000001
 43
0.0000000001
 40
8.091702881915827
 40
8.091702881915827
 40
8.091702881915827
 40
8.435452881915827
 40
8.435452881915827
 40
8.435452881915827
 10
0.4898797187341302
 20
2.559999999999999
 30
0.0
 10
0.6617547187341302
 20
2.559999999999999
 30
0.0
 10
0.8336297187341302
 20
2.559999999999999
 30
0.0
  0
SPLINE
  5
DD
330
1F
100
AcDbEntity
  8
Layer 01
370
    -3
100
AcDbSpline
210
0.0
220
0.0
230
1.0
 70
    28
 71
     2
 72
     8
 73
     5
 74
     0
 42
0.000000001
 43
0.0000000001
 40
4.168639055745573
 40
4.168639055745573
 40
4.168639055745573
 40
6.1301709688307
 40
6.1301709688307
 40
8.091702881915827
 40
8.091702881915827
 40
8.091702881915827
 10
0.4898797187341302
 20
0.0
 30
0.0
 41
1.0
 10
0.489879718734195
 20
0.0
 30
0.0
 41
0.7071067811865476
 10
0.4898797187341302
 20
1.280000000000001
 30
0.0
 41
1.0
 10
0.489879718734195
 20
2.560000000000001
 30
0.0
 41
0.7071067811865476
 10
0.4898797187341302
 20
2.559999999999999
 30
0.0
 41
1.0
  0
SPLINE
  5
DE
330
1F
100
AcDbEntity
  8
Layer 01
370
    -3
100
AcDbSpline
210
0.0
220
0.0
230
1.0
 70
    24
 71
     2
 72
     6
 73
     3
 74
     0
 42
0.000000001
 43
0.0000000001
 40
3.824889055745573
 40
3.824889055745573
 40
3.824889055745573
 40
4.168639055745573
 40
4.168639055745573
 40
4.168639055745573
 10
0.8336297187341302
 20
0.0
 30
0.0
 10
0.6617547187341302
 20
0.0
 30
0.0
 10
0.4898797187341302
 20
0.0
 30
0.0
  0
SPLINE
  5
DF
330
1F
100
AcDbEntity
  8
Layer 01
370
    -3
100
AcDbSpline
210
0.0
220
0.0
230
1.0
 70
    12
 71
     2
 72
     6
 73
     3
 74
     0
 42
0.000000001
 43
0.0000000001
 40
3.628539514896211
 40
3.628539514896211
 40
3.628539514896211
 40
3.824889055745573
 40
3.824889055745573
 40
3.824889055745573
 10
0.9586297187341302
 20
0.125
 30
0.0
 41
1.0
 10
0.9586297187341938
 20
0.0
 30
0.0
 41
0.7071067811865476
 10
0.8336297187341302
 20
0.0
 30
0.0
 41
1.0
  0
SPLINE
  5
E0
330
1F
100
AcDbEntity
  8
Layer 01
370
    -3
100
AcDbSpline
210
0.0
220
0.0
230
1.0
 70
    28
 71
     2
 72
     8
 73
     5
 74
     0
 42
0.000000001
 43
0.0000000001
 40
0.0
 40
0.0
 40
0.0
 40
1.814269757448105
 40
1.814269757448105
 40
3.628539514896211
 40
3.628539514896211
 40
3.628539514896211
 10
0.9586297187341302
 20
2.434999999999999
 30
0.0
 41
1.0
 10
0.9586297187341938
 20
2.435
 30
0.0
 41
0.7071067811865476
 10
0.9586297187341302
 20
1.280000000000001
 30
0.0
 41
1.0
 10
0.9586297187341938
 20
0.125000000000001
 30
0.0
 41
0.7071067811865476
 10
0.9586297187341302
 20
0.125
 30
0.0
 41
1.0
  0
SPLINE
  5
E1
330
1F
100
AcDbEntity
  8
Layer 01
370
    -3
100
AcDbSpline
210
0.0
220
0.0
230
1.0
 70
    12
 71
     2
 72
     6
 73
     3
 74
     0
 42
0.000000001
 43
0.0000000001
 40
8.435452881915827
 40
8.435452881915827
 40
8.435452881915827
 40
8.631802422765189
 40
8.631802422765189
 40
8.631802422765189
 10
-0.6663701715541492
 20
2.559999999999999
 30
0.0
 41
1.0
 10
-0.79137017155413
 20
2.560000000000001
 30
0.0
 41
0.7071067811865476
 10
-0.7913701715541492
 20
2.434999999999999
 30
0.0
 41
1.0
  0
SPLINE
  5
E2
330
1F
100
AcDbEntity
  8
Layer 01
370
    -3
100
AcDbSpline
210
0.0
220
0.0
230
1.0
 70
    24
 71
     2
 72
     6
 73
     3
 74
     0
 42
0.000000001
 43
0.0000000001
 40
8.091702881915827
 40
8.091702881915827
 40
8.091702881915827
 40
8.435452881915827
 40
8.435452881915827
 40
8.435452881915827
 10
-0.3226201715541492
 20
2.559999999999999
 30
0.0
 10
-0.4944951715541492
 20
2.559999999999999
 30
0.0
 10
-0.6663701715541492
 20
2.559999999999999
 30
0.0
  0
SPLINE
  5
E3
330
1F
100
AcDbEntity
  8
Layer 01
370
    -3
100
AcDbSpline
210
0.0
220
0.0
230
1.0
 70
    28
 71
     2
 72
     8
 73
     5
 74
     0
 42
0.000000001
 43
0.0000000001
 40
4.168639055745573
 40
4.168639055745573
 40
4.168639055745573
 40
6.1301709688307
 40
6.1301709688307
 40
8.091702881915827
 40
8.091702881915827
 40
8.091702881915827
 10
-0.3226201715541492
 20
0.0
 30
0.0
 41
1.0
 10
-0.3226201715541313
 20
0.0
 30
0.0
 41
0.7071067811865476
 10
-0.3226201715541492
 20
1.280000000000001
 30
0.0
 41
1.0
 10
-0.3226201715541313
 20
2.560000000000001
 30
0.0
 41
0.7071067811865476
 10
-0.3226201715541492
 20
2.559999999999999
 30
0.0
 41
1.0
  0
SPLINE
  5
E4
330
1F
100
AcDbEntity
  8
Layer 01
370
    -3
100
AcDbSpline
210
0.0
220
0.0
230
1.0
 70
    24
 71
     2
 72
     6
 73
     3
 74
     0
 42
0.000000001
 43
0.0000000001
 40
3.824889055745573
 40
3.824889055745573
 40
3.824889055745573
 40
4.168639055745573
 40
4.168639055745573
 40
4.168639055745573
 10
-0.6663701715541492
 20
0.0
 30
0.0
 10
-0.4944951715541492
 20
0.0
 30
0.0
 10
-0.3226201715541492
 20
0.0
 30
0.0
  0
SPLINE
  5
E5
330
1F
100
AcDbEntity
  8
Layer 01
370
    -3
100
AcDbSpline
210
0.0
220
0.0
230
1.0
 70
    12
 71
     2
 72
     6
 73
     3
 74
     0
 42
0.000000001
 43
0.0000000001
 40
3.628539514896211
 40
3.628539514896211
 40
3.628539514896211
 40
3.824889055745573
 40
3.824889055745573
 40
3.824889055745573
 10
-0.7913701715541492
 20
0.125
 30
0.0
 41
1.0
 10
-0.79137017155413
 20
0.0
 30
0.0
 41
0.7071067811865476
 10
-0.6663701715541492
 20
0.0
 30
0.0
 41
1.0
  0
SPLINE
  5
E6
330
1F
100
AcDbEntity
  8
Layer 01
370
    -3
100
AcDbSpline
210
0.0
220
0.0
230
1.0
 70
    28
 71
     2
 72
     8
 73
     5
 74
     0
 42
0.000000001
 43
0.0000000001
 40
0.0
 40
0.0
 40
0.0
 40
1.814269757448105
 40
1.814269757448105
 40
3.628539514896211
 40
3.628539514896211
 40
3.628539514896211
 10
-0.7913701715541492
 20
2.434999999999999
 30
0.0
 41
1.0
 10
-0.79137017155413
 20
2.435
 30
0.0
 41
0.7071067811865476
 10
-0.7913701715541492
 20
1.280000000000001
 30
0.0
 41
1.0
 10
-0.79137017155413
 20
0.125000000000001
 30
0.0
 41
0.7071067811865476
 10
-0.7913701715541492
 20
0.125
 30
0.0
 41
1.0
  0
LINE
  5
E7
330
1F
100
AcDbEntity
  8
Layer 01
100
AcDbLine
 10
0.4566395621400829
 20
2.559999999999999
 30
0.0
 11
-0.2936410789742467
 21
2.559999999999999
 31
0.0
  0
ARC
  5
E8
330
1F
100
AcDbEntity
  8
Layer 01
370
    -3
100
AcDbCircle
 10
0.0934969329562136
 20
3.982994175194321
 30
0.0
 40
4.633112867696313
210
0.0
220
0.0
230
-1.0
100
AcDbArc
 50
72.10314667697601
 51
80.12011805216436
  0
LINE
  5
E9
330
1F
100
AcDbEntity
  8
Layer 01
370
    -3
100
AcDbLine
 10
-11.79194969696306
 20
5.073909547141241
 30
0.0
 11
-1.517272698537681
 21
8.39191665287025
 31
0.0
  0
SPLINE
  5
EA
330
1F
100
AcDbEntity
  8
Layer 01
370
    -3
100
AcDbSpline
210
0.0
220
0.0
230
1.0
 70
     8
 71
     3
 72
    13
 73
     9
 74
     0
 42
0.000000001
 43
0.0000000001
 40
14.36894744718309
 40
14.36894744718309
 40
14.36894744718309
 40
14.36894744718309
 40
15.36894744718309
 40
16.36894744718309
 40
17.36894744718309
 40
18.36894744718309
 40
19.36894744718309
 40
20.36894744718309
 40
20.36894744718309
 40
20.36894744718309
 40
20.36894744718309
 10
-12.35195549241035
 20
2.720401741331728
 30
0.0
 10
-12.35089625594793
 20
2.863921167555574
 30
0.0
 10
-12.34911490864715
 20
3.150938915762591
 30
0.0
 10
-12.34585507612206
 20
3.58154844809991
 30
0.0
 10
-12.34727153532128
 20
4.011909374071363
 30
0.0
 10
-12.33529528745959
 20
4.443202222433917
 30
0.0
 10
-12.17506487976067
 20
4.857710051936801
 30
0.0
 10
-11.92893025969516
 20
5.031036596166846
 30
0.0
 10
-11.79194969696306
 20
5.073909547141241
 30
0.0
  0
SPLINE
  5
EB
330
1F
100
AcDbEntity
  8
Layer 01
370
    -3
100
AcDbSpline
210
0.0
220
0.0
230
1.0
 70
     8
 71
     2
 72
     6
 73
     3
 74
     0
 42
0.000000001
 43
0.0000000001
 40
13.36894744718309
 40
13.36894744718309
 40
13.36894744718309
 40
14.36894744718309
 40
14.36894744718309
 40
14.36894744718309
 10
-12.29190475784719
 20
2.659830328322472
 30
0.0
 10
-12.3470776475848
 20
2.665270877645312
 30
0.0
 10
-12.35195549241035
 20
2.720401741331728
 30
0.0
  0
LINE
  5
EC
330
1F
100
AcDbEntity
  8
Layer 01
370
    -3
100
AcDbLine
 10
-11.65910595120334
 20
2.659915164164787
 30
0.0
 11
-12.29190475784719
 21
2.659830328322472
 31
0.0
  0
SPLINE
  5
ED
330
1F
100
AcDbEntity
  8
Layer 01
370
    -3
100
AcDbSpline
210
0.0
220
0.0
230
1.0
 70
     8
 71
     2
 72
     6
 73
     3
 74
     0
 42
0.000000001
 43
0.0000000001
 40
11.73705594933032
 40
11.73705594933032
 40
11.73705594933032
 40
12.73705594933035
 40
12.73705594933035
 40
12.73705594933035
 10
-11.59839660756126
 20
2.715111666803004
 30
0.0
 10
-11.60604968293006
 20
2.664876069705811
 30
0.0
 10
-11.65910595120334
 20
2.659915164164787
 30
0.0
  0
SPLINE
  5
EE
330
1F
100
AcDbEntity
  8
Layer 01
370
    -3
100
AcDbSpline
210
0.0
220
0.0
230
1.0
 70
     8
 71
     3
 72
    20
 73
    16
 74
     0
 42
0.000000001
 43
0.0000000001
 40
10.64315246878003
 40
10.64315246878003
 40
10.64315246878003
 40
10.64315246878003
 40
10.65884610187548
 40
10.65884610187548
 40
10.65884610187548
 40
10.78520189248216
 40
10.78520189248216
 40
10.78520189248216
 40
11.03746817536846
 40
11.03746817536846
 40
11.03746817536846
 40
11.28943212034458
 40
11.28943212034458
 40
11.28943212034458
 40
11.73705594933032
 40
11.73705594933032
 40
11.73705594933032
 40
11.73705594933032
 10
-11.50992065047365
 20
3.805121910747114
 30
0.0
 10
-11.51033799218328
 20
3.799906307816152
 30
0.0
 10
-11.5107507445091
 20
3.794682760860284
 30
0.0
 10
-11.51116481091276
 20
3.789450343889015
 30
0.0
 10
-11.51448560308728
 20
3.747486617349963
 30
0.0
 10
-11.51777422641283
 20
3.705500806684313
 30
0.0
 10
-11.52113344210937
 20
3.663529234540675
 30
0.0
 10
-11.52783819364828
 20
3.579757012586384
 30
0.0
 10
-11.53482683218942
 20
3.495983566599421
 30
0.0
 10
-11.54169371251623
 20
3.412170979404294
 30
0.0
 10
-11.54855023939422
 20
3.328484759539123
 30
0.0
 10
-11.55528341555913
 20
3.24478802148991
 30
0.0
 10
-11.56205625837941
 20
3.161096397951795
 30
0.0
 10
-11.57408428320917
 20
3.012466796959487
 30
0.0
 10
-11.58624175816368
 20
2.863805211807793
 30
0.0
 10
-11.59839660756126
 20
2.715111666803004
 30
0.0
  0
SPLINE
  5
EF
330
1F
100
AcDbEntity
  8
Layer 01
370
    -3
100
AcDbSpline
210
0.0
220
0.0
230
1.0
 70
     8
 71
     3
 72
     8
 73
     4
 74
     0
 42
0.000000001
 43
0.0000000001
 40
9.643152468780027
 40
9.643152468780027
 40
9.643152468780027
 40
9.643152468780027
 40
10.64315246878003
 40
10.64315246878003
 40
10.64315246878003
 40
10.64315246878003
 10
-11.09188625811123
 20
4.400246546201998
 30
0.0
 10
-11.3533296566755
 20
4.325300663654215
 30
0.0
 10
-11.48687165052735
 20
4.093169879354584
 30
0.0
 10
-11.50992065047365
 20
3.805121910747114
 30
0.0
  0
LINE
  5
F0
330
1F
100
AcDbEntity
  8
Layer 01
370
    -3
100
AcDbLine
 10
-2.113210391206223
 20
6.974091556828
 30
0.0
 11
-11.09188625811123
 21
4.400246546201998
 31
0.0
  0
ARC
  5
F1
330
1F
100
AcDbEntity
  8
Layer 01
370
    -3
100
AcDbCircle
 10
2.16744985321634
 20
-7.958688261826865
 30
0.0
 40
15.53421917061188
100
AcDbArc
 50
104.6276282995612
 51
105.9955842303105
  0
SPLINE
  5
F2
330
1F
100
AcDbEntity
  8
Layer 01
370
    -3
100
AcDbSpline
210
0.0
220
0.0
230
1.0
 70
     8
 71
     3
 72
    13
 73
     9
 74
     0
 42
0.000000001
 43
0.0000000001
 40
2.272267781904515
 40
2.272267781904515
 40
2.272267781904515
 40
2.272267781904515
 40
3.272267781904515
 40
4.272267781904515
 40
5.272267781904514
 40
6.272267781904514
 40
7.272267781904514
 40
8.272267781904514
 40
8.272267781904514
 40
8.272267781904514
 40
8.272267781904514
 10
-1.099292241973274
 20
6.685996921938489
 30
0.0
 10
-1.100140411972177
 20
6.735970972659877
 30
0.0
 10
-1.103487705637235
 20
6.836620620342019
 30
0.0
 10
-1.169452021100824
 20
6.979009735206424
 30
0.0
 10
-1.312455958242879
 20
7.04270750397573
 30
0.0
 10
-1.456174503669331
 20
7.082100184670146
 30
0.0
 10
-1.606906013381092
 20
7.095199694486234
 30
0.0
 10
-1.706794868036354
 20
7.083738769174837
 30
0.0
 10
-1.755499143252791
 20
7.072028168593466
 30
0.0
  0
SPLINE
  5
F3
330
1F
100
AcDbEntity
  8
Layer 01
370
    -3
100
AcDbSpline
210
0.0
220
0.0
230
1.0
 70
    28
 71
     3
 72
     8
 73
     4
 74
     0
 42
0.000000001
 43
0.0000000001
 40
2.045966352010521
 40
2.045966352010521
 40
2.045966352010521
 40
2.045966352010521
 40
2.272267781904515
 40
2.272267781904515
 40
2.272267781904515
 40
2.272267781904515
 10
-1.098304805413161
 20
6.459694568349816
 30
0.0
 41
0.9027503392243841
 10
-1.098633946456163
 20
6.535127660244912
 30
0.0
 41
0.9027503392243841
 10
-1.098963087499543
 20
6.610560752134071
 30
0.0
 41
0.9027503392243841
 10
-1.099292241973234
 20
6.685996921938486
 30
0.0
 41
0.9027503392243841
  0
SPLINE
  5
F4
330
1F
100
AcDbEntity
  8
Layer 01
370
    -3
100
AcDbSpline
210
0.0
220
0.0
230
1.0
 70
     8
 71
     2
 72
     6
 73
     3
 74
     0
 42
0.000000001
 43
0.0000000001
 40
1.045966352010521
 40
1.045966352010521
 40
1.045966352010521
 40
2.045966352010521
 40
2.045966352010521
 40
2.045966352010521
 10
-1.02830547176319
 20
6.389999999999993
 30
0.0
 10
-1.092318630180444
 20
6.396175645566775
 30
0.0
 10
-1.098304805413193
 20
6.459694568349816
 30
0.0
  0
SPLINE
  5
F5
330
1F
100
AcDbEntity
  8
Layer 01
370
    -3
100
AcDbSpline
210
0.0
220
0.0
230
1.0
 70
    28
 71
     2
 72
     6
 73
     3
 74
     0
 42
0.000000001
 43
0.0000000001
 40
0.0885416479884135
 40
0.0885416479884135
 40
0.0885416479884135
 40
1.045966352010521
 40
1.045966352010521
 40
1.045966352010521
 10
-0.6384154397150357
 20
6.389999999999985
 30
0.0
 41
0.9831093135182369
 10
-1.028305471763075
 20
6.389999999999989
 30
0.0
 41
0.900232884051384
 10
-1.02830547176319
 20
6.389999999999993
 30
0.0
 41
1.0
  0
SPLINE
  5
F6
330
1F
100
AcDbEntity
  8
Layer 01
370
    -3
100
AcDbSpline
210
0.0
220
0.0
230
1.0
 70
    24
 71
     2
 72
     6
 73
     3
 74
     0
 42
0.000000001
 43
0.0000000001
 40
6.00585141402603
 40
6.00585141402603
 40
6.00585141402603
 40
7.00585141402603
 40
7.00585141402603
 40
7.00585141402603
 10
-7.605236256193905
 20
4.991063899114437
 30
0.0
 10
-6.839488610590877
 20
5.415305698812865
 30
0.0
 10
-6.073740964987792
 20
5.839547498511294
 30
0.0
  0
SPLINE
  5
F7
330
1F
100
AcDbEntity
  8
Layer 01
370
    -3
100
AcDbSpline
210
0.0
220
0.0
230
1.0
 70
     8
 71
     3
 72
    12
 73
     8
 74
     0
 42
0.000000001
 43
0.0000000001
 40
1.00585141402603
 40
1.00585141402603
 40
1.00585141402603
 40
1.00585141402603
 40
2.00585141402603
 40
3.00585141402603
 40
4.00585141402603
 40
5.00585141402603
 40
6.00585141402603
 40
6.00585141402603
 40
6.00585141402603
 40
6.00585141402603
 10
-7.76098796613644
 20
2.84625525360066
 30
0.0
 10
-7.771918785730577
 20
2.993515417840843
 30
0.0
 10
-7.792837957022698
 20
3.288181300769971
 30
0.0
 10
-7.819445995232172
 20
3.730223827572749
 30
0.0
 10
-7.855852266430361
 20
4.172483242978699
 30
0.0
 10
-7.85162452905962
 20
4.614162939599048
 30
0.0
 10
-7.740110859013441
 20
4.916340268474063
 30
0.0
 10
-7.605236256193905
 20
4.991063899114437
 30
0.0
  0
LINE
  5
F8
330
1F
100
AcDbEntity
  8
Layer 01
370
    -3
100
AcDbLine
 10
-7.751091210638776
 20
2.715563075536599
 30
0.0
 11
-7.76098796613644
 21
2.84625525360066
 31
0.0
  0
SPLINE
  5
F9
330
1F
100
AcDbEntity
  8
Layer 01
370
    -3
100
AcDbSpline
210
0.0
220
0.0
230
1.0
 70
     8
 71
     3
 72
    13
 73
     9
 74
     0
 42
0.000000001
 43
0.0000000001
 40
0.6144608099799711
 40
0.6144608099799711
 40
0.6144608099799711
 40
0.6144608099799711
 40
0.626685401619289
 40
0.626685401619289
 40
0.6640159927685043
 40
0.6640159927685043
 40
0.6640159927685043
 40
0.7099881284375544
 40
0.7099881284375544
 40
0.7099881284375544
 40
0.7099881284375544
 10
-7.692449091756316
 20
2.659680006834591
 30
0.0
 10
-7.694013124156015
 20
2.659809253586474
 30
0.0
 10
-7.696486414595483
 20
2.660115479069958
 30
0.0
 10
-7.71230960236403
 20
2.662606479194267
 30
0.0
 10
-7.723393660173315
 20
2.668034674402193
 30
0.0
 10
-7.732188561384021
 20
2.676314934003841
 30
0.0
 10
-7.743203448603879
 20
2.686685275122844
 30
0.0
 10
-7.749799547706459
 20
2.700731786755747
 30
0.0
 10
-7.751091210638776
 20
2.715563075536599
 30
0.0
  0
LINE
  5
FA
330
1F
100
AcDbEntity
  8
Layer 01
370
    -3
100
AcDbLine
 10
-7.050355037318241
 20
2.659680006834591
 30
0.0
 11
-7.692449091756316
 21
2.659680006834591
 31
0.0
  0
SPLINE
  5
FB
330
1F
100
AcDbEntity
  8
Layer 01
370
    -3
100
AcDbSpline
210
0.0
220
0.0
230
1.0
 70
     8
 71
     3
 72
    13
 73
     9
 74
     0
 42
0.000000001
 43
0.0000000001
 40
-0.1231605629156878
 40
-0.1231605629156878
 40
-0.1231605629156878
 40
-0.1231605629156878
 40
-0.0774537940776098
 40
-0.0774537940776098
 40
-0.0774537940776098
 40
-0.0399232984963221
 40
-0.0399232984963221
 40
-0.0276332444581045
 40
-0.0276332444581045
 40
-0.0276332444581045
 40
-0.0276332444581045
 10
-6.99190758933554
 20
2.715081660510037
 30
0.0
 10
-6.993151134559014
 20
2.700421302165012
 30
0.0
 10
-6.999722593770286
 20
2.686570495690358
 30
0.0
 10
-7.010615567690479
 20
2.676314934003841
 30
0.0
 10
-7.019410468901185
 20
2.668034674402193
 30
0.0
 10
-7.030494526710527
 20
2.662606479194267
 30
0.0
 10
-7.046317714479017
 20
2.660115479069958
 30
0.0
 10
-7.048791004918485
 20
2.659809253586474
 30
0.0
 10
-7.050355037318241
 20
2.659680006834591
 30
0.0
  0
SPLINE
  5
FC
330
1F
100
AcDbEntity
  8
Layer 01
370
    -3
100
AcDbSpline
210
0.0
220
0.0
230
1.0
 70
     8
 71
     2
 72
    11
 73
     8
 74
     0
 42
0.000000001
 43
0.0000000001
 40
-6.123160562915688
 40
-6.123160562915688
 40
-6.123160562915688
 40
-5.122876200018639
 40
-4.12259183712159
 40
-3.122307474224542
 40
-2.122023111327493
 40
-1.121738748430444
 40
-0.1231605629156878
 40
-0.1231605629156878
 40
-0.1231605629156878
 10
-6.726884314963456
 20
4.413435615254429
 30
0.0
 10
-6.819972371338736
 20
4.298651612053615
 30
0.0
 10
-6.881162131910742
 20
4.012626545250348
 30
0.0
 10
-6.902121359131343
 20
3.723972089023745
 30
0.0
 10
-6.928439199010313
 20
3.435615092764601
 30
0.0
 10
-6.953338504655449
 20
3.147163249354449
 30
0.0
 10
-6.978836295342944
 20
2.85900661216182
 30
0.0
 10
-6.99190758933554
 20
2.715081660510037
 30
0.0
  0
LINE
  5
FD
330
1F
100
AcDbEntity
  8
Layer 01
370
    -3
100
AcDbLine
 10
-6.723125733310383
 20
4.418070206041683
 30
0.0
 11
-6.726884314963456
 21
4.413435615254429
 31
0.0
  0
LINE
  5
FE
330
1F
100
AcDbEntity
  8
Layer 01
370
    -3
100
AcDbLine
 10
-1.211724312340209
 20
6.974091556770006
 30
0.0
 11
-6.723125733310383
 21
4.418070206041683
 31
0.0
  0
LINE
  5
FF
330
1F
100
AcDbEntity
  8
Layer 01
100
AcDbLine
 10
11.76575549278994
 20
2.66
 30
0.0
 11
11.76575549278999
 21
0.764632751400999
 31
0.0
  0
LINE
  5
100
330
1F
100
AcDbEntity
  8
Layer 01
100
AcDbLine
 10
12.51603613390427
 20
2.660000000000005
 30
0.0
 11
11.76575549278994
 21
2.66
 31
0.0
  0
LINE
  5
101
330
1F
100
AcDbEntity
  8
Layer 01
100
AcDbLine
 10
12.51603613390427
 20
0.764632751401004
 30
0.0
 11
12.51603613390427
 21
2.660000000000005
 31
0.0
  0
LINE
  5
102
330
1F
100
AcDbEntity
  8
Layer 01
100
AcDbLine
 10
11.76575549278999
 20
0.764632751400999
 30
0.0
 11
12.51603613390427
 21
0.764632751401004
 31
0.0
  0
SPLINE
  5
103
330
1F
100
AcDbEntity
  8
Layer 01
370
    -3
100
AcDbSpline
210
0.0
220
0.0
230
1.0
 70
    12
 71
     2
 72
     6
 73
     3
 74
     0
 42
0.000000001
 43
0.0000000001
 40
8.435452881915827
 40
8.435452881915827
 40
8.435452881915827
 40
8.631802422765189
 40
8.631802422765189
 40
8.631802422765189
 10
11.38876533619589
 20
2.559999999999999
 30
0.0
 41
1.0
 10
11.26376533619591
 20
2.560000000000001
 30
0.0
 41
0.7071067811865476
 10
11.26376533619589
 20
2.434999999999999
 30
0.0
 41
1.0
  0
SPLINE
  5
104
330
1F
100
AcDbEntity
  8
Layer 01
370
    -3
100
AcDbSpline
210
0.0
220
0.0
230
1.0
 70
    24
 71
     2
 72
     6
 73
     3
 74
     0
 42
0.000000001
 43
0.0000000001
 40
8.091702881915827
 40
8.091702881915827
 40
8.091702881915827
 40
8.435452881915827
 40
8.435452881915827
 40
8.435452881915827
 10
11.73251533619589
 20
2.559999999999999
 30
0.0
 10
11.56064033619589
 20
2.559999999999999
 30
0.0
 10
11.38876533619589
 20
2.559999999999999
 30
0.0
  0
SPLINE
  5
105
330
1F
100
AcDbEntity
  8
Layer 01
370
    -3
100
AcDbSpline
210
0.0
220
0.0
230
1.0
 70
    28
 71
     2
 72
     8
 73
     5
 74
     0
 42
0.000000001
 43
0.0000000001
 40
4.168639055745573
 40
4.168639055745573
 40
4.168639055745573
 40
6.1301709688307
 40
6.1301709688307
 40
8.091702881915827
 40
8.091702881915827
 40
8.091702881915827
 10
11.73251533619589
 20
0.0
 30
0.0
 41
1.0
 10
11.73251533619591
 20
0.0
 30
0.0
 41
0.7071067811865476
 10
11.73251533619589
 20
1.280000000000001
 30
0.0
 41
1.0
 10
11.73251533619591
 20
2.560000000000001
 30
0.0
 41
0.7071067811865476
 10
11.73251533619589
 20
2.559999999999999
 30
0.0
 41
1.0
  0
SPLINE
  5
106
330
1F
100
AcDbEntity
  8
Layer 01
370
    -3
100
AcDbSpline
210
0.0
220
0.0
230
1.0
 70
    24
 71
     2
 72
     6
 73
     3
 74
     0
 42
0.000000001
 43
0.0000000001
 40
3.824889055745573
 40
3.824889055745573
 40
3.824889055745573
 40
4.168639055745573
 40
4.168639055745573
 40
4.168639055745573
 10
11.38876533619589
 20
0.0
 30
0.0
 10
11.56064033619589
 20
0.0
 30
0.0
 10
11.73251533619589
 20
0.0
 30
0.0
  0
SPLINE
  5
107
330
1F
100
AcDbEntity
  8
Layer 01
370
    -3
100
AcDbSpline
210
0.0
220
0.0
230
1.0
 70
    12
 71
     2
 72
     6
 73
     3
 74
     0
 42
0.000000001
 43
0.0000000001
 40
3.628539514896211
 40
3.628539514896211
 40
3.628539514896211
 40
3.824889055745573
 40
3.824889055745573
 40
3.824889055745573
 10
11.26376533619589
 20
0.125
 30
0.0
 41
1.0
 10
11.26376533619591
 20
0.0
 30
0.0
 41
0.7071067811865476
 10
11.38876533619589
 20
0.0
 30
0.0
 41
1.0
  0
SPLINE
  5
108
330
1F
100
AcDbEntity
  8
Layer 01
370
    -3
100
AcDbSpline
210
0.0
220
0.0
230
1.0
 70
    28
 71
     2
 72
     8
 73
     5
 74
     0
 42
0.000000001
 43
0.0000000001
 40
0.0
 40
0.0
 40
0.0
 40
1.814269757448105
 40
1.814269757448105
 40
3.628539514896211
 40
3.628539514896211
 40
3.628539514896211
 10
11.26376533619589
 20
2.434999999999999
 30
0.0
 41
1.0
 10
11.26376533619591
 20
2.435
 30
0.0
 41
0.7071067811865476
 10
11.26376533619589
 20
1.280000000000001
 30
0.0
 41
1.0
 10
11.26376533619591
 20
0.125000000000001
 30
0.0
 41
0.7071067811865476
 10
11.26376533619589
 20
0.125
 30
0.0
 41
1.0
  0
SPLINE
  5
109
330
1F
100
AcDbEntity
  8
Layer 01
370
    -3
100
AcDbSpline
210
0.0
220
0.0
230
1.0
 70
    12
 71
     2
 72
     6
 73
     3
 74
     0
 42
0.000000001
 43
0.0000000001
 40
8.435452881915827
 40
8.435452881915827
 40
8.435452881915827
 40
8.631802422765189
 40
8.631802422765189
 40
8.631802422765189
 10
12.88876522648417
 20
2.559999999999999
 30
0.0
 41
1.0
 10
13.01376522648424
 20
2.560000000000001
 30
0.0
 41
0.7071067811865476
 10
13.01376522648417
 20
2.434999999999999
 30
0.0
 41
1.0
  0
SPLINE
  5
10A
330
1F
100
AcDbEntity
  8
Layer 01
370
    -3
100
AcDbSpline
210
0.0
220
0.0
230
1.0
 70
    24
 71
     2
 72
     6
 73
     3
 74
     0
 42
0.000000001
 43
0.0000000001
 40
8.091702881915827
 40
8.091702881915827
 40
8.091702881915827
 40
8.435452881915827
 40
8.435452881915827
 40
8.435452881915827
 10
12.54501522648417
 20
2.559999999999999
 30
0.0
 10
12.71689022648417
 20
2.559999999999999
 30
0.0
 10
12.88876522648417
 20
2.559999999999999
 30
0.0
  0
SPLINE
  5
10B
330
1F
100
AcDbEntity
  8
Layer 01
370
    -3
100
AcDbSpline
210
0.0
220
0.0
230
1.0
 70
    28
 71
     2
 72
     8
 73
     5
 74
     0
 42
0.000000001
 43
0.0000000001
 40
4.168639055745573
 40
4.168639055745573
 40
4.168639055745573
 40
6.1301709688307
 40
6.1301709688307
 40
8.091702881915827
 40
8.091702881915827
 40
8.091702881915827
 10
12.54501522648417
 20
0.0
 30
0.0
 41
1.0
 10
12.54501522648424
 20
0.0
 30
0.0
 41
0.7071067811865476
 10
12.54501522648417
 20
1.280000000000001
 30
0.0
 41
1.0
 10
12.54501522648424
 20
2.560000000000001
 30
0.0
 41
0.7071067811865476
 10
12.54501522648417
 20
2.559999999999999
 30
0.0
 41
1.0
  0
SPLINE
  5
10C
330
1F
100
AcDbEntity
  8
Layer 01
370
    -3
100
AcDbSpline
210
0.0
220
0.0
230
1.0
 70
    24
 71
     2
 72
     6
 73
     3
 74
     0
 42
0.000000001
 43
0.0000000001
 40
3.824889055745573
 40
3.824889055745573
 40
3.824889055745573
 40
4.168639055745573
 40
4.168639055745573
 40
4.168639055745573
 10
12.88876522648417
 20
0.0
 30
0.0
 10
12.71689022648417
 20
0.0
 30
0.0
 10
12.54501522648417
 20
0.0
 30
0.0
  0
SPLINE
  5
10D
330
1F
100
AcDbEntity
  8
Layer 01
370
    -3
100
AcDbSpline
210
0.0
220
0.0
230
1.0
 70
    12
 71
     2
 72
     6
 73
     3
 74
     0
 42
0.000000001
 43
0.0000000001
 40
3.628539514896211
 40
3.628539514896211
 40
3.628539514896211
 40
3.824889055745573
 40
3.824889055745573
 40
3.824889055745573
 10
13.01376522648417
 20
0.125
 30
0.0
 41
1.0
 10
13.01376522648424
 20
0.0
 30
0.0
 41
0.7071067811865476
 10
12.88876522648417
 20
0.0
 30
0.0
 41
1.0
  0
SPLINE
  5
10E
330
1F
100
AcDbEntity
  8
Layer 01
370
    -3
100
AcDbSpline
210
0.0
220
0.0
230
1.0
 70
    28
 71
     2
 72
     8
 73
     5
 74
     0
 42
0.000000001
 43
0.0000000001
 40
0.0
 40
0.0
 40
0.0
 40
1.814269757448105
 40
1.814269757448105
 40
3.628539514896211
 40
3.628539514896211
 40
3.628539514896211
 10
13.01376522648417
 20
2.434999999999999
 30
0.0
 41
1.0
 10
13.01376522648424
 20
2.435
 30
0.0
 41
0.7071067811865476
 10
13.01376522648417
 20
1.280000000000001
 30
0.0
 41
1.0
 10
13.01376522648424
 20
0.125000000000001
 30
0.0
 41
0.7071067811865476
 10
13.01376522648417
 20
0.125
 30
0.0
 41
1.0
  0
LINE
  5
10F
330
1F
100
AcDbEntity
  8
Layer 01
100
AcDbLine
 10
11.76575549278994
 20
2.559999999999999
 30
0.0
 11
12.51603613390427
 21
2.559999999999999
 31
0.0
  0
LINE
  5
110
330
1F
100
AcDbEntity
  8
Layer 01
100
AcDbLine
 10
7.15947586523896
 20
2.66
 30
0.0
 11
7.15947586523896
 21
0.764632751400999
 31
0.0
  0
LINE
  5
111
330
1F
100
AcDbEntity
  8
Layer 01
100
AcDbLine
 10
7.909756506353233
 20
2.660000000000005
 30
0.0
 11
7.15947586523896
 21
2.66
 31
0.0
  0
LINE
  5
112
330
1F
100
AcDbEntity
  8
Layer 01
100
AcDbLine
 10
7.909756506353233
 20
0.764632751401004
 30
0.0
 11
7.909756506353233
 21
2.660000000000005
 31
0.0
  0
LINE
  5
113
330
1F
100
AcDbEntity
  8
Layer 01
100
AcDbLine
 10
7.15947586523896
 20
0.764632751400999
 30
0.0
 11
7.909756506353233
 21
0.764632751401004
 31
0.0
  0
SPLINE
  5
114
330
1F
100
AcDbEntity
  8
Layer 01
370
    -3
100
AcDbSpline
210
0.0
220
0.0
230
1.0
 70
    12
 71
     2
 72
     6
 73
     3
 74
     0
 42
0.000000001
 43
0.0000000001
 40
8.435452881915827
 40
8.435452881915827
 40
8.435452881915827
 40
8.631802422765189
 40
8.631802422765189
 40
8.631802422765189
 10
6.782485708644856
 20
2.559999999999999
 30
0.0
 41
1.0
 10
6.657485708644923
 20
2.560000000000001
 30
0.0
 41
0.7071067811865476
 10
6.657485708644856
 20
2.434999999999999
 30
0.0
 41
1.0
  0
SPLINE
  5
115
330
1F
100
AcDbEntity
  8
Layer 01
370
    -3
100
AcDbSpline
210
0.0
220
0.0
230
1.0
 70
    24
 71
     2
 72
     6
 73
     3
 74
     0
 42
0.000000001
 43
0.0000000001
 40
8.091702881915827
 40
8.091702881915827
 40
8.091702881915827
 40
8.435452881915827
 40
8.435452881915827
 40
8.435452881915827
 10
7.126235708644856
 20
2.559999999999999
 30
0.0
 10
6.954360708644856
 20
2.559999999999999
 30
0.0
 10
6.782485708644856
 20
2.559999999999999
 30
0.0
  0
SPLINE
  5
116
330
1F
100
AcDbEntity
  8
Layer 01
370
    -3
100
AcDbSpline
210
0.0
220
0.0
230
1.0
 70
    28
 71
     2
 72
     8
 73
     5
 74
     0
 42
0.000000001
 43
0.0000000001
 40
4.168639055745573
 40
4.168639055745573
 40
4.168639055745573
 40
6.1301709688307
 40
6.1301709688307
 40
8.091702881915827
 40
8.091702881915827
 40
8.091702881915827
 10
7.126235708644856
 20
0.0
 30
0.0
 41
1.0
 10
7.126235708644922
 20
0.0
 30
0.0
 41
0.7071067811865476
 10
7.126235708644856
 20
1.280000000000001
 30
0.0
 41
1.0
 10
7.126235708644922
 20
2.560000000000001
 30
0.0
 41
0.7071067811865476
 10
7.126235708644856
 20
2.559999999999999
 30
0.0
 41
1.0
  0
SPLINE
  5
117
330
1F
100
AcDbEntity
  8
Layer 01
370
    -3
100
AcDbSpline
210
0.0
220
0.0
230
1.0
 70
    24
 71
     2
 72
     6
 73
     3
 74
     0
 42
0.000000001
 43
0.0000000001
 40
3.824889055745573
 40
3.824889055745573
 40
3.824889055745573
 40
4.168639055745573
 40
4.168639055745573
 40
4.168639055745573
 10
6.782485708644856
 20
0.0
 30
0.0
 10
6.954360708644856
 20
0.0
 30
0.0
 10
7.126235708644856
 20
0.0
 30
0.0
  0
SPLINE
  5
118
330
1F
100
AcDbEntity
  8
Layer 01
370
    -3
100
AcDbSpline
210
0.0
220
0.0
230
1.0
 70
    12
 71
     2
 72
     6
 73
     3
 74
     0
 42
0.000000001
 43
0.0000000001
 40
3.628539514896211
 40
3.628539514896211
 40
3.628539514896211
 40
3.824889055745573
 40
3.824889055745573
 40
3.824889055745573
 10
6.657485708644856
 20
0.125
 30
0.0
 41
1.0
 10
6.657485708644923
 20
0.0
 30
0.0
 41
0.7071067811865476
 10
6.782485708644856
 20
0.0
 30
0.0
 41
1.0
  0
SPLINE
  5
119
330
1F
100
AcDbEntity
  8
Layer 01
370
    -3
100
AcDbSpline
210
0.0
220
0.0
230
1.0
 70
    28
 71
     2
 72
     8
 73
     5
 74
     0
 42
0.000000001
 43
0.0000000001
 40
0.0
 40
0.0
 40
0.0
 40
1.814269757448105
 40
1.814269757448105
 40
3.628539514896211
 40
3.628539514896211
 40
3.628539514896211
 10
6.657485708644856
 20
2.434999999999999
 30
0.0
 41
1.0
 10
6.657485708644923
 20
2.435
 30
0.0
 41
0.7071067811865476
 10
6.657485708644856
 20
1.280000000000001
 30
0.0
 41
1.0
 10
6.657485708644923
 20
0.125000000000001
 30
0.0
 41
0.7071067811865476
 10
6.657485708644856
 20
0.125
 30
0.0
 41
1.0
  0
SPLINE
  5
11A
330
1F
100
AcDbEntity
  8
Layer 01
370
    -3
100
AcDbSpline
210
0.0
220
0.0
230
1.0
 70
    12
 71
     2
 72
     6
 73
     3
 74
     0
 42
0.000000001
 43
0.0000000001
 40
8.435452881915827
 40
8.435452881915827
 40
8.435452881915827
 40
8.631802422765189
 40
8.631802422765189
 40
8.631802422765189
 10
8.282485598933135
 20
2.559999999999999
 30
0.0
 41
1.0
 10
8.407485598933246
 20
2.560000000000001
 30
0.0
 41
0.7071067811865476
 10
8.407485598933135
 20
2.434999999999999
 30
0.0
 41
1.0
  0
SPLINE
  5
11B
330
1F
100
AcDbEntity
  8
Layer 01
370
    -3
100
AcDbSpline
210
0.0
220
0.0
230
1.0
 70
    24
 71
     2
 72
     6
 73
     3
 74
     0
 42
0.000000001
 43
0.0000000001
 40
8.091702881915827
 40
8.091702881915827
 40
8.091702881915827
 40
8.435452881915827
 40
8.435452881915827
 40
8.435452881915827
 10
7.938735598933135
 20
2.559999999999999
 30
0.0
 10
8.110610598933135
 20
2.559999999999999
 30
0.0
 10
8.282485598933135
 20
2.559999999999999
 30
0.0
  0
SPLINE
  5
11C
330
1F
100
AcDbEntity
  8
Layer 01
370
    -3
100
AcDbSpline
210
0.0
220
0.0
230
1.0
 70
    28
 71
     2
 72
     8
 73
     5
 74
     0
 42
0.000000001
 43
0.0000000001
 40
4.168639055745573
 40
4.168639055745573
 40
4.168639055745573
 40
6.1301709688307
 40
6.1301709688307
 40
8.091702881915827
 40
8.091702881915827
 40
8.091702881915827
 10
7.938735598933135
 20
0.0
 30
0.0
 41
1.0
 10
7.938735598933248
 20
0.0
 30
0.0
 41
0.7071067811865476
 10
7.938735598933135
 20
1.280000000000001
 30
0.0
 41
1.0
 10
7.938735598933248
 20
2.560000000000001
 30
0.0
 41
0.7071067811865476
 10
7.938735598933135
 20
2.559999999999999
 30
0.0
 41
1.0
  0
SPLINE
  5
11D
330
1F
100
AcDbEntity
  8
Layer 01
370
    -3
100
AcDbSpline
210
0.0
220
0.0
230
1.0
 70
    24
 71
     2
 72
     6
 73
     3
 74
     0
 42
0.000000001
 43
0.0000000001
 40
3.824889055745573
 40
3.824889055745573
 40
3.824889055745573
 40
4.168639055745573
 40
4.168639055745573
 40
4.168639055745573
 10
8.282485598933135
 20
0.0
 30
0.0
 10
8.110610598933135
 20
0.0
 30
0.0
 10
7.938735598933135
 20
0.0
 30
0.0
  0
SPLINE
  5
11E
330
1F
100
AcDbEntity
  8
Layer 01
370
    -3
100
AcDbSpline
210
0.0
220
0.0
230
1.0
 70
    12
 71
     2
 72
     6
 73
     3
 74
     0
 42
0.000000001
 43
0.0000000001
 40
3.628539514896211
 40
3.628539514896211
 40
3.628539514896211
 40
3.824889055745573
 40
3.824889055745573
 40
3.824889055745573
 10
8.407485598933135
 20
0.125
 30
0.0
 41
1.0
 10
8.407485598933246
 20
0.0
 30
0.0
 41
0.7071067811865476
 10
8.282485598933135
 20
0.0
 30
0.0
 41
1.0
  0
SPLINE
  5
11F
330
1F
100
AcDbEntity
  8
Layer 01
370
    -3
100
AcDbSpline
210
0.0
220
0.0
230
1.0
 70
    28
 71
     2
 72
     8
 73
     5
 74
     0
 42
0.000000001
 43
0.0000000001
 40
0.0
 40
0.0
 40
0.0
 40
1.814269757448105
 40
1.814269757448105
 40
3.628539514896211
 40
3.628539514896211
 40
3.628539514896211
 10
8.407485598933135
 20
2.434999999999999
 30
0.0
 41
1.0
 10
8.407485598933246
 20
2.435
 30
0.0
 41
0.7071067811865476
 10
8.407485598933135
 20
1.280000000000001
 30
0.0
 41
1.0
 10
8.407485598933246
 20
0.125000000000001
 30
0.0
 41
0.7071067811865476
 10
8.407485598933135
 20
0.125
 30
0.0
 41
1.0
  0
LINE
  5
120
330
1F
100
AcDbEntity
  8
Layer 01
100
AcDbLine
 10
7.15947586523896
 20
2.559999999999999
 30
0.0
 11
7.909756506353233
 21
2.559999999999999
 31
0.0
  0
ARC
  5
121
330
1F
100
AcDbEntity
  8
Layer 01
370
    -3
100
AcDbCircle
 10
0.2564954161221067
 20
3.982994175194321
 30
0.0
 40
4.633112867696313
100
AcDbArc
 50
72.10314667697601
 51
80.12011805216436
  0
LINE
  5
122
330
1F
100
AcDbEntity
  8
Layer 01
370
    -3
100
AcDbLine
 10
11.95494818012889
 20
5.073909547141241
 30
0.0
 11
1.680271181703574
 21
8.39191665287025
 31
0.0
  0
SPLINE
  5
123
330
1F
100
AcDbEntity
  8
Layer 01
370
    -3
100
AcDbSpline
210
0.0
220
0.0
230
1.0
 70
     8
 71
     3
 72
    13
 73
     9
 74
     0
 42
0.000000001
 43
0.0000000001
 40
14.36894744718309
 40
14.36894744718309
 40
14.36894744718309
 40
14.36894744718309
 40
15.36894744718309
 40
16.36894744718309
 40
17.36894744718309
 40
18.36894744718309
 40
19.36894744718309
 40
20.36894744718309
 40
20.36894744718309
 40
20.36894744718309
 40
20.36894744718309
 10
12.51495397557619
 20
2.720401741331728
 30
0.0
 10
12.51389473911382
 20
2.863921167555574
 30
0.0
 10
12.51211339181299
 20
3.150938915762591
 30
0.0
 10
12.5088535592879
 20
3.58154844809991
 30
0.0
 10
12.51027001848718
 20
4.011909374071363
 30
0.0
 10
12.49829377062548
 20
4.443202222433917
 30
0.0
 10
12.3380633629265
 20
4.857710051936801
 30
0.0
 10
12.09192874286106
 20
5.031036596166846
 30
0.0
 10
11.95494818012889
 20
5.073909547141241
 30
0.0
  0
SPLINE
  5
124
330
1F
100
AcDbEntity
  8
Layer 01
370
    -3
100
AcDbSpline
210
0.0
220
0.0
230
1.0
 70
     8
 71
     2
 72
     6
 73
     3
 74
     0
 42
0.000000001
 43
0.0000000001
 40
13.36894744718309
 40
13.36894744718309
 40
13.36894744718309
 40
14.36894744718309
 40
14.36894744718309
 40
14.36894744718309
 10
12.45490324101303
 20
2.659830328322472
 30
0.0
 10
12.51007613075069
 20
2.665270877645312
 30
0.0
 10
12.51495397557619
 20
2.720401741331728
 30
0.0
  0
LINE
  5
125
330
1F
100
AcDbEntity
  8
Layer 01
370
    -3
100
AcDbLine
 10
11.82210443436924
 20
2.659915164164787
 30
0.0
 11
12.45490324101303
 21
2.659830328322472
 31
0.0
  0
SPLINE
  5
126
330
1F
100
AcDbEntity
  8
Layer 01
370
    -3
100
AcDbSpline
210
0.0
220
0.0
230
1.0
 70
     8
 71
     2
 72
     6
 73
     3
 74
     0
 42
0.000000001
 43
0.0000000001
 40
11.73705594933032
 40
11.73705594933032
 40
11.73705594933032
 40
12.73705594933035
 40
12.73705594933035
 40
12.73705594933035
 10
11.76139509072715
 20
2.715111666803004
 30
0.0
 10
11.76904816609596
 20
2.664876069705811
 30
0.0
 10
11.82210443436924
 20
2.659915164164787
 30
0.0
  0
SPLINE
  5
127
330
1F
100
AcDbEntity
  8
Layer 01
370
    -3
100
AcDbSpline
210
0.0
220
0.0
230
1.0
 70
     8
 71
     3
 72
    20
 73
    16
 74
     0
 42
0.000000001
 43
0.0000000001
 40
10.64315246878003
 40
10.64315246878003
 40
10.64315246878003
 40
10.64315246878003
 40
10.65884610187548
 40
10.65884610187548
 40
10.65884610187548
 40
10.78520189248216
 40
10.78520189248216
 40
10.78520189248216
 40
11.03746817536846
 40
11.03746817536846
 40
11.03746817536846
 40
11.28943212034458
 40
11.28943212034458
 40
11.28943212034458
 40
11.73705594933032
 40
11.73705594933032
 40
11.73705594933032
 40
11.73705594933032
 10
11.67291913363954
 20
3.805121910747114
 30
0.0
 10
11.67333647534917
 20
3.799906307816152
 30
0.0
 10
11.67374922767499
 20
3.794682760860284
 30
0.0
 10
11.67416329407865
 20
3.789450343889015
 30
0.0
 10
11.67748408625317
 20
3.747486617349963
 30
0.0
 10
11.68077270957872
 20
3.705500806684313
 30
0.0
 10
11.68413192527521
 20
3.663529234540675
 30
0.0
 10
11.69083667681417
 20
3.579757012586384
 30
0.0
 10
11.69782531535526
 20
3.495983566599421
 30
0.0
 10
11.70469219568207
 20
3.412170979404294
 30
0.0
 10
11.71154872256011
 20
3.328484759539123
 30
0.0
 10
11.71828189872502
 20
3.24478802148991
 30
0.0
 10
11.72505474154525
 20
3.161096397951795
 30
0.0
 10
11.73708276637507
 20
3.012466796959487
 30
0.0
 10
11.74924024132957
 20
2.863805211807793
 30
0.0
 10
11.76139509072715
 20
2.715111666803004
 30
0.0
  0
SPLINE
  5
128
330
1F
100
AcDbEntity
  8
Layer 01
370
    -3
100
AcDbSpline
210
0.0
220
0.0
230
1.0
 70
     8
 71
     3
 72
     8
 73
     4
 74
     0
 42
0.000000001
 43
0.0000000001
 40
9.643152468780027
 40
9.643152468780027
 40
9.643152468780027
 40
9.643152468780027
 40
10.64315246878003
 40
10.64315246878003
 40
10.64315246878003
 40
10.64315246878003
 10
11.25488474127707
 20
4.400246546201998
 30
0.0
 10
11.51632813984133
 20
4.325300663654215
 30
0.0
 10
11.64987013369324
 20
4.093169879354584
 30
0.0
 10
11.67291913363954
 20
3.805121910747114
 30
0.0
  0
LINE
  5
129
330
1F
100
AcDbEntity
  8
Layer 01
370
    -3
100
AcDbLine
 10
2.27620887437206
 20
6.974091556828
 30
0.0
 11
11.25488474127707
 21
4.400246546201998
 31
0.0
  0
ARC
  5
12A
330
1F
100
AcDbEntity
  8
Layer 01
370
    -3
100
AcDbCircle
 10
2.004451370050447
 20
-7.958688261826865
 30
0.0
 40
15.53421917061188
210
0.0
220
0.0
230
-1.0
100
AcDbArc
 50
104.6276282995612
 51
105.9955842303105
  0
SPLINE
  5
12B
330
1F
100
AcDbEntity
  8
Layer 01
370
    -3
100
AcDbSpline
210
0.0
220
0.0
230
1.0
 70
     8
 71
     3
 72
    13
 73
     9
 74
     0
 42
0.000000001
 43
0.0000000001
 40
2.272267781904515
 40
2.272267781904515
 40
2.272267781904515
 40
2.272267781904515
 40
3.272267781904515
 40
4.272267781904515
 40
5.272267781904514
 40
6.272267781904514
 40
7.272267781904514
 40
8.272267781904514
 40
8.272267781904514
 40
8.272267781904514
 40
8.272267781904514
 10
1.26229072513911
 20
6.685996921938489
 30
0.0
 10
1.263138895138013
 20
6.735970972659877
 30
0.0
 10
1.266486188803128
 20
6.836620620342019
 30
0.0
 10
1.332450504266717
 20
6.979009735206424
 30
0.0
 10
1.475454441408772
 20
7.04270750397573
 30
0.0
 10
1.619172986835167
 20
7.082100184670146
 30
0.0
 10
1.769904496546985
 20
7.095199694486234
 30
0.0
 10
1.869793351202247
 20
7.083738769174837
 30
0.0
 10
1.918497626418628
 20
7.072028168593466
 30
0.0
  0
SPLINE
  5
12C
330
1F
100
AcDbEntity
  8
Layer 01
370
    -3
100
AcDbSpline
210
0.0
220
0.0
230
1.0
 70
    28
 71
     3
 72
     8
 73
     4
 74
     0
 42
0.000000001
 43
0.0000000001
 40
2.045966352010521
 40
2.045966352010521
 40
2.045966352010521
 40
2.045966352010521
 40
2.272267781904515
 40
2.272267781904515
 40
2.272267781904515
 40
2.272267781904515
 10
1.261303288579088
 20
6.459694568349816
 30
0.0
 41
0.9027503392243841
 10
1.26163242962209
 20
6.535127660244912
 30
0.0
 41
0.9027503392243841
 10
1.26196157066547
 20
6.610560752134071
 30
0.0
 41
0.9027503392243841
 10
1.262290725139162
 20
6.685996921938486
 30
0.0
 41
0.9027503392243841
  0
SPLINE
  5
12D
330
1F
100
AcDbEntity
  8
Layer 01
370
    -3
100
AcDbSpline
210
0.0
220
0.0
230
1.0
 70
     8
 71
     2
 72
     6
 73
     3
 74
     0
 42
0.000000001
 43
0.0000000001
 40
1.045966352010521
 40
1.045966352010521
 40
1.045966352010521
 40
2.045966352010521
 40
2.045966352010521
 40
2.045966352010521
 10
1.191303954929083
 20
6.389999999999993
 30
0.0
 10
1.255317113346337
 20
6.396175645566775
 30
0.0
 10
1.261303288579086
 20
6.459694568349816
 30
0.0
  0
SPLINE
  5
12E
330
1F
100
AcDbEntity
  8
Layer 01
370
    -3
100
AcDbSpline
210
0.0
220
0.0
230
1.0
 70
    28
 71
     2
 72
     6
 73
     3
 74
     0
 42
0.000000001
 43
0.0000000001
 40
0.0885416479884135
 40
0.0885416479884135
 40
0.0885416479884135
 40
1.045966352010521
 40
1.045966352010521
 40
1.045966352010521
 10
0.8014139228808435
 20
6.389999999999985
 30
0.0
 41
0.9831093135182369
 10
1.191303954928937
 20
6.389999999999989
 30
0.0
 41
0.900232884051384
 10
1.191303954929083
 20
6.389999999999993
 30
0.0
 41
1.0
  0
SPLINE
  5
12F
330
1F
100
AcDbEntity
  8
Layer 01
370
    -3
100
AcDbSpline
210
0.0
220
0.0
230
1.0
 70
    24
 71
     2
 72
     6
 73
     3
 74
     0
 42
0.000000001
 43
0.0000000001
 40
6.00585141402603
 40
6.00585141402603
 40
6.00585141402603
 40
7.00585141402603
 40
7.00585141402603
 40
7.00585141402603
 10
7.768234739359741
 20
4.991063899114437
 30
0.0
 10
7.002487093756713
 20
5.415305698812865
 30
0.0
 10
6.236739448153685
 20
5.839547498511294
 30
0.0
  0
SPLINE
  5
130
330
1F
100
AcDbEntity
  8
Layer 01
370
    -3
100
AcDbSpline
210
0.0
220
0.0
230
1.0
 70
     8
 71
     3
 72
    12
 73
     8
 74
     0
 42
0.000000001
 43
0.0000000001
 40
1.00585141402603
 40
1.00585141402603
 40
1.00585141402603
 40
1.00585141402603
 40
2.00585141402603
 40
3.00585141402603
 40
4.00585141402603
 40
5.00585141402603
 40
6.00585141402603
 40
6.00585141402603
 40
6.00585141402603
 40
6.00585141402603
 10
7.923986449302276
 20
2.84625525360066
 30
0.0
 10
7.934917268896413
 20
2.993515417840843
 30
0.0
 10
7.955836440188591
 20
3.288181300769971
 30
0.0
 10
7.982444478398065
 20
3.730223827572749
 30
0.0
 10
8.018850749596254
 20
4.172483242978699
 30
0.0
 10
8.014623012225513
 20
4.614162939599048
 30
0.0
 10
7.903109342179334
 20
4.916340268474063
 30
0.0
 10
7.768234739359741
 20
4.991063899114437
 30
0.0
  0
LINE
  5
131
330
1F
100
AcDbEntity
  8
Layer 01
370
    -3
100
AcDbLine
 10
7.914089693804613
 20
2.715563075536599
 30
0.0
 11
7.923986449302276
 21
2.84625525360066
 31
0.0
  0
SPLINE
  5
132
330
1F
100
AcDbEntity
  8
Layer 01
370
    -3
100
AcDbSpline
210
0.0
220
0.0
230
1.0
 70
     8
 71
     3
 72
    13
 73
     9
 74
     0
 42
0.000000001
 43
0.0000000001
 40
0.6144608099799711
 40
0.6144608099799711
 40
0.6144608099799711
 40
0.6144608099799711
 40
0.626685401619289
 40
0.626685401619289
 40
0.6640159927685043
 40
0.6640159927685043
 40
0.6640159927685043
 40
0.7099881284375544
 40
0.7099881284375544
 40
0.7099881284375544
 40
0.7099881284375544
 10
7.855447574922152
 20
2.659680006834591
 30
0.0
 10
7.857011607321908
 20
2.659809253586474
 30
0.0
 10
7.859484897761376
 20
2.660115479069958
 30
0.0
 10
7.875308085529866
 20
2.662606479194267
 30
0.0
 10
7.886392143339208
 20
2.668034674402193
 30
0.0
 10
7.895187044549914
 20
2.676314934003841
 30
0.0
 10
7.906201931769715
 20
2.686685275122844
 30
0.0
 10
7.912798030872352
 20
2.700731786755747
 30
0.0
 10
7.914089693804613
 20
2.715563075536599
 30
0.0
  0
LINE
  5
133
330
1F
100
AcDbEntity
  8
Layer 01
370
    -3
100
AcDbLine
 10
7.213353520484077
 20
2.659680006834591
 30
0.0
 11
7.855447574922152
 21
2.659680006834591
 31
0.0
  0
SPLINE
  5
134
330
1F
100
AcDbEntity
  8
Layer 01
370
    -3
100
AcDbSpline
210
0.0
220
0.0
230
1.0
 70
     8
 71
     3
 72
    13
 73
     9
 74
     0
 42
0.000000001
 43
0.0000000001
 40
-0.1231605629156878
 40
-0.1231605629156878
 40
-0.1231605629156878
 40
-0.1231605629156878
 40
-0.0774537940776098
 40
-0.0774537940776098
 40
-0.0774537940776098
 40
-0.0399232984963221
 40
-0.0399232984963221
 40
-0.0276332444581045
 40
-0.0276332444581045
 40
-0.0276332444581045
 40
-0.0276332444581045
 10
7.154906072501433
 20
2.715081660510037
 30
0.0
 10
7.15614961772485
 20
2.700421302165012
 30
0.0
 10
7.16272107693618
 20
2.686570495690358
 30
0.0
 10
7.173614050856372
 20
2.676314934003841
 30
0.0
 10
7.182408952067078
 20
2.668034674402193
 30
0.0
 10
7.193493009876363
 20
2.662606479194267
 30
0.0
 10
7.20931619764491
 20
2.660115479069958
 30
0.0
 10
7.211789488084378
 20
2.659809253586474
 30
0.0
 10
7.213353520484077
 20
2.659680006834591
 30
0.0
  0
SPLINE
  5
135
330
1F
100
AcDbEntity
  8
Layer 01
370
    -3
100
AcDbSpline
210
0.0
220
0.0
230
1.0
 70
     8
 71
     2
 72
    11
 73
     8
 74
     0
 42
0.000000001
 43
0.0000000001
 40
-6.123160562915688
 40
-6.123160562915688
 40
-6.123160562915688
 40
-5.122876200018639
 40
-4.12259183712159
 40
-3.122307474224542
 40
-2.122023111327493
 40
-1.121738748430444
 40
-0.1231605629156878
 40
-0.1231605629156878
 40
-0.1231605629156878
 10
6.889882798129349
 20
4.413435615254429
 30
0.0
 10
6.982970854504629
 20
4.298651612053615
 30
0.0
 10
7.044160615076635
 20
4.012626545250348
 30
0.0
 10
7.065119842297236
 20
3.723972089023745
 30
0.0
 10
7.091437682176206
 20
3.435615092764601
 30
0.0
 10
7.116336987821342
 20
3.147163249354449
 30
0.0
 10
7.14183477850878
 20
2.85900661216182
 30
0.0
 10
7.154906072501433
 20
2.715081660510037
 30
0.0
  0
LINE
  5
136
330
1F
100
AcDbEntity
  8
Layer 01
370
    -3
100
AcDbLine
 10
6.886124216476276
 20
4.418070206041683
 30
0.0
 11
6.889882798129349
 21
4.413435615254429
 31
0.0
  0
LINE
  5
137
330
1F
100
AcDbEntity
  8
Layer 01
370
    -3
100
AcDbLine
 10
1.374722795506102
 20
6.974091556770006
 30
0.0
 11
6.886124216476276
 21
4.418070206041683
 31
0.0
  0
LINE
  5
138
330
1F
100
AcDbEntity
  8
Layer 01
370
    -3
100
AcDbLine
 10
-7.554054308950185
 20
4.704541695434997
 30
0.0
 11
-4.620528407297684
 21
6.255714637571884
 31
0.0
  0
SPLINE
  5
139
330
1F
100
AcDbEntity
  8
Layer 01
370
    -3
100
AcDbSpline
210
0.0
220
0.0
230
1.0
 70
     8
 71
     3
 72
    12
 73
     8
 74
     0
 42
0.000000001
 43
0.0000000001
 40
-5.136940353125501
 40
-5.136940353125501
 40
-5.136940353125501
 40
-5.136940353125501
 40
-4.0
 40
-3.0
 40
-2.0
 40
-1.0
 40
-0.0000000000000001
 40
-0.0000000000000001
 40
-0.0000000000000001
 40
-0.0000000000000001
 10
-7.618886024844073
 20
2.659680006839952
 30
0.0
 10
-7.62905440402875
 20
2.813421982457117
 30
0.0
 10
-7.645638410900574
 20
3.102746987332533
 30
0.0
 10
-7.668536256733603
 20
3.526997795683134
 30
0.0
 10
-7.690363963730306
 20
3.934296627753823
 30
0.0
 10
-7.716936695197433
 20
4.335557456991535
 30
0.0
 10
-7.666945028512885
 20
4.618882338815527
 30
0.0
 10
-7.554054308950185
 20
4.704541695434997
 30
0.0
  0
SPLINE
  5
13A
330
1F
100
AcDbEntity
  8
Layer 01
370
    -3
100
AcDbSpline
210
0.0
220
0.0
230
1.0
 70
     8
 71
     3
 72
    12
 73
     8
 74
     0
 42
0.000000001
 43
0.0000000001
 40
6.0
 40
6.0
 40
6.0
 40
6.0
 40
7.0
 40
8.0
 40
9.0
 40
10.0
 40
11.0
 40
11.0
 40
11.0
 40
11.0
 10
-2.060367093836192
 20
7.589076711670998
 30
0.0
 10
-1.972112530235734
 20
7.616247553240421
 30
0.0
 10
-1.795213319238144
 20
7.669245862176704
 30
0.0
 10
-1.527192733312233
 20
7.739862312714015
 30
0.0
 10
-1.253072474009628
 20
7.783634412621221
 30
0.0
 10
-0.977136162389229
 20
7.798220066563082
 30
0.0
 10
-0.7915138444518561
 20
7.713215773745928
 30
0.0
 10
-0.774163008564301
 20
7.612978884619906
 30
0.0
  0
LINE
  5
13B
330
1F
100
AcDbEntity
  8
Layer 01
370
    -3
100
AcDbLine
 10
-11.06168809743122
 20
4.813247365937997
 30
0.0
 11
-2.060367093836192
 21
7.589076711670998
 31
0.0
  0
SPLINE
  5
13C
330
1F
100
AcDbEntity
  8
Layer 01
370
    -3
100
AcDbSpline
210
0.0
220
0.0
230
1.0
 70
     8
 71
     3
 72
    12
 73
     8
 74
     0
 42
0.000000001
 43
0.0000000001
 40
-0.1116356349099097
 40
-0.1116356349099097
 40
-0.1116356349099097
 40
-0.1116356349099097
 40
1.0
 40
2.0
 40
3.0
 40
4.0
 40
5.0
 40
5.0
 40
5.0
 40
5.0
 10
-11.78644813130137
 20
2.659898092035222
 30
0.0
 10
-11.78074372875369
 20
2.843655580857236
 30
0.0
 10
-11.77338636409428
 20
3.191524805299815
 30
0.0
 10
-11.74626732086301
 20
3.707272852312119
 30
0.0
 10
-11.75776000927186
 20
4.195000965821448
 30
0.0
 10
-11.58961807999225
 20
4.715278699324065
 30
0.0
 10
-11.20912413387219
 20
4.755756545269774
 30
0.0
 10
-11.06168809743122
 20
4.813247365937997
 30
0.0
  0
SPLINE
  5
13D
330
1F
100
AcDbEntity
  8
Layer 01
370
    -3
100
AcDbSpline
210
0.0
220
0.0
230
1.0
 70
     8
 71
     2
 72
     6
 73
     3
 74
     0
 42
0.000000001
 43
0.0000000001
 40
16.99599857172232
 40
16.99599857172232
 40
16.99599857172232
 40
17.99599857172232
 40
17.99599857172232
 40
17.99599857172232
 10
-0.2968067215745691
 20
2.716112725546383
 30
0.0
 10
-0.2884485448620921
 20
2.662825779317379
 30
0.0
 10
-0.2344438155862463
 20
2.659722521917883
 30
0.0
  0
SPLINE
  5
13E
330
1F
100
AcDbEntity
  8
Layer 01
370
    -3
100
AcDbSpline
210
0.0
220
0.0
230
1.0
 70
     8
 71
     2
 72
     6
 73
     3
 74
     0
 42
0.000000001
 43
0.0000000001
 40
15.99599857172232
 40
15.99599857172232
 40
15.99599857172232
 40
16.99599857172232
 40
16.99599857172232
 40
16.99599857172232
 10
-0.4667894671645172
 20
4.813247365939006
 30
0.0
 10
-0.3561408561463963
 20
3.766790454957153
 30
0.0
 10
-0.2968067215745691
 20
2.716112725546383
 30
0.0
  0
LINE
  5
13F
330
1F
100
AcDbEntity
  8
Layer 01
370
    -3
100
AcDbLine
 10
-0.7862706328022
 20
7.792163146313641
 30
0.0
 11
-0.4667894671645172
 21
4.813247365939006
 31
0.0
  0
SPLINE
  5
140
330
1F
100
AcDbEntity
  8
Layer 01
370
    -3
100
AcDbSpline
210
0.0
220
0.0
230
1.0
 70
     8
 71
     3
 72
    14
 73
    10
 74
     0
 42
0.000000001
 43
0.0000000001
 40
6.0
 40
6.0
 40
6.0
 40
6.0
 40
7.0
 40
8.0
 40
9.0
 40
10.0
 40
11.0
 40
12.0
 40
13.0
 40
13.0
 40
13.0
 40
13.0
 10
-2.15384753043719
 20
7.939730459562
 30
0.0
 10
-2.080505564858242
 20
7.963407816131935
 30
0.0
 10
-1.933288328721517
 20
8.009275939803826
 30
0.0
 10
-1.710049203721553
 20
8.069397079319542
 30
0.0
 10
-1.483658930974912
 20
8.118367617426152
 30
0.0
 10
-1.254534936279413
 20
8.145336357805114
 30
0.0
 10
-1.02101965988669
 20
8.157527294434667
 30
0.0
 10
-0.8004140966174873
 20
8.04090724222687
 30
0.0
 10
-0.794488807472419
 20
7.86543280416454
 30
0.0
 10
-0.7862706328022
 20
7.792163146313641
 30
0.0
  0
LINE
  5
141
330
1F
100
AcDbEntity
  8
Layer 01
370
    -3
100
AcDbLine
 10
-11.52987798791122
 20
4.919285240264998
 30
0.0
 11
-2.15384753043719
 21
7.939730459562
 31
0.0
  0
SPLINE
  5
142
330
1F
100
AcDbEntity
  8
Layer 01
370
    -3
100
AcDbSpline
210
0.0
220
0.0
230
1.0
 70
     8
 71
     3
 72
    12
 73
     8
 74
     0
 42
0.000000001
 43
0.0000000001
 40
-0.1173869664896024
 40
-0.1173869664896024
 40
-0.1173869664896024
 40
-0.1173869664896024
 40
1.0
 40
2.0
 40
3.0
 40
4.0
 40
5.0
 40
5.0
 40
5.0
 40
5.0
 10
-12.11279443522852
 20
2.659854340654776
 30
0.0
 10
-12.0962630295748
 20
2.836509645609288
 30
0.0
 10
-12.06980247142116
 20
3.171445823526387
 30
0.0
 10
-12.02877607482628
 20
3.665031829676788
 30
0.0
 10
-12.0096410449903
 20
4.139773661488857
 30
0.0
 10
-11.92560658156827
 20
4.616106015462968
 30
0.0
 10
-11.68426319608426
 20
4.86955075336552
 30
0.0
 10
-11.52987798791122
 20
4.919285240264998
 30
0.0
  0
LINE
  5
143
330
1F
100
AcDbEntity
  8
Layer 01
370
    -3
100
AcDbLine
 10
7.717052792116078
 20
4.704541695434997
 30
0.0
 11
4.78352689046352
 21
6.255714637571884
 31
0.0
  0
SPLINE
  5
144
330
1F
100
AcDbEntity
  8
Layer 01
370
    -3
100
AcDbSpline
210
0.0
220
0.0
230
1.0
 70
     8
 71
     3
 72
    12
 73
     8
 74
     0
 42
0.000000001
 43
0.0000000001
 40
-5.136940353125503
 40
-5.136940353125503
 40
-5.136940353125503
 40
-5.136940353125503
 40
-4.0
 40
-3.0
 40
-2.0
 40
-0.9999999999999998
 40
0.0000000000000002
 40
0.0000000000000002
 40
0.0000000000000002
 40
0.0000000000000002
 10
7.781884508009966
 20
2.659680006839951
 30
0.0
 10
7.792052887194643
 20
2.813421982457116
 30
0.0
 10
7.80863689406641
 20
3.102746987332534
 30
0.0
 10
7.831534739899496
 20
3.526997795683134
 30
0.0
 10
7.853362446896199
 20
3.934296627753823
 30
0.0
 10
7.879935178363326
 20
4.335557456991535
 30
0.0
 10
7.829943511678778
 20
4.618882338815527
 30
0.0
 10
7.717052792116078
 20
4.704541695434997
 30
0.0
  0
SPLINE
  5
145
330
1F
100
AcDbEntity
  8
Layer 01
370
    -3
100
AcDbSpline
210
0.0
220
0.0
230
1.0
 70
     8
 71
     3
 72
    12
 73
     8
 74
     0
 42
0.000000001
 43
0.0000000001
 40
6.0
 40
6.0
 40
6.0
 40
6.0
 40
7.0
 40
8.0
 40
9.0
 40
10.0
 40
11.0
 40
11.0
 40
11.0
 40
11.0
 10
2.223365577002085
 20
7.589076711670998
 30
0.0
 10
2.135111013401627
 20
7.616247553240421
 30
0.0
 10
1.95821180240398
 20
7.669245862176704
 30
0.0
 10
1.69019121647807
 20
7.739862312714015
 30
0.0
 10
1.416070957175521
 20
7.783634412621221
 30
0.0
 10
1.140134645555122
 20
7.798220066563082
 30
0.0
 10
0.9545123276177492
 20
7.713215773745928
 30
0.0
 10
0.937161491730194
 20
7.612978884619906
 30
0.0
  0
LINE
  5
146
330
1F
100
AcDbEntity
  8
Layer 01
370
    -3
100
AcDbLine
 10
11.22468658059711
 20
4.813247365937997
 30
0.0
 11
2.223365577002085
 21
7.589076711670998
 31
0.0
  0
SPLINE
  5
147
330
1F
100
AcDbEntity
  8
Layer 01
370
    -3
100
AcDbSpline
210
0.0
220
0.0
230
1.0
 70
     8
 71
     3
 72
    12
 73
     8
 74
     0
 42
0.000000001
 43
0.0000000001
 40
-0.1116356349099086
 40
-0.1116356349099086
 40
-0.1116356349099086
 40
-0.1116356349099086
 40
1.0
 40
2.0
 40
3.0
 40
4.0
 40
5.0
 40
5.0
 40
5.0
 40
5.0
 10
11.94944661446726
 20
2.659898092035223
 30
0.0
 10
11.94374221191958
 20
2.843655580857237
 30
0.0
 10
11.93638484726011
 20
3.191524805299816
 30
0.0
 10
11.90926580402891
 20
3.707272852312119
 30
0.0
 10
11.9207584924377
 20
4.195000965821448
 30
0.0
 10
11.75261656315809
 20
4.715278699324065
 30
0.0
 10
11.37212261703809
 20
4.755756545269774
 30
0.0
 10
11.22468658059711
 20
4.813247365937997
 30
0.0
  0
SPLINE
  5
148
330
1F
100
AcDbEntity
  8
Layer 01
370
    -3
100
AcDbSpline
210
0.0
220
0.0
230
1.0
 70
     8
 71
     2
 72
     6
 73
     3
 74
     0
 42
0.000000001
 43
0.0000000001
 40
16.99599857172232
 40
16.99599857172232
 40
16.99599857172232
 40
17.99599857172232
 40
17.99599857172232
 40
17.99599857172232
 10
0.4598052047404622
 20
2.716112725546383
 30
0.0
 10
0.4514470280279852
 20
2.662825779317379
 30
0.0
 10
0.3974422987521393
 20
2.659722521917883
 30
0.0
  0
SPLINE
  5
149
330
1F
100
AcDbEntity
  8
Layer 01
370
    -3
100
AcDbSpline
210
0.0
220
0.0
230
1.0
 70
     8
 71
     2
 72
     6
 73
     3
 74
     0
 42
0.000000001
 43
0.0000000001
 40
15.99599857172232
 40
15.99599857172232
 40
15.99599857172232
 40
16.99599857172232
 40
16.99599857172232
 40
16.99599857172232
 10
0.6297879503304102
 20
4.813247365939006
 30
0.0
 10
0.5191393393122894
 20
3.766790454957153
 30
0.0
 10
0.4598052047404622
 20
2.716112725546383
 30
0.0
  0
LINE
  5
14A
330
1F
100
AcDbEntity
  8
Layer 01
370
    -3
100
AcDbLine
 10
0.9492691159680362
 20
7.792163146313641
 30
0.0
 11
0.6297879503304102
 21
4.813247365939006
 31
0.0
  0
SPLINE
  5
14B
330
1F
100
AcDbEntity
  8
Layer 01
370
    -3
100
AcDbSpline
210
0.0
220
0.0
230
1.0
 70
     8
 71
     3
 72
    14
 73
    10
 74
     0
 42
0.000000001
 43
0.0000000001
 40
6.0
 40
6.0
 40
6.0
 40
6.0
 40
7.0
 40
8.0
 40
9.0
 40
10.0
 40
11.0
 40
12.0
 40
13.0
 40
13.0
 40
13.0
 40
13.0
 10
2.316846013603083
 20
7.939730459562
 30
0.0
 10
2.243504048024079
 20
7.963407816131935
 30
0.0
 10
2.09628681188741
 20
8.009275939803826
 30
0.0
 10
1.873047686887389
 20
8.069397079319542
 30
0.0
 10
1.646657414140805
 20
8.118367617426152
 30
0.0
 10
1.417533419445249
 20
8.145336357805114
 30
0.0
 10
1.184018143052583
 20
8.157527294434667
 30
0.0
 10
0.9634125797833804
 20
8.04090724222687
 30
0.0
 10
0.9574872906383121
 20
7.86543280416454
 30
0.0
 10
0.9492691159680362
 20
7.792163146313641
 30
0.0
  0
LINE
  5
14C
330
1F
100
AcDbEntity
  8
Layer 01
370
    -3
100
AcDbLine
 10
11.69287647107711
 20
4.919285240264998
 30
0.0
 11
2.316846013603083
 21
7.939730459562
 31
0.0
  0
SPLINE
  5
14D
330
1F
100
AcDbEntity
  8
Layer 01
370
    -3
100
AcDbSpline
210
0.0
220
0.0
230
1.0
 70
     8
 71
     3
 72
    12
 73
     8
 74
     0
 42
0.000000001
 43
0.0000000001
 40
-0.1173869664896023
 40
-0.1173869664896023
 40
-0.1173869664896023
 40
-0.1173869664896023
 40
1.0
 40
2.0
 40
3.0
 40
4.0
 40
5.0
 40
5.0
 40
5.0
 40
5.0
 10
12.27579291839436
 20
2.659854340654776
 30
0.0
 10
12.25926151274064
 20
2.836509645609288
 30
0.0
 10
12.23280095458699
 20
3.171445823526387
 30
0.0
 10
12.19177455799218
 20
3.665031829676788
 30
0.0
 10
12.17263952815614
 20
4.139773661488857
 30
0.0
 10
12.08860506473417
 20
4.616106015462968
 30
0.0
 10
11.8472616792501
 20
4.86955075336552
 30
0.0
 10
11.69287647107711
 20
4.919285240264998
 30
0.0
  0
SPLINE
  5
14E
330
1F
100
AcDbEntity
  8
Layer 01
370
    -3
100
AcDbSpline
210
0.0
220
0.0
230
1.0
 70
    24
 71
     2
 72
     6
 73
     3
 74
     0
 42
0.000000001
 43
0.0000000001
 40
0.3826470845249033
 40
0.3826470845249033
 40
0.3826470845249033
 40
2.229068275101569
 40
2.229068275101569
 40
2.229068275101569
 10
-0.7582045844052345
 20
4.544160310455993
 30
0.0
 10
-0.7813727388132179
 20
5.46708015522799
 30
0.0
 10
-0.8045408932211444
 20
6.389999999999986
 30
0.0
  0
SPLINE
  5
14F
330
1F
100
AcDbEntity
  8
Layer 01
370
    -3
100
AcDbSpline
210
0.0
220
0.0
230
1.0
 70
     8
 71
     3
 72
     8
 73
     4
 74
     0
 42
0.000000001
 43
0.0000000001
 40
0.0
 40
0.0
 40
0.0
 40
0.0
 40
0.3826470845249033
 40
0.3826470845249033
 40
0.3826470845249033
 40
0.3826470845249033
 10
-0.7270251451897138
 20
4.164632751401001
 30
0.0
 10
-0.7270251451897138
 20
4.291568135450007
 30
0.0
 10
-0.7550191155723383
 20
4.417264902691002
 30
0.0
 10
-0.7582045844052345
 20
4.544160310455993
 30
0.0
  0
SPLINE
  5
150
330
1F
100
AcDbEntity
  8
Layer 01
370
    -3
100
AcDbSpline
210
0.0
220
0.0
230
1.0
 70
    24
 71
     2
 72
     6
 73
     3
 74
     0
 42
0.000000001
 43
0.0000000001
 40
-1.620335111109601
 40
-1.620335111109601
 40
-1.620335111109601
 40
0.0
 40
0.0
 40
0.0
 10
-0.7270251451897138
 20
2.544297640291403
 30
0.0
 10
-0.7270251451897138
 20
3.354465195846202
 30
0.0
 10
-0.7270251451897138
 20
4.164632751401001
 30
0.0
  0
SPLINE
  5
151
330
1F
100
AcDbEntity
  8
Layer 01
370
    -3
100
AcDbSpline
210
0.0
220
0.0
230
1.0
 70
    24
 71
     2
 72
     6
 73
     3
 74
     0
 42
0.000000001
 43
0.0000000001
 40
0.3826470845249033
 40
0.3826470845249033
 40
0.3826470845249033
 40
2.229068275101569
 40
2.229068275101569
 40
2.229068275101569
 10
0.9212030675711276
 20
4.544160310455993
 30
0.0
 10
0.9443712219790541
 20
5.46708015522799
 30
0.0
 10
0.9675393763869806
 20
6.389999999999986
 30
0.0
  0
SPLINE
  5
152
330
1F
100
AcDbEntity
  8
Layer 01
370
    -3
100
AcDbSpline
210
0.0
220
0.0
230
1.0
 70
     8
 71
     3
 72
     8
 73
     4
 74
     0
 42
0.000000001
 43
0.0000000001
 40
0.0
 40
0.0
 40
0.0
 40
0.0
 40
0.3826470845249033
 40
0.3826470845249033
 40
0.3826470845249033
 40
0.3826470845249033
 10
0.8900236283556069
 20
4.164632751401001
 30
0.0
 10
0.8900236283556069
 20
4.291568135450007
 30
0.0
 10
0.9180175987381745
 20
4.417264902691002
 30
0.0
 10
0.9212030675711276
 20
4.544160310455993
 30
0.0
  0
SPLINE
  5
153
330
1F
100
AcDbEntity
  8
Layer 01
370
    -3
100
AcDbSpline
210
0.0
220
0.0
230
1.0
 70
    24
 71
     2
 72
     6
 73
     3
 74
     0
 42
0.000000001
 43
0.0000000001
 40
-1.620335111109601
 40
-1.620335111109601
 40
-1.620335111109601
 40
0.0
 40
0.0
 40
0.0
 10
0.8900236283556069
 20
2.544297640291403
 30
0.0
 10
0.8900236283556069
 20
3.354465195846202
 30
0.0
 10
0.8900236283556069
 20
4.164632751401001
 30
0.0
  0
SPLINE
  5
154
330
1F
100
AcDbEntity
  8
Layer 01
370
    -3
100
AcDbSpline
210
0.0
220
0.0
230
1.0
 70
     8
 71
     2
 72
     6
 73
     3
 74
     0
 42
0.000000001
 43
0.0000000001
 40
2.0
 40
2.0
 40
2.0
 40
3.0
 40
3.0
 40
3.0
 10
-0.4243743132950613
 20
4.983517129063249
 30
0.0
 10
-0.4732886578572106
 20
4.961850556334211
 30
0.0
 10
-0.47568346732686
 20
4.908596289534683
 30
0.0
  0
SPLINE
  5
155
330
1F
100
AcDbEntity
  8
Layer 01
370
    -3
100
AcDbSpline
210
0.0
220
0.0
230
1.0
 70
     8
 71
     2
 72
     6
 73
     3
 74
     0
 42
0.000000001
 43
0.0000000001
 40
1.0
 40
1.0
 40
1.0
 40
2.0
 40
2.0
 40
2.0
 10
0.0814992964387784
 20
5.079399780786005
 30
0.0
 10
-0.1804284406122747
 20
5.078872790573648
 30
0.0
 10
-0.4243743132950613
 20
4.983517129063249
 30
0.0
  0
SPLINE
  5
156
330
1F
100
AcDbEntity
  8
Layer 01
370
    -3
100
AcDbSpline
210
0.0
220
0.0
230
1.0
 70
     8
 71
     2
 72
     6
 73
     3
 74
     0
 42
0.000000001
 43
0.0000000001
 40
0.0
 40
0.0
 40
0.0
 40
1.0
 40
1.0
 40
1.0
 10
0.5873729061726749
 20
4.983517129063249
 30
0.0
 10
0.3434270334898315
 20
5.078872790573648
 30
0.0
 10
0.0814992964387784
 20
5.079399780786005
 30
0.0
  0
SPLINE
  5
157
330
1F
100
AcDbEntity
  8
Layer 01
370
    -3
100
AcDbSpline
210
0.0
220
0.0
230
1.0
 70
     8
 71
     2
 72
     6
 73
     3
 74
     0
 42
0.000000001
 43
0.0000000001
 40
-1.0
 40
-1.0
 40
-1.0
 40
0.0
 40
0.0
 40
0.0
 10
0.6386820602044168
 20
4.908596289534683
 30
0.0
 10
0.6362872507347674
 20
4.961850556334211
 30
0.0
 10
0.5873729061726749
 20
4.983517129063249
 30
0.0
  0
SPLINE
  5
158
330
1F
100
AcDbEntity
  8
Layer 01
370
    -3
100
AcDbSpline
210
0.0
220
0.0
230
1.0
 70
    28
 71
     2
 72
     6
 73
     3
 74
     0
 42
0.000000001
 43
0.0000000001
 40
1.547822471299807
 40
1.547822471299807
 40
1.547822471299807
 40
3.394243661876478
 40
3.394243661876478
 40
3.394243661876478
 10
34.52355834053213
 20
6.390000000000001
 30
0.0
 41
1.0
 10
34.54672649494012
 20
5.467080155227997
 30
0.0
 41
1.0
 10
34.5698946493481
 20
4.544160310455993
 30
0.0
 41
1.0
  0
SPLINE
  5
159
330
1F
100
AcDbEntity
  8
Layer 01
370
    -3
100
AcDbSpline
210
0.0
220
0.0
230
1.0
 70
    28
 71
     2
 72
     6
 73
     3
 74
     0
 42
0.000000001
 43
0.0000000001
 40
0.3427219428296939
 40
0.3427219428296939
 40
0.3427219428296939
 40
3.617721942829695
 40
3.617721942829695
 40
3.617721942829695
 10
36.35304259250057
 20
0.8896327514009954
 30
0.0
 41
1.0
 10
36.35304259250057
 20
2.527132751400998
 30
0.0
 41
1.0
 10
36.35304259250057
 20
4.164632751401001
 30
0.0
 41
1.0
  0
SPLINE
  5
15A
330
1F
100
AcDbEntity
  8
Layer 01
370
    -3
100
AcDbSpline
210
0.0
220
0.0
230
1.0
 70
    28
 71
     2
 72
     6
 73
     3
 74
     0
 42
0.000000001
 43
0.0000000001
 40
-1.179643210753428
 40
-1.179643210753428
 40
-1.179643210753428
 40
0.0
 40
0.0
 40
0.0
 10
36.22804253283687
 20
0.7646327514009954
 30
0.0
 41
1.0
 10
36.22804253283697
 20
0.764632751400994
 30
0.0
 41
0.70710678118654
 10
35.4770583405321
 20
0.7646327514009954
 30
0.0
 41
1.0
  0
SPLINE
  5
15B
330
1F
100
AcDbEntity
  8
Layer 01
370
    -3
100
AcDbSpline
210
0.0
220
0.0
230
1.0
 70
    12
 71
     3
 72
    13
 73
     9
 74
     0
 42
0.000000001
 43
0.0000000001
 40
0.0
 40
0.0
 40
0.0
 40
0.0
 40
0.0399192220174719
 40
0.0399192220174719
 40
0.0981286191928597
 40
0.0981286191928597
 40
0.0981286191928597
 40
0.1988466158087748
 40
0.1988466158087748
 40
0.1988466158087748
 40
0.1988466158087748
 10
36.22804259250057
 20
0.7646327514009954
 30
0.0
 41
1.0
 10
36.23954555217438
 20
0.7668268669928011
 30
0.0
 41
1.0
 10
36.26255147152199
 20
0.7712150981763983
 30
0.0
 41
1.0
 10
36.28993130053954
 20
0.779694721558684
 30
0.0
 41
1.0
 10
36.30435384297175
 20
0.7891673065755356
 30
0.0
 41
1.0
 10
36.3164309401489
 20
0.8012444037526762
 30
0.0
 41
1.0
 10
36.34083870838339
 20
0.8256521719871301
 30
0.0
 41
1.0
 10
36.35304259250058
 20
0.8569822670305255
 30
0.0
 41
1.057190958417937
 10
36.35304259250057
 20
0.889632751401004
 30
0.0
 41
1.17157287525381
  0
SPLINE
  5
15C
330
1F
100
AcDbEntity
  8
Layer 01
370
    -3
100
AcDbSpline
210
0.0
220
0.0
230
1.0
 70
    12
 71
     3
 72
    13
 73
     9
 74
     0
 42
0.000000001
 43
0.0000000001
 40
0.0
 40
0.0
 40
0.0
 40
0.0
 40
0.1007179966159123
 40
0.1007179966159123
 40
0.1007179966159123
 40
0.1958519299356719
 40
0.1958519299356719
 40
0.1996133958966823
 40
0.1996133958966823
 40
0.1996133958966823
 40
0.1996133958966823
 10
34.60107408856351
 20
0.8896327514010038
 30
0.0
 41
0.9913035274062634
 10
34.60107408856357
 20
0.8569822670305339
 30
0.0
 41
0.8945215004185467
 10
34.61327797268082
 20
0.8256521719871311
 30
0.0
 41
0.8461304869246883
 10
34.63768574091529
 20
0.8012444037526834
 30
0.0
 41
0.8461304869246884
 10
34.64976283809249
 20
0.7891673065754978
 30
0.0
 41
0.8461304869246884
 10
34.66418538052456
 20
0.7796947215587137
 30
0.0
 41
0.8461304869246884
 10
34.68068999962625
 20
0.7731606933635694
 30
0.0
 41
0.8461304869246884
 10
34.7256293800601
 20
0.7646327514010036
 30
0.0
 41
0.8461304869246884
 10
34.72607408856363
 20
0.7646327514010036
 30
0.0
 41
0.8461304869246884
  0
SPLINE
  5
15D
330
1F
100
AcDbEntity
  8
Layer 01
370
    -3
100
AcDbSpline
210
0.0
220
0.0
230
1.0
 70
    28
 71
     2
 72
     6
 73
     3
 74
     0
 42
0.000000001
 43
0.0000000001
 40
0.3427219428296953
 40
0.3427219428296953
 40
0.3427219428296953
 40
3.617721942829696
 40
3.617721942829696
 40
3.617721942829696
 10
34.60107408856356
 20
4.164632751401001
 30
0.0
 41
1.0
 10
34.60107408856356
 20
2.527132751400998
 30
0.0
 41
1.0
 10
34.60107408856356
 20
0.8896327514009954
 30
0.0
 41
1.0
  0
SPLINE
  5
15E
330
1F
100
AcDbEntity
  8
Layer 01
370
    -3
100
AcDbSpline
210
0.0
220
0.0
230
1.0
 70
    28
 71
     2
 72
     6
 73
     3
 74
     0
 42
0.000000001
 43
0.0000000001
 40
0.3224100949424968
 40
0.3224100949424968
 40
0.3224100949424968
 40
2.16883128551918
 40
2.16883128551918
 40
2.16883128551918
 10
36.38422203171609
 20
4.544160310455993
 30
0.0
 41
1.0
 10
36.40739018612408
 20
5.467080155228004
 30
0.0
 41
1.0
 10
36.43055834053206
 20
6.390000000000015
 30
0.0
 41
1.0
  0
SPLINE
  5
15F
330
1F
100
AcDbEntity
  8
Layer 01
370
    -3
100
AcDbSpline
210
0.0
220
0.0
230
1.0
 70
    12
 71
     3
 72
     8
 73
     4
 74
     0
 42
0.000000001
 43
0.0000000001
 40
0.0076152464972638
 40
0.0076152464972638
 40
0.0076152464972638
 40
0.0076152464972638
 40
0.3902623310144585
 40
0.3902623310144585
 40
0.3902623310144585
 40
0.3902623310144585
 10
34.56989464934827
 20
4.544160310448589
 30
0.0
 41
1.0
 10
34.57308011818213
 20
4.417264902685957
 30
0.0
 41
1.0
 10
34.60107408856362
 20
4.291568135447733
 30
0.0
 41
1.0
 10
34.60107408856356
 20
4.164632751401271
 30
0.0
 41
1.0
  0
SPLINE
  5
160
330
1F
100
AcDbEntity
  8
Layer 01
370
    -3
100
AcDbSpline
210
0.0
220
0.0
230
1.0
 70
    12
 71
     3
 72
     8
 73
     4
 74
     0
 42
0.000000001
 43
0.0000000001
 40
0.0076182569855393
 40
0.0076182569855393
 40
0.0076182569855393
 40
0.0076182569855393
 40
0.3902653415027347
 40
0.3902653415027347
 40
0.3902653415027347
 40
0.3902653415027347
 10
36.35304259250057
 20
4.164632751401271
 30
0.0
 41
1.0
 10
36.35304259250057
 20
4.291568135447733
 30
0.0
 41
1.0
 10
36.381036562882
 20
4.417264902685957
 30
0.0
 41
1.0
 10
36.38422203171586
 20
4.544160310448589
 30
0.0
 41
1.0
  0
SPLINE
  5
161
330
1F
100
AcDbEntity
  8
Layer 01
370
    -3
100
AcDbSpline
210
0.0
220
0.0
230
1.0
 70
    28
 71
     2
 72
     6
 73
     3
 74
     0
 42
0.000000001
 43
0.0000000001
 40
-2.359286421506824
 40
-2.359286421506824
 40
-2.359286421506824
 40
-1.179643210753407
 40
-1.179643210753407
 40
-1.179643210753407
 10
35.4770583405321
 20
0.7646327514009954
 30
0.0
 41
1.0
 10
34.72607414822733
 20
0.7646327514010083
 30
0.0
 41
0.7071067811865454
 10
34.72607414822727
 20
0.7646327514009954
 30
0.0
 41
1.0
  0
CIRCLE
  5
162
330
1F
100
AcDbEntity
  8
Layer 01
100
AcDbCircle
 10
24.298097851862
 20
1.280000000000005
 30
0.0
 40
1.0
  0
CIRCLE
  5
163
330
1F
100
AcDbEntity
  8
Layer 01
100
AcDbCircle
 10
24.298097851862
 20
1.280000000000005
 30
0.0
 40
1.0625
  0
CIRCLE
  5
164
330
1F
100
AcDbEntity
  8
Layer 01
100
AcDbCircle
 10
24.298097851862
 20
1.280000000000001
 30
0.0
 40
1.279999999999997
  0
SPLINE
  5
165
330
1F
100
AcDbEntity
  8
Layer 01
370
    -3
100
AcDbSpline
210
0.0
220
0.0
230
1.0
 70
    28
 71
     2
 72
     6
 73
     3
 74
     0
 42
0.000000001
 43
0.0000000001
 40
-1.413562190416147
 40
-1.413562190416147
 40
-1.413562190416147
 40
-0.1335621904161464
 40
-0.1335621904161464
 40
-0.1335621904161464
 10
25.57809785186203
 20
2.560000000000004
 30
0.0
 41
1.0
 10
25.57809785186203
 20
1.920000000000004
 30
0.0
 41
1.0
 10
25.57809785186203
 20
1.280000000000005
 30
0.0
 41
1.0
  0
LINE
  5
166
330
1F
100
AcDbEntity
  8
Layer 01
370
    -3
100
AcDbLine
 10
24.298097851862
 20
2.560000000000002
 30
0.0
 11
25.57809785186203
 21
2.560000000000004
 31
0.0
  0
LINE
  5
167
330
1F
100
AcDbEntity
  8
Layer 01
100
AcDbLine
 10
25.56247285186203
 20
2.660000000000004
 30
0.0
 11
25.56247285186203
 21
2.560000000000002
 31
0.0
  0
LINE
  5
168
330
1F
100
AcDbEntity
  8
Layer 01
100
AcDbLine
 10
24.87497285186203
 20
2.660000000000004
 30
0.0
 11
25.56247285186203
 21
2.660000000000004
 31
0.0
  0
LINE
  5
169
330
1F
100
AcDbEntity
  8
Layer 01
100
AcDbLine
 10
24.87497285186203
 20
2.560000000000002
 30
0.0
 11
24.87497285186203
 21
2.660000000000004
 31
0.0
  0
LINE
  5
16A
330
1F
100
AcDbEntity
  8
Layer 01
100
AcDbLine
 10
25.56247285186203
 20
2.560000000000002
 30
0.0
 11
24.87497285186203
 21
2.560000000000002
 31
0.0
  0
CIRCLE
  5
16B
330
1F
100
AcDbEntity
  8
Layer 01
100
AcDbCircle
 10
38.47476882920608
 20
1.280000000000001
 30
0.0
 40
1.0
  0
CIRCLE
  5
16C
330
1F
100
AcDbEntity
  8
Layer 01
100
AcDbCircle
 10
38.47476882920608
 20
1.280000000000001
 30
0.0
 40
1.0625
  0
CIRCLE
  5
16D
330
1F
100
AcDbEntity
  8
Layer 01
100
AcDbCircle
 10
38.47476882920608
 20
1.279999999999997
 30
0.0
 40
1.279999999999997
  0
SPLINE
  5
16E
330
1F
100
AcDbEntity
  8
Layer 01
370
    -3
100
AcDbSpline
210
0.0
220
0.0
230
1.0
 70
    28
 71
     2
 72
     6
 73
     3
 74
     0
 42
0.000000001
 43
0.0000000001
 40
-1.413562190416147
 40
-1.413562190416147
 40
-1.413562190416147
 40
-0.1335621904161464
 40
-0.1335621904161464
 40
-0.1335621904161464
 10
39.75476882920611
 20
2.56
 30
0.0
 41
1.0
 10
39.75476882920611
 20
1.920000000000001
 30
0.0
 41
1.0
 10
39.75476882920611
 20
1.280000000000001
 30
0.0
 41
1.0
  0
LINE
  5
16F
330
1F
100
AcDbEntity
  8
Layer 01
370
    -3
100
AcDbLine
 10
38.47476882920608
 20
2.559999999999999
 30
0.0
 11
39.75476882920611
 21
2.56
 31
0.0
  0
LINE
  5
170
330
1F
100
AcDbEntity
  8
Layer 01
100
AcDbLine
 10
39.73914382920611
 20
2.66
 30
0.0
 11
39.73914382920611
 21
2.559999999999999
 31
0.0
  0
LINE
  5
171
330
1F
100
AcDbEntity
  8
Layer 01
100
AcDbLine
 10
39.05164382920611
 20
2.66
 30
0.0
 11
39.73914382920611
 21
2.66
 31
0.0
  0
LINE
  5
172
330
1F
100
AcDbEntity
  8
Layer 01
100
AcDbLine
 10
39.05164382920611
 20
2.559999999999999
 30
0.0
 11
39.05164382920611
 21
2.66
 31
0.0
  0
LINE
  5
173
330
1F
100
AcDbEntity
  8
Layer 01
100
AcDbLine
 10
39.73914382920611
 20
2.559999999999999
 30
0.0
 11
39.05164382920611
 21
2.559999999999999
 31
0.0
  0
CIRCLE
  5
174
330
1F
100
AcDbEntity
  8
Layer 01
100
AcDbCircle
 10
47.23643334053207
 20
1.280000000000001
 30
0.0
 40
1.0
  0
CIRCLE
  5
175
330
1F
100
AcDbEntity
  8
Layer 01
100
AcDbCircle
 10
47.23643334053207
 20
1.280000000000001
 30
0.0
 40
1.0625
  0
CIRCLE
  5
176
330
1F
100
AcDbEntity
  8
Layer 01
100
AcDbCircle
 10
47.23643334053207
 20
1.279999999999997
 30
0.0
 40
1.279999999999997
  0
SPLINE
  5
177
330
1F
100
AcDbEntity
  8
Layer 01
370
    -3
100
AcDbSpline
210
0.0
220
0.0
230
1.0
 70
    28
 71
     2
 72
     6
 73
     3
 74
     0
 42
0.000000001
 43
0.0000000001
 40
-1.413562190416147
 40
-1.413562190416147
 40
-1.413562190416147
 40
-0.1335621904161464
 40
-0.1335621904161464
 40
-0.1335621904161464
 10
48.51643334053205
 20
2.56
 30
0.0
 41
1.0
 10
48.51643334053205
 20
1.920000000000001
 30
0.0
 41
1.0
 10
48.51643334053205
 20
1.280000000000001
 30
0.0
 41
1.0
  0
LINE
  5
178
330
1F
100
AcDbEntity
  8
Layer 01
370
    -3
100
AcDbLine
 10
47.23643334053207
 20
2.559999999999999
 30
0.0
 11
48.51643334053205
 21
2.56
 31
0.0
  0
LINE
  5
179
330
1F
100
AcDbEntity
  8
Layer 01
100
AcDbLine
 10
48.50080834053205
 20
2.66
 30
0.0
 11
48.50080834053205
 21
2.559999999999999
 31
0.0
  0
LINE
  5
17A
330
1F
100
AcDbEntity
  8
Layer 01
100
AcDbLine
 10
47.81330834053205
 20
2.66
 30
0.0
 11
48.50080834053205
 21
2.66
 31
0.0
  0
LINE
  5
17B
330
1F
100
AcDbEntity
  8
Layer 01
100
AcDbLine
 10
47.81330834053205
 20
2.559999999999999
 30
0.0
 11
47.81330834053205
 21
2.66
 31
0.0
  0
LINE
  5
17C
330
1F
100
AcDbEntity
  8
Layer 01
100
AcDbLine
 10
48.50080834053205
 20
2.559999999999999
 30
0.0
 11
47.81330834053205
 21
2.559999999999999
 31
0.0
  0
LINE
  5
17D
330
1F
100
AcDbEntity
  8
Layer 01
370
    -3
100
AcDbLine
 10
36.44724171254211
 20
8.547396284486771
 30
0.0
 11
36.33630725693553
 21
8.658331409097228
 31
0.0
  0
LINE
  5
17E
330
1F
100
AcDbEntity
  8
Layer 01
370
    -3
100
AcDbLine
 10
34.50687496852197
 20
8.547396284486773
 30
0.0
 11
36.44724171254211
 21
8.547396284486771
 31
0.0
  0
LINE
  5
17F
330
1F
100
AcDbEntity
  8
Layer 01
370
    -3
100
AcDbLine
 10
34.61780942412855
 20
8.658331409097228
 30
0.0
 11
34.50687496852197
 21
8.547396284486773
 31
0.0
  0
LINE
  5
180
330
1F
100
AcDbEntity
  8
Layer 01
370
    -3
100
AcDbLine
 10
36.33630725693553
 20
8.658331409097228
 30
0.0
 11
34.61780942412855
 21
8.658331409097228
 31
0.0
  0
SPLINE
  5
181
330
1F
100
AcDbEntity
  8
Layer 01
370
    -3
100
AcDbSpline
210
0.0
220
0.0
230
1.0
 70
     8
 71
     2
 72
    11
 73
     8
 74
     0
 42
0.000000001
 43
0.0000000001
 40
-0.1605754190155348
 40
-0.1605754190155348
 40
-0.1605754190155348
 40
1.0
 40
2.0
 40
3.0
 40
4.0
 40
5.0
 40
6.0
 40
6.0
 40
6.0
 10
25.50063844737105
 20
2.659204487736787
 30
0.0
 10
25.51029064265884
 20
2.861716877289789
 30
0.0
 10
25.52961496871842
 20
3.238655527080599
 30
0.0
 10
25.54822871262849
 20
3.587541003061578
 30
0.0
 10
25.56817449967269
 20
3.936355636126734
 30
0.0
 10
25.59093077001131
 20
4.28499457404268
 30
0.0
 10
25.707615885032
 20
4.645518828666591
 30
0.0
 10
25.87972150154127
 20
4.707117461427047
 30
0.0
  0
SPLINE
  5
182
330
1F
100
AcDbEntity
  8
Layer 01
370
    -3
100
AcDbSpline
210
0.0
220
0.0
230
1.0
 70
     8
 71
     2
 72
    11
 73
     8
 74
     0
 42
0.000000001
 43
0.0000000001
 40
-0.1429917852200163
 40
-0.1429917852200163
 40
-0.1429917852200163
 40
1.0
 40
2.0
 40
3.0
 40
4.0
 40
5.0
 40
6.0
 40
6.0
 40
6.0
 10
25.202844795705
 20
2.659600489653169
 30
0.0
 10
25.22926227385932
 20
2.88216932024639
 30
0.0
 10
25.27222886372988
 20
3.30017884798832
 30
0.0
 10
25.31037222353081
 20
3.690484817040935
 30
0.0
 10
25.34020911495628
 20
4.081625164052369
 30
0.0
 10
25.39953911219396
 20
4.46960761764231
 30
0.0
 10
25.58288453303857
 20
4.847692995937168
 30
0.0
 10
25.77456006847206
 20
4.919285245321007
 30
0.0
  0
SPLINE
  5
183
330
1F
100
AcDbEntity
  8
Layer 01
370
    -3
100
AcDbSpline
210
0.0
220
0.0
230
1.0
 70
     8
 71
     2
 72
     6
 73
     3
 74
     0
 42
0.000000001
 43
0.0000000001
 40
22.72437633487238
 40
22.72437633487238
 40
22.72437633487238
 40
23.72437633487238
 40
23.72437633487238
 40
23.72437633487238
 10
36.58686310873361
 20
6.389999999999993
 30
0.0
 10
36.62317320865185
 20
6.391565185771507
 30
0.0
 10
36.64452631534579
 20
6.420314302283368
 30
0.0
  0
SPLINE
  5
184
330
1F
100
AcDbEntity
  8
Layer 01
370
    -3
100
AcDbSpline
210
0.0
220
0.0
230
1.0
 70
    28
 71
     2
 72
     8
 73
     5
 74
     0
 42
0.000000001
 43
0.0000000001
 40
19.23782182817351
 40
19.23782182817351
 40
19.23782182817351
 40
20.98109908152295
 40
20.98109908152295
 40
22.72437633487238
 40
22.72437633487238
 40
22.72437633487238
 10
34.3672535723303
 20
6.389999999999994
 30
0.0
 41
1.0
 10
34.36725357233118
 20
6.39
 30
0.0
 41
0.7071067811867554
 10
35.47705834053187
 20
6.390000000000001
 30
0.0
 41
1.0
 10
36.58686310873251
 20
6.39
 30
0.0
 41
0.7071067811867554
 10
36.58686310873361
 20
6.389999999999993
 30
0.0
 41
1.0
  0
SPLINE
  5
185
330
1F
100
AcDbEntity
  8
Layer 01
370
    -3
100
AcDbSpline
210
0.0
220
0.0
230
1.0
 70
     8
 71
     2
 72
     6
 73
     3
 74
     0
 42
0.000000001
 43
0.0000000001
 40
18.23782182817351
 40
18.23782182817351
 40
18.23782182817351
 40
19.23782182817351
 40
19.23782182817351
 40
19.23782182817351
 10
34.29725423868007
 20
6.459694568346951
 30
0.0
 10
34.30324041422608
 20
6.396175645253279
 30
0.0
 10
34.3672535723303
 20
6.389999999999994
 30
0.0
  0
SPLINE
  5
186
330
1F
100
AcDbEntity
  8
Layer 01
370
    -3
100
AcDbSpline
210
0.0
220
0.0
230
1.0
 70
    28
 71
     2
 72
     6
 73
     3
 74
     0
 42
0.000000001
 43
0.0000000001
 40
18.01151424223833
 40
18.01151424223833
 40
18.01151424223833
 40
18.23782182817351
 40
18.23782182817351
 40
18.23782182817351
 10
34.29626678868937
 20
6.686000000000035
 30
0.0
 41
1.0
 10
34.29676051368472
 20
6.572847284173493
 30
0.0
 41
1.0
 10
34.29725423868007
 20
6.459694568346951
 30
0.0
 41
1.0
  0
SPLINE
  5
187
330
1F
100
AcDbEntity
  8
Layer 01
370
    -3
100
AcDbSpline
210
0.0
220
0.0
230
1.0
 70
     8
 71
     3
 72
    10
 73
     6
 74
     0
 42
0.000000001
 43
0.0000000001
 40
17.67265458264425
 40
17.67265458264425
 40
17.67265458264425
 40
17.67265458264425
 40
17.75736949754259
 40
17.84208441244117
 40
18.01151424223833
 40
18.01151424223833
 40
18.01151424223833
 40
18.01151424223833
 10
34.23814018642031
 20
7.014375022938864
 30
0.0
 10
34.24747467477312
 20
6.991139986838363
 30
0.0
 10
34.26400476695312
 20
6.942951543084931
 30
0.0
 10
34.28819015954207
 20
6.838661960308997
 30
0.0
 10
34.29598590286309
 20
6.750373880858007
 30
0.0
 10
34.29626678868937
 20
6.686000000000035
 30
0.0
  0
SPLINE
  5
188
330
1F
100
AcDbEntity
  8
Layer 01
370
    -3
100
AcDbSpline
210
0.0
220
0.0
230
1.0
 70
     8
 71
     3
 72
     8
 73
     4
 74
     0
 42
0.000000001
 43
0.0000000001
 40
16.67265458264425
 40
16.67265458264425
 40
16.67265458264425
 40
16.67265458264425
 40
17.67265458264425
 40
17.67265458264425
 40
17.67265458264425
 40
17.67265458264425
 10
33.91104079139274
 20
7.064255357663296
 30
0.0
 10
34.06198221129279
 20
7.115094278584056
 30
0.0
 10
34.18810378515656
 20
7.138923637255876
 30
0.0
 10
34.23814018642031
 20
7.014375022938864
 30
0.0
  0
LINE
  5
189
330
1F
100
AcDbEntity
  8
Layer 01
370
    -3
100
AcDbLine
 10
33.64334328948007
 20
6.974091556770006
 30
0.0
 11
33.91104079139274
 21
7.064255357663296
 31
0.0
  0
ARC
  5
18A
330
1F
100
AcDbEntity
  8
Layer 01
370
    -3
100
AcDbCircle
 10
-8837.121332397885
 20
-26130.66698498688
 30
0.0
 40
27580.38262517288
210
0.0
220
0.0
230
-1.0
100
AcDbArc
 50
71.36910151714198
 51
71.38584370994941
  0
SPLINE
  5
18B
330
1F
100
AcDbEntity
  8
Layer 01
370
    -3
100
AcDbSpline
210
0.0
220
0.0
230
1.0
 70
     8
 71
     2
 72
    11
 73
     8
 74
     0
 42
0.000000001
 43
0.0000000001
 40
9.637604567169864
 40
9.637604567169864
 40
9.637604567169864
 40
10.63760436848771
 40
11.63760440822414
 40
12.63760444796057
 40
13.637604487697
 40
14.63760452743343
 40
15.63760456716986
 40
15.63760456716986
 40
15.63760456716986
 10
25.59868408576494
 20
2.714599280526639
 30
0.0
 10
25.61225979561794
 20
2.864743424449011
 30
0.0
 10
25.63879325211298
 20
3.165074505296199
 30
0.0
 10
25.66491213675914
 20
3.465503700778719
 30
0.0
 10
25.69125914692097
 20
3.765554610148889
 30
0.0
 10
25.71612875258774
 20
4.067820829933129
 30
0.0
 10
25.86028028363108
 20
4.341355727600559
 30
0.0
 10
26.00613353606263
 20
4.400543208340807
 30
0.0
  0
SPLINE
  5
18C
330
1F
100
AcDbEntity
  8
Layer 01
370
    -3
100
AcDbSpline
210
0.0
220
0.0
230
1.0
 70
     8
 71
     2
 72
     6
 73
     3
 74
     0
 42
0.000000001
 43
0.0000000001
 40
8.637604567169864
 40
8.637604567169864
 40
8.637604567169864
 40
9.637604567169864
 40
9.637604567169864
 40
9.637604567169864
 10
25.54001680387012
 20
2.65915212293822
 30
0.0
 10
25.59052538229827
 20
2.659084957323133
 30
0.0
 10
25.59868408576494
 20
2.714599280526639
 30
0.0
  0
LINE
  5
18D
330
1F
100
AcDbEntity
  8
Layer 01
370
    -3
100
AcDbLine
 10
24.90241280044762
 20
2.659999999999997
 30
0.0
 11
25.54001680387012
 21
2.65915212293822
 31
0.0
  0
SPLINE
  5
18E
330
1F
100
AcDbEntity
  8
Layer 01
370
    -3
100
AcDbSpline
210
0.0
220
0.0
230
1.0
 70
    12
 71
     2
 72
    18
 73
    15
 74
     0
 42
0.000000001
 43
0.0000000001
 40
-1.156147645341662
 40
-1.156147645341662
 40
-1.156147645341662
 40
0.0
 40
0.0
 40
1.0
 40
1.0
 40
2.000050858232832
 40
3.000101716465664
 40
4.000152574698497
 40
5.000203432931328
 40
6.0
 40
6.0
 40
7.0
 40
7.0
 40
8.0
 40
8.0
 40
8.0
 10
34.50687496852197
 20
8.547396284486775
 30
0.0
 41
1.0
 10
33.93371986760903
 20
8.45578765690792
 30
0.0
 41
0.9939222250533981
 10
33.39450325965606
 20
8.240975273518991
 30
0.0
 41
1.0
 10
29.33400369075872
 20
6.623358769980379
 30
0.0
 41
0.9999840161468557
 10
25.255472090328
 20
5.051760893351469
 30
0.0
 41
1.0
 10
25.10488642067241
 20
4.996495876736912
 30
0.0
 41
1.0
 10
24.88467829925372
 20
4.765633473612835
 30
0.0
 41
1.0
 10
24.80209912731488
 20
4.457446561072725
 30
0.0
 41
1.0
 10
24.78791809845194
 20
4.143484544902536
 30
0.0
 41
1.0
 10
24.8043060756541
 20
3.829574682106888
 30
0.0
 41
1.0
 10
24.80977362335983
 20
3.672642438563848
 30
0.0
 41
1.0
 10
24.82853834276131
 20
3.195522664949743
 30
0.0
 41
1.0
 10
24.84239613224827
 20
2.718234688040852
 30
0.0
 41
1.0
 10
24.84776732840083
 20
2.660072666799499
 30
0.0
 41
1.0
 10
24.90241280044762
 20
2.659999999999997
 30
0.0
 41
1.0
  0
SPLINE
  5
18F
330
1F
100
AcDbEntity
  8
Layer 01
370
    -3
100
AcDbSpline
210
0.0
220
0.0
230
1.0
 70
    24
 71
     2
 72
     6
 73
     3
 74
     0
 42
0.000000001
 43
0.0000000001
 40
11.0
 40
11.0
 40
11.0
 40
12.0
 40
12.0
 40
12.0
 10
33.86126580430107
 20
7.939730459800998
 30
0.0
 10
29.81791293638656
 20
6.429507852561002
 30
0.0
 10
25.77456006847206
 20
4.919285245321007
 30
0.0
  0
SPLINE
  5
190
330
1F
100
AcDbEntity
  8
Layer 01
370
    -3
100
AcDbSpline
210
0.0
220
0.0
230
1.0
 70
     8
 71
     2
 72
     9
 73
     6
 74
     0
 42
0.000000001
 43
0.0000000001
 40
7.0
 40
7.0
 40
7.0
 40
8.0
 40
9.0
 40
10.0
 40
11.0
 40
11.0
 40
11.0
 10
35.45537578411694
 20
7.939730459554994
 30
0.0
 10
35.29374097655926
 20
8.079457081455978
 30
0.0
 10
34.87747020727278
 20
8.159452184993949
 30
0.0
 10
34.46073471567553
 20
8.119371124106609
 30
0.0
 10
34.05641074714072
 20
8.01406014152878
 30
0.0
 10
33.86126580430107
 20
7.939730459800998
 30
0.0
  0
LINE
  5
191
330
1F
100
AcDbEntity
  8
Layer 01
370
    -3
100
AcDbLine
 10
38.79237656898806
 20
4.919285240264998
 30
0.0
 11
35.45537578411694
 21
7.939730459554994
 31
0.0
  0
SPLINE
  5
192
330
1F
100
AcDbEntity
  8
Layer 01
370
    -3
100
AcDbSpline
210
0.0
220
0.0
230
1.0
 70
     8
 71
     2
 72
    11
 73
     8
 74
     0
 42
0.000000001
 43
0.0000000001
 40
-0.149637720682677
 40
-0.149637720682677
 40
-0.149637720682677
 40
1.0
 40
2.0
 40
3.0
 40
4.0
 40
5.0
 40
6.0
 40
6.0
 40
6.0
 10
39.1913235622834
 20
2.660000000009108
 30
0.0
 10
39.16019538315641
 20
2.8732774723195
 30
0.0
 10
39.11110709095999
 20
3.273281003141
 30
0.0
 10
39.06872493154924
 20
3.645799260313209
 30
0.0
 10
39.02987171597215
 20
4.018848351169998
 30
0.0
 10
38.98388524720593
 20
4.390273944655394
 30
0.0
 10
38.93267670858853
 20
4.792294294430282
 30
0.0
 10
38.79237656898806
 20
4.919285240264998
 30
0.0
  0
SPLINE
  5
193
330
1F
100
AcDbEntity
  8
Layer 01
370
    -3
100
AcDbSpline
210
0.0
220
0.0
230
1.0
 70
     8
 71
     2
 72
    11
 73
     8
 74
     0
 42
0.000000001
 43
0.0000000001
 40
6.03442081900354
 40
6.03442081900354
 40
6.03442081900354
 40
7.03442081900354
 40
8.03442081900354
 40
9.03442081900354
 40
10.03442081900354
 40
11.03442081900354
 40
12.03442081900354
 40
12.03442081900354
 40
12.03442081900354
 10
38.7408570987588
 20
4.717701046443322
 30
0.0
 10
38.86876574461235
 20
4.606153007753298
 30
0.0
 10
38.89996341930618
 20
4.226310076278379
 30
0.0
 10
38.92836243964092
 20
3.891130263778781
 30
0.0
 10
38.95496911570484
 20
3.555176169326785
 30
0.0
 10
38.97992691000587
 20
3.219203898290092
 30
0.0
 10
39.00472644331336
 20
2.883201471669075
 30
0.0
 10
39.01767153983008
 20
2.715243189828868
 30
0.0
  0
LINE
  5
194
330
1F
100
AcDbEntity
  8
Layer 01
370
    -3
100
AcDbLine
 10
35.44834046295637
 20
7.589076711684996
 30
0.0
 11
38.7408570987588
 21
4.717701046443322
 31
0.0
  0
SPLINE
  5
195
330
1F
100
AcDbEntity
  8
Layer 01
370
    -3
100
AcDbSpline
210
0.0
220
0.0
230
1.0
 70
     8
 71
     2
 72
     9
 73
     6
 74
     0
 42
0.000000001
 43
0.0000000001
 40
1.0
 40
1.0
 40
1.0
 40
2.0
 40
3.0
 40
4.0
 40
5.0
 40
5.0
 40
5.0
 10
33.93187062532411
 20
7.589076730789998
 30
0.0
 10
34.11848729414601
 20
7.657271516165128
 30
0.0
 10
34.50227381117122
 20
7.76150581582687
 30
0.0
 10
34.89918351787134
 20
7.799847498100657
 30
0.0
 10
35.29502396385612
 20
7.723381428401398
 30
0.0
 10
35.44834046295637
 20
7.589076711684996
 30
0.0
  0
LINE
  5
196
330
1F
100
AcDbEntity
  8
Layer 01
370
    -3
100
AcDbLine
 10
25.87972150154127
 20
4.707117461427047
 30
0.0
 11
33.93187062532411
 21
7.589076730789998
 31
0.0
  0
SPLINE
  5
197
330
1F
100
AcDbEntity
  8
Layer 01
370
    -3
100
AcDbSpline
210
0.0
220
0.0
230
1.0
 70
    24
 71
     2
 72
     6
 73
     3
 74
     0
 42
0.000000001
 43
0.0000000001
 40
14.63323924028998
 40
14.63323924028998
 40
14.63323924028998
 40
15.63323924028998
 40
15.63323924028998
 40
15.63323924028998
 10
47.25605834053204
 20
4.392033245006004
 30
0.0
 10
42.66371078938414
 20
5.643275941989479
 30
0.0
 10
38.07136323823642
 20
6.894518638972954
 30
0.0
  0
SPLINE
  5
198
330
1F
100
AcDbEntity
  8
Layer 01
370
    -3
100
AcDbSpline
210
0.0
220
0.0
230
1.0
 70
     8
 71
     3
 72
    13
 73
     9
 74
     0
 42
0.000000001
 43
0.0000000001
 40
8.633239240289981
 40
8.633239240289981
 40
8.633239240289981
 40
8.633239240289981
 40
9.633239240289981
 40
10.63323924028998
 40
11.63323924028998
 40
12.63323924028998
 40
13.63323924028998
 40
14.63323924028998
 40
14.63323924028998
 40
14.63323924028998
 40
14.63323924028998
 10
47.77782328583208
 20
2.715426638710184
 30
0.0
 10
47.76990172299242
 20
2.819778364175069
 30
0.0
 10
47.75358272897091
 20
3.028397495203153
 30
0.0
 10
47.73093801560418
 20
3.341646155510725
 30
0.0
 10
47.70306535903012
 20
3.653919751389653
 30
0.0
 10
47.69316280564669
 20
3.969688852785521
 30
0.0
 10
47.55198218540886
 20
4.264060622308564
 30
0.0
 10
47.35645617734713
 20
4.365551006646712
 30
0.0
 10
47.25605834053204
 20
4.392033245006004
 30
0.0
  0
SPLINE
  5
199
330
1F
100
AcDbEntity
  8
Layer 01
370
    -3
100
AcDbSpline
210
0.0
220
0.0
230
1.0
 70
     8
 71
     2
 72
     6
 73
     3
 74
     0
 42
0.000000001
 43
0.0000000001
 40
7.633239240289981
 40
7.633239240289981
 40
7.633239240289981
 40
8.633239240289981
 40
8.633239240289981
 40
8.633239240289981
 10
47.83764873498211
 20
2.659999999999997
 30
0.0
 10
47.78600659062892
 20
2.664259393094306
 30
0.0
 10
47.77782328583208
 20
2.715426638710184
 30
0.0
  0
LINE
  5
19A
330
1F
100
AcDbEntity
  8
Layer 01
370
    -3
100
AcDbLine
 10
48.47088797527209
 20
2.659999999999997
 30
0.0
 11
47.83764873498211
 21
2.659999999999997
 31
0.0
  0
SPLINE
  5
19B
330
1F
100
AcDbEntity
  8
Layer 01
370
    -3
100
AcDbSpline
210
0.0
220
0.0
230
1.0
 70
     8
 71
     2
 72
     6
 73
     3
 74
     0
 42
0.000000001
 43
0.0000000001
 40
6.0
 40
6.0
 40
6.0
 40
7.0
 40
7.0
 40
7.0
 10
48.53087678488208
 20
2.721158759657627
 30
0.0
 10
48.52656183276031
 20
2.665391167927005
 30
0.0
 10
48.47088797527209
 20
2.659999999999997
 30
0.0
  0
SPLINE
  5
19C
330
1F
100
AcDbEntity
  8
Layer 01
370
    -3
100
AcDbSpline
210
0.0
220
0.0
230
1.0
 70
     8
 71
     3
 72
    13
 73
     9
 74
     0
 42
0.000000001
 43
0.0000000001
 40
0.0
 40
0.0
 40
0.0
 40
0.0
 40
1.0
 40
2.0
 40
3.0
 40
4.0
 40
5.0
 40
6.0
 40
6.0
 40
6.0
 40
6.0
 10
47.9240583405321
 20
5.079399780786005
 30
0.0
 10
48.06279432837215
 20
5.037911270604457
 30
0.0
 10
48.31010909147818
 20
4.865519859591783
 30
0.0
 10
48.48785277600717
 20
4.455654730715273
 30
0.0
 10
48.50855124653884
 20
4.021011251182312
 30
0.0
 10
48.51337721208296
 20
3.587975961157001
 30
0.0
 10
48.5227372622233
 20
3.154508809644694
 30
0.0
 10
48.52804119664125
 20
2.865620840228843
 30
0.0
 10
48.53087678488208
 20
2.721158759657627
 30
0.0
  0
LINE
  5
19D
330
1F
100
AcDbEntity
  8
Layer 01
370
    -3
100
AcDbLine
 10
38.15205834053205
 20
8.067000000000007
 30
0.0
 11
47.9240583405321
 21
5.079399780786005
 31
0.0
  0
ARC
  5
19E
330
1F
100
AcDbEntity
  8
Layer 01
370
    -3
100
AcDbCircle
 10
-26.40330345904232
 20
-30.36144566804771
 30
0.0
 40
40.18430884969187
210
0.0
220
0.0
230
-1.0
100
AcDbArc
 50
104.4743624085954
 51
107.0000000000006
  0
SPLINE
  5
19F
330
1F
100
AcDbEntity
  8
Layer 01
370
    -3
100
AcDbSpline
210
0.0
220
0.0
230
1.0
 70
     8
 71
     3
 72
    13
 73
     9
 74
     0
 42
0.000000001
 43
0.0000000001
 40
2.038110370536129
 40
2.038110370536129
 40
2.038110370536129
 40
2.038110370536129
 40
3.038110370536129
 40
4.038110370536129
 40
5.038110370536129
 40
6.038110370536129
 40
7.038110370536129
 40
8.194479560285792
 40
8.194479560285792
 40
8.194479560285792
 40
8.194479560285792
 10
47.7287869175521
 20
4.707459481028099
 30
0.0
 10
47.84384050726516
 20
4.673360364152028
 30
0.0
 10
48.01407515665591
 20
4.483496869120205
 30
0.0
 10
48.06787552967177
 20
4.127742269615083
 30
0.0
 10
48.06136224312075
 20
3.775211290828616
 30
0.0
 10
48.06992139806852
 20
3.421766074192834
 30
0.0
 10
48.07247980464251
 20
3.050130458141477
 30
0.0
 10
48.07424248237783
 20
2.796171723545093
 30
0.0
 10
48.07444450295782
 20
2.660000000000004
 30
0.0
  0
LINE
  5
1A0
330
1F
100
AcDbEntity
  8
Layer 01
370
    -3
100
AcDbLine
 10
38.00594254684404
 20
7.589076711670998
 30
0.0
 11
47.7287869175521
 21
4.707459481028099
 31
0.0
  0
SPLINE
  5
1A1
330
1F
100
AcDbEntity
  8
Layer 01
370
    -3
100
AcDbSpline
210
0.0
220
0.0
230
1.0
 70
     8
 71
     3
 72
     8
 73
     4
 74
     0
 42
0.000000001
 43
0.0000000001
 40
0.0
 40
0.0
 40
0.0
 40
0.0
 40
1.0
 40
1.0
 40
1.0
 40
1.0
 10
37.31581850954439
 20
7.767595715353082
 30
0.0
 10
37.55016328740533
 20
7.726164069171906
 30
0.0
 10
37.77775964615677
 20
7.65525098021674
 30
0.0
 10
38.00594254684404
 20
7.589076711670998
 30
0.0
  0
SPLINE
  5
1A2
330
1F
100
AcDbEntity
  8
Layer 01
370
    -3
100
AcDbSpline
210
0.0
220
0.0
230
1.0
 70
    24
 71
     2
 72
     6
 73
     3
 74
     0
 42
0.000000001
 43
0.0000000001
 40
25.63629857371484
 40
25.63629857371484
 40
25.63629857371484
 40
26.63629857371484
 40
26.63629857371484
 40
26.63629857371484
 10
38.76357094192008
 20
4.541304438569995
 30
0.0
 10
37.55416942436688
 20
5.613650359314418
 30
0.0
 10
36.34476790681367
 20
6.685996280058847
 30
0.0
  0
SPLINE
  5
1A3
330
1F
100
AcDbEntity
  8
Layer 01
370
    -3
100
AcDbSpline
210
0.0
220
0.0
230
1.0
 70
     8
 71
     2
 72
    12
 73
     9
 74
     0
 42
0.000000001
 43
0.0000000001
 40
18.63629857371484
 40
18.63629857371484
 40
18.63629857371484
 40
19.63628998974585
 40
20.63629142040735
 40
21.63629285106885
 40
22.63629428173035
 40
23.63629571239184
 40
24.63629714305334
 40
25.63629857371484
 40
25.63629857371484
 40
25.63629857371484
 10
39.01679102905109
 20
2.715168369918004
 30
0.0
 10
39.00505018310008
 20
2.847636723434083
 30
0.0
 10
38.98375123724338
 20
3.112752059854858
 30
0.0
 10
38.96256533633391
 20
3.377883766036183
 30
0.0
 10
38.94077626563029
 20
3.642932225571482
 30
0.0
 10
38.91860637305581
 20
3.908148774692143
 30
0.0
 10
38.89376440172089
 20
4.171976968030632
 30
0.0
 10
38.85539526680481
 20
4.441045212878355
 30
0.0
 10
38.76357094192008
 20
4.541304438569995
 30
0.0
  0
SPLINE
  5
1A4
330
1F
100
AcDbEntity
  8
Layer 01
370
    -3
100
AcDbSpline
210
0.0
220
0.0
230
1.0
 70
     8
 71
     2
 72
     6
 73
     3
 74
     0
 42
0.000000001
 43
0.0000000001
 40
17.63629857371484
 40
17.63629857371484
 40
17.63629857371484
 40
18.63629857371484
 40
18.63629857371484
 40
18.63629857371484
 10
39.07714502556308
 20
2.660000000000636
 30
0.0
 10
39.02587296707583
 20
2.664380223828891
 30
0.0
 10
39.01679102905109
 20
2.715168369918004
 30
0.0
  0
LINE
  5
1A5
330
1F
100
AcDbEntity
  8
Layer 01
370
    -3
100
AcDbLine
 10
39.71344359927798
 20
2.659940551268216
 30
0.0
 11
39.07714502556308
 21
2.660000000000636
 31
0.0
  0
SPLINE
  5
1A6
330
1F
100
AcDbEntity
  8
Layer 01
370
    -3
100
AcDbSpline
210
0.0
220
0.0
230
1.0
 70
     8
 71
     2
 72
     6
 73
     3
 74
     0
 42
0.000000001
 43
0.0000000001
 40
16.0
 40
16.0
 40
16.0
 40
17.0
 40
17.0
 40
17.0
 10
39.77337487506151
 20
2.71614093242084
 30
0.0
 10
39.76562396503147
 20
2.66440978815093
 30
0.0
 10
39.71344359927798
 20
2.659940551268216
 30
0.0
  0
SPLINE
  5
1A7
330
1F
100
AcDbEntity
  8
Layer 01
370
    -3
100
AcDbSpline
210
0.0
220
0.0
230
1.0
 70
     8
 71
     2
 72
     6
 73
     3
 74
     0
 42
0.000000001
 43
0.0000000001
 40
15.0
 40
15.0
 40
15.0
 40
16.0
 40
16.0
 40
16.0
 10
39.83122099082158
 20
3.541584392958072
 30
0.0
 10
39.79775551147151
 20
3.129184988143321
 30
0.0
 10
39.77337487506151
 20
2.71614093242084
 30
0.0
  0
SPLINE
  5
1A8
330
1F
100
AcDbEntity
  8
Layer 01
370
    -3
100
AcDbSpline
210
0.0
220
0.0
230
1.0
 70
     8
 71
     2
 72
    11
 73
     8
 74
     0
 42
0.000000001
 43
0.0000000001
 40
9.0
 40
9.0
 40
9.0
 40
10.00001199913325
 40
11.0000239982665
 40
12.00003599739974
 40
13.00004799653299
 40
14.00005999566624
 40
15.0
 40
15.0
 40
15.0
 10
39.80034422549539
 20
4.971945684672313
 30
0.0
 10
39.87192318974269
 20
4.868426682369485
 30
0.0
 10
39.896896559852
 20
4.624928187926376
 30
0.0
 10
39.89706343006731
 20
4.383932959441752
 30
0.0
 10
39.88262178015339
 20
4.142845360005838
 30
0.0
 10
39.86150516821027
 20
3.902388449307534
 30
0.0
 10
39.8412691000857
 20
3.661852572397664
 30
0.0
 10
39.83122099082158
 20
3.541584392958072
 30
0.0
  0
SPLINE
  5
1A9
330
1F
100
AcDbEntity
  8
Layer 01
370
    -3
100
AcDbSpline
210
0.0
220
0.0
230
1.0
 70
     8
 71
     2
 72
     6
 73
     3
 74
     0
 42
0.000000001
 43
0.0000000001
 40
8.0
 40
8.0
 40
8.0
 40
9.0
 40
9.0
 40
9.0
 10
37.11200819043023
 20
7.99895754701808
 30
0.0
 10
38.45355420308738
 20
6.485198362634907
 30
0.0
 10
39.80034422549539
 20
4.971945684672313
 30
0.0
  0
SPLINE
  5
1AA
330
1F
100
AcDbEntity
  8
Layer 01
370
    -3
100
AcDbSpline
210
0.0
220
0.0
230
1.0
 70
     8
 71
     3
 72
     8
 73
     4
 74
     0
 42
0.000000001
 43
0.0000000001
 40
7.0
 40
7.0
 40
7.0
 40
7.0
 40
8.0
 40
8.0
 40
8.0
 40
8.0
 10
38.11314813731605
 20
7.939730459562
 30
0.0
 10
37.72875930581642
 20
8.058839747918217
 30
0.0
 10
36.85208941523911
 20
8.292241884213446
 30
0.0
 10
37.11200819043023
 20
7.99895754701808
 30
0.0
  0
LINE
  5
1AB
330
1F
100
AcDbEntity
  8
Layer 01
370
    -3
100
AcDbLine
 10
47.86071211387207
 20
4.919285240264998
 30
0.0
 11
38.11314813731605
 21
7.939730459562
 31
0.0
  0
SPLINE
  5
1AC
330
1F
100
AcDbEntity
  8
Layer 01
370
    -3
100
AcDbSpline
210
0.0
220
0.0
230
1.0
 70
     8
 71
     3
 72
    13
 73
     9
 74
     0
 42
0.000000001
 43
0.0000000001
 40
-0.1400750718506401
 40
-0.1400750718506401
 40
-0.1400750718506401
 40
-0.1400750718506401
 40
1.0
 40
2.0
 40
3.0
 40
4.0
 40
5.000000000000001
 40
6.000000000000001
 40
6.000000000000001
 40
6.000000000000001
 40
6.000000000000001
 10
48.39339846951015
 20
2.66
 30
0.0
 10
48.38583460144378
 20
2.810659755769877
 30
0.0
 10
48.37175839708368
 20
3.093499045473353
 30
0.0
 10
48.3532802440206
 20
3.508558989965565
 30
0.0
 10
48.33514814542326
 20
3.905200381063816
 30
0.0
 10
48.32614703846781
 20
4.301792258067881
 30
0.0
 10
48.21393060657113
 20
4.692988259598621
 30
0.0
 10
47.98840807889013
 20
4.879716516428973
 30
0.0
 10
47.86071211387207
 20
4.919285240264998
 30
0.0
  0
ENDSEC
  0
SECTION
  2
OBJECTS
  0
DICTIONARY
  5
C
330
0
100
AcDbDictionary
281
     1
  3
ACAD_DETAILVIEWSTYLE
350
1E8
  3
ACAD_GROUP
350
D
  3
ACAD_LAYOUT
350
1A
  3
ACAD_MATERIAL
350
43
  3
ACAD_MLEADERSTYLE
350
6B
  3
ACAD_MLINESTYLE
350
17
  3
ACAD_PLOTSETTINGS
350
19
  3
ACAD_PLOTSTYLENAME
350
E
  3
ACAD_SCALELIST
350
47
  3
ACAD_SECTIONVIEWSTYLE
350
1E9
  3
ACAD_TABLESTYLE
350
69
  3
ACAD_VISUALSTYLE
350
2A
  3
ACDB_RECOMPOSE_DATA
350
1E5
  3
AcDbVariableDictionary
350
1AD
  0
SUN
  5
6D
330
29
100
AcDbSun
 90
        1
290
     0
 63
     7
421
 16777215
 40
1.0
291
     1
 91
  2455826
 92
 54000000
292
     0
 70
     2
 71
   256
280
     1
  0
DICTIONARY
  5
1E8
102
{ACAD_REACTORS
330
C
102
}
330
C
100
AcDbDictionary
281
     1
  0
DICTIONARY
  5
D
102
{ACAD_REACTORS
330
C
102
}
330
C
100
AcDbDictionary
281
     1
  0
DICTIONARY
  5
1A
102
{ACAD_REACTORS
330
C
102
}
330
C
100
AcDbDictionary
281
     1
  3
Layout1
350
1E
  3
Layout2
350
26
  3
Model
350
22
  0
DICTIONARY
  5
43
102
{ACAD_REACTORS
330
C
102
}
330
C
100
AcDbDictionary
281
     1
  3
ByBlock
350
45
  3
ByLayer
350
44
  3
Global
350
46
  0
DICTIONARY
  5
6B
102
{ACAD_REACTORS
330
C
102
}
330
C
100
AcDbDictionary
281
     1
  3
Standard
350
6C
  0
DICTIONARY
  5
17
102
{ACAD_REACTORS
330
C
102
}
330
C
100
AcDbDictionary
281
     1
  3
Standard
350
18
  0
DICTIONARY
  5
19
102
{ACAD_REACTORS
330
C
102
}
330
C
100
AcDbDictionary
281
     1
  0
ACDBDICTIONARYWDFLT
  5
E
102
{ACAD_REACTORS
330
C
102
}
330
C
100
AcDbDictionary
281
     1
  3
Normal
350
F
100
AcDbDictionaryWithDefault
340
F
  0
DICTIONARY
  5
47
102
{ACAD_REACTORS
330
C
102
}
330
C
100
AcDbDictionary
281
     1
  3
A0
350
48
  3
A1
350
49
  3
A2
350
4A
  3
A3
350
4B
  3
A4
350
4C
  3
A5
350
4D
  3
A6
350
4E
  3
A7
350
4F
  3
A8
350
50
  3
A9
350
51
  3
B0
350
52
  3
B1
350
53
  3
B2
350
54
  3
B3
350
55
  3
B4
350
56
  3
B5
350
57
  3
B6
350
58
  3
B7
350
59
  3
B8
350
5A
  3
B9
350
5B
  3
C0
350
5C
  3
C1
350
5D
  3
C2
350
5E
  3
C3
350
5F
  3
C4
350
60
  3
C5
350
61
  3
C6
350
62
  3
C7
350
63
  3
C8
350
64
  3
C9
350
65
  3
D0
350
66
  3
D1
350
67
  3
D2
350
68
  0
DICTIONARY
  5
1E9
102
{ACAD_REACTORS
330
C
102
}
330
C
100
AcDbDictionary
281
     1
  0
DICTIONARY
  5
69
102
{ACAD_REACTORS
330
C
102
}
330
C
100
AcDbDictionary
281
     1
  3
Standard
350
6A
  0
DICTIONARY
  5
2A
102
{ACAD_REACTORS
330
C
102
}
330
C
100
AcDbDictionary
281
     1
  3
2dWireframe
350
2F
  3
Basic
350
32
  3
Brighten
350
36
  3
ColorChange
350
3A
  3
Conceptual
350
34
  3
Dim
350
35
  3
EdgeColorOff
350
3D
  3
Facepattern
350
39
  3
Flat
350
2B
  3
FlatWithEdges
350
2C
  3
Gouraud
350
2D
  3
GouraudWithEdges
350
2E
  3
Hidden
350
31
  3
JitterOff
350
3B
  3
Linepattern
350
38
  3
OverhangOff
350
3C
  3
Realistic
350
33
  3
Shaded
350
42
  3
Shaded with edges
350
41
  3
Shades of Gray
350
3E
  3
Sketchy
350
3F
  3
Thicken
350
37
  3
Wireframe
350
30
  3
X-Ray
350
40
  0
XRECORD
  5
1E5
102
{ACAD_REACTORS
330
C
102
}
330
C
100
AcDbXrecord
280
     1
 90
        1
330
6A
  0
DICTIONARY
  5
1AD
102
{ACAD_REACTORS
330
C
102
}
330
C
100
AcDbDictionary
281
     1
  3
CANNOSCALE
350
1AE
  3
CMLEADERSTYLE
350
1E7
  3
CTABLESTYLE
350
1E6
  3
XCLIPFRAME
350
1AF
  0
LAYOUT
  5
1E
102
{ACAD_REACTORS
330
1A
102
}
330
1A
100
AcDbPlotSettings
  1

  2
none_device
  4

  6

 40
0.0
 41
0.0
 42
0.0
 43
0.0
 44
0.0
 45
0.0
 46
0.0
 47
0.0
 48
0.0
 49
0.0
140
0.0
141
0.0
142
1.0
143
1.0
 70
   688
 72
     0
 73
     0
 74
     5
  7

 75
    16
 76
     0
 77
     2
 78
   300
147
1.0
148
0.0
149
0.0
100
AcDbLayout
  1
Layout1
 70
     1
 71
     1
 10
0.0
 20
0.0
 11
12.0
 21
9.0
 12
0.0
 22
0.0
 32
0.0
 14
1.000000000000000E+20
 24
1.000000000000000E+20
 34
1.000000000000000E+20
 15
-1.000000000000000E+20
 25
-1.000000000000000E+20
 35
-1.000000000000000E+20
146
0.0
 13
0.0
 23
0.0
 33
0.0
 16
1.0
 26
0.0
 36
0.0
 17
0.0
 27
1.0
 37
0.0
 76
     0
330
1B
  0
LAYOUT
  5
26
102
{ACAD_REACTORS
330
1A
102
}
330
1A
100
AcDbPlotSettings
  1

  2
none_device
  4

  6

 40
0.0
 41
0.0
 42
0.0
 43
0.0
 44
0.0
 45
0.0
 46
0.0
 47
0.0
 48
0.0
 49
0.0
140
0.0
141
0.0
142
1.0
143
1.0
 70
   688
 72
     0
 73
     0
 74
     5
  7

 75
    16
 76
     0
 77
     2
 78
   300
147
1.0
148
0.0
149
0.0
100
AcDbLayout
  1
Layout2
 70
     1
 71
     2
 10
0.0
 20
0.0
 11
0.0
 21
0.0
 12
0.0
 22
0.0
 32
0.0
 14
0.0
 24
0.0
 34
0.0
 15
0.0
 25
0.0
 35
0.0
146
0.0
 13
0.0
 23
0.0
 33
0.0
 16
1.0
 26
0.0
 36
0.0
 17
0.0
 27
1.0
 37
0.0
 76
     0
330
23
  0
LAYOUT
  5
22
102
{ACAD_REACTORS
330
1A
102
}
330
1A
100
AcDbPlotSettings
  1

  2
none_device
  4
Letter_(8.50_x_11.00_Inches)
  6

 40
6.35
 41
6.35
 42
6.35000508
 43
6.35000508
 44
215.9
 45
279.4
 46
0.0
 47
0.0
 48
0.0
 49
0.0
140
0.0
141
0.0
142
1.0
143
1.0
 70
  1712
 72
     0
 73
     0
 74
     0
  7

 75
     0
 76
     0
 77
     2
 78
   300
147
1.0
148
0.0
149
0.0
100
AcDbLayout
  1
Model
 70
     1
 71
     0
 10
0.0
 20
0.0
 11
12.0
 21
9.0
 12
0.0
 22
0.0
 32
0.0
 14
1.000000000000000E+20
 24
1.000000000000000E+20
 34
1.000000000000000E+20
 15
-1.000000000000000E+20
 25
-1.000000000000000E+20
 35
-1.000000000000000E+20
146
0.0
 13
0.0
 23
0.0
 33
0.0
 16
1.0
 26
0.0
 36
0.0
 17
0.0
 27
1.0
 37
0.0
 76
     0
330
1F
331
29
  0
MATERIAL
  5
45
102
{ACAD_REACTORS
330
43
102
}
330
43
100
AcDbMaterial
  1
ByBlock
 72
     1
 94
      127
  0
MATERIAL
  5
44
102
{ACAD_REACTORS
330
43
102
}
330
43
100
AcDbMaterial
  1
ByLayer
 72
     1
 94
      127
  0
MATERIAL
  5
46
102
{ACAD_REACTORS
330
43
102
}
330
43
100
AcDbMaterial
  1
Global
 72
     1
 94
      127
  0
MLEADERSTYLE
  5
6C
102
{ACAD_REACTORS
330
6B
102
}
102
{ACAD_XDICTIONARY
360
1E3
102
}
330
6B
100
AcDbMLeaderStyle
170
     2
171
     1
172
     0
 90
        2
 40
0.0
 41
0.0
173
     1
 91
-1056964608
340
14
 92
       -2
290
     1
 42
0.09
291
     1
 43
0.36
  3
Standard
341
0
 44
0.18
300

342
11
174
     1
178
     6
175
     1
176
     0
 93
-1056964608
 45
0.18
292
     0
297
     0
 46
0.18
343
0
 94
-1056964608
 47
1.0
 49
1.0
140
1.0
293
     1
141
0.0
294
     1
177
     0
142
1.0
295
     0
296
     0
143
0.125
1001
ACAD_MLEADERVER
1070
     2
  0
MLINESTYLE
  5
18
102
{ACAD_REACTORS
330
17
102
}
330
17
100
AcDbMlineStyle
  2
Standard
 70
     0
  3

 62
   256
 51
90.0
 52
90.0
 71
     2
 49
0.5
 62
   256
  6
BYLAYER
 49
-0.5
 62
   256
  6
BYLAYER
  0
ACDBPLACEHOLDER
  5
F
102
{ACAD_REACTORS
330
E
102
}
330
E
  0
SCALE
  5
48
102
{ACAD_REACTORS
330
47
102
}
330
47
100
AcDbScale
 70
     0
300
1:1
140
1.0
141
1.0
290
     1
  0
SCALE
  5
49
102
{ACAD_REACTORS
330
47
102
}
330
47
100
AcDbScale
 70
     0
300
1:2
140
1.0
141
2.0
290
     0
  0
SCALE
  5
4A
102
{ACAD_REACTORS
330
47
102
}
330
47
100
AcDbScale
 70
     0
300
1:4
140
1.0
141
4.0
290
     0
  0
SCALE
  5
4B
102
{ACAD_REACTORS
330
47
102
}
330
47
100
AcDbScale
 70
     0
300
1:5
140
1.0
141
5.0
290
     0
  0
SCALE
  5
4C
102
{ACAD_REACTORS
330
47
102
}
330
47
100
AcDbScale
 70
     0
300
1:8
140
1.0
141
8.0
290
     0
  0
SCALE
  5
4D
102
{ACAD_REACTORS
330
47
102
}
330
47
100
AcDbScale
 70
     0
300
1:10
140
1.0
141
10.0
290
     0
  0
SCALE
  5
4E
102
{ACAD_REACTORS
330
47
102
}
330
47
100
AcDbScale
 70
     0
300
1:16
140
1.0
141
16.0
290
     0
  0
SCALE
  5
4F
102
{ACAD_REACTORS
330
47
102
}
330
47
100
AcDbScale
 70
     0
300
1:20
140
1.0
141
20.0
290
     0
  0
SCALE
  5
50
102
{ACAD_REACTORS
330
47
102
}
330
47
100
AcDbScale
 70
     0
300
1:30
140
1.0
141
30.0
290
     0
  0
SCALE
  5
51
102
{ACAD_REACTORS
330
47
102
}
330
47
100
AcDbScale
 70
     0
300
1:40
140
1.0
141
40.0
290
     0
  0
SCALE
  5
52
102
{ACAD_REACTORS
330
47
102
}
330
47
100
AcDbScale
 70
     0
300
1:50
140
1.0
141
50.0
290
     0
  0
SCALE
  5
53
102
{ACAD_REACTORS
330
47
102
}
330
47
100
AcDbScale
 70
     0
300
1:100
140
1.0
141
100.0
290
     0
  0
SCALE
  5
54
102
{ACAD_REACTORS
330
47
102
}
330
47
100
AcDbScale
 70
     0
300
2:1
140
2.0
141
1.0
290
     0
  0
SCALE
  5
55
102
{ACAD_REACTORS
330
47
102
}
330
47
100
AcDbScale
 70
     0
300
4:1
140
4.0
141
1.0
290
     0
  0
SCALE
  5
56
102
{ACAD_REACTORS
330
47
102
}
330
47
100
AcDbScale
 70
     0
300
8:1
140
8.0
141
1.0
290
     0
  0
SCALE
  5
57
102
{ACAD_REACTORS
330
47
102
}
330
47
100
AcDbScale
 70
     0
300
10:1
140
10.0
141
1.0
290
     0
  0
SCALE
  5
58
102
{ACAD_REACTORS
330
47
102
}
330
47
100
AcDbScale
 70
     0
300
100:1
140
100.0
141
1.0
290
     0
  0
SCALE
  5
59
102
{ACAD_REACTORS
330
47
102
}
330
47
100
AcDbScale
 70
     0
300
1/128" = 1'-0"
140
0.0078125
141
12.0
290
     0
  0
SCALE
  5
5A
102
{ACAD_REACTORS
330
47
102
}
330
47
100
AcDbScale
 70
     0
300
1/64" = 1'-0"
140
0.015625
141
12.0
290
     0
  0
SCALE
  5
5B
102
{ACAD_REACTORS
330
47
102
}
330
47
100
AcDbScale
 70
     0
300
1/32" = 1'-0"
140
0.03125
141
12.0
290
     0
  0
SCALE
  5
5C
102
{ACAD_REACTORS
330
47
102
}
330
47
100
AcDbScale
 70
     0
300
1/16" = 1'-0"
140
0.0625
141
12.0
290
     0
  0
SCALE
  5
5D
102
{ACAD_REACTORS
330
47
102
}
330
47
100
AcDbScale
 70
     0
300
3/32" = 1'-0"
140
0.09375
141
12.0
290
     0
  0
SCALE
  5
5E
102
{ACAD_REACTORS
330
47
102
}
330
47
100
AcDbScale
 70
     0
300
1/8" = 1'-0"
140
0.125
141
12.0
290
     0
  0
SCALE
  5
5F
102
{ACAD_REACTORS
330
47
102
}
330
47
100
AcDbScale
 70
     0
300
3/16" = 1'-0"
140
0.1875
141
12.0
290
     0
  0
SCALE
  5
60
102
{ACAD_REACTORS
330
47
102
}
330
47
100
AcDbScale
 70
     0
300
1/4" = 1'-0"
140
0.25
141
12.0
290
     0
  0
SCALE
  5
61
102
{ACAD_REACTORS
330
47
102
}
330
47
100
AcDbScale
 70
     0
300
3/8" = 1'-0"
140
0.375
141
12.0
290
     0
  0
SCALE
  5
62
102
{ACAD_REACTORS
330
47
102
}
330
47
100
AcDbScale
 70
     0
300
1/2" = 1'-0"
140
0.5
141
12.0
290
     0
  0
SCALE
  5
63
102
{ACAD_REACTORS
330
47
102
}
330
47
100
AcDbScale
 70
     0
300
3/4" = 1'-0"
140
0.75
141
12.0
290
     0
  0
SCALE
  5
64
102
{ACAD_REACTORS
330
47
102
}
330
47
100
AcDbScale
 70
     0
300
1" = 1'-0"
140
1.0
141
12.0
290
     0
  0
SCALE
  5
65
102
{ACAD_REACTORS
330
47
102
}
330
47
100
AcDbScale
 70
     0
300
1-1/2" = 1'-0"
140
1.5
141
12.0
290
     0
  0
SCALE
  5
66
102
{ACAD_REACTORS
330
47
102
}
330
47
100
AcDbScale
 70
     0
300
3" = 1'-0"
140
3.0
141
12.0
290
     0
  0
SCALE
  5
67
102
{ACAD_REACTORS
330
47
102
}
330
47
100
AcDbScale
 70
     0
300
6" = 1'-0"
140
6.0
141
12.0
290
     0
  0
SCALE
  5
68
102
{ACAD_REACTORS
330
47
102
}
330
47
100
AcDbScale
 70
     0
300
1'-0" = 1'-0"
140
12.0
141
12.0
290
     0
  0
TABLESTYLE
  5
6A
102
{ACAD_REACTORS
330
69
102
}
102
{ACAD_XDICTIONARY
360
1E0
102
}
330
69
100
AcDbTableStyle
  3
Standard
 70
     0
 71
     0
 40
0.06
 41
0.06
280
     0
281
     0
  7
Standard
140
0.18
170
     2
 62
     0
 63
   257
283
     0
 90
        4
 91
        0
  1

274
    -2
284
     1
 64
     0
275
    -2
285
     1
 65
     0
276
    -2
286
     1
 66
     0
277
    -2
287
     1
 67
     0
278
    -2
288
     1
 68
     0
279
    -2
289
     1
 69
     0
  7
Standard
140
0.25
170
     5
 62
     0
 63
   257
283
     0
 90
        4
 91
        0
  1

274
    -2
284
     1
 64
     0
275
    -2
285
     1
 65
     0
276
    -2
286
     1
 66
     0
277
    -2
287
     1
 67
     0
278
    -2
288
     1
 68
     0
279
    -2
289
     1
 69
     0
  7
Standard
140
0.18
170
     5
 62
     0
 63
   257
283
     0
 90
        4
 91
        0
  1

274
    -2
284
     1
 64
     0
275
    -2
285
     1
 65
     0
276
    -2
286
     1
 66
     0
277
    -2
287
     1
 67
     0
278
    -2
288
     1
 68
     0
279
    -2
289
     1
 69
     0
  0
VISUALSTYLE
  5
2F
102
{ACAD_REACTORS
330
2A
102
}
102
{ACAD_XDICTIONARY
360
1B8
102
}
330
2A
100
AcDbVisualStyle
  2
2dWireframe
 70
     4
 71
     0
 72
     2
 73
     0
 90
        0
 40
0.6
 41
30.0
 62
     5
 63
     7
421
 16777215
 74
     1
 91
        4
 64
     7
 65
   257
 75
     1
175
     1
 42
1.0
 92
        0
 66
   257
 43
1.0
 76
     1
 77
     6
 78
     2
 67
     7
 79
     5
170
     0
171
     0
290
     0
174
     0
 93
        1
 44
0.0
173
     0
291
     0
 45
0.0
  0
VISUALSTYLE
  5
32
102
{ACAD_REACTORS
330
2A
102
}
102
{ACAD_XDICTIONARY
360
1BE
102
}
330
2A
100
AcDbVisualStyle
  2
Basic
 70
     7
 71
     1
 72
     0
 73
     1
 90
        0
 40
0.6
 41
30.0
 62
     5
 63
     7
421
 16777215
 74
     0
 91
        4
 64
     7
 65
   257
 75
     1
175
     1
 42
1.0
 92
        8
 66
     7
 43
1.0
 76
     1
 77
     6
 78
     2
 67
     7
 79
     5
170
     0
171
     0
290
     0
174
     0
 93
        1
 44
0.0
173
     0
291
     1
 45
0.0
  0
VISUALSTYLE
  5
36
102
{ACAD_REACTORS
330
2A
102
}
102
{ACAD_XDICTIONARY
360
1C6
102
}
330
2A
100
AcDbVisualStyle
  2
Brighten
 70
    12
 71
     2
 72
     2
 73
     0
 90
        0
 40
0.6
 41
30.0
 62
     5
 63
     7
421
 16777215
 74
     1
 91
        4
 64
     7
 65
   257
 75
     1
175
     1
 42
1.0
 92
        8
 66
     7
 43
1.0
 76
     1
 77
     6
 78
     2
 67
     7
 79
     5
170
     0
171
     0
290
     0
174
     0
 93
        1
 44
50.0
173
     0
291
     1
 45
0.0
  0
VISUALSTYLE
  5
3A
102
{ACAD_REACTORS
330
2A
102
}
102
{ACAD_XDICTIONARY
360
1CE
102
}
330
2A
100
AcDbVisualStyle
  2
ColorChange
 70
    16
 71
     2
 72
     2
 73
     3
 90
        0
 40
0.6
 41
30.0
 62
     5
 63
     8
421
  8421504
 74
     1
 91
        4
 64
     7
 65
   257
 75
     1
175
     1
 42
1.0
 92
        8
 66
     8
424
  8421504
 43
1.0
 76
     1
 77
     6
 78
     2
 67
     7
 79
     5
170
     0
171
     0
290
     0
174
     0
 93
        1
 44
0.0
173
     0
291
     1
 45
0.0
  0
VISUALSTYLE
  5
34
102
{ACAD_REACTORS
330
2A
102
}
102
{ACAD_XDICTIONARY
360
1C2
102
}
330
2A
100
AcDbVisualStyle
  2
Conceptual
 70
     9
 71
     3
 72
     2
 73
     0
 90
        0
 40
0.6
 41
30.0
 62
     5
 63
     7
421
 16777215
 74
     2
 91
        2
 64
     7
 65
   257
 75
     1
175
     1
 42
179.0
 92
        8
 66
     7
 43
1.0
 76
     1
 77
     6
 78
     2
 67
     7
 79
     3
170
     0
171
     0
290
     0
174
     0
 93
        1
 44
0.0
173
     0
291
     0
 45
0.0
  0
VISUALSTYLE
  5
35
102
{ACAD_REACTORS
330
2A
102
}
102
{ACAD_XDICTIONARY
360
1C4
102
}
330
2A
100
AcDbVisualStyle
  2
Dim
 70
    11
 71
     2
 72
     2
 73
     0
 90
        0
 40
0.6
 41
30.0
 62
     5
 63
     7
421
 16777215
 74
     1
 91
        4
 64
     7
 65
   257
 75
     1
175
     1
 42
1.0
 92
        8
 66
     7
 43
1.0
 76
     1
 77
     6
 78
     2
 67
     7
 79
     5
170
     0
171
     0
290
     0
174
     0
 93
        1
 44
-50.0
173
     0
291
     1
 45
0.0
  0
VISUALSTYLE
  5
3D
102
{ACAD_REACTORS
330
2A
102
}
102
{ACAD_XDICTIONARY
360
1D4
102
}
330
2A
100
AcDbVisualStyle
  2
EdgeColorOff
 70
    22
 71
     2
 72
     2
 73
     0
 90
        0
 40
0.6
 41
30.0
 62
     5
 63
     7
421
 16777215
 74
     1
 91
        4
 64
     7
 65
   257
 75
     1
175
     1
 42
1.0
 92
        8
 66
     7
 43
1.0
 76
     1
 77
     6
 78
     2
 67
     7
 79
     5
170
     0
171
     0
290
     0
174
     0
 93
        1
 44
0.0
173
     0
291
     1
 45
0.0
  0
VISUALSTYLE
  5
39
102
{ACAD_REACTORS
330
2A
102
}
102
{ACAD_XDICTIONARY
360
1CC
102
}
330
2A
100
AcDbVisualStyle
  2
Facepattern
 70
    15
 71
     2
 72
     2
 73
     0
 90
        0
 40
0.6
 41
30.0
 62
     5
 63
     7
421
 16777215
 74
     1
 91
        4
 64
     7
 65
   257
 75
     1
175
     1
 42
1.0
 92
        8
 66
     7
 43
1.0
 76
     1
 77
     6
 78
     2
 67
     7
 79
     5
170
     0
171
     0
290
     0
174
     0
 93
        1
 44
0.0
173
     0
291
     1
 45
0.0
  0
VISUALSTYLE
  5
2B
102
{ACAD_REACTORS
330
2A
102
}
102
{ACAD_XDICTIONARY
360
1B0
102
}
330
2A
100
AcDbVisualStyle
  2
Flat
 70
     0
 71
     2
 72
     1
 73
     1
 90
        2
 40
0.6
 41
30.0
 62
     5
 63
     7
421
 16777215
 74
     0
 91
        0
 64
     7
 65
   257
 75
     1
175
     1
 42
1.0
 92
        8
 66
     7
 43
1.0
 76
     1
 77
     6
 78
     2
 67
     7
 79
     5
170
     0
171
     0
290
     0
174
     0
 93
       13
 44
0.0
173
     0
291
     1
 45
0.0
  0
VISUALSTYLE
  5
2C
102
{ACAD_REACTORS
330
2A
102
}
102
{ACAD_XDICTIONARY
360
1B2
102
}
330
2A
100
AcDbVisualStyle
  2
FlatWithEdges
 70
     1
 71
     2
 72
     1
 73
     1
 90
        2
 40
0.6
 41
30.0
 62
     5
 63
     7
421
 16777215
 74
     1
 91
        0
 64
     7
 65
   257
 75
     1
175
     1
 42
1.0
 92
        0
 66
   257
 43
1.0
 76
     1
 77
     6
 78
     2
 67
     7
 79
     5
170
     0
171
     0
290
     0
174
     0
 93
       13
 44
0.0
173
     0
291
     1
 45
0.0
  0
VISUALSTYLE
  5
2D
102
{ACAD_REACTORS
330
2A
102
}
102
{ACAD_XDICTIONARY
360
1B4
102
}
330
2A
100
AcDbVisualStyle
  2
Gouraud
 70
     2
 71
     2
 72
     2
 73
     1
 90
        2
 40
0.6
 41
30.0
 62
     5
 63
     7
421
 16777215
 74
     0
 91
        0
 64
     7
 65
   257
 75
     1
175
     1
 42
1.0
 92
        0
 66
     7
 43
1.0
 76
     1
 77
     6
 78
     2
 67
     7
 79
     5
170
     0
171
     0
290
     0
174
     0
 93
       13
 44
0.0
173
     0
291
     1
 45
0.0
  0
VISUALSTYLE
  5
2E
102
{ACAD_REACTORS
330
2A
102
}
102
{ACAD_XDICTIONARY
360
1B6
102
}
330
2A
100
AcDbVisualStyle
  2
GouraudWithEdges
 70
     3
 71
     2
 72
     2
 73
     1
 90
        2
 40
0.6
 41
30.0
 62
     5
 63
     7
421
 16777215
 74
     1
 91
        0
 64
     7
 65
   257
 75
     1
175
     1
 42
1.0
 92
        0
 66
   257
 43
1.0
 76
     1
 77
     6
 78
     2
 67
     7
 79
     5
170
     0
171
     0
290
     0
174
     0
 93
       13
 44
0.0
173
     0
291
     1
 45
0.0
  0
VISUALSTYLE
  5
31
102
{ACAD_REACTORS
330
2A
102
}
102
{ACAD_XDICTIONARY
360
1BC
102
}
330
2A
100
AcDbVisualStyle
  2
Hidden
 70
     6
 71
     1
 72
     2
 73
     2
 90
        0
 40
0.6
 41
30.0
 62
     5
 63
     7
421
 16777215
 74
     2
 91
        2
 64
     7
 65
   257
 75
     2
175
     1
 42
40.0
 92
        0
 66
   257
 43
1.0
 76
     1
 77
     6
 78
     2
 67
     7
 79
     3
170
     0
171
     0
290
     0
174
     0
 93
        1
 44
0.0
173
     0
291
     0
 45
0.0
  0
VISUALSTYLE
  5
3B
102
{ACAD_REACTORS
330
2A
102
}
102
{ACAD_XDICTIONARY
360
1D0
102
}
330
2A
100
AcDbVisualStyle
  2
JitterOff
 70
    20
 71
     2
 72
     2
 73
     0
 90
        0
 40
0.6
 41
30.0
 62
     5
 63
     7
421
 16777215
 74
     1
 91
        4
 64
     7
 65
   257
 75
     1
175
     1
 42
1.0
 92
       10
 66
     7
 43
1.0
 76
     1
 77
     6
 78
     2
 67
     7
 79
     5
170
     0
171
     0
290
     0
174
     0
 93
        1
 44
0.0
173
     0
291
     1
 45
0.0
  0
VISUALSTYLE
  5
38
102
{ACAD_REACTORS
330
2A
102
}
102
{ACAD_XDICTIONARY
360
1CA
102
}
330
2A
100
AcDbVisualStyle
  2
Linepattern
 70
    14
 71
     2
 72
     2
 73
     0
 90
        0
 40
0.6
 41
30.0
 62
     5
 63
     7
421
 16777215
 74
     1
 91
        4
 64
     7
 65
   257
 75
     7
175
     7
 42
1.0
 92
        8
 66
     7
 43
1.0
 76
     1
 77
     6
 78
     2
 67
     7
 79
     5
170
     0
171
     0
290
     0
174
     0
 93
        1
 44
0.0
173
     0
291
     1
 45
0.0
  0
VISUALSTYLE
  5
3C
102
{ACAD_REACTORS
330
2A
102
}
102
{ACAD_XDICTIONARY
360
1D2
102
}
330
2A
100
AcDbVisualStyle
  2
OverhangOff
 70
    21
 71
     2
 72
     2
 73
     0
 90
        0
 40
0.6
 41
30.0
 62
     5
 63
     7
421
 16777215
 74
     1
 91
        4
 64
     7
 65
   257
 75
     1
175
     1
 42
1.0
 92
        9
 66
     7
 43
1.0
 76
     1
 77
     6
 78
     2
 67
     7
 79
     5
170
     0
171
     0
290
     0
174
     0
 93
        1
 44
0.0
173
     0
291
     1
 45
0.0
  0
VISUALSTYLE
  5
33
102
{ACAD_REACTORS
330
2A
102
}
102
{ACAD_XDICTIONARY
360
1C0
102
}
330
2A
100
AcDbVisualStyle
  2
Realistic
 70
     8
 71
     2
 72
     3
 73
     0
 90
        2
 40
0.6
 41
30.0
 62
     5
 63
     7
421
 16777215
 74
     0
 91
        0
 64
     7
 65
   257
 75
     1
175
     1
 42
1.0
 92
        8
 66
   257
 43
1.0
 76
     1
 77
     6
 78
     2
 67
     7
 79
     3
170
     0
171
     0
290
     0
174
     0
 93
       13
 44
0.0
173
     0
291
     0
 45
0.0
  0
VISUALSTYLE
  5
42
102
{ACAD_REACTORS
330
2A
102
}
102
{ACAD_XDICTIONARY
360
1DE
102
}
330
2A
100
AcDbVisualStyle
  2
Shaded
 70
    27
 71
     2
 72
     2
 73
     1
 90
        2
 40
0.6
 41
30.0
 62
     5
 63
     7
421
 16777215
 74
     0
 91
        4
 64
     7
 65
   257
 75
     1
175
     1
 42
1.0
 92
        8
 66
   257
 43
1.0
 76
     1
 77
     6
 78
     2
 67
     8
425
  7895160
 79
     3
170
     0
171
     0
290
     0
174
     0
 93
        5
 44
0.0
173
     0
291
     0
 45
0.0
  0
VISUALSTYLE
  5
41
102
{ACAD_REACTORS
330
2A
102
}
102
{ACAD_XDICTIONARY
360
1DC
102
}
330
2A
100
AcDbVisualStyle
  2
Shaded with edges
 70
    26
 71
     2
 72
     2
 73
     1
 90
        2
 40
0.6
 41
30.0
 62
     5
 63
     7
421
 16777215
 74
     1
 91
       10
 64
     7
 65
   257
 75
     2
175
     1
 42
1.0
 92
        8
 66
   257
 43
1.0
 76
     1
 77
     6
 78
     2
 67
     7
 79
     3
170
     0
171
     0
290
     0
174
     0
 93
        5
 44
0.0
173
     0
291
     0
 45
0.0
  0
VISUALSTYLE
  5
3E
102
{ACAD_REACTORS
330
2A
102
}
102
{ACAD_XDICTIONARY
360
1D6
102
}
330
2A
100
AcDbVisualStyle
  2
Shades of Gray
 70
    23
 71
     2
 72
     2
 73
     3
 90
        0
 40
0.6
 41
30.0
 62
     5
 63
     7
421
 16777215
 74
     2
 91
        2
 64
     7
 65
     7
 75
     1
175
     1
 42
40.0
 92
        8
 66
     7
 43
1.0
 76
     1
 77
     6
 78
     2
 67
     7
 79
     3
170
     0
171
     0
290
     0
174
     0
 93
        1
 44
0.0
173
     0
291
     0
 45
0.0
  0
VISUALSTYLE
  5
3F
102
{ACAD_REACTORS
330
2A
102
}
102
{ACAD_XDICTIONARY
360
1D8
102
}
330
2A
100
AcDbVisualStyle
  2
Sketchy
 70
    24
 71
     1
 72
     2
 73
     2
 90
        0
 40
0.6
 41
30.0
 62
     5
 63
     7
421
 16777215
 74
     2
 91
        2
 64
     7
 65
     7
 75
     1
175
     1
 42
40.0
 92
       11
 66
     7
 43
1.0
 76
     1
 77
     6
 78
     2
 67
     7
 79
     6
170
     0
171
     0
290
     0
174
     0
 93
        1
 44
0.0
173
     0
291
     0
 45
0.0
  0
VISUALSTYLE
  5
37
102
{ACAD_REACTORS
330
2A
102
}
102
{ACAD_XDICTIONARY
360
1C8
102
}
330
2A
100
AcDbVisualStyle
  2
Thicken
 70
    13
 71
     2
 72
     2
 73
     0
 90
        0
 40
0.6
 41
30.0
 62
     5
 63
     7
421
 16777215
 74
     1
 91
        4
 64
     7
 65
   257
 75
     1
175
     1
 42
1.0
 92
       12
 66
     7
 43
1.0
 76
     1
 77
     6
 78
     2
 67
     7
 79
     5
170
     0
171
     0
290
     0
174
     0
 93
        1
 44
0.0
173
     0
291
     1
 45
0.0
  0
VISUALSTYLE
  5
30
102
{ACAD_REACTORS
330
2A
102
}
102
{ACAD_XDICTIONARY
360
1BA
102
}
330
2A
100
AcDbVisualStyle
  2
Wireframe
 70
     5
 71
     0
 72
     2
 73
     0
 90
        0
 40
0.6
 41
30.0
 62
     5
 63
     7
421
 16777215
 74
     1
 91
        4
 64
     7
 65
   257
 75
     1
175
     1
 42
1.0
 92
        0
 66
   257
 43
1.0
 76
     1
 77
     6
 78
     2
 67
     7
 79
     3
170
     0
171
     0
290
     0
174
     0
 93
        1
 44
0.0
173
     0
291
     0
 45
0.0
  0
VISUALSTYLE
  5
40
102
{ACAD_REACTORS
330
2A
102
}
102
{ACAD_XDICTIONARY
360
1DA
102
}
330
2A
100
AcDbVisualStyle
  2
X-Ray
 70
    25
 71
     2
 72
     2
 73
     1
 90
        1
 40
0.5
 41
30.0
 62
     5
 63
     7
421
 16777215
 74
     1
 91
        0
 64
     7
 65
   257
 75
     1
175
     1
 42
1.0
 92
        8
 66
     7
 43
1.0
 76
     1
 77
     6
 78
     2
 67
     7
 79
     3
170
     0
171
     0
290
     0
174
     0
 93
       13
 44
0.0
173
     0
291
     0
 45
0.0
  0
DICTIONARYVAR
  5
1AE
102
{ACAD_REACTORS
330
1AD
102
}
330
1AD
100
DictionaryVariables
280
     0
  1
1:1
  0
DICTIONARYVAR
  5
1E7
102
{ACAD_REACTORS
330
1AD
102
}
330
1AD
100
DictionaryVariables
280
     0
  1
Standard
  0
DICTIONARYVAR
  5
1E6
102
{ACAD_REACTORS
330
1AD
102
}
330
1AD
100
DictionaryVariables
280
     0
  1
Standard
  0
DICTIONARYVAR
  5
1AF
102
{ACAD_REACTORS
330
1AD
102
}
330
1AD
100
DictionaryVariables
280
     0
  1
2
  0
DICTIONARY
  5
1E3
330
6C
100
AcDbDictionary
280
     1
281
     1
  3
ACAD_XREC_ROUNDTRIP
360
1E4
  0
DICTIONARY
  5
1E0
330
6A
100
AcDbDictionary
280
     1
281
     1
  3
ACAD_ROUNDTRIP_2008_TABLESTYLE_CELLSTYLEMAP
360
1E1
  0
DICTIONARY
  5
1B8
330
2F
100
AcDbDictionary
280
     1
281
     1
  3
ACAD_XREC_ROUNDTRIP
360
1B9
  0
DICTIONARY
  5
1BE
330
32
100
AcDbDictionary
280
     1
281
     1
  3
ACAD_XREC_ROUNDTRIP
360
1BF
  0
DICTIONARY
  5
1C6
330
36
100
AcDbDictionary
280
     1
281
     1
  3
ACAD_XREC_ROUNDTRIP
360
1C7
  0
DICTIONARY
  5
1CE
330
3A
100
AcDbDictionary
280
     1
281
     1
  3
ACAD_XREC_ROUNDTRIP
360
1CF
  0
DICTIONARY
  5
1C2
330
34
100
AcDbDictionary
280
     1
281
     1
  3
ACAD_XREC_ROUNDTRIP
360
1C3
  0
DICTIONARY
  5
1C4
330
35
100
AcDbDictionary
280
     1
281
     1
  3
ACAD_XREC_ROUNDTRIP
360
1C5
  0
DICTIONARY
  5
1D4
330
3D
100
AcDbDictionary
280
     1
281
     1
  3
ACAD_XREC_ROUNDTRIP
360
1D5
  0
DICTIONARY
  5
1CC
330
39
100
AcDbDictionary
280
     1
281
     1
  3
ACAD_XREC_ROUNDTRIP
360
1CD
  0
DICTIONARY
  5
1B0
330
2B
100
AcDbDictionary
280
     1
281
     1
  3
ACAD_XREC_ROUNDTRIP
360
1B1
  0
DICTIONARY
  5
1B2
330
2C
100
AcDbDictionary
280
     1
281
     1
  3
ACAD_XREC_ROUNDTRIP
360
1B3
  0
DICTIONARY
  5
1B4
330
2D
100
AcDbDictionary
280
     1
281
     1
  3
ACAD_XREC_ROUNDTRIP
360
1B5
  0
DICTIONARY
  5
1B6
330
2E
100
AcDbDictionary
280
     1
281
     1
  3
ACAD_XREC_ROUNDTRIP
360
1B7
  0
DICTIONARY
  5
1BC
330
31
100
AcDbDictionary
280
     1
281
     1
  3
ACAD_XREC_ROUNDTRIP
360
1BD
  0
DICTIONARY
  5
1D0
330
3B
100
AcDbDictionary
280
     1
281
     1
  3
ACAD_XREC_ROUNDTRIP
360
1D1
  0
DICTIONARY
  5
1CA
330
38
100
AcDbDictionary
280
     1
281
     1
  3
ACAD_XREC_ROUNDTRIP
360
1CB
  0
DICTIONARY
  5
1D2
330
3C
100
AcDbDictionary
280
     1
281
     1
  3
ACAD_XREC_ROUNDTRIP
360
1D3
  0
DICTIONARY
  5
1C0
330
33
100
AcDbDictionary
280
     1
281
     1
  3
ACAD_XREC_ROUNDTRIP
360
1C1
  0
DICTIONARY
  5
1DE
330
42
100
AcDbDictionary
280
     1
281
     1
  3
ACAD_XREC_ROUNDTRIP
360
1DF
  0
DICTIONARY
  5
1DC
330
41
100
AcDbDictionary
280
     1
281
     1
  3
ACAD_XREC_ROUNDTRIP
360
1DD
  0
DICTIONARY
  5
1D6
330
3E
100
AcDbDictionary
280
     1
281
     1
  3
ACAD_XREC_ROUNDTRIP
360
1D7
  0
DICTIONARY
  5
1D8
330
3F
100
AcDbDictionary
280
     1
281
     1
  3
ACAD_XREC_ROUNDTRIP
360
1D9
  0
DICTIONARY
  5
1C8
330
37
100
AcDbDictionary
280
     1
281
     1
  3
ACAD_XREC_ROUNDTRIP
360
1C9
  0
DICTIONARY
  5
1BA
330
30
100
AcDbDictionary
280
     1
281
     1
  3
ACAD_XREC_ROUNDTRIP
360
1BB
  0
DICTIONARY
  5
1DA
330
40
100
AcDbDictionary
280
     1
281
     1
  3
ACAD_XREC_ROUNDTRIP
360
1DB
  0
XRECORD
  5
1E4
102
{ACAD_REACTORS
330
1E3
102
}
330
1E3
100
AcDbXrecord
280
     1
102
ACAD_ROUNDTRIP_2010_MLEADER_STYLE
  0
CELLSTYLEMAP
  5
1E1
102
{ACAD_REACTORS
330
1E0
102
}
330
1E0
100
AcDbCellStyleMap
 90
        3
300
CELLSTYLE
  1
TABLEFORMAT_BEGIN
 90
        5
170
     1
 91
        0
 92
    32768
 62
   257
 93
        1
300
CONTENTFORMAT
  1
CONTENTFORMAT_BEGIN
 90
        0
 91
        0
 92
        4
 93
        0
300

 40
0.0
140
1.0
 94
        5
 62
     0
340
11
144
0.25
309
CONTENTFORMAT_END
171
     1
301
MARGIN
  1
CELLMARGIN_BEGIN
 40
0.06
 40
0.06
 40
0.06
 40
0.06
 40
0.06
 40
0.06
309
CELLMARGIN_END
 94
        6
 95
        1
302
GRIDFORMAT
  1
GRIDFORMAT_BEGIN
 90
        0
 91
        1
 62
     0
 92
       -2
340
14
 93
        0
 40
0.045
309
GRIDFORMAT_END
 95
        2
302
GRIDFORMAT
  1
GRIDFORMAT_BEGIN
 90
        0
 91
        1
 62
     0
 92
       -2
340
14
 93
        0
 40
0.045
309
GRIDFORMAT_END
 95
        4
302
GRIDFORMAT
  1
GRIDFORMAT_BEGIN
 90
        0
 91
        1
 62
     0
 92
       -2
340
14
 93
        0
 40
0.045
309
GRIDFORMAT_END
 95
        8
302
GRIDFORMAT
  1
GRIDFORMAT_BEGIN
 90
        0
 91
        1
 62
     0
 92
       -2
340
14
 93
        0
 40
0.045
309
GRIDFORMAT_END
 95
       16
302
GRIDFORMAT
  1
GRIDFORMAT_BEGIN
 90
        0
 91
        1
 62
     0
 92
       -2
340
14
 93
        0
 40
0.045
309
GRIDFORMAT_END
 95
       32
302
GRIDFORMAT
  1
GRIDFORMAT_BEGIN
 90
        0
 91
        1
 62
     0
 92
       -2
340
14
 93
        0
 40
0.045
309
GRIDFORMAT_END
309
TABLEFORMAT_END
  1
CELLSTYLE_BEGIN
 90
        1
 91
        1
300
_TITLE
309
CELLSTYLE_END
300
CELLSTYLE
  1
TABLEFORMAT_BEGIN
 90
        5
170
     1
 91
        0
 92
        0
 62
   257
 93
        1
300
CONTENTFORMAT
  1
CONTENTFORMAT_BEGIN
 90
        0
 91
        0
 92
        4
 93
        0
300

 40
0.0
140
1.0
 94
        5
 62
     0
340
11
144
0.18
309
CONTENTFORMAT_END
171
     1
301
MARGIN
  1
CELLMARGIN_BEGIN
 40
0.06
 40
0.06
 40
0.06
 40
0.06
 40
0.06
 40
0.06
309
CELLMARGIN_END
 94
        6
 95
        1
302
GRIDFORMAT
  1
GRIDFORMAT_BEGIN
 90
        0
 91
        1
 62
     0
 92
       -2
340
14
 93
        0
 40
0.045
309
GRIDFORMAT_END
 95
        2
302
GRIDFORMAT
  1
GRIDFORMAT_BEGIN
 90
        0
 91
        1
 62
     0
 92
       -2
340
14
 93
        0
 40
0.045
309
GRIDFORMAT_END
 95
        4
302
GRIDFORMAT
  1
GRIDFORMAT_BEGIN
 90
        0
 91
        1
 62
     0
 92
       -2
340
14
 93
        0
 40
0.045
309
GRIDFORMAT_END
 95
        8
302
GRIDFORMAT
  1
GRIDFORMAT_BEGIN
 90
        0
 91
        1
 62
     0
 92
       -2
340
14
 93
        0
 40
0.045
309
GRIDFORMAT_END
 95
       16
302
GRIDFORMAT
  1
GRIDFORMAT_BEGIN
 90
        0
 91
        1
 62
     0
 92
       -2
340
14
 93
        0
 40
0.045
309
GRIDFORMAT_END
 95
       32
302
GRIDFORMAT
  1
GRIDFORMAT_BEGIN
 90
        0
 91
        1
 62
     0
 92
       -2
340
14
 93
        0
 40
0.045
309
GRIDFORMAT_END
309
TABLEFORMAT_END
  1
CELLSTYLE_BEGIN
 90
        2
 91
        1
300
_HEADER
309
CELLSTYLE_END
300
CELLSTYLE
  1
TABLEFORMAT_BEGIN
 90
        5
170
     1
 91
        0
 92
        0
 62
   257
 93
        1
300
CONTENTFORMAT
  1
CONTENTFORMAT_BEGIN
 90
        0
 91
        0
 92
        4
 93
        0
300

 40
0.0
140
1.0
 94
        2
 62
     0
340
11
144
0.18
309
CONTENTFORMAT_END
171
     1
301
MARGIN
  1
CELLMARGIN_BEGIN
 40
0.06
 40
0.06
 40
0.06
 40
0.06
 40
0.06
 40
0.06
309
CELLMARGIN_END
 94
        6
 95
        1
302
GRIDFORMAT
  1
GRIDFORMAT_BEGIN
 90
        0
 91
        1
 62
     0
 92
       -2
340
14
 93
        0
 40
0.045
309
GRIDFORMAT_END
 95
        2
302
GRIDFORMAT
  1
GRIDFORMAT_BEGIN
 90
        0
 91
        1
 62
     0
 92
       -2
340
14
 93
        0
 40
0.045
309
GRIDFORMAT_END
 95
        4
302
GRIDFORMAT
  1
GRIDFORMAT_BEGIN
 90
        0
 91
        1
 62
     0
 92
       -2
340
14
 93
        0
 40
0.045
309
GRIDFORMAT_END
 95
        8
302
GRIDFORMAT
  1
GRIDFORMAT_BEGIN
 90
        0
 91
        1
 62
     0
 92
       -2
340
14
 93
        0
 40
0.045
309
GRIDFORMAT_END
 95
       16
302
GRIDFORMAT
  1
GRIDFORMAT_BEGIN
 90
        0
 91
        1
 62
     0
 92
       -2
340
14
 93
        0
 40
0.045
309
GRIDFORMAT_END
 95
       32
302
GRIDFORMAT
  1
GRIDFORMAT_BEGIN
 90
        0
 91
        1
 62
     0
 92
       -2
340
14
 93
        0
 40
0.045
309
GRIDFORMAT_END
309
TABLEFORMAT_END
  1
CELLSTYLE_BEGIN
 90
        3
 91
        2
300
_DATA
309
CELLSTYLE_END
  0
XRECORD
  5
1B9
102
{ACAD_REACTORS
330
1B8
102
}
330
1B8
100
AcDbXrecord
280
     1
102
RTVSPropertyOp0
 70
     1
102
RTVSPropertyOp1
 70
     1
102
RTVSPropertyOp2
 70
     1
102
RTVSPropertyOp3
 70
     1
102
RTVSPropertyOp4
 70
     1
102
RTVSPropertyOp5
 70
     1
102
RTVSPropertyOp6
 70
     1
102
RTVSPropertyOp7
 70
     1
102
RTVSPropertyOp8
 70
     1
102
RTVSPropertyOp9
 70
     1
102
RTVSPropertyOp10
 70
     1
102
RTVSPropertyOp11
 70
     1
102
RTVSPropertyOp12
 70
     1
102
RTVSPropertyOp13
 70
     1
102
RTVSPropertyOp14
 70
     1
102
RTVSPropertyOp15
 70
     1
102
RTVSPropertyOp16
 70
     1
102
RTVSPropertyOp17
 70
     1
102
RTVSPropertyOp18
 70
     1
102
RTVSPropertyOp19
 70
     1
102
RTVSPropertyOp20
 70
     1
102
RTVSPropertyOp21
 70
     1
102
RTVSPropertyOp22
 70
     1
102
RTVSPropertyOp23
 70
     1
102
RTVSPropertyOp24
 70
     1
102
RTVSPropertyOp25
 70
     1
102
RTVSPropertyOp26
 70
     1
102
RTVSPropertyOp27
 70
     1
102
RTVSPropertyOp28
 70
     1
102
RTVSPropertyOp29
 70
     1
102
RTVSPropertyOp30
 70
     1
102
RTVSPropertyOp31
 70
     1
102
RTVSPropertyOp32
 70
     1
102
RTVSPropertyOp33
 70
     1
102
RTVSPropertyOp34
 70
     1
102
RTVSPropertyOp35
 70
     1
102
RTVSPropertyOp36
 70
     1
102
RTVSPropertyOp37
 70
     1
102
RTVSPropertyOp38
 70
     1
102
RTVSPropertyOp39
 70
     1
102
RTVSPropertyOp40
 70
     1
102
RTVSPropertyOp41
 70
     1
102
RTVSPropertyOp42
 70
     1
102
RTVSPropertyOp43
 70
     1
102
RTVSPropertyOp44
 70
     1
102
RTVSPropertyOp45
 70
     1
102
RTVSPropertyOp46
 70
     1
102
RTVSPropertyOp47
 70
     1
102
RTVSPropertyOp48
 70
     1
102
RTVSPropertyOp49
 70
     1
102
RTVSPropertyOp50
 70
     1
102
RTVSPropertyOp51
 70
     0
102
RTVSPropertyOp52
 70
     0
102
RTVSPropertyOp53
 70
     1
102
RTVSPropertyOp54
 70
     1
102
RTVSPropertyOp55
 70
     1
102
RTVSPropertyOp56
 70
     1
102
RTVSPropertyOp57
 70
     1
102
RTVSPost2010Prop28
280
     1
102
RTVSPost2010PropOp28
 70
     1
102
RTVSPost2010Prop29
280
     1
102
RTVSPost2010PropOp29
 70
     1
102
RTVSPost2010Prop30
280
     0
102
RTVSPost2010PropOp30
 70
     1
102
RTVSPost2010Prop31
280
     0
102
RTVSPost2010PropOp31
 70
     1
102
RTVSPost2010Prop32
280
     0
102
RTVSPost2010PropOp32
 70
     1
102
RTVSPost2010Prop33
280
     0
102
RTVSPost2010PropOp33
 70
     1
102
RTVSPost2010Prop34
280
     0
102
RTVSPost2010PropOp34
 70
     1
102
RTVSPost2010Prop35
280
     0
102
RTVSPost2010PropOp35
 70
     1
102
RTVSPost2010Prop36
280
     0
102
RTVSPost2010PropOp36
 70
     1
102
RTVSPost2010Prop37
 90
       50
102
RTVSPost2010PropOp37
 70
     1
102
RTVSPost2010Prop38
140
0.0
102
RTVSPost2010PropOp38
 70
     1
102
RTVSPost2010Prop39
140
1.0
102
RTVSPost2010PropOp39
 70
     1
102
RTVSPost2010Prop40
 90
        0
102
RTVSPost2010PropOp40
 70
     1
102
RTVSPost2010Prop41ColorIndex
 90
       18
102
RTVSPost2010Prop41ColorRGB
 90
        0
102
RTVSPost2010PropOp41
 70
     1
102
RTVSPost2010Prop42
 90
       50
102
RTVSPost2010PropOp42
 70
     1
102
RTVSPost2010Prop43
 90
        3
102
RTVSPost2010PropOp43
 70
     1
102
RTVSPost2010Prop44ColorIndex
 90
        5
102
RTVSPost2010Prop44ColorRGB
 90
      255
102
RTVSPost2010PropOp44
 70
     1
102
RTVSPost2010Prop45
280
     0
102
RTVSPost2010PropOp45
 70
     1
102
RTVSPost2010Prop46
 90
       50
102
RTVSPost2010PropOp46
 70
     1
102
RTVSPost2010Prop47
 90
       50
102
RTVSPost2010PropOp47
 70
     1
102
RTVSPost2010Prop48
 90
       50
102
RTVSPost2010PropOp48
 70
     1
102
RTVSPost2010Prop49
280
     0
102
RTVSPost2010PropOp49
 70
     1
102
RTVSPost2010Prop50
 90
       50
102
RTVSPost2010PropOp50
 70
     1
102
RTVSPost2010Prop51ColorIndex
 90
      256
102
RTVSPost2010Prop51ColorRGB
 90
-16777216
102
RTVSPost2010PropOp51
 70
     0
102
RTVSPost2010Prop52
140
1.0
102
RTVSPost2010PropOp52
 70
     0
102
RTVSPost2010Prop53
 90
        2
102
RTVSPost2010PropOp53
 70
     1
102
RTVSPost2010Prop54
  1
strokes_ogs.tif
102
RTVSPost2010PropOp54
 70
     1
102
RTVSPost2010Prop55
280
     0
102
RTVSPost2010PropOp55
 70
     1
102
RTVSPost2010Prop56
140
1.0
102
RTVSPost2010PropOp56
 70
     1
102
RTVSPost2010Prop57
140
1.0
102
RTVSPost2010PropOp57
 70
     1
  0
XRECORD
  5
1BF
102
{ACAD_REACTORS
330
1BE
102
}
330
1BE
100
AcDbXrecord
280
     1
102
RTVSPropertyOp0
 70
     1
102
RTVSPropertyOp1
 70
     1
102
RTVSPropertyOp2
 70
     1
102
RTVSPropertyOp3
 70
     1
102
RTVSPropertyOp4
 70
     1
102
RTVSPropertyOp5
 70
     1
102
RTVSPropertyOp6
 70
     1
102
RTVSPropertyOp7
 70
     1
102
RTVSPropertyOp8
 70
     1
102
RTVSPropertyOp9
 70
     1
102
RTVSPropertyOp10
 70
     1
102
RTVSPropertyOp11
 70
     1
102
RTVSPropertyOp12
 70
     1
102
RTVSPropertyOp13
 70
     1
102
RTVSPropertyOp14
 70
     1
102
RTVSPropertyOp15
 70
     1
102
RTVSPropertyOp16
 70
     1
102
RTVSPropertyOp17
 70
     1
102
RTVSPropertyOp18
 70
     1
102
RTVSPropertyOp19
 70
     1
102
RTVSPropertyOp20
 70
     1
102
RTVSPropertyOp21
 70
     1
102
RTVSPropertyOp22
 70
     1
102
RTVSPropertyOp23
 70
     1
102
RTVSPropertyOp24
 70
     1
102
RTVSPropertyOp25
 70
     1
102
RTVSPropertyOp26
 70
     1
102
RTVSPropertyOp27
 70
     1
102
RTVSPropertyOp28
 70
     1
102
RTVSPropertyOp29
 70
     1
102
RTVSPropertyOp30
 70
     1
102
RTVSPropertyOp31
 70
     1
102
RTVSPropertyOp32
 70
     1
102
RTVSPropertyOp33
 70
     1
102
RTVSPropertyOp34
 70
     1
102
RTVSPropertyOp35
 70
     1
102
RTVSPropertyOp36
 70
     1
102
RTVSPropertyOp37
 70
     1
102
RTVSPropertyOp38
 70
     1
102
RTVSPropertyOp39
 70
     1
102
RTVSPropertyOp40
 70
     1
102
RTVSPropertyOp41
 70
     1
102
RTVSPropertyOp42
 70
     1
102
RTVSPropertyOp43
 70
     1
102
RTVSPropertyOp44
 70
     1
102
RTVSPropertyOp45
 70
     1
102
RTVSPropertyOp46
 70
     1
102
RTVSPropertyOp47
 70
     1
102
RTVSPropertyOp48
 70
     1
102
RTVSPropertyOp49
 70
     1
102
RTVSPropertyOp50
 70
     1
102
RTVSPropertyOp51
 70
     0
102
RTVSPropertyOp52
 70
     0
102
RTVSPropertyOp53
 70
     1
102
RTVSPropertyOp54
 70
     1
102
RTVSPropertyOp55
 70
     1
102
RTVSPropertyOp56
 70
     1
102
RTVSPropertyOp57
 70
     1
102
RTVSPost2010Prop28
280
     0
102
RTVSPost2010PropOp28
 70
     1
102
RTVSPost2010Prop29
280
     1
102
RTVSPost2010PropOp29
 70
     1
102
RTVSPost2010Prop30
280
     1
102
RTVSPost2010PropOp30
 70
     1
102
RTVSPost2010Prop31
280
     0
102
RTVSPost2010PropOp31
 70
     1
102
RTVSPost2010Prop32
280
     0
102
RTVSPost2010PropOp32
 70
     1
102
RTVSPost2010Prop33
280
     0
102
RTVSPost2010PropOp33
 70
     1
102
RTVSPost2010Prop34
280
     0
102
RTVSPost2010PropOp34
 70
     1
102
RTVSPost2010Prop35
280
     0
102
RTVSPost2010PropOp35
 70
     1
102
RTVSPost2010Prop36
280
     0
102
RTVSPost2010PropOp36
 70
     1
102
RTVSPost2010Prop37
 90
       50
102
RTVSPost2010PropOp37
 70
     1
102
RTVSPost2010Prop38
140
0.0
102
RTVSPost2010PropOp38
 70
     1
102
RTVSPost2010Prop39
140
1.0
102
RTVSPost2010PropOp39
 70
     1
102
RTVSPost2010Prop40
 90
        0
102
RTVSPost2010PropOp40
 70
     1
102
RTVSPost2010Prop41ColorIndex
 90
       18
102
RTVSPost2010Prop41ColorRGB
 90
        0
102
RTVSPost2010PropOp41
 70
     1
102
RTVSPost2010Prop42
 90
       50
102
RTVSPost2010PropOp42
 70
     1
102
RTVSPost2010Prop43
 90
        3
102
RTVSPost2010PropOp43
 70
     1
102
RTVSPost2010Prop44ColorIndex
 90
        5
102
RTVSPost2010Prop44ColorRGB
 90
      255
102
RTVSPost2010PropOp44
 70
     1
102
RTVSPost2010Prop45
280
     0
102
RTVSPost2010PropOp45
 70
     1
102
RTVSPost2010Prop46
 90
       50
102
RTVSPost2010PropOp46
 70
     1
102
RTVSPost2010Prop47
 90
       50
102
RTVSPost2010PropOp47
 70
     1
102
RTVSPost2010Prop48
 90
       50
102
RTVSPost2010PropOp48
 70
     1
102
RTVSPost2010Prop49
280
     0
102
RTVSPost2010PropOp49
 70
     1
102
RTVSPost2010Prop50
 90
       50
102
RTVSPost2010PropOp50
 70
     1
102
RTVSPost2010Prop51ColorIndex
 90
      256
102
RTVSPost2010Prop51ColorRGB
 90
-16777216
102
RTVSPost2010PropOp51
 70
     0
102
RTVSPost2010Prop52
140
1.0
102
RTVSPost2010PropOp52
 70
     0
102
RTVSPost2010Prop53
 90
        2
102
RTVSPost2010PropOp53
 70
     1
102
RTVSPost2010Prop54
  1
strokes_ogs.tif
102
RTVSPost2010PropOp54
 70
     1
102
RTVSPost2010Prop55
280
     0
102
RTVSPost2010PropOp55
 70
     1
102
RTVSPost2010Prop56
140
1.0
102
RTVSPost2010PropOp56
 70
     1
102
RTVSPost2010Prop57
140
1.0
102
RTVSPost2010PropOp57
 70
     1
  0
XRECORD
  5
1C7
102
{ACAD_REACTORS
330
1C6
102
}
330
1C6
100
AcDbXrecord
280
     1
102
RTVSPropertyOp0
 70
     1
102
RTVSPropertyOp1
 70
     1
102
RTVSPropertyOp2
 70
     1
102
RTVSPropertyOp3
 70
     1
102
RTVSPropertyOp4
 70
     1
102
RTVSPropertyOp5
 70
     1
102
RTVSPropertyOp6
 70
     1
102
RTVSPropertyOp7
 70
     1
102
RTVSPropertyOp8
 70
     1
102
RTVSPropertyOp9
 70
     1
102
RTVSPropertyOp10
 70
     1
102
RTVSPropertyOp11
 70
     1
102
RTVSPropertyOp12
 70
     1
102
RTVSPropertyOp13
 70
     1
102
RTVSPropertyOp14
 70
     1
102
RTVSPropertyOp15
 70
     1
102
RTVSPropertyOp16
 70
     1
102
RTVSPropertyOp17
 70
     1
102
RTVSPropertyOp18
 70
     1
102
RTVSPropertyOp19
 70
     1
102
RTVSPropertyOp20
 70
     1
102
RTVSPropertyOp21
 70
     1
102
RTVSPropertyOp22
 70
     1
102
RTVSPropertyOp23
 70
     1
102
RTVSPropertyOp24
 70
     1
102
RTVSPropertyOp25
 70
     1
102
RTVSPropertyOp26
 70
     1
102
RTVSPropertyOp27
 70
     1
102
RTVSPropertyOp28
 70
     1
102
RTVSPropertyOp29
 70
     1
102
RTVSPropertyOp30
 70
     1
102
RTVSPropertyOp31
 70
     1
102
RTVSPropertyOp32
 70
     1
102
RTVSPropertyOp33
 70
     1
102
RTVSPropertyOp34
 70
     1
102
RTVSPropertyOp35
 70
     1
102
RTVSPropertyOp36
 70
     1
102
RTVSPropertyOp37
 70
     1
102
RTVSPropertyOp38
 70
     1
102
RTVSPropertyOp39
 70
     1
102
RTVSPropertyOp40
 70
     1
102
RTVSPropertyOp41
 70
     1
102
RTVSPropertyOp42
 70
     1
102
RTVSPropertyOp43
 70
     1
102
RTVSPropertyOp44
 70
     1
102
RTVSPropertyOp45
 70
     1
102
RTVSPropertyOp46
 70
     1
102
RTVSPropertyOp47
 70
     1
102
RTVSPropertyOp48
 70
     1
102
RTVSPropertyOp49
 70
     1
102
RTVSPropertyOp50
 70
     1
102
RTVSPropertyOp51
 70
     0
102
RTVSPropertyOp52
 70
     0
102
RTVSPropertyOp53
 70
     1
102
RTVSPropertyOp54
 70
     1
102
RTVSPropertyOp55
 70
     1
102
RTVSPropertyOp56
 70
     1
102
RTVSPropertyOp57
 70
     1
102
RTVSPost2010Prop28
280
     0
102
RTVSPost2010PropOp28
 70
     1
102
RTVSPost2010Prop29
280
     1
102
RTVSPost2010PropOp29
 70
     1
102
RTVSPost2010Prop30
280
     1
102
RTVSPost2010PropOp30
 70
     1
102
RTVSPost2010Prop31
280
     0
102
RTVSPost2010PropOp31
 70
     1
102
RTVSPost2010Prop32
280
     0
102
RTVSPost2010PropOp32
 70
     1
102
RTVSPost2010Prop33
280
     0
102
RTVSPost2010PropOp33
 70
     1
102
RTVSPost2010Prop34
280
     0
102
RTVSPost2010PropOp34
 70
     1
102
RTVSPost2010Prop35
280
     0
102
RTVSPost2010PropOp35
 70
     1
102
RTVSPost2010Prop36
280
     0
102
RTVSPost2010PropOp36
 70
     1
102
RTVSPost2010Prop37
 90
       50
102
RTVSPost2010PropOp37
 70
     1
102
RTVSPost2010Prop38
140
0.0
102
RTVSPost2010PropOp38
 70
     1
102
RTVSPost2010Prop39
140
1.0
102
RTVSPost2010PropOp39
 70
     1
102
RTVSPost2010Prop40
 90
        0
102
RTVSPost2010PropOp40
 70
     1
102
RTVSPost2010Prop41ColorIndex
 90
       18
102
RTVSPost2010Prop41ColorRGB
 90
        0
102
RTVSPost2010PropOp41
 70
     1
102
RTVSPost2010Prop42
 90
       50
102
RTVSPost2010PropOp42
 70
     1
102
RTVSPost2010Prop43
 90
        3
102
RTVSPost2010PropOp43
 70
     1
102
RTVSPost2010Prop44ColorIndex
 90
        5
102
RTVSPost2010Prop44ColorRGB
 90
      255
102
RTVSPost2010PropOp44
 70
     1
102
RTVSPost2010Prop45
280
     0
102
RTVSPost2010PropOp45
 70
     1
102
RTVSPost2010Prop46
 90
       50
102
RTVSPost2010PropOp46
 70
     1
102
RTVSPost2010Prop47
 90
       50
102
RTVSPost2010PropOp47
 70
     1
102
RTVSPost2010Prop48
 90
       50
102
RTVSPost2010PropOp48
 70
     1
102
RTVSPost2010Prop49
280
     0
102
RTVSPost2010PropOp49
 70
     1
102
RTVSPost2010Prop50
 90
       50
102
RTVSPost2010PropOp50
 70
     1
102
RTVSPost2010Prop51ColorIndex
 90
      256
102
RTVSPost2010Prop51ColorRGB
 90
-16777216
102
RTVSPost2010PropOp51
 70
     0
102
RTVSPost2010Prop52
140
1.0
102
RTVSPost2010PropOp52
 70
     0
102
RTVSPost2010Prop53
 90
        2
102
RTVSPost2010PropOp53
 70
     1
102
RTVSPost2010Prop54
  1
strokes_ogs.tif
102
RTVSPost2010PropOp54
 70
     1
102
RTVSPost2010Prop55
280
     0
102
RTVSPost2010PropOp55
 70
     1
102
RTVSPost2010Prop56
140
1.0
102
RTVSPost2010PropOp56
 70
     1
102
RTVSPost2010Prop57
140
1.0
102
RTVSPost2010PropOp57
 70
     1
  0
XRECORD
  5
1CF
102
{ACAD_REACTORS
330
1CE
102
}
330
1CE
100
AcDbXrecord
280
     1
102
RTVSPropertyOp0
 70
     1
102
RTVSPropertyOp1
 70
     1
102
RTVSPropertyOp2
 70
     1
102
RTVSPropertyOp3
 70
     1
102
RTVSPropertyOp4
 70
     1
102
RTVSPropertyOp5
 70
     1
102
RTVSPropertyOp6
 70
     1
102
RTVSPropertyOp7
 70
     1
102
RTVSPropertyOp8
 70
     1
102
RTVSPropertyOp9
 70
     1
102
RTVSPropertyOp10
 70
     1
102
RTVSPropertyOp11
 70
     1
102
RTVSPropertyOp12
 70
     1
102
RTVSPropertyOp13
 70
     1
102
RTVSPropertyOp14
 70
     1
102
RTVSPropertyOp15
 70
     1
102
RTVSPropertyOp16
 70
     1
102
RTVSPropertyOp17
 70
     1
102
RTVSPropertyOp18
 70
     1
102
RTVSPropertyOp19
 70
     1
102
RTVSPropertyOp20
 70
     1
102
RTVSPropertyOp21
 70
     1
102
RTVSPropertyOp22
 70
     1
102
RTVSPropertyOp23
 70
     1
102
RTVSPropertyOp24
 70
     1
102
RTVSPropertyOp25
 70
     1
102
RTVSPropertyOp26
 70
     1
102
RTVSPropertyOp27
 70
     1
102
RTVSPropertyOp28
 70
     1
102
RTVSPropertyOp29
 70
     1
102
RTVSPropertyOp30
 70
     1
102
RTVSPropertyOp31
 70
     1
102
RTVSPropertyOp32
 70
     1
102
RTVSPropertyOp33
 70
     1
102
RTVSPropertyOp34
 70
     1
102
RTVSPropertyOp35
 70
     1
102
RTVSPropertyOp36
 70
     1
102
RTVSPropertyOp37
 70
     1
102
RTVSPropertyOp38
 70
     1
102
RTVSPropertyOp39
 70
     1
102
RTVSPropertyOp40
 70
     1
102
RTVSPropertyOp41
 70
     1
102
RTVSPropertyOp42
 70
     1
102
RTVSPropertyOp43
 70
     1
102
RTVSPropertyOp44
 70
     1
102
RTVSPropertyOp45
 70
     1
102
RTVSPropertyOp46
 70
     1
102
RTVSPropertyOp47
 70
     1
102
RTVSPropertyOp48
 70
     1
102
RTVSPropertyOp49
 70
     1
102
RTVSPropertyOp50
 70
     1
102
RTVSPropertyOp51
 70
     0
102
RTVSPropertyOp52
 70
     0
102
RTVSPropertyOp53
 70
     1
102
RTVSPropertyOp54
 70
     1
102
RTVSPropertyOp55
 70
     1
102
RTVSPropertyOp56
 70
     1
102
RTVSPropertyOp57
 70
     1
102
RTVSPost2010Prop28
280
     0
102
RTVSPost2010PropOp28
 70
     1
102
RTVSPost2010Prop29
280
     1
102
RTVSPost2010PropOp29
 70
     1
102
RTVSPost2010Prop30
280
     1
102
RTVSPost2010PropOp30
 70
     1
102
RTVSPost2010Prop31
280
     0
102
RTVSPost2010PropOp31
 70
     1
102
RTVSPost2010Prop32
280
     0
102
RTVSPost2010PropOp32
 70
     1
102
RTVSPost2010Prop33
280
     0
102
RTVSPost2010PropOp33
 70
     1
102
RTVSPost2010Prop34
280
     0
102
RTVSPost2010PropOp34
 70
     1
102
RTVSPost2010Prop35
280
     0
102
RTVSPost2010PropOp35
 70
     1
102
RTVSPost2010Prop36
280
     0
102
RTVSPost2010PropOp36
 70
     1
102
RTVSPost2010Prop37
 90
       50
102
RTVSPost2010PropOp37
 70
     1
102
RTVSPost2010Prop38
140
0.0
102
RTVSPost2010PropOp38
 70
     1
102
RTVSPost2010Prop39
140
1.0
102
RTVSPost2010PropOp39
 70
     1
102
RTVSPost2010Prop40
 90
        0
102
RTVSPost2010PropOp40
 70
     1
102
RTVSPost2010Prop41ColorIndex
 90
       18
102
RTVSPost2010Prop41ColorRGB
 90
        0
102
RTVSPost2010PropOp41
 70
     1
102
RTVSPost2010Prop42
 90
       50
102
RTVSPost2010PropOp42
 70
     1
102
RTVSPost2010Prop43
 90
        3
102
RTVSPost2010PropOp43
 70
     1
102
RTVSPost2010Prop44ColorIndex
 90
        5
102
RTVSPost2010Prop44ColorRGB
 90
      255
102
RTVSPost2010PropOp44
 70
     1
102
RTVSPost2010Prop45
280
     0
102
RTVSPost2010PropOp45
 70
     1
102
RTVSPost2010Prop46
 90
       50
102
RTVSPost2010PropOp46
 70
     1
102
RTVSPost2010Prop47
 90
       50
102
RTVSPost2010PropOp47
 70
     1
102
RTVSPost2010Prop48
 90
       50
102
RTVSPost2010PropOp48
 70
     1
102
RTVSPost2010Prop49
280
     0
102
RTVSPost2010PropOp49
 70
     1
102
RTVSPost2010Prop50
 90
       50
102
RTVSPost2010PropOp50
 70
     1
102
RTVSPost2010Prop51ColorIndex
 90
      256
102
RTVSPost2010Prop51ColorRGB
 90
-16777216
102
RTVSPost2010PropOp51
 70
     0
102
RTVSPost2010Prop52
140
1.0
102
RTVSPost2010PropOp52
 70
     0
102
RTVSPost2010Prop53
 90
        2
102
RTVSPost2010PropOp53
 70
     1
102
RTVSPost2010Prop54
  1
strokes_ogs.tif
102
RTVSPost2010PropOp54
 70
     1
102
RTVSPost2010Prop55
280
     0
102
RTVSPost2010PropOp55
 70
     1
102
RTVSPost2010Prop56
140
1.0
102
RTVSPost2010PropOp56
 70
     1
102
RTVSPost2010Prop57
140
1.0
102
RTVSPost2010PropOp57
 70
     1
  0
XRECORD
  5
1C3
102
{ACAD_REACTORS
330
1C2
102
}
330
1C2
100
AcDbXrecord
280
     1
102
RTVSPropertyOp0
 70
     1
102
RTVSPropertyOp1
 70
     1
102
RTVSPropertyOp2
 70
     1
102
RTVSPropertyOp3
 70
     1
102
RTVSPropertyOp4
 70
     1
102
RTVSPropertyOp5
 70
     1
102
RTVSPropertyOp6
 70
     1
102
RTVSPropertyOp7
 70
     1
102
RTVSPropertyOp8
 70
     1
102
RTVSPropertyOp9
 70
     1
102
RTVSPropertyOp10
 70
     1
102
RTVSPropertyOp11
 70
     1
102
RTVSPropertyOp12
 70
     1
102
RTVSPropertyOp13
 70
     1
102
RTVSPropertyOp14
 70
     1
102
RTVSPropertyOp15
 70
     1
102
RTVSPropertyOp16
 70
     1
102
RTVSPropertyOp17
 70
     1
102
RTVSPropertyOp18
 70
     1
102
RTVSPropertyOp19
 70
     1
102
RTVSPropertyOp20
 70
     1
102
RTVSPropertyOp21
 70
     1
102
RTVSPropertyOp22
 70
     1
102
RTVSPropertyOp23
 70
     1
102
RTVSPropertyOp24
 70
     1
102
RTVSPropertyOp25
 70
     1
102
RTVSPropertyOp26
 70
     1
102
RTVSPropertyOp27
 70
     1
102
RTVSPropertyOp28
 70
     1
102
RTVSPropertyOp29
 70
     1
102
RTVSPropertyOp30
 70
     1
102
RTVSPropertyOp31
 70
     1
102
RTVSPropertyOp32
 70
     1
102
RTVSPropertyOp33
 70
     1
102
RTVSPropertyOp34
 70
     1
102
RTVSPropertyOp35
 70
     1
102
RTVSPropertyOp36
 70
     1
102
RTVSPropertyOp37
 70
     1
102
RTVSPropertyOp38
 70
     1
102
RTVSPropertyOp39
 70
     1
102
RTVSPropertyOp40
 70
     1
102
RTVSPropertyOp41
 70
     1
102
RTVSPropertyOp42
 70
     1
102
RTVSPropertyOp43
 70
     1
102
RTVSPropertyOp44
 70
     1
102
RTVSPropertyOp45
 70
     1
102
RTVSPropertyOp46
 70
     1
102
RTVSPropertyOp47
 70
     1
102
RTVSPropertyOp48
 70
     1
102
RTVSPropertyOp49
 70
     1
102
RTVSPropertyOp50
 70
     1
102
RTVSPropertyOp51
 70
     0
102
RTVSPropertyOp52
 70
     0
102
RTVSPropertyOp53
 70
     1
102
RTVSPropertyOp54
 70
     1
102
RTVSPropertyOp55
 70
     1
102
RTVSPropertyOp56
 70
     1
102
RTVSPropertyOp57
 70
     1
102
RTVSPost2010Prop28
280
     0
102
RTVSPost2010PropOp28
 70
     1
102
RTVSPost2010Prop29
280
     1
102
RTVSPost2010PropOp29
 70
     1
102
RTVSPost2010Prop30
280
     1
102
RTVSPost2010PropOp30
 70
     1
102
RTVSPost2010Prop31
280
     0
102
RTVSPost2010PropOp31
 70
     1
102
RTVSPost2010Prop32
280
     0
102
RTVSPost2010PropOp32
 70
     1
102
RTVSPost2010Prop33
280
     0
102
RTVSPost2010PropOp33
 70
     1
102
RTVSPost2010Prop34
280
     0
102
RTVSPost2010PropOp34
 70
     1
102
RTVSPost2010Prop35
280
     0
102
RTVSPost2010PropOp35
 70
     1
102
RTVSPost2010Prop36
280
     0
102
RTVSPost2010PropOp36
 70
     1
102
RTVSPost2010Prop37
 90
       50
102
RTVSPost2010PropOp37
 70
     1
102
RTVSPost2010Prop38
140
0.0
102
RTVSPost2010PropOp38
 70
     1
102
RTVSPost2010Prop39
140
1.0
102
RTVSPost2010PropOp39
 70
     1
102
RTVSPost2010Prop40
 90
        0
102
RTVSPost2010PropOp40
 70
     1
102
RTVSPost2010Prop41ColorIndex
 90
       18
102
RTVSPost2010Prop41ColorRGB
 90
        0
102
RTVSPost2010PropOp41
 70
     1
102
RTVSPost2010Prop42
 90
       50
102
RTVSPost2010PropOp42
 70
     1
102
RTVSPost2010Prop43
 90
        3
102
RTVSPost2010PropOp43
 70
     1
102
RTVSPost2010Prop44ColorIndex
 90
        5
102
RTVSPost2010Prop44ColorRGB
 90
      255
102
RTVSPost2010PropOp44
 70
     1
102
RTVSPost2010Prop45
280
     0
102
RTVSPost2010PropOp45
 70
     1
102
RTVSPost2010Prop46
 90
       50
102
RTVSPost2010PropOp46
 70
     1
102
RTVSPost2010Prop47
 90
       50
102
RTVSPost2010PropOp47
 70
     1
102
RTVSPost2010Prop48
 90
       50
102
RTVSPost2010PropOp48
 70
     1
102
RTVSPost2010Prop49
280
     0
102
RTVSPost2010PropOp49
 70
     1
102
RTVSPost2010Prop50
 90
       50
102
RTVSPost2010PropOp50
 70
     1
102
RTVSPost2010Prop51ColorIndex
 90
      256
102
RTVSPost2010Prop51ColorRGB
 90
-16777216
102
RTVSPost2010PropOp51
 70
     0
102
RTVSPost2010Prop52
140
1.0
102
RTVSPost2010PropOp52
 70
     0
102
RTVSPost2010Prop53
 90
        2
102
RTVSPost2010PropOp53
 70
     1
102
RTVSPost2010Prop54
  1
strokes_ogs.tif
102
RTVSPost2010PropOp54
 70
     1
102
RTVSPost2010Prop55
280
     0
102
RTVSPost2010PropOp55
 70
     1
102
RTVSPost2010Prop56
140
1.0
102
RTVSPost2010PropOp56
 70
     1
102
RTVSPost2010Prop57
140
1.0
102
RTVSPost2010PropOp57
 70
     1
  0
XRECORD
  5
1C5
102
{ACAD_REACTORS
330
1C4
102
}
330
1C4
100
AcDbXrecord
280
     1
102
RTVSPropertyOp0
 70
     1
102
RTVSPropertyOp1
 70
     1
102
RTVSPropertyOp2
 70
     1
102
RTVSPropertyOp3
 70
     1
102
RTVSPropertyOp4
 70
     1
102
RTVSPropertyOp5
 70
     1
102
RTVSPropertyOp6
 70
     1
102
RTVSPropertyOp7
 70
     1
102
RTVSPropertyOp8
 70
     1
102
RTVSPropertyOp9
 70
     1
102
RTVSPropertyOp10
 70
     1
102
RTVSPropertyOp11
 70
     1
102
RTVSPropertyOp12
 70
     1
102
RTVSPropertyOp13
 70
     1
102
RTVSPropertyOp14
 70
     1
102
RTVSPropertyOp15
 70
     1
102
RTVSPropertyOp16
 70
     1
102
RTVSPropertyOp17
 70
     1
102
RTVSPropertyOp18
 70
     1
102
RTVSPropertyOp19
 70
     1
102
RTVSPropertyOp20
 70
     1
102
RTVSPropertyOp21
 70
     1
102
RTVSPropertyOp22
 70
     1
102
RTVSPropertyOp23
 70
     1
102
RTVSPropertyOp24
 70
     1
102
RTVSPropertyOp25
 70
     1
102
RTVSPropertyOp26
 70
     1
102
RTVSPropertyOp27
 70
     1
102
RTVSPropertyOp28
 70
     1
102
RTVSPropertyOp29
 70
     1
102
RTVSPropertyOp30
 70
     1
102
RTVSPropertyOp31
 70
     1
102
RTVSPropertyOp32
 70
     1
102
RTVSPropertyOp33
 70
     1
102
RTVSPropertyOp34
 70
     1
102
RTVSPropertyOp35
 70
     1
102
RTVSPropertyOp36
 70
     1
102
RTVSPropertyOp37
 70
     1
102
RTVSPropertyOp38
 70
     1
102
RTVSPropertyOp39
 70
     1
102
RTVSPropertyOp40
 70
     1
102
RTVSPropertyOp41
 70
     1
102
RTVSPropertyOp42
 70
     1
102
RTVSPropertyOp43
 70
     1
102
RTVSPropertyOp44
 70
     1
102
RTVSPropertyOp45
 70
     1
102
RTVSPropertyOp46
 70
     1
102
RTVSPropertyOp47
 70
     1
102
RTVSPropertyOp48
 70
     1
102
RTVSPropertyOp49
 70
     1
102
RTVSPropertyOp50
 70
     1
102
RTVSPropertyOp51
 70
     0
102
RTVSPropertyOp52
 70
     0
102
RTVSPropertyOp53
 70
     1
102
RTVSPropertyOp54
 70
     1
102
RTVSPropertyOp55
 70
     1
102
RTVSPropertyOp56
 70
     1
102
RTVSPropertyOp57
 70
     1
102
RTVSPost2010Prop28
280
     0
102
RTVSPost2010PropOp28
 70
     1
102
RTVSPost2010Prop29
280
     1
102
RTVSPost2010PropOp29
 70
     1
102
RTVSPost2010Prop30
280
     1
102
RTVSPost2010PropOp30
 70
     1
102
RTVSPost2010Prop31
280
     0
102
RTVSPost2010PropOp31
 70
     1
102
RTVSPost2010Prop32
280
     0
102
RTVSPost2010PropOp32
 70
     1
102
RTVSPost2010Prop33
280
     0
102
RTVSPost2010PropOp33
 70
     1
102
RTVSPost2010Prop34
280
     0
102
RTVSPost2010PropOp34
 70
     1
102
RTVSPost2010Prop35
280
     0
102
RTVSPost2010PropOp35
 70
     1
102
RTVSPost2010Prop36
280
     0
102
RTVSPost2010PropOp36
 70
     1
102
RTVSPost2010Prop37
 90
       50
102
RTVSPost2010PropOp37
 70
     1
102
RTVSPost2010Prop38
140
0.0
102
RTVSPost2010PropOp38
 70
     1
102
RTVSPost2010Prop39
140
1.0
102
RTVSPost2010PropOp39
 70
     1
102
RTVSPost2010Prop40
 90
        0
102
RTVSPost2010PropOp40
 70
     1
102
RTVSPost2010Prop41ColorIndex
 90
       18
102
RTVSPost2010Prop41ColorRGB
 90
        0
102
RTVSPost2010PropOp41
 70
     1
102
RTVSPost2010Prop42
 90
       50
102
RTVSPost2010PropOp42
 70
     1
102
RTVSPost2010Prop43
 90
        3
102
RTVSPost2010PropOp43
 70
     1
102
RTVSPost2010Prop44ColorIndex
 90
        5
102
RTVSPost2010Prop44ColorRGB
 90
      255
102
RTVSPost2010PropOp44
 70
     1
102
RTVSPost2010Prop45
280
     0
102
RTVSPost2010PropOp45
 70
     1
102
RTVSPost2010Prop46
 90
       50
102
RTVSPost2010PropOp46
 70
     1
102
RTVSPost2010Prop47
 90
       50
102
RTVSPost2010PropOp47
 70
     1
102
RTVSPost2010Prop48
 90
       50
102
RTVSPost2010PropOp48
 70
     1
102
RTVSPost2010Prop49
280
     0
102
RTVSPost2010PropOp49
 70
     1
102
RTVSPost2010Prop50
 90
       50
102
RTVSPost2010PropOp50
 70
     1
102
RTVSPost2010Prop51ColorIndex
 90
      256
102
RTVSPost2010Prop51ColorRGB
 90
-16777216
102
RTVSPost2010PropOp51
 70
     0
102
RTVSPost2010Prop52
140
1.0
102
RTVSPost2010PropOp52
 70
     0
102
RTVSPost2010Prop53
 90
        2
102
RTVSPost2010PropOp53
 70
     1
102
RTVSPost2010Prop54
  1
strokes_ogs.tif
102
RTVSPost2010PropOp54
 70
     1
102
RTVSPost2010Prop55
280
     0
102
RTVSPost2010PropOp55
 70
     1
102
RTVSPost2010Prop56
140
1.0
102
RTVSPost2010PropOp56
 70
     1
102
RTVSPost2010Prop57
140
1.0
102
RTVSPost2010PropOp57
 70
     1
  0
XRECORD
  5
1D5
102
{ACAD_REACTORS
330
1D4
102
}
330
1D4
100
AcDbXrecord
280
     1
102
RTVSPropertyOp0
 70
     0
102
RTVSPropertyOp1
 70
     0
102
RTVSPropertyOp2
 70
     0
102
RTVSPropertyOp3
 70
     0
102
RTVSPropertyOp4
 70
     0
102
RTVSPropertyOp5
 70
     0
102
RTVSPropertyOp6
 70
     0
102
RTVSPropertyOp7
 70
     0
102
RTVSPropertyOp8
 70
     0
102
RTVSPropertyOp9
 70
     0
102
RTVSPropertyOp10
 70
     0
102
RTVSPropertyOp11
 70
     0
102
RTVSPropertyOp12
 70
     0
102
RTVSPropertyOp13
 70
     0
102
RTVSPropertyOp14
 70
     2
102
RTVSPropertyOp15
 70
     0
102
RTVSPropertyOp16
 70
     0
102
RTVSPropertyOp17
 70
     0
102
RTVSPropertyOp18
 70
     0
102
RTVSPropertyOp19
 70
     0
102
RTVSPropertyOp20
 70
     0
102
RTVSPropertyOp21
 70
     0
102
RTVSPropertyOp22
 70
     0
102
RTVSPropertyOp23
 70
     0
102
RTVSPropertyOp24
 70
     0
102
RTVSPropertyOp25
 70
     0
102
RTVSPropertyOp26
 70
     0
102
RTVSPropertyOp27
 70
     0
102
RTVSPropertyOp28
 70
     0
102
RTVSPropertyOp29
 70
     0
102
RTVSPropertyOp30
 70
     0
102
RTVSPropertyOp31
 70
     0
102
RTVSPropertyOp32
 70
     0
102
RTVSPropertyOp33
 70
     0
102
RTVSPropertyOp34
 70
     0
102
RTVSPropertyOp35
 70
     0
102
RTVSPropertyOp36
 70
     0
102
RTVSPropertyOp37
 70
     0
102
RTVSPropertyOp38
 70
     0
102
RTVSPropertyOp39
 70
     0
102
RTVSPropertyOp40
 70
     0
102
RTVSPropertyOp41
 70
     0
102
RTVSPropertyOp42
 70
     0
102
RTVSPropertyOp43
 70
     0
102
RTVSPropertyOp44
 70
     0
102
RTVSPropertyOp45
 70
     0
102
RTVSPropertyOp46
 70
     0
102
RTVSPropertyOp47
 70
     0
102
RTVSPropertyOp48
 70
     0
102
RTVSPropertyOp49
 70
     0
102
RTVSPropertyOp50
 70
     0
102
RTVSPropertyOp51
 70
     0
102
RTVSPropertyOp52
 70
     0
102
RTVSPropertyOp53
 70
     0
102
RTVSPropertyOp54
 70
     0
102
RTVSPropertyOp55
 70
     0
102
RTVSPropertyOp56
 70
     0
102
RTVSPropertyOp57
 70
     0
102
RTVSPost2010Prop28
280
     0
102
RTVSPost2010PropOp28
 70
     0
102
RTVSPost2010Prop29
280
     1
102
RTVSPost2010PropOp29
 70
     0
102
RTVSPost2010Prop30
280
     1
102
RTVSPost2010PropOp30
 70
     0
102
RTVSPost2010Prop31
280
     0
102
RTVSPost2010PropOp31
 70
     0
102
RTVSPost2010Prop32
280
     0
102
RTVSPost2010PropOp32
 70
     0
102
RTVSPost2010Prop33
280
     0
102
RTVSPost2010PropOp33
 70
     0
102
RTVSPost2010Prop34
280
     0
102
RTVSPost2010PropOp34
 70
     0
102
RTVSPost2010Prop35
280
     0
102
RTVSPost2010PropOp35
 70
     0
102
RTVSPost2010Prop36
280
     0
102
RTVSPost2010PropOp36
 70
     0
102
RTVSPost2010Prop37
 90
       50
102
RTVSPost2010PropOp37
 70
     0
102
RTVSPost2010Prop38
140
0.0
102
RTVSPost2010PropOp38
 70
     0
102
RTVSPost2010Prop39
140
1.0
102
RTVSPost2010PropOp39
 70
     0
102
RTVSPost2010Prop40
 90
        0
102
RTVSPost2010PropOp40
 70
     0
102
RTVSPost2010Prop41ColorIndex
 90
       18
102
RTVSPost2010Prop41ColorRGB
 90
        0
102
RTVSPost2010PropOp41
 70
     0
102
RTVSPost2010Prop42
 90
       50
102
RTVSPost2010PropOp42
 70
     0
102
RTVSPost2010Prop43
 90
        3
102
RTVSPost2010PropOp43
 70
     0
102
RTVSPost2010Prop44ColorIndex
 90
        5
102
RTVSPost2010Prop44ColorRGB
 90
      255
102
RTVSPost2010PropOp44
 70
     0
102
RTVSPost2010Prop45
280
     0
102
RTVSPost2010PropOp45
 70
     0
102
RTVSPost2010Prop46
 90
       50
102
RTVSPost2010PropOp46
 70
     0
102
RTVSPost2010Prop47
 90
       50
102
RTVSPost2010PropOp47
 70
     0
102
RTVSPost2010Prop48
 90
       50
102
RTVSPost2010PropOp48
 70
     0
102
RTVSPost2010Prop49
280
     0
102
RTVSPost2010PropOp49
 70
     0
102
RTVSPost2010Prop50
 90
       50
102
RTVSPost2010PropOp50
 70
     0
102
RTVSPost2010Prop51ColorIndex
 90
      256
102
RTVSPost2010Prop51ColorRGB
 90
-16777216
102
RTVSPost2010PropOp51
 70
     0
102
RTVSPost2010Prop52
140
1.0
102
RTVSPost2010PropOp52
 70
     0
102
RTVSPost2010Prop53
 90
        2
102
RTVSPost2010PropOp53
 70
     0
102
RTVSPost2010Prop54
  1
strokes_ogs.tif
102
RTVSPost2010PropOp54
 70
     0
102
RTVSPost2010Prop55
280
     0
102
RTVSPost2010PropOp55
 70
     0
102
RTVSPost2010Prop56
140
1.0
102
RTVSPost2010PropOp56
 70
     0
102
RTVSPost2010Prop57
140
1.0
102
RTVSPost2010PropOp57
 70
     0
  0
XRECORD
  5
1CD
102
{ACAD_REACTORS
330
1CC
102
}
330
1CC
100
AcDbXrecord
280
     1
102
RTVSPropertyOp0
 70
     1
102
RTVSPropertyOp1
 70
     1
102
RTVSPropertyOp2
 70
     1
102
RTVSPropertyOp3
 70
     1
102
RTVSPropertyOp4
 70
     1
102
RTVSPropertyOp5
 70
     1
102
RTVSPropertyOp6
 70
     1
102
RTVSPropertyOp7
 70
     1
102
RTVSPropertyOp8
 70
     1
102
RTVSPropertyOp9
 70
     1
102
RTVSPropertyOp10
 70
     1
102
RTVSPropertyOp11
 70
     1
102
RTVSPropertyOp12
 70
     1
102
RTVSPropertyOp13
 70
     1
102
RTVSPropertyOp14
 70
     1
102
RTVSPropertyOp15
 70
     1
102
RTVSPropertyOp16
 70
     1
102
RTVSPropertyOp17
 70
     1
102
RTVSPropertyOp18
 70
     1
102
RTVSPropertyOp19
 70
     1
102
RTVSPropertyOp20
 70
     1
102
RTVSPropertyOp21
 70
     1
102
RTVSPropertyOp22
 70
     1
102
RTVSPropertyOp23
 70
     1
102
RTVSPropertyOp24
 70
     1
102
RTVSPropertyOp25
 70
     1
102
RTVSPropertyOp26
 70
     1
102
RTVSPropertyOp27
 70
     1
102
RTVSPropertyOp28
 70
     1
102
RTVSPropertyOp29
 70
     1
102
RTVSPropertyOp30
 70
     1
102
RTVSPropertyOp31
 70
     1
102
RTVSPropertyOp32
 70
     1
102
RTVSPropertyOp33
 70
     1
102
RTVSPropertyOp34
 70
     1
102
RTVSPropertyOp35
 70
     1
102
RTVSPropertyOp36
 70
     1
102
RTVSPropertyOp37
 70
     1
102
RTVSPropertyOp38
 70
     1
102
RTVSPropertyOp39
 70
     1
102
RTVSPropertyOp40
 70
     1
102
RTVSPropertyOp41
 70
     1
102
RTVSPropertyOp42
 70
     1
102
RTVSPropertyOp43
 70
     1
102
RTVSPropertyOp44
 70
     1
102
RTVSPropertyOp45
 70
     1
102
RTVSPropertyOp46
 70
     1
102
RTVSPropertyOp47
 70
     1
102
RTVSPropertyOp48
 70
     1
102
RTVSPropertyOp49
 70
     1
102
RTVSPropertyOp50
 70
     1
102
RTVSPropertyOp51
 70
     0
102
RTVSPropertyOp52
 70
     0
102
RTVSPropertyOp53
 70
     1
102
RTVSPropertyOp54
 70
     1
102
RTVSPropertyOp55
 70
     1
102
RTVSPropertyOp56
 70
     1
102
RTVSPropertyOp57
 70
     1
102
RTVSPost2010Prop28
280
     0
102
RTVSPost2010PropOp28
 70
     1
102
RTVSPost2010Prop29
280
     1
102
RTVSPost2010PropOp29
 70
     1
102
RTVSPost2010Prop30
280
     1
102
RTVSPost2010PropOp30
 70
     1
102
RTVSPost2010Prop31
280
     0
102
RTVSPost2010PropOp31
 70
     1
102
RTVSPost2010Prop32
280
     0
102
RTVSPost2010PropOp32
 70
     1
102
RTVSPost2010Prop33
280
     0
102
RTVSPost2010PropOp33
 70
     1
102
RTVSPost2010Prop34
280
     0
102
RTVSPost2010PropOp34
 70
     1
102
RTVSPost2010Prop35
280
     0
102
RTVSPost2010PropOp35
 70
     1
102
RTVSPost2010Prop36
280
     0
102
RTVSPost2010PropOp36
 70
     1
102
RTVSPost2010Prop37
 90
       50
102
RTVSPost2010PropOp37
 70
     1
102
RTVSPost2010Prop38
140
0.0
102
RTVSPost2010PropOp38
 70
     1
102
RTVSPost2010Prop39
140
1.0
102
RTVSPost2010PropOp39
 70
     1
102
RTVSPost2010Prop40
 90
        0
102
RTVSPost2010PropOp40
 70
     1
102
RTVSPost2010Prop41ColorIndex
 90
       18
102
RTVSPost2010Prop41ColorRGB
 90
        0
102
RTVSPost2010PropOp41
 70
     1
102
RTVSPost2010Prop42
 90
       50
102
RTVSPost2010PropOp42
 70
     1
102
RTVSPost2010Prop43
 90
        3
102
RTVSPost2010PropOp43
 70
     1
102
RTVSPost2010Prop44ColorIndex
 90
        5
102
RTVSPost2010Prop44ColorRGB
 90
      255
102
RTVSPost2010PropOp44
 70
     1
102
RTVSPost2010Prop45
280
     0
102
RTVSPost2010PropOp45
 70
     1
102
RTVSPost2010Prop46
 90
       50
102
RTVSPost2010PropOp46
 70
     1
102
RTVSPost2010Prop47
 90
       50
102
RTVSPost2010PropOp47
 70
     1
102
RTVSPost2010Prop48
 90
       50
102
RTVSPost2010PropOp48
 70
     1
102
RTVSPost2010Prop49
280
     0
102
RTVSPost2010PropOp49
 70
     1
102
RTVSPost2010Prop50
 90
       50
102
RTVSPost2010PropOp50
 70
     1
102
RTVSPost2010Prop51ColorIndex
 90
      256
102
RTVSPost2010Prop51ColorRGB
 90
-16777216
102
RTVSPost2010PropOp51
 70
     0
102
RTVSPost2010Prop52
140
1.0
102
RTVSPost2010PropOp52
 70
     0
102
RTVSPost2010Prop53
 90
        2
102
RTVSPost2010PropOp53
 70
     1
102
RTVSPost2010Prop54
  1
strokes_ogs.tif
102
RTVSPost2010PropOp54
 70
     1
102
RTVSPost2010Prop55
280
     0
102
RTVSPost2010PropOp55
 70
     1
102
RTVSPost2010Prop56
140
1.0
102
RTVSPost2010PropOp56
 70
     1
102
RTVSPost2010Prop57
140
1.0
102
RTVSPost2010PropOp57
 70
     1
  0
XRECORD
  5
1B1
102
{ACAD_REACTORS
330
1B0
102
}
330
1B0
100
AcDbXrecord
280
     1
102
RTVSPropertyOp0
 70
     1
102
RTVSPropertyOp1
 70
     1
102
RTVSPropertyOp2
 70
     1
102
RTVSPropertyOp3
 70
     1
102
RTVSPropertyOp4
 70
     1
102
RTVSPropertyOp5
 70
     1
102
RTVSPropertyOp6
 70
     1
102
RTVSPropertyOp7
 70
     1
102
RTVSPropertyOp8
 70
     1
102
RTVSPropertyOp9
 70
     1
102
RTVSPropertyOp10
 70
     1
102
RTVSPropertyOp11
 70
     1
102
RTVSPropertyOp12
 70
     1
102
RTVSPropertyOp13
 70
     1
102
RTVSPropertyOp14
 70
     1
102
RTVSPropertyOp15
 70
     1
102
RTVSPropertyOp16
 70
     1
102
RTVSPropertyOp17
 70
     1
102
RTVSPropertyOp18
 70
     1
102
RTVSPropertyOp19
 70
     1
102
RTVSPropertyOp20
 70
     1
102
RTVSPropertyOp21
 70
     1
102
RTVSPropertyOp22
 70
     1
102
RTVSPropertyOp23
 70
     1
102
RTVSPropertyOp24
 70
     1
102
RTVSPropertyOp25
 70
     1
102
RTVSPropertyOp26
 70
     1
102
RTVSPropertyOp27
 70
     1
102
RTVSPropertyOp28
 70
     1
102
RTVSPropertyOp29
 70
     1
102
RTVSPropertyOp30
 70
     1
102
RTVSPropertyOp31
 70
     1
102
RTVSPropertyOp32
 70
     1
102
RTVSPropertyOp33
 70
     1
102
RTVSPropertyOp34
 70
     1
102
RTVSPropertyOp35
 70
     1
102
RTVSPropertyOp36
 70
     1
102
RTVSPropertyOp37
 70
     1
102
RTVSPropertyOp38
 70
     1
102
RTVSPropertyOp39
 70
     1
102
RTVSPropertyOp40
 70
     1
102
RTVSPropertyOp41
 70
     1
102
RTVSPropertyOp42
 70
     1
102
RTVSPropertyOp43
 70
     1
102
RTVSPropertyOp44
 70
     1
102
RTVSPropertyOp45
 70
     1
102
RTVSPropertyOp46
 70
     1
102
RTVSPropertyOp47
 70
     1
102
RTVSPropertyOp48
 70
     1
102
RTVSPropertyOp49
 70
     1
102
RTVSPropertyOp50
 70
     1
102
RTVSPropertyOp51
 70
     0
102
RTVSPropertyOp52
 70
     0
102
RTVSPropertyOp53
 70
     1
102
RTVSPropertyOp54
 70
     1
102
RTVSPropertyOp55
 70
     1
102
RTVSPropertyOp56
 70
     1
102
RTVSPropertyOp57
 70
     1
102
RTVSPost2010Prop28
280
     0
102
RTVSPost2010PropOp28
 70
     1
102
RTVSPost2010Prop29
280
     1
102
RTVSPost2010PropOp29
 70
     1
102
RTVSPost2010Prop30
280
     1
102
RTVSPost2010PropOp30
 70
     1
102
RTVSPost2010Prop31
280
     0
102
RTVSPost2010PropOp31
 70
     1
102
RTVSPost2010Prop32
280
     0
102
RTVSPost2010PropOp32
 70
     1
102
RTVSPost2010Prop33
280
     0
102
RTVSPost2010PropOp33
 70
     1
102
RTVSPost2010Prop34
280
     0
102
RTVSPost2010PropOp34
 70
     1
102
RTVSPost2010Prop35
280
     0
102
RTVSPost2010PropOp35
 70
     1
102
RTVSPost2010Prop36
280
     0
102
RTVSPost2010PropOp36
 70
     1
102
RTVSPost2010Prop37
 90
       50
102
RTVSPost2010PropOp37
 70
     1
102
RTVSPost2010Prop38
140
0.0
102
RTVSPost2010PropOp38
 70
     1
102
RTVSPost2010Prop39
140
1.0
102
RTVSPost2010PropOp39
 70
     1
102
RTVSPost2010Prop40
 90
        0
102
RTVSPost2010PropOp40
 70
     1
102
RTVSPost2010Prop41ColorIndex
 90
       18
102
RTVSPost2010Prop41ColorRGB
 90
        0
102
RTVSPost2010PropOp41
 70
     1
102
RTVSPost2010Prop42
 90
       50
102
RTVSPost2010PropOp42
 70
     1
102
RTVSPost2010Prop43
 90
        3
102
RTVSPost2010PropOp43
 70
     1
102
RTVSPost2010Prop44ColorIndex
 90
        5
102
RTVSPost2010Prop44ColorRGB
 90
      255
102
RTVSPost2010PropOp44
 70
     1
102
RTVSPost2010Prop45
280
     0
102
RTVSPost2010PropOp45
 70
     1
102
RTVSPost2010Prop46
 90
       50
102
RTVSPost2010PropOp46
 70
     1
102
RTVSPost2010Prop47
 90
       50
102
RTVSPost2010PropOp47
 70
     1
102
RTVSPost2010Prop48
 90
       50
102
RTVSPost2010PropOp48
 70
     1
102
RTVSPost2010Prop49
280
     0
102
RTVSPost2010PropOp49
 70
     1
102
RTVSPost2010Prop50
 90
       50
102
RTVSPost2010PropOp50
 70
     1
102
RTVSPost2010Prop51ColorIndex
 90
      256
102
RTVSPost2010Prop51ColorRGB
 90
-16777216
102
RTVSPost2010PropOp51
 70
     0
102
RTVSPost2010Prop52
140
1.0
102
RTVSPost2010PropOp52
 70
     0
102
RTVSPost2010Prop53
 90
        2
102
RTVSPost2010PropOp53
 70
     1
102
RTVSPost2010Prop54
  1
strokes_ogs.tif
102
RTVSPost2010PropOp54
 70
     1
102
RTVSPost2010Prop55
280
     0
102
RTVSPost2010PropOp55
 70
     1
102
RTVSPost2010Prop56
140
1.0
102
RTVSPost2010PropOp56
 70
     1
102
RTVSPost2010Prop57
140
1.0
102
RTVSPost2010PropOp57
 70
     1
  0
XRECORD
  5
1B3
102
{ACAD_REACTORS
330
1B2
102
}
330
1B2
100
AcDbXrecord
280
     1
102
RTVSPropertyOp0
 70
     1
102
RTVSPropertyOp1
 70
     1
102
RTVSPropertyOp2
 70
     1
102
RTVSPropertyOp3
 70
     1
102
RTVSPropertyOp4
 70
     1
102
RTVSPropertyOp5
 70
     1
102
RTVSPropertyOp6
 70
     1
102
RTVSPropertyOp7
 70
     1
102
RTVSPropertyOp8
 70
     1
102
RTVSPropertyOp9
 70
     1
102
RTVSPropertyOp10
 70
     1
102
RTVSPropertyOp11
 70
     1
102
RTVSPropertyOp12
 70
     1
102
RTVSPropertyOp13
 70
     1
102
RTVSPropertyOp14
 70
     1
102
RTVSPropertyOp15
 70
     1
102
RTVSPropertyOp16
 70
     1
102
RTVSPropertyOp17
 70
     1
102
RTVSPropertyOp18
 70
     1
102
RTVSPropertyOp19
 70
     1
102
RTVSPropertyOp20
 70
     1
102
RTVSPropertyOp21
 70
     1
102
RTVSPropertyOp22
 70
     1
102
RTVSPropertyOp23
 70
     1
102
RTVSPropertyOp24
 70
     1
102
RTVSPropertyOp25
 70
     1
102
RTVSPropertyOp26
 70
     1
102
RTVSPropertyOp27
 70
     1
102
RTVSPropertyOp28
 70
     1
102
RTVSPropertyOp29
 70
     1
102
RTVSPropertyOp30
 70
     1
102
RTVSPropertyOp31
 70
     1
102
RTVSPropertyOp32
 70
     1
102
RTVSPropertyOp33
 70
     1
102
RTVSPropertyOp34
 70
     1
102
RTVSPropertyOp35
 70
     1
102
RTVSPropertyOp36
 70
     1
102
RTVSPropertyOp37
 70
     1
102
RTVSPropertyOp38
 70
     1
102
RTVSPropertyOp39
 70
     1
102
RTVSPropertyOp40
 70
     1
102
RTVSPropertyOp41
 70
     1
102
RTVSPropertyOp42
 70
     1
102
RTVSPropertyOp43
 70
     1
102
RTVSPropertyOp44
 70
     1
102
RTVSPropertyOp45
 70
     1
102
RTVSPropertyOp46
 70
     1
102
RTVSPropertyOp47
 70
     1
102
RTVSPropertyOp48
 70
     1
102
RTVSPropertyOp49
 70
     1
102
RTVSPropertyOp50
 70
     1
102
RTVSPropertyOp51
 70
     0
102
RTVSPropertyOp52
 70
     0
102
RTVSPropertyOp53
 70
     1
102
RTVSPropertyOp54
 70
     1
102
RTVSPropertyOp55
 70
     1
102
RTVSPropertyOp56
 70
     1
102
RTVSPropertyOp57
 70
     1
102
RTVSPost2010Prop28
280
     0
102
RTVSPost2010PropOp28
 70
     1
102
RTVSPost2010Prop29
280
     1
102
RTVSPost2010PropOp29
 70
     1
102
RTVSPost2010Prop30
280
     1
102
RTVSPost2010PropOp30
 70
     1
102
RTVSPost2010Prop31
280
     0
102
RTVSPost2010PropOp31
 70
     1
102
RTVSPost2010Prop32
280
     0
102
RTVSPost2010PropOp32
 70
     1
102
RTVSPost2010Prop33
280
     0
102
RTVSPost2010PropOp33
 70
     1
102
RTVSPost2010Prop34
280
     0
102
RTVSPost2010PropOp34
 70
     1
102
RTVSPost2010Prop35
280
     0
102
RTVSPost2010PropOp35
 70
     1
102
RTVSPost2010Prop36
280
     0
102
RTVSPost2010PropOp36
 70
     1
102
RTVSPost2010Prop37
 90
       50
102
RTVSPost2010PropOp37
 70
     1
102
RTVSPost2010Prop38
140
0.0
102
RTVSPost2010PropOp38
 70
     1
102
RTVSPost2010Prop39
140
1.0
102
RTVSPost2010PropOp39
 70
     1
102
RTVSPost2010Prop40
 90
        0
102
RTVSPost2010PropOp40
 70
     1
102
RTVSPost2010Prop41ColorIndex
 90
       18
102
RTVSPost2010Prop41ColorRGB
 90
        0
102
RTVSPost2010PropOp41
 70
     1
102
RTVSPost2010Prop42
 90
       50
102
RTVSPost2010PropOp42
 70
     1
102
RTVSPost2010Prop43
 90
        3
102
RTVSPost2010PropOp43
 70
     1
102
RTVSPost2010Prop44ColorIndex
 90
        5
102
RTVSPost2010Prop44ColorRGB
 90
      255
102
RTVSPost2010PropOp44
 70
     1
102
RTVSPost2010Prop45
280
     0
102
RTVSPost2010PropOp45
 70
     1
102
RTVSPost2010Prop46
 90
       50
102
RTVSPost2010PropOp46
 70
     1
102
RTVSPost2010Prop47
 90
       50
102
RTVSPost2010PropOp47
 70
     1
102
RTVSPost2010Prop48
 90
       50
102
RTVSPost2010PropOp48
 70
     1
102
RTVSPost2010Prop49
280
     0
102
RTVSPost2010PropOp49
 70
     1
102
RTVSPost2010Prop50
 90
       50
102
RTVSPost2010PropOp50
 70
     1
102
RTVSPost2010Prop51ColorIndex
 90
      256
102
RTVSPost2010Prop51ColorRGB
 90
-16777216
102
RTVSPost2010PropOp51
 70
     0
102
RTVSPost2010Prop52
140
1.0
102
RTVSPost2010PropOp52
 70
     0
102
RTVSPost2010Prop53
 90
        2
102
RTVSPost2010PropOp53
 70
     1
102
RTVSPost2010Prop54
  1
strokes_ogs.tif
102
RTVSPost2010PropOp54
 70
     1
102
RTVSPost2010Prop55
280
     0
102
RTVSPost2010PropOp55
 70
     1
102
RTVSPost2010Prop56
140
1.0
102
RTVSPost2010PropOp56
 70
     1
102
RTVSPost2010Prop57
140
1.0
102
RTVSPost2010PropOp57
 70
     1
  0
XRECORD
  5
1B5
102
{ACAD_REACTORS
330
1B4
102
}
330
1B4
100
AcDbXrecord
280
     1
102
RTVSPropertyOp0
 70
     1
102
RTVSPropertyOp1
 70
     1
102
RTVSPropertyOp2
 70
     1
102
RTVSPropertyOp3
 70
     1
102
RTVSPropertyOp4
 70
     1
102
RTVSPropertyOp5
 70
     1
102
RTVSPropertyOp6
 70
     1
102
RTVSPropertyOp7
 70
     1
102
RTVSPropertyOp8
 70
     1
102
RTVSPropertyOp9
 70
     1
102
RTVSPropertyOp10
 70
     1
102
RTVSPropertyOp11
 70
     1
102
RTVSPropertyOp12
 70
     1
102
RTVSPropertyOp13
 70
     1
102
RTVSPropertyOp14
 70
     1
102
RTVSPropertyOp15
 70
     1
102
RTVSPropertyOp16
 70
     1
102
RTVSPropertyOp17
 70
     1
102
RTVSPropertyOp18
 70
     1
102
RTVSPropertyOp19
 70
     1
102
RTVSPropertyOp20
 70
     1
102
RTVSPropertyOp21
 70
     1
102
RTVSPropertyOp22
 70
     1
102
RTVSPropertyOp23
 70
     1
102
RTVSPropertyOp24
 70
     1
102
RTVSPropertyOp25
 70
     1
102
RTVSPropertyOp26
 70
     1
102
RTVSPropertyOp27
 70
     1
102
RTVSPropertyOp28
 70
     1
102
RTVSPropertyOp29
 70
     1
102
RTVSPropertyOp30
 70
     1
102
RTVSPropertyOp31
 70
     1
102
RTVSPropertyOp32
 70
     1
102
RTVSPropertyOp33
 70
     1
102
RTVSPropertyOp34
 70
     1
102
RTVSPropertyOp35
 70
     1
102
RTVSPropertyOp36
 70
     1
102
RTVSPropertyOp37
 70
     1
102
RTVSPropertyOp38
 70
     1
102
RTVSPropertyOp39
 70
     1
102
RTVSPropertyOp40
 70
     1
102
RTVSPropertyOp41
 70
     1
102
RTVSPropertyOp42
 70
     1
102
RTVSPropertyOp43
 70
     1
102
RTVSPropertyOp44
 70
     1
102
RTVSPropertyOp45
 70
     1
102
RTVSPropertyOp46
 70
     1
102
RTVSPropertyOp47
 70
     1
102
RTVSPropertyOp48
 70
     1
102
RTVSPropertyOp49
 70
     1
102
RTVSPropertyOp50
 70
     1
102
RTVSPropertyOp51
 70
     0
102
RTVSPropertyOp52
 70
     0
102
RTVSPropertyOp53
 70
     1
102
RTVSPropertyOp54
 70
     1
102
RTVSPropertyOp55
 70
     1
102
RTVSPropertyOp56
 70
     1
102
RTVSPropertyOp57
 70
     1
102
RTVSPost2010Prop28
280
     0
102
RTVSPost2010PropOp28
 70
     1
102
RTVSPost2010Prop29
280
     1
102
RTVSPost2010PropOp29
 70
     1
102
RTVSPost2010Prop30
280
     1
102
RTVSPost2010PropOp30
 70
     1
102
RTVSPost2010Prop31
280
     0
102
RTVSPost2010PropOp31
 70
     1
102
RTVSPost2010Prop32
280
     0
102
RTVSPost2010PropOp32
 70
     1
102
RTVSPost2010Prop33
280
     0
102
RTVSPost2010PropOp33
 70
     1
102
RTVSPost2010Prop34
280
     0
102
RTVSPost2010PropOp34
 70
     1
102
RTVSPost2010Prop35
280
     0
102
RTVSPost2010PropOp35
 70
     1
102
RTVSPost2010Prop36
280
     0
102
RTVSPost2010PropOp36
 70
     1
102
RTVSPost2010Prop37
 90
       50
102
RTVSPost2010PropOp37
 70
     1
102
RTVSPost2010Prop38
140
0.0
102
RTVSPost2010PropOp38
 70
     1
102
RTVSPost2010Prop39
140
1.0
102
RTVSPost2010PropOp39
 70
     1
102
RTVSPost2010Prop40
 90
        0
102
RTVSPost2010PropOp40
 70
     1
102
RTVSPost2010Prop41ColorIndex
 90
       18
102
RTVSPost2010Prop41ColorRGB
 90
        0
102
RTVSPost2010PropOp41
 70
     1
102
RTVSPost2010Prop42
 90
       50
102
RTVSPost2010PropOp42
 70
     1
102
RTVSPost2010Prop43
 90
        3
102
RTVSPost2010PropOp43
 70
     1
102
RTVSPost2010Prop44ColorIndex
 90
        5
102
RTVSPost2010Prop44ColorRGB
 90
      255
102
RTVSPost2010PropOp44
 70
     1
102
RTVSPost2010Prop45
280
     0
102
RTVSPost2010PropOp45
 70
     1
102
RTVSPost2010Prop46
 90
       50
102
RTVSPost2010PropOp46
 70
     1
102
RTVSPost2010Prop47
 90
       50
102
RTVSPost2010PropOp47
 70
     1
102
RTVSPost2010Prop48
 90
       50
102
RTVSPost2010PropOp48
 70
     1
102
RTVSPost2010Prop49
280
     0
102
RTVSPost2010PropOp49
 70
     1
102
RTVSPost2010Prop50
 90
       50
102
RTVSPost2010PropOp50
 70
     1
102
RTVSPost2010Prop51ColorIndex
 90
      256
102
RTVSPost2010Prop51ColorRGB
 90
-16777216
102
RTVSPost2010PropOp51
 70
     0
102
RTVSPost2010Prop52
140
1.0
102
RTVSPost2010PropOp52
 70
     0
102
RTVSPost2010Prop53
 90
        2
102
RTVSPost2010PropOp53
 70
     1
102
RTVSPost2010Prop54
  1
strokes_ogs.tif
102
RTVSPost2010PropOp54
 70
     1
102
RTVSPost2010Prop55
280
     0
102
RTVSPost2010PropOp55
 70
     1
102
RTVSPost2010Prop56
140
1.0
102
RTVSPost2010PropOp56
 70
     1
102
RTVSPost2010Prop57
140
1.0
102
RTVSPost2010PropOp57
 70
     1
  0
XRECORD
  5
1B7
102
{ACAD_REACTORS
330
1B6
102
}
330
1B6
100
AcDbXrecord
280
     1
102
RTVSPropertyOp0
 70
     1
102
RTVSPropertyOp1
 70
     1
102
RTVSPropertyOp2
 70
     1
102
RTVSPropertyOp3
 70
     1
102
RTVSPropertyOp4
 70
     1
102
RTVSPropertyOp5
 70
     1
102
RTVSPropertyOp6
 70
     1
102
RTVSPropertyOp7
 70
     1
102
RTVSPropertyOp8
 70
     1
102
RTVSPropertyOp9
 70
     1
102
RTVSPropertyOp10
 70
     1
102
RTVSPropertyOp11
 70
     1
102
RTVSPropertyOp12
 70
     1
102
RTVSPropertyOp13
 70
     1
102
RTVSPropertyOp14
 70
     1
102
RTVSPropertyOp15
 70
     1
102
RTVSPropertyOp16
 70
     1
102
RTVSPropertyOp17
 70
     1
102
RTVSPropertyOp18
 70
     1
102
RTVSPropertyOp19
 70
     1
102
RTVSPropertyOp20
 70
     1
102
RTVSPropertyOp21
 70
     1
102
RTVSPropertyOp22
 70
     1
102
RTVSPropertyOp23
 70
     1
102
RTVSPropertyOp24
 70
     1
102
RTVSPropertyOp25
 70
     1
102
RTVSPropertyOp26
 70
     1
102
RTVSPropertyOp27
 70
     1
102
RTVSPropertyOp28
 70
     1
102
RTVSPropertyOp29
 70
     1
102
RTVSPropertyOp30
 70
     1
102
RTVSPropertyOp31
 70
     1
102
RTVSPropertyOp32
 70
     1
102
RTVSPropertyOp33
 70
     1
102
RTVSPropertyOp34
 70
     1
102
RTVSPropertyOp35
 70
     1
102
RTVSPropertyOp36
 70
     1
102
RTVSPropertyOp37
 70
     1
102
RTVSPropertyOp38
 70
     1
102
RTVSPropertyOp39
 70
     1
102
RTVSPropertyOp40
 70
     1
102
RTVSPropertyOp41
 70
     1
102
RTVSPropertyOp42
 70
     1
102
RTVSPropertyOp43
 70
     1
102
RTVSPropertyOp44
 70
     1
102
RTVSPropertyOp45
 70
     1
102
RTVSPropertyOp46
 70
     1
102
RTVSPropertyOp47
 70
     1
102
RTVSPropertyOp48
 70
     1
102
RTVSPropertyOp49
 70
     1
102
RTVSPropertyOp50
 70
     1
102
RTVSPropertyOp51
 70
     0
102
RTVSPropertyOp52
 70
     0
102
RTVSPropertyOp53
 70
     1
102
RTVSPropertyOp54
 70
     1
102
RTVSPropertyOp55
 70
     1
102
RTVSPropertyOp56
 70
     1
102
RTVSPropertyOp57
 70
     1
102
RTVSPost2010Prop28
280
     0
102
RTVSPost2010PropOp28
 70
     1
102
RTVSPost2010Prop29
280
     1
102
RTVSPost2010PropOp29
 70
     1
102
RTVSPost2010Prop30
280
     1
102
RTVSPost2010PropOp30
 70
     1
102
RTVSPost2010Prop31
280
     0
102
RTVSPost2010PropOp31
 70
     1
102
RTVSPost2010Prop32
280
     0
102
RTVSPost2010PropOp32
 70
     1
102
RTVSPost2010Prop33
280
     0
102
RTVSPost2010PropOp33
 70
     1
102
RTVSPost2010Prop34
280
     0
102
RTVSPost2010PropOp34
 70
     1
102
RTVSPost2010Prop35
280
     0
102
RTVSPost2010PropOp35
 70
     1
102
RTVSPost2010Prop36
280
     0
102
RTVSPost2010PropOp36
 70
     1
102
RTVSPost2010Prop37
 90
       50
102
RTVSPost2010PropOp37
 70
     1
102
RTVSPost2010Prop38
140
0.0
102
RTVSPost2010PropOp38
 70
     1
102
RTVSPost2010Prop39
140
1.0
102
RTVSPost2010PropOp39
 70
     1
102
RTVSPost2010Prop40
 90
        0
102
RTVSPost2010PropOp40
 70
     1
102
RTVSPost2010Prop41ColorIndex
 90
       18
102
RTVSPost2010Prop41ColorRGB
 90
        0
102
RTVSPost2010PropOp41
 70
     1
102
RTVSPost2010Prop42
 90
       50
102
RTVSPost2010PropOp42
 70
     1
102
RTVSPost2010Prop43
 90
        3
102
RTVSPost2010PropOp43
 70
     1
102
RTVSPost2010Prop44ColorIndex
 90
        5
102
RTVSPost2010Prop44ColorRGB
 90
      255
102
RTVSPost2010PropOp44
 70
     1
102
RTVSPost2010Prop45
280
     0
102
RTVSPost2010PropOp45
 70
     1
102
RTVSPost2010Prop46
 90
       50
102
RTVSPost2010PropOp46
 70
     1
102
RTVSPost2010Prop47
 90
       50
102
RTVSPost2010PropOp47
 70
     1
102
RTVSPost2010Prop48
 90
       50
102
RTVSPost2010PropOp48
 70
     1
102
RTVSPost2010Prop49
280
     0
102
RTVSPost2010PropOp49
 70
     1
102
RTVSPost2010Prop50
 90
       50
102
RTVSPost2010PropOp50
 70
     1
102
RTVSPost2010Prop51ColorIndex
 90
      256
102
RTVSPost2010Prop51ColorRGB
 90
-16777216
102
RTVSPost2010PropOp51
 70
     0
102
RTVSPost2010Prop52
140
1.0
102
RTVSPost2010PropOp52
 70
     0
102
RTVSPost2010Prop53
 90
        2
102
RTVSPost2010PropOp53
 70
     1
102
RTVSPost2010Prop54
  1
strokes_ogs.tif
102
RTVSPost2010PropOp54
 70
     1
102
RTVSPost2010Prop55
280
     0
102
RTVSPost2010PropOp55
 70
     1
102
RTVSPost2010Prop56
140
1.0
102
RTVSPost2010PropOp56
 70
     1
102
RTVSPost2010Prop57
140
1.0
102
RTVSPost2010PropOp57
 70
     1
  0
XRECORD
  5
1BD
102
{ACAD_REACTORS
330
1BC
102
}
330
1BC
100
AcDbXrecord
280
     1
102
RTVSPropertyOp0
 70
     1
102
RTVSPropertyOp1
 70
     1
102
RTVSPropertyOp2
 70
     1
102
RTVSPropertyOp3
 70
     1
102
RTVSPropertyOp4
 70
     1
102
RTVSPropertyOp5
 70
     1
102
RTVSPropertyOp6
 70
     1
102
RTVSPropertyOp7
 70
     1
102
RTVSPropertyOp8
 70
     1
102
RTVSPropertyOp9
 70
     1
102
RTVSPropertyOp10
 70
     1
102
RTVSPropertyOp11
 70
     1
102
RTVSPropertyOp12
 70
     1
102
RTVSPropertyOp13
 70
     1
102
RTVSPropertyOp14
 70
     1
102
RTVSPropertyOp15
 70
     1
102
RTVSPropertyOp16
 70
     1
102
RTVSPropertyOp17
 70
     1
102
RTVSPropertyOp18
 70
     1
102
RTVSPropertyOp19
 70
     1
102
RTVSPropertyOp20
 70
     1
102
RTVSPropertyOp21
 70
     1
102
RTVSPropertyOp22
 70
     1
102
RTVSPropertyOp23
 70
     1
102
RTVSPropertyOp24
 70
     1
102
RTVSPropertyOp25
 70
     1
102
RTVSPropertyOp26
 70
     1
102
RTVSPropertyOp27
 70
     1
102
RTVSPropertyOp28
 70
     1
102
RTVSPropertyOp29
 70
     1
102
RTVSPropertyOp30
 70
     1
102
RTVSPropertyOp31
 70
     1
102
RTVSPropertyOp32
 70
     1
102
RTVSPropertyOp33
 70
     1
102
RTVSPropertyOp34
 70
     1
102
RTVSPropertyOp35
 70
     1
102
RTVSPropertyOp36
 70
     1
102
RTVSPropertyOp37
 70
     1
102
RTVSPropertyOp38
 70
     1
102
RTVSPropertyOp39
 70
     1
102
RTVSPropertyOp40
 70
     1
102
RTVSPropertyOp41
 70
     1
102
RTVSPropertyOp42
 70
     1
102
RTVSPropertyOp43
 70
     1
102
RTVSPropertyOp44
 70
     1
102
RTVSPropertyOp45
 70
     1
102
RTVSPropertyOp46
 70
     1
102
RTVSPropertyOp47
 70
     1
102
RTVSPropertyOp48
 70
     1
102
RTVSPropertyOp49
 70
     1
102
RTVSPropertyOp50
 70
     1
102
RTVSPropertyOp51
 70
     0
102
RTVSPropertyOp52
 70
     0
102
RTVSPropertyOp53
 70
     1
102
RTVSPropertyOp54
 70
     1
102
RTVSPropertyOp55
 70
     1
102
RTVSPropertyOp56
 70
     1
102
RTVSPropertyOp57
 70
     1
102
RTVSPost2010Prop28
280
     0
102
RTVSPost2010PropOp28
 70
     1
102
RTVSPost2010Prop29
280
     1
102
RTVSPost2010PropOp29
 70
     1
102
RTVSPost2010Prop30
280
     1
102
RTVSPost2010PropOp30
 70
     1
102
RTVSPost2010Prop31
280
     0
102
RTVSPost2010PropOp31
 70
     1
102
RTVSPost2010Prop32
280
     0
102
RTVSPost2010PropOp32
 70
     1
102
RTVSPost2010Prop33
280
     0
102
RTVSPost2010PropOp33
 70
     1
102
RTVSPost2010Prop34
280
     0
102
RTVSPost2010PropOp34
 70
     1
102
RTVSPost2010Prop35
280
     0
102
RTVSPost2010PropOp35
 70
     1
102
RTVSPost2010Prop36
280
     0
102
RTVSPost2010PropOp36
 70
     1
102
RTVSPost2010Prop37
 90
       50
102
RTVSPost2010PropOp37
 70
     1
102
RTVSPost2010Prop38
140
0.0
102
RTVSPost2010PropOp38
 70
     1
102
RTVSPost2010Prop39
140
1.0
102
RTVSPost2010PropOp39
 70
     1
102
RTVSPost2010Prop40
 90
        0
102
RTVSPost2010PropOp40
 70
     1
102
RTVSPost2010Prop41ColorIndex
 90
       18
102
RTVSPost2010Prop41ColorRGB
 90
        0
102
RTVSPost2010PropOp41
 70
     1
102
RTVSPost2010Prop42
 90
       50
102
RTVSPost2010PropOp42
 70
     1
102
RTVSPost2010Prop43
 90
        3
102
RTVSPost2010PropOp43
 70
     1
102
RTVSPost2010Prop44ColorIndex
 90
        5
102
RTVSPost2010Prop44ColorRGB
 90
      255
102
RTVSPost2010PropOp44
 70
     1
102
RTVSPost2010Prop45
280
     0
102
RTVSPost2010PropOp45
 70
     1
102
RTVSPost2010Prop46
 90
       50
102
RTVSPost2010PropOp46
 70
     1
102
RTVSPost2010Prop47
 90
       50
102
RTVSPost2010PropOp47
 70
     1
102
RTVSPost2010Prop48
 90
       50
102
RTVSPost2010PropOp48
 70
     1
102
RTVSPost2010Prop49
280
     0
102
RTVSPost2010PropOp49
 70
     1
102
RTVSPost2010Prop50
 90
       50
102
RTVSPost2010PropOp50
 70
     1
102
RTVSPost2010Prop51ColorIndex
 90
      256
102
RTVSPost2010Prop51ColorRGB
 90
-16777216
102
RTVSPost2010PropOp51
 70
     0
102
RTVSPost2010Prop52
140
1.0
102
RTVSPost2010PropOp52
 70
     0
102
RTVSPost2010Prop53
 90
        2
102
RTVSPost2010PropOp53
 70
     1
102
RTVSPost2010Prop54
  1
strokes_ogs.tif
102
RTVSPost2010PropOp54
 70
     1
102
RTVSPost2010Prop55
280
     0
102
RTVSPost2010PropOp55
 70
     1
102
RTVSPost2010Prop56
140
1.0
102
RTVSPost2010PropOp56
 70
     1
102
RTVSPost2010Prop57
140
1.0
102
RTVSPost2010PropOp57
 70
     1
  0
XRECORD
  5
1D1
102
{ACAD_REACTORS
330
1D0
102
}
330
1D0
100
AcDbXrecord
280
     1
102
RTVSPropertyOp0
 70
     0
102
RTVSPropertyOp1
 70
     0
102
RTVSPropertyOp2
 70
     0
102
RTVSPropertyOp3
 70
     0
102
RTVSPropertyOp4
 70
     0
102
RTVSPropertyOp5
 70
     0
102
RTVSPropertyOp6
 70
     0
102
RTVSPropertyOp7
 70
     0
102
RTVSPropertyOp8
 70
     0
102
RTVSPropertyOp9
 70
     0
102
RTVSPropertyOp10
 70
     0
102
RTVSPropertyOp11
 70
     0
102
RTVSPropertyOp12
 70
     0
102
RTVSPropertyOp13
 70
     0
102
RTVSPropertyOp14
 70
     2
102
RTVSPropertyOp15
 70
     0
102
RTVSPropertyOp16
 70
     0
102
RTVSPropertyOp17
 70
     0
102
RTVSPropertyOp18
 70
     0
102
RTVSPropertyOp19
 70
     0
102
RTVSPropertyOp20
 70
     0
102
RTVSPropertyOp21
 70
     0
102
RTVSPropertyOp22
 70
     0
102
RTVSPropertyOp23
 70
     0
102
RTVSPropertyOp24
 70
     0
102
RTVSPropertyOp25
 70
     0
102
RTVSPropertyOp26
 70
     0
102
RTVSPropertyOp27
 70
     0
102
RTVSPropertyOp28
 70
     0
102
RTVSPropertyOp29
 70
     0
102
RTVSPropertyOp30
 70
     0
102
RTVSPropertyOp31
 70
     0
102
RTVSPropertyOp32
 70
     0
102
RTVSPropertyOp33
 70
     0
102
RTVSPropertyOp34
 70
     0
102
RTVSPropertyOp35
 70
     0
102
RTVSPropertyOp36
 70
     0
102
RTVSPropertyOp37
 70
     0
102
RTVSPropertyOp38
 70
     0
102
RTVSPropertyOp39
 70
     0
102
RTVSPropertyOp40
 70
     0
102
RTVSPropertyOp41
 70
     0
102
RTVSPropertyOp42
 70
     0
102
RTVSPropertyOp43
 70
     0
102
RTVSPropertyOp44
 70
     0
102
RTVSPropertyOp45
 70
     0
102
RTVSPropertyOp46
 70
     0
102
RTVSPropertyOp47
 70
     0
102
RTVSPropertyOp48
 70
     0
102
RTVSPropertyOp49
 70
     0
102
RTVSPropertyOp50
 70
     0
102
RTVSPropertyOp51
 70
     0
102
RTVSPropertyOp52
 70
     0
102
RTVSPropertyOp53
 70
     0
102
RTVSPropertyOp54
 70
     0
102
RTVSPropertyOp55
 70
     0
102
RTVSPropertyOp56
 70
     0
102
RTVSPropertyOp57
 70
     0
102
RTVSPost2010Prop28
280
     0
102
RTVSPost2010PropOp28
 70
     0
102
RTVSPost2010Prop29
280
     1
102
RTVSPost2010PropOp29
 70
     0
102
RTVSPost2010Prop30
280
     1
102
RTVSPost2010PropOp30
 70
     0
102
RTVSPost2010Prop31
280
     0
102
RTVSPost2010PropOp31
 70
     0
102
RTVSPost2010Prop32
280
     0
102
RTVSPost2010PropOp32
 70
     0
102
RTVSPost2010Prop33
280
     0
102
RTVSPost2010PropOp33
 70
     0
102
RTVSPost2010Prop34
280
     0
102
RTVSPost2010PropOp34
 70
     0
102
RTVSPost2010Prop35
280
     0
102
RTVSPost2010PropOp35
 70
     0
102
RTVSPost2010Prop36
280
     0
102
RTVSPost2010PropOp36
 70
     0
102
RTVSPost2010Prop37
 90
       50
102
RTVSPost2010PropOp37
 70
     0
102
RTVSPost2010Prop38
140
0.0
102
RTVSPost2010PropOp38
 70
     0
102
RTVSPost2010Prop39
140
1.0
102
RTVSPost2010PropOp39
 70
     0
102
RTVSPost2010Prop40
 90
        0
102
RTVSPost2010PropOp40
 70
     0
102
RTVSPost2010Prop41ColorIndex
 90
       18
102
RTVSPost2010Prop41ColorRGB
 90
        0
102
RTVSPost2010PropOp41
 70
     0
102
RTVSPost2010Prop42
 90
       50
102
RTVSPost2010PropOp42
 70
     0
102
RTVSPost2010Prop43
 90
        3
102
RTVSPost2010PropOp43
 70
     0
102
RTVSPost2010Prop44ColorIndex
 90
        5
102
RTVSPost2010Prop44ColorRGB
 90
      255
102
RTVSPost2010PropOp44
 70
     0
102
RTVSPost2010Prop45
280
     0
102
RTVSPost2010PropOp45
 70
     0
102
RTVSPost2010Prop46
 90
       50
102
RTVSPost2010PropOp46
 70
     0
102
RTVSPost2010Prop47
 90
       50
102
RTVSPost2010PropOp47
 70
     0
102
RTVSPost2010Prop48
 90
       50
102
RTVSPost2010PropOp48
 70
     0
102
RTVSPost2010Prop49
280
     0
102
RTVSPost2010PropOp49
 70
     0
102
RTVSPost2010Prop50
 90
       50
102
RTVSPost2010PropOp50
 70
     0
102
RTVSPost2010Prop51ColorIndex
 90
      256
102
RTVSPost2010Prop51ColorRGB
 90
-16777216
102
RTVSPost2010PropOp51
 70
     0
102
RTVSPost2010Prop52
140
1.0
102
RTVSPost2010PropOp52
 70
     0
102
RTVSPost2010Prop53
 90
        2
102
RTVSPost2010PropOp53
 70
     0
102
RTVSPost2010Prop54
  1
strokes_ogs.tif
102
RTVSPost2010PropOp54
 70
     0
102
RTVSPost2010Prop55
280
     0
102
RTVSPost2010PropOp55
 70
     0
102
RTVSPost2010Prop56
140
1.0
102
RTVSPost2010PropOp56
 70
     0
102
RTVSPost2010Prop57
140
1.0
102
RTVSPost2010PropOp57
 70
     0
  0
XRECORD
  5
1CB
102
{ACAD_REACTORS
330
1CA
102
}
330
1CA
100
AcDbXrecord
280
     1
102
RTVSPropertyOp0
 70
     1
102
RTVSPropertyOp1
 70
     1
102
RTVSPropertyOp2
 70
     1
102
RTVSPropertyOp3
 70
     1
102
RTVSPropertyOp4
 70
     1
102
RTVSPropertyOp5
 70
     1
102
RTVSPropertyOp6
 70
     1
102
RTVSPropertyOp7
 70
     1
102
RTVSPropertyOp8
 70
     1
102
RTVSPropertyOp9
 70
     1
102
RTVSPropertyOp10
 70
     1
102
RTVSPropertyOp11
 70
     1
102
RTVSPropertyOp12
 70
     1
102
RTVSPropertyOp13
 70
     1
102
RTVSPropertyOp14
 70
     1
102
RTVSPropertyOp15
 70
     1
102
RTVSPropertyOp16
 70
     1
102
RTVSPropertyOp17
 70
     1
102
RTVSPropertyOp18
 70
     1
102
RTVSPropertyOp19
 70
     1
102
RTVSPropertyOp20
 70
     1
102
RTVSPropertyOp21
 70
     1
102
RTVSPropertyOp22
 70
     1
102
RTVSPropertyOp23
 70
     1
102
RTVSPropertyOp24
 70
     1
102
RTVSPropertyOp25
 70
     1
102
RTVSPropertyOp26
 70
     1
102
RTVSPropertyOp27
 70
     1
102
RTVSPropertyOp28
 70
     1
102
RTVSPropertyOp29
 70
     1
102
RTVSPropertyOp30
 70
     1
102
RTVSPropertyOp31
 70
     1
102
RTVSPropertyOp32
 70
     1
102
RTVSPropertyOp33
 70
     1
102
RTVSPropertyOp34
 70
     1
102
RTVSPropertyOp35
 70
     1
102
RTVSPropertyOp36
 70
     1
102
RTVSPropertyOp37
 70
     1
102
RTVSPropertyOp38
 70
     1
102
RTVSPropertyOp39
 70
     1
102
RTVSPropertyOp40
 70
     1
102
RTVSPropertyOp41
 70
     1
102
RTVSPropertyOp42
 70
     1
102
RTVSPropertyOp43
 70
     1
102
RTVSPropertyOp44
 70
     1
102
RTVSPropertyOp45
 70
     1
102
RTVSPropertyOp46
 70
     1
102
RTVSPropertyOp47
 70
     1
102
RTVSPropertyOp48
 70
     1
102
RTVSPropertyOp49
 70
     1
102
RTVSPropertyOp50
 70
     1
102
RTVSPropertyOp51
 70
     0
102
RTVSPropertyOp52
 70
     0
102
RTVSPropertyOp53
 70
     1
102
RTVSPropertyOp54
 70
     1
102
RTVSPropertyOp55
 70
     1
102
RTVSPropertyOp56
 70
     1
102
RTVSPropertyOp57
 70
     1
102
RTVSPost2010Prop28
280
     0
102
RTVSPost2010PropOp28
 70
     1
102
RTVSPost2010Prop29
280
     1
102
RTVSPost2010PropOp29
 70
     1
102
RTVSPost2010Prop30
280
     1
102
RTVSPost2010PropOp30
 70
     1
102
RTVSPost2010Prop31
280
     0
102
RTVSPost2010PropOp31
 70
     1
102
RTVSPost2010Prop32
280
     0
102
RTVSPost2010PropOp32
 70
     1
102
RTVSPost2010Prop33
280
     0
102
RTVSPost2010PropOp33
 70
     1
102
RTVSPost2010Prop34
280
     0
102
RTVSPost2010PropOp34
 70
     1
102
RTVSPost2010Prop35
280
     0
102
RTVSPost2010PropOp35
 70
     1
102
RTVSPost2010Prop36
280
     0
102
RTVSPost2010PropOp36
 70
     1
102
RTVSPost2010Prop37
 90
       50
102
RTVSPost2010PropOp37
 70
     1
102
RTVSPost2010Prop38
140
0.0
102
RTVSPost2010PropOp38
 70
     1
102
RTVSPost2010Prop39
140
1.0
102
RTVSPost2010PropOp39
 70
     1
102
RTVSPost2010Prop40
 90
        0
102
RTVSPost2010PropOp40
 70
     1
102
RTVSPost2010Prop41ColorIndex
 90
       18
102
RTVSPost2010Prop41ColorRGB
 90
        0
102
RTVSPost2010PropOp41
 70
     1
102
RTVSPost2010Prop42
 90
       50
102
RTVSPost2010PropOp42
 70
     1
102
RTVSPost2010Prop43
 90
        3
102
RTVSPost2010PropOp43
 70
     1
102
RTVSPost2010Prop44ColorIndex
 90
        5
102
RTVSPost2010Prop44ColorRGB
 90
      255
102
RTVSPost2010PropOp44
 70
     1
102
RTVSPost2010Prop45
280
     0
102
RTVSPost2010PropOp45
 70
     1
102
RTVSPost2010Prop46
 90
       50
102
RTVSPost2010PropOp46
 70
     1
102
RTVSPost2010Prop47
 90
       50
102
RTVSPost2010PropOp47
 70
     1
102
RTVSPost2010Prop48
 90
       50
102
RTVSPost2010PropOp48
 70
     1
102
RTVSPost2010Prop49
280
     0
102
RTVSPost2010PropOp49
 70
     1
102
RTVSPost2010Prop50
 90
       50
102
RTVSPost2010PropOp50
 70
     1
102
RTVSPost2010Prop51ColorIndex
 90
      256
102
RTVSPost2010Prop51ColorRGB
 90
-16777216
102
RTVSPost2010PropOp51
 70
     0
102
RTVSPost2010Prop52
140
1.0
102
RTVSPost2010PropOp52
 70
     0
102
RTVSPost2010Prop53
 90
        2
102
RTVSPost2010PropOp53
 70
     1
102
RTVSPost2010Prop54
  1
strokes_ogs.tif
102
RTVSPost2010PropOp54
 70
     1
102
RTVSPost2010Prop55
280
     0
102
RTVSPost2010PropOp55
 70
     1
102
RTVSPost2010Prop56
140
1.0
102
RTVSPost2010PropOp56
 70
     1
102
RTVSPost2010Prop57
140
1.0
102
RTVSPost2010PropOp57
 70
     1
  0
XRECORD
  5
1D3
102
{ACAD_REACTORS
330
1D2
102
}
330
1D2
100
AcDbXrecord
280
     1
102
RTVSPropertyOp0
 70
     0
102
RTVSPropertyOp1
 70
     0
102
RTVSPropertyOp2
 70
     0
102
RTVSPropertyOp3
 70
     0
102
RTVSPropertyOp4
 70
     0
102
RTVSPropertyOp5
 70
     0
102
RTVSPropertyOp6
 70
     0
102
RTVSPropertyOp7
 70
     0
102
RTVSPropertyOp8
 70
     0
102
RTVSPropertyOp9
 70
     0
102
RTVSPropertyOp10
 70
     0
102
RTVSPropertyOp11
 70
     0
102
RTVSPropertyOp12
 70
     0
102
RTVSPropertyOp13
 70
     0
102
RTVSPropertyOp14
 70
     2
102
RTVSPropertyOp15
 70
     0
102
RTVSPropertyOp16
 70
     0
102
RTVSPropertyOp17
 70
     0
102
RTVSPropertyOp18
 70
     0
102
RTVSPropertyOp19
 70
     0
102
RTVSPropertyOp20
 70
     0
102
RTVSPropertyOp21
 70
     0
102
RTVSPropertyOp22
 70
     0
102
RTVSPropertyOp23
 70
     0
102
RTVSPropertyOp24
 70
     0
102
RTVSPropertyOp25
 70
     0
102
RTVSPropertyOp26
 70
     0
102
RTVSPropertyOp27
 70
     0
102
RTVSPropertyOp28
 70
     0
102
RTVSPropertyOp29
 70
     0
102
RTVSPropertyOp30
 70
     0
102
RTVSPropertyOp31
 70
     0
102
RTVSPropertyOp32
 70
     0
102
RTVSPropertyOp33
 70
     0
102
RTVSPropertyOp34
 70
     0
102
RTVSPropertyOp35
 70
     0
102
RTVSPropertyOp36
 70
     0
102
RTVSPropertyOp37
 70
     0
102
RTVSPropertyOp38
 70
     0
102
RTVSPropertyOp39
 70
     0
102
RTVSPropertyOp40
 70
     0
102
RTVSPropertyOp41
 70
     0
102
RTVSPropertyOp42
 70
     0
102
RTVSPropertyOp43
 70
     0
102
RTVSPropertyOp44
 70
     0
102
RTVSPropertyOp45
 70
     0
102
RTVSPropertyOp46
 70
     0
102
RTVSPropertyOp47
 70
     0
102
RTVSPropertyOp48
 70
     0
102
RTVSPropertyOp49
 70
     0
102
RTVSPropertyOp50
 70
     0
102
RTVSPropertyOp51
 70
     0
102
RTVSPropertyOp52
 70
     0
102
RTVSPropertyOp53
 70
     0
102
RTVSPropertyOp54
 70
     0
102
RTVSPropertyOp55
 70
     0
102
RTVSPropertyOp56
 70
     0
102
RTVSPropertyOp57
 70
     0
102
RTVSPost2010Prop28
280
     0
102
RTVSPost2010PropOp28
 70
     0
102
RTVSPost2010Prop29
280
     1
102
RTVSPost2010PropOp29
 70
     0
102
RTVSPost2010Prop30
280
     1
102
RTVSPost2010PropOp30
 70
     0
102
RTVSPost2010Prop31
280
     0
102
RTVSPost2010PropOp31
 70
     0
102
RTVSPost2010Prop32
280
     0
102
RTVSPost2010PropOp32
 70
     0
102
RTVSPost2010Prop33
280
     0
102
RTVSPost2010PropOp33
 70
     0
102
RTVSPost2010Prop34
280
     0
102
RTVSPost2010PropOp34
 70
     0
102
RTVSPost2010Prop35
280
     0
102
RTVSPost2010PropOp35
 70
     0
102
RTVSPost2010Prop36
280
     0
102
RTVSPost2010PropOp36
 70
     0
102
RTVSPost2010Prop37
 90
       50
102
RTVSPost2010PropOp37
 70
     0
102
RTVSPost2010Prop38
140
0.0
102
RTVSPost2010PropOp38
 70
     0
102
RTVSPost2010Prop39
140
1.0
102
RTVSPost2010PropOp39
 70
     0
102
RTVSPost2010Prop40
 90
        0
102
RTVSPost2010PropOp40
 70
     0
102
RTVSPost2010Prop41ColorIndex
 90
       18
102
RTVSPost2010Prop41ColorRGB
 90
        0
102
RTVSPost2010PropOp41
 70
     0
102
RTVSPost2010Prop42
 90
       50
102
RTVSPost2010PropOp42
 70
     0
102
RTVSPost2010Prop43
 90
        3
102
RTVSPost2010PropOp43
 70
     0
102
RTVSPost2010Prop44ColorIndex
 90
        5
102
RTVSPost2010Prop44ColorRGB
 90
      255
102
RTVSPost2010PropOp44
 70
     0
102
RTVSPost2010Prop45
280
     0
102
RTVSPost2010PropOp45
 70
     0
102
RTVSPost2010Prop46
 90
       50
102
RTVSPost2010PropOp46
 70
     0
102
RTVSPost2010Prop47
 90
       50
102
RTVSPost2010PropOp47
 70
     0
102
RTVSPost2010Prop48
 90
       50
102
RTVSPost2010PropOp48
 70
     0
102
RTVSPost2010Prop49
280
     0
102
RTVSPost2010PropOp49
 70
     0
102
RTVSPost2010Prop50
 90
       50
102
RTVSPost2010PropOp50
 70
     0
102
RTVSPost2010Prop51ColorIndex
 90
      256
102
RTVSPost2010Prop51ColorRGB
 90
-16777216
102
RTVSPost2010PropOp51
 70
     0
102
RTVSPost2010Prop52
140
1.0
102
RTVSPost2010PropOp52
 70
     0
102
RTVSPost2010Prop53
 90
        2
102
RTVSPost2010PropOp53
 70
     0
102
RTVSPost2010Prop54
  1
strokes_ogs.tif
102
RTVSPost2010PropOp54
 70
     0
102
RTVSPost2010Prop55
280
     0
102
RTVSPost2010PropOp55
 70
     0
102
RTVSPost2010Prop56
140
1.0
102
RTVSPost2010PropOp56
 70
     0
102
RTVSPost2010Prop57
140
1.0
102
RTVSPost2010PropOp57
 70
     0
  0
XRECORD
  5
1C1
102
{ACAD_REACTORS
330
1C0
102
}
330
1C0
100
AcDbXrecord
280
     1
102
RTVSPropertyOp0
 70
     1
102
RTVSPropertyOp1
 70
     1
102
RTVSPropertyOp2
 70
     1
102
RTVSPropertyOp3
 70
     1
102
RTVSPropertyOp4
 70
     1
102
RTVSPropertyOp5
 70
     1
102
RTVSPropertyOp6
 70
     1
102
RTVSPropertyOp7
 70
     1
102
RTVSPropertyOp8
 70
     1
102
RTVSPropertyOp9
 70
     1
102
RTVSPropertyOp10
 70
     1
102
RTVSPropertyOp11
 70
     1
102
RTVSPropertyOp12
 70
     1
102
RTVSPropertyOp13
 70
     1
102
RTVSPropertyOp14
 70
     1
102
RTVSPropertyOp15
 70
     1
102
RTVSPropertyOp16
 70
     1
102
RTVSPropertyOp17
 70
     1
102
RTVSPropertyOp18
 70
     1
102
RTVSPropertyOp19
 70
     1
102
RTVSPropertyOp20
 70
     1
102
RTVSPropertyOp21
 70
     1
102
RTVSPropertyOp22
 70
     1
102
RTVSPropertyOp23
 70
     1
102
RTVSPropertyOp24
 70
     1
102
RTVSPropertyOp25
 70
     1
102
RTVSPropertyOp26
 70
     1
102
RTVSPropertyOp27
 70
     1
102
RTVSPropertyOp28
 70
     1
102
RTVSPropertyOp29
 70
     1
102
RTVSPropertyOp30
 70
     1
102
RTVSPropertyOp31
 70
     1
102
RTVSPropertyOp32
 70
     1
102
RTVSPropertyOp33
 70
     1
102
RTVSPropertyOp34
 70
     1
102
RTVSPropertyOp35
 70
     1
102
RTVSPropertyOp36
 70
     1
102
RTVSPropertyOp37
 70
     1
102
RTVSPropertyOp38
 70
     1
102
RTVSPropertyOp39
 70
     1
102
RTVSPropertyOp40
 70
     1
102
RTVSPropertyOp41
 70
     1
102
RTVSPropertyOp42
 70
     1
102
RTVSPropertyOp43
 70
     1
102
RTVSPropertyOp44
 70
     1
102
RTVSPropertyOp45
 70
     1
102
RTVSPropertyOp46
 70
     1
102
RTVSPropertyOp47
 70
     1
102
RTVSPropertyOp48
 70
     1
102
RTVSPropertyOp49
 70
     1
102
RTVSPropertyOp50
 70
     1
102
RTVSPropertyOp51
 70
     0
102
RTVSPropertyOp52
 70
     0
102
RTVSPropertyOp53
 70
     1
102
RTVSPropertyOp54
 70
     1
102
RTVSPropertyOp55
 70
     1
102
RTVSPropertyOp56
 70
     1
102
RTVSPropertyOp57
 70
     1
102
RTVSPost2010Prop28
280
     0
102
RTVSPost2010PropOp28
 70
     1
102
RTVSPost2010Prop29
280
     1
102
RTVSPost2010PropOp29
 70
     1
102
RTVSPost2010Prop30
280
     1
102
RTVSPost2010PropOp30
 70
     1
102
RTVSPost2010Prop31
280
     0
102
RTVSPost2010PropOp31
 70
     1
102
RTVSPost2010Prop32
280
     0
102
RTVSPost2010PropOp32
 70
     1
102
RTVSPost2010Prop33
280
     0
102
RTVSPost2010PropOp33
 70
     1
102
RTVSPost2010Prop34
280
     0
102
RTVSPost2010PropOp34
 70
     1
102
RTVSPost2010Prop35
280
     0
102
RTVSPost2010PropOp35
 70
     1
102
RTVSPost2010Prop36
280
     0
102
RTVSPost2010PropOp36
 70
     1
102
RTVSPost2010Prop37
 90
       50
102
RTVSPost2010PropOp37
 70
     1
102
RTVSPost2010Prop38
140
0.0
102
RTVSPost2010PropOp38
 70
     1
102
RTVSPost2010Prop39
140
1.0
102
RTVSPost2010PropOp39
 70
     1
102
RTVSPost2010Prop40
 90
        0
102
RTVSPost2010PropOp40
 70
     1
102
RTVSPost2010Prop41ColorIndex
 90
       18
102
RTVSPost2010Prop41ColorRGB
 90
        0
102
RTVSPost2010PropOp41
 70
     1
102
RTVSPost2010Prop42
 90
       50
102
RTVSPost2010PropOp42
 70
     1
102
RTVSPost2010Prop43
 90
        3
102
RTVSPost2010PropOp43
 70
     1
102
RTVSPost2010Prop44ColorIndex
 90
        5
102
RTVSPost2010Prop44ColorRGB
 90
      255
102
RTVSPost2010PropOp44
 70
     1
102
RTVSPost2010Prop45
280
     0
102
RTVSPost2010PropOp45
 70
     1
102
RTVSPost2010Prop46
 90
       50
102
RTVSPost2010PropOp46
 70
     1
102
RTVSPost2010Prop47
 90
       50
102
RTVSPost2010PropOp47
 70
     1
102
RTVSPost2010Prop48
 90
       50
102
RTVSPost2010PropOp48
 70
     1
102
RTVSPost2010Prop49
280
     0
102
RTVSPost2010PropOp49
 70
     1
102
RTVSPost2010Prop50
 90
       50
102
RTVSPost2010PropOp50
 70
     1
102
RTVSPost2010Prop51ColorIndex
 90
      256
102
RTVSPost2010Prop51ColorRGB
 90
-16777216
102
RTVSPost2010PropOp51
 70
     0
102
RTVSPost2010Prop52
140
1.0
102
RTVSPost2010PropOp52
 70
     0
102
RTVSPost2010Prop53
 90
        2
102
RTVSPost2010PropOp53
 70
     1
102
RTVSPost2010Prop54
  1
strokes_ogs.tif
102
RTVSPost2010PropOp54
 70
     1
102
RTVSPost2010Prop55
280
     0
102
RTVSPost2010PropOp55
 70
     1
102
RTVSPost2010Prop56
140
1.0
102
RTVSPost2010PropOp56
 70
     1
102
RTVSPost2010Prop57
140
1.0
102
RTVSPost2010PropOp57
 70
     1
  0
XRECORD
  5
1DF
102
{ACAD_REACTORS
330
1DE
102
}
330
1DE
100
AcDbXrecord
280
     1
102
RTVSPropertyOp0
 70
     1
102
RTVSPropertyOp1
 70
     1
102
RTVSPropertyOp2
 70
     1
102
RTVSPropertyOp3
 70
     1
102
RTVSPropertyOp4
 70
     1
102
RTVSPropertyOp5
 70
     1
102
RTVSPropertyOp6
 70
     1
102
RTVSPropertyOp7
 70
     1
102
RTVSPropertyOp8
 70
     1
102
RTVSPropertyOp9
 70
     1
102
RTVSPropertyOp10
 70
     1
102
RTVSPropertyOp11
 70
     1
102
RTVSPropertyOp12
 70
     1
102
RTVSPropertyOp13
 70
     1
102
RTVSPropertyOp14
 70
     1
102
RTVSPropertyOp15
 70
     1
102
RTVSPropertyOp16
 70
     1
102
RTVSPropertyOp17
 70
     1
102
RTVSPropertyOp18
 70
     1
102
RTVSPropertyOp19
 70
     1
102
RTVSPropertyOp20
 70
     1
102
RTVSPropertyOp21
 70
     1
102
RTVSPropertyOp22
 70
     1
102
RTVSPropertyOp23
 70
     1
102
RTVSPropertyOp24
 70
     1
102
RTVSPropertyOp25
 70
     1
102
RTVSPropertyOp26
 70
     1
102
RTVSPropertyOp27
 70
     1
102
RTVSPropertyOp28
 70
     1
102
RTVSPropertyOp29
 70
     1
102
RTVSPropertyOp30
 70
     1
102
RTVSPropertyOp31
 70
     1
102
RTVSPropertyOp32
 70
     1
102
RTVSPropertyOp33
 70
     1
102
RTVSPropertyOp34
 70
     1
102
RTVSPropertyOp35
 70
     1
102
RTVSPropertyOp36
 70
     1
102
RTVSPropertyOp37
 70
     1
102
RTVSPropertyOp38
 70
     1
102
RTVSPropertyOp39
 70
     1
102
RTVSPropertyOp40
 70
     1
102
RTVSPropertyOp41
 70
     1
102
RTVSPropertyOp42
 70
     1
102
RTVSPropertyOp43
 70
     1
102
RTVSPropertyOp44
 70
     1
102
RTVSPropertyOp45
 70
     1
102
RTVSPropertyOp46
 70
     1
102
RTVSPropertyOp47
 70
     1
102
RTVSPropertyOp48
 70
     1
102
RTVSPropertyOp49
 70
     1
102
RTVSPropertyOp50
 70
     1
102
RTVSPropertyOp51
 70
     0
102
RTVSPropertyOp52
 70
     0
102
RTVSPropertyOp53
 70
     1
102
RTVSPropertyOp54
 70
     1
102
RTVSPropertyOp55
 70
     1
102
RTVSPropertyOp56
 70
     1
102
RTVSPropertyOp57
 70
     1
102
RTVSPost2010Prop28
280
     0
102
RTVSPost2010PropOp28
 70
     1
102
RTVSPost2010Prop29
280
     1
102
RTVSPost2010PropOp29
 70
     1
102
RTVSPost2010Prop30
280
     1
102
RTVSPost2010PropOp30
 70
     1
102
RTVSPost2010Prop31
280
     0
102
RTVSPost2010PropOp31
 70
     1
102
RTVSPost2010Prop32
280
     0
102
RTVSPost2010PropOp32
 70
     1
102
RTVSPost2010Prop33
280
     0
102
RTVSPost2010PropOp33
 70
     1
102
RTVSPost2010Prop34
280
     0
102
RTVSPost2010PropOp34
 70
     1
102
RTVSPost2010Prop35
280
     0
102
RTVSPost2010PropOp35
 70
     1
102
RTVSPost2010Prop36
280
     0
102
RTVSPost2010PropOp36
 70
     1
102
RTVSPost2010Prop37
 90
       50
102
RTVSPost2010PropOp37
 70
     1
102
RTVSPost2010Prop38
140
0.0
102
RTVSPost2010PropOp38
 70
     1
102
RTVSPost2010Prop39
140
1.0
102
RTVSPost2010PropOp39
 70
     1
102
RTVSPost2010Prop40
 90
        0
102
RTVSPost2010PropOp40
 70
     1
102
RTVSPost2010Prop41ColorIndex
 90
       18
102
RTVSPost2010Prop41ColorRGB
 90
        0
102
RTVSPost2010PropOp41
 70
     1
102
RTVSPost2010Prop42
 90
       50
102
RTVSPost2010PropOp42
 70
     1
102
RTVSPost2010Prop43
 90
        3
102
RTVSPost2010PropOp43
 70
     1
102
RTVSPost2010Prop44ColorIndex
 90
        5
102
RTVSPost2010Prop44ColorRGB
 90
      255
102
RTVSPost2010PropOp44
 70
     1
102
RTVSPost2010Prop45
280
     0
102
RTVSPost2010PropOp45
 70
     1
102
RTVSPost2010Prop46
 90
       50
102
RTVSPost2010PropOp46
 70
     1
102
RTVSPost2010Prop47
 90
       50
102
RTVSPost2010PropOp47
 70
     1
102
RTVSPost2010Prop48
 90
       50
102
RTVSPost2010PropOp48
 70
     1
102
RTVSPost2010Prop49
280
     0
102
RTVSPost2010PropOp49
 70
     1
102
RTVSPost2010Prop50
 90
       50
102
RTVSPost2010PropOp50
 70
     1
102
RTVSPost2010Prop51ColorIndex
 90
      256
102
RTVSPost2010Prop51ColorRGB
 90
-16777216
102
RTVSPost2010PropOp51
 70
     0
102
RTVSPost2010Prop52
140
1.0
102
RTVSPost2010PropOp52
 70
     0
102
RTVSPost2010Prop53
 90
        2
102
RTVSPost2010PropOp53
 70
     1
102
RTVSPost2010Prop54
  1
strokes_ogs.tif
102
RTVSPost2010PropOp54
 70
     1
102
RTVSPost2010Prop55
280
     0
102
RTVSPost2010PropOp55
 70
     1
102
RTVSPost2010Prop56
140
1.0
102
RTVSPost2010PropOp56
 70
     1
102
RTVSPost2010Prop57
140
1.0
102
RTVSPost2010PropOp57
 70
     1
  0
XRECORD
  5
1DD
102
{ACAD_REACTORS
330
1DC
102
}
330
1DC
100
AcDbXrecord
280
     1
102
RTVSPropertyOp0
 70
     1
102
RTVSPropertyOp1
 70
     1
102
RTVSPropertyOp2
 70
     1
102
RTVSPropertyOp3
 70
     1
102
RTVSPropertyOp4
 70
     1
102
RTVSPropertyOp5
 70
     1
102
RTVSPropertyOp6
 70
     1
102
RTVSPropertyOp7
 70
     1
102
RTVSPropertyOp8
 70
     1
102
RTVSPropertyOp9
 70
     1
102
RTVSPropertyOp10
 70
     1
102
RTVSPropertyOp11
 70
     1
102
RTVSPropertyOp12
 70
     1
102
RTVSPropertyOp13
 70
     1
102
RTVSPropertyOp14
 70
     1
102
RTVSPropertyOp15
 70
     1
102
RTVSPropertyOp16
 70
     1
102
RTVSPropertyOp17
 70
     1
102
RTVSPropertyOp18
 70
     1
102
RTVSPropertyOp19
 70
     1
102
RTVSPropertyOp20
 70
     1
102
RTVSPropertyOp21
 70
     1
102
RTVSPropertyOp22
 70
     1
102
RTVSPropertyOp23
 70
     1
102
RTVSPropertyOp24
 70
     1
102
RTVSPropertyOp25
 70
     1
102
RTVSPropertyOp26
 70
     1
102
RTVSPropertyOp27
 70
     1
102
RTVSPropertyOp28
 70
     1
102
RTVSPropertyOp29
 70
     1
102
RTVSPropertyOp30
 70
     1
102
RTVSPropertyOp31
 70
     1
102
RTVSPropertyOp32
 70
     1
102
RTVSPropertyOp33
 70
     1
102
RTVSPropertyOp34
 70
     1
102
RTVSPropertyOp35
 70
     1
102
RTVSPropertyOp36
 70
     1
102
RTVSPropertyOp37
 70
     1
102
RTVSPropertyOp38
 70
     1
102
RTVSPropertyOp39
 70
     1
102
RTVSPropertyOp40
 70
     1
102
RTVSPropertyOp41
 70
     1
102
RTVSPropertyOp42
 70
     1
102
RTVSPropertyOp43
 70
     1
102
RTVSPropertyOp44
 70
     1
102
RTVSPropertyOp45
 70
     1
102
RTVSPropertyOp46
 70
     1
102
RTVSPropertyOp47
 70
     1
102
RTVSPropertyOp48
 70
     1
102
RTVSPropertyOp49
 70
     1
102
RTVSPropertyOp50
 70
     1
102
RTVSPropertyOp51
 70
     0
102
RTVSPropertyOp52
 70
     0
102
RTVSPropertyOp53
 70
     1
102
RTVSPropertyOp54
 70
     1
102
RTVSPropertyOp55
 70
     1
102
RTVSPropertyOp56
 70
     1
102
RTVSPropertyOp57
 70
     1
102
RTVSPost2010Prop28
280
     0
102
RTVSPost2010PropOp28
 70
     1
102
RTVSPost2010Prop29
280
     1
102
RTVSPost2010PropOp29
 70
     1
102
RTVSPost2010Prop30
280
     1
102
RTVSPost2010PropOp30
 70
     1
102
RTVSPost2010Prop31
280
     0
102
RTVSPost2010PropOp31
 70
     1
102
RTVSPost2010Prop32
280
     0
102
RTVSPost2010PropOp32
 70
     1
102
RTVSPost2010Prop33
280
     0
102
RTVSPost2010PropOp33
 70
     1
102
RTVSPost2010Prop34
280
     0
102
RTVSPost2010PropOp34
 70
     1
102
RTVSPost2010Prop35
280
     0
102
RTVSPost2010PropOp35
 70
     1
102
RTVSPost2010Prop36
280
     0
102
RTVSPost2010PropOp36
 70
     1
102
RTVSPost2010Prop37
 90
       50
102
RTVSPost2010PropOp37
 70
     1
102
RTVSPost2010Prop38
140
0.0
102
RTVSPost2010PropOp38
 70
     1
102
RTVSPost2010Prop39
140
1.0
102
RTVSPost2010PropOp39
 70
     1
102
RTVSPost2010Prop40
 90
        0
102
RTVSPost2010PropOp40
 70
     1
102
RTVSPost2010Prop41ColorIndex
 90
       18
102
RTVSPost2010Prop41ColorRGB
 90
        0
102
RTVSPost2010PropOp41
 70
     1
102
RTVSPost2010Prop42
 90
       50
102
RTVSPost2010PropOp42
 70
     1
102
RTVSPost2010Prop43
 90
        3
102
RTVSPost2010PropOp43
 70
     1
102
RTVSPost2010Prop44ColorIndex
 90
        5
102
RTVSPost2010Prop44ColorRGB
 90
      255
102
RTVSPost2010PropOp44
 70
     1
102
RTVSPost2010Prop45
280
     0
102
RTVSPost2010PropOp45
 70
     1
102
RTVSPost2010Prop46
 90
       50
102
RTVSPost2010PropOp46
 70
     1
102
RTVSPost2010Prop47
 90
       50
102
RTVSPost2010PropOp47
 70
     1
102
RTVSPost2010Prop48
 90
       50
102
RTVSPost2010PropOp48
 70
     1
102
RTVSPost2010Prop49
280
     0
102
RTVSPost2010PropOp49
 70
     1
102
RTVSPost2010Prop50
 90
       50
102
RTVSPost2010PropOp50
 70
     1
102
RTVSPost2010Prop51ColorIndex
 90
      256
102
RTVSPost2010Prop51ColorRGB
 90
-16777216
102
RTVSPost2010PropOp51
 70
     0
102
RTVSPost2010Prop52
140
1.0
102
RTVSPost2010PropOp52
 70
     0
102
RTVSPost2010Prop53
 90
        2
102
RTVSPost2010PropOp53
 70
     1
102
RTVSPost2010Prop54
  1
strokes_ogs.tif
102
RTVSPost2010PropOp54
 70
     1
102
RTVSPost2010Prop55
280
     0
102
RTVSPost2010PropOp55
 70
     1
102
RTVSPost2010Prop56
140
1.0
102
RTVSPost2010PropOp56
 70
     1
102
RTVSPost2010Prop57
140
1.0
102
RTVSPost2010PropOp57
 70
     1
  0
XRECORD
  5
1D7
102
{ACAD_REACTORS
330
1D6
102
}
330
1D6
100
AcDbXrecord
280
     1
102
RTVSPropertyOp0
 70
     1
102
RTVSPropertyOp1
 70
     1
102
RTVSPropertyOp2
 70
     1
102
RTVSPropertyOp3
 70
     1
102
RTVSPropertyOp4
 70
     1
102
RTVSPropertyOp5
 70
     1
102
RTVSPropertyOp6
 70
     1
102
RTVSPropertyOp7
 70
     1
102
RTVSPropertyOp8
 70
     1
102
RTVSPropertyOp9
 70
     1
102
RTVSPropertyOp10
 70
     1
102
RTVSPropertyOp11
 70
     1
102
RTVSPropertyOp12
 70
     1
102
RTVSPropertyOp13
 70
     1
102
RTVSPropertyOp14
 70
     1
102
RTVSPropertyOp15
 70
     1
102
RTVSPropertyOp16
 70
     1
102
RTVSPropertyOp17
 70
     1
102
RTVSPropertyOp18
 70
     1
102
RTVSPropertyOp19
 70
     1
102
RTVSPropertyOp20
 70
     1
102
RTVSPropertyOp21
 70
     1
102
RTVSPropertyOp22
 70
     1
102
RTVSPropertyOp23
 70
     1
102
RTVSPropertyOp24
 70
     1
102
RTVSPropertyOp25
 70
     1
102
RTVSPropertyOp26
 70
     1
102
RTVSPropertyOp27
 70
     1
102
RTVSPropertyOp28
 70
     1
102
RTVSPropertyOp29
 70
     1
102
RTVSPropertyOp30
 70
     1
102
RTVSPropertyOp31
 70
     1
102
RTVSPropertyOp32
 70
     1
102
RTVSPropertyOp33
 70
     1
102
RTVSPropertyOp34
 70
     1
102
RTVSPropertyOp35
 70
     1
102
RTVSPropertyOp36
 70
     1
102
RTVSPropertyOp37
 70
     1
102
RTVSPropertyOp38
 70
     1
102
RTVSPropertyOp39
 70
     1
102
RTVSPropertyOp40
 70
     1
102
RTVSPropertyOp41
 70
     1
102
RTVSPropertyOp42
 70
     1
102
RTVSPropertyOp43
 70
     1
102
RTVSPropertyOp44
 70
     1
102
RTVSPropertyOp45
 70
     1
102
RTVSPropertyOp46
 70
     1
102
RTVSPropertyOp47
 70
     1
102
RTVSPropertyOp48
 70
     1
102
RTVSPropertyOp49
 70
     1
102
RTVSPropertyOp50
 70
     1
102
RTVSPropertyOp51
 70
     0
102
RTVSPropertyOp52
 70
     0
102
RTVSPropertyOp53
 70
     1
102
RTVSPropertyOp54
 70
     1
102
RTVSPropertyOp55
 70
     1
102
RTVSPropertyOp56
 70
     1
102
RTVSPropertyOp57
 70
     1
102
RTVSPost2010Prop28
280
     0
102
RTVSPost2010PropOp28
 70
     1
102
RTVSPost2010Prop29
280
     1
102
RTVSPost2010PropOp29
 70
     1
102
RTVSPost2010Prop30
280
     1
102
RTVSPost2010PropOp30
 70
     1
102
RTVSPost2010Prop31
280
     0
102
RTVSPost2010PropOp31
 70
     1
102
RTVSPost2010Prop32
280
     0
102
RTVSPost2010PropOp32
 70
     1
102
RTVSPost2010Prop33
280
     0
102
RTVSPost2010PropOp33
 70
     1
102
RTVSPost2010Prop34
280
     0
102
RTVSPost2010PropOp34
 70
     1
102
RTVSPost2010Prop35
280
     0
102
RTVSPost2010PropOp35
 70
     1
102
RTVSPost2010Prop36
280
     0
102
RTVSPost2010PropOp36
 70
     1
102
RTVSPost2010Prop37
 90
       50
102
RTVSPost2010PropOp37
 70
     1
102
RTVSPost2010Prop38
140
0.0
102
RTVSPost2010PropOp38
 70
     1
102
RTVSPost2010Prop39
140
1.0
102
RTVSPost2010PropOp39
 70
     1
102
RTVSPost2010Prop40
 90
        0
102
RTVSPost2010PropOp40
 70
     1
102
RTVSPost2010Prop41ColorIndex
 90
       18
102
RTVSPost2010Prop41ColorRGB
 90
        0
102
RTVSPost2010PropOp41
 70
     1
102
RTVSPost2010Prop42
 90
       50
102
RTVSPost2010PropOp42
 70
     1
102
RTVSPost2010Prop43
 90
        3
102
RTVSPost2010PropOp43
 70
     1
102
RTVSPost2010Prop44ColorIndex
 90
        5
102
RTVSPost2010Prop44ColorRGB
 90
      255
102
RTVSPost2010PropOp44
 70
     1
102
RTVSPost2010Prop45
280
     0
102
RTVSPost2010PropOp45
 70
     1
102
RTVSPost2010Prop46
 90
       50
102
RTVSPost2010PropOp46
 70
     1
102
RTVSPost2010Prop47
 90
       50
102
RTVSPost2010PropOp47
 70
     1
102
RTVSPost2010Prop48
 90
       50
102
RTVSPost2010PropOp48
 70
     1
102
RTVSPost2010Prop49
280
     0
102
RTVSPost2010PropOp49
 70
     1
102
RTVSPost2010Prop50
 90
       50
102
RTVSPost2010PropOp50
 70
     1
102
RTVSPost2010Prop51ColorIndex
 90
      256
102
RTVSPost2010Prop51ColorRGB
 90
-16777216
102
RTVSPost2010PropOp51
 70
     0
102
RTVSPost2010Prop52
140
1.0
102
RTVSPost2010PropOp52
 70
     0
102
RTVSPost2010Prop53
 90
        2
102
RTVSPost2010PropOp53
 70
     1
102
RTVSPost2010Prop54
  1
strokes_ogs.tif
102
RTVSPost2010PropOp54
 70
     1
102
RTVSPost2010Prop55
280
     0
102
RTVSPost2010PropOp55
 70
     1
102
RTVSPost2010Prop56
140
1.0
102
RTVSPost2010PropOp56
 70
     1
102
RTVSPost2010Prop57
140
1.0
102
RTVSPost2010PropOp57
 70
     1
  0
XRECORD
  5
1D9
102
{ACAD_REACTORS
330
1D8
102
}
330
1D8
100
AcDbXrecord
280
     1
102
RTVSPropertyOp0
 70
     1
102
RTVSPropertyOp1
 70
     1
102
RTVSPropertyOp2
 70
     1
102
RTVSPropertyOp3
 70
     1
102
RTVSPropertyOp4
 70
     1
102
RTVSPropertyOp5
 70
     1
102
RTVSPropertyOp6
 70
     1
102
RTVSPropertyOp7
 70
     1
102
RTVSPropertyOp8
 70
     1
102
RTVSPropertyOp9
 70
     1
102
RTVSPropertyOp10
 70
     1
102
RTVSPropertyOp11
 70
     1
102
RTVSPropertyOp12
 70
     1
102
RTVSPropertyOp13
 70
     1
102
RTVSPropertyOp14
 70
     1
102
RTVSPropertyOp15
 70
     1
102
RTVSPropertyOp16
 70
     1
102
RTVSPropertyOp17
 70
     1
102
RTVSPropertyOp18
 70
     1
102
RTVSPropertyOp19
 70
     1
102
RTVSPropertyOp20
 70
     1
102
RTVSPropertyOp21
 70
     1
102
RTVSPropertyOp22
 70
     1
102
RTVSPropertyOp23
 70
     1
102
RTVSPropertyOp24
 70
     1
102
RTVSPropertyOp25
 70
     1
102
RTVSPropertyOp26
 70
     1
102
RTVSPropertyOp27
 70
     1
102
RTVSPropertyOp28
 70
     1
102
RTVSPropertyOp29
 70
     1
102
RTVSPropertyOp30
 70
     1
102
RTVSPropertyOp31
 70
     1
102
RTVSPropertyOp32
 70
     1
102
RTVSPropertyOp33
 70
     1
102
RTVSPropertyOp34
 70
     1
102
RTVSPropertyOp35
 70
     1
102
RTVSPropertyOp36
 70
     1
102
RTVSPropertyOp37
 70
     1
102
RTVSPropertyOp38
 70
     1
102
RTVSPropertyOp39
 70
     1
102
RTVSPropertyOp40
 70
     1
102
RTVSPropertyOp41
 70
     1
102
RTVSPropertyOp42
 70
     1
102
RTVSPropertyOp43
 70
     1
102
RTVSPropertyOp44
 70
     1
102
RTVSPropertyOp45
 70
     1
102
RTVSPropertyOp46
 70
     1
102
RTVSPropertyOp47
 70
     1
102
RTVSPropertyOp48
 70
     1
102
RTVSPropertyOp49
 70
     1
102
RTVSPropertyOp50
 70
     1
102
RTVSPropertyOp51
 70
     0
102
RTVSPropertyOp52
 70
     0
102
RTVSPropertyOp53
 70
     1
102
RTVSPropertyOp54
 70
     1
102
RTVSPropertyOp55
 70
     1
102
RTVSPropertyOp56
 70
     1
102
RTVSPropertyOp57
 70
     1
102
RTVSPost2010Prop28
280
     0
102
RTVSPost2010PropOp28
 70
     1
102
RTVSPost2010Prop29
280
     1
102
RTVSPost2010PropOp29
 70
     1
102
RTVSPost2010Prop30
280
     1
102
RTVSPost2010PropOp30
 70
     1
102
RTVSPost2010Prop31
280
     0
102
RTVSPost2010PropOp31
 70
     1
102
RTVSPost2010Prop32
280
     0
102
RTVSPost2010PropOp32
 70
     1
102
RTVSPost2010Prop33
280
     0
102
RTVSPost2010PropOp33
 70
     1
102
RTVSPost2010Prop34
280
     0
102
RTVSPost2010PropOp34
 70
     1
102
RTVSPost2010Prop35
280
     0
102
RTVSPost2010PropOp35
 70
     1
102
RTVSPost2010Prop36
280
     0
102
RTVSPost2010PropOp36
 70
     1
102
RTVSPost2010Prop37
 90
       50
102
RTVSPost2010PropOp37
 70
     1
102
RTVSPost2010Prop38
140
0.0
102
RTVSPost2010PropOp38
 70
     1
102
RTVSPost2010Prop39
140
1.0
102
RTVSPost2010PropOp39
 70
     1
102
RTVSPost2010Prop40
 90
        0
102
RTVSPost2010PropOp40
 70
     1
102
RTVSPost2010Prop41ColorIndex
 90
       18
102
RTVSPost2010Prop41ColorRGB
 90
        0
102
RTVSPost2010PropOp41
 70
     1
102
RTVSPost2010Prop42
 90
       50
102
RTVSPost2010PropOp42
 70
     1
102
RTVSPost2010Prop43
 90
        3
102
RTVSPost2010PropOp43
 70
     1
102
RTVSPost2010Prop44ColorIndex
 90
        5
102
RTVSPost2010Prop44ColorRGB
 90
      255
102
RTVSPost2010PropOp44
 70
     1
102
RTVSPost2010Prop45
280
     0
102
RTVSPost2010PropOp45
 70
     1
102
RTVSPost2010Prop46
 90
       50
102
RTVSPost2010PropOp46
 70
     1
102
RTVSPost2010Prop47
 90
       50
102
RTVSPost2010PropOp47
 70
     1
102
RTVSPost2010Prop48
 90
       50
102
RTVSPost2010PropOp48
 70
     1
102
RTVSPost2010Prop49
280
     0
102
RTVSPost2010PropOp49
 70
     1
102
RTVSPost2010Prop50
 90
       50
102
RTVSPost2010PropOp50
 70
     1
102
RTVSPost2010Prop51ColorIndex
 90
      256
102
RTVSPost2010Prop51ColorRGB
 90
-16777216
102
RTVSPost2010PropOp51
 70
     0
102
RTVSPost2010Prop52
140
1.0
102
RTVSPost2010PropOp52
 70
     0
102
RTVSPost2010Prop53
 90
        2
102
RTVSPost2010PropOp53
 70
     1
102
RTVSPost2010Prop54
  1
strokes_ogs.tif
102
RTVSPost2010PropOp54
 70
     1
102
RTVSPost2010Prop55
280
     0
102
RTVSPost2010PropOp55
 70
     1
102
RTVSPost2010Prop56
140
1.0
102
RTVSPost2010PropOp56
 70
     1
102
RTVSPost2010Prop57
140
1.0
102
RTVSPost2010PropOp57
 70
     1
  0
XRECORD
  5
1C9
102
{ACAD_REACTORS
330
1C8
102
}
330
1C8
100
AcDbXrecord
280
     1
102
RTVSPropertyOp0
 70
     1
102
RTVSPropertyOp1
 70
     1
102
RTVSPropertyOp2
 70
     1
102
RTVSPropertyOp3
 70
     1
102
RTVSPropertyOp4
 70
     1
102
RTVSPropertyOp5
 70
     1
102
RTVSPropertyOp6
 70
     1
102
RTVSPropertyOp7
 70
     1
102
RTVSPropertyOp8
 70
     1
102
RTVSPropertyOp9
 70
     1
102
RTVSPropertyOp10
 70
     1
102
RTVSPropertyOp11
 70
     1
102
RTVSPropertyOp12
 70
     1
102
RTVSPropertyOp13
 70
     1
102
RTVSPropertyOp14
 70
     1
102
RTVSPropertyOp15
 70
     1
102
RTVSPropertyOp16
 70
     1
102
RTVSPropertyOp17
 70
     1
102
RTVSPropertyOp18
 70
     1
102
RTVSPropertyOp19
 70
     1
102
RTVSPropertyOp20
 70
     1
102
RTVSPropertyOp21
 70
     1
102
RTVSPropertyOp22
 70
     1
102
RTVSPropertyOp23
 70
     1
102
RTVSPropertyOp24
 70
     1
102
RTVSPropertyOp25
 70
     1
102
RTVSPropertyOp26
 70
     1
102
RTVSPropertyOp27
 70
     1
102
RTVSPropertyOp28
 70
     1
102
RTVSPropertyOp29
 70
     1
102
RTVSPropertyOp30
 70
     1
102
RTVSPropertyOp31
 70
     1
102
RTVSPropertyOp32
 70
     1
102
RTVSPropertyOp33
 70
     1
102
RTVSPropertyOp34
 70
     1
102
RTVSPropertyOp35
 70
     1
102
RTVSPropertyOp36
 70
     1
102
RTVSPropertyOp37
 70
     1
102
RTVSPropertyOp38
 70
     1
102
RTVSPropertyOp39
 70
     1
102
RTVSPropertyOp40
 70
     1
102
RTVSPropertyOp41
 70
     1
102
RTVSPropertyOp42
 70
     1
102
RTVSPropertyOp43
 70
     1
102
RTVSPropertyOp44
 70
     1
102
RTVSPropertyOp45
 70
     1
102
RTVSPropertyOp46
 70
     1
102
RTVSPropertyOp47
 70
     1
102
RTVSPropertyOp48
 70
     1
102
RTVSPropertyOp49
 70
     1
102
RTVSPropertyOp50
 70
     1
102
RTVSPropertyOp51
 70
     0
102
RTVSPropertyOp52
 70
     0
102
RTVSPropertyOp53
 70
     1
102
RTVSPropertyOp54
 70
     1
102
RTVSPropertyOp55
 70
     1
102
RTVSPropertyOp56
 70
     1
102
RTVSPropertyOp57
 70
     1
102
RTVSPost2010Prop28
280
     0
102
RTVSPost2010PropOp28
 70
     1
102
RTVSPost2010Prop29
280
     1
102
RTVSPost2010PropOp29
 70
     1
102
RTVSPost2010Prop30
280
     1
102
RTVSPost2010PropOp30
 70
     1
102
RTVSPost2010Prop31
280
     0
102
RTVSPost2010PropOp31
 70
     1
102
RTVSPost2010Prop32
280
     0
102
RTVSPost2010PropOp32
 70
     1
102
RTVSPost2010Prop33
280
     0
102
RTVSPost2010PropOp33
 70
     1
102
RTVSPost2010Prop34
280
     0
102
RTVSPost2010PropOp34
 70
     1
102
RTVSPost2010Prop35
280
     0
102
RTVSPost2010PropOp35
 70
     1
102
RTVSPost2010Prop36
280
     0
102
RTVSPost2010PropOp36
 70
     1
102
RTVSPost2010Prop37
 90
       50
102
RTVSPost2010PropOp37
 70
     1
102
RTVSPost2010Prop38
140
0.0
102
RTVSPost2010PropOp38
 70
     1
102
RTVSPost2010Prop39
140
1.0
102
RTVSPost2010PropOp39
 70
     1
102
RTVSPost2010Prop40
 90
        0
102
RTVSPost2010PropOp40
 70
     1
102
RTVSPost2010Prop41ColorIndex
 90
       18
102
RTVSPost2010Prop41ColorRGB
 90
        0
102
RTVSPost2010PropOp41
 70
     1
102
RTVSPost2010Prop42
 90
       50
102
RTVSPost2010PropOp42
 70
     1
102
RTVSPost2010Prop43
 90
        3
102
RTVSPost2010PropOp43
 70
     1
102
RTVSPost2010Prop44ColorIndex
 90
        5
102
RTVSPost2010Prop44ColorRGB
 90
      255
102
RTVSPost2010PropOp44
 70
     1
102
RTVSPost2010Prop45
280
     0
102
RTVSPost2010PropOp45
 70
     1
102
RTVSPost2010Prop46
 90
       50
102
RTVSPost2010PropOp46
 70
     1
102
RTVSPost2010Prop47
 90
       50
102
RTVSPost2010PropOp47
 70
     1
102
RTVSPost2010Prop48
 90
       50
102
RTVSPost2010PropOp48
 70
     1
102
RTVSPost2010Prop49
280
     0
102
RTVSPost2010PropOp49
 70
     1
102
RTVSPost2010Prop50
 90
       50
102
RTVSPost2010PropOp50
 70
     1
102
RTVSPost2010Prop51ColorIndex
 90
      256
102
RTVSPost2010Prop51ColorRGB
 90
-16777216
102
RTVSPost2010PropOp51
 70
     0
102
RTVSPost2010Prop52
140
1.0
102
RTVSPost2010PropOp52
 70
     0
102
RTVSPost2010Prop53
 90
        2
102
RTVSPost2010PropOp53
 70
     1
102
RTVSPost2010Prop54
  1
strokes_ogs.tif
102
RTVSPost2010PropOp54
 70
     1
102
RTVSPost2010Prop55
280
     0
102
RTVSPost2010PropOp55
 70
     1
102
RTVSPost2010Prop56
140
1.0
102
RTVSPost2010PropOp56
 70
     1
102
RTVSPost2010Prop57
140
1.0
102
RTVSPost2010PropOp57
 70
     1
  0
XRECORD
  5
1BB
102
{ACAD_REACTORS
330
1BA
102
}
330
1BA
100
AcDbXrecord
280
     1
102
RTVSPropertyOp0
 70
     1
102
RTVSPropertyOp1
 70
     1
102
RTVSPropertyOp2
 70
     1
102
RTVSPropertyOp3
 70
     1
102
RTVSPropertyOp4
 70
     1
102
RTVSPropertyOp5
 70
     1
102
RTVSPropertyOp6
 70
     1
102
RTVSPropertyOp7
 70
     1
102
RTVSPropertyOp8
 70
     1
102
RTVSPropertyOp9
 70
     1
102
RTVSPropertyOp10
 70
     1
102
RTVSPropertyOp11
 70
     1
102
RTVSPropertyOp12
 70
     1
102
RTVSPropertyOp13
 70
     1
102
RTVSPropertyOp14
 70
     1
102
RTVSPropertyOp15
 70
     1
102
RTVSPropertyOp16
 70
     1
102
RTVSPropertyOp17
 70
     1
102
RTVSPropertyOp18
 70
     1
102
RTVSPropertyOp19
 70
     1
102
RTVSPropertyOp20
 70
     1
102
RTVSPropertyOp21
 70
     1
102
RTVSPropertyOp22
 70
     1
102
RTVSPropertyOp23
 70
     1
102
RTVSPropertyOp24
 70
     1
102
RTVSPropertyOp25
 70
     1
102
RTVSPropertyOp26
 70
     1
102
RTVSPropertyOp27
 70
     1
102
RTVSPropertyOp28
 70
     1
102
RTVSPropertyOp29
 70
     1
102
RTVSPropertyOp30
 70
     1
102
RTVSPropertyOp31
 70
     1
102
RTVSPropertyOp32
 70
     1
102
RTVSPropertyOp33
 70
     1
102
RTVSPropertyOp34
 70
     1
102
RTVSPropertyOp35
 70
     1
102
RTVSPropertyOp36
 70
     1
102
RTVSPropertyOp37
 70
     1
102
RTVSPropertyOp38
 70
     1
102
RTVSPropertyOp39
 70
     1
102
RTVSPropertyOp40
 70
     1
102
RTVSPropertyOp41
 70
     1
102
RTVSPropertyOp42
 70
     1
102
RTVSPropertyOp43
 70
     1
102
RTVSPropertyOp44
 70
     1
102
RTVSPropertyOp45
 70
     1
102
RTVSPropertyOp46
 70
     1
102
RTVSPropertyOp47
 70
     1
102
RTVSPropertyOp48
 70
     1
102
RTVSPropertyOp49
 70
     1
102
RTVSPropertyOp50
 70
     1
102
RTVSPropertyOp51
 70
     0
102
RTVSPropertyOp52
 70
     0
102
RTVSPropertyOp53
 70
     1
102
RTVSPropertyOp54
 70
     1
102
RTVSPropertyOp55
 70
     1
102
RTVSPropertyOp56
 70
     1
102
RTVSPropertyOp57
 70
     1
102
RTVSPost2010Prop28
280
     0
102
RTVSPost2010PropOp28
 70
     1
102
RTVSPost2010Prop29
280
     1
102
RTVSPost2010PropOp29
 70
     1
102
RTVSPost2010Prop30
280
     1
102
RTVSPost2010PropOp30
 70
     1
102
RTVSPost2010Prop31
280
     0
102
RTVSPost2010PropOp31
 70
     1
102
RTVSPost2010Prop32
280
     0
102
RTVSPost2010PropOp32
 70
     1
102
RTVSPost2010Prop33
280
     0
102
RTVSPost2010PropOp33
 70
     1
102
RTVSPost2010Prop34
280
     0
102
RTVSPost2010PropOp34
 70
     1
102
RTVSPost2010Prop35
280
     0
102
RTVSPost2010PropOp35
 70
     1
102
RTVSPost2010Prop36
280
     0
102
RTVSPost2010PropOp36
 70
     1
102
RTVSPost2010Prop37
 90
       50
102
RTVSPost2010PropOp37
 70
     1
102
RTVSPost2010Prop38
140
0.0
102
RTVSPost2010PropOp38
 70
     1
102
RTVSPost2010Prop39
140
1.0
102
RTVSPost2010PropOp39
 70
     1
102
RTVSPost2010Prop40
 90
        0
102
RTVSPost2010PropOp40
 70
     1
102
RTVSPost2010Prop41ColorIndex
 90
       18
102
RTVSPost2010Prop41ColorRGB
 90
        0
102
RTVSPost2010PropOp41
 70
     1
102
RTVSPost2010Prop42
 90
       50
102
RTVSPost2010PropOp42
 70
     1
102
RTVSPost2010Prop43
 90
        3
102
RTVSPost2010PropOp43
 70
     1
102
RTVSPost2010Prop44ColorIndex
 90
        5
102
RTVSPost2010Prop44ColorRGB
 90
      255
102
RTVSPost2010PropOp44
 70
     1
102
RTVSPost2010Prop45
280
     0
102
RTVSPost2010PropOp45
 70
     1
102
RTVSPost2010Prop46
 90
       50
102
RTVSPost2010PropOp46
 70
     1
102
RTVSPost2010Prop47
 90
       50
102
RTVSPost2010PropOp47
 70
     1
102
RTVSPost2010Prop48
 90
       50
102
RTVSPost2010PropOp48
 70
     1
102
RTVSPost2010Prop49
280
     0
102
RTVSPost2010PropOp49
 70
     1
102
RTVSPost2010Prop50
 90
       50
102
RTVSPost2010PropOp50
 70
     1
102
RTVSPost2010Prop51ColorIndex
 90
      256
102
RTVSPost2010Prop51ColorRGB
 90
-16777216
102
RTVSPost2010PropOp51
 70
     0
102
RTVSPost2010Prop52
140
1.0
102
RTVSPost2010PropOp52
 70
     0
102
RTVSPost2010Prop53
 90
        2
102
RTVSPost2010PropOp53
 70
     1
102
RTVSPost2010Prop54
  1
strokes_ogs.tif
102
RTVSPost2010PropOp54
 70
     1
102
RTVSPost2010Prop55
280
     0
102
RTVSPost2010PropOp55
 70
     1
102
RTVSPost2010Prop56
140
1.0
102
RTVSPost2010PropOp56
 70
     1
102
RTVSPost2010Prop57
140
1.0
102
RTVSPost2010PropOp57
 70
     1
  0
XRECORD
  5
1DB
102
{ACAD_REACTORS
330
1DA
102
}
330
1DA
100
AcDbXrecord
280
     1
102
RTVSPropertyOp0
 70
     1
102
RTVSPropertyOp1
 70
     1
102
RTVSPropertyOp2
 70
     1
102
RTVSPropertyOp3
 70
     1
102
RTVSPropertyOp4
 70
     1
102
RTVSPropertyOp5
 70
     1
102
RTVSPropertyOp6
 70
     1
102
RTVSPropertyOp7
 70
     1
102
RTVSPropertyOp8
 70
     1
102
RTVSPropertyOp9
 70
     1
102
RTVSPropertyOp10
 70
     1
102
RTVSPropertyOp11
 70
     1
102
RTVSPropertyOp12
 70
     1
102
RTVSPropertyOp13
 70
     1
102
RTVSPropertyOp14
 70
     1
102
RTVSPropertyOp15
 70
     1
102
RTVSPropertyOp16
 70
     1
102
RTVSPropertyOp17
 70
     1
102
RTVSPropertyOp18
 70
     1
102
RTVSPropertyOp19
 70
     1
102
RTVSPropertyOp20
 70
     1
102
RTVSPropertyOp21
 70
     1
102
RTVSPropertyOp22
 70
     1
102
RTVSPropertyOp23
 70
     1
102
RTVSPropertyOp24
 70
     1
102
RTVSPropertyOp25
 70
     1
102
RTVSPropertyOp26
 70
     1
102
RTVSPropertyOp27
 70
     1
102
RTVSPropertyOp28
 70
     1
102
RTVSPropertyOp29
 70
     1
102
RTVSPropertyOp30
 70
     1
102
RTVSPropertyOp31
 70
     1
102
RTVSPropertyOp32
 70
     1
102
RTVSPropertyOp33
 70
     1
102
RTVSPropertyOp34
 70
     1
102
RTVSPropertyOp35
 70
     1
102
RTVSPropertyOp36
 70
     1
102
RTVSPropertyOp37
 70
     1
102
RTVSPropertyOp38
 70
     1
102
RTVSPropertyOp39
 70
     1
102
RTVSPropertyOp40
 70
     1
102
RTVSPropertyOp41
 70
     1
102
RTVSPropertyOp42
 70
     1
102
RTVSPropertyOp43
 70
     1
102
RTVSPropertyOp44
 70
     1
102
RTVSPropertyOp45
 70
     1
102
RTVSPropertyOp46
 70
     1
102
RTVSPropertyOp47
 70
     1
102
RTVSPropertyOp48
 70
     1
102
RTVSPropertyOp49
 70
     1
102
RTVSPropertyOp50
 70
     1
102
RTVSPropertyOp51
 70
     0
102
RTVSPropertyOp52
 70
     0
102
RTVSPropertyOp53
 70
     1
102
RTVSPropertyOp54
 70
     1
102
RTVSPropertyOp55
 70
     1
102
RTVSPropertyOp56
 70
     1
102
RTVSPropertyOp57
 70
     1
102
RTVSPost2010Prop28
280
     0
102
RTVSPost2010PropOp28
 70
     1
102
RTVSPost2010Prop29
280
     1
102
RTVSPost2010PropOp29
 70
     1
102
RTVSPost2010Prop30
280
     1
102
RTVSPost2010PropOp30
 70
     1
102
RTVSPost2010Prop31
280
     0
102
RTVSPost2010PropOp31
 70
     1
102
RTVSPost2010Prop32
280
     0
102
RTVSPost2010PropOp32
 70
     1
102
RTVSPost2010Prop33
280
     0
102
RTVSPost2010PropOp33
 70
     1
102
RTVSPost2010Prop34
280
     0
102
RTVSPost2010PropOp34
 70
     1
102
RTVSPost2010Prop35
280
     0
102
RTVSPost2010PropOp35
 70
     1
102
RTVSPost2010Prop36
280
     0
102
RTVSPost2010PropOp36
 70
     1
102
RTVSPost2010Prop37
 90
       50
102
RTVSPost2010PropOp37
 70
     1
102
RTVSPost2010Prop38
140
0.0
102
RTVSPost2010PropOp38
 70
     1
102
RTVSPost2010Prop39
140
1.0
102
RTVSPost2010PropOp39
 70
     1
102
RTVSPost2010Prop40
 90
        0
102
RTVSPost2010PropOp40
 70
     1
102
RTVSPost2010Prop41ColorIndex
 90
       18
102
RTVSPost2010Prop41ColorRGB
 90
        0
102
RTVSPost2010PropOp41
 70
     1
102
RTVSPost2010Prop42
 90
       50
102
RTVSPost2010PropOp42
 70
     1
102
RTVSPost2010Prop43
 90
        3
102
RTVSPost2010PropOp43
 70
     1
102
RTVSPost2010Prop44ColorIndex
 90
        5
102
RTVSPost2010Prop44ColorRGB
 90
      255
102
RTVSPost2010PropOp44
 70
     1
102
RTVSPost2010Prop45
280
     0
102
RTVSPost2010PropOp45
 70
     1
102
RTVSPost2010Prop46
 90
       50
102
RTVSPost2010PropOp46
 70
     1
102
RTVSPost2010Prop47
 90
       50
102
RTVSPost2010PropOp47
 70
     1
102
RTVSPost2010Prop48
 90
       50
102
RTVSPost2010PropOp48
 70
     1
102
RTVSPost2010Prop49
280
     0
102
RTVSPost2010PropOp49
 70
     1
102
RTVSPost2010Prop50
 90
       50
102
RTVSPost2010PropOp50
 70
     1
102
RTVSPost2010Prop51ColorIndex
 90
      256
102
RTVSPost2010Prop51ColorRGB
 90
-16777216
102
RTVSPost2010PropOp51
 70
     0
102
RTVSPost2010Prop52
140
1.0
102
RTVSPost2010PropOp52
 70
     0
102
RTVSPost2010Prop53
 90
        2
102
RTVSPost2010PropOp53
 70
     1
102
RTVSPost2010Prop54
  1
strokes_ogs.tif
102
RTVSPost2010PropOp54
 70
     1
102
RTVSPost2010Prop55
280
     0
102
RTVSPost2010PropOp55
 70
     1
102
RTVSPost2010Prop56
140
1.0
102
RTVSPost2010PropOp56
 70
     1
102
RTVSPost2010Prop57
140
1.0
102
RTVSPost2010PropOp57
 70
     1
  0
ENDSEC
  0
EOF
