  0
SECTION
  2
HEADER
  9
$ACADVER
  1
AC1021
  9
$ACADMAINTVER
 70
    25
  9
$DWGCODEPAGE
  3
ANSI_1252
  9
$INSBASE
 10
0.0
 20
0.0
 30
0.0
  9
$EXTMIN
 10
1.000000000000000E+20
 20
1.000000000000000E+20
 30
1.000000000000000E+20
  9
$EXTMAX
 10
-1.000000000000000E+20
 20
-1.000000000000000E+20
 30
-1.000000000000000E+20
  9
$LIMMIN
 10
0.0
 20
0.0
  9
$LIMMAX
 10
12.0
 20
9.0
  9
$ORTHOMODE
 70
     0
  9
$REGENMODE
 70
     1
  9
$FILLMODE
 70
     1
  9
$QTEXTMODE
 70
     0
  9
$MIRRTEXT
 70
     1
  9
$LTSCALE
 40
1.0
  9
$ATTMODE
 70
     1
  9
$TEXTSIZE
 40
0.2
  9
$TRACEWID
 40
0.05
  9
$TEXTSTYLE
  7
Standard
  9
$CLAYER
  8
Layer 01
  9
$CELTYPE
  6
ByLayer
  9
$CECOLOR
 62
   256
  9
$CELTSCALE
 40
1.0
  9
$DISPSILH
 70
     0
  9
$DIMSCALE
 40
1.0
  9
$DIMASZ
 40
0.18
  9
$DIMEXO
 40
0.0625
  9
$DIMDLI
 40
0.38
  9
$DIMRND
 40
0.0
  9
$DIMDLE
 40
0.0
  9
$DIMEXE
 40
0.18
  9
$DIMTP
 40
0.0
  9
$DIMTM
 40
0.0
  9
$DIMTXT
 40
0.18
  9
$DIMCEN
 40
0.09
  9
$DIMTSZ
 40
0.0
  9
$DIMTOL
 70
     0
  9
$DIMLIM
 70
     0
  9
$DIMTIH
 70
     1
  9
$DIMTOH
 70
     1
  9
$DIMSE1
 70
     0
  9
$DIMSE2
 70
     0
  9
$DIMTAD
 70
     0
  9
$DIMZIN
 70
     0
  9
$DIMBLK
  1

  9
$DIMASO
 70
     1
  9
$DIMSHO
 70
     1
  9
$DIMPOST
  1

  9
$DIMAPOST
  1

  9
$DIMALT
 70
     0
  9
$DIMALTD
 70
     2
  9
$DIMALTF
 40
25.4
  9
$DIMLFAC
 40
1.0
  9
$DIMTOFL
 70
     0
  9
$DIMTVP
 40
0.0
  9
$DIMTIX
 70
     0
  9
$DIMSOXD
 70
     0
  9
$DIMSAH
 70
     0
  9
$DIMBLK1
  1

  9
$DIMBLK2
  1

  9
$DIMSTYLE
  2
STANDARD_ACAD
  9
$DIMCLRD
 70
     0
  9
$DIMCLRE
 70
     0
  9
$DIMCLRT
 70
     0
  9
$DIMTFAC
 40
1.0
  9
$DIMGAP
 40
0.09
  9
$DIMJUST
 70
     0
  9
$DIMSD1
 70
     0
  9
$DIMSD2
 70
     0
  9
$DIMTOLJ
 70
     1
  9
$DIMTZIN
 70
     0
  9
$DIMALTZ
 70
     0
  9
$DIMALTTZ
 70
     0
  9
$DIMUPT
 70
     0
  9
$DIMDEC
 70
     4
  9
$DIMTDEC
 70
     4
  9
$DIMALTU
 70
     2
  9
$DIMALTTD
 70
     2
  9
$DIMTXSTY
  7
Standard
  9
$DIMAUNIT
 70
     0
  9
$DIMADEC
 70
     0
  9
$DIMALTRND
 40
0.0
  9
$DIMAZIN
 70
     0
  9
$DIMDSEP
 70
    46
  9
$DIMATFIT
 70
     3
  9
$DIMFRAC
 70
     0
  9
$DIMLDRBLK
  1

  9
$DIMLUNIT
 70
     2
  9
$DIMLWD
 70
    -2
  9
$DIMLWE
 70
    -2
  9
$DIMTMOVE
 70
     2
  9
$DIMFXL
 40
1.0
  9
$DIMFXLON
 70
     0
  9
$DIMJOGANG
 40
0.7853981633974483
  9
$DIMTFILL
 70
     0
  9
$DIMTFILLCLR
 70
     0
  9
$DIMARCSYM
 70
     0
  9
$DIMLTYPE
  6

  9
$DIMLTEX1
  6

  9
$DIMLTEX2
  6

  9
$LUNITS
 70
     2
  9
$LUPREC
 70
     3
  9
$SKETCHINC
 40
0.1
  9
$FILLETRAD
 40
0.5
  9
$AUNITS
 70
     0
  9
$AUPREC
 70
     0
  9
$MENU
  1
.
  9
$ELEVATION
 40
0.0
  9
$PELEVATION
 40
0.0
  9
$THICKNESS
 40
0.0
  9
$LIMCHECK
 70
     0
  9
$CHAMFERA
 40
0.0
  9
$CHAMFERB
 40
0.0
  9
$CHAMFERC
 40
0.0
  9
$CHAMFERD
 40
0.0
  9
$SKPOLY
 70
     0
  9
$TDCREATE
 40
2459656.493693252
  9
$TDUCREATE
 40
2459656.660359919
  9
$TDUPDATE
 40
2459656.493711748
  9
$TDUUPDATE
 40
2459656.660378414
  9
$TDINDWG
 40
0.0000000116
  9
$TDUSRTIMER
 40
0.0000000116
  9
$USRTIMER
 70
     1
  9
$ANGBASE
 50
0.0
  9
$ANGDIR
 70
     0
  9
$PDMODE
 70
     0
  9
$PDSIZE
 40
0.0
  9
$PLINEWID
 40
0.0
  9
$SPLFRAME
 70
     0
  9
$SPLINETYPE
 70
     6
  9
$SPLINESEGS
 70
     8
  9
$HANDSEED
  5
205
  9
$SURFTAB1
 70
     6
  9
$SURFTAB2
 70
     6
  9
$SURFTYPE
 70
     6
  9
$SURFU
 70
     6
  9
$SURFV
 70
     6
  9
$UCSBASE
  2

  9
$UCSNAME
  2

  9
$UCSORG
 10
0.0
 20
0.0
 30
0.0
  9
$UCSXDIR
 10
1.0
 20
0.0
 30
0.0
  9
$UCSYDIR
 10
0.0
 20
1.0
 30
0.0
  9
$UCSORTHOREF
  2

  9
$UCSORTHOVIEW
 70
     0
  9
$UCSORGTOP
 10
0.0
 20
0.0
 30
0.0
  9
$UCSORGBOTTOM
 10
0.0
 20
0.0
 30
0.0
  9
$UCSORGLEFT
 10
0.0
 20
0.0
 30
0.0
  9
$UCSORGRIGHT
 10
0.0
 20
0.0
 30
0.0
  9
$UCSORGFRONT
 10
0.0
 20
0.0
 30
0.0
  9
$UCSORGBACK
 10
0.0
 20
0.0
 30
0.0
  9
$PUCSBASE
  2

  9
$PUCSNAME
  2

  9
$PUCSORG
 10
0.0
 20
0.0
 30
0.0
  9
$PUCSXDIR
 10
1.0
 20
0.0
 30
0.0
  9
$PUCSYDIR
 10
0.0
 20
1.0
 30
0.0
  9
$PUCSORTHOREF
  2

  9
$PUCSORTHOVIEW
 70
     0
  9
$PUCSORGTOP
 10
0.0
 20
0.0
 30
0.0
  9
$PUCSORGBOTTOM
 10
0.0
 20
0.0
 30
0.0
  9
$PUCSORGLEFT
 10
0.0
 20
0.0
 30
0.0
  9
$PUCSORGRIGHT
 10
0.0
 20
0.0
 30
0.0
  9
$PUCSORGFRONT
 10
0.0
 20
0.0
 30
0.0
  9
$PUCSORGBACK
 10
0.0
 20
0.0
 30
0.0
  9
$USERI1
 70
     0
  9
$USERI2
 70
     0
  9
$USERI3
 70
     0
  9
$USERI4
 70
     0
  9
$USERI5
 70
     0
  9
$USERR1
 40
0.0
  9
$USERR2
 40
0.0
  9
$USERR3
 40
0.0
  9
$USERR4
 40
0.0
  9
$USERR5
 40
0.0
  9
$WORLDVIEW
 70
     1
  9
$SHADEDGE
 70
     3
  9
$SHADEDIF
 70
    70
  9
$TILEMODE
 70
     1
  9
$MAXACTVP
 70
    64
  9
$PINSBASE
 10
0.0
 20
0.0
 30
0.0
  9
$PLIMCHECK
 70
     0
  9
$PEXTMIN
 10
1.000000000000000E+20
 20
1.000000000000000E+20
 30
1.000000000000000E+20
  9
$PEXTMAX
 10
-1.000000000000000E+20
 20
-1.000000000000000E+20
 30
-1.000000000000000E+20
  9
$PLIMMIN
 10
0.0
 20
0.0
  9
$PLIMMAX
 10
12.0
 20
9.0
  9
$UNITMODE
 70
     0
  9
$VISRETAIN
 70
     1
  9
$PLINEGEN
 70
     0
  9
$PSLTSCALE
 70
     1
  9
$TREEDEPTH
 70
  3020
  9
$CMLSTYLE
  2
Standard
  9
$CMLJUST
 70
     0
  9
$CMLSCALE
 40
1.0
  9
$PROXYGRAPHICS
 70
     1
  9
$MEASUREMENT
 70
     0
  9
$CELWEIGHT
370
    -1
  9
$ENDCAPS
280
     0
  9
$JOINSTYLE
280
     0
  9
$LWDISPLAY
290
     0
  9
$INSUNITS
 70
     1
  9
$HYPERLINKBASE
  1

  9
$STYLESHEET
  1

  9
$XEDIT
290
     1
  9
$CEPSNTYPE
380
     0
  9
$PSTYLEMODE
290
     1
  9
$FINGERPRINTGUID
  2
{98bccace-462f-42c1-8034-ff969fb09426}
  9
$VERSIONGUID
  2
{FAEB1C32-E019-11D5-929B-00C0DF256EC4}
  9
$EXTNAMES
290
     1
  9
$PSVPSCALE
 40
0.0
  9
$OLESTARTUP
290
     0
  9
$SORTENTS
280
   127
  9
$INDEXCTL
280
     0
  9
$HIDETEXT
280
     1
  9
$XCLIPFRAME
290
     0
  9
$HALOGAP
280
     0
  9
$OBSCOLOR
 70
   257
  9
$OBSLTYPE
280
     0
  9
$INTERSECTIONDISPLAY
280
     0
  9
$INTERSECTIONCOLOR
 70
   257
  9
$DIMASSOC
280
     2
  9
$PROJECTNAME
  1

  9
$CAMERADISPLAY
290
     0
  9
$LENSLENGTH
 40
50.0
  9
$CAMERAHEIGHT
 40
0.0
  9
$STEPSPERSEC
 40
2.0
  9
$STEPSIZE
 40
6.0
  9
$3DDWFPREC
 40
2.0
  9
$PSOLWIDTH
 40
0.25
  9
$PSOLHEIGHT
 40
4.0
  9
$LOFTANG1
 40
1.570796326794897
  9
$LOFTANG2
 40
1.570796326794897
  9
$LOFTMAG1
 40
0.0
  9
$LOFTMAG2
 40
0.0
  9
$LOFTPARAM
 70
     7
  9
$LOFTNORMALS
280
     1
  9
$LATITUDE
 40
37.795
  9
$LONGITUDE
 40
-122.394
  9
$NORTHDIRECTION
 40
0.0
  9
$TIMEZONE
 70
 -8000
  9
$LIGHTGLYPHDISPLAY
280
     1
  9
$TILEMODELIGHTSYNCH
280
     1
  9
$CMATERIAL
347
44
  9
$SOLIDHIST
280
     0
  9
$SHOWHIST
280
     1
  9
$DWFFRAME
280
     2
  9
$DGNFRAME
280
     2
  9
$REALWORLDSCALE
290
     1
  9
$INTERFERECOLOR
 62
   256
  9
$CSHADOW
280
     0
  9
$SHADOWPLANELOCATION
 40
0.0
  0
ENDSEC
  0
SECTION
  2
CLASSES
  0
CLASS
  1
ACDBDICTIONARYWDFLT
  2
AcDbDictionaryWithDefault
  3
ObjectDBX Classes
 90
        0
 91
        3
280
     0
281
     0
  0
CLASS
  1
VISUALSTYLE
  2
AcDbVisualStyle
  3
ObjectDBX Classes
 90
     4095
 91
        3
280
     0
281
     0
  0
CLASS
  1
MATERIAL
  2
AcDbMaterial
  3
ObjectDBX Classes
 90
     1153
 91
        3
280
     0
281
     0
  0
CLASS
  1
SCALE
  2
AcDbScale
  3
ObjectDBX Classes
 90
     1153
 91
        3
280
     0
281
     0
  0
CLASS
  1
TABLESTYLE
  2
AcDbTableStyle
  3
ObjectDBX Classes
 90
     4095
 91
        3
280
     0
281
     0
  0
CLASS
  1
MLEADERSTYLE
  2
AcDbMLeaderStyle
  3
ACDB_MLEADERSTYLE_CLASS
 90
     4095
 91
        3
280
     0
281
     0
  0
CLASS
  1
SUN
  2
AcDbSun
  3
SCENEOE
 90
     1153
 91
        3
280
     0
281
     0
  0
CLASS
  1
DICTIONARYVAR
  2
AcDbDictionaryVar
  3
ObjectDBX Classes
 90
        0
 91
        3
280
     0
281
     0
  0
CLASS
  1
CELLSTYLEMAP
  2
AcDbCellStyleMap
  3
ObjectDBX Classes
 90
     1152
 91
        3
280
     0
281
     0
  0
ENDSEC
  0
SECTION
  2
TABLES
  0
TABLE
  2
VPORT
  5
8
330
0
100
AcDbSymbolTable
 70
     1
  0
VPORT
  5
29
330
8
100
AcDbSymbolTableRecord
100
AcDbViewportTableRecord
  2
*Active
 70
     0
 10
0.0
 20
0.0
 11
1.0
 21
1.0
 12
10.42990654205607
 22
4.5
 13
0.0
 23
0.0
 14
0.5
 24
0.5
 15
0.5
 25
0.5
 16
0.0
 26
0.0
 36
1.0
 17
0.0
 27
0.0
 37
0.0
 40
9.0
 41
1.972972972850329
 42
50.0
 43
0.0
 44
0.0
 50
0.0
 51
0.0
 71
     0
 72
   100
 73
     1
 74
     3
 75
     0
 76
     0
 77
     0
 78
     0
281
     0
 65
     1
110
0.0
120
0.0
130
0.0
111
1.0
121
0.0
131
0.0
112
0.0
122
1.0
132
0.0
 79
     0
146
0.0
348
2F
 60
     3
 61
     5
292
     1
282
     1
141
0.0
142
0.0
 63
   250
361
6D
  0
ENDTAB
  0
TABLE
  2
LTYPE
  5
5
330
0
100
AcDbSymbolTable
 70
     1
  0
LTYPE
  5
14
330
5
100
AcDbSymbolTableRecord
100
AcDbLinetypeTableRecord
  2
ByBlock
 70
     0
  3

 72
    65
 73
     0
 40
0.0
  0
LTYPE
  5
15
330
5
100
AcDbSymbolTableRecord
100
AcDbLinetypeTableRecord
  2
ByLayer
 70
     0
  3

 72
    65
 73
     0
 40
0.0
  0
LTYPE
  5
16
330
5
100
AcDbSymbolTableRecord
100
AcDbLinetypeTableRecord
  2
Continuous
 70
     0
  3
Solid line
 72
    65
 73
     0
 40
0.0
  0
ENDTAB
  0
TABLE
  2
LAYER
  5
2
330
0
100
AcDbSymbolTable
 70
     2
  0
LAYER
  5
10
330
2
100
AcDbSymbolTableRecord
100
AcDbLayerTableRecord
  2
0
 70
     0
 62
     7
  6
Continuous
370
    -3
390
F
347
46
  0
LAYER
  5
6E
330
2
100
AcDbSymbolTableRecord
100
AcDbLayerTableRecord
  2
Layer 01
 70
     0
 62
    18
420
        0
  6
Continuous
370
    -3
390
F
347
46
  0
ENDTAB
  0
TABLE
  2
STYLE
  5
3
330
0
100
AcDbSymbolTable
 70
     1
  0
STYLE
  5
11
330
3
100
AcDbSymbolTableRecord
100
AcDbTextStyleTableRecord
  2
Standard
 70
     0
 40
0.0
 41
1.0
 50
0.0
 71
     0
 42
0.2
  3
txt
  4

  0
ENDTAB
  0
TABLE
  2
VIEW
  5
6
330
0
100
AcDbSymbolTable
 70
     0
  0
ENDTAB
  0
TABLE
  2
UCS
  5
7
330
0
100
AcDbSymbolTable
 70
     0
  0
ENDTAB
  0
TABLE
  2
APPID
  5
9
330
0
100
AcDbSymbolTable
 70
     2
  0
APPID
  5
12
330
9
100
AcDbSymbolTableRecord
100
AcDbRegAppTableRecord
  2
ACAD
 70
     0
  0
APPID
  5
1FD
330
9
100
AcDbSymbolTableRecord
100
AcDbRegAppTableRecord
  2
ACAD_MLEADERVER
 70
     0
  0
ENDTAB
  0
TABLE
  2
DIMSTYLE
  5
A
330
0
100
AcDbSymbolTable
 70
     1
100
AcDbDimStyleTable
  0
DIMSTYLE
105
27
330
A
100
AcDbSymbolTableRecord
100
AcDbDimStyleTableRecord
  2
STANDARD_ACAD
 70
     0
178
     0
340
11
  0
ENDTAB
  0
TABLE
  2
BLOCK_RECORD
  5
1
330
0
100
AcDbSymbolTable
 70
     1
  0
BLOCK_RECORD
  5
1F
330
1
100
AcDbSymbolTableRecord
100
AcDbBlockTableRecord
  2
*Model_Space
340
22
 70
     0
280
     1
281
     0
  0
BLOCK_RECORD
  5
1B
330
1
100
AcDbSymbolTableRecord
100
AcDbBlockTableRecord
  2
*Paper_Space
340
1E
 70
     0
280
     1
281
     0
  0
BLOCK_RECORD
  5
23
330
1
100
AcDbSymbolTableRecord
100
AcDbBlockTableRecord
  2
*Paper_Space0
340
26
 70
     0
280
     1
281
     0
  0
ENDTAB
  0
ENDSEC
  0
SECTION
  2
BLOCKS
  0
BLOCK
  5
20
330
1F
100
AcDbEntity
  8
0
100
AcDbBlockBegin
  2
*Model_Space
 70
     0
 10
0.0
 20
0.0
 30
0.0
  3
*Model_Space
  1

  0
ENDBLK
  5
21
330
1F
100
AcDbEntity
  8
0
100
AcDbBlockEnd
  0
BLOCK
  5
1C
330
1B
100
AcDbEntity
 67
     1
  8
0
100
AcDbBlockBegin
  2
*Paper_Space
 70
     0
 10
0.0
 20
0.0
 30
0.0
  3
*Paper_Space
  1

  0
ENDBLK
  5
1D
330
1B
100
AcDbEntity
 67
     1
  8
0
100
AcDbBlockEnd
  0
BLOCK
  5
24
330
23
100
AcDbEntity
  8
0
100
AcDbBlockBegin
  2
*Paper_Space0
 70
     0
 10
0.0
 20
0.0
 30
0.0
  3
*Paper_Space0
  1

  0
ENDBLK
  5
25
330
23
100
AcDbEntity
  8
0
100
AcDbBlockEnd
  0
ENDSEC
  0
SECTION
  2
ENTITIES
  0
SPLINE
  5
6F
330
1F
100
AcDbEntity
  8
Layer 01
370
    -3
100
AcDbSpline
210
0.0
220
0.0
230
1.0
 70
     8
 71
     2
 72
    16
 73
    13
 74
     0
 42
0.000000001
 43
0.0000000001
 40
3.949233139557482
 40
3.949233139557482
 40
3.949233139557482
 40
4.247500000000009
 40
4.247500000000009
 40
5.247500000000009
 40
5.247500000000009
 40
7.557500000000012
 40
7.557500000000012
 40
8.557500000000012
 40
8.557500000000012
 40
8.901250000000015
 40
8.901250000000015
 40
10.94039829290933
 40
10.94039829290933
 40
10.94039829290933
 10
-8.20702151527567
 20
62.63086159452346
 30
0.0
 10
-8.356154945496911
 20
62.63086159452345
 30
0.0
 10
-8.50528837571818
 20
62.63086159452342
 30
0.0
 10
-8.619565071014819
 20
62.64158489922678
 30
0.0
 10
-8.630288375718209
 20
62.75586159452342
 30
0.0
 10
-8.63028837571838
 20
63.91086159452342
 30
0.0
 10
-8.63028837571855
 20
65.06586159452343
 30
0.0
 10
-8.619565071015217
 20
65.18013828982004
 30
0.0
 10
-8.505288375718578
 20
65.19086159452343
 30
0.0
 10
-8.333413375718578
 20
65.19086159452345
 30
0.0
 10
-8.161538375718578
 20
65.19086159452348
 30
0.0
 10
-8.161538375718408
 20
64.17128744806882
 30
0.0
 10
-8.161538375718266
 20
63.15171330161416
 30
0.0
  0
SPLINE
  5
70
330
1F
100
AcDbEntity
  8
Layer 01
100
AcDbSpline
210
0.0
220
0.0
230
1.0
 70
    12
 71
     2
 72
    12
 73
     9
 74
     0
 42
0.000000001
 43
0.0000000001
 40
-0.189151814654137
 40
-0.189151814654137
 40
-0.189151814654137
 40
0.513458434074559
 40
0.513458434074559
 40
1.448988626566746
 40
1.448988626566746
 40
2.384518819058932
 40
2.384518819058932
 40
2.874817474643887
 40
2.874817474643887
 40
2.874817474643887
 10
-6.731639253028959
 20
62.655204189639
 30
0.0
 41
1.0
 10
-6.945539004694012
 20
62.93388355134755
 30
0.0
 41
1.0
 10
-7.159438756359066
 20
63.2125629130561
 30
0.0
 41
1.0
 10
-7.518667971182091
 20
63.68058350080625
 30
0.0
 41
0.7163497032300439
 10
-7.99597918223796
 20
63.33379407314046
 30
0.0
 41
1.0
 10
-8.473290393293789
 20
62.98700464547471
 30
0.0
 41
0.7163497032300439
 10
-8.1391809168407
 20
62.50073336616182
 30
0.0
 41
1.0
 10
-8.000354895423868
 20
62.29868008434071
 30
0.0
 41
1.0
 10
-7.861528874007035
 20
62.09662680251959
 30
0.0
 41
1.0
  0
SPLINE
  5
71
330
1F
100
AcDbEntity
  8
Layer 01
100
AcDbSpline
210
0.0
220
0.0
230
1.0
 70
    12
 71
     2
 72
     8
 73
     5
 74
     0
 42
0.000000001
 43
0.0000000001
 40
0.7856637067474438
 40
0.7856637067474438
 40
0.7856637067474438
 40
1.448988626566746
 40
1.448988626566746
 40
1.805897671383158
 40
1.805897671383158
 40
1.805897671383158
 10
-12.81430103995757
 20
48.73970291060137
 30
0.0
 41
0.8829637310553815
 10
-13.08201779576171
 20
48.47696026665434
 30
0.0
 41
0.7988816268340545
 10
-12.96610183154951
 20
48.12021182933847
 30
0.0
 41
1.0
 10
-12.91022957397868
 20
47.94825673485974
 30
0.0
 41
0.8917861151948847
 10
-12.76924241967013
 20
47.83506271556889
 30
0.0
 41
0.8661404138040947
  0
POLYLINE
  5
72
330
1F
100
AcDbEntity
  8
Layer 01
100
AcDb2dPolyline
 66
     1
 10
0.0
 20
0.0
 30
0.0
  0
VERTEX
  5
73
330
72
100
AcDbEntity
  8
Layer 01
100
AcDbVertex
100
AcDb2dVertex
 10
-12.89949238011619
 20
48.63502803122554
 30
0.0
  0
VERTEX
  5
74
330
72
100
AcDbEntity
  8
Layer 01
100
AcDbVertex
100
AcDb2dVertex
 10
-12.89949238011647
 20
50.45924978054233
 30
0.0
  0
VERTEX
  5
75
330
72
100
AcDbEntity
  8
Layer 01
100
AcDbVertex
100
AcDb2dVertex
 10
-12.72685539705085
 20
50.45924978054236
 30
0.0
  0
SEQEND
  5
76
330
72
100
AcDbEntity
  8
Layer 01
  0
SPLINE
  5
77
330
1F
100
AcDbEntity
  8
Layer 01
370
    -3
100
AcDbSpline
210
0.0
220
0.0
230
1.0
 70
     8
 71
     2
 72
    18
 73
    15
 74
     0
 42
0.000000001
 43
0.0000000001
 40
3.735157394152591
 40
3.735157394152591
 40
3.735157394152591
 40
3.903750000000006
 40
3.903750000000006
 40
4.247500000000009
 40
4.247500000000009
 40
5.247500000000009
 40
5.247500000000009
 40
7.557500000000012
 40
7.557500000000012
 40
8.557500000000012
 40
8.557500000000012
 40
8.901250000000015
 40
8.901250000000015
 40
10.81355572709298
 40
10.81355572709298
 40
10.81355572709298
 10
-12.94636738011613
 20
48.06784238638973
 30
0.0
 10
-12.94636738011613
 20
47.98354608346602
 30
0.0
 10
-12.94636738011613
 20
47.89924978054232
 30
0.0
 10
-13.11824238011613
 20
47.89924978054228
 30
0.0
 10
-13.29011738011613
 20
47.89924978054226
 30
0.0
 10
-13.40439407541274
 20
47.9099730852456
 30
0.0
 10
-13.41511738011613
 20
48.02424978054225
 30
0.0
 10
-13.4151173801163
 20
49.17924978054225
 30
0.0
 10
-13.4151173801165
 20
50.33424978054224
 30
0.0
 10
-13.40439407541314
 20
50.44852647583888
 30
0.0
 10
-13.29011738011653
 20
50.45924978054226
 30
0.0
 10
-13.11824238011653
 20
50.45924978054229
 30
0.0
 10
-12.94636738011653
 20
50.45924978054232
 30
0.0
 10
-12.94636738011636
 20
49.50309691699584
 30
0.0
 10
-12.94636738011621
 20
48.54694405344936
 30
0.0
  0
POLYLINE
  5
78
330
1F
100
AcDbEntity
  8
Layer 01
100
AcDb2dPolyline
 66
     1
 10
0.0
 20
0.0
 30
0.0
  0
VERTEX
  5
79
330
78
100
AcDbEntity
  8
Layer 01
100
AcDbVertex
100
AcDb2dVertex
 10
-12.83759699692669
 20
47.89924978054233
 30
0.0
  0
VERTEX
  5
7A
330
78
100
AcDbEntity
  8
Layer 01
100
AcDbVertex
100
AcDb2dVertex
 10
-12.89949238011604
 20
47.89924978054232
 30
0.0
  0
VERTEX
  5
7B
330
78
100
AcDbEntity
  8
Layer 01
100
AcDbVertex
100
AcDb2dVertex
 10
-12.89949238011607
 20
47.97975840861502
 30
0.0
  0
SEQEND
  5
7C
330
78
100
AcDbEntity
  8
Layer 01
  0
POLYLINE
  5
7D
330
1F
100
AcDbEntity
  8
Layer 01
100
AcDb2dPolyline
 66
     1
 10
0.0
 20
0.0
 30
0.0
  0
VERTEX
  5
7E
330
7D
100
AcDbEntity
  8
Layer 01
100
AcDbVertex
100
AcDb2dVertex
 10
-8.114663375718209
 20
63.21997376770852
 30
0.0
  0
VERTEX
  5
7F
330
7D
100
AcDbEntity
  8
Layer 01
100
AcDbVertex
100
AcDb2dVertex
 10
-8.114663375718521
 20
65.19086159452348
 30
0.0
  0
VERTEX
  5
80
330
7D
100
AcDbEntity
  8
Layer 01
100
AcDbVertex
100
AcDb2dVertex
 10
-7.395913375718521
 20
65.1908615945236
 30
0.0
  0
VERTEX
  5
81
330
7D
100
AcDbEntity
  8
Layer 01
100
AcDbVertex
100
AcDb2dVertex
 10
-7.395913375718237
 20
63.39814803029861
 30
0.0
  0
SEQEND
  5
82
330
7D
100
AcDbEntity
  8
Layer 01
  0
SPLINE
  5
83
330
1F
100
AcDbEntity
  8
Layer 01
370
    -3
100
AcDbSpline
210
0.0
220
0.0
230
1.0
 70
     8
 71
     2
 72
    12
 73
     9
 74
     0
 42
0.000000001
 43
0.0000000001
 40
5.340510153433364
 40
5.340510153433364
 40
5.340510153433364
 40
7.557500000000012
 40
7.557500000000012
 40
8.557500000000012
 40
8.557500000000012
 40
8.901250000000015
 40
8.901250000000015
 40
10.71705927364772
 40
10.71705927364772
 40
10.71705927364772
 10
-6.880288375718834
 20
62.84887174795677
 30
0.0
 10
-6.880288375718663
 20
63.95736667124009
 30
0.0
 10
-6.880288375718493
 20
65.06586159452343
 30
0.0
 10
-6.891011680421826
 20
65.18013828982004
 30
0.0
 10
-7.005288375718465
 20
65.19086159452343
 30
0.0
 10
-7.177163375718465
 20
65.19086159452345
 30
0.0
 10
-7.349038375718465
 20
65.19086159452348
 30
0.0
 10
-7.349038375718607
 20
64.28295695769964
 30
0.0
 10
-7.349038375718749
 20
63.37505232087577
 30
0.0
  0
SPLINE
  5
84
330
1F
100
AcDbEntity
  8
Layer 01
370
    -3
100
AcDbSpline
210
0.0
220
0.0
230
1.0
 70
     8
 71
     2
 72
    16
 73
    13
 74
     0
 42
0.000000001
 43
0.0000000001
 40
3.949233139557482
 40
3.949233139557482
 40
3.949233139557482
 40
4.247500000000009
 40
4.247500000000009
 40
5.247500000000009
 40
5.247500000000009
 40
7.557500000000012
 40
7.557500000000012
 40
8.557500000000012
 40
8.557500000000012
 40
8.901250000000015
 40
8.901250000000015
 40
10.94039829290933
 40
10.94039829290933
 40
10.94039829290933
 10
8.28362120344812
 20
62.63086159452346
 30
0.0
 10
8.432754633669362
 20
62.63086159452345
 30
0.0
 10
8.58188806389063
 20
62.63086159452342
 30
0.0
 10
8.696164759187269
 20
62.64158489922678
 30
0.0
 10
8.70688806389066
 20
62.75586159452342
 30
0.0
 10
8.70688806389083
 20
63.91086159452342
 30
0.0
 10
8.706888063891
 20
65.06586159452343
 30
0.0
 10
8.696164759187667
 20
65.18013828982004
 30
0.0
 10
8.581888063891029
 20
65.19086159452343
 30
0.0
 10
8.410013063891029
 20
65.19086159452345
 30
0.0
 10
8.238138063891029
 20
65.19086159452348
 30
0.0
 10
8.238138063890858
 20
64.17128744806882
 30
0.0
 10
8.238138063890716
 20
63.15171330161416
 30
0.0
  0
SPLINE
  5
85
330
1F
100
AcDbEntity
  8
Layer 01
370
    -3
100
AcDbSpline
210
0.0
220
0.0
230
1.0
 70
     8
 71
     2
 72
    12
 73
     9
 74
     0
 42
0.000000001
 43
0.0000000001
 40
3.835880280111466
 40
3.835880280111466
 40
3.835880280111466
 40
3.903750000000006
 40
3.903750000000006
 40
4.247500000000009
 40
4.247500000000009
 40
5.247500000000009
 40
5.247500000000009
 40
6.221898015366241
 40
6.221898015366241
 40
6.221898015366241
 10
-0.3245340118311617
 20
38.85990812713005
 30
0.0
 10
-0.3245340118311617
 20
38.82597326718579
 30
0.0
 10
-0.3245340118311617
 20
38.79203840724151
 30
0.0
 10
-0.4964090118311617
 20
38.7920384072415
 30
0.0
 10
-0.6682840118311617
 20
38.79203840724146
 30
0.0
 10
-0.7825607071277716
 20
38.8027617119448
 30
0.0
 10
-0.7932840118311617
 20
38.91703840724145
 30
0.0
 10
-0.793284011831247
 20
39.40423741492456
 30
0.0
 10
-0.7932840118313322
 20
39.89143642260768
 30
0.0
  0
SPLINE
  5
86
330
1F
100
AcDbEntity
  8
Layer 01
370
    -3
100
AcDbSpline
210
0.0
220
0.0
230
1.0
 70
     8
 71
     2
 72
    12
 73
     9
 74
     0
 42
0.000000001
 43
0.0000000001
 40
3.835880266176895
 40
3.835880266176895
 40
3.835880266176895
 40
3.903750000000006
 40
3.903750000000006
 40
4.247500000000009
 40
4.247500000000009
 40
5.247500000000009
 40
5.247500000000009
 40
6.223330490883452
 40
6.223330490883452
 40
6.223330490883452
 10
0.4879659881681846
 20
38.85990814106463
 30
0.0
 10
0.4879659881681846
 20
38.82597327415308
 30
0.0
 10
0.4879659881681562
 20
38.79203840724151
 30
0.0
 10
0.6598409881681562
 20
38.7920384072415
 30
0.0
 10
0.8317159881681562
 20
38.79203840724146
 30
0.0
 10
0.9459926834647945
 20
38.8027617119448
 30
0.0
 10
0.9567159881681846
 20
38.91703840724145
 30
0.0
 10
0.9567159881682414
 20
39.40495365268316
 30
0.0
 10
0.9567159881682983
 20
39.89286889812489
 30
0.0
  0
SPLINE
  5
87
330
1F
100
AcDbEntity
  8
Layer 01
100
AcDbSpline
210
0.0
220
0.0
230
1.0
 70
    12
 71
     2
 72
    12
 73
     9
 74
     0
 42
0.000000001
 43
0.0000000001
 40
-0.0814721764247964
 40
-0.0814721764247964
 40
-0.0814721764247964
 40
0.513458434074559
 40
0.513458434074559
 40
1.448988626566746
 40
1.448988626566746
 40
2.384518819058932
 40
2.384518819058932
 40
2.98050236199432
 40
2.98050236199432
 40
2.98050236199432
 10
-0.5394555905068046
 20
39.88798443750976
 30
0.0
 41
1.0
 10
-0.5316275192695628
 20
39.5906221515218
 30
0.0
 41
1.0
 10
-0.5237994480322925
 20
39.29325986553383
 30
0.0
 41
1.0
 10
-0.5082725076132653
 20
38.70347362166105
 30
0.0
 41
0.7163497032300439
 10
0.0817180849694807
 20
38.70347567149972
 30
0.0
 41
1.0
 10
0.6717086775522426
 20
38.70347772133841
 30
0.0
 41
0.7163497032300439
 10
0.6872315197134924
 20
39.29326407308927
 30
0.0
 41
1.0
 10
0.6950734455644465
 20
39.59115264296297
 30
0.0
 41
1.0
 10
0.702915371415429
 20
39.88904121283668
 30
0.0
 41
1.0
  0
SPLINE
  5
88
330
1F
100
AcDbEntity
  8
Layer 01
100
AcDbSpline
210
0.0
220
0.0
230
1.0
 70
    12
 71
     2
 72
    12
 73
     9
 74
     0
 42
0.000000001
 43
0.0000000001
 40
-0.189151814654137
 40
-0.189151814654137
 40
-0.189151814654137
 40
0.513458434074559
 40
0.513458434074559
 40
1.448988626566746
 40
1.448988626566746
 40
2.384518819058932
 40
2.384518819058932
 40
2.874817474643887
 40
2.874817474643887
 40
2.874817474643887
 10
6.808238941201409
 20
62.655204189639
 30
0.0
 41
1.0
 10
7.022138692866463
 20
62.93388355134755
 30
0.0
 41
1.0
 10
7.236038444531516
 20
63.2125629130561
 30
0.0
 41
1.0
 10
7.595267659354548
 20
63.68058350080625
 30
0.0
 41
0.7163497032300439
 10
8.07257887041041
 20
63.33379407314046
 30
0.0
 41
1.0
 10
8.549890081466247
 20
62.98700464547471
 30
0.0
 41
0.7163497032300439
 10
8.215780605013151
 20
62.50073336616182
 30
0.0
 41
1.0
 10
8.076954583596319
 20
62.29868008434071
 30
0.0
 41
1.0
 10
7.938128562179486
 20
62.09662680251959
 30
0.0
 41
1.0
  0
SPLINE
  5
89
330
1F
100
AcDbEntity
  8
Layer 01
100
AcDbSpline
210
0.0
220
0.0
230
1.0
 70
    12
 71
     2
 72
     8
 73
     5
 74
     0
 42
0.000000001
 43
0.0000000001
 40
0.7856637067474438
 40
0.7856637067474438
 40
0.7856637067474438
 40
1.448988626566746
 40
1.448988626566746
 40
1.805897671383158
 40
1.805897671383158
 40
1.805897671383158
 10
12.89090072813006
 20
48.73970291060137
 30
0.0
 41
0.8829637310553815
 10
13.15861748393419
 20
48.47696026665434
 30
0.0
 41
0.7988816268340545
 10
13.04270151972196
 20
48.12021182933847
 30
0.0
 41
1.0
 10
12.98682926215113
 20
47.94825673485974
 30
0.0
 41
0.8917861151948847
 10
12.84584210784261
 20
47.83506271556889
 30
0.0
 41
0.8661404138040947
  0
POLYLINE
  5
8A
330
1F
100
AcDbEntity
  8
Layer 01
100
AcDb2dPolyline
 66
     1
 10
0.0
 20
0.0
 30
0.0
  0
VERTEX
  5
8B
330
8A
100
AcDbEntity
  8
Layer 01
100
AcDbVertex
100
AcDb2dVertex
 10
12.97609206828864
 20
48.63502803122554
 30
0.0
  0
VERTEX
  5
8C
330
8A
100
AcDbEntity
  8
Layer 01
100
AcDbVertex
100
AcDb2dVertex
 10
12.97609206828892
 20
50.45924978054233
 30
0.0
  0
VERTEX
  5
8D
330
8A
100
AcDbEntity
  8
Layer 01
100
AcDbVertex
100
AcDb2dVertex
 10
12.80345508522331
 20
50.45924978054236
 30
0.0
  0
SEQEND
  5
8E
330
8A
100
AcDbEntity
  8
Layer 01
  0
SPLINE
  5
8F
330
1F
100
AcDbEntity
  8
Layer 01
370
    -3
100
AcDbSpline
210
0.0
220
0.0
230
1.0
 70
    11
 71
     3
 72
    71
 73
    67
 74
     0
 42
0.000000001
 43
0.0000000001
 40
-18.0
 40
-18.0
 40
-18.0
 40
-18.0
 40
-17.0
 40
-16.0
 40
-15.0
 40
-15.0
 40
-15.0
 40
-13.99999990517161
 40
-12.99999981034322
 40
-12.0
 40
-12.0
 40
-12.0
 40
-11.0
 40
-10.0
 40
-10.0
 40
-10.0
 40
-9.0
 40
-8.0
 40
-7.0
 40
-6.0
 40
-6.0
 40
-6.0
 40
-5.0
 40
-4.0
 40
-3.0
 40
-2.0
 40
-1.0
 40
0.0
 40
0.0
 40
0.0
 40
1.0
 40
2.0
 40
3.0
 40
3.0
 40
3.0
 40
4.0
 40
5.0
 40
6.0
 40
6.0
 40
6.0
 40
7.0
 40
8.0
 40
9.0
 40
10.0
 40
11.0
 40
12.0
 40
12.0
 40
12.0
 40
13.0
 40
14.0
 40
15.0
 40
16.0
 40
16.0
 40
16.0
 40
17.0
 40
18.0
 40
18.0
 40
18.0
 40
18.99999981034322
 40
19.99999990517161
 40
21.0
 40
21.0
 40
21.0
 40
22.0
 40
23.0
 40
24.0
 40
24.0
 40
24.0
 40
24.0
 10
0.0382998440862252
 20
57.7553646588308
 30
0.0
 10
-0.6632539880206991
 20
57.75567207024965
 30
0.0
 10
-2.066781132140989
 20
57.73022396720135
 30
0.0
 10
-4.164966946837268
 20
57.53868093286115
 30
0.0
 10
-5.542259265243928
 20
57.25397406112916
 30
0.0
 10
-6.213796721025147
 20
57.04970467995118
 30
0.0
 10
-6.425916159593584
 20
56.9839980152225
 30
0.0
 10
-6.839653956700403
 20
56.82156223962484
 30
0.0
 10
-7.462068841762829
 20
56.58783221775282
 30
0.0
 10
-7.909467242562073
 20
56.51635349377275
 30
0.0
 10
-8.127797344415711
 20
56.5720541277964
 30
0.0
 10
-8.410146193421525
 20
56.64842535356723
 30
0.0
 10
-8.976159878587424
 20
56.79634611550136
 30
0.0
 10
-9.54554546880442
 20
56.93083445929771
 30
0.0
 10
-9.831196945665596
 20
56.9936382465721
 30
0.0
 10
-10.03541789932694
 20
57.03853858971633
 30
0.0
 10
-10.27501447382804
 20
57.39530547985689
 30
0.0
 10
-10.34493891968393
 20
57.99102165211679
 30
0.0
 10
-10.24674890267568
 20
58.58381615560018
 30
0.0
 10
-10.12053010933411
 20
58.96072443058546
 30
0.0
 10
-10.04210167565375
 20
59.14337162463423
 30
0.0
 10
-9.912145011472319
 20
59.44601977080823
 30
0.0
 10
-9.596634711855614
 20
60.02614241329091
 30
0.0
 10
-9.033382935947344
 20
60.83665184490099
 30
0.0
 10
-8.465245693677218
 20
61.6499947122078
 30
0.0
 10
-7.675724888489896
 20
62.2634806417428
 30
0.0
 10
-6.769296353151532
 20
62.66548542259027
 30
0.0
 10
-6.135728362813921
 20
62.84845898775683
 30
0.0
 10
-5.816706183167781
 20
62.92953382509714
 30
0.0
 10
-5.180386770238016
 20
63.09124512980011
 30
0.0
 10
-3.88709553502386
 20
63.32312429650389
 30
0.0
 10
-1.929880831066356
 20
63.543562445742
 30
0.0
 10
-0.618096379779189
 20
63.61055031888249
 30
0.0
 10
0.0382998440862252
 20
63.61147135382454
 30
0.0
 10
0.6946960679516394
 20
63.61055031888249
 30
0.0
 10
2.006480519238806
 20
63.543562445742
 30
0.0
 10
3.963695223196311
 20
63.32312429650389
 30
0.0
 10
5.256986458410466
 20
63.09124512980011
 30
0.0
 10
5.893305871340232
 20
62.92953382509714
 30
0.0
 10
6.212328050986372
 20
62.84845898775683
 30
0.0
 10
6.845896041323982
 20
62.66548542259027
 30
0.0
 10
7.752324576662346
 20
62.2634806417428
 30
0.0
 10
8.541845381849669
 20
61.6499947122078
 30
0.0
 10
9.109982624119795
 20
60.83665184490099
 30
0.0
 10
9.673234400028065
 20
60.02614241329091
 30
0.0
 10
9.98874469964474
 20
59.44601977080823
 30
0.0
 10
10.1187013638262
 20
59.14337162463423
 30
0.0
 10
10.19712979750656
 20
58.96072443058546
 30
0.0
 10
10.32334859084813
 20
58.58381615560018
 30
0.0
 10
10.42153860785638
 20
57.99102165211679
 30
0.0
 10
10.35161416200049
 20
57.39530547985689
 30
0.0
 10
10.11201758749939
 20
57.03853858971633
 30
0.0
 10
9.907796633838046
 20
56.9936382465721
 30
0.0
 10
9.62214515697687
 20
56.93083445929771
 30
0.0
 10
9.052759566759875
 20
56.79634611550136
 30
0.0
 10
8.486745881593976
 20
56.64842535356723
 30
0.0
 10
8.204397032588162
 20
56.5720541277964
 30
0.0
 10
7.986066930734523
 20
56.51635349377275
 30
0.0
 10
7.538668529935279
 20
56.58783221775282
 30
0.0
 10
6.916253644872853
 20
56.82156223962484
 30
0.0
 10
6.502515847766034
 20
56.9839980152225
 30
0.0
 10
6.290396409197598
 20
57.04970467995118
 30
0.0
 10
5.618858953416378
 20
57.25397406112916
 30
0.0
 10
4.241566635009718
 20
57.53868093286115
 30
0.0
 10
2.143380820313439
 20
57.73022396720135
 30
0.0
 10
0.7398536761931496
 20
57.75567207024965
 30
0.0
 10
0.0382998440862252
 20
57.7553646588308
 30
0.0
  0
SPLINE
  5
90
330
1F
100
AcDbEntity
  8
Layer 01
370
    -3
100
AcDbSpline
210
0.0
220
0.0
230
1.0
 70
     8
 71
     3
 72
    33
 73
    29
 74
     0
 42
0.000000001
 43
0.0000000001
 40
-8.0
 40
-8.0
 40
-8.0
 40
-8.0
 40
-7.0
 40
-6.0
 40
-6.0
 40
-6.0
 40
-5.0
 40
-4.0
 40
-3.0
 40
-2.0
 40
-2.0
 40
-2.0
 40
-1.0
 40
0.0
 40
0.0
 40
0.0
 40
1.0
 40
2.0
 40
2.0
 40
2.0
 40
3.0
 40
4.0
 40
5.0
 40
6.0
 40
6.0
 40
6.0
 40
7.0
 40
8.0
 40
8.0
 40
8.0
 40
8.0
 10
8.100728518375917
 20
56.55431357270994
 30
0.0
 10
8.468406053639598
 20
54.75352290995205
 30
0.0
 10
9.122358624538407
 20
51.13611838518033
 30
0.0
 10
9.74281281793563
 20
47.51307282243766
 30
0.0
 10
10.03293112985224
 20
45.69818409915445
 30
0.0
 10
10.12390729609766
 20
45.1290658759181
 30
0.0
 10
10.23065600362204
 20
43.98185760399731
 30
0.0
 10
9.95222709028451
 20
42.23717547160074
 30
0.0
 10
8.809948732142004
 20
40.84946300119077
 30
0.0
 10
7.679127401878389
 20
40.47549379634897
 30
0.0
 10
7.117610184413678
 20
40.36785222212961
 30
0.0
 10
5.954054534340315
 20
40.1448012488554
 30
0.0
 10
3.588170942836769
 20
39.96573404945588
 30
0.0
 10
1.222312578351449
 20
39.88560779323555
 30
0.0
 10
0.0382998440862252
 20
39.88435057274866
 30
0.0
 10
-1.145712890178999
 20
39.88560779323555
 30
0.0
 10
-3.511571254664318
 20
39.96573404945588
 30
0.0
 10
-5.877454846167865
 20
40.1448012488554
 30
0.0
 10
-7.041010496241228
 20
40.36785222212961
 30
0.0
 10
-7.602527713705939
 20
40.47549379634897
 30
0.0
 10
-8.733349043969554
 20
40.84946300119077
 30
0.0
 10
-9.875627402112059
 20
42.23717547160074
 30
0.0
 10
-10.15405631544959
 20
43.98185760399731
 30
0.0
 10
-10.04730760792521
 20
45.1290658759181
 30
0.0
 10
-9.956331441679794
 20
45.69818409915445
 30
0.0
 10
-9.666213129763179
 20
47.51307282243766
 30
0.0
 10
-9.045758936365985
 20
51.13611838518033
 30
0.0
 10
-8.391806365467147
 20
54.75352290995205
 30
0.0
 10
-8.024128830203466
 20
56.55431357270994
 30
0.0
  0
SPLINE
  5
91
330
1F
100
AcDbEntity
  8
Layer 01
370
    -3
100
AcDbSpline
210
0.0
220
0.0
230
1.0
 70
     8
 71
     3
 72
    27
 73
    23
 74
     0
 42
0.000000001
 43
0.0000000001
 40
-3.0
 40
-3.0
 40
-3.0
 40
-3.0
 40
-2.0
 40
-1.0
 40
0.0
 40
0.0
 40
0.0
 40
1.0
 40
2.0
 40
3.0
 40
3.0
 40
3.0
 40
4.0
 40
5.0
 40
6.0
 40
6.0
 40
6.0
 40
7.0
 40
8.0
 40
8.0
 40
8.0
 40
9.0
 40
9.0
 40
9.0
 40
9.0
 10
10.21977999035741
 20
58.88084909697331
 30
0.0
 10
10.3637896101545
 20
58.72909332358964
 30
0.0
 10
10.61656420323749
 20
58.39301937997756
 30
0.0
 10
10.89351447608328
 20
57.82779398873873
 30
0.0
 10
11.03060941440756
 20
57.43221577209069
 30
0.0
 10
11.09868933142624
 20
57.23451901742938
 30
0.0
 10
11.39536570448311
 20
56.37300274792599
 30
0.0
 10
11.90089579958939
 20
54.62088521600754
 30
0.0
 10
12.4642212294753
 20
51.94454999834933
 30
0.0
 10
12.67693933294626
 20
50.1315840219651
 30
0.0
 10
12.70001070612622
 20
49.22032423951718
 30
0.0
 10
12.7104180051349
 20
48.80926274974242
 30
0.0
 10
12.68433073345159
 20
47.97973630804553
 30
0.0
 10
12.42084589226525
 20
46.77796720509374
 30
0.0
 10
12.133952548922
 20
45.93545852165087
 30
0.0
 10
11.76029984408623
 20
45.74120925870763
 30
0.0
 10
11.50737720845041
 20
45.6097234299739
 30
0.0
 10
10.98962931674524
 20
45.37067352343465
 30
0.0
 10
10.48470883778538
 20
45.10569185556784
 30
0.0
 10
10.22729984408622
 20
44.98320701773351
 30
0.0
 10
10.19566983388398
 20
44.96854011116124
 30
0.0
 10
10.16186922452255
 20
44.9594192598956
 30
0.0
 10
10.12819686973185
 20
44.95079954656919
 30
0.0
  0
SPLINE
  5
92
330
1F
100
AcDbEntity
  8
Layer 01
370
    -3
100
AcDbSpline
210
0.0
220
0.0
230
1.0
 70
     8
 71
     3
 72
    27
 73
    23
 74
     0
 42
0.000000001
 43
0.0000000001
 40
0.0
 40
0.0
 40
0.0
 40
0.0
 40
1.0
 40
2.0
 40
3.0
 40
3.0
 40
3.0
 40
4.0
 40
5.0
 40
6.0
 40
6.0
 40
6.0
 40
7.0
 40
8.0
 40
9.0
 40
9.0
 40
9.0
 40
10.0
 40
11.0
 40
11.0
 40
11.0
 40
12.0
 40
12.0
 40
12.0
 40
12.0
 10
9.951039749577916
 20
59.49802218032274
 30
0.0
 10
10.18966642684995
 20
59.3299476369525
 30
0.0
 10
10.61103610131087
 20
58.91703516683869
 30
0.0
 10
11.05393659033669
 20
58.15496942612396
 30
0.0
 10
11.24026299771373
 20
57.60009843783773
 30
0.0
 10
11.3310630226762
 20
57.32308988521018
 30
0.0
 10
11.61656505381885
 20
56.45209337995908
 30
0.0
 10
12.09716129651716
 20
54.68188933632015
 30
0.0
 10
12.6385853858707
 20
51.98495023898404
 30
0.0
 10
12.85636378095455
 20
50.16212548089243
 30
0.0
 10
12.88364839535623
 20
49.2455903728694
 30
0.0
 10
12.89593884386639
 20
48.83273397742733
 30
0.0
 10
12.89483192076398
 20
47.99990068976667
 30
0.0
 10
12.69424581385644
 20
46.78145787622032
 30
0.0
 10
12.43941690307608
 20
45.90842148273975
 30
0.0
 10
12.06014105190624
 20
45.72151151034888
 30
0.0
 10
11.80851487689111
 20
45.59750825182388
 30
0.0
 10
11.2921562771098
 20
45.37776494804818
 30
0.0
 10
10.78618186957013
 20
45.13531019515543
 30
0.0
 10
10.52890097805621
 20
45.0235299647794
 30
0.0
 10
10.4013227012741
 20
44.97193244545899
 30
0.0
 10
10.26481120196277
 20
44.94862294568008
 30
0.0
 10
10.1305090813573
 20
44.92136822212999
 30
0.0
  0
SPLINE
  5
93
330
1F
100
AcDbEntity
  8
Layer 01
370
    -3
100
AcDbSpline
210
0.0
220
0.0
230
1.0
 70
    12
 71
     2
 72
     6
 73
     3
 74
     0
 42
0.000000001
 43
0.0000000001
 40
0.2333152223443822
 40
0.2333152223443822
 40
0.2333152223443822
 40
0.3157762042634161
 40
0.3157762042634161
 40
0.3157762042634161
 10
0.038299480584501
 20
57.74399375616583
 30
0.0
 41
0.9427839977480739
 10
0.0382996028321161
 20
57.74399399609042
 30
0.0
 41
0.9612810260884477
 10
0.0382998440862252
 20
57.75536465883081
 30
0.0
 41
1.0
  0
SPLINE
  5
94
330
1F
100
AcDbEntity
  8
Layer 01
370
    -3
100
AcDbSpline
210
0.0
220
0.0
230
1.0
 70
     8
 71
     3
 72
    27
 73
    23
 74
     0
 42
0.000000001
 43
0.0000000001
 40
-3.0
 40
-3.0
 40
-3.0
 40
-3.0
 40
-2.0
 40
-1.0
 40
0.0
 40
0.0
 40
0.0
 40
1.0
 40
2.0
 40
3.0
 40
3.0
 40
3.0
 40
4.0
 40
5.0
 40
6.0
 40
6.0
 40
6.0
 40
7.0
 40
8.0
 40
8.0
 40
8.0
 40
9.0
 40
9.0
 40
9.0
 40
9.0
 10
-10.14318030218496
 20
58.88084909697331
 30
0.0
 10
-10.28718992198205
 20
58.72909332358964
 30
0.0
 10
-10.53996451506504
 20
58.39301937997756
 30
0.0
 10
-10.81691478791083
 20
57.82779398873873
 30
0.0
 10
-10.95400972623511
 20
57.43221577209069
 30
0.0
 10
-11.02208964325379
 20
57.23451901742938
 30
0.0
 10
-11.31876601631066
 20
56.37300274792599
 30
0.0
 10
-11.82429611141697
 20
54.62088521600754
 30
0.0
 10
-12.38762154130285
 20
51.94454999834933
 30
0.0
 10
-12.60033964477384
 20
50.1315840219651
 30
0.0
 10
-12.6234110179538
 20
49.22032423951718
 30
0.0
 10
-12.63381831696245
 20
48.80926274974242
 30
0.0
 10
-12.60773104527914
 20
47.97973630804553
 30
0.0
 10
-12.34424620409277
 20
46.77796720509374
 30
0.0
 10
-12.05735286074955
 20
45.93545852165087
 30
0.0
 10
-11.68370015591378
 20
45.74120925870763
 30
0.0
 10
-11.43077752027796
 20
45.6097234299739
 30
0.0
 10
-10.91302962857279
 20
45.37067352343465
 30
0.0
 10
-10.40810914961293
 20
45.10569185556784
 30
0.0
 10
-10.15070015591377
 20
44.98320701773351
 30
0.0
 10
-10.11907014571153
 20
44.96854011116124
 30
0.0
 10
-10.0852695363501
 20
44.9594192598956
 30
0.0
 10
-10.0515971815594
 20
44.95079954656919
 30
0.0
  0
SPLINE
  5
95
330
1F
100
AcDbEntity
  8
Layer 01
370
    -3
100
AcDbSpline
210
0.0
220
0.0
230
1.0
 70
     8
 71
     3
 72
    27
 73
    23
 74
     0
 42
0.000000001
 43
0.0000000001
 40
0.0
 40
0.0
 40
0.0
 40
0.0
 40
1.0
 40
2.0
 40
3.0
 40
3.0
 40
3.0
 40
4.0
 40
5.0
 40
6.0
 40
6.0
 40
6.0
 40
7.0
 40
8.0
 40
9.0
 40
9.0
 40
9.0
 40
10.0
 40
11.0
 40
11.0
 40
11.0
 40
12.0
 40
12.0
 40
12.0
 40
12.0
 10
-9.874440061405465
 20
59.49802218032274
 30
0.0
 10
-10.1130667386775
 20
59.3299476369525
 30
0.0
 10
-10.53443641313842
 20
58.91703516683869
 30
0.0
 10
-10.97733690216424
 20
58.15496942612396
 30
0.0
 10
-11.16366330954128
 20
57.60009843783773
 30
0.0
 10
-11.25446333450375
 20
57.32308988521018
 30
0.0
 10
-11.5399653656464
 20
56.45209337995908
 30
0.0
 10
-12.02056160834471
 20
54.68188933632015
 30
0.0
 10
-12.56198569769828
 20
51.98495023898404
 30
0.0
 10
-12.7797640927821
 20
50.16212548089243
 30
0.0
 10
-12.80704870718381
 20
49.2455903728694
 30
0.0
 10
-12.81933915569397
 20
48.83273397742733
 30
0.0
 10
-12.81823223259153
 20
47.99990068976667
 30
0.0
 10
-12.61764612568399
 20
46.78145787622032
 30
0.0
 10
-12.36281721490363
 20
45.90842148273975
 30
0.0
 10
-11.98354136373379
 20
45.72151151034888
 30
0.0
 10
-11.73191518871866
 20
45.59750825182388
 30
0.0
 10
-11.21555658893737
 20
45.37776494804818
 30
0.0
 10
-10.70958218139768
 20
45.13531019515543
 30
0.0
 10
-10.45230128988376
 20
45.0235299647794
 30
0.0
 10
-10.32472301310165
 20
44.97193244545899
 30
0.0
 10
-10.18821151379032
 20
44.94862294568008
 30
0.0
 10
-10.05390939318485
 20
44.92136822212999
 30
0.0
  0
SPLINE
  5
96
330
1F
100
AcDbEntity
  8
Layer 01
370
    -3
100
AcDbSpline
210
0.0
220
0.0
230
1.0
 70
    12
 71
     2
 72
     6
 73
     3
 74
     0
 42
0.000000001
 43
0.0000000001
 40
0.2333152223443822
 40
0.2333152223443822
 40
0.2333152223443822
 40
0.3157762042634161
 40
0.3157762042634161
 40
0.3157762042634161
 10
0.0383002075879925
 20
57.74399375616583
 30
0.0
 41
0.9427839977480739
 10
0.0383000853402634
 20
57.74399399609042
 30
0.0
 41
0.9612810260884477
 10
0.0382998440862252
 20
57.75536465883081
 30
0.0
 41
1.0
  0
SPLINE
  5
97
330
1F
100
AcDbEntity
  8
Layer 01
100
AcDbSpline
210
0.0
220
0.0
230
1.0
 70
    12
 71
     2
 72
    22
 73
    19
 74
     0
 42
0.000000001
 43
0.0000000001
 40
-6.388581636377922
 40
-6.388581636377922
 40
-6.388581636377922
 40
-0.6134552906118463
 40
-0.6134552906118463
 40
-0.5552468102712178
 40
-0.5552468102712178
 40
-0.1591898675712409
 40
-0.1591898675712409
 40
0.0663715517922674
 40
0.0663715517922674
 40
0.2919329711557756
 40
0.2919329711557756
 40
0.6874614076735563
 40
0.6874614076735563
 40
0.7389396661920168
 40
0.7389396661920168
 40
1.345121365997126
 40
1.345121365997126
 40
6.601242940749453
 40
6.601242940749453
 40
6.601242940749453
 10
35.17645546549258
 20
10.3742210014161
 30
0.0
 41
1.0
 10
35.2396282091286
 20
10.63314540303053
 30
0.0
 41
1.0
 10
35.30280095276461
 20
10.89206980464495
 30
0.0
 41
1.0
 10
35.30954684884272
 20
10.92051733998093
 30
0.0
 41
0.9932311955651482
 10
35.30954684884273
 20
10.94975377924067
 30
0.0
 41
1.0
 10
35.30954684884274
 20
11.14778225059069
 30
0.0
 41
1.0
 10
35.30954684884276
 20
11.34581072194071
 30
0.0
 41
1.0
 10
35.34527990274562
 20
11.47264004403357
 30
0.0
 41
0.7972401598474562
 10
35.47704684884275
 20
11.47264004403358
 30
0.0
 41
1.0
 10
35.60881379493986
 20
11.47264004403357
 30
0.0
 41
0.7972401598474562
 10
35.64454684884274
 20
11.34581072194071
 30
0.0
 41
1.0
 10
35.64454684884274
 20
11.14804650368182
 30
0.0
 41
1.0
 10
35.64454684884274
 20
10.95028228542293
 30
0.0
 41
1.0
 10
35.64454684884274
 20
10.92445182358808
 30
0.0
 41
0.9947046578518036
 10
35.64982817066669
 20
10.89916703768047
 30
0.0
 41
1.0
 10
35.65581458706468
 20
10.8705065503968
 30
0.0
 41
1.0
 10
35.66180100346267
 20
10.84184606311313
 30
0.0
 41
1.0
 10
35.70042139727157
 20
10.61022153909685
 30
0.0
 41
0.9971031077474172
 10
35.77372839076199
 20
10.38713514406319
 30
0.0
 41
1.0
  0
SPLINE
  5
98
330
1F
100
AcDbEntity
  8
Layer 01
370
    -3
100
AcDbSpline
210
0.0
220
0.0
230
1.0
 70
    12
 71
     3
 72
    23
 73
    19
 74
     0
 42
0.000000001
 43
0.0000000001
 40
5.785465826507016
 40
5.785465826507016
 40
5.785465826507016
 40
5.785465826507016
 40
6.805175635643224
 40
6.805175635643224
 40
6.805175635643224
 40
7.805175635643224
 40
7.805175635643224
 40
7.805175635643224
 40
8.516647408257924
 40
8.516647408257924
 40
8.516647408257924
 40
9.516647408257924
 40
9.516647408257924
 40
9.516647408257924
 40
11.7248291125332
 40
11.7248291125332
 40
11.7248291125332
 40
12.72908169902228
 40
12.72908169902228
 40
12.72908169902228
 40
12.72908169902228
 10
35.66180100346259
 20
10.84184606311313
 30
0.0
 41
0.9201034053163346
 10
36.02876347389285
 20
10.84184606311312
 30
0.0
 41
0.8099220934737946
 10
36.25248795544204
 20
10.84184606311313
 30
0.0
 41
0.8365542917016829
 10
36.25259308082278
 20
10.84184606311313
 30
0.0
 41
1.0
 10
36.2836786618295
 20
10.84184606311302
 30
0.0
 41
1.0
 10
36.31538835981669
 20
10.85835307271023
 30
0.0
 41
1.0
 10
36.33321831405527
 20
10.88381688630693
 30
0.0
 41
1.0
 10
36.46924612872264
 20
11.0780847386136
 30
0.0
 41
1.0
 10
36.60527394339001
 20
11.27235259092026
 30
0.0
 41
1.0
 10
36.74130175805738
 20
11.46662044322692
 30
0.0
 41
1.0
 10
36.77713492576467
 20
11.51779551024439
 30
0.0
 41
1.0
 10
36.84578278137792
 20
11.56153821000095
 30
0.0
 41
1.0
 10
36.90730491656512
 20
11.57240365129238
 30
0.0
 41
1.0
 10
37.63214580852102
 20
11.70041800146435
 30
0.0
 41
1.0
 10
38.35698670047694
 20
11.82843235163632
 30
0.0
 41
1.0
 10
39.08179086931628
 20
11.95665463487675
 30
0.0
 41
1.0
 10
39.14313010385774
 20
11.96692374277192
 30
0.0
 41
1.0
 10
39.19562155601119
 20
12.01629828848165
 30
0.0
 41
1.0
 10
39.20815382204825
 20
12.07733714114056
 30
0.0
 41
1.0
  0
SPLINE
  5
99
330
1F
100
AcDbEntity
  8
Layer 01
370
    -3
100
AcDbSpline
210
0.0
220
0.0
230
1.0
 70
    12
 71
     3
 72
    23
 73
    19
 74
     0
 42
0.000000001
 43
0.0000000001
 40
0.0265362779790751
 40
0.0265362779790751
 40
0.0265362779790751
 40
0.0265362779790751
 40
1.0
 40
1.0
 40
1.0
 40
1.988466736571221
 40
1.988466736571221
 40
1.988466736571221
 40
2.988466736571221
 40
2.988466736571221
 40
2.988466736571221
 40
3.368761396622346
 40
3.368761396622346
 40
3.368761396622346
 40
4.368761396622346
 40
4.368761396622346
 40
4.368761396622346
 40
5.387065665436708
 40
5.387065665436708
 40
5.387065665436708
 40
5.387065665436708
 10
33.10334339567919
 20
11.43088347699092
 30
0.0
 41
1.0
 10
33.12540503817587
 20
11.37472446529204
 30
0.0
 41
1.0
 10
33.18217802948456
 20
11.33426400798815
 30
0.0
 41
1.0
 10
33.24264982917722
 20
11.33250599081953
 30
0.0
 41
1.0
 10
33.57183285410429
 20
11.31831181209135
 30
0.0
 41
1.0
 10
33.901015791318
 20
11.30411543566331
 30
0.0
 41
1.0
 10
34.23019872853138
 20
11.28991905923524
 30
0.0
 41
1.0
 10
34.29616462801471
 20
11.28707420722557
 30
0.0
 41
1.0
 10
34.36490359771719
 20
11.24941539063949
 30
0.0
 41
1.0
 10
34.40277037352737
 20
11.19533603172123
 30
0.0
 41
1.0
 10
34.47547972681818
 20
11.09149631658315
 30
0.0
 41
1.0
 10
34.54818908010898
 20
10.98765660144507
 30
0.0
 41
1.0
 10
34.62089843339979
 20
10.88381688630698
 30
0.0
 41
1.0
 10
34.63872838790846
 20
10.85835307301048
 30
0.0
 41
1.0
 10
34.73260924737554
 20
10.84184606311302
 30
0.0
 41
1.0
 10
34.7015236666322
 20
10.84184606311313
 30
0.0
 41
1.0
 10
34.70141871441747
 20
10.84184606311313
 30
0.0
 41
0.8367795808294206
 10
34.92433605254557
 20
10.84184606311313
 30
0.0
 41
0.8099957716056495
 10
35.29054729289922
 20
10.84184606311312
 30
0.0
 41
0.9196485723286866
  0
SPLINE
  5
9A
330
1F
100
AcDbEntity
  8
Layer 01
370
    -3
100
AcDbSpline
210
0.0
220
0.0
230
1.0
 70
     8
 71
     3
 72
    32
 73
    28
 74
     0
 42
0.000000001
 43
0.0000000001
 40
-0.1599627054942684
 40
-0.1599627054942684
 40
-0.1599627054942684
 40
-0.1599627054942684
 40
0.2380110867119459
 40
0.2380110867119459
 40
0.2380110867119459
 40
0.3497734686124756
 40
0.3497734686124756
 40
0.3497734686124756
 40
1.573511435043543
 40
1.573511435043543
 40
1.573511435043543
 40
2.573511435043543
 40
2.573511435043543
 40
2.573511435043543
 40
3.573511435043543
 40
3.573511435043543
 40
3.573511435043543
 40
4.573511435043542
 40
4.573511435043542
 40
4.573511435043542
 40
6.47009527453016
 40
6.47009527453016
 40
6.47009527453016
 40
6.624369229497522
 40
6.624369229497522
 40
6.624369229497522
 40
6.983377661451593
 40
6.983377661451593
 40
6.983377661451593
 40
6.983377661451593
 10
31.74062616353325
 20
12.67700818598658
 30
0.0
 10
31.75792413735796
 20
12.54548287592755
 30
0.0
 10
31.77522211118268
 20
12.41395756586851
 30
0.0
 10
31.7925200850074
 20
12.28243225580948
 30
0.0
 10
31.79719274145867
 20
12.24641581968883
 30
0.0
 10
31.81596426369234
 20
12.21370573199789
 30
0.0
 10
31.84466643961068
 20
12.19145926662396
 30
0.0
 10
32.08039895897517
 20
12.00849740634873
 30
0.0
 10
32.58084960870988
 20
11.62177688619543
 30
0.0
 10
32.81776066014115
 20
11.44131252466645
 30
0.0
 10
32.84258762939291
 20
11.42240085664737
 30
0.0
 10
32.88009573376746
 20
11.40712660070406
 30
0.0
 10
32.90980874671126
 20
11.41028891668806
 30
0.0
 10
35.07803479500189
 20
11.64105029731264
 30
0.0
 10
37.238284142693
 20
11.8698062629549
 30
0.0
 10
39.3905567897846
 20
12.09655681361487
 30
0.0
 10
39.41879597197732
 20
12.09953192465437
 30
0.0
 10
39.4596691252319
 20
12.11407415430675
 30
0.0
 10
39.48268820447575
 20
12.13041100987268
 30
0.0
 10
39.99800742148577
 20
12.49613787190109
 30
0.0
 10
40.5196216725565
 20
12.85379592874566
 30
0.0
 10
41.04360031142588
 20
13.20742283529206
 30
0.0
 10
41.08448428496916
 20
13.23520973586215
 30
0.0
 10
41.10737160940729
 20
13.28288225878389
 30
0.0
 10
41.10347635904958
 20
13.33217313738694
 30
0.0
 10
41.09408688383281
 20
13.45147369826698
 30
0.0
 10
41.08469740861604
 20
13.57077425914702
 30
0.0
 10
41.07530793339927
 20
13.69007482002705
 30
0.0
  0
SPLINE
  5
9B
330
1F
100
AcDbEntity
  8
Layer 01
370
    -3
100
AcDbSpline
210
0.0
220
0.0
230
1.0
 70
    12
 71
     3
 72
    15
 73
    11
 74
     0
 42
0.000000001
 43
0.0000000001
 40
0.0711371013014714
 40
0.0711371013014714
 40
0.0711371013014714
 40
0.0711371013014714
 40
2.620734546527294
 40
2.620734546527294
 40
2.620734546527294
 40
3.620734546527294
 40
3.620734546527294
 40
3.620734546527294
 40
4.524234369620451
 40
5.524234369620451
 40
5.524234369620451
 40
5.524234369620451
 40
5.524234369620451
 10
43.68605343016188
 20
14.03033236231067
 30
0.0
 41
1.0
 10
42.84418603801998
 20
13.91395006253967
 30
0.0
 41
0.9999811127612036
 10
42.00146644705107
 20
13.80390808578084
 30
0.0
 41
0.9999811127612036
 10
41.15794240719362
 20
13.70021266720147
 30
0.0
 41
1.0
 10
38.5509564918473
 20
13.37973277220283
 30
0.0
 41
1.0
 10
33.98411201534515
 20
12.88066462795018
 30
0.0
 41
1.0
 10
31.36844530094288
 20
12.64261716227833
 30
0.0
 41
1.0
 10
31.04418760904559
 20
12.61310701048577
 30
0.0
 41
1.0
 10
30.36007589396368
 20
12.56152195074523
 30
0.0
 41
1.0
 10
29.67462867919011
 20
12.53224887786764
 30
0.0
 41
1.0
 10
29.31437297830664
 20
12.52302176217804
 30
0.0
 41
1.0
  0
SPLINE
  5
9C
330
1F
100
AcDbEntity
  8
Layer 01
100
AcDbSpline
210
0.0
220
0.0
230
1.0
 70
    15
 71
     2
 72
    12
 73
     9
 74
     0
 42
0.000000001
 43
0.0000000001
 40
0.0
 40
0.0
 40
0.0
 40
1.570796326794897
 40
1.570796326794897
 40
3.141592653589793
 40
3.141592653589793
 40
4.71238898038469
 40
4.71238898038469
 40
6.283185307179586
 40
6.283185307179586
 40
6.283185307179586
 10
35.1732761557993
 20
10.34836917861818
 30
0.0
 41
1.0
 10
35.17331508084499
 20
10.18052762246311
 30
0.0
 41
0.7071067811865475
 10
35.47707522260558
 20
10.18059806912523
 30
0.0
 41
1.0
 10
35.78083536436613
 20
10.18066851578736
 30
0.0
 41
0.7071067811865475
 10
35.78079643932048
 20
10.34851007194243
 30
0.0
 41
1.0
 10
35.78075751427478
 20
10.51635162809751
 30
0.0
 41
0.7071067811865475
 10
35.47699737251421
 20
10.51628118143539
 30
0.0
 41
1.0
 10
35.17323723075359
 20
10.51621073477326
 30
0.0
 41
0.7071067811865475
 10
35.1732761557993
 20
10.34836917861818
 30
0.0
 41
1.0
  0
SPLINE
  5
9D
330
1F
100
AcDbEntity
  8
Layer 01
370
    -3
100
AcDbSpline
210
0.0
220
0.0
230
1.0
 70
     8
 71
     3
 72
    18
 73
    14
 74
     0
 42
0.000000001
 43
0.0000000001
 40
-6.253548368907858
 40
-6.253548368907858
 40
-6.253548368907858
 40
-6.253548368907858
 40
-5.0
 40
-4.0
 40
-3.0
 40
-2.0
 40
-0.9999999999999998
 40
0.0000000000000004
 40
0.0000000000000004
 40
0.0000000000000004
 40
1.0
 40
2.0
 40
3.0
 40
3.0
 40
3.0
 40
3.0
 10
43.39959706970757
 20
13.99098095155334
 30
0.0
 10
43.31238714220387
 20
14.03536601744172
 30
0.0
 10
43.10889169958818
 20
14.13360738246708
 30
0.0
 10
43.05281033907187
 20
14.4281360911487
 30
0.0
 10
42.99789108371394
 20
14.68131012281087
 30
0.0
 10
42.95912154031583
 20
14.94227062845674
 30
0.0
 10
42.92464255134954
 20
15.20241016530304
 30
0.0
 10
42.90420587700626
 20
15.37645985203631
 30
0.0
 10
42.89537593524895
 20
15.46356967085078
 30
0.0
 10
42.82110230487083
 20
16.19629958717068
 30
0.0
 10
42.67945891146991
 20
17.66254567241833
 30
0.0
 10
42.45025455250624
 20
19.85987854863751
 30
0.0
 10
42.28722798622238
 20
21.32440474926671
 30
0.0
 10
42.16384693229278
 20
22.05046867760484
 30
0.0
  0
SPLINE
  5
9E
330
1F
100
AcDbEntity
  8
Layer 01
370
    -3
100
AcDbSpline
210
0.0
220
0.0
230
1.0
 70
     8
 71
     2
 72
    21
 73
    18
 74
     0
 42
0.000000001
 43
0.0000000001
 40
0.0
 40
0.0
 40
0.0
 40
1.0
 40
2.0
 40
3.0
 40
4.0
 40
4.0
 40
5.0
 40
6.0
 40
7.0
 40
8.0
 40
9.0
 40
10.0
 40
11.0
 40
12.0
 40
13.0
 40
13.0
 40
14.0
 40
14.0
 40
14.0
 10
29.57299956275529
 20
24.24810265503124
 30
0.0
 10
29.31721177618863
 20
24.6256539925681
 30
0.0
 10
28.83049711202068
 20
25.39705287250972
 30
0.0
 10
28.36026663291113
 20
26.17855328270679
 30
0.0
 10
27.91563728955759
 20
26.97492217499809
 30
0.0
 10
27.70098723775448
 20
27.37726698302918
 30
0.0
 10
27.59588831998025
 20
27.57445248924258
 30
0.0
 10
27.39046013820575
 20
27.97131220917946
 30
0.0
 10
27.18323210790547
 20
28.36728391839961
 30
0.0
 10
26.95537979269514
 20
28.75190095209597
 30
0.0
 10
26.69863054059371
 20
29.11806187929475
 30
0.0
 10
26.40160117168907
 20
29.45286841546753
 30
0.0
 10
26.05534637932436
 20
29.73728956198802
 30
0.0
 10
25.65799917398084
 20
29.9459758408451
 30
0.0
 10
25.20183189958743
 20
30.05238086710568
 30
0.0
 10
24.97715436888276
 20
30.0460031458425
 30
0.0
 10
24.63623276425892
 20
30.03632570742636
 30
0.0
 10
24.29522950936536
 20
30.03058851632473
 30
0.0
  0
SPLINE
  5
9F
330
1F
100
AcDbEntity
  8
Layer 01
370
    -3
100
AcDbSpline
210
0.0
220
0.0
230
1.0
 70
     8
 71
     3
 72
    41
 73
    37
 74
     0
 42
0.000000001
 43
0.0000000001
 40
-18.0
 40
-18.0
 40
-18.0
 40
-18.0
 40
-17.0
 40
-16.0
 40
-15.0
 40
-14.0
 40
-13.0
 40
-12.0
 40
-11.0
 40
-10.0
 40
-9.0
 40
-8.0
 40
-7.0
 40
-6.0
 40
-5.0
 40
-4.0
 40
-3.0
 40
-2.0
 40
-1.0
 40
0.0
 40
0.0
 40
0.0
 40
1.0
 40
2.0
 40
3.0
 40
4.0
 40
5.0
 40
6.0
 40
7.0
 40
8.0
 40
9.0
 40
10.0
 40
11.0
 40
12.0
 40
13.0
 40
14.0
 40
14.0
 40
14.0
 40
14.0
 10
43.66210655432315
 20
14.25636460632589
 30
0.0
 10
43.74555685358439
 20
14.26518828907276
 30
0.0
 10
43.9132426793162
 20
14.27454267341722
 30
0.0
 10
44.16504867500498
 20
14.27097224755386
 30
0.0
 10
44.41629200014015
 20
14.2545473499438
 30
0.0
 10
44.66668436154322
 20
14.22837812040784
 30
0.0
 10
44.91615521468256
 20
14.19463776800046
 30
0.0
 10
45.16473238192791
 20
14.15489549403659
 30
0.0
 10
45.4124867599657
 20
14.11033807611472
 30
0.0
 10
45.65950027780599
 20
14.06185818790703
 30
0.0
 10
45.90587179062814
 20
14.01022722615934
 30
0.0
 10
46.15168003025985
 20
13.95597422487089
 30
0.0
 10
46.39702924912081
 20
13.8997262794946
 30
0.0
 10
46.64206318405877
 20
13.84198261366736
 30
0.0
 10
46.88675881489598
 20
13.7833370671989
 30
0.0
 10
47.13145055212374
 20
13.72276438005298
 30
0.0
 10
47.37468936636685
 20
13.66336460603199
 30
0.0
 10
47.62277471737616
 20
13.59727335748381
 30
0.0
 10
47.87004540355053
 20
13.68446272380901
 30
0.0
 10
47.99491926218298
 20
13.80331885574679
 30
0.0
 10
48.02572656618975
 20
13.88304314419876
 30
0.0
 10
48.05483313094101
 20
14.01718326046046
 30
0.0
 10
47.98806010591602
 20
14.30137071035692
 30
0.0
 10
47.65910875910771
 20
14.56367217194815
 30
0.0
 10
47.29056500315107
 20
14.73767916000552
 30
0.0
 10
46.91261552142754
 20
14.89335951869146
 30
0.0
 10
46.52689820399615
 20
15.02771210058098
 30
0.0
 10
46.14099318786816
 20
15.16150951323853
 30
0.0
 10
45.74948897453737
 20
15.27811229476041
 30
0.0
 10
45.35468993992322
 20
15.38294738738485
 30
0.0
 10
44.95519366422053
 20
15.46844843061472
 30
0.0
 10
44.55228023232354
 20
15.5358410565662
 30
0.0
 10
44.14668913139357
 20
15.5845120294621
 30
0.0
 10
43.73959438480094
 20
15.61829433552816
 30
0.0
 10
43.3314174834677
 20
15.63445020882665
 30
0.0
 10
43.05909157193435
 20
15.63357177053601
 30
0.0
 10
42.92296436956499
 20
15.63280012176418
 30
0.0
  0
SPLINE
  5
A0
330
1F
100
AcDbEntity
  8
Layer 01
370
    -3
100
AcDbSpline
210
0.0
220
0.0
230
1.0
 70
     8
 71
     3
 72
    24
 73
    20
 74
     0
 42
0.000000001
 43
0.0000000001
 40
0.0
 40
0.0
 40
0.0
 40
0.0
 40
1.0
 40
2.0
 40
3.0
 40
4.0
 40
5.0
 40
5.0
 40
5.0
 40
6.0
 40
7.0
 40
8.0
 40
8.0
 40
8.0
 40
9.0
 40
10.0
 40
11.0
 40
12.0
 40
13.0
 40
13.0
 40
13.0
 40
13.0
 10
28.28862193515332
 20
24.04535086183725
 30
0.0
 10
28.43381881823021
 20
24.10353620953737
 30
0.0
 10
28.74486954684841
 20
24.09927882479179
 30
0.0
 10
29.20516974028956
 20
24.09501079473401
 30
0.0
 10
29.66703913079027
 20
24.08260289825881
 30
0.0
 10
30.12808762050287
 20
24.06049404388157
 30
0.0
 10
30.43510350980438
 20
24.03834018649504
 30
0.0
 10
30.58863969743115
 20
24.02811148819912
 30
0.0
 10
31.48620866038743
 20
23.96831475712365
 30
0.0
 10
33.28167508381921
 20
23.85378890622892
 30
0.0
 10
35.97507521794162
 20
23.68507694076435
 30
0.0
 10
37.76976062322345
 20
23.55856382271833
 30
0.0
 10
38.66659386747247
 20
23.4885582245384
 30
0.0
 10
38.93788907188645
 20
23.46738128535809
 30
0.0
 10
39.48072740328942
 20
23.42908223593903
 30
0.0
 10
40.29406252690453
 20
23.35655716754312
 30
0.0
 10
41.0993280308827
 20
23.21427488985298
 30
0.0
 10
41.84581216130951
 20
22.82518184393594
 30
0.0
 10
42.10526480453953
 20
22.31462815302204
 30
0.0
 10
42.16384693229278
 20
22.05046867760484
 30
0.0
  0
SPLINE
  5
A1
330
1F
100
AcDbEntity
  8
Layer 01
370
    -3
100
AcDbSpline
210
0.0
220
0.0
230
1.0
 70
     8
 71
     3
 72
    22
 73
    18
 74
     0
 42
0.000000001
 43
0.0000000001
 40
0.0
 40
0.0
 40
0.0
 40
0.0
 40
1.0
 40
2.0
 40
3.0
 40
3.0
 40
3.0
 40
4.0
 40
5.0
 40
6.0
 40
6.0
 40
6.0
 40
7.0
 40
8.0
 40
9.0
 40
10.0
 40
11.0
 40
11.0
 40
11.0
 40
11.0
 10
42.33858956519256
 20
20.8245840985898
 30
0.0
 10
42.41402200289932
 20
20.23815269171051
 30
0.0
 10
42.55222621164299
 20
19.06371784548706
 30
0.0
 10
42.74525274776315
 20
17.300476198404
 30
0.0
 10
42.8698545196159
 20
16.12453793109319
 30
0.0
 10
42.93563744671624
 20
15.53695064034774
 30
0.0
 10
42.94913469688987
 20
15.41639029115657
 30
0.0
 10
42.9754519406238
 20
15.17462833161546
 30
0.0
 10
43.02653802640265
 20
14.81543387965727
 30
0.0
 10
43.06325813360542
 20
14.57222627231064
 30
0.0
 10
43.12205086424223
 20
14.46562842562133
 30
0.0
 10
43.14963299196185
 20
14.43702265471798
 30
0.0
 10
43.21030628495819
 20
14.38515703496842
 30
0.0
 10
43.3138377057042
 20
14.32516625577119
 30
0.0
 10
43.42583668663156
 20
14.28321754192346
 30
0.0
 10
43.54279946816007
 20
14.25880747878651
 30
0.0
 10
43.62241844790273
 20
14.25386754687343
 30
0.0
 10
43.66210511147401
 20
14.25636445345462
 30
0.0
  0
SPLINE
  5
A2
330
1F
100
AcDbEntity
  8
Layer 01
370
    -3
100
AcDbSpline
210
0.0
220
0.0
230
1.0
 70
     8
 71
     3
 72
    52
 73
    48
 74
     0
 42
0.000000001
 43
0.0000000001
 40
0.0
 40
0.0
 40
0.0
 40
0.0
 40
1.0
 40
2.0
 40
3.0
 40
4.0
 40
5.0
 40
5.0
 40
5.0
 40
6.0
 40
7.0
 40
8.0
 40
9.0
 40
9.0
 40
9.0
 40
10.0
 40
11.0
 40
12.0
 40
13.0
 40
14.0
 40
15.0
 40
15.0
 40
15.0
 40
15.13849084810448
 40
15.13849084810448
 40
15.13849084810448
 40
15.31683728278968
 40
15.31683728278968
 40
15.31683728278968
 40
16.31683728278968
 40
17.31683728278968
 40
18.31683728278968
 40
18.31683728278968
 40
18.31683728278968
 40
19.31683728278968
 40
19.31683728278968
 40
19.31683728278968
 40
20.31683728278968
 40
21.31683728278968
 40
22.31683728278968
 40
23.31683728278968
 40
24.31683728278968
 40
25.31683728278968
 40
25.31683728278968
 40
25.31683728278968
 40
26.31683728278968
 40
27.31683728278968
 40
27.31683728278968
 40
27.31683728278968
 40
27.31683728278968
 10
42.14436172914458
 20
22.13497839077239
 30
0.0
 10
42.0857837181002
 20
22.40116005445502
 30
0.0
 10
41.84605472036762
 20
22.92112042445028
 30
0.0
 10
41.1285799280347
 20
23.36951935405482
 30
0.0
 10
40.32735397212301
 20
23.56738376135112
 30
0.0
 10
39.5112957367046
 20
23.67261207638819
 30
0.0
 10
38.96485763591727
 20
23.71825701730125
 30
0.0
 10
38.69164879311555
 20
23.74078520523695
 30
0.0
 10
38.02480578154794
 20
23.79577158318188
 30
0.0
 10
36.69023979782244
 20
23.89489425888362
 30
0.0
 10
34.68670266352279
 20
24.01845272345322
 30
0.0
 10
32.68215634170716
 20
24.12406277456743
 30
0.0
 10
31.3454380159454
 20
24.18727080766729
 30
0.0
 10
30.67705136698706
 20
24.21825718038053
 30
0.0
 10
30.55871648879989
 20
24.22374251650525
 30
0.0
 10
30.32208974405958
 20
24.23541995693211
 30
0.0
 10
29.96689368093618
 20
24.24821181419385
 30
0.0
 10
29.61152446624723
 20
24.24952674009159
 30
0.0
 10
29.25599716874066
 20
24.24246676259889
 30
0.0
 10
28.90162531949176
 20
24.22849351640992
 30
0.0
 10
28.66348130594784
 20
24.20881043380187
 30
0.0
 10
28.55480793336048
 20
24.15753593597711
 30
0.0
 10
28.51644646667222
 20
24.14024619015245
 30
0.0
 10
28.47789231574532
 20
24.12338631907981
 30
0.0
 10
28.43910563762842
 20
24.10691409899491
 30
0.0
 10
28.38918228523201
 20
24.0857122717704
 30
0.0
 10
28.33901064753442
 20
24.06521040994204
 30
0.0
 10
28.2886219385243
 20
24.04535085328413
 30
0.0
 10
28.00282001316882
 20
23.93798250183824
 30
0.0
 10
27.81963509327048
 20
23.35139921757433
 30
0.0
 10
27.92509444071644
 20
22.5184361370314
 30
0.0
 10
28.04983318013643
 20
21.96798377141344
 30
0.0
 10
28.12378776536488
 20
21.69702063582989
 30
0.0
 10
28.80981631368363
 20
19.18347200354303
 30
0.0
 10
29.49584615544123
 20
16.66992405463343
 30
0.0
 10
30.18187439295161
 20
14.15637525570012
 30
0.0
 10
30.20299870612789
 20
14.08143434036692
 30
0.0
 10
30.24880366993864
 20
13.93256408433903
 30
0.0
 10
30.30308249324443
 20
13.70516106315266
 30
0.0
 10
30.34233679008295
 20
13.47498963378029
 30
0.0
 10
30.36269849969526
 20
13.24114936620923
 30
0.0
 10
30.35385056222802
 20
13.01021042285258
 30
0.0
 10
30.31603259283824
 20
12.84218064758948
 30
0.0
 10
30.2417006339943
 20
12.80821012879921
 30
0.0
 10
30.09411731784255
 20
12.74076293794837
 30
0.0
 10
29.79130419123587
 20
12.62269046885087
 30
0.0
 10
29.47526954065017
 20
12.54467257311146
 30
0.0
 10
29.31437297830664
 20
12.52302176217804
 30
0.0
  0
SPLINE
  5
A3
330
1F
100
AcDbEntity
  8
Layer 01
370
    -3
100
AcDbSpline
210
0.0
220
0.0
230
1.0
 70
     8
 71
     3
 72
    14
 73
    10
 74
     0
 42
0.000000001
 43
0.0000000001
 40
0.0
 40
0.0
 40
0.0
 40
0.0
 40
1.0
 40
2.0
 40
3.0
 40
3.0
 40
3.0
 40
4.0
 40
5.0
 40
5.0
 40
5.0
 40
5.0
 10
30.3292729238282
 20
13.5448424130631
 30
0.0
 10
30.32942717126249
 20
13.49470665547298
 30
0.0
 10
30.32632574939018
 20
13.39376693171225
 30
0.0
 10
30.30576600137729
 20
13.24582400980306
 30
0.0
 10
30.271065745887
 20
13.14091692221823
 30
0.0
 10
30.22362613061802
 20
13.11913979179279
 30
0.0
 10
30.0777034288287
 20
13.05215405232425
 30
0.0
 10
29.77807732330854
 20
12.93534591290511
 30
0.0
 10
29.46555532769551
 20
12.85747532668301
 30
0.0
 10
29.30636112000792
 20
12.83591920583454
 30
0.0
  0
SPLINE
  5
A4
330
1F
100
AcDbEntity
  8
Layer 01
370
    -3
100
AcDbSpline
210
0.0
220
0.0
230
1.0
 70
     8
 71
     3
 72
    13
 73
     9
 74
     0
 42
0.000000001
 43
0.0000000001
 40
0.0
 40
0.0
 40
0.0
 40
0.0
 40
1.0
 40
2.0
 40
3.0
 40
4.0
 40
5.0
 40
6.0
 40
6.0
 40
6.0
 40
6.0
 10
24.97715436888276
 20
30.0460031458425
 30
0.0
 10
25.41027649345656
 20
30.0459446313761
 30
0.0
 10
26.07418474723136
 20
29.47606590882094
 30
0.0
 10
26.73071753744591
 20
28.43272843993365
 30
0.0
 10
27.33457585908769
 20
27.34570636734533
 30
0.0
 10
27.97858022413703
 20
26.28534048496554
 30
0.0
 10
28.65973762705795
 20
25.24779849716631
 30
0.0
 10
29.13410415171194
 20
24.5696680651542
 30
0.0
 10
29.39181228882822
 20
24.24589981288734
 30
0.0
  0
SPLINE
  5
A5
330
1F
100
AcDbEntity
  8
Layer 01
370
    -3
100
AcDbSpline
210
0.0
220
0.0
230
1.0
 70
     8
 71
     3
 72
     8
 73
     4
 74
     0
 42
0.000000001
 43
0.0000000001
 40
0.0
 40
0.0
 40
0.0
 40
0.0
 40
1.0
 40
1.0
 40
1.0
 40
1.0
 10
29.30636315249697
 20
12.8359196568772
 30
0.0
 10
27.63598564088386
 20
18.56747605102479
 30
0.0
 10
25.96560739040655
 20
24.29903222984146
 30
0.0
 10
24.29522950936536
 20
30.03058851632473
 30
0.0
  0
SPLINE
  5
A6
330
1F
100
AcDbEntity
  8
Layer 01
370
    -3
100
AcDbSpline
210
0.0
220
0.0
230
1.0
 70
    24
 71
     2
 72
     6
 73
     3
 74
     0
 42
0.000000001
 43
0.0000000001
 40
0.0
 40
0.0
 40
0.0
 40
0.3129999999999408
 40
0.3129999999999408
 40
0.3129999999999408
 10
29.30636112000792
 20
12.83591920583454
 30
0.0
 10
29.31036704915728
 20
12.67947048400629
 30
0.0
 10
29.31437297830664
 20
12.52302176217804
 30
0.0
  0
SPLINE
  5
A7
330
1F
100
AcDbEntity
  8
Layer 01
370
    -3
100
AcDbSpline
210
0.0
220
0.0
230
1.0
 70
    24
 71
     2
 72
     6
 73
     3
 74
     0
 42
0.000000001
 43
0.0000000001
 40
0.0857027756483554
 40
0.0857027756483554
 40
0.0857027756483554
 40
0.3129999999999872
 40
0.3129999999999872
 40
0.3129999999999872
 10
43.68605343016188
 20
14.03033236231067
 30
0.0
 10
43.67407927081794
 20
14.14334840788265
 30
0.0
 10
43.66210511147401
 20
14.25636445345462
 30
0.0
  0
SPLINE
  5
A8
330
1F
100
AcDbEntity
  8
Layer 01
370
    -3
100
AcDbSpline
210
0.0
220
0.0
230
1.0
 70
     8
 71
     3
 72
     8
 73
     4
 74
     0
 42
0.000000001
 43
0.0000000001
 40
1.171191079319495
 40
1.171191079319495
 40
1.171191079319495
 40
1.171191079319495
 40
1.177435375905397
 40
1.177435375905397
 40
1.177435375905397
 40
1.177435375905397
 10
37.85647072867468
 20
13.52223271875623
 30
0.0
 10
37.85519501791313
 20
13.52065570446882
 30
0.0
 10
37.853915271266
 20
13.51908224801694
 30
0.0
 10
37.85263150913468
 20
13.51751238526129
 30
0.0
  0
SPLINE
  5
A9
330
1F
100
AcDbEntity
  8
Layer 01
370
    -3
100
AcDbSpline
210
0.0
220
0.0
230
1.0
 70
    15
 71
     3
 72
    41
 73
    37
 74
     0
 42
0.000000001
 43
0.0000000001
 40
0.0
 40
0.0
 40
0.0
 40
0.0
 40
0.1383626642783725
 40
0.1383626642783725
 40
0.1383626642783725
 40
0.48880278967803
 40
0.48880278967803
 40
0.48880278967803
 40
1.062715552849623
 40
1.062715552849623
 40
1.062715552849623
 40
7.332050809565348
 40
7.332050809565348
 40
7.332050809565348
 40
8.332050809565347
 40
8.332050809565347
 40
8.332050809565347
 40
8.586700412146529
 40
8.586700412146529
 40
8.586700412146529
 40
9.586700412146529
 40
9.586700412146529
 40
9.586700412146529
 40
15.85451322130595
 40
15.85451322130595
 40
15.85451322130595
 40
16.4284663383304
 40
16.4284663383304
 40
16.4284663383304
 40
16.53067804157141
 40
16.53067804157141
 40
16.53067804157141
 40
16.81207525873757
 40
16.81207525873757
 40
16.81207525873757
 40
17.19758578542417
 40
17.19758578542417
 40
17.19758578542417
 40
17.19758578542417
 10
-1.084234289786451
 20
11.33017032153515
 30
0.0
 41
1.0
 10
-1.084153793685118
 20
11.28404950368848
 30
0.0
 41
1.0
 10
-1.084073297583785
 20
11.23792868584181
 30
0.0
 41
1.0
 10
-1.083992801482452
 20
11.19180786799515
 30
0.0
 41
1.0
 10
-1.083608224237873
 20
10.97146156141844
 30
0.0
 41
0.8248515578739948
 10
-1.232188491158321
 20
10.8087454067089
 30
0.0
 41
0.8248515578739948
 10
-1.451662795398448
 20
10.78915784688484
 30
0.0
 41
1.0
 10
-1.642209059771271
 20
10.7721449435155
 30
0.0
 41
1.0
 10
-1.832755324144093
 20
10.75513204014616
 30
0.0
 41
1.0
 10
-2.023301588516915
 20
10.73811913677682
 30
0.0
 41
1.0
 10
-4.104826020731035
 20
10.55256623809471
 30
0.0
 41
1.0
 10
-6.186350452945153
 20
10.3670133394126
 30
0.0
 41
1.0
 10
-8.267874885159273
 20
10.18146044073049
 30
0.0
 41
1.0
 10
-8.293485176942426
 20
10.17917746782647
 30
0.0
 41
1.0
 10
-8.30829642048593
 20
10.19155322628973
 30
0.0
 41
1.0
 10
-8.310584433694459
 20
10.21716071189615
 30
0.0
 41
1.0
 10
-8.31813860217512
 20
10.30170710346238
 30
0.0
 41
1.0
 10
-8.325692770655783
 20
10.38625349502861
 30
0.0
 41
1.0
 10
-8.333246939136444
 20
10.47079988659484
 30
0.0
 41
1.0
 10
-8.335566581191813
 20
10.49676136283252
 30
0.0
 41
1.0
 10
-8.322301913996796
 20
10.51131583450491
 30
0.0
 41
1.0
 10
-8.29603516999066
 20
10.51366275219958
 30
0.0
 41
1.0
 10
-6.215054283368431
 20
10.69959713614625
 30
0.0
 41
1.0
 10
-4.134073396746231
 20
10.88553152009292
 30
0.0
 41
1.0
 10
-2.053092260334438
 20
11.07146310839708
 30
0.0
 41
1.0
 10
-1.862531802512781
 20
11.08846829755167
 30
0.0
 41
1.0
 10
-1.671971344691125
 20
11.10547348670626
 30
0.0
 41
1.0
 10
-1.481410886869469
 20
11.12247867586084
 30
0.0
 41
1.0
 10
-1.443939664194627
 20
11.12582289339199
 30
0.0
 41
0.8248515578757404
 10
-1.418572301549943
 20
11.15360370029348
 30
0.0
 41
0.8248515578757404
 10
-1.418637961079469
 20
11.19122380141605
 30
0.0
 41
1.0
 10
-1.418801660508801
 20
11.28502273095941
 30
0.0
 41
1.0
 10
-1.418965359938132
 20
11.37882166050278
 30
0.0
 41
1.0
 10
-1.419129059367464
 20
11.47262059004612
 30
0.0
 41
1.0
 10
-1.284967769576693
 20
11.50007606379034
 30
0.0
 41
0.8826428105183357
 10
-1.158493516877823
 20
11.44627919118101
 30
0.0
 41
0.8826428105183357
 10
-1.084234289786451
 20
11.33017032153515
 30
0.0
 41
1.0
  0
SPLINE
  5
AA
330
1F
100
AcDbEntity
  8
Layer 01
370
    -3
100
AcDbSpline
210
0.0
220
0.0
230
1.0
 70
    12
 71
     3
 72
    58
 73
    54
 74
     0
 42
0.000000001
 43
0.0000000001
 40
-7.026826110993997
 40
-7.026826110993997
 40
-7.026826110993997
 40
-7.026826110993997
 40
-6.976477371487086
 40
-6.926128631980174
 40
-6.926128631980174
 40
-6.926128631980174
 40
-5.048000372036355
 40
-5.048000372036355
 40
-5.048000372036355
 40
-4.048000372036354
 40
-4.048000372036354
 40
-4.048000372036354
 40
-3.048000372036354
 40
-2.048000372036354
 40
-1.048000372036354
 40
-0.0958211991766293
 40
-0.0958211991766293
 40
-0.0958211991766293
 40
-0.0281080309523327
 40
-0.0281080309523327
 40
-0.0281080309523327
 40
0.0000000000000009
 40
0.0000000000000009
 40
0.0000000000000009
 40
1.000000000000001
 40
2.000000000000001
 40
3.000000000000002
 40
4.000000000000002
 40
5.000000000000002
 40
6.000000000000003
 40
7.000000000000003
 40
7.000000000000003
 40
7.000000000000003
 40
7.02810803041165
 40
7.02810803041165
 40
7.02810803041165
 40
7.095821198714591
 40
7.095821198714591
 40
7.095821198714591
 40
8.048000371788728
 40
9.048000371788728
 40
10.04800037178873
 40
11.04800037178873
 40
11.04800037178873
 40
11.04800037178873
 40
12.04800037178873
 40
12.04800037178873
 40
12.04800037178873
 40
13.92612863173255
 40
13.92612863173255
 40
13.92612863173255
 40
13.97647737123946
 40
14.02682611074637
 40
14.02682611074637
 40
14.02682611074637
 40
14.02682611074637
 10
-1.943200045659268
 20
11.47052738954169
 30
0.0
 41
1.0
 10
-1.959360874958264
 20
11.47049031014709
 30
0.0
 41
1.0
 10
-2.152459552431452
 20
11.49762284604695
 30
0.0
 41
1.0
 10
-2.183284558273442
 20
11.51236180090875
 30
0.0
 41
1.0
 10
-2.197032790083455
 20
11.52168922571894
 30
0.0
 41
1.0
 10
-2.694616622018117
 20
11.84459191173494
 30
0.0
 41
1.0
 10
-3.192200453952779
 20
12.16749459775095
 30
0.0
 41
1.0
 10
-3.689784285887441
 20
12.49039728376695
 30
0.0
 41
1.0
 10
-3.720896031023727
 20
12.51058697930447
 30
0.0
 41
1.0
 10
-3.744201775371124
 20
12.54977898514634
 30
0.0
 41
1.0
 10
-3.748708904153716
 20
12.58691344439405
 30
0.0
 41
1.0
 10
-3.75806718159086
 20
12.66401675980438
 30
0.0
 41
1.0
 10
-3.771993599039206
 20
12.8188629974948
 30
0.0
 41
1.0
 10
-3.776760659483102
 20
13.05188245793344
 30
0.0
 41
1.0
 10
-3.782595257169817
 20
13.28117835633236
 30
0.0
 41
1.0
 10
-3.773631721583428
 20
13.43271061910453
 30
0.0
 41
1.0
 10
-3.767207170080015
 20
13.50638182067252
 30
0.0
 41
1.0
 10
-3.765079837088735
 20
13.53077623599009
 30
0.0
 41
0.8529153972233526
 10
-3.748137283327
 20
13.54845568497395
 30
0.0
 41
0.8529153972233526
 10
-3.723855475165009
 20
13.55161904343078
 30
0.0
 41
1.0
 10
-3.713792773302837
 20
13.55292998093684
 30
0.0
 41
1.0
 10
-3.703730071440665
 20
13.55424091844289
 30
0.0
 41
1.0
 10
-3.693667369578492
 20
13.55555185594894
 30
0.0
 41
1.0
 10
-3.335666416781862
 20
13.60219110678347
 30
0.0
 41
1.0
 10
-2.614465093923286
 20
13.57115887198758
 30
0.0
 41
1.0
 10
-1.53516554707997
 20
13.54136623867869
 30
0.0
 41
1.0
 10
-0.4547257322901146
 20
13.52611536103503
 30
0.0
 41
1.0
 10
0.625545750744152
 20
13.52611536106302
 30
0.0
 41
1.0
 10
1.705985560657496
 20
13.5413662387062
 30
0.0
 41
1.0
 10
2.785285109551182
 20
13.57115887181683
 30
0.0
 41
1.0
 10
3.506486425869355
 20
13.60219110697594
 30
0.0
 41
1.0
 10
3.86448738457031
 20
13.55555185594894
 30
0.0
 41
1.0
 10
3.874550086404876
 20
13.5542409184627
 30
0.0
 41
1.0
 10
3.884612788239442
 20
13.55292998097646
 30
0.0
 41
1.0
 10
3.894675490074007
 20
13.55161904349021
 30
0.0
 41
1.0
 10
3.918957298274116
 20
13.54845568506753
 30
0.0
 41
0.8529153968948395
 10
3.93589985207306
 20
13.53077623607309
 30
0.0
 41
0.8529153968948395
 10
3.938027185067531
 20
13.50638182072228
 30
0.0
 41
1.0
 10
3.944451736573313
 20
13.43271061913781
 30
0.0
 41
1.0
 10
3.953415272162118
 20
13.28117835634902
 30
0.0
 41
1.0
 10
3.947580674474978
 20
13.05188245793344
 30
0.0
 41
1.0
 10
3.942813614031081
 20
12.8188629974948
 30
0.0
 41
1.0
 10
3.928887196582735
 20
12.66401675980438
 30
0.0
 41
1.0
 10
3.919528919145591
 20
12.58691344439405
 30
0.0
 41
1.0
 10
3.915021790362999
 20
12.54977898514634
 30
0.0
 41
1.0
 10
3.891716046015603
 20
12.51058697930447
 30
0.0
 41
1.0
 10
3.860604300879316
 20
12.49039728376695
 30
0.0
 41
1.0
 10
3.363020468944654
 20
12.16749459775095
 30
0.0
 41
1.0
 10
2.865436637009992
 20
11.84459191173494
 30
0.0
 41
1.0
 10
2.36785280507533
 20
11.52168922571894
 30
0.0
 41
1.0
 10
2.354104573265317
 20
11.51236180090875
 30
0.0
 41
1.0
 10
2.323279567423327
 20
11.49762284604695
 30
0.0
 41
1.0
 10
2.13018088995014
 20
11.47049031014709
 30
0.0
 41
1.0
 10
2.114020060651143
 20
11.47052738954169
 30
0.0
 41
1.0
  0
SPLINE
  5
AB
330
1F
100
AcDbEntity
  8
Layer 01
370
    -3
100
AcDbSpline
210
0.0
220
0.0
230
1.0
 70
    15
 71
     3
 72
    69
 73
    65
 74
     0
 42
0.000000001
 43
0.0000000001
 40
-5.571270781496727
 40
-5.571270781496727
 40
-5.571270781496727
 40
-5.571270781496727
 40
-4.571270781496727
 40
-4.571270781496727
 40
-4.571270781496727
 40
-4.046612498065096
 40
-4.046612498065096
 40
-4.046612498065096
 40
-3.999776100892931
 40
-3.999776100892931
 40
-3.999776100892931
 40
-3.145950732749176
 40
-3.145950732749176
 40
-3.145950732749176
 40
-2.145950732749176
 40
-2.145950732749176
 40
-2.145950732749176
 40
0.8540492672508243
 40
0.8540492672508243
 40
0.8540492672508243
 40
0.8887546070008104
 40
0.8887546070008104
 40
0.8887546070008104
 40
0.9667723879017602
 40
0.9667723879017602
 40
0.9667723879017602
 40
1.0
 40
2.0
 40
3.0
 40
3.0
 40
3.0
 40
6.072919420562187
 40
6.072919420562187
 40
6.072919420562187
 40
7.072919420562187
 40
8.072919420562187
 40
8.106147032660427
 40
8.106147032660427
 40
8.106147032660427
 40
8.184164813561377
 40
8.184164813561377
 40
8.184164813561377
 40
8.218870153311364
 40
8.218870153311364
 40
8.218870153311364
 40
11.21887015331136
 40
11.21887015331136
 40
11.21887015331136
 40
12.21887015331136
 40
12.21887015331136
 40
12.21887015331136
 40
13.07269552145512
 40
13.07269552145512
 40
13.07269552145512
 40
13.11953191862728
 40
13.11953191862728
 40
13.11953191862728
 40
13.64419020205892
 40
13.64419020205892
 40
13.64419020205892
 40
14.64419020205892
 40
14.64419020205892
 40
14.64419020205892
 40
16.19524425349439
 40
16.19524425349439
 40
16.19524425349439
 40
16.19524425349439
 10
-0.6901170182217982
 20
10.84180765204094
 30
0.0
 41
1.0
 10
-0.7218611924792526
 20
10.84114631507725
 30
0.0
 41
1.0
 10
-0.7526604292218622
 20
10.85795500258863
 30
0.0
 41
1.0
 10
-0.7707422194313893
 20
10.88377847523469
 30
0.0
 41
1.0
 10
-0.871044899027673
 20
11.02702554717102
 30
0.0
 41
1.0
 10
-0.9713475786239509
 20
11.17027261910735
 30
0.0
 41
1.0
 10
-1.070632230673648
 20
11.3142325216059
 30
0.0
 41
1.0
 10
-1.079486433791363
 20
11.32781245807055
 30
0.0
 41
0.9282053529693961
 10
-1.093517460971602
 20
11.33593291763273
 30
0.0
 41
0.9282053529693961
 10
-1.109703254282721
 20
11.33684488370846
 30
0.0
 41
1.0
 10
-1.311076653091827
 20
11.34819098857575
 30
0.0
 41
1.0
 10
-1.512450051900932
 20
11.35953709344305
 30
0.0
 41
1.0
 10
-1.713823450710038
 20
11.37088319831035
 30
0.0
 41
1.0
 10
-1.886294261070134
 20
11.38060082691704
 30
0.0
 41
1.0
 10
-1.941701127596758
 20
11.41171650008744
 30
0.0
 41
1.0
 10
-1.979491463765839
 20
11.57714534913388
 30
0.0
 41
1.0
 10
-2.004184216769787
 20
11.73398284411448
 30
0.0
 41
0.9977343993837785
 10
-2.015873934530474
 20
11.89232134979575
 30
0.0
 41
0.9977343993837785
 10
-2.014481164352617
 20
12.05108467072957
 30
0.0
 41
1.0
 10
-2.014539632237216
 20
12.05291953671409
 30
0.0
 41
1.0
 10
-2.014598100121816
 20
12.05475440269861
 30
0.0
 41
1.0
 10
-2.014656568006416
 20
12.05658926868312
 30
0.0
 41
1.0
 10
-2.015581692835605
 20
12.08562196059313
 30
0.0
 41
0.807192318238581
 10
-1.995817496592194
 20
12.10690880165382
 30
0.0
 41
0.807192318238581
 10
-1.966796045854892
 20
12.10813699243438
 30
0.0
 41
1.0
 10
-1.963927439696533
 20
12.10825839214209
 30
0.0
 41
1.0
 10
-1.874798563349543
 20
12.11205152039836
 30
0.0
 41
1.0
 10
-1.705829556016738
 20
12.12457765876718
 30
0.0
 41
1.0
 10
-1.535434376361309
 20
12.12511218420691
 30
0.0
 41
1.0
 10
-1.451049702785156
 20
12.12637486012794
 30
0.0
 41
1.0
 10
-0.4267432292644268
 20
12.12637486012794
 30
0.0
 41
1.0
 10
0.597563244256302
 20
12.12637486012794
 30
0.0
 41
1.0
 10
1.621869717777031
 20
12.12637486012794
 30
0.0
 41
1.0
 10
1.706254391353184
 20
12.12511218420691
 30
0.0
 41
1.0
 10
1.876649571008613
 20
12.12457765876718
 30
0.0
 41
1.0
 10
2.045618578341418
 20
12.11205152039836
 30
0.0
 41
1.0
 10
2.134747454688409
 20
12.10825839214209
 30
0.0
 41
1.0
 10
2.137616060846767
 20
12.10813699243438
 30
0.0
 41
1.0
 10
2.166637511584069
 20
12.10690880165382
 30
0.0
 41
0.807192318238581
 10
2.18640170782748
 20
12.08562196059313
 30
0.0
 41
0.807192318238581
 10
2.185476582998291
 20
12.05658926868312
 30
0.0
 41
1.0
 10
2.185418115113691
 20
12.05475440269861
 30
0.0
 41
1.0
 10
2.185359647229092
 20
12.05291953671409
 30
0.0
 41
1.0
 10
2.185301179344492
 20
12.05108467072957
 30
0.0
 41
1.0
 10
2.18669394952235
 20
11.89232134979575
 30
0.0
 41
0.9977343993837785
 10
2.175004231761662
 20
11.73398284411448
 30
0.0
 41
0.9977343993837785
 10
2.150311478757715
 20
11.57714534913388
 30
0.0
 41
1.0
 10
2.112521142588633
 20
11.41171650008744
 30
0.0
 41
1.0
 10
2.057114276062009
 20
11.38060082691704
 30
0.0
 41
1.0
 10
1.884643465701913
 20
11.37088319831035
 30
0.0
 41
1.0
 10
1.683270066892807
 20
11.35953709344305
 30
0.0
 41
1.0
 10
1.481896668083702
 20
11.34819098857575
 30
0.0
 41
1.0
 10
1.280523269274596
 20
11.33684488370846
 30
0.0
 41
1.0
 10
1.264337475963477
 20
11.33593291763273
 30
0.0
 41
0.9282053529693961
 10
1.250306448783239
 20
11.32781245807055
 30
0.0
 41
0.9282053529693961
 10
1.241452245665531
 20
11.3142325216059
 30
0.0
 41
1.0
 10
1.142167593615783
 20
11.17027261910735
 30
0.0
 41
1.0
 10
1.041864914019562
 20
11.02702554717102
 30
0.0
 41
1.0
 10
0.941562234423243
 20
10.88377847523469
 30
0.0
 41
1.0
 10
0.9234804442137374
 20
10.85795500258863
 30
0.0
 41
1.0
 10
0.8926812074711279
 20
10.84114631507725
 30
0.0
 41
1.0
 10
0.8609370332136734
 20
10.84180765204094
 30
0.0
 41
1.0
 10
0.3439190160685162
 20
10.84180765204095
 30
0.0
 41
1.0
 10
-0.173099001076641
 20
10.84180765204095
 30
0.0
 41
1.0
 10
-0.6901170182217982
 20
10.84180765204094
 30
0.0
 41
1.0
  0
SPLINE
  5
AC
330
1F
100
AcDbEntity
  8
Layer 01
370
    -3
100
AcDbSpline
210
0.0
220
0.0
230
1.0
 70
     8
 71
     3
 72
    16
 73
    12
 74
     0
 42
0.000000001
 43
0.0000000001
 40
-2.0
 40
-2.0
 40
-2.0
 40
-2.0
 40
-1.0
 40
-1.0
 40
-1.0
 40
0.0
 40
0.0
 40
0.0
 40
1.0
 40
2.0
 40
3.0
 40
3.0
 40
3.0
 40
3.0
 10
9.897869567498901
 20
14.43179465869409
 30
0.0
 10
9.523173234569603
 20
14.173244589859
 30
0.0
 10
9.13779203758861
 20
13.93161615359811
 30
0.0
 10
8.741725976555927
 20
13.70690934991142
 30
0.0
 10
8.22725772466626
 20
13.41502744470858
 30
0.0
 10
7.522901395592783
 20
12.8701526008123
 30
0.0
 10
6.981669041140776
 20
12.80817170469406
 30
0.0
 10
6.637322018925943
 20
12.76870519164166
 30
0.0
 10
5.947200555955305
 20
12.70266187618774
 30
0.0
 10
4.909754296742051
 20
12.63183501821013
 30
0.0
 10
4.217306190832403
 20
12.59905476434655
 30
0.0
 10
3.870975130284876
 20
12.58551883316714
 30
0.0
  0
SPLINE
  5
AD
330
1F
100
AcDbEntity
  8
Layer 01
370
    -3
100
AcDbSpline
210
0.0
220
0.0
230
1.0
 70
     8
 71
     3
 72
    16
 73
    12
 74
     0
 42
0.000000001
 43
0.0000000001
 40
-2.0
 40
-2.0
 40
-2.0
 40
-2.0
 40
-1.0
 40
-1.0
 40
-1.0
 40
0.0
 40
0.0
 40
0.0
 40
1.0
 40
2.0
 40
3.0
 40
3.0
 40
3.0
 40
3.0
 10
-9.727062142784519
 20
14.43179465869409
 30
0.0
 10
-9.35236580985522
 20
14.173244589859
 30
0.0
 10
-8.966984612874228
 20
13.93161615359811
 30
0.0
 10
-8.570918551841544
 20
13.70690934991142
 30
0.0
 10
-8.056450299951877
 20
13.41502744470858
 30
0.0
 10
-7.3520939708784
 20
12.8701526008123
 30
0.0
 10
-6.810861616426394
 20
12.80817170469406
 30
0.0
 10
-6.46651459421156
 20
12.76870519164166
 30
0.0
 10
-5.776393131240923
 20
12.70266187618774
 30
0.0
 10
-4.738946872027668
 20
12.63183501821013
 30
0.0
 10
-4.04649876611802
 20
12.59905476434655
 30
0.0
 10
-3.700167705570493
 20
12.58551883316714
 30
0.0
  0
SPLINE
  5
AE
330
1F
100
AcDbEntity
  8
Layer 01
370
    -3
100
AcDbSpline
210
0.0
220
0.0
230
1.0
 70
     8
 71
     3
 72
    59
 73
    55
 74
     0
 42
0.000000001
 43
0.0000000001
 40
-10.0
 40
-10.0
 40
-10.0
 40
-10.0
 40
-9.0
 40
-8.0
 40
-7.0
 40
-7.0
 40
-7.0
 40
-6.0
 40
-5.0
 40
-4.0
 40
-3.0
 40
-3.0
 40
-3.0
 40
-2.0
 40
-1.0
 40
0.0
 40
0.0
 40
0.0
 40
1.0
 40
2.0
 40
3.0
 40
4.0
 40
4.0
 40
4.0
 40
5.0
 40
6.0
 40
7.0
 40
7.0
 40
7.0
 40
8.0
 40
9.0
 40
10.0
 40
10.0
 40
10.0
 40
11.0
 40
12.0
 40
13.0
 40
14.0
 40
14.0
 40
14.0
 40
15.0
 40
16.0
 40
17.0
 40
17.0
 40
17.0
 40
18.0
 40
19.0
 40
20.0
 40
21.0
 40
21.0
 40
21.0
 40
22.0
 40
23.0
 40
24.0
 40
24.0
 40
24.0
 40
24.0
 10
-8.29534309960502
 20
15.60466703506118
 30
0.0
 10
-8.471953803220032
 20
16.32050198982803
 30
0.0
 10
-8.835111857549578
 20
17.74962100066893
 30
0.0
 10
-9.401485854315922
 20
19.88797507946408
 30
0.0
 10
-9.83298613435619
 20
21.29837027541579
 30
0.0
 10
-10.01778247664561
 20
22.01218987713931
 30
0.0
 10
-10.08335471119179
 20
22.2654781498833
 30
0.0
 10
-10.20162997437592
 20
22.77423313016079
 30
0.0
 10
-10.30751764122991
 20
23.55679220132983
 30
0.0
 10
-10.19331314167511
 20
24.33859002022685
 30
0.0
 10
-10.06847702703629
 20
24.84567362488253
 30
0.0
 10
-9.99499780729559
 20
25.09686355863175
 30
0.0
 10
-9.8692574437909
 20
25.52670908080511
 30
0.0
 10
-9.572049531843561
 20
26.37247937226902
 30
0.0
 10
-9.051672739926516
 20
27.61077801106797
 30
0.0
 10
-8.750149959413648
 20
28.45601025290155
 30
0.0
 10
-8.536922267057605
 20
28.85073806848357
 30
0.0
 10
-8.427968682667881
 20
29.05243330745922
 30
0.0
 10
-8.157951289385863
 20
29.43244561927432
 30
0.0
 10
-7.579798176002896
 20
29.82986946938021
 30
0.0
 10
-6.904062028323125
 20
29.99867115111157
 30
0.0
 10
-6.445556421836244
 20
30.03459262495012
 30
0.0
 10
-6.21576566040892
 20
30.0391864849219
 30
0.0
 10
-5.515762703071317
 20
30.05318058784346
 30
0.0
 10
-4.115417630847134
 20
30.03897060744579
 30
0.0
 10
-2.0150250566073
 20
30.041162095955
 30
0.0
 10
-0.6147355415267555
 20
30.04167294175621
 30
0.0
 10
0.0854037124444176
 20
30.0418423331414
 30
0.0
 10
0.7855429664155906
 20
30.04167294175621
 30
0.0
 10
2.185832481496135
 20
30.041162095955
 30
0.0
 10
4.286225055735969
 20
30.03897060744579
 30
0.0
 10
5.686570127960152
 20
30.05318058784346
 30
0.0
 10
6.386573085297755
 20
30.0391864849219
 30
0.0
 10
6.616363846725108
 20
30.03459262495012
 30
0.0
 10
7.074869453211988
 20
29.99867115111157
 30
0.0
 10
7.750605600891731
 20
29.82986946938021
 30
0.0
 10
8.32875871427467
 20
29.43244561927432
 30
0.0
 10
8.598776107556716
 20
29.05243330745922
 30
0.0
 10
8.70772969194644
 20
28.85073806848357
 30
0.0
 10
8.920957384302483
 20
28.45601025290155
 30
0.0
 10
9.222480164815352
 20
27.61077801106797
 30
0.0
 10
9.742856956732396
 20
26.37247937226902
 30
0.0
 10
10.04006486867974
 20
25.52670908080511
 30
0.0
 10
10.16580523218443
 20
25.09686355863175
 30
0.0
 10
10.23928445192513
 20
24.84567362488253
 30
0.0
 10
10.36412056656394
 20
24.33859002022685
 30
0.0
 10
10.47832506611877
 20
23.55679220132983
 30
0.0
 10
10.37243739926475
 20
22.77423313016079
 30
0.0
 10
10.25416213608065
 20
22.2654781498833
 30
0.0
 10
10.18858990153444
 20
22.01218987713931
 30
0.0
 10
10.00379355924503
 20
21.29837027541579
 30
0.0
 10
9.572293279204757
 20
19.88797507946408
 30
0.0
 10
9.005919282438413
 20
17.74962100066893
 30
0.0
 10
8.642761228108839
 20
16.32050198982803
 30
0.0
 10
8.466150524493855
 20
15.60466703506118
 30
0.0
  0
SPLINE
  5
AF
330
1F
100
AcDbEntity
  8
Layer 01
370
    -3
100
AcDbSpline
210
0.0
220
0.0
230
1.0
 70
    11
 71
     3
 72
    55
 73
    51
 74
     0
 42
0.000000001
 43
0.0000000001
 40
-12.0
 40
-12.0
 40
-12.0
 40
-12.0
 40
-11.0
 40
-10.0
 40
-9.0
 40
-8.0
 40
-8.0
 40
-8.0
 40
-7.0
 40
-7.0
 40
-7.0
 40
-6.0
 40
-5.0
 40
-4.0
 40
-3.0
 40
-3.0
 40
-3.0
 40
-2.0
 40
-1.0
 40
0.0
 40
0.0
 40
0.0
 40
1.0
 40
2.0
 40
3.0
 40
3.0
 40
3.0
 40
4.0
 40
5.0
 40
6.0
 40
7.0
 40
7.0
 40
7.0
 40
8.0
 40
8.0
 40
8.0
 40
9.0
 40
10.0
 40
11.0
 40
12.0
 40
12.0
 40
12.0
 40
13.0
 40
14.0
 40
15.0
 40
15.0
 40
15.0
 40
16.0
 40
17.0
 40
18.0
 40
18.0
 40
18.0
 40
18.0
 10
9.172401382786404
 20
15.62044060184069
 30
0.0
 10
9.272515520204763
 20
15.62226311157425
 30
0.0
 10
9.47377030611787
 20
15.62085019467223
 30
0.0
 10
9.770190149197333
 20
15.5743078363736
 30
0.0
 10
10.06118716743194
 20
15.47627675939415
 30
0.0
 10
10.19168965841303
 20
15.30803269544857
 30
0.0
 10
10.20802788384162
 20
15.20729595089631
 30
0.0
 10
10.21020533361985
 20
15.19387042907053
 30
0.0
 10
10.20408182298758
 20
15.17434484360799
 30
0.0
 10
10.19807385578054
 20
15.16126815925769
 30
0.0
 10
9.989475057406963
 20
14.70724094036956
 30
0.0
 10
9.119168639850955
 20
14.14538810243069
 30
0.0
 10
7.670040849621159
 20
13.87235837139754
 30
0.0
 10
6.203626093475521
 20
13.76500668767374
 30
0.0
 10
5.225034546977781
 20
13.71813395055281
 30
0.0
 10
4.735403384444623
 20
13.7011814000094
 30
0.0
 10
4.218902190708377
 20
13.68329852558768
 30
0.0
 10
3.185846350070278
 20
13.64892038680074
 30
0.0
 10
1.635820430545152
 20
13.61232050888383
 30
0.0
 10
0.6022169602782697
 20
13.60210104474237
 30
0.0
 10
0.0854037124444176
 20
13.60209569873386
 30
0.0
 10
-0.4314095353894345
 20
13.60210104474237
 30
0.0
 10
-1.465013005656317
 20
13.61232050888383
 30
0.0
 10
-3.015038925181443
 20
13.64892038680074
 30
0.0
 10
-4.048094765819542
 20
13.68329852558768
 30
0.0
 10
-4.564595959555788
 20
13.7011814000094
 30
0.0
 10
-5.054227122088946
 20
13.71813395055281
 30
0.0
 10
-6.032818668586685
 20
13.76500668767374
 30
0.0
 10
-7.499233424732324
 20
13.87235837139754
 30
0.0
 10
-8.94836121496212
 20
14.14538810243069
 30
0.0
 10
-9.818667632518128
 20
14.70724094036956
 30
0.0
 10
-10.0272664308917
 20
15.16126815925769
 30
0.0
 10
-10.03327439809871
 20
15.17434484360799
 30
0.0
 10
-10.03939790873102
 20
15.19387042907053
 30
0.0
 10
-10.03722045895279
 20
15.20729595089631
 30
0.0
 10
-10.02088223352419
 20
15.30803269544857
 30
0.0
 10
-9.890379742543104
 20
15.47627675939415
 30
0.0
 10
-9.59938272430847
 20
15.5743078363736
 30
0.0
 10
-9.302962881229035
 20
15.62085019467223
 30
0.0
 10
-9.101708095315928
 20
15.62226311157425
 30
0.0
 10
-9.001593957897569
 20
15.62044060184069
 30
0.0
 10
-7.991726662587581
 20
15.6025837666425
 30
0.0
 10
-5.973164766318803
 20
15.53009290233449
 30
0.0
 10
-2.944636377926059
 20
15.44071871593026
 30
0.0
 10
-0.9244798932348317
 20
15.44596708479016
 30
0.0
 10
0.0854037124444176
 20
15.44349309709695
 30
0.0
 10
1.095287318123667
 20
15.44596708479016
 30
0.0
 10
3.115443802814895
 20
15.44071871593026
 30
0.0
 10
6.143972191207638
 20
15.53009290233449
 30
0.0
 10
8.162534087476416
 20
15.6025837666425
 30
0.0
 10
9.172401382786404
 20
15.62044060184069
 30
0.0
  0
SPLINE
  5
B0
330
1F
100
AcDbEntity
  8
Layer 01
370
    -3
100
AcDbSpline
210
0.0
220
0.0
230
1.0
 70
     8
 71
     3
 72
    39
 73
    35
 74
     0
 42
0.000000001
 43
0.0000000001
 40
-11.0
 40
-11.0
 40
-11.0
 40
-11.0
 40
-10.0
 40
-9.0
 40
-8.0
 40
-7.0
 40
-7.0
 40
-7.0
 40
-6.0
 40
-5.0
 40
-4.0
 40
-3.0
 40
-2.0
 40
-1.0
 40
0.0
 40
0.0
 40
0.0
 40
1.0
 40
2.0
 40
3.0
 40
4.0
 40
5.0
 40
5.0
 40
5.0
 40
5.328092411243431
 40
5.328092411243431
 40
5.328092411243431
 40
6.328092411243431
 40
7.32809241124343
 40
8.32809241124343
 40
9.32809241124343
 40
10.32809241124343
 40
11.32809241124343
 40
12.32809241124343
 40
12.32809241124343
 40
12.32809241124343
 40
12.32809241124343
 10
8.668182708308223
 20
14.09337534578862
 30
0.0
 10
8.878109345107362
 20
14.11716501446426
 30
0.0
 10
9.307663842349996
 20
14.12686819801724
 30
0.0
 10
9.902716459805788
 20
14.38506816332648
 30
0.0
 10
10.35658053618806
 20
14.84627505081601
 30
0.0
 10
10.52856377881699
 20
15.24149761710584
 30
0.0
 10
10.57600484641443
 20
15.44813477749063
 30
0.0
 10
10.66425942618528
 20
15.83254172021701
 30
0.0
 10
10.83312431799169
 20
16.60307423029363
 30
0.0
 10
11.0786160881284
 20
17.76054643942151
 30
0.0
 10
11.33151419475706
 20
18.9164097954521
 30
0.0
 10
11.60169413431333
 20
20.06849841399882
 30
0.0
 10
11.90811653694905
 20
21.21139078785618
 30
0.0
 10
12.22389603034122
 20
22.35170739061607
 30
0.0
 10
12.59101986833758
 20
23.06365233557413
 30
0.0
 10
12.87685482621089
 20
23.3407027475339
 30
0.0
 10
12.88597038289595
 20
23.3495381564483
 30
0.0
 10
12.90292747462303
 20
23.36848443959109
 30
0.0
 10
12.92671914526088
 20
23.39826721369643
 30
0.0
 10
12.94146295141223
 20
23.43462771384148
 30
0.0
 10
12.93403341225661
 20
23.47318965884093
 30
0.0
 10
12.92207876649582
 20
23.4956322910866
 30
0.0
 10
12.91466800263521
 20
23.5059875739261
 30
0.0
 10
12.85279659500054
 20
23.59244234941032
 30
0.0
 10
12.79039246002475
 20
23.67980744750221
 30
0.0
 10
12.72806526268988
 20
23.76718921491682
 30
0.0
 10
12.65091894850241
 20
23.85669316832177
 30
0.0
 10
12.43248715842742
 20
23.95051810530311
 30
0.0
 10
12.09829005238754
 20
24.04623669774678
 30
0.0
 10
11.75604252569153
 20
24.11789639771762
 30
0.0
 10
11.41184888924676
 20
24.17462927083826
 30
0.0
 10
11.06682489265063
 20
24.22949434918445
 30
0.0
 10
10.71820502692003
 20
24.25077020568373
 30
0.0
 10
10.48546826704572
 20
24.23798104508471
 30
0.0
 10
10.36927207409121
 20
24.23349608165024
 30
0.0
  0
SPLINE
  5
B1
330
1F
100
AcDbEntity
  8
Layer 01
370
    -3
100
AcDbSpline
210
0.0
220
0.0
230
1.0
 70
     8
 71
     3
 72
    22
 73
    18
 74
     0
 42
0.000000001
 43
0.0000000001
 40
-6.0
 40
-6.0
 40
-6.0
 40
-6.0
 40
-5.0
 40
-4.0
 40
-3.0
 40
-2.0
 40
-1.0
 40
0.0
 40
0.0
 40
0.0
 40
1.0
 40
2.0
 40
3.0
 40
4.0
 40
5.0
 40
6.0
 40
7.0
 40
7.0
 40
7.0
 40
7.0
 10
12.72806232240413
 20
23.767187117829
 30
0.0
 10
12.73602233819071
 20
23.75592789717532
 30
0.0
 10
12.74978857588647
 20
23.73127049184591
 30
0.0
 10
12.75193940305695
 20
23.68840750914291
 30
0.0
 10
12.73252612799467
 20
23.65068420191773
 30
0.0
 10
12.70714233283087
 20
23.61792135630358
 30
0.0
 10
12.67925674922617
 20
23.58707922864981
 30
0.0
 10
12.66048519321637
 20
23.56672998233533
 30
0.0
 10
12.650624882584
 20
23.55701077220781
 30
0.0
 10
12.35298517032703
 20
23.26363026792467
 30
0.0
 10
11.95030023685572
 20
22.52416889733912
 30
0.0
 10
11.61433113561287
 20
21.32442177280642
 30
0.0
 10
11.29213556277398
 20
20.12248600863772
 30
0.0
 10
11.00863093789752
 20
18.91035986491435
 30
0.0
 10
10.74673592769051
 20
17.69343788856317
 30
0.0
 10
10.48127677819434
 20
16.47810531762922
 30
0.0
 10
10.32276717586223
 20
15.66176220808627
 30
0.0
 10
10.19073966293303
 20
15.26897758850879
 30
0.0
  0
SPLINE
  5
B2
330
1F
100
AcDbEntity
  8
Layer 01
370
    -3
100
AcDbSpline
210
0.0
220
0.0
230
1.0
 70
     8
 71
     2
 72
     6
 73
     3
 74
     0
 42
0.000000001
 43
0.0000000001
 40
0.0
 40
0.0
 40
0.0
 40
1.0
 40
1.0
 40
1.0
 10
8.741725976730379
 20
13.70690934991142
 30
0.0
 10
9.335825068279405
 20
14.04396955544145
 30
0.0
 10
9.897869567673354
 20
14.43179465869409
 30
0.0
  0
SPLINE
  5
B3
330
1F
100
AcDbEntity
  8
Layer 01
370
    -3
100
AcDbSpline
210
0.0
220
0.0
230
1.0
 70
     8
 71
     3
 72
    39
 73
    35
 74
     0
 42
0.000000001
 43
0.0000000001
 40
-11.0
 40
-11.0
 40
-11.0
 40
-11.0
 40
-10.0
 40
-9.0
 40
-8.0
 40
-7.0
 40
-7.0
 40
-7.0
 40
-6.0
 40
-5.0
 40
-4.0
 40
-3.0
 40
-2.0
 40
-1.0
 40
0.0
 40
0.0
 40
0.0
 40
1.0
 40
2.0
 40
3.0
 40
4.0
 40
5.0
 40
5.0
 40
5.0
 40
5.328092411243431
 40
5.328092411243431
 40
5.328092411243431
 40
6.328092411243431
 40
7.32809241124343
 40
8.32809241124343
 40
9.32809241124343
 40
10.32809241124343
 40
11.32809241124343
 40
12.32809241124343
 40
12.32809241124343
 40
12.32809241124343
 40
12.32809241124343
 10
-8.497375283419387
 20
14.09337534578862
 30
0.0
 10
-8.707301920218526
 20
14.11716501446426
 30
0.0
 10
-9.13685641746116
 20
14.12686819801724
 30
0.0
 10
-9.731909034916953
 20
14.38506816332648
 30
0.0
 10
-10.18577311129923
 20
14.84627505081601
 30
0.0
 10
-10.35775635392815
 20
15.24149761710584
 30
0.0
 10
-10.4051974215256
 20
15.44813477749063
 30
0.0
 10
-10.49345200129645
 20
15.83254172021701
 30
0.0
 10
-10.66231689310285
 20
16.60307423029363
 30
0.0
 10
-10.90780866323956
 20
17.76054643942151
 30
0.0
 10
-11.16070676986823
 20
18.9164097954521
 30
0.0
 10
-11.4308867094245
 20
20.06849841399882
 30
0.0
 10
-11.73730911206022
 20
21.21139078785618
 30
0.0
 10
-12.05308860545239
 20
22.35170739061607
 30
0.0
 10
-12.42021244344875
 20
23.06365233557413
 30
0.0
 10
-12.70604740132205
 20
23.3407027475339
 30
0.0
 10
-12.71516295800711
 20
23.3495381564483
 30
0.0
 10
-12.73212004973419
 20
23.36848443959109
 30
0.0
 10
-12.75591172037204
 20
23.39826721369643
 30
0.0
 10
-12.7706555265234
 20
23.43462771384148
 30
0.0
 10
-12.76322598736778
 20
23.47318965884093
 30
0.0
 10
-12.75127134160698
 20
23.4956322910866
 30
0.0
 10
-12.74386057774637
 20
23.5059875739261
 30
0.0
 10
-12.68198917011171
 20
23.59244234941032
 30
0.0
 10
-12.61958503513591
 20
23.67980744750221
 30
0.0
 10
-12.55725783780105
 20
23.76718921491682
 30
0.0
 10
-12.4801115236136
 20
23.85669316832177
 30
0.0
 10
-12.26167973353859
 20
23.95051810530311
 30
0.0
 10
-11.9274826274987
 20
24.04623669774678
 30
0.0
 10
-11.58523510080269
 20
24.11789639771762
 30
0.0
 10
-11.24104146435792
 20
24.17462927083826
 30
0.0
 10
-10.89601746776179
 20
24.22949434918445
 30
0.0
 10
-10.54739760203117
 20
24.25077020568373
 30
0.0
 10
-10.31466084215688
 20
24.23798104508471
 30
0.0
 10
-10.19846464920238
 20
24.23349608165024
 30
0.0
  0
SPLINE
  5
B4
330
1F
100
AcDbEntity
  8
Layer 01
370
    -3
100
AcDbSpline
210
0.0
220
0.0
230
1.0
 70
     8
 71
     3
 72
    22
 73
    18
 74
     0
 42
0.000000001
 43
0.0000000001
 40
-6.0
 40
-6.0
 40
-6.0
 40
-6.0
 40
-5.0
 40
-4.0
 40
-3.0
 40
-2.0
 40
-1.0
 40
0.0
 40
0.0
 40
0.0
 40
1.0
 40
2.0
 40
3.0
 40
4.0
 40
5.0
 40
6.0
 40
7.0
 40
7.0
 40
7.0
 40
7.0
 10
-12.55725489751529
 20
23.767187117829
 30
0.0
 10
-12.56521491330187
 20
23.75592789717532
 30
0.0
 10
-12.57898115099763
 20
23.73127049184591
 30
0.0
 10
-12.58113197816812
 20
23.68840750914291
 30
0.0
 10
-12.56171870310584
 20
23.65068420191773
 30
0.0
 10
-12.53633490794203
 20
23.61792135630358
 30
0.0
 10
-12.50844932433736
 20
23.58707922864981
 30
0.0
 10
-12.48967776832754
 20
23.56672998233533
 30
0.0
 10
-12.47981745769516
 20
23.55701077220781
 30
0.0
 10
-12.1821777454382
 20
23.26363026792467
 30
0.0
 10
-11.77949281196689
 20
22.52416889733912
 30
0.0
 10
-11.44352371072404
 20
21.32442177280642
 30
0.0
 10
-11.12132813788514
 20
20.12248600863772
 30
0.0
 10
-10.83782351300869
 20
18.91035986491435
 30
0.0
 10
-10.57592850280167
 20
17.69343788856317
 30
0.0
 10
-10.31046935330551
 20
16.47810531762922
 30
0.0
 10
-10.15195975097339
 20
15.66176220808627
 30
0.0
 10
-10.01993223804419
 20
15.26897758850879
 30
0.0
  0
SPLINE
  5
B5
330
1F
100
AcDbEntity
  8
Layer 01
370
    -3
100
AcDbSpline
210
0.0
220
0.0
230
1.0
 70
     8
 71
     2
 72
    18
 73
    15
 74
     0
 42
0.000000001
 43
0.0000000001
 40
3.735157394152591
 40
3.735157394152591
 40
3.735157394152591
 40
3.903750000000006
 40
3.903750000000006
 40
4.247500000000009
 40
4.247500000000009
 40
5.247500000000009
 40
5.247500000000009
 40
7.557500000000012
 40
7.557500000000012
 40
8.557500000000012
 40
8.557500000000012
 40
8.901250000000015
 40
8.901250000000015
 40
10.81355572709298
 40
10.81355572709298
 40
10.81355572709298
 10
13.02296706828858
 20
48.06784238638973
 30
0.0
 10
13.02296706828858
 20
47.98354608346602
 30
0.0
 10
13.02296706828858
 20
47.89924978054232
 30
0.0
 10
13.19484206828858
 20
47.89924978054228
 30
0.0
 10
13.36671706828858
 20
47.89924978054226
 30
0.0
 10
13.48099376358519
 20
47.9099730852456
 30
0.0
 10
13.49171706828858
 20
48.02424978054225
 30
0.0
 10
13.49171706828875
 20
49.17924978054225
 30
0.0
 10
13.49171706828895
 20
50.33424978054224
 30
0.0
 10
13.48099376358559
 20
50.44852647583888
 30
0.0
 10
13.36671706828898
 20
50.45924978054226
 30
0.0
 10
13.19484206828898
 20
50.45924978054229
 30
0.0
 10
13.02296706828898
 20
50.45924978054232
 30
0.0
 10
13.02296706828881
 20
49.50309691699584
 30
0.0
 10
13.02296706828866
 20
48.54694405344936
 30
0.0
  0
POLYLINE
  5
B6
330
1F
100
AcDbEntity
  8
Layer 01
100
AcDb2dPolyline
 66
     1
 10
0.0
 20
0.0
 30
0.0
  0
VERTEX
  5
B7
330
B6
100
AcDbEntity
  8
Layer 01
100
AcDbVertex
100
AcDb2dVertex
 10
12.91419668509914
 20
47.89924978054233
 30
0.0
  0
VERTEX
  5
B8
330
B6
100
AcDbEntity
  8
Layer 01
100
AcDbVertex
100
AcDb2dVertex
 10
12.97609206828849
 20
47.89924978054232
 30
0.0
  0
VERTEX
  5
B9
330
B6
100
AcDbEntity
  8
Layer 01
100
AcDbVertex
100
AcDb2dVertex
 10
12.97609206828852
 20
47.97975840861502
 30
0.0
  0
SEQEND
  5
BA
330
B6
100
AcDbEntity
  8
Layer 01
  0
POLYLINE
  5
BB
330
1F
100
AcDbEntity
  8
Layer 01
100
AcDb2dPolyline
 66
     1
 10
0.0
 20
0.0
 30
0.0
  0
VERTEX
  5
BC
330
BB
100
AcDbEntity
  8
Layer 01
100
AcDbVertex
100
AcDb2dVertex
 10
8.19126306389066
 20
63.21997376770852
 30
0.0
  0
VERTEX
  5
BD
330
BB
100
AcDbEntity
  8
Layer 01
100
AcDbVertex
100
AcDb2dVertex
 10
8.191263063890972
 20
65.19086159452348
 30
0.0
  0
VERTEX
  5
BE
330
BB
100
AcDbEntity
  8
Layer 01
100
AcDbVertex
100
AcDb2dVertex
 10
7.472513063890972
 20
65.1908615945236
 30
0.0
  0
VERTEX
  5
BF
330
BB
100
AcDbEntity
  8
Layer 01
100
AcDbVertex
100
AcDb2dVertex
 10
7.472513063890688
 20
63.39814803029861
 30
0.0
  0
SEQEND
  5
C0
330
BB
100
AcDbEntity
  8
Layer 01
  0
SPLINE
  5
C1
330
1F
100
AcDbEntity
  8
Layer 01
370
    -3
100
AcDbSpline
210
0.0
220
0.0
230
1.0
 70
     8
 71
     2
 72
    12
 73
     9
 74
     0
 42
0.000000001
 43
0.0000000001
 40
5.340510153433364
 40
5.340510153433364
 40
5.340510153433364
 40
7.557500000000012
 40
7.557500000000012
 40
8.557500000000012
 40
8.557500000000012
 40
8.901250000000015
 40
8.901250000000015
 40
10.71705927364772
 40
10.71705927364772
 40
10.71705927364772
 10
6.956888063891284
 20
62.84887174795677
 30
0.0
 10
6.956888063891114
 20
63.95736667124009
 30
0.0
 10
6.956888063890943
 20
65.06586159452343
 30
0.0
 10
6.967611368594277
 20
65.18013828982004
 30
0.0
 10
7.081888063890915
 20
65.19086159452343
 30
0.0
 10
7.253763063890915
 20
65.19086159452345
 30
0.0
 10
7.425638063890915
 20
65.19086159452348
 30
0.0
 10
7.425638063891057
 20
64.28295695769964
 30
0.0
 10
7.425638063891199
 20
63.37505232087577
 30
0.0
  0
SPLINE
  5
C2
330
1F
100
AcDbEntity
  8
Layer 01
370
    -3
100
AcDbSpline
210
0.0
220
0.0
230
1.0
 70
    28
 71
     2
 72
     6
 73
     3
 74
     0
 42
0.000000001
 43
0.0000000001
 40
0.0
 40
0.0
 40
0.0
 40
2.188926367346206
 40
2.188926367346206
 40
2.188926367346206
 10
36.02823944277242
 20
8.658333538803
 30
0.0
 41
1.0
 10
36.02823944277242
 20
9.752796722476102
 30
0.0
 41
1.0
 10
36.02823944277242
 20
10.8472599061492
 30
0.0
 41
1.0
  0
SPLINE
  5
C3
330
1F
100
AcDbEntity
  8
Layer 01
370
    -3
100
AcDbSpline
210
0.0
220
0.0
230
1.0
 70
    28
 71
     2
 72
     6
 73
     3
 74
     0
 42
0.000000001
 43
0.0000000001
 40
2.711172087470437
 40
2.711172087470437
 40
2.711172087470437
 40
4.900098454816643
 40
4.900098454816643
 40
4.900098454816643
 10
34.92587723804803
 20
10.8472599061492
 30
0.0
 41
1.0
 10
34.92587723804803
 20
9.752796722476102
 30
0.0
 41
1.0
 10
34.92587723804803
 20
8.658333538803
 30
0.0
 41
1.0
  0
SPLINE
  5
C4
330
1F
100
AcDbEntity
  8
Layer 01
370
    -3
100
AcDbSpline
210
0.0
220
0.0
230
1.0
 70
     8
 71
     2
 72
     6
 73
     3
 74
     0
 42
0.000000001
 43
0.0000000001
 40
0.0
 40
0.0
 40
0.0
 40
1.0
 40
1.0
 40
1.0
 10
25.65556011632421
 20
4.940957133101001
 30
0.0
 10
29.72779794197527
 20
6.479712979988526
 30
0.0
 10
33.7999645480192
 20
8.01865732355
 30
0.0
  0
SPLINE
  5
C5
330
1F
100
AcDbEntity
  8
Layer 01
370
    -3
100
AcDbSpline
210
0.0
220
0.0
230
1.0
 70
     8
 71
     3
 72
     9
 73
     5
 74
     0
 42
0.000000001
 43
0.0000000001
 40
1.0
 40
1.0
 40
1.0
 40
1.0
 40
2.0
 40
3.0
 40
3.0
 40
3.0
 40
3.0
 10
33.7999645480192
 20
8.01865732355
 30
0.0
 10
34.08330404783632
 20
8.125736370832572
 30
0.0
 10
34.66477409537401
 20
8.290147358914135
 30
0.0
 10
35.30465719764447
 20
8.231863746815582
 30
0.0
 10
35.53271540012233
 20
8.018657327281
 30
0.0
  0
SPLINE
  5
C6
330
1F
100
AcDbEntity
  8
Layer 01
370
    -3
100
AcDbSpline
210
0.0
220
0.0
230
1.0
 70
     8
 71
     2
 72
     6
 73
     3
 74
     0
 42
0.000000001
 43
0.0000000001
 40
3.0
 40
3.0
 40
3.0
 40
4.0
 40
4.0
 40
4.0
 10
35.53271540012233
 20
8.018657327281
 30
0.0
 10
37.17784483076105
 20
6.480663289940878
 30
0.0
 10
38.82137190482823
 20
4.940957192818999
 30
0.0
  0
SPLINE
  5
C7
330
1F
100
AcDbEntity
  8
Layer 01
370
    -3
100
AcDbSpline
210
0.0
220
0.0
230
1.0
 70
     8
 71
     3
 72
     8
 73
     4
 74
     0
 42
0.000000001
 43
0.0000000001
 40
4.0
 40
4.0
 40
4.0
 40
4.0
 40
5.0
 40
5.0
 40
5.0
 40
5.0
 10
38.82137190482823
 20
4.940957192818999
 30
0.0
 10
38.98180805260782
 20
4.790655735159588
 30
0.0
 10
39.0231199492444
 20
4.480505926978818
 30
0.0
 10
39.04630642398848
 20
4.234717945161461
 30
0.0
  0
LINE
  5
C8
330
1F
100
AcDbEntity
  8
Layer 01
370
    -3
100
AcDbLine
 10
39.04630642398848
 20
4.234717945161461
 30
0.0
 11
39.19485786085946
 21
2.659999999999999
 31
0.0
  0
SPLINE
  5
C9
330
1F
100
AcDbEntity
  8
Layer 01
370
    -3
100
AcDbSpline
210
0.0
220
0.0
230
1.0
 70
     8
 71
     2
 72
     6
 73
     3
 74
     0
 42
0.000000001
 43
0.0000000001
 40
-1.0
 40
-1.0
 40
-1.0
 40
0.0
 40
0.0
 40
0.0
 10
25.75218730191122
 20
4.646198880241002
 30
0.0
 10
29.82622163074984
 20
6.178655582595869
 30
0.0
 10
33.92018715167521
 20
7.657168888145002
 30
0.0
  0
SPLINE
  5
CA
330
1F
100
AcDbEntity
  8
Layer 01
370
    -3
100
AcDbSpline
210
0.0
220
0.0
230
1.0
 70
     8
 71
     3
 72
     9
 73
     5
 74
     0
 42
0.000000001
 43
0.0000000001
 40
0.0
 40
0.0
 40
0.0
 40
0.0
 40
1.0
 40
2.0
 40
2.0
 40
2.0
 40
2.0
 10
33.92018715167521
 20
7.657168888145002
 30
0.0
 10
34.17202623106004
 20
7.748119197282832
 30
0.0
 10
34.6833038783962
 20
7.866169970107563
 30
0.0
 10
35.24316448179724
 20
7.840884899321679
 30
0.0
 10
35.44882683907252
 20
7.657168898386999
 30
0.0
  0
SPLINE
  5
CB
330
1F
100
AcDbEntity
  8
Layer 01
370
    -3
100
AcDbSpline
210
0.0
220
0.0
230
1.0
 70
     8
 71
     2
 72
     6
 73
     3
 74
     0
 42
0.000000001
 43
0.0000000001
 40
2.0
 40
2.0
 40
2.0
 40
3.0
 40
3.0
 40
3.0
 10
35.44882683907252
 20
7.657168898386999
 30
0.0
 10
37.11645845048184
 20
6.167491279500842
 30
0.0
 10
38.75523828305123
 20
4.646198880217
 30
0.0
  0
SPLINE
  5
CC
330
1F
100
AcDbEntity
  8
Layer 01
370
    -3
100
AcDbSpline
210
0.0
220
0.0
230
1.0
 70
     8
 71
     2
 72
     8
 73
     5
 74
     0
 42
0.000000001
 43
0.0000000001
 40
3.0
 40
3.0
 40
3.0
 40
4.0
 40
5.0
 40
6.0
 40
6.0
 40
6.0
 10
38.75523828305123
 20
4.646198880217
 30
0.0
 10
38.84070742535198
 20
4.568940395985088
 30
0.0
 10
38.91448108150394
 20
4.353464038702968
 30
0.0
 10
38.94931180270009
 20
4.13116043366432
 30
0.0
 10
38.96031103841221
 20
4.019146844723998
 30
0.0
  0
LINE
  5
CD
330
1F
100
AcDbEntity
  8
Layer 01
370
    -3
100
AcDbLine
 10
38.96031103841221
 20
4.019146844723998
 30
0.0
 11
39.07809100909722
 21
2.734045723067538
 31
0.0
  0
SPLINE
  5
CE
330
1F
100
AcDbEntity
  8
Layer 01
370
    -3
100
AcDbSpline
210
0.0
220
0.0
230
1.0
 70
     8
 71
     2
 72
     6
 73
     3
 74
     0
 42
0.000000001
 43
0.0000000001
 40
7.290487122902531
 40
7.290487122902531
 40
7.290487122902531
 40
8.290487122902531
 40
8.290487122902531
 40
8.290487122902531
 10
39.07809100909722
 20
2.734045723067538
 30
0.0
 10
39.08717406301884
 20
2.666918587377584
 30
0.0
 10
39.15413551555525
 20
2.66
 30
0.0
  0
LINE
  5
CF
330
1F
100
AcDbEntity
  8
Layer 01
370
    -3
100
AcDbLine
 10
39.15413551555525
 20
2.66
 30
0.0
 11
39.96400699749421
 21
2.66
 31
0.0
  0
SPLINE
  5
D0
330
1F
100
AcDbEntity
  8
Layer 01
370
    -3
100
AcDbSpline
210
0.0
220
0.0
230
1.0
 70
     8
 71
     2
 72
     6
 73
     3
 74
     0
 42
0.000000001
 43
0.0000000001
 40
9.100358604841515
 40
9.100358604841515
 40
9.100358604841515
 40
10.10035860484152
 40
10.10035860484152
 40
10.10035860484152
 10
39.96400699749421
 20
2.66
 30
0.0
 10
40.03399512313797
 20
2.667532059489713
 30
0.0
 10
40.04088654272022
 20
2.737975743830901
 30
0.0
  0
LINE
  5
D1
330
1F
100
AcDbEntity
  8
Layer 01
370
    -3
100
AcDbLine
 10
40.04088654272022
 20
2.737975743830901
 30
0.0
 11
40.09449452174715
 21
3.842329691945199
 31
0.0
  0
SPLINE
  5
D2
330
1F
100
AcDbEntity
  8
Layer 01
370
    -3
100
AcDbSpline
210
0.0
220
0.0
230
1.0
 70
     8
 71
     2
 72
     9
 73
     6
 74
     0
 42
0.000000001
 43
0.0000000001
 40
11.20601291706165
 40
11.20601291706165
 40
11.20601291706165
 40
12.20601291706165
 40
13.20601291706165
 40
14.20601291706165
 40
15.20601291706165
 40
15.20601291706165
 40
15.20601291706165
 10
40.09449452174715
 20
3.842329691945199
 30
0.0
 10
40.09993416416157
 20
3.982785148880271
 30
0.0
 10
40.10616027884515
 20
4.263715108047585
 30
0.0
 10
40.09777217688762
 20
4.545414510403945
 30
0.0
 10
40.01875213060862
 20
4.818183093363725
 30
0.0
 10
39.91867725062025
 20
4.921639235412909
 30
0.0
  0
SPLINE
  5
D3
330
1F
100
AcDbEntity
  8
Layer 01
370
    -3
100
AcDbSpline
210
0.0
220
0.0
230
1.0
 70
     8
 71
     2
 72
     6
 73
     3
 74
     0
 42
0.000000001
 43
0.0000000001
 40
15.20601291706165
 40
15.20601291706165
 40
15.20601291706165
 40
16.20601291706166
 40
16.20601291706166
 40
16.20601291706166
 10
39.91867725062025
 20
4.921639235412909
 30
0.0
 10
38.51351439080543
 20
6.458176660589475
 30
0.0
 10
37.11045246492657
 20
7.996600152645314
 30
0.0
  0
SPLINE
  5
D4
330
1F
100
AcDbEntity
  8
Layer 01
370
    -3
100
AcDbSpline
210
0.0
220
0.0
230
1.0
 70
     8
 71
     3
 72
     8
 73
     4
 74
     0
 42
0.000000001
 43
0.0000000001
 40
16.20601291706166
 40
16.20601291706166
 40
16.20601291706166
 40
16.20601291706166
 40
17.20601291706166
 40
17.20601291706166
 40
17.20601291706166
 40
17.20601291706166
 10
37.11045246492657
 20
7.996600152645314
 30
0.0
 10
36.99660799401806
 20
8.121427863565225
 30
0.0
 10
37.01129170227432
 20
8.249206799400026
 30
0.0
 10
37.18131198376122
 20
8.239588909065999
 30
0.0
  0
SPLINE
  5
D5
330
1F
100
AcDbEntity
  8
Layer 01
370
    -3
100
AcDbSpline
210
0.0
220
0.0
230
1.0
 70
     8
 71
     3
 72
     9
 73
     5
 74
     0
 42
0.000000001
 43
0.0000000001
 40
17.20601291706166
 40
17.20601291706166
 40
17.20601291706166
 40
17.20601291706166
 40
18.20601291706166
 40
19.20601291706166
 40
19.20601291706166
 40
19.20601291706166
 40
19.20601291706166
 10
37.18131198376122
 20
8.239588909065999
 30
0.0
 10
37.34488887925806
 20
8.230335515127873
 30
0.0
 10
37.66560755295805
 20
8.160872239443663
 30
0.0
 10
37.97908429692745
 20
8.068189034229952
 30
0.0
 10
38.13499602302821
 20
8.018657327264
 30
0.0
  0
SPLINE
  5
D6
330
1F
100
AcDbEntity
  8
Layer 01
370
    -3
100
AcDbSpline
210
0.0
220
0.0
230
1.0
 70
     8
 71
     2
 72
     6
 73
     3
 74
     0
 42
0.000000001
 43
0.0000000001
 40
19.20601291706166
 40
19.20601291706166
 40
19.20601291706166
 40
20.20601291706166
 40
20.20601291706166
 40
20.20601291706166
 10
38.13499602302821
 20
8.018657327264
 30
0.0
 10
43.0794369966807
 20
6.4791895376434
 30
0.0
 10
48.02426246677021
 20
4.940957192818999
 30
0.0
  0
SPLINE
  5
D7
330
1F
100
AcDbEntity
  8
Layer 01
370
    -3
100
AcDbSpline
210
0.0
220
0.0
230
1.0
 70
     8
 71
     3
 72
    11
 73
     7
 74
     0
 42
0.000000001
 43
0.0000000001
 40
20.20601291706166
 40
20.20601291706166
 40
20.20601291706166
 40
20.20601291706166
 40
21.20601291706166
 40
22.20601291706166
 40
23.20601291706166
 40
24.20601291706166
 40
24.20601291706166
 40
24.20601291706166
 40
24.20601291706166
 10
48.02426246677021
 20
4.940957192818999
 30
0.0
 10
48.13999405689356
 20
4.903567555907927
 30
0.0
 10
48.37449043946799
 20
4.828109010842306
 30
0.0
 10
48.65920460719246
 20
4.576933622015884
 30
0.0
 10
48.74546552142317
 20
4.209301892742872
 30
0.0
 10
48.75919163390631
 20
3.968060163778921
 30
0.0
 10
48.77080752373024
 20
3.84624513212
 30
0.0
  0
LINE
  5
D8
330
1F
100
AcDbEntity
  8
Layer 01
370
    -3
100
AcDbLine
 10
48.77080752373024
 20
3.84624513212
 30
0.0
 11
48.87174648487326
 21
2.659999999999997
 31
0.0
  0
SPLINE
  5
D9
330
1F
100
AcDbEntity
  8
Layer 01
370
    -3
100
AcDbSpline
210
0.0
220
0.0
230
1.0
 70
    12
 71
     2
 72
     8
 73
     5
 74
     0
 42
0.000000001
 43
0.0000000001
 40
-0.7831973545741684
 40
-0.7831973545741684
 40
-0.7831973545741684
 40
-0.0000000000000001
 40
-0.0000000000000001
 40
1.0
 40
1.0
 40
1.0
 10
37.26131196552666
 20
7.831217018246567
 30
0.0
 41
1.0
 10
37.56788718475981
 20
7.800355753306812
 30
0.0
 41
0.997891517519736
 10
38.02436065587722
 20
7.657168898186001
 30
0.0
 41
1.0
 10
42.98788979780332
 20
6.18026572219796
 30
0.0
 41
0.9999833628394528
 10
47.93405027421022
 20
4.646198880231028
 30
0.0
 41
1.0
  0
SPLINE
  5
DA
330
1F
100
AcDbEntity
  8
Layer 01
370
    -3
100
AcDbSpline
210
0.0
220
0.0
230
1.0
 70
     8
 71
     3
 72
    11
 73
     7
 74
     0
 42
0.000000001
 43
0.0000000001
 40
1.0
 40
1.0
 40
1.0
 40
1.0
 40
2.0
 40
3.0
 40
4.0
 40
5.0
 40
5.0
 40
5.0
 40
5.0
 10
47.93405027421022
 20
4.646198880231028
 30
0.0
 10
48.00421845190363
 20
4.625009289423919
 30
0.0
 10
48.14373818267404
 20
4.577457538531979
 30
0.0
 10
48.32454606481076
 20
4.442649479091811
 30
0.0
 10
48.41751719512524
 20
4.237207601482369
 30
0.0
 10
48.44043580348989
 20
4.092156953005156
 30
0.0
 10
48.44802682208024
 20
4.019146844693999
 30
0.0
  0
LINE
  5
DB
330
1F
100
AcDbEntity
  8
Layer 01
370
    -3
100
AcDbLine
 10
48.44802682208024
 20
4.019146844693999
 30
0.0
 11
48.55272133771894
 21
2.660265412844437
 31
0.0
  0
LINE
  5
DC
330
1F
100
AcDbEntity
  8
Layer 01
370
    -3
100
AcDbLine
 10
39.28114341793361
 20
5.619007592875747
 30
0.0
 11
47.77044085509021
 21
4.111623924295998
 31
0.0
  0
SPLINE
  5
DD
330
1F
100
AcDbEntity
  8
Layer 01
370
    -3
100
AcDbSpline
210
0.0
220
0.0
230
1.0
 70
     8
 71
     3
 72
    11
 73
     7
 74
     0
 42
0.000000001
 43
0.0000000001
 40
0.0
 40
0.0
 40
0.0
 40
0.0
 40
1.0
 40
2.0
 40
3.0
 40
4.0
 40
4.0
 40
4.0
 40
4.0
 10
47.77044085509021
 20
4.111623924295998
 30
0.0
 10
47.82041292843508
 20
4.102476253918416
 30
0.0
 10
47.92007877778269
 20
4.082240771900097
 30
0.0
 10
48.05818738791857
 20
4.008184051135205
 30
0.0
 10
48.13583728414824
 20
3.871176248245812
 30
0.0
 10
48.15079904639333
 20
3.769861904013642
 30
0.0
 10
48.15326060194025
 20
3.719148794155998
 30
0.0
  0
LINE
  5
DE
330
1F
100
AcDbEntity
  8
Layer 01
370
    -3
100
AcDbLine
 10
48.15326060194025
 20
3.719148794155998
 30
0.0
 11
48.19857969682027
 21
2.73631506395057
 31
0.0
  0
SPLINE
  5
DF
330
1F
100
AcDbEntity
  8
Layer 01
370
    -3
100
AcDbSpline
210
0.0
220
0.0
230
1.0
 70
     8
 71
     2
 72
     6
 73
     3
 74
     0
 42
0.000000001
 43
0.0000000001
 40
4.983878021703025
 40
4.983878021703025
 40
4.983878021703025
 40
5.983878021703025
 40
5.983878021703025
 40
5.983878021703025
 10
48.19857969682027
 20
2.73631506395057
 30
0.0
 10
48.20795160341447
 20
2.66612907298974
 30
0.0
 10
48.27849478455028
 20
2.659999999999997
 30
0.0
  0
LINE
  5
E0
330
1F
100
AcDbEntity
  8
Layer 01
370
    -3
100
AcDbLine
 10
48.27849478455028
 20
2.659999999999997
 30
0.0
 11
49.02534421988025
 21
2.659999999999997
 31
0.0
  0
SPLINE
  5
E1
330
1F
100
AcDbEntity
  8
Layer 01
370
    -3
100
AcDbSpline
210
0.0
220
0.0
230
1.0
 70
     8
 71
     2
 72
     6
 73
     3
 74
     0
 42
0.000000001
 43
0.0000000001
 40
6.730727457033031
 40
6.730727457033031
 40
6.730727457033031
 40
7.730727457033031
 40
7.730727457033031
 40
7.730727457033031
 10
49.02534421988025
 20
2.659999999999997
 30
0.0
 10
49.10315108643454
 20
2.668316722754794
 30
0.0
 10
49.10507619269026
 20
2.746543127033039
 30
0.0
  0
SPLINE
  5
E2
330
1F
100
AcDbEntity
  8
Layer 01
370
    -3
100
AcDbSpline
210
0.0
220
0.0
230
1.0
 70
     8
 71
     2
 72
     6
 73
     3
 74
     0
 42
0.000000001
 43
0.0000000001
 40
7.730727457033031
 40
7.730727457033031
 40
7.730727457033031
 40
8.73072745703303
 40
8.73072745703303
 40
8.73072745703303
 10
49.10507619269026
 20
2.746543127033039
 30
0.0
 10
49.05149770504113
 20
3.399429512701643
 30
0.0
 10
48.99792147915025
 20
4.052316087457001
 30
0.0
  0
SPLINE
  5
E3
330
1F
100
AcDbEntity
  8
Layer 01
370
    -3
100
AcDbSpline
210
0.0
220
0.0
230
1.0
 70
     8
 71
     3
 72
     9
 73
     5
 74
     0
 42
0.000000001
 43
0.0000000001
 40
8.73072745703303
 40
8.73072745703303
 40
8.73072745703303
 40
8.73072745703303
 40
9.73072745703303
 40
10.73072745703303
 40
10.73072745703303
 40
10.73072745703303
 40
10.73072745703303
 10
48.99792147915025
 20
4.052316087457001
 30
0.0
 10
48.98046366015456
 20
4.2914550870137
 30
0.0
 10
48.79295460277581
 20
4.806264296801823
 30
0.0
 10
48.2741568264961
 20
4.942932015766722
 30
0.0
 10
48.04660780847018
 20
5.013967678533
 30
0.0
  0
LINE
  5
E4
330
1F
100
AcDbEntity
  8
Layer 01
370
    -3
100
AcDbLine
 10
48.04660780847018
 20
5.013967678533
 30
0.0
 11
36.94274639987577
 21
8.412361651429759
 31
0.0
  0
ARC
  5
E5
330
1F
100
AcDbEntity
  8
Layer 01
370
    -3
100
AcDbCircle
 10
34.51378053427715
 20
0.4759950756538558
 30
0.0
 40
8.299746357650701
100
AcDbArc
 50
72.98300000001085
 51
76.52893663575531
  0
SPLINE
  5
E6
330
1F
100
AcDbEntity
  8
Layer 01
370
    -3
100
AcDbSpline
210
0.0
220
0.0
230
1.0
 70
    28
 71
     2
 72
     6
 73
     3
 74
     0
 42
0.000000001
 43
0.0000000001
 40
1.861000975526856
 40
1.861000975526856
 40
1.861000975526856
 40
3.394243661876478
 40
3.394243661876478
 40
3.394243661876478
 10
34.53141761756785
 20
6.076920126369558
 30
0.0
 41
1.0
 10
34.55065613339707
 20
5.310540218410927
 30
0.0
 41
1.0
 10
34.56989464922628
 20
4.544160310452297
 30
0.0
 41
1.0
  0
SPLINE
  5
E7
330
1F
100
AcDbEntity
  8
Layer 01
370
    -3
100
AcDbSpline
210
0.0
220
0.0
230
1.0
 70
    12
 71
     3
 72
     8
 73
     4
 74
     0
 42
0.000000001
 43
0.0000000001
 40
3.394243661876478
 40
3.394243661876478
 40
3.394243661876478
 40
3.394243661876478
 40
3.776890746393672
 40
3.776890746393672
 40
3.776890746393672
 40
3.776890746393672
 10
34.56989464922628
 20
4.544160310452297
 30
0.0
 41
1.0
 10
34.57308011806029
 20
4.417264902685957
 30
0.0
 41
1.0
 10
34.60107408844172
 20
4.29156813544774
 30
0.0
 41
1.0
 10
34.60107408844169
 20
4.164632751401138
 30
0.0
 41
1.0
  0
SPLINE
  5
E8
330
1F
100
AcDbEntity
  8
Layer 01
370
    -3
100
AcDbSpline
210
0.0
220
0.0
230
1.0
 70
    28
 71
     2
 72
     6
 73
     3
 74
     0
 42
0.000000001
 43
0.0000000001
 40
3.776890746393672
 40
3.776890746393672
 40
3.776890746393672
 40
7.051890746393672
 40
7.051890746393672
 40
7.051890746393672
 10
34.60107408844169
 20
4.164632751401138
 30
0.0
 41
1.0
 10
34.60107408844169
 20
2.527132751401069
 30
0.0
 41
1.0
 10
34.60107408844172
 20
0.8896327514009997
 30
0.0
 41
1.0
  0
SPLINE
  5
E9
330
1F
100
AcDbEntity
  8
Layer 01
370
    -3
100
AcDbSpline
210
0.0
220
0.0
230
1.0
 70
     8
 71
     2
 72
     6
 73
     3
 74
     0
 42
0.000000001
 43
0.0000000001
 40
7.051890746393672
 40
7.051890746393672
 40
7.051890746393672
 40
8.051890746393672
 40
8.051890746393672
 40
8.051890746393672
 10
34.60107408844172
 20
0.8896327514009997
 30
0.0
 10
34.6116014124874
 20
0.7755522542742284
 30
0.0
 10
34.72607408844172
 20
0.7646327514009994
 30
0.0
  0
LINE
  5
EA
330
1F
100
AcDbEntity
  8
Layer 01
370
    -3
100
AcDbLine
 10
34.72607408844172
 20
0.7646327514009994
 30
0.0
 11
36.22804259237873
 21
0.764632751400999
 31
0.0
  0
SPLINE
  5
EB
330
1F
100
AcDbEntity
  8
Layer 01
370
    -3
100
AcDbSpline
210
0.0
220
0.0
230
1.0
 70
     8
 71
     2
 72
     6
 73
     3
 74
     0
 42
0.000000001
 43
0.0000000001
 40
9.55385925033068
 40
9.55385925033068
 40
9.55385925033068
 40
10.55385925033068
 40
10.55385925033068
 40
10.55385925033068
 10
36.22804259237873
 20
0.764632751400999
 30
0.0
 10
36.34273638508074
 20
0.7757741399642496
 30
0.0
 10
36.35304259237873
 20
0.8896327514009984
 30
0.0
  0
SPLINE
  5
EC
330
1F
100
AcDbEntity
  8
Layer 01
370
    -3
100
AcDbSpline
210
0.0
220
0.0
230
1.0
 70
    28
 71
     2
 72
     6
 73
     3
 74
     0
 42
0.000000001
 43
0.0000000001
 40
10.55385925033068
 40
10.55385925033068
 40
10.55385925033068
 40
13.82885925033068
 40
13.82885925033068
 40
13.82885925033068
 10
36.35304259237873
 20
0.8896327514009984
 30
0.0
 41
1.0
 10
36.35304259237873
 20
2.527132751401068
 30
0.0
 41
1.0
 10
36.35304259237873
 20
4.164632751401138
 30
0.0
 41
1.0
  0
SPLINE
  5
ED
330
1F
100
AcDbEntity
  8
Layer 01
370
    -3
100
AcDbSpline
210
0.0
220
0.0
230
1.0
 70
    12
 71
     3
 72
     8
 73
     4
 74
     0
 42
0.000000001
 43
0.0000000001
 40
13.82885925033068
 40
13.82885925033068
 40
13.82885925033068
 40
13.82885925033068
 40
14.21150633484788
 40
14.21150633484788
 40
14.21150633484788
 40
14.21150633484788
 10
36.35304259237873
 20
4.164632751401138
 30
0.0
 41
1.0
 10
36.3530425923787
 20
4.29156813544774
 30
0.0
 41
1.0
 10
36.38103656276016
 20
4.417264902685957
 30
0.0
 41
1.0
 10
36.38422203159411
 20
4.544160310452298
 30
0.0
 41
1.0
  0
SPLINE
  5
EE
330
1F
100
AcDbEntity
  8
Layer 01
370
    -3
100
AcDbSpline
210
0.0
220
0.0
230
1.0
 70
    28
 71
     2
 72
     6
 73
     3
 74
     0
 42
0.000000001
 43
0.0000000001
 40
14.21150633484788
 40
14.21150633484788
 40
14.21150633484788
 40
15.39765023648143
 40
15.39765023648143
 40
15.39765023648143
 10
36.38422203159411
 20
4.544160310452298
 30
0.0
 41
1.0
 10
36.39910529073535
 20
5.13704548267804
 30
0.0
 41
1.0
 10
36.41398854987659
 20
5.729930654903782
 30
0.0
 41
1.0
  0
LINE
  5
EF
330
1F
100
AcDbEntity
  8
Layer 01
370
    -3
100
AcDbLine
 10
36.33630725681371
 20
8.658331409097228
 30
0.0
 11
34.61780942400671
 21
8.658331409097228
 31
0.0
  0
LINE
  5
F0
330
1F
100
AcDbEntity
  8
Layer 01
370
    -3
100
AcDbLine
 10
34.61780942400671
 20
8.658331409097228
 30
0.0
 11
34.50687496840013
 21
8.547396284486773
 31
0.0
  0
LINE
  5
F1
330
1F
100
AcDbEntity
  8
Layer 01
370
    -3
100
AcDbLine
 10
34.50687496840013
 20
8.547396284486773
 30
0.0
 11
36.44724171242029
 21
8.547396284486771
 31
0.0
  0
LINE
  5
F2
330
1F
100
AcDbEntity
  8
Layer 01
370
    -3
100
AcDbLine
 10
36.44724171242029
 20
8.547396284486771
 30
0.0
 11
36.33630725681371
 21
8.658331409097228
 31
0.0
  0
SPLINE
  5
F3
330
1F
100
AcDbEntity
  8
Layer 01
370
    -3
100
AcDbSpline
210
0.0
220
0.0
230
1.0
 70
    24
 71
     2
 72
     6
 73
     3
 74
     0
 42
0.000000001
 43
0.0000000001
 40
0.0
 40
0.0
 40
0.0
 40
1.0
 40
1.0
 40
1.0
 10
43.66126497592123
 20
4.841260817977002
 30
0.0
 10
42.63397100612872
 20
5.023670041397502
 30
0.0
 10
41.60667703633621
 20
5.206079264818001
 30
0.0
  0
SPLINE
  5
F4
330
1F
100
AcDbEntity
  8
Layer 01
370
    -3
100
AcDbSpline
210
0.0
220
0.0
230
1.0
 70
    24
 71
     2
 72
     6
 73
     3
 74
     0
 42
0.000000001
 43
0.0000000001
 40
0.0
 40
0.0
 40
0.0
 40
1.0
 40
1.0
 40
1.0
 10
41.60667703633621
 20
5.206079264818001
 30
0.0
 10
40.57938306654324
 20
5.388488488238501
 30
0.0
 10
39.55208909675022
 20
5.570897711659001
 30
0.0
  0
ARC
  5
F5
330
1F
100
AcDbEntity
  8
Layer 01
370
    -3
100
AcDbCircle
 10
35.4362175351568
 20
3.058528392710567
 30
0.0
 40
5.56698736658865
100
AcDbArc
 50
99.60984403528845
 51
111.5494347717695
  0
ARC
  5
F6
330
1F
100
AcDbEntity
  8
Layer 01
370
    -3
100
AcDbCircle
 10
670.613762045771
 20
1790.945622637631
 30
0.0
 40
1916.683473794437
210
0.0
220
0.0
230
-1.0
100
AcDbArc
 50
248.4505659756512
 51
248.7201544568825
  0
SPLINE
  5
F7
330
1F
100
AcDbEntity
  8
Layer 01
370
    -3
100
AcDbSpline
210
0.0
220
0.0
230
1.0
 70
     8
 71
     3
 72
    11
 73
     7
 74
     0
 42
0.000000001
 43
0.0000000001
 40
1.0
 40
1.0
 40
1.0
 40
1.0
 40
2.0
 40
3.0
 40
4.0
 40
5.0
 40
5.0
 40
5.0
 40
5.0
 10
24.99566431662629
 20
4.943644846877056
 30
0.0
 10
24.89693336249775
 20
4.902487360685908
 30
0.0
 10
24.69916229493549
 20
4.817951325393068
 30
0.0
 10
24.48858335202104
 20
4.568783172481286
 30
0.0
 10
24.42804860503458
 20
4.251870381720826
 30
0.0
 10
24.40262909081801
 20
4.04409549702148
 30
0.0
 10
24.39908966156148
 20
3.93831935375117
 30
0.0
  0
SPLINE
  5
F8
330
1F
100
AcDbEntity
  8
Layer 01
370
    -3
100
AcDbSpline
210
0.0
220
0.0
230
1.0
 70
    24
 71
     2
 72
     6
 73
     3
 74
     0
 42
0.000000001
 43
0.0000000001
 40
5.0
 40
5.0
 40
5.0
 40
6.0
 40
6.0
 40
6.0
 10
24.39908966156148
 20
3.93831935375117
 30
0.0
 10
24.37405754665116
 20
3.340789031143295
 30
0.0
 10
24.34902543174087
 20
2.74325870853542
 30
0.0
  0
SPLINE
  5
F9
330
1F
100
AcDbEntity
  8
Layer 01
370
    -3
100
AcDbSpline
210
0.0
220
0.0
230
1.0
 70
     8
 71
     2
 72
     6
 73
     3
 74
     0
 42
0.000000001
 43
0.0000000001
 40
6.0
 40
6.0
 40
6.0
 40
7.0
 40
7.0
 40
7.0
 10
24.34902543174087
 20
2.74325870853542
 30
0.0
 10
24.35291775289843
 20
2.669943210487571
 30
0.0
 10
24.4256312110071
 20
2.660069224846694
 30
0.0
  0
LINE
  5
FA
330
1F
100
AcDbEntity
  8
Layer 01
370
    -3
100
AcDbLine
 10
24.4256312110071
 20
2.660069224846694
 30
0.0
 11
25.2005147387157
 21
2.660020813075918
 31
0.0
  0
SPLINE
  5
FB
330
1F
100
AcDbEntity
  8
Layer 01
370
    -3
100
AcDbSpline
210
0.0
220
0.0
230
1.0
 70
     8
 71
     2
 72
     6
 73
     3
 74
     0
 42
0.000000001
 43
0.0000000001
 40
7.774883529220888
 40
7.774883529220888
 40
7.774883529220888
 40
8.774883529220887
 40
8.774883529220887
 40
8.774883529220887
 10
25.2005147387157
 20
2.660020813075918
 30
0.0
 10
25.26836804083101
 20
2.66702811315549
 30
0.0
 10
25.27849978287037
 20
2.734485654187616
 30
0.0
  0
LINE
  5
FC
330
1F
100
AcDbEntity
  8
Layer 01
370
    -3
100
AcDbLine
 10
25.27849978287037
 20
2.734485654187616
 30
0.0
 11
25.35954699035102
 21
3.875641120936454
 31
0.0
  0
SPLINE
  5
FD
330
1F
100
AcDbEntity
  8
Layer 01
370
    -3
100
AcDbSpline
210
0.0
220
0.0
230
1.0
 70
     8
 71
     3
 72
     9
 73
     5
 74
     0
 42
0.000000001
 43
0.0000000001
 40
9.918913445408032
 40
9.918913445408032
 40
9.918913445408032
 40
9.918913445408032
 40
10.91891344540803
 40
11.91891344540803
 40
11.91891344540803
 40
11.91891344540803
 40
11.91891344540803
 10
25.35954699035102
 20
3.875641120936454
 30
0.0
 10
25.36846401137277
 20
3.928861005467581
 30
0.0
 10
25.36141509157849
 20
4.072641256303973
 30
0.0
 10
25.50251425174099
 20
4.100871236155207
 30
0.0
 10
25.55463246924617
 20
4.114082937334233
 30
0.0
  0
SPLINE
  5
FE
330
1F
100
AcDbEntity
  8
Layer 01
370
    -3
100
AcDbSpline
210
0.0
220
0.0
230
1.0
 70
     8
 71
     2
 72
     6
 73
     3
 74
     0
 42
0.000000001
 43
0.0000000001
 40
11.91891344540803
 40
11.91891344540803
 40
11.91891344540803
 40
12.91891344540803
 40
12.91891344540803
 40
12.91891344540803
 10
25.55463246924617
 20
4.114082937334233
 30
0.0
 10
29.70521986317004
 20
5.027166419493136
 30
0.0
 10
33.85646308667924
 20
5.937212272143057
 30
0.0
  0
SPLINE
  5
FF
330
1F
100
AcDbEntity
  8
Layer 01
370
    -3
100
AcDbSpline
210
0.0
220
0.0
230
1.0
 70
     8
 71
     3
 72
    10
 73
     6
 74
     0
 42
0.000000001
 43
0.0000000001
 40
12.91891344540803
 40
12.91891344540803
 40
12.91891344540803
 40
12.91891344540803
 40
13.91891344540803
 40
14.91891344540803
 40
15.91891344540803
 40
15.91891344540803
 40
15.91891344540803
 40
15.91891344540803
 10
33.85646308667924
 20
5.937212272143057
 30
0.0
 10
34.09216427641499
 20
5.98888327252408
 30
0.0
 10
34.59053284080341
 20
6.110327423299138
 30
0.0
 10
35.31432747329413
 20
6.134559869637372
 30
0.0
 10
35.79837801611805
 20
6.080854402972387
 30
0.0
 10
36.01396549071831
 20
5.958743335025645
 30
0.0
  0
ARC
  5
100
330
1F
100
AcDbEntity
  8
Layer 01
370
    -3
100
AcDbCircle
 10
67.70042316397468
 20
-177.149336102377
 30
0.0
 40
210.4405929693007
210
0.0
220
0.0
230
-1.0
100
AcDbArc
 50
119.5276830515145
 51
120.4427514828271
  0
LINE
  5
101
330
1F
100
AcDbEntity
  8
Layer 01
100
AcDbLine
 10
25.1666167453858
 20
2.559999999999999
 30
0.0
 11
24.4791167453858
 21
2.559999999999999
 31
0.0
  0
LINE
  5
102
330
1F
100
AcDbEntity
  8
Layer 01
100
AcDbLine
 10
24.4791167453858
 20
2.559999999999999
 30
0.0
 11
24.4791167453858
 21
2.66
 31
0.0
  0
LINE
  5
103
330
1F
100
AcDbEntity
  8
Layer 01
100
AcDbLine
 10
24.4791167453858
 20
2.66
 30
0.0
 11
25.1666167453858
 21
2.66
 31
0.0
  0
LINE
  5
104
330
1F
100
AcDbEntity
  8
Layer 01
100
AcDbLine
 10
25.1666167453858
 20
2.66
 30
0.0
 11
25.1666167453858
 21
2.559999999999999
 31
0.0
  0
LINE
  5
105
330
1F
100
AcDbEntity
  8
Layer 01
370
    -3
100
AcDbLine
 10
23.90224174538579
 20
2.559999999999999
 30
0.0
 11
25.1822417453858
 21
2.56
 31
0.0
  0
SPLINE
  5
106
330
1F
100
AcDbEntity
  8
Layer 01
370
    -3
100
AcDbSpline
210
0.0
220
0.0
230
1.0
 70
    28
 71
     2
 72
     6
 73
     3
 74
     0
 42
0.000000001
 43
0.0000000001
 40
-1.413562190416147
 40
-1.413562190416147
 40
-1.413562190416147
 40
-0.1335621904161464
 40
-0.1335621904161464
 40
-0.1335621904161464
 10
25.1822417453858
 20
2.56
 30
0.0
 41
1.0
 10
25.1822417453858
 20
1.920000000000001
 30
0.0
 41
1.0
 10
25.1822417453858
 20
1.280000000000001
 30
0.0
 41
1.0
  0
CIRCLE
  5
107
330
1F
100
AcDbEntity
  8
Layer 01
100
AcDbCircle
 10
23.90224174538579
 20
1.279999999999997
 30
0.0
 40
1.279999999999997
  0
CIRCLE
  5
108
330
1F
100
AcDbEntity
  8
Layer 01
100
AcDbCircle
 10
23.90224174538579
 20
1.280000000000001
 30
0.0
 40
1.0625
  0
CIRCLE
  5
109
330
1F
100
AcDbEntity
  8
Layer 01
100
AcDbCircle
 10
23.90224174538579
 20
1.280000000000001
 30
0.0
 40
1.0
  0
LINE
  5
10A
330
1F
100
AcDbEntity
  8
Layer 01
100
AcDbLine
 10
39.89367708364941
 20
2.559999999999999
 30
0.0
 11
39.20617708364941
 21
2.559999999999999
 31
0.0
  0
LINE
  5
10B
330
1F
100
AcDbEntity
  8
Layer 01
100
AcDbLine
 10
39.20617708364941
 20
2.559999999999999
 30
0.0
 11
39.20617708364941
 21
2.66
 31
0.0
  0
LINE
  5
10C
330
1F
100
AcDbEntity
  8
Layer 01
100
AcDbLine
 10
39.20617708364941
 20
2.66
 30
0.0
 11
39.89367708364941
 21
2.66
 31
0.0
  0
LINE
  5
10D
330
1F
100
AcDbEntity
  8
Layer 01
100
AcDbLine
 10
39.89367708364941
 20
2.66
 30
0.0
 11
39.89367708364941
 21
2.559999999999999
 31
0.0
  0
LINE
  5
10E
330
1F
100
AcDbEntity
  8
Layer 01
370
    -3
100
AcDbLine
 10
38.62930208364941
 20
2.559999999999999
 30
0.0
 11
39.90930208364941
 21
2.56
 31
0.0
  0
SPLINE
  5
10F
330
1F
100
AcDbEntity
  8
Layer 01
370
    -3
100
AcDbSpline
210
0.0
220
0.0
230
1.0
 70
    28
 71
     2
 72
     6
 73
     3
 74
     0
 42
0.000000001
 43
0.0000000001
 40
-1.413562190416147
 40
-1.413562190416147
 40
-1.413562190416147
 40
-0.1335621904161464
 40
-0.1335621904161464
 40
-0.1335621904161464
 10
39.90930208364941
 20
2.56
 30
0.0
 41
1.0
 10
39.90930208364941
 20
1.920000000000001
 30
0.0
 41
1.0
 10
39.90930208364941
 20
1.280000000000001
 30
0.0
 41
1.0
  0
CIRCLE
  5
110
330
1F
100
AcDbEntity
  8
Layer 01
100
AcDbCircle
 10
38.62930208364941
 20
1.279999999999997
 30
0.0
 40
1.279999999999997
  0
CIRCLE
  5
111
330
1F
100
AcDbEntity
  8
Layer 01
100
AcDbCircle
 10
38.62930208364941
 20
1.280000000000001
 30
0.0
 40
1.0625
  0
CIRCLE
  5
112
330
1F
100
AcDbEntity
  8
Layer 01
100
AcDbCircle
 10
38.62930208364941
 20
1.280000000000001
 30
0.0
 40
1.0
  0
LINE
  5
113
330
1F
100
AcDbEntity
  8
Layer 01
100
AcDbLine
 10
49.00088845695018
 20
2.559999999999999
 30
0.0
 11
48.31338845695018
 21
2.559999999999999
 31
0.0
  0
LINE
  5
114
330
1F
100
AcDbEntity
  8
Layer 01
100
AcDbLine
 10
48.31338845695018
 20
2.559999999999999
 30
0.0
 11
48.31338845695018
 21
2.66
 31
0.0
  0
LINE
  5
115
330
1F
100
AcDbEntity
  8
Layer 01
100
AcDbLine
 10
48.31338845695018
 20
2.66
 30
0.0
 11
49.00088845695018
 21
2.66
 31
0.0
  0
LINE
  5
116
330
1F
100
AcDbEntity
  8
Layer 01
100
AcDbLine
 10
49.00088845695018
 20
2.66
 30
0.0
 11
49.00088845695018
 21
2.559999999999999
 31
0.0
  0
LINE
  5
117
330
1F
100
AcDbEntity
  8
Layer 01
370
    -3
100
AcDbLine
 10
47.73651345695021
 20
2.559999999999999
 30
0.0
 11
49.01651345695018
 21
2.56
 31
0.0
  0
SPLINE
  5
118
330
1F
100
AcDbEntity
  8
Layer 01
370
    -3
100
AcDbSpline
210
0.0
220
0.0
230
1.0
 70
    28
 71
     2
 72
     6
 73
     3
 74
     0
 42
0.000000001
 43
0.0000000001
 40
-1.413562190416147
 40
-1.413562190416147
 40
-1.413562190416147
 40
-0.1335621904161464
 40
-0.1335621904161464
 40
-0.1335621904161464
 10
49.01651345695018
 20
2.56
 30
0.0
 41
1.0
 10
49.01651345695018
 20
1.920000000000001
 30
0.0
 41
1.0
 10
49.01651345695018
 20
1.280000000000001
 30
0.0
 41
1.0
  0
CIRCLE
  5
119
330
1F
100
AcDbEntity
  8
Layer 01
100
AcDbCircle
 10
47.73651345695021
 20
1.279999999999997
 30
0.0
 40
1.279999999999997
  0
CIRCLE
  5
11A
330
1F
100
AcDbEntity
  8
Layer 01
100
AcDbCircle
 10
47.73651345695021
 20
1.280000000000001
 30
0.0
 40
1.0625
  0
CIRCLE
  5
11B
330
1F
100
AcDbEntity
  8
Layer 01
100
AcDbCircle
 10
47.73651345695021
 20
1.280000000000001
 30
0.0
 40
1.0
  0
SPLINE
  5
11C
330
1F
100
AcDbEntity
  8
Layer 01
370
    -3
100
AcDbSpline
210
0.0
220
0.0
230
1.0
 70
     8
 71
     3
 72
    17
 73
    13
 74
     0
 42
0.000000001
 43
0.0000000001
 40
-0.981371753228703
 40
-0.981371753228703
 40
-0.981371753228703
 40
-0.981371753228703
 40
-0.8832345779058327
 40
-0.7850974025829625
 40
-0.6869602272600921
 40
-0.5888230519372217
 40
-0.4906858766143515
 40
-0.3925487012914812
 40
-0.2944115259686109
 40
-0.1962743506457406
 40
-0.0981371753228703
 40
0.0
 40
0.0
 40
0.0
 40
0.0
 10
24.90960620047022
 20
2.73797574348691
 30
0.0
 10
24.91205092929022
 20
2.759169883887459
 30
0.0
 10
24.91712088973023
 20
2.8031911934672
 30
0.0
 10
24.92521090144021
 20
2.873756895849901
 30
0.0
 10
24.9339010959502
 20
2.950004554023298
 30
0.0
 10
24.94324814781021
 20
3.0326105571671
 30
0.0
 10
24.95332275377021
 20
3.1224074129432
 30
0.0
 10
24.96419364538022
 20
3.220259299818899
 30
0.0
 10
24.97593499682023
 20
3.327163195755698
 30
0.0
 10
24.98866659935021
 20
3.444068912260601
 30
0.0
 10
25.00258475640021
 20
3.572265099930501
 30
0.0
 10
25.01269080520021
 20
3.665085961833
 30
0.0
 10
25.01796736555022
 20
3.713292593176
 30
0.0
  0
SPLINE
  5
11D
330
1F
100
AcDbEntity
  8
Layer 01
370
    -3
100
AcDbSpline
210
0.0
220
0.0
230
1.0
 70
     8
 71
     3
 72
    31
 73
    27
 74
     0
 42
0.000000001
 43
0.0000000001
 40
-1.464807479631948
 40
-1.464807479631948
 40
-1.464807479631948
 40
-1.464807479631948
 40
-1.403773834647279
 40
-1.342740189662624
 40
-1.281706544677955
 40
-1.220672899693241
 40
-1.159639254708674
 40
-1.098605609723961
 40
-1.037571964739248
 40
-0.9765383197546808
 40
-0.9155046747699674
 40
-0.8544710297852541
 40
-0.7934373848006873
 40
-0.732403739815974
 40
-0.6713700948312605
 40
-0.6103364498466939
 40
-0.5493028048619805
 40
-0.488269159877267
 40
-0.4272355148927004
 40
-0.366201869907987
 40
-0.3051682249232736
 40
-0.2441345799387069
 40
-0.1831009349539935
 40
-0.1220672899692801
 40
-0.0610336449847134
 40
0.0
 40
0.0
 40
0.0
 40
0.0
 10
25.65556011632421
 20
4.940957133101001
 30
0.0
 10
25.63202333770721
 20
4.932055276808001
 30
0.0
 10
25.58698430503321
 20
4.91429292091
 30
0.0
 10
25.5255609766142
 20
4.887385147876998
 30
0.0
 10
25.46973985515021
 20
4.859867229045999
 30
0.0
 10
25.41941828297021
 20
4.831625820397001
 30
0.0
 10
25.37052869974022
 20
4.800064589988001
 30
0.0
 10
25.32261289354022
 20
4.763729376714
 30
0.0
 10
25.27856608082021
 20
4.723380577256002
 30
0.0
 10
25.24024041483023
 20
4.680042156231998
 30
0.0
 10
25.20894878800021
 20
4.636879123470997
 30
0.0
 10
25.17906081876021
 20
4.587366084858999
 30
0.0
 10
25.15173448610022
 20
4.530911697965998
 30
0.0
 10
25.1299717496002
 20
4.473557431650999
 30
0.0
 10
25.11250648266022
 20
4.416371626242999
 30
0.0
 10
25.09838460292022
 20
4.35969879612
 30
0.0
 10
25.08599254493021
 20
4.299933749259999
 30
0.0
 10
25.07509560568022
 20
4.235107982807001
 30
0.0
 10
25.06622047324021
 20
4.169749121266001
 30
0.0
 10
25.05920972909021
 20
4.107626673574998
 30
0.0
 10
25.05357374447021
 20
4.051690339141
 30
0.0
 10
25.04867379847022
 20
4.001148253246999
 30
0.0
 10
25.04411785784021
 20
3.955597533536999
 30
0.0
 10
25.03991829708022
 20
3.914698930038
 30
0.0
 10
25.03603393583023
 20
3.878158483476
 30
0.0
 10
25.03364275422021
 20
3.856428064904001
 30
0.0
 10
25.03250397955023
 20
3.84624513212
 30
0.0
  0
SPLINE
  5
11E
330
1F
100
AcDbEntity
  8
Layer 01
370
    -3
100
AcDbSpline
210
0.0
220
0.0
230
1.0
 70
     8
 71
     3
 72
    17
 73
    13
 74
     0
 42
0.000000001
 43
0.0000000001
 40
0.0
 40
0.0
 40
0.0
 40
0.0
 40
0.0884061831721932
 40
0.1768123663443864
 40
0.2652185495165795
 40
0.3536247326887728
 40
0.4420309158609659
 40
0.530437099033159
 40
0.6188432822053522
 40
0.7072494653775455
 40
0.7956556485497387
 40
0.8840618317219319
 40
0.8840618317219319
 40
0.8840618317219319
 40
0.8840618317219319
 10
25.75218730191122
 20
4.646198880241002
 30
0.0
 10
25.73795707583022
 20
4.641051007872999
 30
0.0
 10
25.70798930458022
 20
4.629765350962998
 30
0.0
 10
25.65929928089423
 20
4.608932127623
 30
0.0
 10
25.60664363642221
 20
4.582301661839999
 30
0.0
 10
25.55059149549922
 20
4.547318985187999
 30
0.0
 10
25.4919300246122
 20
4.499446408251
 30
0.0
 10
25.43424712567023
 20
4.431514146527999
 30
0.0
 10
25.38465918584023
 20
4.340962233761999
 30
0.0
 10
25.34652397130023
 20
4.232485397554999
 30
0.0
 10
25.3216371994402
 20
4.119157415518998
 30
0.0
 10
25.31197451502021
 20
4.051851778047002
 30
0.0
 10
25.30779039296021
 20
4.019146844679
 30
0.0
  0
SPLINE
  5
11F
330
1F
100
AcDbEntity
  8
Layer 01
370
    -3
100
AcDbSpline
210
0.0
220
0.0
230
1.0
 70
     8
 71
     3
 72
    10
 73
     6
 74
     0
 42
0.000000001
 43
0.0000000001
 40
-0.9011188829087518
 40
-0.9011188829087518
 40
-0.9011188829087518
 40
-0.9011188829087518
 40
-0.6007459219391978
 40
-0.3003729609695538
 40
0.0
 40
0.0
 40
0.0
 40
0.0
 10
25.26788377939022
 20
3.630177599289098
 30
0.0
 10
25.25753564296022
 20
3.529800191552098
 30
0.0
 10
25.23691213284022
 20
3.329641379946299
 30
0.0
 10
25.2065436909302
 20
3.0383156590024
 30
0.0
 10
25.1849225687302
 20
2.835974988032401
 30
0.0
 10
25.17380670226021
 20
2.73404573259581
 30
0.0
  0
SPLINE
  5
120
330
1F
100
AcDbEntity
  8
Layer 01
370
    -3
100
AcDbSpline
210
0.0
220
0.0
230
1.0
 70
     8
 71
     3
 72
    11
 73
     7
 74
     0
 42
0.000000001
 43
0.0000000001
 40
-0.3684877707574346
 40
-0.3684877707574346
 40
-0.3684877707574346
 40
-0.3684877707574346
 40
-0.276365828068076
 40
-0.1842438853787173
 40
-0.0921219426893587
 40
0.0
 40
0.0
 40
0.0
 40
0.0
 10
25.30779039296021
 20
4.019146844679
 30
0.0
 10
25.30325405926021
 20
3.983691374906002
 30
0.0
 10
25.29564481063022
 20
3.915893994721998
 30
0.0
 10
25.28644430805022
 20
3.821355383509999
 30
0.0
 10
25.27819377606022
 20
3.733778646979001
 30
0.0
 10
25.27282400454021
 20
3.678839067487999
 30
0.0
 10
25.27017675773021
 20
3.652649225274299
 30
0.0
  0
SPLINE
  5
121
330
1F
100
AcDbEntity
  8
Layer 01
370
    -3
100
AcDbSpline
210
0.0
220
0.0
230
1.0
 70
    28
 71
     2
 72
     6
 73
     3
 74
     0
 42
0.000000001
 43
0.0000000001
 40
0.0
 40
0.0
 40
0.0
 40
2.188926367346206
 40
2.188926367346206
 40
2.188926367346206
 10
-0.4694589107478748
 20
8.658333538803
 30
0.0
 41
1.0
 10
-0.4694589107478748
 20
9.752796722476102
 30
0.0
 41
1.0
 10
-0.4694589107478748
 20
10.8472599061492
 30
0.0
 41
1.0
  0
SPLINE
  5
122
330
1F
100
AcDbEntity
  8
Layer 01
370
    -3
100
AcDbSpline
210
0.0
220
0.0
230
1.0
 70
    28
 71
     2
 72
     6
 73
     3
 74
     0
 42
0.000000001
 43
0.0000000001
 40
0.0
 40
0.0
 40
0.0
 40
2.188926367346206
 40
2.188926367346206
 40
2.188926367346206
 10
0.6329032939765398
 20
8.658333538803
 30
0.0
 41
1.0
 10
0.6329032939765398
 20
9.752796722476102
 30
0.0
 41
1.0
 10
0.6329032939765398
 20
10.8472599061492
 30
0.0
 41
1.0
  0
SPLINE
  5
123
330
1F
100
AcDbEntity
  8
Layer 01
100
AcDbSpline
210
0.0
220
0.0
230
1.0
 70
     8
 71
     3
 72
    23
 73
    19
 74
     0
 42
0.000000001
 43
0.0000000001
 40
0.0
 40
0.0
 40
0.0
 40
0.0
 40
1.0
 40
2.0
 40
3.0
 40
4.0
 40
5.0
 40
5.0
 40
5.0
 40
6.0
 40
7.0
 40
7.0
 40
7.0
 40
8.0
 40
9.0
 40
10.0
 40
11.0
 40
12.0
 40
12.0
 40
12.0
 40
12.0
 10
0.9499187389152439
 20
7.709594541556385
 30
0.0
 10
0.9885933007448386
 20
7.799343395320215
 30
0.0
 10
1.18001031396787
 20
7.843009709052099
 30
0.0
 10
1.446739588879041
 20
7.835782309957255
 30
0.0
 10
1.716487630207041
 20
7.797605588401983
 30
0.0
 10
1.981229949920873
 20
7.740186007612472
 30
0.0
 10
2.153304422175523
 20
7.684288413645933
 30
0.0
 10
2.239413884262632
 20
7.657168898386999
 30
0.0
 10
3.824748784148255
 20
7.159570710519648
 30
0.0
 10
6.999835931967596
 20
6.178182254560918
 30
0.0
 10
10.1591080456235
 20
5.147061016862906
 30
0.0
 10
11.74341757122266
 20
4.646198880216999
 30
0.0
 10
11.79869539168945
 20
4.628723401580549
 30
0.0
 10
11.90797019837521
 20
4.589875658461169
 30
0.0
 10
12.05866263004708
 20
4.498569400824747
 30
0.0
 10
12.16427451978254
 20
4.356721763169798
 30
0.0
 10
12.22154188661111
 20
4.191253501726509
 30
0.0
 10
12.24176546426636
 20
4.076836923566272
 30
0.0
 10
12.24726431448263
 20
4.019146844723998
 30
0.0
  0
LINE
  5
124
330
1F
100
AcDbEntity
  8
Layer 01
100
AcDbLine
 10
12.24726431448263
 20
4.019146844723998
 30
0.0
 11
12.37681423140145
 21
2.660000000000004
 31
0.0
  0
SPLINE
  5
125
330
1F
100
AcDbEntity
  8
Layer 01
370
    -3
100
AcDbSpline
210
0.0
220
0.0
230
1.0
 70
     8
 71
     2
 72
    10
 73
     7
 74
     0
 42
0.000000001
 43
0.0000000001
 40
-8.825788261039417
 40
-8.825788261039417
 40
-8.825788261039417
 40
-7.825788261039417
 40
-6.825788261039417
 40
-5.825788261039417
 40
-4.825788261039417
 40
-3.825788261039417
 40
-3.825788261039417
 40
-3.825788261039417
 10
8.120631395413
 20
4.794830204277396
 30
0.0
 10
8.193683395344237
 20
4.724824645244994
 30
0.0
 10
8.275993159785173
 20
4.541161991131695
 30
0.0
 10
8.309258535618824
 20
4.343760046128827
 30
0.0
 10
8.321422853774948
 20
4.144519916053858
 30
0.0
 10
8.324112458451083
 20
3.944931360704311
 30
0.0
 10
8.323275512059354
 20
3.845153675652558
 30
0.0
  0
SPLINE
  5
126
330
1F
100
AcDbEntity
  8
Layer 01
370
    -3
100
AcDbSpline
210
0.0
220
0.0
230
1.0
 70
    24
 71
     2
 72
     6
 73
     3
 74
     0
 42
0.000000001
 43
0.0000000001
 40
-3.825788261039417
 40
-3.825788261039417
 40
-3.825788261039417
 40
-2.825788261039417
 40
-2.825788261039417
 40
-2.825788261039417
 10
8.323275512059354
 20
3.845153675652558
 30
0.0
 10
8.31863194582101
 20
3.291564707198379
 30
0.0
 10
8.31398837958264
 20
2.737975738744201
 30
0.0
  0
SPLINE
  5
127
330
1F
100
AcDbEntity
  8
Layer 01
370
    -3
100
AcDbSpline
210
0.0
220
0.0
230
1.0
 70
    12
 71
     2
 72
     6
 73
     3
 74
     0
 42
0.000000001
 43
0.0000000001
 40
-2.825788261039417
 40
-2.825788261039417
 40
-2.825788261039417
 40
-2.702149034474508
 40
-2.702149034474508
 40
-2.702149034474508
 10
8.31398837958264
 20
2.737975738744201
 30
0.0
 41
1.0
 10
8.312015924380926
 20
2.66000000298349
 30
0.0
 41
0.7159969696705639
 10
8.234063123720631
 20
2.66
 30
0.0
 41
1.0
  0
LINE
  5
128
330
1F
100
AcDbEntity
  8
Layer 01
370
    -3
100
AcDbLine
 10
8.234063123720631
 20
2.66
 30
0.0
 11
7.436363039007688
 21
2.660020813075956
 31
0.0
  0
SPLINE
  5
129
330
1F
100
AcDbEntity
  8
Layer 01
370
    -3
100
AcDbSpline
210
0.0
220
0.0
230
1.0
 70
     8
 71
     2
 72
     6
 73
     3
 74
     0
 42
0.000000001
 43
0.0000000001
 40
-1.904448949490044
 40
-1.904448949490044
 40
-1.904448949490044
 40
-0.9044489494900441
 40
-0.9044489494900441
 40
-0.9044489494900441
 10
7.436363039007688
 20
2.660020813075956
 30
0.0
 10
7.36931725451268
 20
2.666806455388987
 30
0.0
 10
7.358466189005696
 20
2.733316180916535
 30
0.0
  0
SPLINE
  5
12A
330
1F
100
AcDbEntity
  8
Layer 01
370
    -3
100
AcDbSpline
210
0.0
220
0.0
230
1.0
 70
     8
 71
     3
 72
     8
 73
     4
 74
     0
 42
0.000000001
 43
0.0000000001
 40
-0.9044489494900441
 40
-0.9044489494900441
 40
-0.9044489494900441
 40
-0.9044489494900441
 40
-0.058681696872331
 40
-0.058681696872331
 40
-0.058681696872331
 40
-0.058681696872331
 10
7.358466189005696
 20
2.733316180916535
 30
0.0
 10
7.335309821351046
 20
3.009488791745902
 30
0.0
 10
7.310552964182762
 20
3.300243385999287
 30
0.0
 10
7.284573490993807
 20
3.576224384555463
 30
0.0
  0
LINE
  5
12B
330
1F
100
AcDbEntity
  8
Layer 01
370
    -3
100
AcDbLine
 10
7.284573490993807
 20
3.576224384555463
 30
0.0
 11
7.248901752507862
 21
3.955166710905783
 31
0.0
  0
ARC
  5
12C
330
1F
100
AcDbEntity
  8
Layer 01
370
    -3
100
AcDbCircle
 10
6.884402660457198
 20
3.920854586379555
 30
0.0
 40
0.3661105160948837
100
AcDbArc
 50
5.377691335784608
 51
39.6179428188191
  0
LINE
  5
12D
330
1F
100
AcDbEntity
  8
Layer 01
370
    -3
100
AcDbLine
 10
7.166422565895516
 20
4.154310541394252
 30
0.0
 11
0.9587599936329525
 21
6.031387880832087
 31
0.0
  0
SPLINE
  5
12E
330
1F
100
AcDbEntity
  8
Layer 01
370
    -3
100
AcDbSpline
210
0.0
220
0.0
230
1.0
 70
    24
 71
     2
 72
     6
 73
     3
 74
     0
 42
0.000000001
 43
0.0000000001
 40
-1.619179640389678
 40
-1.619179640389678
 40
-1.619179640389678
 40
0.0
 40
0.0
 40
0.0
 10
0.8902465235311752
 20
2.545453111011321
 30
0.0
 10
0.8902465235311752
 20
3.355042931206161
 30
0.0
 10
0.8902465235311752
 20
4.164632751401001
 30
0.0
  0
SPLINE
  5
12F
330
1F
100
AcDbEntity
  8
Layer 01
370
    -3
100
AcDbSpline
210
0.0
220
0.0
230
1.0
 70
     8
 71
     3
 72
     8
 73
     4
 74
     0
 42
0.000000001
 43
0.0000000001
 40
0.0
 40
0.0
 40
0.0
 40
0.0
 40
0.3826470845249033
 40
0.3826470845249033
 40
0.3826470845249033
 40
0.3826470845249033
 10
0.8902465235311752
 20
4.164632751401001
 30
0.0
 10
0.8902465235311752
 20
4.291568135449999
 30
0.0
 10
0.9182404939137712
 20
4.417264902690999
 30
0.0
 10
0.9214259627466959
 20
4.544160310456
 30
0.0
  0
SPLINE
  5
130
330
1F
100
AcDbEntity
  8
Layer 01
370
    -3
100
AcDbSpline
210
0.0
220
0.0
230
1.0
 70
    24
 71
     2
 72
     6
 73
     3
 74
     0
 42
0.000000001
 43
0.0000000001
 40
0.3826470845249033
 40
0.3826470845249033
 40
0.3826470845249033
 40
1.938093075217444
 40
1.938093075217444
 40
1.938093075217444
 10
0.9214259627466959
 20
4.544160310456
 30
0.0
 10
0.940943076755957
 20
5.321638374295184
 30
0.0
 10
0.9604601907652182
 20
6.099116438134368
 30
0.0
  0
SPLINE
  5
131
330
1F
100
AcDbEntity
  8
Layer 01
370
    -3
100
AcDbSpline
210
0.0
220
0.0
230
1.0
 70
     8
 71
     2
 72
    10
 73
     7
 74
     0
 42
0.000000001
 43
0.0000000001
 40
-8.825788261039417
 40
-8.825788261039417
 40
-8.825788261039417
 40
-7.825788261039417
 40
-6.825788261039417
 40
-5.825788261039417
 40
-4.825788261039417
 40
-3.825788261039417
 40
-3.825788261039417
 40
-3.825788261039417
 10
-7.957187121895998
 20
4.794830204277396
 30
0.0
 10
-8.030239121827236
 20
4.724824645244994
 30
0.0
 10
-8.112548886268172
 20
4.541161991131695
 30
0.0
 10
-8.145814262101823
 20
4.343760046128827
 30
0.0
 10
-8.157978580257947
 20
4.144519916053858
 30
0.0
 10
-8.16066818493411
 20
3.944931360704311
 30
0.0
 10
-8.159831238542353
 20
3.845153675652558
 30
0.0
  0
SPLINE
  5
132
330
1F
100
AcDbEntity
  8
Layer 01
370
    -3
100
AcDbSpline
210
0.0
220
0.0
230
1.0
 70
    24
 71
     2
 72
     6
 73
     3
 74
     0
 42
0.000000001
 43
0.0000000001
 40
-3.825788261039417
 40
-3.825788261039417
 40
-3.825788261039417
 40
-2.825788261039417
 40
-2.825788261039417
 40
-2.825788261039417
 10
-8.159831238542353
 20
3.845153675652558
 30
0.0
 10
-8.155187672304038
 20
3.291564707198379
 30
0.0
 10
-8.150544106065666
 20
2.737975738744201
 30
0.0
  0
SPLINE
  5
133
330
1F
100
AcDbEntity
  8
Layer 01
370
    -3
100
AcDbSpline
210
0.0
220
0.0
230
1.0
 70
    12
 71
     2
 72
     6
 73
     3
 74
     0
 42
0.000000001
 43
0.0000000001
 40
-2.825788261039417
 40
-2.825788261039417
 40
-2.825788261039417
 40
-2.702149034474508
 40
-2.702149034474508
 40
-2.702149034474508
 10
-8.150544106065666
 20
2.737975738744201
 30
0.0
 41
1.0
 10
-8.14857165086391
 20
2.66000000298349
 30
0.0
 41
0.7159969696705639
 10
-8.070618850203658
 20
2.66
 30
0.0
 41
1.0
  0
LINE
  5
134
330
1F
100
AcDbEntity
  8
Layer 01
370
    -3
100
AcDbLine
 10
-8.070618850203658
 20
2.66
 30
0.0
 11
-7.272918765490687
 21
2.660020813075956
 31
0.0
  0
SPLINE
  5
135
330
1F
100
AcDbEntity
  8
Layer 01
370
    -3
100
AcDbSpline
210
0.0
220
0.0
230
1.0
 70
     8
 71
     2
 72
     6
 73
     3
 74
     0
 42
0.000000001
 43
0.0000000001
 40
-1.904448949490044
 40
-1.904448949490044
 40
-1.904448949490044
 40
-0.9044489494900441
 40
-0.9044489494900441
 40
-0.9044489494900441
 10
-7.272918765490687
 20
2.660020813075956
 30
0.0
 10
-7.205872980995679
 20
2.666806455388987
 30
0.0
 10
-7.195021915488695
 20
2.733316180916535
 30
0.0
  0
SPLINE
  5
136
330
1F
100
AcDbEntity
  8
Layer 01
370
    -3
100
AcDbSpline
210
0.0
220
0.0
230
1.0
 70
     8
 71
     3
 72
     8
 73
     4
 74
     0
 42
0.000000001
 43
0.0000000001
 40
-0.9044489494900441
 40
-0.9044489494900441
 40
-0.9044489494900441
 40
-0.9044489494900441
 40
-0.058681696872331
 40
-0.058681696872331
 40
-0.058681696872331
 40
-0.058681696872331
 10
-7.195021915488695
 20
2.733316180916535
 30
0.0
 10
-7.171865547834074
 20
3.009488791745902
 30
0.0
 10
-7.14710869066576
 20
3.300243385999287
 30
0.0
 10
-7.121129217476806
 20
3.576224384555463
 30
0.0
  0
LINE
  5
137
330
1F
100
AcDbEntity
  8
Layer 01
370
    -3
100
AcDbLine
 10
-7.121129217476806
 20
3.576224384555463
 30
0.0
 11
-7.08545747899089
 21
3.955166710905783
 31
0.0
  0
ARC
  5
138
330
1F
100
AcDbEntity
  8
Layer 01
370
    -3
100
AcDbCircle
 10
6.720958386940225
 20
3.920854586379555
 30
0.0
 40
0.3661105160948837
210
0.0
220
0.0
230
-1.0
100
AcDbArc
 50
5.377691335784608
 51
39.6179428188191
  0
LINE
  5
139
330
1F
100
AcDbEntity
  8
Layer 01
370
    -3
100
AcDbLine
 10
-7.002978292378515
 20
4.154310541394252
 30
0.0
 11
-0.7953157201159513
 21
6.031387880832096
 31
0.0
  0
SPLINE
  5
13A
330
1F
100
AcDbEntity
  8
Layer 01
370
    -3
100
AcDbSpline
210
0.0
220
0.0
230
1.0
 70
    24
 71
     2
 72
     6
 73
     3
 74
     0
 42
0.000000001
 43
0.0000000001
 40
-1.619179640389678
 40
-1.619179640389678
 40
-1.619179640389678
 40
0.0
 40
0.0
 40
0.0
 10
-0.726802250014174
 20
2.545453111011321
 30
0.0
 10
-0.726802250014174
 20
3.355042931206161
 30
0.0
 10
-0.726802250014174
 20
4.164632751401001
 30
0.0
  0
SPLINE
  5
13B
330
1F
100
AcDbEntity
  8
Layer 01
370
    -3
100
AcDbSpline
210
0.0
220
0.0
230
1.0
 70
     8
 71
     3
 72
     8
 73
     4
 74
     0
 42
0.000000001
 43
0.0000000001
 40
0.0
 40
0.0
 40
0.0
 40
0.0
 40
0.3826470845249033
 40
0.3826470845249033
 40
0.3826470845249033
 40
0.3826470845249033
 10
-0.726802250014174
 20
4.164632751401001
 30
0.0
 10
-0.726802250014174
 20
4.291568135449999
 30
0.0
 10
-0.7547962203967984
 20
4.417264902690999
 30
0.0
 10
-0.7579816892296947
 20
4.544160310456
 30
0.0
  0
SPLINE
  5
13C
330
1F
100
AcDbEntity
  8
Layer 01
370
    -3
100
AcDbSpline
210
0.0
220
0.0
230
1.0
 70
    24
 71
     2
 72
     6
 73
     3
 74
     0
 42
0.000000001
 43
0.0000000001
 40
0.3826470845249033
 40
0.3826470845249033
 40
0.3826470845249033
 40
1.938093075217444
 40
1.938093075217444
 40
1.938093075217444
 10
-0.7579816892296947
 20
4.544160310456
 30
0.0
 10
-0.7774988032389558
 20
5.321638374295184
 30
0.0
 10
-0.797015917248217
 20
6.099116438134368
 30
0.0
  0
SPLINE
  5
13D
330
1F
100
AcDbEntity
  8
Layer 01
370
    -3
100
AcDbSpline
210
0.0
220
0.0
230
1.0
 70
     8
 71
     2
 72
     6
 73
     3
 74
     0
 42
0.000000001
 43
0.0000000001
 40
0.0
 40
0.0
 40
0.0
 40
1.0
 40
1.0
 40
1.0
 10
0.700495370883857
 20
4.861102060655
 30
0.0
 10
0.7004128345354275
 20
4.922050999558837
 30
0.0
 10
0.6421364676847077
 20
4.940957133101001
 30
0.0
  0
SPLINE
  5
13E
330
1F
100
AcDbEntity
  8
Layer 01
370
    -3
100
AcDbSpline
210
0.0
220
0.0
230
1.0
 70
     8
 71
     2
 72
     7
 73
     4
 74
     0
 42
0.000000001
 43
0.0000000001
 40
1.0
 40
1.0
 40
1.0
 40
1.999999880790696
 40
3.0
 40
3.0
 40
3.0
 10
0.6421364676847077
 20
4.940957133101001
 30
0.0
 10
0.3666610869882732
 20
5.013839194327593
 30
0.0
 10
-0.2032167712513626
 20
5.013839194414121
 30
0.0
 10
-0.4786921785396601
 20
4.940957133101001
 30
0.0
  0
SPLINE
  5
13F
330
1F
100
AcDbEntity
  8
Layer 01
370
    -3
100
AcDbSpline
210
0.0
220
0.0
230
1.0
 70
     8
 71
     2
 72
     6
 73
     3
 74
     0
 42
0.000000001
 43
0.0000000001
 40
3.0
 40
3.0
 40
3.0
 40
4.0
 40
4.0
 40
4.0
 10
-0.4786921785396601
 20
4.940957133101001
 30
0.0
 10
-0.5369686394137432
 20
4.922051044072914
 30
0.0
 10
-0.5370511758224268
 20
4.861102060655
 30
0.0
  0
LINE
  5
140
330
1F
100
AcDbEntity
  8
Layer 01
100
AcDbLine
 10
12.98973300542869
 20
2.559999999999999
 30
0.0
 11
12.23945236431442
 21
2.559999999999999
 31
0.0
  0
SPLINE
  5
141
330
1F
100
AcDbEntity
  8
Layer 01
370
    -3
100
AcDbSpline
210
0.0
220
0.0
230
1.0
 70
    28
 71
     2
 72
     8
 73
     5
 74
     0
 42
0.000000001
 43
0.0000000001
 40
0.0
 40
0.0
 40
0.0
 40
1.814269757448105
 40
1.814269757448105
 40
3.628539514896211
 40
3.628539514896211
 40
3.628539514896211
 10
11.74172327173449
 20
2.434999999999999
 30
0.0
 41
1.0
 10
11.74172327173447
 20
2.435
 30
0.0
 41
0.7071067811865476
 10
11.74172327173449
 20
1.280000000000001
 30
0.0
 41
1.0
 10
11.74172327173447
 20
0.125000000000001
 30
0.0
 41
0.7071067811865476
 10
11.74172327173449
 20
0.125
 30
0.0
 41
1.0
  0
SPLINE
  5
142
330
1F
100
AcDbEntity
  8
Layer 01
370
    -3
100
AcDbSpline
210
0.0
220
0.0
230
1.0
 70
    12
 71
     2
 72
     6
 73
     3
 74
     0
 42
0.000000001
 43
0.0000000001
 40
3.628539514896211
 40
3.628539514896211
 40
3.628539514896211
 40
3.824889055745573
 40
3.824889055745573
 40
3.824889055745573
 10
11.74172327173449
 20
0.125
 30
0.0
 41
1.0
 10
11.74172327173447
 20
0.0
 30
0.0
 41
0.7071067811865476
 10
11.86672327173449
 20
0.0
 30
0.0
 41
1.0
  0
SPLINE
  5
143
330
1F
100
AcDbEntity
  8
Layer 01
370
    -3
100
AcDbSpline
210
0.0
220
0.0
230
1.0
 70
    24
 71
     2
 72
     6
 73
     3
 74
     0
 42
0.000000001
 43
0.0000000001
 40
3.824889055745573
 40
3.824889055745573
 40
3.824889055745573
 40
4.168639055745573
 40
4.168639055745573
 40
4.168639055745573
 10
11.86672327173449
 20
0.0
 30
0.0
 10
12.03859827173449
 20
0.0
 30
0.0
 10
12.21047327173449
 20
0.0
 30
0.0
  0
SPLINE
  5
144
330
1F
100
AcDbEntity
  8
Layer 01
370
    -3
100
AcDbSpline
210
0.0
220
0.0
230
1.0
 70
    28
 71
     2
 72
     8
 73
     5
 74
     0
 42
0.000000001
 43
0.0000000001
 40
4.168639055745573
 40
4.168639055745573
 40
4.168639055745573
 40
6.1301709688307
 40
6.1301709688307
 40
8.091702881915827
 40
8.091702881915827
 40
8.091702881915827
 10
12.21047327173449
 20
0.0
 30
0.0
 41
1.0
 10
12.21047327173447
 20
0.0
 30
0.0
 41
0.7071067811865476
 10
12.21047327173449
 20
1.280000000000001
 30
0.0
 41
1.0
 10
12.21047327173447
 20
2.560000000000001
 30
0.0
 41
0.7071067811865476
 10
12.21047327173449
 20
2.559999999999999
 30
0.0
 41
1.0
  0
SPLINE
  5
145
330
1F
100
AcDbEntity
  8
Layer 01
370
    -3
100
AcDbSpline
210
0.0
220
0.0
230
1.0
 70
    24
 71
     2
 72
     6
 73
     3
 74
     0
 42
0.000000001
 43
0.0000000001
 40
8.091702881915827
 40
8.091702881915827
 40
8.091702881915827
 40
8.435452881915827
 40
8.435452881915827
 40
8.435452881915827
 10
12.21047327173449
 20
2.559999999999999
 30
0.0
 10
12.03859827173449
 20
2.559999999999999
 30
0.0
 10
11.86672327173449
 20
2.559999999999999
 30
0.0
  0
SPLINE
  5
146
330
1F
100
AcDbEntity
  8
Layer 01
370
    -3
100
AcDbSpline
210
0.0
220
0.0
230
1.0
 70
    12
 71
     2
 72
     6
 73
     3
 74
     0
 42
0.000000001
 43
0.0000000001
 40
8.435452881915827
 40
8.435452881915827
 40
8.435452881915827
 40
8.631802422765189
 40
8.631802422765189
 40
8.631802422765189
 10
11.86672327173449
 20
2.559999999999999
 30
0.0
 41
1.0
 10
11.74172327173447
 20
2.560000000000001
 30
0.0
 41
0.7071067811865476
 10
11.74172327173449
 20
2.434999999999999
 30
0.0
 41
1.0
  0
SPLINE
  5
147
330
1F
100
AcDbEntity
  8
Layer 01
370
    -3
100
AcDbSpline
210
0.0
220
0.0
230
1.0
 70
    28
 71
     2
 72
     8
 73
     5
 74
     0
 42
0.000000001
 43
0.0000000001
 40
0.0
 40
0.0
 40
0.0
 40
1.814269757448105
 40
1.814269757448105
 40
3.628539514896211
 40
3.628539514896211
 40
3.628539514896211
 10
13.49172316202277
 20
2.434999999999999
 30
0.0
 41
1.0
 10
13.4917231620228
 20
2.435
 30
0.0
 41
0.7071067811865476
 10
13.49172316202277
 20
1.280000000000001
 30
0.0
 41
1.0
 10
13.4917231620228
 20
0.125000000000001
 30
0.0
 41
0.7071067811865476
 10
13.49172316202277
 20
0.125
 30
0.0
 41
1.0
  0
SPLINE
  5
148
330
1F
100
AcDbEntity
  8
Layer 01
370
    -3
100
AcDbSpline
210
0.0
220
0.0
230
1.0
 70
    12
 71
     2
 72
     6
 73
     3
 74
     0
 42
0.000000001
 43
0.0000000001
 40
3.628539514896211
 40
3.628539514896211
 40
3.628539514896211
 40
3.824889055745573
 40
3.824889055745573
 40
3.824889055745573
 10
13.49172316202277
 20
0.125
 30
0.0
 41
1.0
 10
13.4917231620228
 20
0.0
 30
0.0
 41
0.7071067811865476
 10
13.36672316202277
 20
0.0
 30
0.0
 41
1.0
  0
SPLINE
  5
149
330
1F
100
AcDbEntity
  8
Layer 01
370
    -3
100
AcDbSpline
210
0.0
220
0.0
230
1.0
 70
    24
 71
     2
 72
     6
 73
     3
 74
     0
 42
0.000000001
 43
0.0000000001
 40
3.824889055745573
 40
3.824889055745573
 40
3.824889055745573
 40
4.168639055745573
 40
4.168639055745573
 40
4.168639055745573
 10
13.36672316202277
 20
0.0
 30
0.0
 10
13.19484816202277
 20
0.0
 30
0.0
 10
13.02297316202277
 20
0.0
 30
0.0
  0
SPLINE
  5
14A
330
1F
100
AcDbEntity
  8
Layer 01
370
    -3
100
AcDbSpline
210
0.0
220
0.0
230
1.0
 70
    28
 71
     2
 72
     8
 73
     5
 74
     0
 42
0.000000001
 43
0.0000000001
 40
4.168639055745573
 40
4.168639055745573
 40
4.168639055745573
 40
6.1301709688307
 40
6.1301709688307
 40
8.091702881915827
 40
8.091702881915827
 40
8.091702881915827
 10
13.02297316202277
 20
0.0
 30
0.0
 41
1.0
 10
13.0229731620228
 20
0.0
 30
0.0
 41
0.7071067811865476
 10
13.02297316202277
 20
1.280000000000001
 30
0.0
 41
1.0
 10
13.0229731620228
 20
2.560000000000001
 30
0.0
 41
0.7071067811865476
 10
13.02297316202277
 20
2.559999999999999
 30
0.0
 41
1.0
  0
SPLINE
  5
14B
330
1F
100
AcDbEntity
  8
Layer 01
370
    -3
100
AcDbSpline
210
0.0
220
0.0
230
1.0
 70
    24
 71
     2
 72
     6
 73
     3
 74
     0
 42
0.000000001
 43
0.0000000001
 40
8.091702881915827
 40
8.091702881915827
 40
8.091702881915827
 40
8.435452881915827
 40
8.435452881915827
 40
8.435452881915827
 10
13.02297316202277
 20
2.559999999999999
 30
0.0
 10
13.19484816202277
 20
2.559999999999999
 30
0.0
 10
13.36672316202277
 20
2.559999999999999
 30
0.0
  0
SPLINE
  5
14C
330
1F
100
AcDbEntity
  8
Layer 01
370
    -3
100
AcDbSpline
210
0.0
220
0.0
230
1.0
 70
    12
 71
     2
 72
     6
 73
     3
 74
     0
 42
0.000000001
 43
0.0000000001
 40
8.435452881915827
 40
8.435452881915827
 40
8.435452881915827
 40
8.631802422765189
 40
8.631802422765189
 40
8.631802422765189
 10
13.36672316202277
 20
2.559999999999999
 30
0.0
 41
1.0
 10
13.4917231620228
 20
2.560000000000001
 30
0.0
 41
0.7071067811865476
 10
13.49172316202277
 20
2.434999999999999
 30
0.0
 41
1.0
  0
LINE
  5
14D
330
1F
100
AcDbEntity
  8
Layer 01
100
AcDbLine
 10
12.98973300542866
 20
0.764632751400999
 30
0.0
 11
12.23945236431442
 21
0.764632751401004
 31
0.0
  0
LINE
  5
14E
330
1F
100
AcDbEntity
  8
Layer 01
100
AcDbLine
 10
12.23945236431442
 20
0.764632751401004
 30
0.0
 11
12.23945236431442
 21
2.660000000000005
 31
0.0
  0
LINE
  5
14F
330
1F
100
AcDbEntity
  8
Layer 01
100
AcDbLine
 10
12.23945236431442
 20
2.660000000000005
 30
0.0
 11
12.98973300542869
 21
2.66
 31
0.0
  0
LINE
  5
150
330
1F
100
AcDbEntity
  8
Layer 01
100
AcDbLine
 10
12.98973300542869
 20
2.66
 30
0.0
 11
12.98973300542866
 21
0.764632751400999
 31
0.0
  0
LINE
  5
151
330
1F
100
AcDbEntity
  8
Layer 01
100
AcDbLine
 10
8.223801088073287
 20
2.559999999999999
 30
0.0
 11
7.473520446958958
 21
2.559999999999999
 31
0.0
  0
SPLINE
  5
152
330
1F
100
AcDbEntity
  8
Layer 01
370
    -3
100
AcDbSpline
210
0.0
220
0.0
230
1.0
 70
    28
 71
     2
 72
     8
 73
     5
 74
     0
 42
0.000000001
 43
0.0000000001
 40
0.0
 40
0.0
 40
0.0
 40
1.814269757448105
 40
1.814269757448105
 40
3.628539514896211
 40
3.628539514896211
 40
3.628539514896211
 10
6.975791354379055
 20
2.434999999999999
 30
0.0
 41
1.0
 10
6.975791354379051
 20
2.435
 30
0.0
 41
0.7071067811865476
 10
6.975791354379055
 20
1.280000000000001
 30
0.0
 41
1.0
 10
6.975791354379051
 20
0.125000000000001
 30
0.0
 41
0.7071067811865476
 10
6.975791354379055
 20
0.125
 30
0.0
 41
1.0
  0
SPLINE
  5
153
330
1F
100
AcDbEntity
  8
Layer 01
370
    -3
100
AcDbSpline
210
0.0
220
0.0
230
1.0
 70
    12
 71
     2
 72
     6
 73
     3
 74
     0
 42
0.000000001
 43
0.0000000001
 40
3.628539514896211
 40
3.628539514896211
 40
3.628539514896211
 40
3.824889055745573
 40
3.824889055745573
 40
3.824889055745573
 10
6.975791354379055
 20
0.125
 30
0.0
 41
1.0
 10
6.975791354379051
 20
0.0
 30
0.0
 41
0.7071067811865476
 10
7.100791354379055
 20
0.0
 30
0.0
 41
1.0
  0
SPLINE
  5
154
330
1F
100
AcDbEntity
  8
Layer 01
370
    -3
100
AcDbSpline
210
0.0
220
0.0
230
1.0
 70
    24
 71
     2
 72
     6
 73
     3
 74
     0
 42
0.000000001
 43
0.0000000001
 40
3.824889055745573
 40
3.824889055745573
 40
3.824889055745573
 40
4.168639055745573
 40
4.168639055745573
 40
4.168639055745573
 10
7.100791354379055
 20
0.0
 30
0.0
 10
7.272666354379055
 20
0.0
 30
0.0
 10
7.444541354379055
 20
0.0
 30
0.0
  0
SPLINE
  5
155
330
1F
100
AcDbEntity
  8
Layer 01
370
    -3
100
AcDbSpline
210
0.0
220
0.0
230
1.0
 70
    28
 71
     2
 72
     8
 73
     5
 74
     0
 42
0.000000001
 43
0.0000000001
 40
4.168639055745573
 40
4.168639055745573
 40
4.168639055745573
 40
6.1301709688307
 40
6.1301709688307
 40
8.091702881915827
 40
8.091702881915827
 40
8.091702881915827
 10
7.444541354379055
 20
0.0
 30
0.0
 41
1.0
 10
7.44454135437905
 20
0.0
 30
0.0
 41
0.7071067811865476
 10
7.444541354379055
 20
1.280000000000001
 30
0.0
 41
1.0
 10
7.44454135437905
 20
2.560000000000001
 30
0.0
 41
0.7071067811865476
 10
7.444541354379055
 20
2.559999999999999
 30
0.0
 41
1.0
  0
SPLINE
  5
156
330
1F
100
AcDbEntity
  8
Layer 01
370
    -3
100
AcDbSpline
210
0.0
220
0.0
230
1.0
 70
    24
 71
     2
 72
     6
 73
     3
 74
     0
 42
0.000000001
 43
0.0000000001
 40
8.091702881915827
 40
8.091702881915827
 40
8.091702881915827
 40
8.435452881915827
 40
8.435452881915827
 40
8.435452881915827
 10
7.444541354379055
 20
2.559999999999999
 30
0.0
 10
7.272666354379055
 20
2.559999999999999
 30
0.0
 10
7.100791354379055
 20
2.559999999999999
 30
0.0
  0
SPLINE
  5
157
330
1F
100
AcDbEntity
  8
Layer 01
370
    -3
100
AcDbSpline
210
0.0
220
0.0
230
1.0
 70
    12
 71
     2
 72
     6
 73
     3
 74
     0
 42
0.000000001
 43
0.0000000001
 40
8.435452881915827
 40
8.435452881915827
 40
8.435452881915827
 40
8.631802422765189
 40
8.631802422765189
 40
8.631802422765189
 10
7.100791354379055
 20
2.559999999999999
 30
0.0
 41
1.0
 10
6.975791354379051
 20
2.560000000000001
 30
0.0
 41
0.7071067811865476
 10
6.975791354379055
 20
2.434999999999999
 30
0.0
 41
1.0
  0
SPLINE
  5
158
330
1F
100
AcDbEntity
  8
Layer 01
370
    -3
100
AcDbSpline
210
0.0
220
0.0
230
1.0
 70
    28
 71
     2
 72
     8
 73
     5
 74
     0
 42
0.000000001
 43
0.0000000001
 40
0.0
 40
0.0
 40
0.0
 40
1.814269757448105
 40
1.814269757448105
 40
3.628539514896211
 40
3.628539514896211
 40
3.628539514896211
 10
8.725791244667334
 20
2.434999999999999
 30
0.0
 41
1.0
 10
8.725791244667374
 20
2.435
 30
0.0
 41
0.7071067811865476
 10
8.725791244667334
 20
1.280000000000001
 30
0.0
 41
1.0
 10
8.725791244667374
 20
0.125000000000001
 30
0.0
 41
0.7071067811865476
 10
8.725791244667334
 20
0.125
 30
0.0
 41
1.0
  0
SPLINE
  5
159
330
1F
100
AcDbEntity
  8
Layer 01
370
    -3
100
AcDbSpline
210
0.0
220
0.0
230
1.0
 70
    12
 71
     2
 72
     6
 73
     3
 74
     0
 42
0.000000001
 43
0.0000000001
 40
3.628539514896211
 40
3.628539514896211
 40
3.628539514896211
 40
3.824889055745573
 40
3.824889055745573
 40
3.824889055745573
 10
8.725791244667334
 20
0.125
 30
0.0
 41
1.0
 10
8.725791244667374
 20
0.0
 30
0.0
 41
0.7071067811865476
 10
8.600791244667334
 20
0.0
 30
0.0
 41
1.0
  0
SPLINE
  5
15A
330
1F
100
AcDbEntity
  8
Layer 01
370
    -3
100
AcDbSpline
210
0.0
220
0.0
230
1.0
 70
    24
 71
     2
 72
     6
 73
     3
 74
     0
 42
0.000000001
 43
0.0000000001
 40
3.824889055745573
 40
3.824889055745573
 40
3.824889055745573
 40
4.168639055745573
 40
4.168639055745573
 40
4.168639055745573
 10
8.600791244667334
 20
0.0
 30
0.0
 10
8.428916244667334
 20
0.0
 30
0.0
 10
8.257041244667334
 20
0.0
 30
0.0
  0
SPLINE
  5
15B
330
1F
100
AcDbEntity
  8
Layer 01
370
    -3
100
AcDbSpline
210
0.0
220
0.0
230
1.0
 70
    28
 71
     2
 72
     8
 73
     5
 74
     0
 42
0.000000001
 43
0.0000000001
 40
4.168639055745573
 40
4.168639055745573
 40
4.168639055745573
 40
6.1301709688307
 40
6.1301709688307
 40
8.091702881915827
 40
8.091702881915827
 40
8.091702881915827
 10
8.257041244667334
 20
0.0
 30
0.0
 41
1.0
 10
8.257041244667375
 20
0.0
 30
0.0
 41
0.7071067811865476
 10
8.257041244667334
 20
1.280000000000001
 30
0.0
 41
1.0
 10
8.257041244667375
 20
2.560000000000001
 30
0.0
 41
0.7071067811865476
 10
8.257041244667334
 20
2.559999999999999
 30
0.0
 41
1.0
  0
SPLINE
  5
15C
330
1F
100
AcDbEntity
  8
Layer 01
370
    -3
100
AcDbSpline
210
0.0
220
0.0
230
1.0
 70
    24
 71
     2
 72
     6
 73
     3
 74
     0
 42
0.000000001
 43
0.0000000001
 40
8.091702881915827
 40
8.091702881915827
 40
8.091702881915827
 40
8.435452881915827
 40
8.435452881915827
 40
8.435452881915827
 10
8.257041244667334
 20
2.559999999999999
 30
0.0
 10
8.428916244667334
 20
2.559999999999999
 30
0.0
 10
8.600791244667334
 20
2.559999999999999
 30
0.0
  0
SPLINE
  5
15D
330
1F
100
AcDbEntity
  8
Layer 01
370
    -3
100
AcDbSpline
210
0.0
220
0.0
230
1.0
 70
    12
 71
     2
 72
     6
 73
     3
 74
     0
 42
0.000000001
 43
0.0000000001
 40
8.435452881915827
 40
8.435452881915827
 40
8.435452881915827
 40
8.631802422765189
 40
8.631802422765189
 40
8.631802422765189
 10
8.600791244667334
 20
2.559999999999999
 30
0.0
 41
1.0
 10
8.725791244667374
 20
2.560000000000001
 30
0.0
 41
0.7071067811865476
 10
8.725791244667334
 20
2.434999999999999
 30
0.0
 41
1.0
  0
LINE
  5
15E
330
1F
100
AcDbEntity
  8
Layer 01
100
AcDbLine
 10
8.223801088073287
 20
0.764632751400999
 30
0.0
 11
7.473520446958958
 21
0.764632751401004
 31
0.0
  0
LINE
  5
15F
330
1F
100
AcDbEntity
  8
Layer 01
100
AcDbLine
 10
7.473520446958958
 20
0.764632751401004
 30
0.0
 11
7.473520446958958
 21
2.660000000000005
 31
0.0
  0
LINE
  5
160
330
1F
100
AcDbEntity
  8
Layer 01
100
AcDbLine
 10
7.473520446958958
 20
2.660000000000005
 30
0.0
 11
8.223801088073287
 21
2.66
 31
0.0
  0
LINE
  5
161
330
1F
100
AcDbEntity
  8
Layer 01
100
AcDbLine
 10
8.223801088073287
 20
2.66
 30
0.0
 11
8.223801088073287
 21
0.764632751400999
 31
0.0
  0
SPLINE
  5
162
330
1F
100
AcDbEntity
  8
Layer 01
100
AcDbSpline
210
0.0
220
0.0
230
1.0
 70
     8
 71
     2
 72
    12
 73
     9
 74
     0
 42
0.000000001
 43
0.0000000001
 40
0.0
 40
0.0
 40
0.0
 40
1.0
 40
1.0
 40
2.0
 40
3.0
 40
4.0
 40
5.0
 40
6.0
 40
6.0
 40
6.0
 10
7.126942185967948
 20
4.979177352193016
 30
0.0
 10
7.498034228666796
 20
4.789896551756508
 30
0.0
 10
7.869126271365644
 20
4.600615751319999
 30
0.0
 10
7.929945518520583
 20
4.57065561468114
 30
0.0
 10
8.030743574544402
 20
4.478314219118541
 30
0.0
 10
8.079304671836383
 20
4.350713217491551
 30
0.0
 10
8.095123133428842
 20
4.216426403538835
 30
0.0
 10
8.09892096130963
 20
4.081542106025829
 30
0.0
 10
8.09892096130963
 20
4.014085938904
 30
0.0
  0
LINE
  5
163
330
1F
100
AcDbEntity
  8
Layer 01
100
AcDbLine
 10
8.09892096130963
 20
4.014085938904
 30
0.0
 11
8.09892096130963
 21
2.66
 31
0.0
  0
SPLINE
  5
164
330
1F
100
AcDbEntity
  8
Layer 01
100
AcDbSpline
210
0.0
220
0.0
230
1.0
 70
     8
 71
     2
 72
    12
 73
     9
 74
     0
 42
0.000000001
 43
0.0000000001
 40
0.0
 40
0.0
 40
0.0
 40
1.0
 40
1.0
 40
2.0
 40
3.0
 40
4.0
 40
5.0
 40
6.0
 40
6.0
 40
6.0
 10
-6.963497912451004
 20
4.979177352193016
 30
0.0
 10
-7.334589955149823
 20
4.789896551756508
 30
0.0
 10
-7.705681997848643
 20
4.600615751319999
 30
0.0
 10
-7.766501245003582
 20
4.57065561468114
 30
0.0
 10
-7.86729930102743
 20
4.478314219118541
 30
0.0
 10
-7.915860398319381
 20
4.350713217491551
 30
0.0
 10
-7.931678859911841
 20
4.216426403538835
 30
0.0
 10
-7.935476687792658
 20
4.081542106025829
 30
0.0
 10
-7.935476687792658
 20
4.014085938904
 30
0.0
  0
LINE
  5
165
330
1F
100
AcDbEntity
  8
Layer 01
100
AcDbLine
 10
-7.935476687792658
 20
4.014085938904
 30
0.0
 11
-7.935476687792658
 21
2.66
 31
0.0
  0
ARC
  5
166
330
1F
100
AcDbEntity
  8
Layer 01
100
AcDbCircle
 10
1.500525346434131
 20
-11.93877620960413
 30
0.0
 40
18.18362634431487
100
AcDbArc
 50
96.7717621082526
 51
100.5749364561846
  0
LINE
  5
167
330
1F
100
AcDbEntity
  8
Layer 01
100
AcDbLine
 10
-1.836558425431605
 20
5.936014388587836
 30
0.0
 11
-4.66689072641023
 21
5.407620104650732
 31
0.0
  0
ARC
  5
168
330
1F
100
AcDbEntity
  8
Layer 01
100
AcDbCircle
 10
20163.02374240396
 20
-108028.2626004672
 30
0.0
 40
109899.9983930888
100
AcDbArc
 50
100.5742437395582
 51
100.5764235842095
  0
SPLINE
  5
169
330
1F
100
AcDbEntity
  8
Layer 01
100
AcDbSpline
210
0.0
220
0.0
230
1.0
 70
     8
 71
     3
 72
     8
 73
     4
 74
     0
 42
0.000000001
 43
0.0000000001
 40
7.515787022546658
 40
7.515787022546658
 40
7.515787022546658
 40
7.515787022546658
 40
10.53802802522718
 40
10.53802802522718
 40
10.53802802522718
 40
10.53802802522718
 10
-8.777067494236377
 20
4.640252722478383
 30
0.0
 10
-9.720139102855256
 20
4.464163289202832
 30
0.0
 10
-10.66206499483778
 20
4.288166745818657
 30
0.0
 10
-11.60451123603909
 20
4.112121806277104
 30
0.0
  0
SPLINE
  5
16A
330
1F
100
AcDbEntity
  8
Layer 01
100
AcDbSpline
210
0.0
220
0.0
230
1.0
 70
     8
 71
     3
 72
    10
 73
     6
 74
     0
 42
0.000000001
 43
0.0000000001
 40
10.53802802522718
 40
10.53802802522718
 40
10.53802802522718
 40
10.53802802522718
 40
11.53802802522718
 40
12.53802802522718
 40
13.53802802522718
 40
13.53802802522718
 40
13.53802802522718
 40
13.53802802522718
 10
-11.60451123603909
 20
4.112121806277104
 30
0.0
 10
-11.66195095524031
 20
4.100389510818919
 30
0.0
 10
-11.78188183293321
 20
4.077954256492879
 30
0.0
 10
-11.91653050581559
 20
3.949668104264195
 30
0.0
 10
-11.93444291294455
 20
3.826712655271818
 30
0.0
 10
-11.93819651114259
 20
3.768472118071458
 30
0.0
  0
SPLINE
  5
16B
330
1F
100
AcDbEntity
  8
Layer 01
100
AcDbSpline
210
0.0
220
0.0
230
1.0
 70
    24
 71
     2
 72
     6
 73
     3
 74
     0
 42
0.000000001
 43
0.0000000001
 40
13.53802802522718
 40
13.53802802522718
 40
13.53802802522718
 40
14.53802802522718
 40
14.53802802522718
 40
14.53802802522718
 10
-11.93819651114259
 20
3.768472118071458
 30
0.0
 10
-11.96566954510698
 20
3.252120527743939
 30
0.0
 10
-11.99314257907133
 20
2.73576893741642
 30
0.0
  0
SPLINE
  5
16C
330
1F
100
AcDbEntity
  8
Layer 01
100
AcDbSpline
210
0.0
220
0.0
230
1.0
 70
     8
 71
     3
 72
     9
 73
     5
 74
     0
 42
0.000000001
 43
0.0000000001
 40
14.53802802522718
 40
14.53802802522718
 40
14.53802802522718
 40
14.53802802522718
 40
15.53802634857669
 40
16.53802802522718
 40
16.53802802522718
 40
16.53802802522718
 40
16.53802802522718
 10
-11.99314257907133
 20
2.73576893741642
 30
0.0
 10
-11.99410359418013
 20
2.715491659601413
 30
0.0
 10
-12.01257161208829
 20
2.676133056742581
 30
0.0
 10
-12.05292190364412
 20
2.659834779411311
 30
0.0
 10
-12.07316694131785
 20
2.659999991153164
 30
0.0
  0
LINE
  5
16D
330
1F
100
AcDbEntity
  8
Layer 01
100
AcDbLine
 10
-12.07316694131785
 20
2.659999991153164
 30
0.0
 11
-12.82902847731614
 21
2.660069194884112
 31
0.0
  0
SPLINE
  5
16E
330
1F
100
AcDbEntity
  8
Layer 01
100
AcDbSpline
210
0.0
220
0.0
230
1.0
 70
     8
 71
     3
 72
     9
 73
     5
 74
     0
 42
0.000000001
 43
0.0000000001
 40
17.29388956439347
 40
17.29388956439347
 40
17.29388956439347
 40
17.29388956439347
 40
18.29388956439347
 40
19.29388956439347
 40
19.29388956439347
 40
19.29388956439347
 40
19.29388956439347
 10
-12.82902847731614
 20
2.660069194884112
 30
0.0
 10
-12.84998218145995
 20
2.66080107198454
 30
0.0
 10
-12.89077451710656
 20
2.680047827728218
 30
0.0
 10
-12.9066218271382
 20
2.722277226330053
 30
0.0
 10
-12.90556606095393
 20
2.744493147658569
 30
0.0
  0
SPLINE
  5
16F
330
1F
100
AcDbEntity
  8
Layer 01
100
AcDbSpline
210
0.0
220
0.0
230
1.0
 70
    24
 71
     2
 72
     6
 73
     3
 74
     0
 42
0.000000001
 43
0.0000000001
 40
19.29388956439347
 40
19.29388956439347
 40
19.29388956439347
 40
20.29388956439347
 40
20.29388956439347
 40
20.29388956439347
 10
-12.90556606095393
 20
2.744493147658569
 30
0.0
 10
-12.85964289659702
 20
3.384338439221282
 30
0.0
 10
-12.81371973224006
 20
4.024183730783994
 30
0.0
  0
SPLINE
  5
170
330
1F
100
AcDbEntity
  8
Layer 01
100
AcDbSpline
210
0.0
220
0.0
230
1.0
 70
     8
 71
     2
 72
    11
 73
     8
 74
     0
 42
0.000000001
 43
0.0000000001
 40
20.29388956439347
 40
20.29388956439347
 40
20.29388956439347
 40
21.29388956439347
 40
22.29388956439347
 40
23.29388956439347
 40
24.29388956439347
 40
25.29388956439347
 40
26.29388956439347
 40
26.29388956439347
 40
26.29388956439347
 10
-12.81371973224006
 20
4.024183730783994
 30
0.0
 10
-12.80559476517752
 20
4.143890711861745
 30
0.0
 10
-12.74929849912408
 20
4.377287544232974
 30
0.0
 10
-12.64484840614611
 20
4.594176827890802
 30
0.0
 10
-12.48254623902884
 20
4.772862232978678
 30
0.0
 10
-12.27127024073118
 20
4.888502106164355
 30
0.0
 10
-12.04548936845623
 20
4.96859904827164
 30
0.0
 10
-11.93141749035908
 20
5.004896679165322
 30
0.0
  0
SPLINE
  5
171
330
1F
100
AcDbEntity
  8
Layer 01
100
AcDbSpline
210
0.0
220
0.0
230
1.0
 70
     8
 71
     2
 72
    11
 73
     8
 74
     0
 42
0.000000001
 43
0.0000000001
 40
26.29388956439347
 40
26.29388956439347
 40
26.29388956439347
 40
27.29388956439347
 40
28.29388956439347
 40
29.29388956439347
 40
30.29388956439347
 40
31.29388956439347
 40
32.29388956439347
 40
32.29388956439347
 40
32.29388956439347
 10
-11.93141749035908
 20
5.004896679165322
 30
0.0
 10
-11.06567736272851
 20
5.284798963000831
 30
0.0
 10
-9.334502221318616
 20
5.845496247543455
 30
0.0
 10
-7.603743429428476
 20
6.407474675947627
 30
0.0
 10
-5.873715204772594
 20
6.971717038494237
 30
0.0
 10
-4.144388204375019
 20
7.537994364466119
 30
0.0
 10
-2.420210906250531
 20
8.12060039235205
 30
0.0
 10
-1.544795859691561
 20
8.369378208180802
 30
0.0
  0
ARC
  5
172
330
1F
100
AcDbEntity
  8
Layer 01
100
AcDbCircle
 10
-3.50459925280569
 20
-9.398751328514521
 30
0.0
 40
18.47167610789275
210
0.0
220
0.0
230
-1.0
100
AcDbArc
 50
74.13576712148702
 51
76.22276321310714
  0
LINE
  5
173
330
1F
100
AcDbEntity
  8
Layer 01
100
AcDbLine
 10
-0.8943863369382541
 20
8.54147564931719
 30
0.0
 11
1.057830610455227
 21
8.54147564931719
 31
0.0
  0
ARC
  5
174
330
1F
100
AcDbEntity
  8
Layer 01
100
AcDbCircle
 10
3.341154979288689
 20
-9.398751328514521
 30
0.0
 40
18.47167610789275
210
0.0
220
0.0
230
-1.0
100
AcDbArc
 50
103.7772367868929
 51
105.864232878513
  0
SPLINE
  5
175
330
1F
100
AcDbEntity
  8
Layer 01
100
AcDbSpline
210
0.0
220
0.0
230
1.0
 70
     8
 71
     2
 72
    11
 73
     8
 74
     0
 42
0.000000001
 43
0.0000000001
 40
35.59176631161418
 40
35.59176631161418
 40
35.59176631161418
 40
36.59176631161418
 40
37.59176631161418
 40
38.59176631161418
 40
39.59176631161418
 40
40.59176631161418
 40
41.59176631161418
 40
41.59176631161418
 40
41.59176631161418
 10
1.708240133208534
 20
8.369378208180802
 30
0.0
 10
2.583655179767504
 20
8.12060039235205
 30
0.0
 10
4.307832477891992
 20
7.537994364466119
 30
0.0
 10
6.037159478289595
 20
6.971717038494237
 30
0.0
 10
7.767187702945421
 20
6.407474675947627
 30
0.0
 10
9.497946494835588
 20
5.845496247543455
 30
0.0
 10
11.22912163624548
 20
5.284798963000831
 30
0.0
 10
12.09486176387605
 20
5.004896679165322
 30
0.0
  0
SPLINE
  5
176
330
1F
100
AcDbEntity
  8
Layer 01
100
AcDbSpline
210
0.0
220
0.0
230
1.0
 70
     8
 71
     2
 72
    11
 73
     8
 74
     0
 42
0.000000001
 43
0.0000000001
 40
41.59176631161418
 40
41.59176631161418
 40
41.59176631161418
 40
42.59176631161418
 40
43.59176631161418
 40
44.59176631161418
 40
45.59176631161418
 40
46.59176631161418
 40
47.59176631161418
 40
47.59176631161418
 40
47.59176631161418
 10
12.09486176387605
 20
5.004896679165322
 30
0.0
 10
12.2089336419732
 20
4.96859904827164
 30
0.0
 10
12.4347145142481
 20
4.888502106164355
 30
0.0
 10
12.64599051254578
 20
4.772862232978678
 30
0.0
 10
12.80829267966311
 20
4.594176827890802
 30
0.0
 10
12.91274277264105
 20
4.377287544232974
 30
0.0
 10
12.96903903869449
 20
4.143890711861745
 30
0.0
 10
12.97716400575706
 20
4.024183730783994
 30
0.0
  0
SPLINE
  5
177
330
1F
100
AcDbEntity
  8
Layer 01
100
AcDbSpline
210
0.0
220
0.0
230
1.0
 70
    24
 71
     2
 72
     6
 73
     3
 74
     0
 42
0.000000001
 43
0.0000000001
 40
47.59176631161418
 40
47.59176631161418
 40
47.59176631161418
 40
48.59176631161418
 40
48.59176631161418
 40
48.59176631161418
 10
12.97716400575706
 20
4.024183730783994
 30
0.0
 10
13.023087170114
 20
3.384338439221282
 30
0.0
 10
13.0690103344709
 20
2.744493147658569
 30
0.0
  0
SPLINE
  5
178
330
1F
100
AcDbEntity
  8
Layer 01
100
AcDbSpline
210
0.0
220
0.0
230
1.0
 70
     8
 71
     3
 72
     9
 73
     5
 74
     0
 42
0.000000001
 43
0.0000000001
 40
48.59176631161418
 40
48.59176631161418
 40
48.59176631161418
 40
48.59176631161418
 40
49.59176631161418
 40
50.59176631161418
 40
50.59176631161418
 40
50.59176631161418
 40
50.59176631161418
 10
13.0690103344709
 20
2.744493147658569
 30
0.0
 10
13.07006610065514
 20
2.722277226330053
 30
0.0
 10
13.05421879062354
 20
2.680047827728218
 30
0.0
 10
13.01342645497692
 20
2.66080107198454
 30
0.0
 10
12.99247275083309
 20
2.660069194884112
 30
0.0
  0
LINE
  5
179
330
1F
100
AcDbEntity
  8
Layer 01
100
AcDbLine
 10
12.99247275083309
 20
2.660069194884112
 30
0.0
 11
12.23661121483482
 21
2.659999991153164
 31
0.0
  0
SPLINE
  5
17A
330
1F
100
AcDbEntity
  8
Layer 01
100
AcDbSpline
210
0.0
220
0.0
230
1.0
 70
     8
 71
     3
 72
     9
 73
     5
 74
     0
 42
0.000000001
 43
0.0000000001
 40
51.34762785078047
 40
51.34762785078047
 40
51.34762785078047
 40
51.34762785078047
 40
52.34762952743095
 40
53.34762785078047
 40
53.34762785078047
 40
53.34762785078047
 40
53.34762785078047
 10
12.23661121483482
 20
2.659999991153164
 30
0.0
 10
12.21636617716109
 20
2.659834779411311
 30
0.0
 10
12.17601588560527
 20
2.676133056742581
 30
0.0
 10
12.1575478676971
 20
2.715491659601413
 30
0.0
 10
12.1565868525883
 20
2.73576893741642
 30
0.0
  0
SPLINE
  5
17B
330
1F
100
AcDbEntity
  8
Layer 01
100
AcDbSpline
210
0.0
220
0.0
230
1.0
 70
    24
 71
     2
 72
     6
 73
     3
 74
     0
 42
0.000000001
 43
0.0000000001
 40
53.34762785078047
 40
53.34762785078047
 40
53.34762785078047
 40
54.34762785078047
 40
54.34762785078047
 40
54.34762785078047
 10
12.1565868525883
 20
2.73576893741642
 30
0.0
 10
12.12911381862395
 20
3.252120527743939
 30
0.0
 10
12.10164078465957
 20
3.768472118071458
 30
0.0
  0
SPLINE
  5
17C
330
1F
100
AcDbEntity
  8
Layer 01
100
AcDbSpline
210
0.0
220
0.0
230
1.0
 70
     8
 71
     3
 72
    10
 73
     6
 74
     0
 42
0.000000001
 43
0.0000000001
 40
54.34762785078047
 40
54.34762785078047
 40
54.34762785078047
 40
54.34762785078047
 40
55.34762785078047
 40
56.34762785078047
 40
57.34762785078047
 40
57.34762785078047
 40
57.34762785078047
 40
57.34762785078047
 10
12.10164078465957
 20
3.768472118071458
 30
0.0
 10
12.09788718646152
 20
3.826712655271818
 30
0.0
 10
12.07997477933256
 20
3.949668104264195
 30
0.0
 10
11.94532610645018
 20
4.077954256492879
 30
0.0
 10
11.82539522875729
 20
4.100389510818919
 30
0.0
 10
11.76795550955606
 20
4.112121806277104
 30
0.0
  0
SPLINE
  5
17D
330
1F
100
AcDbEntity
  8
Layer 01
100
AcDbSpline
210
0.0
220
0.0
230
1.0
 70
     8
 71
     3
 72
     8
 73
     4
 74
     0
 42
0.000000001
 43
0.0000000001
 40
57.34762785078047
 40
57.34762785078047
 40
57.34762785078047
 40
57.34762785078047
 40
60.36986885346099
 40
60.36986885346099
 40
60.36986885346099
 40
60.36986885346099
 10
11.76795550955606
 20
4.112121806277104
 30
0.0
 10
10.82550926835475
 20
4.288166745818657
 30
0.0
 10
9.883583376372258
 20
4.464163289202832
 30
0.0
 10
8.94051176775335
 20
4.640252722478383
 30
0.0
  0
ARC
  5
17E
330
1F
100
AcDbEntity
  8
Layer 01
100
AcDbCircle
 10
-20162.86029813045
 20
-108028.2626004672
 30
0.0
 40
109899.9983930888
100
AcDbArc
 50
79.42357641579054
 51
79.42575626044183
  0
LINE
  5
17F
330
1F
100
AcDbEntity
  8
Layer 01
100
AcDbLine
 10
4.830334999927231
 20
5.407620104650732
 30
0.0
 11
2.000002698948606
 21
5.936014388587836
 31
0.0
  0
ARC
  5
180
330
1F
100
AcDbEntity
  8
Layer 01
100
AcDbCircle
 10
-1.33708107291713
 20
-11.93877620960413
 30
0.0
 40
18.18362634431487
100
AcDbArc
 50
79.42506354381545
 51
83.22823789174743
  0
LINE
  5
181
330
1F
100
AcDbEntity
  8
Layer 01
370
    -3
100
AcDbLine
 10
-12.47320333169498
 20
2.660000000000002
 30
0.0
 11
-12.33696321479565
 21
3.839520013411999
 31
0.0
  0
SPLINE
  5
182
330
1F
100
AcDbEntity
  8
Layer 01
370
    -3
100
AcDbSpline
210
0.0
220
0.0
230
1.0
 70
     8
 71
     3
 72
    31
 73
    27
 74
     0
 42
0.000000001
 43
0.0000000001
 40
-18.7386924087816
 40
-18.7386924087816
 40
-18.7386924087816
 40
-18.7386924087816
 40
-18.68126287397777
 40
-18.62383333917395
 40
-18.56640380437012
 40
-18.50897426956625
 40
-18.45154473476251
 40
-18.39411519995863
 40
-18.33668566515476
 40
-18.27925613035102
 40
-18.22182659554715
 40
-18.16439706074327
 40
-18.10696752593953
 40
-18.04953799113566
 40
-17.99210845633178
 40
-17.93467892152805
 40
-17.87724938672417
 40
-17.8198198519203
 40
-17.76239031711656
 40
-17.70496078231269
 40
-17.64753124750881
 40
-17.59010171270508
 40
-17.5326721779012
 40
-17.47524264309733
 40
-17.41781310829359
 40
-17.36038357348972
 40
-17.36038357348972
 40
-17.36038357348972
 40
-17.36038357348972
 10
-12.33696321479565
 20
3.839520013411999
 30
0.0
 10
-12.33582389324565
 20
3.850053781577
 30
0.0
 10
-12.33341224519566
 20
3.872156354996999
 30
0.0
 10
-12.32939188498565
 20
3.908164911598998
 30
0.0
 10
-12.32485822420566
 20
3.947654367142
 30
0.0
 10
-12.31968768158566
 20
3.991016523269
 30
0.0
 10
-12.31373146228566
 20
4.038767482666
 30
0.0
 10
-12.30674278114563
 20
4.091115660002
 30
0.0
 10
-12.29807486577565
 20
4.148855216392001
 30
0.0
 10
-12.28726772883564
 20
4.209883566869998
 30
0.0
 10
-12.27407904741565
 20
4.271164934367
 30
0.0
 10
-12.25890423573563
 20
4.329065075240997
 30
0.0
 10
-12.24171081168564
 20
4.383669916568998
 30
0.0
 10
-12.22166073754565
 20
4.43662734207
 30
0.0
 10
-12.19781996196568
 20
4.488212444944999
 30
0.0
 10
-12.16880235212565
 20
4.538225719612999
 30
0.0
 10
-12.13651509772566
 20
4.582437189414001
 30
0.0
 10
-12.10328087402567
 20
4.620149245872
 30
0.0
 10
-12.06303889917567
 20
4.657687272099999
 30
0.0
 10
-12.01556366255565
 20
4.693516090408
 30
0.0
 10
-11.96257852557565
 20
4.726622550911998
 30
0.0
 10
-11.90754945420568
 20
4.755960069255998
 30
0.0
 10
-11.85064825326566
 20
4.782460648145999
 30
0.0
 10
-11.78683145561567
 20
4.808759491022002
 30
0.0
 10
-11.71620683662567
 20
4.834823686577
 30
0.0
 10
-11.66415340005565
 20
4.852292158883998
 30
0.0
 10
-11.63692277662565
 20
4.861102060956
 30
0.0
  0
SPLINE
  5
183
330
1F
100
AcDbEntity
  8
Layer 01
370
    -3
100
AcDbSpline
210
0.0
220
0.0
230
1.0
 70
     8
 71
     3
 72
     9
 73
     5
 74
     0
 42
0.000000001
 43
0.0000000001
 40
-17.36038357348972
 40
-17.36038357348972
 40
-17.36038357348972
 40
-17.36038357348972
 40
-16.36038357348972
 40
-15.36038357348972
 40
-15.36038357348972
 40
-15.36038357348972
 40
-15.36038357348972
 10
-11.63692277662565
 20
4.861102060956
 30
0.0
 10
-10.05564863371754
 20
5.373062147918096
 30
0.0
 10
-6.893340414269602
 20
6.397723860915135
 30
0.0
 10
-3.731393312388178
 20
7.423499235443776
 30
0.0
 10
-2.150485864632657
 20
7.936590584886
 30
0.0
  0
SPLINE
  5
184
330
1F
100
AcDbEntity
  8
Layer 01
370
    -3
100
AcDbSpline
210
0.0
220
0.0
230
1.0
 70
     8
 71
     3
 72
    12
 73
     8
 74
     0
 42
0.000000001
 43
0.0000000001
 40
-15.36038357348972
 40
-15.36038357348972
 40
-15.36038357348972
 40
-15.36038357348972
 40
-14.36038357348972
 40
-13.36038357348972
 40
-12.36038357348972
 40
-11.36038357348972
 40
-10.36038357348972
 40
-10.36038357348972
 40
-10.36038357348972
 40
-10.36038357348972
 10
-2.150485864632657
 20
7.936590584886
 30
0.0
 10
-2.05681450857989
 20
7.967160073125992
 30
0.0
 10
-1.868651410391806
 20
8.025952261069854
 30
0.0
 10
-1.581863771597483
 20
8.0981936389229
 30
0.0
 10
-1.290157568845132
 20
8.148604519154134
 30
0.0
 10
-0.9936997696579795
 20
8.15724493845398
 30
0.0
 10
-0.8033936619746953
 20
8.045049284590474
 30
0.0
 10
-0.7976898460532595
 20
7.936590584756999
 30
0.0
  0
SPLINE
  5
185
330
1F
100
AcDbEntity
  8
Layer 01
370
    -3
100
AcDbSpline
210
0.0
220
0.0
230
1.0
 70
     8
 71
     3
 72
    12
 73
     8
 74
     0
 42
0.000000001
 43
0.0000000001
 40
-10.36038357348972
 40
-10.36038357348972
 40
-10.36038357348972
 40
-10.36038357348972
 40
-8.288306858791774
 40
-6.21623014409383
 40
-4.144153429395887
 40
-2.072076714697943
 40
0.0
 40
0.0
 40
0.0
 40
0.0
 10
-0.7976898460532595
 20
7.936590584756999
 30
0.0
 10
-0.7781853255631574
 20
7.706373996633999
 30
0.0
 10
-0.740027713954845
 20
7.256016050275999
 30
0.0
 10
-0.6853457594718577
 20
6.610704561233
 30
0.0
 10
-0.6332182899983252
 20
5.995615375115001
 30
0.0
 10
-0.5836451086615568
 20
5.410741510062
 30
0.0
 10
-0.55229882482476
 20
5.040961205346999
 30
0.0
 10
-0.5370511758224268
 20
4.861102060655
 30
0.0
  0
SPLINE
  5
186
330
1F
100
AcDbEntity
  8
Layer 01
370
    -3
100
AcDbSpline
210
0.0
220
0.0
230
1.0
 70
     8
 71
     3
 72
     8
 73
     4
 74
     0
 42
0.000000001
 43
0.0000000001
 40
0.0
 40
0.0
 40
0.0
 40
0.0
 40
1.0
 40
1.0
 40
1.0
 40
1.0
 10
-0.5370511758224268
 20
4.861102060655
 30
0.0
 10
-0.4856614754587838
 20
4.151443940644368
 30
0.0
 10
-0.4466084189384958
 20
3.440799933283394
 30
0.0
 10
-0.3802464739091249
 20
2.732290239530109
 30
0.0
  0
SPLINE
  5
187
330
1F
100
AcDbEntity
  8
Layer 01
370
    -3
100
AcDbSpline
210
0.0
220
0.0
230
1.0
 70
    12
 71
     2
 72
     6
 73
     3
 74
     0
 42
0.000000001
 43
0.0000000001
 40
1.0
 40
1.0
 40
1.0
 40
1.117941961857999
 40
1.117941961857999
 40
1.117941961857999
 10
-0.3802464739091249
 20
2.732290239530109
 30
0.0
 41
1.0
 10
-0.3732472667891678
 20
2.659999999549123
 30
0.0
 41
0.7403958399117924
 10
-0.3006202930818347
 20
2.66
 30
0.0
 41
1.0
  0
LINE
  5
188
330
1F
100
AcDbEntity
  8
Layer 01
370
    -3
100
AcDbLine
 10
-0.3006202930818347
 20
2.66
 30
0.0
 11
0.464064488143265
 21
2.66
 31
0.0
  0
SPLINE
  5
189
330
1F
100
AcDbEntity
  8
Layer 01
370
    -3
100
AcDbSpline
210
0.0
220
0.0
230
1.0
 70
    12
 71
     2
 72
     6
 73
     3
 74
     0
 42
0.000000001
 43
0.0000000001
 40
1.882626743083127
 40
1.882626743083127
 40
1.882626743083127
 40
2.000568704941126
 40
2.000568704941126
 40
2.000568704941126
 10
0.464064488143265
 20
2.66
 30
0.0
 41
1.0
 10
0.5366914618505639
 20
2.659999999549123
 30
0.0
 41
0.7403958399117924
 10
0.5436906689705552
 20
2.732290239530109
 30
0.0
 41
1.0
  0
SPLINE
  5
18A
330
1F
100
AcDbEntity
  8
Layer 01
370
    -3
100
AcDbSpline
210
0.0
220
0.0
230
1.0
 70
     8
 71
     3
 72
     8
 73
     4
 74
     0
 42
0.000000001
 43
0.0000000001
 40
2.000568704941126
 40
2.000568704941126
 40
2.000568704941126
 40
2.000568704941126
 40
3.000568704941126
 40
3.000568704941126
 40
3.000568704941126
 40
3.000568704941126
 10
0.5436906689705552
 20
2.732290239530109
 30
0.0
 10
0.610052613999926
 20
3.440799933283394
 30
0.0
 10
0.6491056705202141
 20
4.151443940644368
 30
0.0
 10
0.700495370883857
 20
4.861102060655
 30
0.0
  0
SPLINE
  5
18B
330
1F
100
AcDbEntity
  8
Layer 01
370
    -3
100
AcDbSpline
210
0.0
220
0.0
230
1.0
 70
     8
 71
     3
 72
    12
 73
     8
 74
     0
 42
0.000000001
 43
0.0000000001
 40
3.000568704941126
 40
3.000568704941126
 40
3.000568704941126
 40
3.000568704941126
 40
5.072645419639069
 40
7.144722134337013
 40
9.216798849034957
 40
11.2888755637329
 40
13.36095227843084
 40
13.36095227843084
 40
13.36095227843084
 40
13.36095227843084
 10
0.700495370883857
 20
4.861102060655
 30
0.0
 10
0.7157430198861618
 20
5.040961205346999
 30
0.0
 10
0.7470893037229587
 20
5.410741510062
 30
0.0
 10
0.7966624850597555
 20
5.995615375115001
 30
0.0
 10
0.8487899545332596
 20
6.610704561233
 30
0.0
 10
0.9034719090162753
 20
7.256016050275999
 30
0.0
 10
0.9416295206245593
 20
7.706373996633999
 30
0.0
 10
0.9611340411146614
 20
7.936590584756999
 30
0.0
  0
SPLINE
  5
18C
330
1F
100
AcDbEntity
  8
Layer 01
370
    -3
100
AcDbSpline
210
0.0
220
0.0
230
1.0
 70
     8
 71
     3
 72
    12
 73
     8
 74
     0
 42
0.000000001
 43
0.0000000001
 40
13.36095227843084
 40
13.36095227843084
 40
13.36095227843084
 40
13.36095227843084
 40
14.36095227843084
 40
15.36095227843084
 40
16.36095227843084
 40
17.36095227843084
 40
18.36095227843084
 40
18.36095227843084
 40
18.36095227843084
 40
18.36095227843084
 10
0.9611340411146614
 20
7.936590584756999
 30
0.0
 10
0.9668378570361256
 20
8.045049284590474
 30
0.0
 10
1.157143964719381
 20
8.15724493845398
 30
0.0
 10
1.453601763906534
 20
8.148604519154134
 30
0.0
 10
1.745307966658885
 20
8.0981936389229
 30
0.0
 10
2.032095605453208
 20
8.025952261069854
 30
0.0
 10
2.220258703641292
 20
7.967160073125992
 30
0.0
 10
2.313930059694059
 20
7.936590584886
 30
0.0
  0
SPLINE
  5
18D
330
1F
100
AcDbEntity
  8
Layer 01
370
    -3
100
AcDbSpline
210
0.0
220
0.0
230
1.0
 70
     8
 71
     3
 72
     9
 73
     5
 74
     0
 42
0.000000001
 43
0.0000000001
 40
18.36095227843084
 40
18.36095227843084
 40
18.36095227843084
 40
18.36095227843084
 40
19.36095227843084
 40
20.36095227843084
 40
20.36095227843084
 40
20.36095227843084
 40
20.36095227843084
 10
2.313930059694059
 20
7.936590584886
 30
0.0
 10
3.894837507449552
 20
7.423499235443776
 30
0.0
 10
7.056784609331032
 20
6.397723860915135
 30
0.0
 10
10.21909282877894
 20
5.373062147918096
 30
0.0
 10
11.80036697168705
 20
4.861102060956
 30
0.0
  0
SPLINE
  5
18E
330
1F
100
AcDbEntity
  8
Layer 01
370
    -3
100
AcDbSpline
210
0.0
220
0.0
230
1.0
 70
     8
 71
     3
 72
    31
 73
    27
 74
     0
 42
0.000000001
 43
0.0000000001
 40
20.36095227843084
 40
20.36095227843084
 40
20.36095227843084
 40
20.36095227843084
 40
20.41838181323472
 40
20.47581134803846
 40
20.53324088284233
 40
20.5906704176462
 40
20.64809995244994
 40
20.70552948725382
 40
20.76295902205769
 40
20.82038855686143
 40
20.8778180916653
 40
20.93524762646917
 40
20.99267716127291
 40
21.05010669607679
 40
21.10753623088066
 40
21.1649657656844
 40
21.22239530048827
 40
21.27982483529215
 40
21.33725437009588
 40
21.39468390489976
 40
21.45211343970363
 40
21.50954297450737
 40
21.56697250931125
 40
21.62440204411508
 40
21.6818315789189
 40
21.73926111372273
 40
21.73926111372273
 40
21.73926111372273
 40
21.73926111372273
 10
11.80036697168705
 20
4.861102060956
 30
0.0
 10
11.82759759511706
 20
4.852292158883998
 30
0.0
 10
11.87965103168705
 20
4.834823686577
 30
0.0
 10
11.95027565067707
 20
4.808759491022002
 30
0.0
 10
12.01409244832706
 20
4.782460648145999
 30
0.0
 10
12.07099364926705
 20
4.755960069255998
 30
0.0
 10
12.12602272063708
 20
4.726622550911998
 30
0.0
 10
12.17900785761708
 20
4.693516090408
 30
0.0
 10
12.22648309423707
 20
4.657687272099999
 30
0.0
 10
12.26672506908707
 20
4.620149245872
 30
0.0
 10
12.29995929278707
 20
4.582437189414001
 30
0.0
 10
12.33224654718705
 20
4.538225719612999
 30
0.0
 10
12.36126415702705
 20
4.488212444944999
 30
0.0
 10
12.38510493260705
 20
4.43662734207
 30
0.0
 10
12.40515500674707
 20
4.383669916568998
 30
0.0
 10
12.42234843079703
 20
4.329065075240997
 30
0.0
 10
12.43752324247706
 20
4.271164934367
 30
0.0
 10
12.45071192389707
 20
4.209883566869998
 30
0.0
 10
12.46151906083708
 20
4.148855216392001
 30
0.0
 10
12.47018697620706
 20
4.091115660002
 30
0.0
 10
12.47717565734706
 20
4.038767482666
 30
0.0
 10
12.48313187664706
 20
3.991016523269
 30
0.0
 10
12.48830241926706
 20
3.947654367142
 30
0.0
 10
12.49283608004706
 20
3.908164911598998
 30
0.0
 10
12.49685644025706
 20
3.872156354996999
 30
0.0
 10
12.49926808830708
 20
3.850053781577
 30
0.0
 10
12.50040740985708
 20
3.839520013411999
 30
0.0
  0
LINE
  5
18F
330
1F
100
AcDbEntity
  8
Layer 01
370
    -3
100
AcDbLine
 10
12.50040740985708
 20
3.839520013411999
 30
0.0
 11
12.63664752675641
 21
2.660000000000002
 31
0.0
  0
SPLINE
  5
190
330
1F
100
AcDbEntity
  8
Layer 01
100
AcDbSpline
210
0.0
220
0.0
230
1.0
 70
     8
 71
     3
 72
    23
 73
    19
 74
     0
 42
0.000000001
 43
0.0000000001
 40
0.0
 40
0.0
 40
0.0
 40
0.0
 40
1.0
 40
2.0
 40
3.0
 40
4.0
 40
5.0
 40
5.0
 40
5.0
 40
6.0
 40
7.0
 40
7.0
 40
7.0
 40
8.0
 40
9.0
 40
10.0
 40
11.0
 40
12.0
 40
12.0
 40
12.0
 40
12.0
 10
-0.7864744653982427
 20
7.709594541556385
 30
0.0
 10
-0.8251490272278659
 20
7.799343395320215
 30
0.0
 10
-1.016566040450897
 20
7.843009709052099
 30
0.0
 10
-1.283295315362039
 20
7.835782309957255
 30
0.0
 10
-1.55304335669004
 20
7.797605588401983
 30
0.0
 10
-1.817785676403901
 20
7.740186007612472
 30
0.0
 10
-1.989860148658551
 20
7.684288413645933
 30
0.0
 10
-2.075969610745659
 20
7.657168898386999
 30
0.0
 10
-3.661304510631254
 20
7.159570710519648
 30
0.0
 10
-6.836391658450651
 20
6.178182254560918
 30
0.0
 10
-9.995663772106553
 20
5.147061016862906
 30
0.0
 10
-11.57997329770566
 20
4.646198880216999
 30
0.0
 10
-11.63525111817248
 20
4.628723401580549
 30
0.0
 10
-11.74452592485821
 20
4.589875658461169
 30
0.0
 10
-11.89521835653014
 20
4.498569400824747
 30
0.0
 10
-12.00083024626556
 20
4.356721763169798
 30
0.0
 10
-12.05809761309413
 20
4.191253501726509
 30
0.0
 10
-12.07832119074939
 20
4.076836923566272
 30
0.0
 10
-12.08382004096566
 20
4.019146844723998
 30
0.0
  0
LINE
  5
191
330
1F
100
AcDbEntity
  8
Layer 01
100
AcDbLine
 10
-12.08382004096566
 20
4.019146844723998
 30
0.0
 11
-12.21336995788445
 21
2.660000000000004
 31
0.0
  0
LINE
  5
192
330
1F
100
AcDbEntity
  8
Layer 01
100
AcDbLine
 10
-12.82628873191172
 20
2.559999999999999
 30
0.0
 11
-12.07600809079739
 21
2.559999999999999
 31
0.0
  0
SPLINE
  5
193
330
1F
100
AcDbEntity
  8
Layer 01
370
    -3
100
AcDbSpline
210
0.0
220
0.0
230
1.0
 70
    28
 71
     2
 72
     8
 73
     5
 74
     0
 42
0.000000001
 43
0.0000000001
 40
0.0
 40
0.0
 40
0.0
 40
1.814269757448105
 40
1.814269757448105
 40
3.628539514896211
 40
3.628539514896211
 40
3.628539514896211
 10
-11.57827899821748
 20
2.434999999999999
 30
0.0
 41
1.0
 10
-11.57827899821745
 20
2.435
 30
0.0
 41
0.7071067811865476
 10
-11.57827899821748
 20
1.280000000000001
 30
0.0
 41
1.0
 10
-11.57827899821745
 20
0.125000000000001
 30
0.0
 41
0.7071067811865476
 10
-11.57827899821748
 20
0.125
 30
0.0
 41
1.0
  0
SPLINE
  5
194
330
1F
100
AcDbEntity
  8
Layer 01
370
    -3
100
AcDbSpline
210
0.0
220
0.0
230
1.0
 70
    12
 71
     2
 72
     6
 73
     3
 74
     0
 42
0.000000001
 43
0.0000000001
 40
3.628539514896211
 40
3.628539514896211
 40
3.628539514896211
 40
3.824889055745573
 40
3.824889055745573
 40
3.824889055745573
 10
-11.57827899821748
 20
0.125
 30
0.0
 41
1.0
 10
-11.57827899821745
 20
0.0
 30
0.0
 41
0.7071067811865476
 10
-11.70327899821748
 20
0.0
 30
0.0
 41
1.0
  0
SPLINE
  5
195
330
1F
100
AcDbEntity
  8
Layer 01
370
    -3
100
AcDbSpline
210
0.0
220
0.0
230
1.0
 70
    24
 71
     2
 72
     6
 73
     3
 74
     0
 42
0.000000001
 43
0.0000000001
 40
3.824889055745573
 40
3.824889055745573
 40
3.824889055745573
 40
4.168639055745573
 40
4.168639055745573
 40
4.168639055745573
 10
-11.70327899821748
 20
0.0
 30
0.0
 10
-11.87515399821748
 20
0.0
 30
0.0
 10
-12.04702899821748
 20
0.0
 30
0.0
  0
SPLINE
  5
196
330
1F
100
AcDbEntity
  8
Layer 01
370
    -3
100
AcDbSpline
210
0.0
220
0.0
230
1.0
 70
    28
 71
     2
 72
     8
 73
     5
 74
     0
 42
0.000000001
 43
0.0000000001
 40
4.168639055745573
 40
4.168639055745573
 40
4.168639055745573
 40
6.1301709688307
 40
6.1301709688307
 40
8.091702881915827
 40
8.091702881915827
 40
8.091702881915827
 10
-12.04702899821748
 20
0.0
 30
0.0
 41
1.0
 10
-12.04702899821745
 20
0.0
 30
0.0
 41
0.7071067811865476
 10
-12.04702899821748
 20
1.280000000000001
 30
0.0
 41
1.0
 10
-12.04702899821745
 20
2.560000000000001
 30
0.0
 41
0.7071067811865476
 10
-12.04702899821748
 20
2.559999999999999
 30
0.0
 41
1.0
  0
SPLINE
  5
197
330
1F
100
AcDbEntity
  8
Layer 01
370
    -3
100
AcDbSpline
210
0.0
220
0.0
230
1.0
 70
    24
 71
     2
 72
     6
 73
     3
 74
     0
 42
0.000000001
 43
0.0000000001
 40
8.091702881915827
 40
8.091702881915827
 40
8.091702881915827
 40
8.435452881915827
 40
8.435452881915827
 40
8.435452881915827
 10
-12.04702899821748
 20
2.559999999999999
 30
0.0
 10
-11.87515399821748
 20
2.559999999999999
 30
0.0
 10
-11.70327899821748
 20
2.559999999999999
 30
0.0
  0
SPLINE
  5
198
330
1F
100
AcDbEntity
  8
Layer 01
370
    -3
100
AcDbSpline
210
0.0
220
0.0
230
1.0
 70
    12
 71
     2
 72
     6
 73
     3
 74
     0
 42
0.000000001
 43
0.0000000001
 40
8.435452881915827
 40
8.435452881915827
 40
8.435452881915827
 40
8.631802422765189
 40
8.631802422765189
 40
8.631802422765189
 10
-11.70327899821748
 20
2.559999999999999
 30
0.0
 41
1.0
 10
-11.57827899821745
 20
2.560000000000001
 30
0.0
 41
0.7071067811865476
 10
-11.57827899821748
 20
2.434999999999999
 30
0.0
 41
1.0
  0
SPLINE
  5
199
330
1F
100
AcDbEntity
  8
Layer 01
370
    -3
100
AcDbSpline
210
0.0
220
0.0
230
1.0
 70
    28
 71
     2
 72
     8
 73
     5
 74
     0
 42
0.000000001
 43
0.0000000001
 40
0.0
 40
0.0
 40
0.0
 40
1.814269757448105
 40
1.814269757448105
 40
3.628539514896211
 40
3.628539514896211
 40
3.628539514896211
 10
-13.32827888850576
 20
2.434999999999999
 30
0.0
 41
1.0
 10
-13.32827888850578
 20
2.435
 30
0.0
 41
0.7071067811865476
 10
-13.32827888850576
 20
1.280000000000001
 30
0.0
 41
1.0
 10
-13.32827888850578
 20
0.125000000000001
 30
0.0
 41
0.7071067811865476
 10
-13.32827888850576
 20
0.125
 30
0.0
 41
1.0
  0
SPLINE
  5
19A
330
1F
100
AcDbEntity
  8
Layer 01
370
    -3
100
AcDbSpline
210
0.0
220
0.0
230
1.0
 70
    12
 71
     2
 72
     6
 73
     3
 74
     0
 42
0.000000001
 43
0.0000000001
 40
3.628539514896211
 40
3.628539514896211
 40
3.628539514896211
 40
3.824889055745573
 40
3.824889055745573
 40
3.824889055745573
 10
-13.32827888850576
 20
0.125
 30
0.0
 41
1.0
 10
-13.32827888850578
 20
0.0
 30
0.0
 41
0.7071067811865476
 10
-13.20327888850576
 20
0.0
 30
0.0
 41
1.0
  0
SPLINE
  5
19B
330
1F
100
AcDbEntity
  8
Layer 01
370
    -3
100
AcDbSpline
210
0.0
220
0.0
230
1.0
 70
    24
 71
     2
 72
     6
 73
     3
 74
     0
 42
0.000000001
 43
0.0000000001
 40
3.824889055745573
 40
3.824889055745573
 40
3.824889055745573
 40
4.168639055745573
 40
4.168639055745573
 40
4.168639055745573
 10
-13.20327888850576
 20
0.0
 30
0.0
 10
-13.03140388850576
 20
0.0
 30
0.0
 10
-12.85952888850576
 20
0.0
 30
0.0
  0
SPLINE
  5
19C
330
1F
100
AcDbEntity
  8
Layer 01
370
    -3
100
AcDbSpline
210
0.0
220
0.0
230
1.0
 70
    28
 71
     2
 72
     8
 73
     5
 74
     0
 42
0.000000001
 43
0.0000000001
 40
4.168639055745573
 40
4.168639055745573
 40
4.168639055745573
 40
6.1301709688307
 40
6.1301709688307
 40
8.091702881915827
 40
8.091702881915827
 40
8.091702881915827
 10
-12.85952888850576
 20
0.0
 30
0.0
 41
1.0
 10
-12.85952888850578
 20
0.0
 30
0.0
 41
0.7071067811865476
 10
-12.85952888850576
 20
1.280000000000001
 30
0.0
 41
1.0
 10
-12.85952888850578
 20
2.560000000000001
 30
0.0
 41
0.7071067811865476
 10
-12.85952888850576
 20
2.559999999999999
 30
0.0
 41
1.0
  0
SPLINE
  5
19D
330
1F
100
AcDbEntity
  8
Layer 01
370
    -3
100
AcDbSpline
210
0.0
220
0.0
230
1.0
 70
    24
 71
     2
 72
     6
 73
     3
 74
     0
 42
0.000000001
 43
0.0000000001
 40
8.091702881915827
 40
8.091702881915827
 40
8.091702881915827
 40
8.435452881915827
 40
8.435452881915827
 40
8.435452881915827
 10
-12.85952888850576
 20
2.559999999999999
 30
0.0
 10
-13.03140388850576
 20
2.559999999999999
 30
0.0
 10
-13.20327888850576
 20
2.559999999999999
 30
0.0
  0
SPLINE
  5
19E
330
1F
100
AcDbEntity
  8
Layer 01
370
    -3
100
AcDbSpline
210
0.0
220
0.0
230
1.0
 70
    12
 71
     2
 72
     6
 73
     3
 74
     0
 42
0.000000001
 43
0.0000000001
 40
8.435452881915827
 40
8.435452881915827
 40
8.435452881915827
 40
8.631802422765189
 40
8.631802422765189
 40
8.631802422765189
 10
-13.20327888850576
 20
2.559999999999999
 30
0.0
 41
1.0
 10
-13.32827888850578
 20
2.560000000000001
 30
0.0
 41
0.7071067811865476
 10
-13.32827888850576
 20
2.434999999999999
 30
0.0
 41
1.0
  0
LINE
  5
19F
330
1F
100
AcDbEntity
  8
Layer 01
100
AcDbLine
 10
-12.82628873191172
 20
0.764632751400999
 30
0.0
 11
-12.07600809079739
 21
0.764632751401004
 31
0.0
  0
LINE
  5
1A0
330
1F
100
AcDbEntity
  8
Layer 01
100
AcDbLine
 10
-12.07600809079739
 20
0.764632751401004
 30
0.0
 11
-12.07600809079739
 21
2.660000000000005
 31
0.0
  0
LINE
  5
1A1
330
1F
100
AcDbEntity
  8
Layer 01
100
AcDbLine
 10
-12.07600809079739
 20
2.660000000000005
 30
0.0
 11
-12.82628873191172
 21
2.66
 31
0.0
  0
LINE
  5
1A2
330
1F
100
AcDbEntity
  8
Layer 01
100
AcDbLine
 10
-12.82628873191172
 20
2.66
 30
0.0
 11
-12.82628873191172
 21
0.764632751400999
 31
0.0
  0
LINE
  5
1A3
330
1F
100
AcDbEntity
  8
Layer 01
100
AcDbLine
 10
-8.060356814556286
 20
2.559999999999999
 30
0.0
 11
-7.310076173442013
 21
2.559999999999999
 31
0.0
  0
SPLINE
  5
1A4
330
1F
100
AcDbEntity
  8
Layer 01
370
    -3
100
AcDbSpline
210
0.0
220
0.0
230
1.0
 70
    28
 71
     2
 72
     8
 73
     5
 74
     0
 42
0.000000001
 43
0.0000000001
 40
0.0
 40
0.0
 40
0.0
 40
1.814269757448105
 40
1.814269757448105
 40
3.628539514896211
 40
3.628539514896211
 40
3.628539514896211
 10
-6.812347080862111
 20
2.434999999999999
 30
0.0
 41
1.0
 10
-6.812347080862073
 20
2.435
 30
0.0
 41
0.7071067811865476
 10
-6.812347080862111
 20
1.280000000000001
 30
0.0
 41
1.0
 10
-6.812347080862073
 20
0.125000000000001
 30
0.0
 41
0.7071067811865476
 10
-6.812347080862111
 20
0.125
 30
0.0
 41
1.0
  0
SPLINE
  5
1A5
330
1F
100
AcDbEntity
  8
Layer 01
370
    -3
100
AcDbSpline
210
0.0
220
0.0
230
1.0
 70
    12
 71
     2
 72
     6
 73
     3
 74
     0
 42
0.000000001
 43
0.0000000001
 40
3.628539514896211
 40
3.628539514896211
 40
3.628539514896211
 40
3.824889055745573
 40
3.824889055745573
 40
3.824889055745573
 10
-6.812347080862111
 20
0.125
 30
0.0
 41
1.0
 10
-6.812347080862073
 20
0.0
 30
0.0
 41
0.7071067811865476
 10
-6.937347080862111
 20
0.0
 30
0.0
 41
1.0
  0
SPLINE
  5
1A6
330
1F
100
AcDbEntity
  8
Layer 01
370
    -3
100
AcDbSpline
210
0.0
220
0.0
230
1.0
 70
    24
 71
     2
 72
     6
 73
     3
 74
     0
 42
0.000000001
 43
0.0000000001
 40
3.824889055745573
 40
3.824889055745573
 40
3.824889055745573
 40
4.168639055745573
 40
4.168639055745573
 40
4.168639055745573
 10
-6.937347080862111
 20
0.0
 30
0.0
 10
-7.109222080862111
 20
0.0
 30
0.0
 10
-7.281097080862111
 20
0.0
 30
0.0
  0
SPLINE
  5
1A7
330
1F
100
AcDbEntity
  8
Layer 01
370
    -3
100
AcDbSpline
210
0.0
220
0.0
230
1.0
 70
    28
 71
     2
 72
     8
 73
     5
 74
     0
 42
0.000000001
 43
0.0000000001
 40
4.168639055745573
 40
4.168639055745573
 40
4.168639055745573
 40
6.1301709688307
 40
6.1301709688307
 40
8.091702881915827
 40
8.091702881915827
 40
8.091702881915827
 10
-7.281097080862111
 20
0.0
 30
0.0
 41
1.0
 10
-7.281097080862073
 20
0.0
 30
0.0
 41
0.7071067811865476
 10
-7.281097080862111
 20
1.280000000000001
 30
0.0
 41
1.0
 10
-7.281097080862073
 20
2.560000000000001
 30
0.0
 41
0.7071067811865476
 10
-7.281097080862111
 20
2.559999999999999
 30
0.0
 41
1.0
  0
SPLINE
  5
1A8
330
1F
100
AcDbEntity
  8
Layer 01
370
    -3
100
AcDbSpline
210
0.0
220
0.0
230
1.0
 70
    24
 71
     2
 72
     6
 73
     3
 74
     0
 42
0.000000001
 43
0.0000000001
 40
8.091702881915827
 40
8.091702881915827
 40
8.091702881915827
 40
8.435452881915827
 40
8.435452881915827
 40
8.435452881915827
 10
-7.281097080862111
 20
2.559999999999999
 30
0.0
 10
-7.109222080862111
 20
2.559999999999999
 30
0.0
 10
-6.937347080862111
 20
2.559999999999999
 30
0.0
  0
SPLINE
  5
1A9
330
1F
100
AcDbEntity
  8
Layer 01
370
    -3
100
AcDbSpline
210
0.0
220
0.0
230
1.0
 70
    12
 71
     2
 72
     6
 73
     3
 74
     0
 42
0.000000001
 43
0.0000000001
 40
8.435452881915827
 40
8.435452881915827
 40
8.435452881915827
 40
8.631802422765189
 40
8.631802422765189
 40
8.631802422765189
 10
-6.937347080862111
 20
2.559999999999999
 30
0.0
 41
1.0
 10
-6.812347080862073
 20
2.560000000000001
 30
0.0
 41
0.7071067811865476
 10
-6.812347080862111
 20
2.434999999999999
 30
0.0
 41
1.0
  0
SPLINE
  5
1AA
330
1F
100
AcDbEntity
  8
Layer 01
370
    -3
100
AcDbSpline
210
0.0
220
0.0
230
1.0
 70
    28
 71
     2
 72
     8
 73
     5
 74
     0
 42
0.000000001
 43
0.0000000001
 40
0.0
 40
0.0
 40
0.0
 40
1.814269757448105
 40
1.814269757448105
 40
3.628539514896211
 40
3.628539514896211
 40
3.628539514896211
 10
-8.56234697115039
 20
2.434999999999999
 30
0.0
 41
1.0
 10
-8.562346971150397
 20
2.435
 30
0.0
 41
0.7071067811865476
 10
-8.56234697115039
 20
1.280000000000001
 30
0.0
 41
1.0
 10
-8.562346971150397
 20
0.125000000000001
 30
0.0
 41
0.7071067811865476
 10
-8.56234697115039
 20
0.125
 30
0.0
 41
1.0
  0
SPLINE
  5
1AB
330
1F
100
AcDbEntity
  8
Layer 01
370
    -3
100
AcDbSpline
210
0.0
220
0.0
230
1.0
 70
    12
 71
     2
 72
     6
 73
     3
 74
     0
 42
0.000000001
 43
0.0000000001
 40
3.628539514896211
 40
3.628539514896211
 40
3.628539514896211
 40
3.824889055745573
 40
3.824889055745573
 40
3.824889055745573
 10
-8.56234697115039
 20
0.125
 30
0.0
 41
1.0
 10
-8.562346971150397
 20
0.0
 30
0.0
 41
0.7071067811865476
 10
-8.43734697115039
 20
0.0
 30
0.0
 41
1.0
  0
SPLINE
  5
1AC
330
1F
100
AcDbEntity
  8
Layer 01
370
    -3
100
AcDbSpline
210
0.0
220
0.0
230
1.0
 70
    24
 71
     2
 72
     6
 73
     3
 74
     0
 42
0.000000001
 43
0.0000000001
 40
3.824889055745573
 40
3.824889055745573
 40
3.824889055745573
 40
4.168639055745573
 40
4.168639055745573
 40
4.168639055745573
 10
-8.43734697115039
 20
0.0
 30
0.0
 10
-8.26547197115039
 20
0.0
 30
0.0
 10
-8.09359697115039
 20
0.0
 30
0.0
  0
SPLINE
  5
1AD
330
1F
100
AcDbEntity
  8
Layer 01
370
    -3
100
AcDbSpline
210
0.0
220
0.0
230
1.0
 70
    28
 71
     2
 72
     8
 73
     5
 74
     0
 42
0.000000001
 43
0.0000000001
 40
4.168639055745573
 40
4.168639055745573
 40
4.168639055745573
 40
6.1301709688307
 40
6.1301709688307
 40
8.091702881915827
 40
8.091702881915827
 40
8.091702881915827
 10
-8.09359697115039
 20
0.0
 30
0.0
 41
1.0
 10
-8.093596971150399
 20
0.0
 30
0.0
 41
0.7071067811865476
 10
-8.09359697115039
 20
1.280000000000001
 30
0.0
 41
1.0
 10
-8.093596971150399
 20
2.560000000000001
 30
0.0
 41
0.7071067811865476
 10
-8.09359697115039
 20
2.559999999999999
 30
0.0
 41
1.0
  0
SPLINE
  5
1AE
330
1F
100
AcDbEntity
  8
Layer 01
370
    -3
100
AcDbSpline
210
0.0
220
0.0
230
1.0
 70
    24
 71
     2
 72
     6
 73
     3
 74
     0
 42
0.000000001
 43
0.0000000001
 40
8.091702881915827
 40
8.091702881915827
 40
8.091702881915827
 40
8.435452881915827
 40
8.435452881915827
 40
8.435452881915827
 10
-8.09359697115039
 20
2.559999999999999
 30
0.0
 10
-8.26547197115039
 20
2.559999999999999
 30
0.0
 10
-8.43734697115039
 20
2.559999999999999
 30
0.0
  0
SPLINE
  5
1AF
330
1F
100
AcDbEntity
  8
Layer 01
370
    -3
100
AcDbSpline
210
0.0
220
0.0
230
1.0
 70
    12
 71
     2
 72
     6
 73
     3
 74
     0
 42
0.000000001
 43
0.0000000001
 40
8.435452881915827
 40
8.435452881915827
 40
8.435452881915827
 40
8.631802422765189
 40
8.631802422765189
 40
8.631802422765189
 10
-8.43734697115039
 20
2.559999999999999
 30
0.0
 41
1.0
 10
-8.562346971150397
 20
2.560000000000001
 30
0.0
 41
0.7071067811865476
 10
-8.56234697115039
 20
2.434999999999999
 30
0.0
 41
1.0
  0
LINE
  5
1B0
330
1F
100
AcDbEntity
  8
Layer 01
100
AcDbLine
 10
-8.060356814556286
 20
0.764632751400999
 30
0.0
 11
-7.310076173442013
 21
0.764632751401004
 31
0.0
  0
LINE
  5
1B1
330
1F
100
AcDbEntity
  8
Layer 01
100
AcDbLine
 10
-7.310076173442013
 20
0.764632751401004
 30
0.0
 11
-7.310076173442013
 21
2.660000000000005
 31
0.0
  0
LINE
  5
1B2
330
1F
100
AcDbEntity
  8
Layer 01
100
AcDbLine
 10
-7.310076173442013
 20
2.660000000000005
 30
0.0
 11
-8.060356814556286
 21
2.66
 31
0.0
  0
LINE
  5
1B3
330
1F
100
AcDbEntity
  8
Layer 01
100
AcDbLine
 10
-8.060356814556286
 20
2.66
 30
0.0
 11
-8.060356814556286
 21
0.764632751400999
 31
0.0
  0
LINE
  5
1B4
330
1F
100
AcDbEntity
  8
Layer 01
100
AcDbLine
 10
-0.2912876517915777
 20
2.559999999999999
 30
0.0
 11
0.4589929893227236
 21
2.559999999999999
 31
0.0
  0
SPLINE
  5
1B5
330
1F
100
AcDbEntity
  8
Layer 01
370
    -3
100
AcDbSpline
210
0.0
220
0.0
230
1.0
 70
    28
 71
     2
 72
     8
 73
     5
 74
     0
 42
0.000000001
 43
0.0000000001
 40
0.0
 40
0.0
 40
0.0
 40
1.814269757448105
 40
1.814269757448105
 40
3.628539514896211
 40
3.628539514896211
 40
3.628539514896211
 10
0.9567220819026261
 20
2.434999999999999
 30
0.0
 41
1.0
 10
0.9567220819026706
 20
2.435
 30
0.0
 41
0.7071067811865476
 10
0.9567220819026261
 20
1.280000000000001
 30
0.0
 41
1.0
 10
0.9567220819026706
 20
0.125000000000001
 30
0.0
 41
0.7071067811865476
 10
0.9567220819026261
 20
0.125
 30
0.0
 41
1.0
  0
SPLINE
  5
1B6
330
1F
100
AcDbEntity
  8
Layer 01
370
    -3
100
AcDbSpline
210
0.0
220
0.0
230
1.0
 70
    12
 71
     2
 72
     6
 73
     3
 74
     0
 42
0.000000001
 43
0.0000000001
 40
3.628539514896211
 40
3.628539514896211
 40
3.628539514896211
 40
3.824889055745573
 40
3.824889055745573
 40
3.824889055745573
 10
0.9567220819026261
 20
0.125
 30
0.0
 41
1.0
 10
0.9567220819026706
 20
0.0
 30
0.0
 41
0.7071067811865476
 10
0.8317220819026261
 20
0.0
 30
0.0
 41
1.0
  0
SPLINE
  5
1B7
330
1F
100
AcDbEntity
  8
Layer 01
370
    -3
100
AcDbSpline
210
0.0
220
0.0
230
1.0
 70
    24
 71
     2
 72
     6
 73
     3
 74
     0
 42
0.000000001
 43
0.0000000001
 40
3.824889055745573
 40
3.824889055745573
 40
3.824889055745573
 40
4.168639055745573
 40
4.168639055745573
 40
4.168639055745573
 10
0.8317220819026261
 20
0.0
 30
0.0
 10
0.6598470819026261
 20
0.0
 30
0.0
 10
0.4879720819026261
 20
0.0
 30
0.0
  0
SPLINE
  5
1B8
330
1F
100
AcDbEntity
  8
Layer 01
370
    -3
100
AcDbSpline
210
0.0
220
0.0
230
1.0
 70
    28
 71
     2
 72
     8
 73
     5
 74
     0
 42
0.000000001
 43
0.0000000001
 40
4.168639055745573
 40
4.168639055745573
 40
4.168639055745573
 40
6.1301709688307
 40
6.1301709688307
 40
8.091702881915827
 40
8.091702881915827
 40
8.091702881915827
 10
0.4879720819026261
 20
0.0
 30
0.0
 41
1.0
 10
0.4879720819026719
 20
0.0
 30
0.0
 41
0.7071067811865476
 10
0.4879720819026261
 20
1.280000000000001
 30
0.0
 41
1.0
 10
0.4879720819026719
 20
2.560000000000001
 30
0.0
 41
0.7071067811865476
 10
0.4879720819026261
 20
2.559999999999999
 30
0.0
 41
1.0
  0
SPLINE
  5
1B9
330
1F
100
AcDbEntity
  8
Layer 01
370
    -3
100
AcDbSpline
210
0.0
220
0.0
230
1.0
 70
    24
 71
     2
 72
     6
 73
     3
 74
     0
 42
0.000000001
 43
0.0000000001
 40
8.091702881915827
 40
8.091702881915827
 40
8.091702881915827
 40
8.435452881915827
 40
8.435452881915827
 40
8.435452881915827
 10
0.4879720819026261
 20
2.559999999999999
 30
0.0
 10
0.6598470819026261
 20
2.559999999999999
 30
0.0
 10
0.8317220819026261
 20
2.559999999999999
 30
0.0
  0
SPLINE
  5
1BA
330
1F
100
AcDbEntity
  8
Layer 01
370
    -3
100
AcDbSpline
210
0.0
220
0.0
230
1.0
 70
    12
 71
     2
 72
     6
 73
     3
 74
     0
 42
0.000000001
 43
0.0000000001
 40
8.435452881915827
 40
8.435452881915827
 40
8.435452881915827
 40
8.631802422765189
 40
8.631802422765189
 40
8.631802422765189
 10
0.8317220819026261
 20
2.559999999999999
 30
0.0
 41
1.0
 10
0.9567220819026706
 20
2.560000000000001
 30
0.0
 41
0.7071067811865476
 10
0.9567220819026261
 20
2.434999999999999
 30
0.0
 41
1.0
  0
SPLINE
  5
1BB
330
1F
100
AcDbEntity
  8
Layer 01
370
    -3
100
AcDbSpline
210
0.0
220
0.0
230
1.0
 70
    28
 71
     2
 72
     8
 73
     5
 74
     0
 42
0.000000001
 43
0.0000000001
 40
0.0
 40
0.0
 40
0.0
 40
1.814269757448105
 40
1.814269757448105
 40
3.628539514896211
 40
3.628539514896211
 40
3.628539514896211
 10
-0.7932778083856249
 20
2.434999999999999
 30
0.0
 41
1.0
 10
-0.7932778083856532
 20
2.435
 30
0.0
 41
0.7071067811865476
 10
-0.7932778083856249
 20
1.280000000000001
 30
0.0
 41
1.0
 10
-0.7932778083856532
 20
0.125000000000001
 30
0.0
 41
0.7071067811865476
 10
-0.7932778083856249
 20
0.125
 30
0.0
 41
1.0
  0
SPLINE
  5
1BC
330
1F
100
AcDbEntity
  8
Layer 01
370
    -3
100
AcDbSpline
210
0.0
220
0.0
230
1.0
 70
    12
 71
     2
 72
     6
 73
     3
 74
     0
 42
0.000000001
 43
0.0000000001
 40
3.628539514896211
 40
3.628539514896211
 40
3.628539514896211
 40
3.824889055745573
 40
3.824889055745573
 40
3.824889055745573
 10
-0.7932778083856249
 20
0.125
 30
0.0
 41
1.0
 10
-0.7932778083856532
 20
0.0
 30
0.0
 41
0.7071067811865476
 10
-0.6682778083856249
 20
0.0
 30
0.0
 41
1.0
  0
SPLINE
  5
1BD
330
1F
100
AcDbEntity
  8
Layer 01
370
    -3
100
AcDbSpline
210
0.0
220
0.0
230
1.0
 70
    24
 71
     2
 72
     6
 73
     3
 74
     0
 42
0.000000001
 43
0.0000000001
 40
3.824889055745573
 40
3.824889055745573
 40
3.824889055745573
 40
4.168639055745573
 40
4.168639055745573
 40
4.168639055745573
 10
-0.6682778083856249
 20
0.0
 30
0.0
 10
-0.4964028083856249
 20
0.0
 30
0.0
 10
-0.3245278083856249
 20
0.0
 30
0.0
  0
SPLINE
  5
1BE
330
1F
100
AcDbEntity
  8
Layer 01
370
    -3
100
AcDbSpline
210
0.0
220
0.0
230
1.0
 70
    28
 71
     2
 72
     8
 73
     5
 74
     0
 42
0.000000001
 43
0.0000000001
 40
4.168639055745573
 40
4.168639055745573
 40
4.168639055745573
 40
6.1301709688307
 40
6.1301709688307
 40
8.091702881915827
 40
8.091702881915827
 40
8.091702881915827
 10
-0.3245278083856249
 20
0.0
 30
0.0
 41
1.0
 10
-0.3245278083856544
 20
0.0
 30
0.0
 41
0.7071067811865476
 10
-0.3245278083856249
 20
1.280000000000001
 30
0.0
 41
1.0
 10
-0.3245278083856544
 20
2.560000000000001
 30
0.0
 41
0.7071067811865476
 10
-0.3245278083856249
 20
2.559999999999999
 30
0.0
 41
1.0
  0
SPLINE
  5
1BF
330
1F
100
AcDbEntity
  8
Layer 01
370
    -3
100
AcDbSpline
210
0.0
220
0.0
230
1.0
 70
    24
 71
     2
 72
     6
 73
     3
 74
     0
 42
0.000000001
 43
0.0000000001
 40
8.091702881915827
 40
8.091702881915827
 40
8.091702881915827
 40
8.435452881915827
 40
8.435452881915827
 40
8.435452881915827
 10
-0.3245278083856249
 20
2.559999999999999
 30
0.0
 10
-0.4964028083856249
 20
2.559999999999999
 30
0.0
 10
-0.6682778083856249
 20
2.559999999999999
 30
0.0
  0
SPLINE
  5
1C0
330
1F
100
AcDbEntity
  8
Layer 01
370
    -3
100
AcDbSpline
210
0.0
220
0.0
230
1.0
 70
    12
 71
     2
 72
     6
 73
     3
 74
     0
 42
0.000000001
 43
0.0000000001
 40
8.435452881915827
 40
8.435452881915827
 40
8.435452881915827
 40
8.631802422765189
 40
8.631802422765189
 40
8.631802422765189
 10
-0.6682778083856249
 20
2.559999999999999
 30
0.0
 41
1.0
 10
-0.7932778083856532
 20
2.560000000000001
 30
0.0
 41
0.7071067811865476
 10
-0.7932778083856249
 20
2.434999999999999
 30
0.0
 41
1.0
  0
SPLINE
  5
1C1
330
1F
100
AcDbEntity
  8
Layer 01
370
    -3
100
AcDbSpline
210
0.0
220
0.0
230
1.0
 70
    24
 71
     2
 72
     6
 73
     3
 74
     0
 42
0.000000001
 43
0.0000000001
 40
0.0115163733987755
 40
0.0115163733987755
 40
0.0115163733987755
 40
0.1767780977798499
 40
0.1767780977798499
 40
0.1767780977798499
 10
1.057830531999684
 20
8.54147564931719
 30
0.0
 10
0.9994007729669363
 20
8.599903529207204
 30
0.0
 10
0.9409710139341882
 20
8.658331409097219
 30
0.0
  0
SPLINE
  5
1C2
330
1F
100
AcDbEntity
  8
Layer 01
370
    -3
100
AcDbSpline
210
0.0
220
0.0
230
1.0
 70
    28
 71
     2
 72
     8
 73
     5
 74
     0
 42
0.000000001
 43
0.0000000001
 40
0.1767780977798499
 40
0.1767780977798499
 40
0.1767780977798499
 40
1.52625981506215
 40
1.52625981506215
 40
2.876188181158076
 40
2.876188181158076
 40
2.876188181158076
 10
0.9409710139342277
 20
8.658331409097219
 30
0.0
 41
0.9998062458310677
 10
0.9405691044233299
 20
8.658331409097219
 30
0.0
 41
0.7072036903352013
 10
0.0817221916143467
 20
8.658331409097219
 30
0.0
 41
1.0
 10
-0.7775267247891678
 20
8.658331409097219
 30
0.0
 41
0.7071067811865476
 10
-0.7775267247891691
 20
8.658331409097219
 30
0.0
 41
1.0
  0
SPLINE
  5
1C3
330
1F
100
AcDbEntity
  8
Layer 01
370
    -3
100
AcDbSpline
210
0.0
220
0.0
230
1.0
 70
    24
 71
     2
 72
     6
 73
     3
 74
     0
 42
0.000000001
 43
0.0000000001
 40
2.876188181158076
 40
2.876188181158076
 40
2.876188181158076
 40
3.04144990553915
 40
3.04144990553915
 40
3.04144990553915
 10
-0.7775267247891691
 20
8.658331409097219
 30
0.0
 10
-0.8359565308637116
 20
8.599903529207204
 30
0.0
 10
-0.8943863369382541
 20
8.54147564931719
 30
0.0
  0
LINE
  5
1C4
330
1F
100
AcDbEntity
  8
Layer 01
100
AcDbLine
 10
-0.2912876517915777
 20
0.764632751400999
 30
0.0
 11
0.4589929893227236
 21
0.764632751401004
 31
0.0
  0
LINE
  5
1C5
330
1F
100
AcDbEntity
  8
Layer 01
100
AcDbLine
 10
0.4589929893227236
 20
0.764632751401004
 30
0.0
 11
0.4589929893227236
 21
2.660000000000005
 31
0.0
  0
LINE
  5
1C6
330
1F
100
AcDbEntity
  8
Layer 01
100
AcDbLine
 10
0.4589929893227236
 20
2.660000000000005
 30
0.0
 11
-0.2912876517915777
 21
2.66
 31
0.0
  0
LINE
  5
1C7
330
1F
100
AcDbEntity
  8
Layer 01
100
AcDbLine
 10
-0.2912876517915777
 20
2.66
 30
0.0
 11
-0.2912876517915777
 21
0.764632751400999
 31
0.0
  0
ENDSEC
  0
SECTION
  2
OBJECTS
  0
DICTIONARY
  5
C
330
0
100
AcDbDictionary
281
     1
  3
ACAD_DETAILVIEWSTYLE
350
203
  3
ACAD_GROUP
350
D
  3
ACAD_LAYOUT
350
1A
  3
ACAD_MATERIAL
350
43
  3
ACAD_MLEADERSTYLE
350
6B
  3
ACAD_MLINESTYLE
350
17
  3
ACAD_PLOTSETTINGS
350
19
  3
ACAD_PLOTSTYLENAME
350
E
  3
ACAD_SCALELIST
350
47
  3
ACAD_SECTIONVIEWSTYLE
350
204
  3
ACAD_TABLESTYLE
350
69
  3
ACAD_VISUALSTYLE
350
2A
  3
ACDB_RECOMPOSE_DATA
350
200
  3
AcDbVariableDictionary
350
1C8
  0
SUN
  5
6D
330
29
100
AcDbSun
 90
        1
290
     0
 63
     7
421
 16777215
 40
1.0
291
     1
 91
  2455826
 92
 54000000
292
     0
 70
     2
 71
   256
280
     1
  0
DICTIONARY
  5
203
102
{ACAD_REACTORS
330
C
102
}
330
C
100
AcDbDictionary
281
     1
  0
DICTIONARY
  5
D
102
{ACAD_REACTORS
330
C
102
}
330
C
100
AcDbDictionary
281
     1
  0
DICTIONARY
  5
1A
102
{ACAD_REACTORS
330
C
102
}
330
C
100
AcDbDictionary
281
     1
  3
Layout1
350
1E
  3
Layout2
350
26
  3
Model
350
22
  0
DICTIONARY
  5
43
102
{ACAD_REACTORS
330
C
102
}
330
C
100
AcDbDictionary
281
     1
  3
ByBlock
350
45
  3
ByLayer
350
44
  3
Global
350
46
  0
DICTIONARY
  5
6B
102
{ACAD_REACTORS
330
C
102
}
330
C
100
AcDbDictionary
281
     1
  3
Standard
350
6C
  0
DICTIONARY
  5
17
102
{ACAD_REACTORS
330
C
102
}
330
C
100
AcDbDictionary
281
     1
  3
Standard
350
18
  0
DICTIONARY
  5
19
102
{ACAD_REACTORS
330
C
102
}
330
C
100
AcDbDictionary
281
     1
  0
ACDBDICTIONARYWDFLT
  5
E
102
{ACAD_REACTORS
330
C
102
}
330
C
100
AcDbDictionary
281
     1
  3
Normal
350
F
100
AcDbDictionaryWithDefault
340
F
  0
DICTIONARY
  5
47
102
{ACAD_REACTORS
330
C
102
}
330
C
100
AcDbDictionary
281
     1
  3
A0
350
48
  3
A1
350
49
  3
A2
350
4A
  3
A3
350
4B
  3
A4
350
4C
  3
A5
350
4D
  3
A6
350
4E
  3
A7
350
4F
  3
A8
350
50
  3
A9
350
51
  3
B0
350
52
  3
B1
350
53
  3
B2
350
54
  3
B3
350
55
  3
B4
350
56
  3
B5
350
57
  3
B6
350
58
  3
B7
350
59
  3
B8
350
5A
  3
B9
350
5B
  3
C0
350
5C
  3
C1
350
5D
  3
C2
350
5E
  3
C3
350
5F
  3
C4
350
60
  3
C5
350
61
  3
C6
350
62
  3
C7
350
63
  3
C8
350
64
  3
C9
350
65
  3
D0
350
66
  3
D1
350
67
  3
D2
350
68
  0
DICTIONARY
  5
204
102
{ACAD_REACTORS
330
C
102
}
330
C
100
AcDbDictionary
281
     1
  0
DICTIONARY
  5
69
102
{ACAD_REACTORS
330
C
102
}
330
C
100
AcDbDictionary
281
     1
  3
Standard
350
6A
  0
DICTIONARY
  5
2A
102
{ACAD_REACTORS
330
C
102
}
330
C
100
AcDbDictionary
281
     1
  3
2dWireframe
350
2F
  3
Basic
350
32
  3
Brighten
350
36
  3
ColorChange
350
3A
  3
Conceptual
350
34
  3
Dim
350
35
  3
EdgeColorOff
350
3D
  3
Facepattern
350
39
  3
Flat
350
2B
  3
FlatWithEdges
350
2C
  3
Gouraud
350
2D
  3
GouraudWithEdges
350
2E
  3
Hidden
350
31
  3
JitterOff
350
3B
  3
Linepattern
350
38
  3
OverhangOff
350
3C
  3
Realistic
350
33
  3
Shaded
350
42
  3
Shaded with edges
350
41
  3
Shades of Gray
350
3E
  3
Sketchy
350
3F
  3
Thicken
350
37
  3
Wireframe
350
30
  3
X-Ray
350
40
  0
XRECORD
  5
200
102
{ACAD_REACTORS
330
C
102
}
330
C
100
AcDbXrecord
280
     1
 90
        1
330
6A
  0
DICTIONARY
  5
1C8
102
{ACAD_REACTORS
330
C
102
}
330
C
100
AcDbDictionary
281
     1
  3
CANNOSCALE
350
1C9
  3
CMLEADERSTYLE
350
202
  3
CTABLESTYLE
350
201
  3
XCLIPFRAME
350
1CA
  0
LAYOUT
  5
1E
102
{ACAD_REACTORS
330
1A
102
}
330
1A
100
AcDbPlotSettings
  1

  2
none_device
  4

  6

 40
0.0
 41
0.0
 42
0.0
 43
0.0
 44
0.0
 45
0.0
 46
0.0
 47
0.0
 48
0.0
 49
0.0
140
0.0
141
0.0
142
1.0
143
1.0
 70
   688
 72
     0
 73
     0
 74
     5
  7

 75
    16
 76
     0
 77
     2
 78
   300
147
1.0
148
0.0
149
0.0
100
AcDbLayout
  1
Layout1
 70
     1
 71
     1
 10
0.0
 20
0.0
 11
12.0
 21
9.0
 12
0.0
 22
0.0
 32
0.0
 14
1.000000000000000E+20
 24
1.000000000000000E+20
 34
1.000000000000000E+20
 15
-1.000000000000000E+20
 25
-1.000000000000000E+20
 35
-1.000000000000000E+20
146
0.0
 13
0.0
 23
0.0
 33
0.0
 16
1.0
 26
0.0
 36
0.0
 17
0.0
 27
1.0
 37
0.0
 76
     0
330
1B
  0
LAYOUT
  5
26
102
{ACAD_REACTORS
330
1A
102
}
330
1A
100
AcDbPlotSettings
  1

  2
none_device
  4

  6

 40
0.0
 41
0.0
 42
0.0
 43
0.0
 44
0.0
 45
0.0
 46
0.0
 47
0.0
 48
0.0
 49
0.0
140
0.0
141
0.0
142
1.0
143
1.0
 70
   688
 72
     0
 73
     0
 74
     5
  7

 75
    16
 76
     0
 77
     2
 78
   300
147
1.0
148
0.0
149
0.0
100
AcDbLayout
  1
Layout2
 70
     1
 71
     2
 10
0.0
 20
0.0
 11
0.0
 21
0.0
 12
0.0
 22
0.0
 32
0.0
 14
0.0
 24
0.0
 34
0.0
 15
0.0
 25
0.0
 35
0.0
146
0.0
 13
0.0
 23
0.0
 33
0.0
 16
1.0
 26
0.0
 36
0.0
 17
0.0
 27
1.0
 37
0.0
 76
     0
330
23
  0
LAYOUT
  5
22
102
{ACAD_REACTORS
330
1A
102
}
330
1A
100
AcDbPlotSettings
  1

  2
none_device
  4
Letter_(8.50_x_11.00_Inches)
  6

 40
6.35
 41
6.35
 42
6.35000508
 43
6.35000508
 44
215.9
 45
279.4
 46
0.0
 47
0.0
 48
0.0
 49
0.0
140
0.0
141
0.0
142
1.0
143
1.0
 70
  1712
 72
     0
 73
     0
 74
     0
  7

 75
     0
 76
     0
 77
     2
 78
   300
147
1.0
148
0.0
149
0.0
100
AcDbLayout
  1
Model
 70
     1
 71
     0
 10
0.0
 20
0.0
 11
12.0
 21
9.0
 12
0.0
 22
0.0
 32
0.0
 14
1.000000000000000E+20
 24
1.000000000000000E+20
 34
1.000000000000000E+20
 15
-1.000000000000000E+20
 25
-1.000000000000000E+20
 35
-1.000000000000000E+20
146
0.0
 13
0.0
 23
0.0
 33
0.0
 16
1.0
 26
0.0
 36
0.0
 17
0.0
 27
1.0
 37
0.0
 76
     0
330
1F
331
29
  0
MATERIAL
  5
45
102
{ACAD_REACTORS
330
43
102
}
330
43
100
AcDbMaterial
  1
ByBlock
 72
     1
 94
      127
  0
MATERIAL
  5
44
102
{ACAD_REACTORS
330
43
102
}
330
43
100
AcDbMaterial
  1
ByLayer
 72
     1
 94
      127
  0
MATERIAL
  5
46
102
{ACAD_REACTORS
330
43
102
}
330
43
100
AcDbMaterial
  1
Global
 72
     1
 94
      127
  0
MLEADERSTYLE
  5
6C
102
{ACAD_REACTORS
330
6B
102
}
102
{ACAD_XDICTIONARY
360
1FE
102
}
330
6B
100
AcDbMLeaderStyle
170
     2
171
     1
172
     0
 90
        2
 40
0.0
 41
0.0
173
     1
 91
-1056964608
340
14
 92
       -2
290
     1
 42
0.09
291
     1
 43
0.36
  3
Standard
341
0
 44
0.18
300

342
11
174
     1
178
     6
175
     1
176
     0
 93
-1056964608
 45
0.18
292
     0
297
     0
 46
0.18
343
0
 94
-1056964608
 47
1.0
 49
1.0
140
1.0
293
     1
141
0.0
294
     1
177
     0
142
1.0
295
     0
296
     0
143
0.125
1001
ACAD_MLEADERVER
1070
     2
  0
MLINESTYLE
  5
18
102
{ACAD_REACTORS
330
17
102
}
330
17
100
AcDbMlineStyle
  2
Standard
 70
     0
  3

 62
   256
 51
90.0
 52
90.0
 71
     2
 49
0.5
 62
   256
  6
BYLAYER
 49
-0.5
 62
   256
  6
BYLAYER
  0
ACDBPLACEHOLDER
  5
F
102
{ACAD_REACTORS
330
E
102
}
330
E
  0
SCALE
  5
48
102
{ACAD_REACTORS
330
47
102
}
330
47
100
AcDbScale
 70
     0
300
1:1
140
1.0
141
1.0
290
     1
  0
SCALE
  5
49
102
{ACAD_REACTORS
330
47
102
}
330
47
100
AcDbScale
 70
     0
300
1:2
140
1.0
141
2.0
290
     0
  0
SCALE
  5
4A
102
{ACAD_REACTORS
330
47
102
}
330
47
100
AcDbScale
 70
     0
300
1:4
140
1.0
141
4.0
290
     0
  0
SCALE
  5
4B
102
{ACAD_REACTORS
330
47
102
}
330
47
100
AcDbScale
 70
     0
300
1:5
140
1.0
141
5.0
290
     0
  0
SCALE
  5
4C
102
{ACAD_REACTORS
330
47
102
}
330
47
100
AcDbScale
 70
     0
300
1:8
140
1.0
141
8.0
290
     0
  0
SCALE
  5
4D
102
{ACAD_REACTORS
330
47
102
}
330
47
100
AcDbScale
 70
     0
300
1:10
140
1.0
141
10.0
290
     0
  0
SCALE
  5
4E
102
{ACAD_REACTORS
330
47
102
}
330
47
100
AcDbScale
 70
     0
300
1:16
140
1.0
141
16.0
290
     0
  0
SCALE
  5
4F
102
{ACAD_REACTORS
330
47
102
}
330
47
100
AcDbScale
 70
     0
300
1:20
140
1.0
141
20.0
290
     0
  0
SCALE
  5
50
102
{ACAD_REACTORS
330
47
102
}
330
47
100
AcDbScale
 70
     0
300
1:30
140
1.0
141
30.0
290
     0
  0
SCALE
  5
51
102
{ACAD_REACTORS
330
47
102
}
330
47
100
AcDbScale
 70
     0
300
1:40
140
1.0
141
40.0
290
     0
  0
SCALE
  5
52
102
{ACAD_REACTORS
330
47
102
}
330
47
100
AcDbScale
 70
     0
300
1:50
140
1.0
141
50.0
290
     0
  0
SCALE
  5
53
102
{ACAD_REACTORS
330
47
102
}
330
47
100
AcDbScale
 70
     0
300
1:100
140
1.0
141
100.0
290
     0
  0
SCALE
  5
54
102
{ACAD_REACTORS
330
47
102
}
330
47
100
AcDbScale
 70
     0
300
2:1
140
2.0
141
1.0
290
     0
  0
SCALE
  5
55
102
{ACAD_REACTORS
330
47
102
}
330
47
100
AcDbScale
 70
     0
300
4:1
140
4.0
141
1.0
290
     0
  0
SCALE
  5
56
102
{ACAD_REACTORS
330
47
102
}
330
47
100
AcDbScale
 70
     0
300
8:1
140
8.0
141
1.0
290
     0
  0
SCALE
  5
57
102
{ACAD_REACTORS
330
47
102
}
330
47
100
AcDbScale
 70
     0
300
10:1
140
10.0
141
1.0
290
     0
  0
SCALE
  5
58
102
{ACAD_REACTORS
330
47
102
}
330
47
100
AcDbScale
 70
     0
300
100:1
140
100.0
141
1.0
290
     0
  0
SCALE
  5
59
102
{ACAD_REACTORS
330
47
102
}
330
47
100
AcDbScale
 70
     0
300
1/128" = 1'-0"
140
0.0078125
141
12.0
290
     0
  0
SCALE
  5
5A
102
{ACAD_REACTORS
330
47
102
}
330
47
100
AcDbScale
 70
     0
300
1/64" = 1'-0"
140
0.015625
141
12.0
290
     0
  0
SCALE
  5
5B
102
{ACAD_REACTORS
330
47
102
}
330
47
100
AcDbScale
 70
     0
300
1/32" = 1'-0"
140
0.03125
141
12.0
290
     0
  0
SCALE
  5
5C
102
{ACAD_REACTORS
330
47
102
}
330
47
100
AcDbScale
 70
     0
300
1/16" = 1'-0"
140
0.0625
141
12.0
290
     0
  0
SCALE
  5
5D
102
{ACAD_REACTORS
330
47
102
}
330
47
100
AcDbScale
 70
     0
300
3/32" = 1'-0"
140
0.09375
141
12.0
290
     0
  0
SCALE
  5
5E
102
{ACAD_REACTORS
330
47
102
}
330
47
100
AcDbScale
 70
     0
300
1/8" = 1'-0"
140
0.125
141
12.0
290
     0
  0
SCALE
  5
5F
102
{ACAD_REACTORS
330
47
102
}
330
47
100
AcDbScale
 70
     0
300
3/16" = 1'-0"
140
0.1875
141
12.0
290
     0
  0
SCALE
  5
60
102
{ACAD_REACTORS
330
47
102
}
330
47
100
AcDbScale
 70
     0
300
1/4" = 1'-0"
140
0.25
141
12.0
290
     0
  0
SCALE
  5
61
102
{ACAD_REACTORS
330
47
102
}
330
47
100
AcDbScale
 70
     0
300
3/8" = 1'-0"
140
0.375
141
12.0
290
     0
  0
SCALE
  5
62
102
{ACAD_REACTORS
330
47
102
}
330
47
100
AcDbScale
 70
     0
300
1/2" = 1'-0"
140
0.5
141
12.0
290
     0
  0
SCALE
  5
63
102
{ACAD_REACTORS
330
47
102
}
330
47
100
AcDbScale
 70
     0
300
3/4" = 1'-0"
140
0.75
141
12.0
290
     0
  0
SCALE
  5
64
102
{ACAD_REACTORS
330
47
102
}
330
47
100
AcDbScale
 70
     0
300
1" = 1'-0"
140
1.0
141
12.0
290
     0
  0
SCALE
  5
65
102
{ACAD_REACTORS
330
47
102
}
330
47
100
AcDbScale
 70
     0
300
1-1/2" = 1'-0"
140
1.5
141
12.0
290
     0
  0
SCALE
  5
66
102
{ACAD_REACTORS
330
47
102
}
330
47
100
AcDbScale
 70
     0
300
3" = 1'-0"
140
3.0
141
12.0
290
     0
  0
SCALE
  5
67
102
{ACAD_REACTORS
330
47
102
}
330
47
100
AcDbScale
 70
     0
300
6" = 1'-0"
140
6.0
141
12.0
290
     0
  0
SCALE
  5
68
102
{ACAD_REACTORS
330
47
102
}
330
47
100
AcDbScale
 70
     0
300
1'-0" = 1'-0"
140
12.0
141
12.0
290
     0
  0
TABLESTYLE
  5
6A
102
{ACAD_REACTORS
330
69
102
}
102
{ACAD_XDICTIONARY
360
1FB
102
}
330
69
100
AcDbTableStyle
  3
Standard
 70
     0
 71
     0
 40
0.06
 41
0.06
280
     0
281
     0
  7
Standard
140
0.18
170
     2
 62
     0
 63
   257
283
     0
 90
        4
 91
        0
  1

274
    -2
284
     1
 64
     0
275
    -2
285
     1
 65
     0
276
    -2
286
     1
 66
     0
277
    -2
287
     1
 67
     0
278
    -2
288
     1
 68
     0
279
    -2
289
     1
 69
     0
  7
Standard
140
0.25
170
     5
 62
     0
 63
   257
283
     0
 90
        4
 91
        0
  1

274
    -2
284
     1
 64
     0
275
    -2
285
     1
 65
     0
276
    -2
286
     1
 66
     0
277
    -2
287
     1
 67
     0
278
    -2
288
     1
 68
     0
279
    -2
289
     1
 69
     0
  7
Standard
140
0.18
170
     5
 62
     0
 63
   257
283
     0
 90
        4
 91
        0
  1

274
    -2
284
     1
 64
     0
275
    -2
285
     1
 65
     0
276
    -2
286
     1
 66
     0
277
    -2
287
     1
 67
     0
278
    -2
288
     1
 68
     0
279
    -2
289
     1
 69
     0
  0
VISUALSTYLE
  5
2F
102
{ACAD_REACTORS
330
2A
102
}
102
{ACAD_XDICTIONARY
360
1D3
102
}
330
2A
100
AcDbVisualStyle
  2
2dWireframe
 70
     4
 71
     0
 72
     2
 73
     0
 90
        0
 40
0.6
 41
30.0
 62
     5
 63
     7
421
 16777215
 74
     1
 91
        4
 64
     7
 65
   257
 75
     1
175
     1
 42
1.0
 92
        0
 66
   257
 43
1.0
 76
     1
 77
     6
 78
     2
 67
     7
 79
     5
170
     0
171
     0
290
     0
174
     0
 93
        1
 44
0.0
173
     0
291
     0
 45
0.0
  0
VISUALSTYLE
  5
32
102
{ACAD_REACTORS
330
2A
102
}
102
{ACAD_XDICTIONARY
360
1D9
102
}
330
2A
100
AcDbVisualStyle
  2
Basic
 70
     7
 71
     1
 72
     0
 73
     1
 90
        0
 40
0.6
 41
30.0
 62
     5
 63
     7
421
 16777215
 74
     0
 91
        4
 64
     7
 65
   257
 75
     1
175
     1
 42
1.0
 92
        8
 66
     7
 43
1.0
 76
     1
 77
     6
 78
     2
 67
     7
 79
     5
170
     0
171
     0
290
     0
174
     0
 93
        1
 44
0.0
173
     0
291
     1
 45
0.0
  0
VISUALSTYLE
  5
36
102
{ACAD_REACTORS
330
2A
102
}
102
{ACAD_XDICTIONARY
360
1E1
102
}
330
2A
100
AcDbVisualStyle
  2
Brighten
 70
    12
 71
     2
 72
     2
 73
     0
 90
        0
 40
0.6
 41
30.0
 62
     5
 63
     7
421
 16777215
 74
     1
 91
        4
 64
     7
 65
   257
 75
     1
175
     1
 42
1.0
 92
        8
 66
     7
 43
1.0
 76
     1
 77
     6
 78
     2
 67
     7
 79
     5
170
     0
171
     0
290
     0
174
     0
 93
        1
 44
50.0
173
     0
291
     1
 45
0.0
  0
VISUALSTYLE
  5
3A
102
{ACAD_REACTORS
330
2A
102
}
102
{ACAD_XDICTIONARY
360
1E9
102
}
330
2A
100
AcDbVisualStyle
  2
ColorChange
 70
    16
 71
     2
 72
     2
 73
     3
 90
        0
 40
0.6
 41
30.0
 62
     5
 63
     8
421
  8421504
 74
     1
 91
        4
 64
     7
 65
   257
 75
     1
175
     1
 42
1.0
 92
        8
 66
     8
424
  8421504
 43
1.0
 76
     1
 77
     6
 78
     2
 67
     7
 79
     5
170
     0
171
     0
290
     0
174
     0
 93
        1
 44
0.0
173
     0
291
     1
 45
0.0
  0
VISUALSTYLE
  5
34
102
{ACAD_REACTORS
330
2A
102
}
102
{ACAD_XDICTIONARY
360
1DD
102
}
330
2A
100
AcDbVisualStyle
  2
Conceptual
 70
     9
 71
     3
 72
     2
 73
     0
 90
        0
 40
0.6
 41
30.0
 62
     5
 63
     7
421
 16777215
 74
     2
 91
        2
 64
     7
 65
   257
 75
     1
175
     1
 42
179.0
 92
        8
 66
     7
 43
1.0
 76
     1
 77
     6
 78
     2
 67
     7
 79
     3
170
     0
171
     0
290
     0
174
     0
 93
        1
 44
0.0
173
     0
291
     0
 45
0.0
  0
VISUALSTYLE
  5
35
102
{ACAD_REACTORS
330
2A
102
}
102
{ACAD_XDICTIONARY
360
1DF
102
}
330
2A
100
AcDbVisualStyle
  2
Dim
 70
    11
 71
     2
 72
     2
 73
     0
 90
        0
 40
0.6
 41
30.0
 62
     5
 63
     7
421
 16777215
 74
     1
 91
        4
 64
     7
 65
   257
 75
     1
175
     1
 42
1.0
 92
        8
 66
     7
 43
1.0
 76
     1
 77
     6
 78
     2
 67
     7
 79
     5
170
     0
171
     0
290
     0
174
     0
 93
        1
 44
-50.0
173
     0
291
     1
 45
0.0
  0
VISUALSTYLE
  5
3D
102
{ACAD_REACTORS
330
2A
102
}
102
{ACAD_XDICTIONARY
360
1EF
102
}
330
2A
100
AcDbVisualStyle
  2
EdgeColorOff
 70
    22
 71
     2
 72
     2
 73
     0
 90
        0
 40
0.6
 41
30.0
 62
     5
 63
     7
421
 16777215
 74
     1
 91
        4
 64
     7
 65
   257
 75
     1
175
     1
 42
1.0
 92
        8
 66
     7
 43
1.0
 76
     1
 77
     6
 78
     2
 67
     7
 79
     5
170
     0
171
     0
290
     0
174
     0
 93
        1
 44
0.0
173
     0
291
     1
 45
0.0
  0
VISUALSTYLE
  5
39
102
{ACAD_REACTORS
330
2A
102
}
102
{ACAD_XDICTIONARY
360
1E7
102
}
330
2A
100
AcDbVisualStyle
  2
Facepattern
 70
    15
 71
     2
 72
     2
 73
     0
 90
        0
 40
0.6
 41
30.0
 62
     5
 63
     7
421
 16777215
 74
     1
 91
        4
 64
     7
 65
   257
 75
     1
175
     1
 42
1.0
 92
        8
 66
     7
 43
1.0
 76
     1
 77
     6
 78
     2
 67
     7
 79
     5
170
     0
171
     0
290
     0
174
     0
 93
        1
 44
0.0
173
     0
291
     1
 45
0.0
  0
VISUALSTYLE
  5
2B
102
{ACAD_REACTORS
330
2A
102
}
102
{ACAD_XDICTIONARY
360
1CB
102
}
330
2A
100
AcDbVisualStyle
  2
Flat
 70
     0
 71
     2
 72
     1
 73
     1
 90
        2
 40
0.6
 41
30.0
 62
     5
 63
     7
421
 16777215
 74
     0
 91
        0
 64
     7
 65
   257
 75
     1
175
     1
 42
1.0
 92
        8
 66
     7
 43
1.0
 76
     1
 77
     6
 78
     2
 67
     7
 79
     5
170
     0
171
     0
290
     0
174
     0
 93
       13
 44
0.0
173
     0
291
     1
 45
0.0
  0
VISUALSTYLE
  5
2C
102
{ACAD_REACTORS
330
2A
102
}
102
{ACAD_XDICTIONARY
360
1CD
102
}
330
2A
100
AcDbVisualStyle
  2
FlatWithEdges
 70
     1
 71
     2
 72
     1
 73
     1
 90
        2
 40
0.6
 41
30.0
 62
     5
 63
     7
421
 16777215
 74
     1
 91
        0
 64
     7
 65
   257
 75
     1
175
     1
 42
1.0
 92
        0
 66
   257
 43
1.0
 76
     1
 77
     6
 78
     2
 67
     7
 79
     5
170
     0
171
     0
290
     0
174
     0
 93
       13
 44
0.0
173
     0
291
     1
 45
0.0
  0
VISUALSTYLE
  5
2D
102
{ACAD_REACTORS
330
2A
102
}
102
{ACAD_XDICTIONARY
360
1CF
102
}
330
2A
100
AcDbVisualStyle
  2
Gouraud
 70
     2
 71
     2
 72
     2
 73
     1
 90
        2
 40
0.6
 41
30.0
 62
     5
 63
     7
421
 16777215
 74
     0
 91
        0
 64
     7
 65
   257
 75
     1
175
     1
 42
1.0
 92
        0
 66
     7
 43
1.0
 76
     1
 77
     6
 78
     2
 67
     7
 79
     5
170
     0
171
     0
290
     0
174
     0
 93
       13
 44
0.0
173
     0
291
     1
 45
0.0
  0
VISUALSTYLE
  5
2E
102
{ACAD_REACTORS
330
2A
102
}
102
{ACAD_XDICTIONARY
360
1D1
102
}
330
2A
100
AcDbVisualStyle
  2
GouraudWithEdges
 70
     3
 71
     2
 72
     2
 73
     1
 90
        2
 40
0.6
 41
30.0
 62
     5
 63
     7
421
 16777215
 74
     1
 91
        0
 64
     7
 65
   257
 75
     1
175
     1
 42
1.0
 92
        0
 66
   257
 43
1.0
 76
     1
 77
     6
 78
     2
 67
     7
 79
     5
170
     0
171
     0
290
     0
174
     0
 93
       13
 44
0.0
173
     0
291
     1
 45
0.0
  0
VISUALSTYLE
  5
31
102
{ACAD_REACTORS
330
2A
102
}
102
{ACAD_XDICTIONARY
360
1D7
102
}
330
2A
100
AcDbVisualStyle
  2
Hidden
 70
     6
 71
     1
 72
     2
 73
     2
 90
        0
 40
0.6
 41
30.0
 62
     5
 63
     7
421
 16777215
 74
     2
 91
        2
 64
     7
 65
   257
 75
     2
175
     1
 42
40.0
 92
        0
 66
   257
 43
1.0
 76
     1
 77
     6
 78
     2
 67
     7
 79
     3
170
     0
171
     0
290
     0
174
     0
 93
        1
 44
0.0
173
     0
291
     0
 45
0.0
  0
VISUALSTYLE
  5
3B
102
{ACAD_REACTORS
330
2A
102
}
102
{ACAD_XDICTIONARY
360
1EB
102
}
330
2A
100
AcDbVisualStyle
  2
JitterOff
 70
    20
 71
     2
 72
     2
 73
     0
 90
        0
 40
0.6
 41
30.0
 62
     5
 63
     7
421
 16777215
 74
     1
 91
        4
 64
     7
 65
   257
 75
     1
175
     1
 42
1.0
 92
       10
 66
     7
 43
1.0
 76
     1
 77
     6
 78
     2
 67
     7
 79
     5
170
     0
171
     0
290
     0
174
     0
 93
        1
 44
0.0
173
     0
291
     1
 45
0.0
  0
VISUALSTYLE
  5
38
102
{ACAD_REACTORS
330
2A
102
}
102
{ACAD_XDICTIONARY
360
1E5
102
}
330
2A
100
AcDbVisualStyle
  2
Linepattern
 70
    14
 71
     2
 72
     2
 73
     0
 90
        0
 40
0.6
 41
30.0
 62
     5
 63
     7
421
 16777215
 74
     1
 91
        4
 64
     7
 65
   257
 75
     7
175
     7
 42
1.0
 92
        8
 66
     7
 43
1.0
 76
     1
 77
     6
 78
     2
 67
     7
 79
     5
170
     0
171
     0
290
     0
174
     0
 93
        1
 44
0.0
173
     0
291
     1
 45
0.0
  0
VISUALSTYLE
  5
3C
102
{ACAD_REACTORS
330
2A
102
}
102
{ACAD_XDICTIONARY
360
1ED
102
}
330
2A
100
AcDbVisualStyle
  2
OverhangOff
 70
    21
 71
     2
 72
     2
 73
     0
 90
        0
 40
0.6
 41
30.0
 62
     5
 63
     7
421
 16777215
 74
     1
 91
        4
 64
     7
 65
   257
 75
     1
175
     1
 42
1.0
 92
        9
 66
     7
 43
1.0
 76
     1
 77
     6
 78
     2
 67
     7
 79
     5
170
     0
171
     0
290
     0
174
     0
 93
        1
 44
0.0
173
     0
291
     1
 45
0.0
  0
VISUALSTYLE
  5
33
102
{ACAD_REACTORS
330
2A
102
}
102
{ACAD_XDICTIONARY
360
1DB
102
}
330
2A
100
AcDbVisualStyle
  2
Realistic
 70
     8
 71
     2
 72
     3
 73
     0
 90
        2
 40
0.6
 41
30.0
 62
     5
 63
     7
421
 16777215
 74
     0
 91
        0
 64
     7
 65
   257
 75
     1
175
     1
 42
1.0
 92
        8
 66
   257
 43
1.0
 76
     1
 77
     6
 78
     2
 67
     7
 79
     3
170
     0
171
     0
290
     0
174
     0
 93
       13
 44
0.0
173
     0
291
     0
 45
0.0
  0
VISUALSTYLE
  5
42
102
{ACAD_REACTORS
330
2A
102
}
102
{ACAD_XDICTIONARY
360
1F9
102
}
330
2A
100
AcDbVisualStyle
  2
Shaded
 70
    27
 71
     2
 72
     2
 73
     1
 90
        2
 40
0.6
 41
30.0
 62
     5
 63
     7
421
 16777215
 74
     0
 91
        4
 64
     7
 65
   257
 75
     1
175
     1
 42
1.0
 92
        8
 66
   257
 43
1.0
 76
     1
 77
     6
 78
     2
 67
     8
425
  7895160
 79
     3
170
     0
171
     0
290
     0
174
     0
 93
        5
 44
0.0
173
     0
291
     0
 45
0.0
  0
VISUALSTYLE
  5
41
102
{ACAD_REACTORS
330
2A
102
}
102
{ACAD_XDICTIONARY
360
1F7
102
}
330
2A
100
AcDbVisualStyle
  2
Shaded with edges
 70
    26
 71
     2
 72
     2
 73
     1
 90
        2
 40
0.6
 41
30.0
 62
     5
 63
     7
421
 16777215
 74
     1
 91
       10
 64
     7
 65
   257
 75
     2
175
     1
 42
1.0
 92
        8
 66
   257
 43
1.0
 76
     1
 77
     6
 78
     2
 67
     7
 79
     3
170
     0
171
     0
290
     0
174
     0
 93
        5
 44
0.0
173
     0
291
     0
 45
0.0
  0
VISUALSTYLE
  5
3E
102
{ACAD_REACTORS
330
2A
102
}
102
{ACAD_XDICTIONARY
360
1F1
102
}
330
2A
100
AcDbVisualStyle
  2
Shades of Gray
 70
    23
 71
     2
 72
     2
 73
     3
 90
        0
 40
0.6
 41
30.0
 62
     5
 63
     7
421
 16777215
 74
     2
 91
        2
 64
     7
 65
     7
 75
     1
175
     1
 42
40.0
 92
        8
 66
     7
 43
1.0
 76
     1
 77
     6
 78
     2
 67
     7
 79
     3
170
     0
171
     0
290
     0
174
     0
 93
        1
 44
0.0
173
     0
291
     0
 45
0.0
  0
VISUALSTYLE
  5
3F
102
{ACAD_REACTORS
330
2A
102
}
102
{ACAD_XDICTIONARY
360
1F3
102
}
330
2A
100
AcDbVisualStyle
  2
Sketchy
 70
    24
 71
     1
 72
     2
 73
     2
 90
        0
 40
0.6
 41
30.0
 62
     5
 63
     7
421
 16777215
 74
     2
 91
        2
 64
     7
 65
     7
 75
     1
175
     1
 42
40.0
 92
       11
 66
     7
 43
1.0
 76
     1
 77
     6
 78
     2
 67
     7
 79
     6
170
     0
171
     0
290
     0
174
     0
 93
        1
 44
0.0
173
     0
291
     0
 45
0.0
  0
VISUALSTYLE
  5
37
102
{ACAD_REACTORS
330
2A
102
}
102
{ACAD_XDICTIONARY
360
1E3
102
}
330
2A
100
AcDbVisualStyle
  2
Thicken
 70
    13
 71
     2
 72
     2
 73
     0
 90
        0
 40
0.6
 41
30.0
 62
     5
 63
     7
421
 16777215
 74
     1
 91
        4
 64
     7
 65
   257
 75
     1
175
     1
 42
1.0
 92
       12
 66
     7
 43
1.0
 76
     1
 77
     6
 78
     2
 67
     7
 79
     5
170
     0
171
     0
290
     0
174
     0
 93
        1
 44
0.0
173
     0
291
     1
 45
0.0
  0
VISUALSTYLE
  5
30
102
{ACAD_REACTORS
330
2A
102
}
102
{ACAD_XDICTIONARY
360
1D5
102
}
330
2A
100
AcDbVisualStyle
  2
Wireframe
 70
     5
 71
     0
 72
     2
 73
     0
 90
        0
 40
0.6
 41
30.0
 62
     5
 63
     7
421
 16777215
 74
     1
 91
        4
 64
     7
 65
   257
 75
     1
175
     1
 42
1.0
 92
        0
 66
   257
 43
1.0
 76
     1
 77
     6
 78
     2
 67
     7
 79
     3
170
     0
171
     0
290
     0
174
     0
 93
        1
 44
0.0
173
     0
291
     0
 45
0.0
  0
VISUALSTYLE
  5
40
102
{ACAD_REACTORS
330
2A
102
}
102
{ACAD_XDICTIONARY
360
1F5
102
}
330
2A
100
AcDbVisualStyle
  2
X-Ray
 70
    25
 71
     2
 72
     2
 73
     1
 90
        1
 40
0.5
 41
30.0
 62
     5
 63
     7
421
 16777215
 74
     1
 91
        0
 64
     7
 65
   257
 75
     1
175
     1
 42
1.0
 92
        8
 66
     7
 43
1.0
 76
     1
 77
     6
 78
     2
 67
     7
 79
     3
170
     0
171
     0
290
     0
174
     0
 93
       13
 44
0.0
173
     0
291
     0
 45
0.0
  0
DICTIONARYVAR
  5
1C9
102
{ACAD_REACTORS
330
1C8
102
}
330
1C8
100
DictionaryVariables
280
     0
  1
1:1
  0
DICTIONARYVAR
  5
202
102
{ACAD_REACTORS
330
1C8
102
}
330
1C8
100
DictionaryVariables
280
     0
  1
Standard
  0
DICTIONARYVAR
  5
201
102
{ACAD_REACTORS
330
1C8
102
}
330
1C8
100
DictionaryVariables
280
     0
  1
Standard
  0
DICTIONARYVAR
  5
1CA
102
{ACAD_REACTORS
330
1C8
102
}
330
1C8
100
DictionaryVariables
280
     0
  1
2
  0
DICTIONARY
  5
1FE
330
6C
100
AcDbDictionary
280
     1
281
     1
  3
ACAD_XREC_ROUNDTRIP
360
1FF
  0
DICTIONARY
  5
1FB
330
6A
100
AcDbDictionary
280
     1
281
     1
  3
ACAD_ROUNDTRIP_2008_TABLESTYLE_CELLSTYLEMAP
360
1FC
  0
DICTIONARY
  5
1D3
330
2F
100
AcDbDictionary
280
     1
281
     1
  3
ACAD_XREC_ROUNDTRIP
360
1D4
  0
DICTIONARY
  5
1D9
330
32
100
AcDbDictionary
280
     1
281
     1
  3
ACAD_XREC_ROUNDTRIP
360
1DA
  0
DICTIONARY
  5
1E1
330
36
100
AcDbDictionary
280
     1
281
     1
  3
ACAD_XREC_ROUNDTRIP
360
1E2
  0
DICTIONARY
  5
1E9
330
3A
100
AcDbDictionary
280
     1
281
     1
  3
ACAD_XREC_ROUNDTRIP
360
1EA
  0
DICTIONARY
  5
1DD
330
34
100
AcDbDictionary
280
     1
281
     1
  3
ACAD_XREC_ROUNDTRIP
360
1DE
  0
DICTIONARY
  5
1DF
330
35
100
AcDbDictionary
280
     1
281
     1
  3
ACAD_XREC_ROUNDTRIP
360
1E0
  0
DICTIONARY
  5
1EF
330
3D
100
AcDbDictionary
280
     1
281
     1
  3
ACAD_XREC_ROUNDTRIP
360
1F0
  0
DICTIONARY
  5
1E7
330
39
100
AcDbDictionary
280
     1
281
     1
  3
ACAD_XREC_ROUNDTRIP
360
1E8
  0
DICTIONARY
  5
1CB
330
2B
100
AcDbDictionary
280
     1
281
     1
  3
ACAD_XREC_ROUNDTRIP
360
1CC
  0
DICTIONARY
  5
1CD
330
2C
100
AcDbDictionary
280
     1
281
     1
  3
ACAD_XREC_ROUNDTRIP
360
1CE
  0
DICTIONARY
  5
1CF
330
2D
100
AcDbDictionary
280
     1
281
     1
  3
ACAD_XREC_ROUNDTRIP
360
1D0
  0
DICTIONARY
  5
1D1
330
2E
100
AcDbDictionary
280
     1
281
     1
  3
ACAD_XREC_ROUNDTRIP
360
1D2
  0
DICTIONARY
  5
1D7
330
31
100
AcDbDictionary
280
     1
281
     1
  3
ACAD_XREC_ROUNDTRIP
360
1D8
  0
DICTIONARY
  5
1EB
330
3B
100
AcDbDictionary
280
     1
281
     1
  3
ACAD_XREC_ROUNDTRIP
360
1EC
  0
DICTIONARY
  5
1E5
330
38
100
AcDbDictionary
280
     1
281
     1
  3
ACAD_XREC_ROUNDTRIP
360
1E6
  0
DICTIONARY
  5
1ED
330
3C
100
AcDbDictionary
280
     1
281
     1
  3
ACAD_XREC_ROUNDTRIP
360
1EE
  0
DICTIONARY
  5
1DB
330
33
100
AcDbDictionary
280
     1
281
     1
  3
ACAD_XREC_ROUNDTRIP
360
1DC
  0
DICTIONARY
  5
1F9
330
42
100
AcDbDictionary
280
     1
281
     1
  3
ACAD_XREC_ROUNDTRIP
360
1FA
  0
DICTIONARY
  5
1F7
330
41
100
AcDbDictionary
280
     1
281
     1
  3
ACAD_XREC_ROUNDTRIP
360
1F8
  0
DICTIONARY
  5
1F1
330
3E
100
AcDbDictionary
280
     1
281
     1
  3
ACAD_XREC_ROUNDTRIP
360
1F2
  0
DICTIONARY
  5
1F3
330
3F
100
AcDbDictionary
280
     1
281
     1
  3
ACAD_XREC_ROUNDTRIP
360
1F4
  0
DICTIONARY
  5
1E3
330
37
100
AcDbDictionary
280
     1
281
     1
  3
ACAD_XREC_ROUNDTRIP
360
1E4
  0
DICTIONARY
  5
1D5
330
30
100
AcDbDictionary
280
     1
281
     1
  3
ACAD_XREC_ROUNDTRIP
360
1D6
  0
DICTIONARY
  5
1F5
330
40
100
AcDbDictionary
280
     1
281
     1
  3
ACAD_XREC_ROUNDTRIP
360
1F6
  0
XRECORD
  5
1FF
102
{ACAD_REACTORS
330
1FE
102
}
330
1FE
100
AcDbXrecord
280
     1
102
ACAD_ROUNDTRIP_2010_MLEADER_STYLE
  0
CELLSTYLEMAP
  5
1FC
102
{ACAD_REACTORS
330
1FB
102
}
330
1FB
100
AcDbCellStyleMap
 90
        3
300
CELLSTYLE
  1
TABLEFORMAT_BEGIN
 90
        5
170
     1
 91
        0
 92
    32768
 62
   257
 93
        1
300
CONTENTFORMAT
  1
CONTENTFORMAT_BEGIN
 90
        0
 91
        0
 92
        4
 93
        0
300

 40
0.0
140
1.0
 94
        5
 62
     0
340
11
144
0.25
309
CONTENTFORMAT_END
171
     1
301
MARGIN
  1
CELLMARGIN_BEGIN
 40
0.06
 40
0.06
 40
0.06
 40
0.06
 40
0.06
 40
0.06
309
CELLMARGIN_END
 94
        6
 95
        1
302
GRIDFORMAT
  1
GRIDFORMAT_BEGIN
 90
        0
 91
        1
 62
     0
 92
       -2
340
14
 93
        0
 40
0.045
309
GRIDFORMAT_END
 95
        2
302
GRIDFORMAT
  1
GRIDFORMAT_BEGIN
 90
        0
 91
        1
 62
     0
 92
       -2
340
14
 93
        0
 40
0.045
309
GRIDFORMAT_END
 95
        4
302
GRIDFORMAT
  1
GRIDFORMAT_BEGIN
 90
        0
 91
        1
 62
     0
 92
       -2
340
14
 93
        0
 40
0.045
309
GRIDFORMAT_END
 95
        8
302
GRIDFORMAT
  1
GRIDFORMAT_BEGIN
 90
        0
 91
        1
 62
     0
 92
       -2
340
14
 93
        0
 40
0.045
309
GRIDFORMAT_END
 95
       16
302
GRIDFORMAT
  1
GRIDFORMAT_BEGIN
 90
        0
 91
        1
 62
     0
 92
       -2
340
14
 93
        0
 40
0.045
309
GRIDFORMAT_END
 95
       32
302
GRIDFORMAT
  1
GRIDFORMAT_BEGIN
 90
        0
 91
        1
 62
     0
 92
       -2
340
14
 93
        0
 40
0.045
309
GRIDFORMAT_END
309
TABLEFORMAT_END
  1
CELLSTYLE_BEGIN
 90
        1
 91
        1
300
_TITLE
309
CELLSTYLE_END
300
CELLSTYLE
  1
TABLEFORMAT_BEGIN
 90
        5
170
     1
 91
        0
 92
        0
 62
   257
 93
        1
300
CONTENTFORMAT
  1
CONTENTFORMAT_BEGIN
 90
        0
 91
        0
 92
        4
 93
        0
300

 40
0.0
140
1.0
 94
        5
 62
     0
340
11
144
0.18
309
CONTENTFORMAT_END
171
     1
301
MARGIN
  1
CELLMARGIN_BEGIN
 40
0.06
 40
0.06
 40
0.06
 40
0.06
 40
0.06
 40
0.06
309
CELLMARGIN_END
 94
        6
 95
        1
302
GRIDFORMAT
  1
GRIDFORMAT_BEGIN
 90
        0
 91
        1
 62
     0
 92
       -2
340
14
 93
        0
 40
0.045
309
GRIDFORMAT_END
 95
        2
302
GRIDFORMAT
  1
GRIDFORMAT_BEGIN
 90
        0
 91
        1
 62
     0
 92
       -2
340
14
 93
        0
 40
0.045
309
GRIDFORMAT_END
 95
        4
302
GRIDFORMAT
  1
GRIDFORMAT_BEGIN
 90
        0
 91
        1
 62
     0
 92
       -2
340
14
 93
        0
 40
0.045
309
GRIDFORMAT_END
 95
        8
302
GRIDFORMAT
  1
GRIDFORMAT_BEGIN
 90
        0
 91
        1
 62
     0
 92
       -2
340
14
 93
        0
 40
0.045
309
GRIDFORMAT_END
 95
       16
302
GRIDFORMAT
  1
GRIDFORMAT_BEGIN
 90
        0
 91
        1
 62
     0
 92
       -2
340
14
 93
        0
 40
0.045
309
GRIDFORMAT_END
 95
       32
302
GRIDFORMAT
  1
GRIDFORMAT_BEGIN
 90
        0
 91
        1
 62
     0
 92
       -2
340
14
 93
        0
 40
0.045
309
GRIDFORMAT_END
309
TABLEFORMAT_END
  1
CELLSTYLE_BEGIN
 90
        2
 91
        1
300
_HEADER
309
CELLSTYLE_END
300
CELLSTYLE
  1
TABLEFORMAT_BEGIN
 90
        5
170
     1
 91
        0
 92
        0
 62
   257
 93
        1
300
CONTENTFORMAT
  1
CONTENTFORMAT_BEGIN
 90
        0
 91
        0
 92
        4
 93
        0
300

 40
0.0
140
1.0
 94
        2
 62
     0
340
11
144
0.18
309
CONTENTFORMAT_END
171
     1
301
MARGIN
  1
CELLMARGIN_BEGIN
 40
0.06
 40
0.06
 40
0.06
 40
0.06
 40
0.06
 40
0.06
309
CELLMARGIN_END
 94
        6
 95
        1
302
GRIDFORMAT
  1
GRIDFORMAT_BEGIN
 90
        0
 91
        1
 62
     0
 92
       -2
340
14
 93
        0
 40
0.045
309
GRIDFORMAT_END
 95
        2
302
GRIDFORMAT
  1
GRIDFORMAT_BEGIN
 90
        0
 91
        1
 62
     0
 92
       -2
340
14
 93
        0
 40
0.045
309
GRIDFORMAT_END
 95
        4
302
GRIDFORMAT
  1
GRIDFORMAT_BEGIN
 90
        0
 91
        1
 62
     0
 92
       -2
340
14
 93
        0
 40
0.045
309
GRIDFORMAT_END
 95
        8
302
GRIDFORMAT
  1
GRIDFORMAT_BEGIN
 90
        0
 91
        1
 62
     0
 92
       -2
340
14
 93
        0
 40
0.045
309
GRIDFORMAT_END
 95
       16
302
GRIDFORMAT
  1
GRIDFORMAT_BEGIN
 90
        0
 91
        1
 62
     0
 92
       -2
340
14
 93
        0
 40
0.045
309
GRIDFORMAT_END
 95
       32
302
GRIDFORMAT
  1
GRIDFORMAT_BEGIN
 90
        0
 91
        1
 62
     0
 92
       -2
340
14
 93
        0
 40
0.045
309
GRIDFORMAT_END
309
TABLEFORMAT_END
  1
CELLSTYLE_BEGIN
 90
        3
 91
        2
300
_DATA
309
CELLSTYLE_END
  0
XRECORD
  5
1D4
102
{ACAD_REACTORS
330
1D3
102
}
330
1D3
100
AcDbXrecord
280
     1
102
RTVSPropertyOp0
 70
     1
102
RTVSPropertyOp1
 70
     1
102
RTVSPropertyOp2
 70
     1
102
RTVSPropertyOp3
 70
     1
102
RTVSPropertyOp4
 70
     1
102
RTVSPropertyOp5
 70
     1
102
RTVSPropertyOp6
 70
     1
102
RTVSPropertyOp7
 70
     1
102
RTVSPropertyOp8
 70
     1
102
RTVSPropertyOp9
 70
     1
102
RTVSPropertyOp10
 70
     1
102
RTVSPropertyOp11
 70
     1
102
RTVSPropertyOp12
 70
     1
102
RTVSPropertyOp13
 70
     1
102
RTVSPropertyOp14
 70
     1
102
RTVSPropertyOp15
 70
     1
102
RTVSPropertyOp16
 70
     1
102
RTVSPropertyOp17
 70
     1
102
RTVSPropertyOp18
 70
     1
102
RTVSPropertyOp19
 70
     1
102
RTVSPropertyOp20
 70
     1
102
RTVSPropertyOp21
 70
     1
102
RTVSPropertyOp22
 70
     1
102
RTVSPropertyOp23
 70
     1
102
RTVSPropertyOp24
 70
     1
102
RTVSPropertyOp25
 70
     1
102
RTVSPropertyOp26
 70
     1
102
RTVSPropertyOp27
 70
     1
102
RTVSPropertyOp28
 70
     1
102
RTVSPropertyOp29
 70
     1
102
RTVSPropertyOp30
 70
     1
102
RTVSPropertyOp31
 70
     1
102
RTVSPropertyOp32
 70
     1
102
RTVSPropertyOp33
 70
     1
102
RTVSPropertyOp34
 70
     1
102
RTVSPropertyOp35
 70
     1
102
RTVSPropertyOp36
 70
     1
102
RTVSPropertyOp37
 70
     1
102
RTVSPropertyOp38
 70
     1
102
RTVSPropertyOp39
 70
     1
102
RTVSPropertyOp40
 70
     1
102
RTVSPropertyOp41
 70
     1
102
RTVSPropertyOp42
 70
     1
102
RTVSPropertyOp43
 70
     1
102
RTVSPropertyOp44
 70
     1
102
RTVSPropertyOp45
 70
     1
102
RTVSPropertyOp46
 70
     1
102
RTVSPropertyOp47
 70
     1
102
RTVSPropertyOp48
 70
     1
102
RTVSPropertyOp49
 70
     1
102
RTVSPropertyOp50
 70
     1
102
RTVSPropertyOp51
 70
     0
102
RTVSPropertyOp52
 70
     0
102
RTVSPropertyOp53
 70
     1
102
RTVSPropertyOp54
 70
     1
102
RTVSPropertyOp55
 70
     1
102
RTVSPropertyOp56
 70
     1
102
RTVSPropertyOp57
 70
     1
102
RTVSPost2010Prop28
280
     1
102
RTVSPost2010PropOp28
 70
     1
102
RTVSPost2010Prop29
280
     1
102
RTVSPost2010PropOp29
 70
     1
102
RTVSPost2010Prop30
280
     0
102
RTVSPost2010PropOp30
 70
     1
102
RTVSPost2010Prop31
280
     0
102
RTVSPost2010PropOp31
 70
     1
102
RTVSPost2010Prop32
280
     0
102
RTVSPost2010PropOp32
 70
     1
102
RTVSPost2010Prop33
280
     0
102
RTVSPost2010PropOp33
 70
     1
102
RTVSPost2010Prop34
280
     0
102
RTVSPost2010PropOp34
 70
     1
102
RTVSPost2010Prop35
280
     0
102
RTVSPost2010PropOp35
 70
     1
102
RTVSPost2010Prop36
280
     0
102
RTVSPost2010PropOp36
 70
     1
102
RTVSPost2010Prop37
 90
       50
102
RTVSPost2010PropOp37
 70
     1
102
RTVSPost2010Prop38
140
0.0
102
RTVSPost2010PropOp38
 70
     1
102
RTVSPost2010Prop39
140
1.0
102
RTVSPost2010PropOp39
 70
     1
102
RTVSPost2010Prop40
 90
        0
102
RTVSPost2010PropOp40
 70
     1
102
RTVSPost2010Prop41ColorIndex
 90
       18
102
RTVSPost2010Prop41ColorRGB
 90
        0
102
RTVSPost2010PropOp41
 70
     1
102
RTVSPost2010Prop42
 90
       50
102
RTVSPost2010PropOp42
 70
     1
102
RTVSPost2010Prop43
 90
        3
102
RTVSPost2010PropOp43
 70
     1
102
RTVSPost2010Prop44ColorIndex
 90
        5
102
RTVSPost2010Prop44ColorRGB
 90
      255
102
RTVSPost2010PropOp44
 70
     1
102
RTVSPost2010Prop45
280
     0
102
RTVSPost2010PropOp45
 70
     1
102
RTVSPost2010Prop46
 90
       50
102
RTVSPost2010PropOp46
 70
     1
102
RTVSPost2010Prop47
 90
       50
102
RTVSPost2010PropOp47
 70
     1
102
RTVSPost2010Prop48
 90
       50
102
RTVSPost2010PropOp48
 70
     1
102
RTVSPost2010Prop49
280
     0
102
RTVSPost2010PropOp49
 70
     1
102
RTVSPost2010Prop50
 90
       50
102
RTVSPost2010PropOp50
 70
     1
102
RTVSPost2010Prop51ColorIndex
 90
      256
102
RTVSPost2010Prop51ColorRGB
 90
-16777216
102
RTVSPost2010PropOp51
 70
     0
102
RTVSPost2010Prop52
140
1.0
102
RTVSPost2010PropOp52
 70
     0
102
RTVSPost2010Prop53
 90
        2
102
RTVSPost2010PropOp53
 70
     1
102
RTVSPost2010Prop54
  1
strokes_ogs.tif
102
RTVSPost2010PropOp54
 70
     1
102
RTVSPost2010Prop55
280
     0
102
RTVSPost2010PropOp55
 70
     1
102
RTVSPost2010Prop56
140
1.0
102
RTVSPost2010PropOp56
 70
     1
102
RTVSPost2010Prop57
140
1.0
102
RTVSPost2010PropOp57
 70
     1
  0
XRECORD
  5
1DA
102
{ACAD_REACTORS
330
1D9
102
}
330
1D9
100
AcDbXrecord
280
     1
102
RTVSPropertyOp0
 70
     1
102
RTVSPropertyOp1
 70
     1
102
RTVSPropertyOp2
 70
     1
102
RTVSPropertyOp3
 70
     1
102
RTVSPropertyOp4
 70
     1
102
RTVSPropertyOp5
 70
     1
102
RTVSPropertyOp6
 70
     1
102
RTVSPropertyOp7
 70
     1
102
RTVSPropertyOp8
 70
     1
102
RTVSPropertyOp9
 70
     1
102
RTVSPropertyOp10
 70
     1
102
RTVSPropertyOp11
 70
     1
102
RTVSPropertyOp12
 70
     1
102
RTVSPropertyOp13
 70
     1
102
RTVSPropertyOp14
 70
     1
102
RTVSPropertyOp15
 70
     1
102
RTVSPropertyOp16
 70
     1
102
RTVSPropertyOp17
 70
     1
102
RTVSPropertyOp18
 70
     1
102
RTVSPropertyOp19
 70
     1
102
RTVSPropertyOp20
 70
     1
102
RTVSPropertyOp21
 70
     1
102
RTVSPropertyOp22
 70
     1
102
RTVSPropertyOp23
 70
     1
102
RTVSPropertyOp24
 70
     1
102
RTVSPropertyOp25
 70
     1
102
RTVSPropertyOp26
 70
     1
102
RTVSPropertyOp27
 70
     1
102
RTVSPropertyOp28
 70
     1
102
RTVSPropertyOp29
 70
     1
102
RTVSPropertyOp30
 70
     1
102
RTVSPropertyOp31
 70
     1
102
RTVSPropertyOp32
 70
     1
102
RTVSPropertyOp33
 70
     1
102
RTVSPropertyOp34
 70
     1
102
RTVSPropertyOp35
 70
     1
102
RTVSPropertyOp36
 70
     1
102
RTVSPropertyOp37
 70
     1
102
RTVSPropertyOp38
 70
     1
102
RTVSPropertyOp39
 70
     1
102
RTVSPropertyOp40
 70
     1
102
RTVSPropertyOp41
 70
     1
102
RTVSPropertyOp42
 70
     1
102
RTVSPropertyOp43
 70
     1
102
RTVSPropertyOp44
 70
     1
102
RTVSPropertyOp45
 70
     1
102
RTVSPropertyOp46
 70
     1
102
RTVSPropertyOp47
 70
     1
102
RTVSPropertyOp48
 70
     1
102
RTVSPropertyOp49
 70
     1
102
RTVSPropertyOp50
 70
     1
102
RTVSPropertyOp51
 70
     0
102
RTVSPropertyOp52
 70
     0
102
RTVSPropertyOp53
 70
     1
102
RTVSPropertyOp54
 70
     1
102
RTVSPropertyOp55
 70
     1
102
RTVSPropertyOp56
 70
     1
102
RTVSPropertyOp57
 70
     1
102
RTVSPost2010Prop28
280
     0
102
RTVSPost2010PropOp28
 70
     1
102
RTVSPost2010Prop29
280
     1
102
RTVSPost2010PropOp29
 70
     1
102
RTVSPost2010Prop30
280
     1
102
RTVSPost2010PropOp30
 70
     1
102
RTVSPost2010Prop31
280
     0
102
RTVSPost2010PropOp31
 70
     1
102
RTVSPost2010Prop32
280
     0
102
RTVSPost2010PropOp32
 70
     1
102
RTVSPost2010Prop33
280
     0
102
RTVSPost2010PropOp33
 70
     1
102
RTVSPost2010Prop34
280
     0
102
RTVSPost2010PropOp34
 70
     1
102
RTVSPost2010Prop35
280
     0
102
RTVSPost2010PropOp35
 70
     1
102
RTVSPost2010Prop36
280
     0
102
RTVSPost2010PropOp36
 70
     1
102
RTVSPost2010Prop37
 90
       50
102
RTVSPost2010PropOp37
 70
     1
102
RTVSPost2010Prop38
140
0.0
102
RTVSPost2010PropOp38
 70
     1
102
RTVSPost2010Prop39
140
1.0
102
RTVSPost2010PropOp39
 70
     1
102
RTVSPost2010Prop40
 90
        0
102
RTVSPost2010PropOp40
 70
     1
102
RTVSPost2010Prop41ColorIndex
 90
       18
102
RTVSPost2010Prop41ColorRGB
 90
        0
102
RTVSPost2010PropOp41
 70
     1
102
RTVSPost2010Prop42
 90
       50
102
RTVSPost2010PropOp42
 70
     1
102
RTVSPost2010Prop43
 90
        3
102
RTVSPost2010PropOp43
 70
     1
102
RTVSPost2010Prop44ColorIndex
 90
        5
102
RTVSPost2010Prop44ColorRGB
 90
      255
102
RTVSPost2010PropOp44
 70
     1
102
RTVSPost2010Prop45
280
     0
102
RTVSPost2010PropOp45
 70
     1
102
RTVSPost2010Prop46
 90
       50
102
RTVSPost2010PropOp46
 70
     1
102
RTVSPost2010Prop47
 90
       50
102
RTVSPost2010PropOp47
 70
     1
102
RTVSPost2010Prop48
 90
       50
102
RTVSPost2010PropOp48
 70
     1
102
RTVSPost2010Prop49
280
     0
102
RTVSPost2010PropOp49
 70
     1
102
RTVSPost2010Prop50
 90
       50
102
RTVSPost2010PropOp50
 70
     1
102
RTVSPost2010Prop51ColorIndex
 90
      256
102
RTVSPost2010Prop51ColorRGB
 90
-16777216
102
RTVSPost2010PropOp51
 70
     0
102
RTVSPost2010Prop52
140
1.0
102
RTVSPost2010PropOp52
 70
     0
102
RTVSPost2010Prop53
 90
        2
102
RTVSPost2010PropOp53
 70
     1
102
RTVSPost2010Prop54
  1
strokes_ogs.tif
102
RTVSPost2010PropOp54
 70
     1
102
RTVSPost2010Prop55
280
     0
102
RTVSPost2010PropOp55
 70
     1
102
RTVSPost2010Prop56
140
1.0
102
RTVSPost2010PropOp56
 70
     1
102
RTVSPost2010Prop57
140
1.0
102
RTVSPost2010PropOp57
 70
     1
  0
XRECORD
  5
1E2
102
{ACAD_REACTORS
330
1E1
102
}
330
1E1
100
AcDbXrecord
280
     1
102
RTVSPropertyOp0
 70
     1
102
RTVSPropertyOp1
 70
     1
102
RTVSPropertyOp2
 70
     1
102
RTVSPropertyOp3
 70
     1
102
RTVSPropertyOp4
 70
     1
102
RTVSPropertyOp5
 70
     1
102
RTVSPropertyOp6
 70
     1
102
RTVSPropertyOp7
 70
     1
102
RTVSPropertyOp8
 70
     1
102
RTVSPropertyOp9
 70
     1
102
RTVSPropertyOp10
 70
     1
102
RTVSPropertyOp11
 70
     1
102
RTVSPropertyOp12
 70
     1
102
RTVSPropertyOp13
 70
     1
102
RTVSPropertyOp14
 70
     1
102
RTVSPropertyOp15
 70
     1
102
RTVSPropertyOp16
 70
     1
102
RTVSPropertyOp17
 70
     1
102
RTVSPropertyOp18
 70
     1
102
RTVSPropertyOp19
 70
     1
102
RTVSPropertyOp20
 70
     1
102
RTVSPropertyOp21
 70
     1
102
RTVSPropertyOp22
 70
     1
102
RTVSPropertyOp23
 70
     1
102
RTVSPropertyOp24
 70
     1
102
RTVSPropertyOp25
 70
     1
102
RTVSPropertyOp26
 70
     1
102
RTVSPropertyOp27
 70
     1
102
RTVSPropertyOp28
 70
     1
102
RTVSPropertyOp29
 70
     1
102
RTVSPropertyOp30
 70
     1
102
RTVSPropertyOp31
 70
     1
102
RTVSPropertyOp32
 70
     1
102
RTVSPropertyOp33
 70
     1
102
RTVSPropertyOp34
 70
     1
102
RTVSPropertyOp35
 70
     1
102
RTVSPropertyOp36
 70
     1
102
RTVSPropertyOp37
 70
     1
102
RTVSPropertyOp38
 70
     1
102
RTVSPropertyOp39
 70
     1
102
RTVSPropertyOp40
 70
     1
102
RTVSPropertyOp41
 70
     1
102
RTVSPropertyOp42
 70
     1
102
RTVSPropertyOp43
 70
     1
102
RTVSPropertyOp44
 70
     1
102
RTVSPropertyOp45
 70
     1
102
RTVSPropertyOp46
 70
     1
102
RTVSPropertyOp47
 70
     1
102
RTVSPropertyOp48
 70
     1
102
RTVSPropertyOp49
 70
     1
102
RTVSPropertyOp50
 70
     1
102
RTVSPropertyOp51
 70
     0
102
RTVSPropertyOp52
 70
     0
102
RTVSPropertyOp53
 70
     1
102
RTVSPropertyOp54
 70
     1
102
RTVSPropertyOp55
 70
     1
102
RTVSPropertyOp56
 70
     1
102
RTVSPropertyOp57
 70
     1
102
RTVSPost2010Prop28
280
     0
102
RTVSPost2010PropOp28
 70
     1
102
RTVSPost2010Prop29
280
     1
102
RTVSPost2010PropOp29
 70
     1
102
RTVSPost2010Prop30
280
     1
102
RTVSPost2010PropOp30
 70
     1
102
RTVSPost2010Prop31
280
     0
102
RTVSPost2010PropOp31
 70
     1
102
RTVSPost2010Prop32
280
     0
102
RTVSPost2010PropOp32
 70
     1
102
RTVSPost2010Prop33
280
     0
102
RTVSPost2010PropOp33
 70
     1
102
RTVSPost2010Prop34
280
     0
102
RTVSPost2010PropOp34
 70
     1
102
RTVSPost2010Prop35
280
     0
102
RTVSPost2010PropOp35
 70
     1
102
RTVSPost2010Prop36
280
     0
102
RTVSPost2010PropOp36
 70
     1
102
RTVSPost2010Prop37
 90
       50
102
RTVSPost2010PropOp37
 70
     1
102
RTVSPost2010Prop38
140
0.0
102
RTVSPost2010PropOp38
 70
     1
102
RTVSPost2010Prop39
140
1.0
102
RTVSPost2010PropOp39
 70
     1
102
RTVSPost2010Prop40
 90
        0
102
RTVSPost2010PropOp40
 70
     1
102
RTVSPost2010Prop41ColorIndex
 90
       18
102
RTVSPost2010Prop41ColorRGB
 90
        0
102
RTVSPost2010PropOp41
 70
     1
102
RTVSPost2010Prop42
 90
       50
102
RTVSPost2010PropOp42
 70
     1
102
RTVSPost2010Prop43
 90
        3
102
RTVSPost2010PropOp43
 70
     1
102
RTVSPost2010Prop44ColorIndex
 90
        5
102
RTVSPost2010Prop44ColorRGB
 90
      255
102
RTVSPost2010PropOp44
 70
     1
102
RTVSPost2010Prop45
280
     0
102
RTVSPost2010PropOp45
 70
     1
102
RTVSPost2010Prop46
 90
       50
102
RTVSPost2010PropOp46
 70
     1
102
RTVSPost2010Prop47
 90
       50
102
RTVSPost2010PropOp47
 70
     1
102
RTVSPost2010Prop48
 90
       50
102
RTVSPost2010PropOp48
 70
     1
102
RTVSPost2010Prop49
280
     0
102
RTVSPost2010PropOp49
 70
     1
102
RTVSPost2010Prop50
 90
       50
102
RTVSPost2010PropOp50
 70
     1
102
RTVSPost2010Prop51ColorIndex
 90
      256
102
RTVSPost2010Prop51ColorRGB
 90
-16777216
102
RTVSPost2010PropOp51
 70
     0
102
RTVSPost2010Prop52
140
1.0
102
RTVSPost2010PropOp52
 70
     0
102
RTVSPost2010Prop53
 90
        2
102
RTVSPost2010PropOp53
 70
     1
102
RTVSPost2010Prop54
  1
strokes_ogs.tif
102
RTVSPost2010PropOp54
 70
     1
102
RTVSPost2010Prop55
280
     0
102
RTVSPost2010PropOp55
 70
     1
102
RTVSPost2010Prop56
140
1.0
102
RTVSPost2010PropOp56
 70
     1
102
RTVSPost2010Prop57
140
1.0
102
RTVSPost2010PropOp57
 70
     1
  0
XRECORD
  5
1EA
102
{ACAD_REACTORS
330
1E9
102
}
330
1E9
100
AcDbXrecord
280
     1
102
RTVSPropertyOp0
 70
     1
102
RTVSPropertyOp1
 70
     1
102
RTVSPropertyOp2
 70
     1
102
RTVSPropertyOp3
 70
     1
102
RTVSPropertyOp4
 70
     1
102
RTVSPropertyOp5
 70
     1
102
RTVSPropertyOp6
 70
     1
102
RTVSPropertyOp7
 70
     1
102
RTVSPropertyOp8
 70
     1
102
RTVSPropertyOp9
 70
     1
102
RTVSPropertyOp10
 70
     1
102
RTVSPropertyOp11
 70
     1
102
RTVSPropertyOp12
 70
     1
102
RTVSPropertyOp13
 70
     1
102
RTVSPropertyOp14
 70
     1
102
RTVSPropertyOp15
 70
     1
102
RTVSPropertyOp16
 70
     1
102
RTVSPropertyOp17
 70
     1
102
RTVSPropertyOp18
 70
     1
102
RTVSPropertyOp19
 70
     1
102
RTVSPropertyOp20
 70
     1
102
RTVSPropertyOp21
 70
     1
102
RTVSPropertyOp22
 70
     1
102
RTVSPropertyOp23
 70
     1
102
RTVSPropertyOp24
 70
     1
102
RTVSPropertyOp25
 70
     1
102
RTVSPropertyOp26
 70
     1
102
RTVSPropertyOp27
 70
     1
102
RTVSPropertyOp28
 70
     1
102
RTVSPropertyOp29
 70
     1
102
RTVSPropertyOp30
 70
     1
102
RTVSPropertyOp31
 70
     1
102
RTVSPropertyOp32
 70
     1
102
RTVSPropertyOp33
 70
     1
102
RTVSPropertyOp34
 70
     1
102
RTVSPropertyOp35
 70
     1
102
RTVSPropertyOp36
 70
     1
102
RTVSPropertyOp37
 70
     1
102
RTVSPropertyOp38
 70
     1
102
RTVSPropertyOp39
 70
     1
102
RTVSPropertyOp40
 70
     1
102
RTVSPropertyOp41
 70
     1
102
RTVSPropertyOp42
 70
     1
102
RTVSPropertyOp43
 70
     1
102
RTVSPropertyOp44
 70
     1
102
RTVSPropertyOp45
 70
     1
102
RTVSPropertyOp46
 70
     1
102
RTVSPropertyOp47
 70
     1
102
RTVSPropertyOp48
 70
     1
102
RTVSPropertyOp49
 70
     1
102
RTVSPropertyOp50
 70
     1
102
RTVSPropertyOp51
 70
     0
102
RTVSPropertyOp52
 70
     0
102
RTVSPropertyOp53
 70
     1
102
RTVSPropertyOp54
 70
     1
102
RTVSPropertyOp55
 70
     1
102
RTVSPropertyOp56
 70
     1
102
RTVSPropertyOp57
 70
     1
102
RTVSPost2010Prop28
280
     0
102
RTVSPost2010PropOp28
 70
     1
102
RTVSPost2010Prop29
280
     1
102
RTVSPost2010PropOp29
 70
     1
102
RTVSPost2010Prop30
280
     1
102
RTVSPost2010PropOp30
 70
     1
102
RTVSPost2010Prop31
280
     0
102
RTVSPost2010PropOp31
 70
     1
102
RTVSPost2010Prop32
280
     0
102
RTVSPost2010PropOp32
 70
     1
102
RTVSPost2010Prop33
280
     0
102
RTVSPost2010PropOp33
 70
     1
102
RTVSPost2010Prop34
280
     0
102
RTVSPost2010PropOp34
 70
     1
102
RTVSPost2010Prop35
280
     0
102
RTVSPost2010PropOp35
 70
     1
102
RTVSPost2010Prop36
280
     0
102
RTVSPost2010PropOp36
 70
     1
102
RTVSPost2010Prop37
 90
       50
102
RTVSPost2010PropOp37
 70
     1
102
RTVSPost2010Prop38
140
0.0
102
RTVSPost2010PropOp38
 70
     1
102
RTVSPost2010Prop39
140
1.0
102
RTVSPost2010PropOp39
 70
     1
102
RTVSPost2010Prop40
 90
        0
102
RTVSPost2010PropOp40
 70
     1
102
RTVSPost2010Prop41ColorIndex
 90
       18
102
RTVSPost2010Prop41ColorRGB
 90
        0
102
RTVSPost2010PropOp41
 70
     1
102
RTVSPost2010Prop42
 90
       50
102
RTVSPost2010PropOp42
 70
     1
102
RTVSPost2010Prop43
 90
        3
102
RTVSPost2010PropOp43
 70
     1
102
RTVSPost2010Prop44ColorIndex
 90
        5
102
RTVSPost2010Prop44ColorRGB
 90
      255
102
RTVSPost2010PropOp44
 70
     1
102
RTVSPost2010Prop45
280
     0
102
RTVSPost2010PropOp45
 70
     1
102
RTVSPost2010Prop46
 90
       50
102
RTVSPost2010PropOp46
 70
     1
102
RTVSPost2010Prop47
 90
       50
102
RTVSPost2010PropOp47
 70
     1
102
RTVSPost2010Prop48
 90
       50
102
RTVSPost2010PropOp48
 70
     1
102
RTVSPost2010Prop49
280
     0
102
RTVSPost2010PropOp49
 70
     1
102
RTVSPost2010Prop50
 90
       50
102
RTVSPost2010PropOp50
 70
     1
102
RTVSPost2010Prop51ColorIndex
 90
      256
102
RTVSPost2010Prop51ColorRGB
 90
-16777216
102
RTVSPost2010PropOp51
 70
     0
102
RTVSPost2010Prop52
140
1.0
102
RTVSPost2010PropOp52
 70
     0
102
RTVSPost2010Prop53
 90
        2
102
RTVSPost2010PropOp53
 70
     1
102
RTVSPost2010Prop54
  1
strokes_ogs.tif
102
RTVSPost2010PropOp54
 70
     1
102
RTVSPost2010Prop55
280
     0
102
RTVSPost2010PropOp55
 70
     1
102
RTVSPost2010Prop56
140
1.0
102
RTVSPost2010PropOp56
 70
     1
102
RTVSPost2010Prop57
140
1.0
102
RTVSPost2010PropOp57
 70
     1
  0
XRECORD
  5
1DE
102
{ACAD_REACTORS
330
1DD
102
}
330
1DD
100
AcDbXrecord
280
     1
102
RTVSPropertyOp0
 70
     1
102
RTVSPropertyOp1
 70
     1
102
RTVSPropertyOp2
 70
     1
102
RTVSPropertyOp3
 70
     1
102
RTVSPropertyOp4
 70
     1
102
RTVSPropertyOp5
 70
     1
102
RTVSPropertyOp6
 70
     1
102
RTVSPropertyOp7
 70
     1
102
RTVSPropertyOp8
 70
     1
102
RTVSPropertyOp9
 70
     1
102
RTVSPropertyOp10
 70
     1
102
RTVSPropertyOp11
 70
     1
102
RTVSPropertyOp12
 70
     1
102
RTVSPropertyOp13
 70
     1
102
RTVSPropertyOp14
 70
     1
102
RTVSPropertyOp15
 70
     1
102
RTVSPropertyOp16
 70
     1
102
RTVSPropertyOp17
 70
     1
102
RTVSPropertyOp18
 70
     1
102
RTVSPropertyOp19
 70
     1
102
RTVSPropertyOp20
 70
     1
102
RTVSPropertyOp21
 70
     1
102
RTVSPropertyOp22
 70
     1
102
RTVSPropertyOp23
 70
     1
102
RTVSPropertyOp24
 70
     1
102
RTVSPropertyOp25
 70
     1
102
RTVSPropertyOp26
 70
     1
102
RTVSPropertyOp27
 70
     1
102
RTVSPropertyOp28
 70
     1
102
RTVSPropertyOp29
 70
     1
102
RTVSPropertyOp30
 70
     1
102
RTVSPropertyOp31
 70
     1
102
RTVSPropertyOp32
 70
     1
102
RTVSPropertyOp33
 70
     1
102
RTVSPropertyOp34
 70
     1
102
RTVSPropertyOp35
 70
     1
102
RTVSPropertyOp36
 70
     1
102
RTVSPropertyOp37
 70
     1
102
RTVSPropertyOp38
 70
     1
102
RTVSPropertyOp39
 70
     1
102
RTVSPropertyOp40
 70
     1
102
RTVSPropertyOp41
 70
     1
102
RTVSPropertyOp42
 70
     1
102
RTVSPropertyOp43
 70
     1
102
RTVSPropertyOp44
 70
     1
102
RTVSPropertyOp45
 70
     1
102
RTVSPropertyOp46
 70
     1
102
RTVSPropertyOp47
 70
     1
102
RTVSPropertyOp48
 70
     1
102
RTVSPropertyOp49
 70
     1
102
RTVSPropertyOp50
 70
     1
102
RTVSPropertyOp51
 70
     0
102
RTVSPropertyOp52
 70
     0
102
RTVSPropertyOp53
 70
     1
102
RTVSPropertyOp54
 70
     1
102
RTVSPropertyOp55
 70
     1
102
RTVSPropertyOp56
 70
     1
102
RTVSPropertyOp57
 70
     1
102
RTVSPost2010Prop28
280
     0
102
RTVSPost2010PropOp28
 70
     1
102
RTVSPost2010Prop29
280
     1
102
RTVSPost2010PropOp29
 70
     1
102
RTVSPost2010Prop30
280
     1
102
RTVSPost2010PropOp30
 70
     1
102
RTVSPost2010Prop31
280
     0
102
RTVSPost2010PropOp31
 70
     1
102
RTVSPost2010Prop32
280
     0
102
RTVSPost2010PropOp32
 70
     1
102
RTVSPost2010Prop33
280
     0
102
RTVSPost2010PropOp33
 70
     1
102
RTVSPost2010Prop34
280
     0
102
RTVSPost2010PropOp34
 70
     1
102
RTVSPost2010Prop35
280
     0
102
RTVSPost2010PropOp35
 70
     1
102
RTVSPost2010Prop36
280
     0
102
RTVSPost2010PropOp36
 70
     1
102
RTVSPost2010Prop37
 90
       50
102
RTVSPost2010PropOp37
 70
     1
102
RTVSPost2010Prop38
140
0.0
102
RTVSPost2010PropOp38
 70
     1
102
RTVSPost2010Prop39
140
1.0
102
RTVSPost2010PropOp39
 70
     1
102
RTVSPost2010Prop40
 90
        0
102
RTVSPost2010PropOp40
 70
     1
102
RTVSPost2010Prop41ColorIndex
 90
       18
102
RTVSPost2010Prop41ColorRGB
 90
        0
102
RTVSPost2010PropOp41
 70
     1
102
RTVSPost2010Prop42
 90
       50
102
RTVSPost2010PropOp42
 70
     1
102
RTVSPost2010Prop43
 90
        3
102
RTVSPost2010PropOp43
 70
     1
102
RTVSPost2010Prop44ColorIndex
 90
        5
102
RTVSPost2010Prop44ColorRGB
 90
      255
102
RTVSPost2010PropOp44
 70
     1
102
RTVSPost2010Prop45
280
     0
102
RTVSPost2010PropOp45
 70
     1
102
RTVSPost2010Prop46
 90
       50
102
RTVSPost2010PropOp46
 70
     1
102
RTVSPost2010Prop47
 90
       50
102
RTVSPost2010PropOp47
 70
     1
102
RTVSPost2010Prop48
 90
       50
102
RTVSPost2010PropOp48
 70
     1
102
RTVSPost2010Prop49
280
     0
102
RTVSPost2010PropOp49
 70
     1
102
RTVSPost2010Prop50
 90
       50
102
RTVSPost2010PropOp50
 70
     1
102
RTVSPost2010Prop51ColorIndex
 90
      256
102
RTVSPost2010Prop51ColorRGB
 90
-16777216
102
RTVSPost2010PropOp51
 70
     0
102
RTVSPost2010Prop52
140
1.0
102
RTVSPost2010PropOp52
 70
     0
102
RTVSPost2010Prop53
 90
        2
102
RTVSPost2010PropOp53
 70
     1
102
RTVSPost2010Prop54
  1
strokes_ogs.tif
102
RTVSPost2010PropOp54
 70
     1
102
RTVSPost2010Prop55
280
     0
102
RTVSPost2010PropOp55
 70
     1
102
RTVSPost2010Prop56
140
1.0
102
RTVSPost2010PropOp56
 70
     1
102
RTVSPost2010Prop57
140
1.0
102
RTVSPost2010PropOp57
 70
     1
  0
XRECORD
  5
1E0
102
{ACAD_REACTORS
330
1DF
102
}
330
1DF
100
AcDbXrecord
280
     1
102
RTVSPropertyOp0
 70
     1
102
RTVSPropertyOp1
 70
     1
102
RTVSPropertyOp2
 70
     1
102
RTVSPropertyOp3
 70
     1
102
RTVSPropertyOp4
 70
     1
102
RTVSPropertyOp5
 70
     1
102
RTVSPropertyOp6
 70
     1
102
RTVSPropertyOp7
 70
     1
102
RTVSPropertyOp8
 70
     1
102
RTVSPropertyOp9
 70
     1
102
RTVSPropertyOp10
 70
     1
102
RTVSPropertyOp11
 70
     1
102
RTVSPropertyOp12
 70
     1
102
RTVSPropertyOp13
 70
     1
102
RTVSPropertyOp14
 70
     1
102
RTVSPropertyOp15
 70
     1
102
RTVSPropertyOp16
 70
     1
102
RTVSPropertyOp17
 70
     1
102
RTVSPropertyOp18
 70
     1
102
RTVSPropertyOp19
 70
     1
102
RTVSPropertyOp20
 70
     1
102
RTVSPropertyOp21
 70
     1
102
RTVSPropertyOp22
 70
     1
102
RTVSPropertyOp23
 70
     1
102
RTVSPropertyOp24
 70
     1
102
RTVSPropertyOp25
 70
     1
102
RTVSPropertyOp26
 70
     1
102
RTVSPropertyOp27
 70
     1
102
RTVSPropertyOp28
 70
     1
102
RTVSPropertyOp29
 70
     1
102
RTVSPropertyOp30
 70
     1
102
RTVSPropertyOp31
 70
     1
102
RTVSPropertyOp32
 70
     1
102
RTVSPropertyOp33
 70
     1
102
RTVSPropertyOp34
 70
     1
102
RTVSPropertyOp35
 70
     1
102
RTVSPropertyOp36
 70
     1
102
RTVSPropertyOp37
 70
     1
102
RTVSPropertyOp38
 70
     1
102
RTVSPropertyOp39
 70
     1
102
RTVSPropertyOp40
 70
     1
102
RTVSPropertyOp41
 70
     1
102
RTVSPropertyOp42
 70
     1
102
RTVSPropertyOp43
 70
     1
102
RTVSPropertyOp44
 70
     1
102
RTVSPropertyOp45
 70
     1
102
RTVSPropertyOp46
 70
     1
102
RTVSPropertyOp47
 70
     1
102
RTVSPropertyOp48
 70
     1
102
RTVSPropertyOp49
 70
     1
102
RTVSPropertyOp50
 70
     1
102
RTVSPropertyOp51
 70
     0
102
RTVSPropertyOp52
 70
     0
102
RTVSPropertyOp53
 70
     1
102
RTVSPropertyOp54
 70
     1
102
RTVSPropertyOp55
 70
     1
102
RTVSPropertyOp56
 70
     1
102
RTVSPropertyOp57
 70
     1
102
RTVSPost2010Prop28
280
     0
102
RTVSPost2010PropOp28
 70
     1
102
RTVSPost2010Prop29
280
     1
102
RTVSPost2010PropOp29
 70
     1
102
RTVSPost2010Prop30
280
     1
102
RTVSPost2010PropOp30
 70
     1
102
RTVSPost2010Prop31
280
     0
102
RTVSPost2010PropOp31
 70
     1
102
RTVSPost2010Prop32
280
     0
102
RTVSPost2010PropOp32
 70
     1
102
RTVSPost2010Prop33
280
     0
102
RTVSPost2010PropOp33
 70
     1
102
RTVSPost2010Prop34
280
     0
102
RTVSPost2010PropOp34
 70
     1
102
RTVSPost2010Prop35
280
     0
102
RTVSPost2010PropOp35
 70
     1
102
RTVSPost2010Prop36
280
     0
102
RTVSPost2010PropOp36
 70
     1
102
RTVSPost2010Prop37
 90
       50
102
RTVSPost2010PropOp37
 70
     1
102
RTVSPost2010Prop38
140
0.0
102
RTVSPost2010PropOp38
 70
     1
102
RTVSPost2010Prop39
140
1.0
102
RTVSPost2010PropOp39
 70
     1
102
RTVSPost2010Prop40
 90
        0
102
RTVSPost2010PropOp40
 70
     1
102
RTVSPost2010Prop41ColorIndex
 90
       18
102
RTVSPost2010Prop41ColorRGB
 90
        0
102
RTVSPost2010PropOp41
 70
     1
102
RTVSPost2010Prop42
 90
       50
102
RTVSPost2010PropOp42
 70
     1
102
RTVSPost2010Prop43
 90
        3
102
RTVSPost2010PropOp43
 70
     1
102
RTVSPost2010Prop44ColorIndex
 90
        5
102
RTVSPost2010Prop44ColorRGB
 90
      255
102
RTVSPost2010PropOp44
 70
     1
102
RTVSPost2010Prop45
280
     0
102
RTVSPost2010PropOp45
 70
     1
102
RTVSPost2010Prop46
 90
       50
102
RTVSPost2010PropOp46
 70
     1
102
RTVSPost2010Prop47
 90
       50
102
RTVSPost2010PropOp47
 70
     1
102
RTVSPost2010Prop48
 90
       50
102
RTVSPost2010PropOp48
 70
     1
102
RTVSPost2010Prop49
280
     0
102
RTVSPost2010PropOp49
 70
     1
102
RTVSPost2010Prop50
 90
       50
102
RTVSPost2010PropOp50
 70
     1
102
RTVSPost2010Prop51ColorIndex
 90
      256
102
RTVSPost2010Prop51ColorRGB
 90
-16777216
102
RTVSPost2010PropOp51
 70
     0
102
RTVSPost2010Prop52
140
1.0
102
RTVSPost2010PropOp52
 70
     0
102
RTVSPost2010Prop53
 90
        2
102
RTVSPost2010PropOp53
 70
     1
102
RTVSPost2010Prop54
  1
strokes_ogs.tif
102
RTVSPost2010PropOp54
 70
     1
102
RTVSPost2010Prop55
280
     0
102
RTVSPost2010PropOp55
 70
     1
102
RTVSPost2010Prop56
140
1.0
102
RTVSPost2010PropOp56
 70
     1
102
RTVSPost2010Prop57
140
1.0
102
RTVSPost2010PropOp57
 70
     1
  0
XRECORD
  5
1F0
102
{ACAD_REACTORS
330
1EF
102
}
330
1EF
100
AcDbXrecord
280
     1
102
RTVSPropertyOp0
 70
     0
102
RTVSPropertyOp1
 70
     0
102
RTVSPropertyOp2
 70
     0
102
RTVSPropertyOp3
 70
     0
102
RTVSPropertyOp4
 70
     0
102
RTVSPropertyOp5
 70
     0
102
RTVSPropertyOp6
 70
     0
102
RTVSPropertyOp7
 70
     0
102
RTVSPropertyOp8
 70
     0
102
RTVSPropertyOp9
 70
     0
102
RTVSPropertyOp10
 70
     0
102
RTVSPropertyOp11
 70
     0
102
RTVSPropertyOp12
 70
     0
102
RTVSPropertyOp13
 70
     0
102
RTVSPropertyOp14
 70
     2
102
RTVSPropertyOp15
 70
     0
102
RTVSPropertyOp16
 70
     0
102
RTVSPropertyOp17
 70
     0
102
RTVSPropertyOp18
 70
     0
102
RTVSPropertyOp19
 70
     0
102
RTVSPropertyOp20
 70
     0
102
RTVSPropertyOp21
 70
     0
102
RTVSPropertyOp22
 70
     0
102
RTVSPropertyOp23
 70
     0
102
RTVSPropertyOp24
 70
     0
102
RTVSPropertyOp25
 70
     0
102
RTVSPropertyOp26
 70
     0
102
RTVSPropertyOp27
 70
     0
102
RTVSPropertyOp28
 70
     0
102
RTVSPropertyOp29
 70
     0
102
RTVSPropertyOp30
 70
     0
102
RTVSPropertyOp31
 70
     0
102
RTVSPropertyOp32
 70
     0
102
RTVSPropertyOp33
 70
     0
102
RTVSPropertyOp34
 70
     0
102
RTVSPropertyOp35
 70
     0
102
RTVSPropertyOp36
 70
     0
102
RTVSPropertyOp37
 70
     0
102
RTVSPropertyOp38
 70
     0
102
RTVSPropertyOp39
 70
     0
102
RTVSPropertyOp40
 70
     0
102
RTVSPropertyOp41
 70
     0
102
RTVSPropertyOp42
 70
     0
102
RTVSPropertyOp43
 70
     0
102
RTVSPropertyOp44
 70
     0
102
RTVSPropertyOp45
 70
     0
102
RTVSPropertyOp46
 70
     0
102
RTVSPropertyOp47
 70
     0
102
RTVSPropertyOp48
 70
     0
102
RTVSPropertyOp49
 70
     0
102
RTVSPropertyOp50
 70
     0
102
RTVSPropertyOp51
 70
     0
102
RTVSPropertyOp52
 70
     0
102
RTVSPropertyOp53
 70
     0
102
RTVSPropertyOp54
 70
     0
102
RTVSPropertyOp55
 70
     0
102
RTVSPropertyOp56
 70
     0
102
RTVSPropertyOp57
 70
     0
102
RTVSPost2010Prop28
280
     0
102
RTVSPost2010PropOp28
 70
     0
102
RTVSPost2010Prop29
280
     1
102
RTVSPost2010PropOp29
 70
     0
102
RTVSPost2010Prop30
280
     1
102
RTVSPost2010PropOp30
 70
     0
102
RTVSPost2010Prop31
280
     0
102
RTVSPost2010PropOp31
 70
     0
102
RTVSPost2010Prop32
280
     0
102
RTVSPost2010PropOp32
 70
     0
102
RTVSPost2010Prop33
280
     0
102
RTVSPost2010PropOp33
 70
     0
102
RTVSPost2010Prop34
280
     0
102
RTVSPost2010PropOp34
 70
     0
102
RTVSPost2010Prop35
280
     0
102
RTVSPost2010PropOp35
 70
     0
102
RTVSPost2010Prop36
280
     0
102
RTVSPost2010PropOp36
 70
     0
102
RTVSPost2010Prop37
 90
       50
102
RTVSPost2010PropOp37
 70
     0
102
RTVSPost2010Prop38
140
0.0
102
RTVSPost2010PropOp38
 70
     0
102
RTVSPost2010Prop39
140
1.0
102
RTVSPost2010PropOp39
 70
     0
102
RTVSPost2010Prop40
 90
        0
102
RTVSPost2010PropOp40
 70
     0
102
RTVSPost2010Prop41ColorIndex
 90
       18
102
RTVSPost2010Prop41ColorRGB
 90
        0
102
RTVSPost2010PropOp41
 70
     0
102
RTVSPost2010Prop42
 90
       50
102
RTVSPost2010PropOp42
 70
     0
102
RTVSPost2010Prop43
 90
        3
102
RTVSPost2010PropOp43
 70
     0
102
RTVSPost2010Prop44ColorIndex
 90
        5
102
RTVSPost2010Prop44ColorRGB
 90
      255
102
RTVSPost2010PropOp44
 70
     0
102
RTVSPost2010Prop45
280
     0
102
RTVSPost2010PropOp45
 70
     0
102
RTVSPost2010Prop46
 90
       50
102
RTVSPost2010PropOp46
 70
     0
102
RTVSPost2010Prop47
 90
       50
102
RTVSPost2010PropOp47
 70
     0
102
RTVSPost2010Prop48
 90
       50
102
RTVSPost2010PropOp48
 70
     0
102
RTVSPost2010Prop49
280
     0
102
RTVSPost2010PropOp49
 70
     0
102
RTVSPost2010Prop50
 90
       50
102
RTVSPost2010PropOp50
 70
     0
102
RTVSPost2010Prop51ColorIndex
 90
      256
102
RTVSPost2010Prop51ColorRGB
 90
-16777216
102
RTVSPost2010PropOp51
 70
     0
102
RTVSPost2010Prop52
140
1.0
102
RTVSPost2010PropOp52
 70
     0
102
RTVSPost2010Prop53
 90
        2
102
RTVSPost2010PropOp53
 70
     0
102
RTVSPost2010Prop54
  1
strokes_ogs.tif
102
RTVSPost2010PropOp54
 70
     0
102
RTVSPost2010Prop55
280
     0
102
RTVSPost2010PropOp55
 70
     0
102
RTVSPost2010Prop56
140
1.0
102
RTVSPost2010PropOp56
 70
     0
102
RTVSPost2010Prop57
140
1.0
102
RTVSPost2010PropOp57
 70
     0
  0
XRECORD
  5
1E8
102
{ACAD_REACTORS
330
1E7
102
}
330
1E7
100
AcDbXrecord
280
     1
102
RTVSPropertyOp0
 70
     1
102
RTVSPropertyOp1
 70
     1
102
RTVSPropertyOp2
 70
     1
102
RTVSPropertyOp3
 70
     1
102
RTVSPropertyOp4
 70
     1
102
RTVSPropertyOp5
 70
     1
102
RTVSPropertyOp6
 70
     1
102
RTVSPropertyOp7
 70
     1
102
RTVSPropertyOp8
 70
     1
102
RTVSPropertyOp9
 70
     1
102
RTVSPropertyOp10
 70
     1
102
RTVSPropertyOp11
 70
     1
102
RTVSPropertyOp12
 70
     1
102
RTVSPropertyOp13
 70
     1
102
RTVSPropertyOp14
 70
     1
102
RTVSPropertyOp15
 70
     1
102
RTVSPropertyOp16
 70
     1
102
RTVSPropertyOp17
 70
     1
102
RTVSPropertyOp18
 70
     1
102
RTVSPropertyOp19
 70
     1
102
RTVSPropertyOp20
 70
     1
102
RTVSPropertyOp21
 70
     1
102
RTVSPropertyOp22
 70
     1
102
RTVSPropertyOp23
 70
     1
102
RTVSPropertyOp24
 70
     1
102
RTVSPropertyOp25
 70
     1
102
RTVSPropertyOp26
 70
     1
102
RTVSPropertyOp27
 70
     1
102
RTVSPropertyOp28
 70
     1
102
RTVSPropertyOp29
 70
     1
102
RTVSPropertyOp30
 70
     1
102
RTVSPropertyOp31
 70
     1
102
RTVSPropertyOp32
 70
     1
102
RTVSPropertyOp33
 70
     1
102
RTVSPropertyOp34
 70
     1
102
RTVSPropertyOp35
 70
     1
102
RTVSPropertyOp36
 70
     1
102
RTVSPropertyOp37
 70
     1
102
RTVSPropertyOp38
 70
     1
102
RTVSPropertyOp39
 70
     1
102
RTVSPropertyOp40
 70
     1
102
RTVSPropertyOp41
 70
     1
102
RTVSPropertyOp42
 70
     1
102
RTVSPropertyOp43
 70
     1
102
RTVSPropertyOp44
 70
     1
102
RTVSPropertyOp45
 70
     1
102
RTVSPropertyOp46
 70
     1
102
RTVSPropertyOp47
 70
     1
102
RTVSPropertyOp48
 70
     1
102
RTVSPropertyOp49
 70
     1
102
RTVSPropertyOp50
 70
     1
102
RTVSPropertyOp51
 70
     0
102
RTVSPropertyOp52
 70
     0
102
RTVSPropertyOp53
 70
     1
102
RTVSPropertyOp54
 70
     1
102
RTVSPropertyOp55
 70
     1
102
RTVSPropertyOp56
 70
     1
102
RTVSPropertyOp57
 70
     1
102
RTVSPost2010Prop28
280
     0
102
RTVSPost2010PropOp28
 70
     1
102
RTVSPost2010Prop29
280
     1
102
RTVSPost2010PropOp29
 70
     1
102
RTVSPost2010Prop30
280
     1
102
RTVSPost2010PropOp30
 70
     1
102
RTVSPost2010Prop31
280
     0
102
RTVSPost2010PropOp31
 70
     1
102
RTVSPost2010Prop32
280
     0
102
RTVSPost2010PropOp32
 70
     1
102
RTVSPost2010Prop33
280
     0
102
RTVSPost2010PropOp33
 70
     1
102
RTVSPost2010Prop34
280
     0
102
RTVSPost2010PropOp34
 70
     1
102
RTVSPost2010Prop35
280
     0
102
RTVSPost2010PropOp35
 70
     1
102
RTVSPost2010Prop36
280
     0
102
RTVSPost2010PropOp36
 70
     1
102
RTVSPost2010Prop37
 90
       50
102
RTVSPost2010PropOp37
 70
     1
102
RTVSPost2010Prop38
140
0.0
102
RTVSPost2010PropOp38
 70
     1
102
RTVSPost2010Prop39
140
1.0
102
RTVSPost2010PropOp39
 70
     1
102
RTVSPost2010Prop40
 90
        0
102
RTVSPost2010PropOp40
 70
     1
102
RTVSPost2010Prop41ColorIndex
 90
       18
102
RTVSPost2010Prop41ColorRGB
 90
        0
102
RTVSPost2010PropOp41
 70
     1
102
RTVSPost2010Prop42
 90
       50
102
RTVSPost2010PropOp42
 70
     1
102
RTVSPost2010Prop43
 90
        3
102
RTVSPost2010PropOp43
 70
     1
102
RTVSPost2010Prop44ColorIndex
 90
        5
102
RTVSPost2010Prop44ColorRGB
 90
      255
102
RTVSPost2010PropOp44
 70
     1
102
RTVSPost2010Prop45
280
     0
102
RTVSPost2010PropOp45
 70
     1
102
RTVSPost2010Prop46
 90
       50
102
RTVSPost2010PropOp46
 70
     1
102
RTVSPost2010Prop47
 90
       50
102
RTVSPost2010PropOp47
 70
     1
102
RTVSPost2010Prop48
 90
       50
102
RTVSPost2010PropOp48
 70
     1
102
RTVSPost2010Prop49
280
     0
102
RTVSPost2010PropOp49
 70
     1
102
RTVSPost2010Prop50
 90
       50
102
RTVSPost2010PropOp50
 70
     1
102
RTVSPost2010Prop51ColorIndex
 90
      256
102
RTVSPost2010Prop51ColorRGB
 90
-16777216
102
RTVSPost2010PropOp51
 70
     0
102
RTVSPost2010Prop52
140
1.0
102
RTVSPost2010PropOp52
 70
     0
102
RTVSPost2010Prop53
 90
        2
102
RTVSPost2010PropOp53
 70
     1
102
RTVSPost2010Prop54
  1
strokes_ogs.tif
102
RTVSPost2010PropOp54
 70
     1
102
RTVSPost2010Prop55
280
     0
102
RTVSPost2010PropOp55
 70
     1
102
RTVSPost2010Prop56
140
1.0
102
RTVSPost2010PropOp56
 70
     1
102
RTVSPost2010Prop57
140
1.0
102
RTVSPost2010PropOp57
 70
     1
  0
XRECORD
  5
1CC
102
{ACAD_REACTORS
330
1CB
102
}
330
1CB
100
AcDbXrecord
280
     1
102
RTVSPropertyOp0
 70
     1
102
RTVSPropertyOp1
 70
     1
102
RTVSPropertyOp2
 70
     1
102
RTVSPropertyOp3
 70
     1
102
RTVSPropertyOp4
 70
     1
102
RTVSPropertyOp5
 70
     1
102
RTVSPropertyOp6
 70
     1
102
RTVSPropertyOp7
 70
     1
102
RTVSPropertyOp8
 70
     1
102
RTVSPropertyOp9
 70
     1
102
RTVSPropertyOp10
 70
     1
102
RTVSPropertyOp11
 70
     1
102
RTVSPropertyOp12
 70
     1
102
RTVSPropertyOp13
 70
     1
102
RTVSPropertyOp14
 70
     1
102
RTVSPropertyOp15
 70
     1
102
RTVSPropertyOp16
 70
     1
102
RTVSPropertyOp17
 70
     1
102
RTVSPropertyOp18
 70
     1
102
RTVSPropertyOp19
 70
     1
102
RTVSPropertyOp20
 70
     1
102
RTVSPropertyOp21
 70
     1
102
RTVSPropertyOp22
 70
     1
102
RTVSPropertyOp23
 70
     1
102
RTVSPropertyOp24
 70
     1
102
RTVSPropertyOp25
 70
     1
102
RTVSPropertyOp26
 70
     1
102
RTVSPropertyOp27
 70
     1
102
RTVSPropertyOp28
 70
     1
102
RTVSPropertyOp29
 70
     1
102
RTVSPropertyOp30
 70
     1
102
RTVSPropertyOp31
 70
     1
102
RTVSPropertyOp32
 70
     1
102
RTVSPropertyOp33
 70
     1
102
RTVSPropertyOp34
 70
     1
102
RTVSPropertyOp35
 70
     1
102
RTVSPropertyOp36
 70
     1
102
RTVSPropertyOp37
 70
     1
102
RTVSPropertyOp38
 70
     1
102
RTVSPropertyOp39
 70
     1
102
RTVSPropertyOp40
 70
     1
102
RTVSPropertyOp41
 70
     1
102
RTVSPropertyOp42
 70
     1
102
RTVSPropertyOp43
 70
     1
102
RTVSPropertyOp44
 70
     1
102
RTVSPropertyOp45
 70
     1
102
RTVSPropertyOp46
 70
     1
102
RTVSPropertyOp47
 70
     1
102
RTVSPropertyOp48
 70
     1
102
RTVSPropertyOp49
 70
     1
102
RTVSPropertyOp50
 70
     1
102
RTVSPropertyOp51
 70
     0
102
RTVSPropertyOp52
 70
     0
102
RTVSPropertyOp53
 70
     1
102
RTVSPropertyOp54
 70
     1
102
RTVSPropertyOp55
 70
     1
102
RTVSPropertyOp56
 70
     1
102
RTVSPropertyOp57
 70
     1
102
RTVSPost2010Prop28
280
     0
102
RTVSPost2010PropOp28
 70
     1
102
RTVSPost2010Prop29
280
     1
102
RTVSPost2010PropOp29
 70
     1
102
RTVSPost2010Prop30
280
     1
102
RTVSPost2010PropOp30
 70
     1
102
RTVSPost2010Prop31
280
     0
102
RTVSPost2010PropOp31
 70
     1
102
RTVSPost2010Prop32
280
     0
102
RTVSPost2010PropOp32
 70
     1
102
RTVSPost2010Prop33
280
     0
102
RTVSPost2010PropOp33
 70
     1
102
RTVSPost2010Prop34
280
     0
102
RTVSPost2010PropOp34
 70
     1
102
RTVSPost2010Prop35
280
     0
102
RTVSPost2010PropOp35
 70
     1
102
RTVSPost2010Prop36
280
     0
102
RTVSPost2010PropOp36
 70
     1
102
RTVSPost2010Prop37
 90
       50
102
RTVSPost2010PropOp37
 70
     1
102
RTVSPost2010Prop38
140
0.0
102
RTVSPost2010PropOp38
 70
     1
102
RTVSPost2010Prop39
140
1.0
102
RTVSPost2010PropOp39
 70
     1
102
RTVSPost2010Prop40
 90
        0
102
RTVSPost2010PropOp40
 70
     1
102
RTVSPost2010Prop41ColorIndex
 90
       18
102
RTVSPost2010Prop41ColorRGB
 90
        0
102
RTVSPost2010PropOp41
 70
     1
102
RTVSPost2010Prop42
 90
       50
102
RTVSPost2010PropOp42
 70
     1
102
RTVSPost2010Prop43
 90
        3
102
RTVSPost2010PropOp43
 70
     1
102
RTVSPost2010Prop44ColorIndex
 90
        5
102
RTVSPost2010Prop44ColorRGB
 90
      255
102
RTVSPost2010PropOp44
 70
     1
102
RTVSPost2010Prop45
280
     0
102
RTVSPost2010PropOp45
 70
     1
102
RTVSPost2010Prop46
 90
       50
102
RTVSPost2010PropOp46
 70
     1
102
RTVSPost2010Prop47
 90
       50
102
RTVSPost2010PropOp47
 70
     1
102
RTVSPost2010Prop48
 90
       50
102
RTVSPost2010PropOp48
 70
     1
102
RTVSPost2010Prop49
280
     0
102
RTVSPost2010PropOp49
 70
     1
102
RTVSPost2010Prop50
 90
       50
102
RTVSPost2010PropOp50
 70
     1
102
RTVSPost2010Prop51ColorIndex
 90
      256
102
RTVSPost2010Prop51ColorRGB
 90
-16777216
102
RTVSPost2010PropOp51
 70
     0
102
RTVSPost2010Prop52
140
1.0
102
RTVSPost2010PropOp52
 70
     0
102
RTVSPost2010Prop53
 90
        2
102
RTVSPost2010PropOp53
 70
     1
102
RTVSPost2010Prop54
  1
strokes_ogs.tif
102
RTVSPost2010PropOp54
 70
     1
102
RTVSPost2010Prop55
280
     0
102
RTVSPost2010PropOp55
 70
     1
102
RTVSPost2010Prop56
140
1.0
102
RTVSPost2010PropOp56
 70
     1
102
RTVSPost2010Prop57
140
1.0
102
RTVSPost2010PropOp57
 70
     1
  0
XRECORD
  5
1CE
102
{ACAD_REACTORS
330
1CD
102
}
330
1CD
100
AcDbXrecord
280
     1
102
RTVSPropertyOp0
 70
     1
102
RTVSPropertyOp1
 70
     1
102
RTVSPropertyOp2
 70
     1
102
RTVSPropertyOp3
 70
     1
102
RTVSPropertyOp4
 70
     1
102
RTVSPropertyOp5
 70
     1
102
RTVSPropertyOp6
 70
     1
102
RTVSPropertyOp7
 70
     1
102
RTVSPropertyOp8
 70
     1
102
RTVSPropertyOp9
 70
     1
102
RTVSPropertyOp10
 70
     1
102
RTVSPropertyOp11
 70
     1
102
RTVSPropertyOp12
 70
     1
102
RTVSPropertyOp13
 70
     1
102
RTVSPropertyOp14
 70
     1
102
RTVSPropertyOp15
 70
     1
102
RTVSPropertyOp16
 70
     1
102
RTVSPropertyOp17
 70
     1
102
RTVSPropertyOp18
 70
     1
102
RTVSPropertyOp19
 70
     1
102
RTVSPropertyOp20
 70
     1
102
RTVSPropertyOp21
 70
     1
102
RTVSPropertyOp22
 70
     1
102
RTVSPropertyOp23
 70
     1
102
RTVSPropertyOp24
 70
     1
102
RTVSPropertyOp25
 70
     1
102
RTVSPropertyOp26
 70
     1
102
RTVSPropertyOp27
 70
     1
102
RTVSPropertyOp28
 70
     1
102
RTVSPropertyOp29
 70
     1
102
RTVSPropertyOp30
 70
     1
102
RTVSPropertyOp31
 70
     1
102
RTVSPropertyOp32
 70
     1
102
RTVSPropertyOp33
 70
     1
102
RTVSPropertyOp34
 70
     1
102
RTVSPropertyOp35
 70
     1
102
RTVSPropertyOp36
 70
     1
102
RTVSPropertyOp37
 70
     1
102
RTVSPropertyOp38
 70
     1
102
RTVSPropertyOp39
 70
     1
102
RTVSPropertyOp40
 70
     1
102
RTVSPropertyOp41
 70
     1
102
RTVSPropertyOp42
 70
     1
102
RTVSPropertyOp43
 70
     1
102
RTVSPropertyOp44
 70
     1
102
RTVSPropertyOp45
 70
     1
102
RTVSPropertyOp46
 70
     1
102
RTVSPropertyOp47
 70
     1
102
RTVSPropertyOp48
 70
     1
102
RTVSPropertyOp49
 70
     1
102
RTVSPropertyOp50
 70
     1
102
RTVSPropertyOp51
 70
     0
102
RTVSPropertyOp52
 70
     0
102
RTVSPropertyOp53
 70
     1
102
RTVSPropertyOp54
 70
     1
102
RTVSPropertyOp55
 70
     1
102
RTVSPropertyOp56
 70
     1
102
RTVSPropertyOp57
 70
     1
102
RTVSPost2010Prop28
280
     0
102
RTVSPost2010PropOp28
 70
     1
102
RTVSPost2010Prop29
280
     1
102
RTVSPost2010PropOp29
 70
     1
102
RTVSPost2010Prop30
280
     1
102
RTVSPost2010PropOp30
 70
     1
102
RTVSPost2010Prop31
280
     0
102
RTVSPost2010PropOp31
 70
     1
102
RTVSPost2010Prop32
280
     0
102
RTVSPost2010PropOp32
 70
     1
102
RTVSPost2010Prop33
280
     0
102
RTVSPost2010PropOp33
 70
     1
102
RTVSPost2010Prop34
280
     0
102
RTVSPost2010PropOp34
 70
     1
102
RTVSPost2010Prop35
280
     0
102
RTVSPost2010PropOp35
 70
     1
102
RTVSPost2010Prop36
280
     0
102
RTVSPost2010PropOp36
 70
     1
102
RTVSPost2010Prop37
 90
       50
102
RTVSPost2010PropOp37
 70
     1
102
RTVSPost2010Prop38
140
0.0
102
RTVSPost2010PropOp38
 70
     1
102
RTVSPost2010Prop39
140
1.0
102
RTVSPost2010PropOp39
 70
     1
102
RTVSPost2010Prop40
 90
        0
102
RTVSPost2010PropOp40
 70
     1
102
RTVSPost2010Prop41ColorIndex
 90
       18
102
RTVSPost2010Prop41ColorRGB
 90
        0
102
RTVSPost2010PropOp41
 70
     1
102
RTVSPost2010Prop42
 90
       50
102
RTVSPost2010PropOp42
 70
     1
102
RTVSPost2010Prop43
 90
        3
102
RTVSPost2010PropOp43
 70
     1
102
RTVSPost2010Prop44ColorIndex
 90
        5
102
RTVSPost2010Prop44ColorRGB
 90
      255
102
RTVSPost2010PropOp44
 70
     1
102
RTVSPost2010Prop45
280
     0
102
RTVSPost2010PropOp45
 70
     1
102
RTVSPost2010Prop46
 90
       50
102
RTVSPost2010PropOp46
 70
     1
102
RTVSPost2010Prop47
 90
       50
102
RTVSPost2010PropOp47
 70
     1
102
RTVSPost2010Prop48
 90
       50
102
RTVSPost2010PropOp48
 70
     1
102
RTVSPost2010Prop49
280
     0
102
RTVSPost2010PropOp49
 70
     1
102
RTVSPost2010Prop50
 90
       50
102
RTVSPost2010PropOp50
 70
     1
102
RTVSPost2010Prop51ColorIndex
 90
      256
102
RTVSPost2010Prop51ColorRGB
 90
-16777216
102
RTVSPost2010PropOp51
 70
     0
102
RTVSPost2010Prop52
140
1.0
102
RTVSPost2010PropOp52
 70
     0
102
RTVSPost2010Prop53
 90
        2
102
RTVSPost2010PropOp53
 70
     1
102
RTVSPost2010Prop54
  1
strokes_ogs.tif
102
RTVSPost2010PropOp54
 70
     1
102
RTVSPost2010Prop55
280
     0
102
RTVSPost2010PropOp55
 70
     1
102
RTVSPost2010Prop56
140
1.0
102
RTVSPost2010PropOp56
 70
     1
102
RTVSPost2010Prop57
140
1.0
102
RTVSPost2010PropOp57
 70
     1
  0
XRECORD
  5
1D0
102
{ACAD_REACTORS
330
1CF
102
}
330
1CF
100
AcDbXrecord
280
     1
102
RTVSPropertyOp0
 70
     1
102
RTVSPropertyOp1
 70
     1
102
RTVSPropertyOp2
 70
     1
102
RTVSPropertyOp3
 70
     1
102
RTVSPropertyOp4
 70
     1
102
RTVSPropertyOp5
 70
     1
102
RTVSPropertyOp6
 70
     1
102
RTVSPropertyOp7
 70
     1
102
RTVSPropertyOp8
 70
     1
102
RTVSPropertyOp9
 70
     1
102
RTVSPropertyOp10
 70
     1
102
RTVSPropertyOp11
 70
     1
102
RTVSPropertyOp12
 70
     1
102
RTVSPropertyOp13
 70
     1
102
RTVSPropertyOp14
 70
     1
102
RTVSPropertyOp15
 70
     1
102
RTVSPropertyOp16
 70
     1
102
RTVSPropertyOp17
 70
     1
102
RTVSPropertyOp18
 70
     1
102
RTVSPropertyOp19
 70
     1
102
RTVSPropertyOp20
 70
     1
102
RTVSPropertyOp21
 70
     1
102
RTVSPropertyOp22
 70
     1
102
RTVSPropertyOp23
 70
     1
102
RTVSPropertyOp24
 70
     1
102
RTVSPropertyOp25
 70
     1
102
RTVSPropertyOp26
 70
     1
102
RTVSPropertyOp27
 70
     1
102
RTVSPropertyOp28
 70
     1
102
RTVSPropertyOp29
 70
     1
102
RTVSPropertyOp30
 70
     1
102
RTVSPropertyOp31
 70
     1
102
RTVSPropertyOp32
 70
     1
102
RTVSPropertyOp33
 70
     1
102
RTVSPropertyOp34
 70
     1
102
RTVSPropertyOp35
 70
     1
102
RTVSPropertyOp36
 70
     1
102
RTVSPropertyOp37
 70
     1
102
RTVSPropertyOp38
 70
     1
102
RTVSPropertyOp39
 70
     1
102
RTVSPropertyOp40
 70
     1
102
RTVSPropertyOp41
 70
     1
102
RTVSPropertyOp42
 70
     1
102
RTVSPropertyOp43
 70
     1
102
RTVSPropertyOp44
 70
     1
102
RTVSPropertyOp45
 70
     1
102
RTVSPropertyOp46
 70
     1
102
RTVSPropertyOp47
 70
     1
102
RTVSPropertyOp48
 70
     1
102
RTVSPropertyOp49
 70
     1
102
RTVSPropertyOp50
 70
     1
102
RTVSPropertyOp51
 70
     0
102
RTVSPropertyOp52
 70
     0
102
RTVSPropertyOp53
 70
     1
102
RTVSPropertyOp54
 70
     1
102
RTVSPropertyOp55
 70
     1
102
RTVSPropertyOp56
 70
     1
102
RTVSPropertyOp57
 70
     1
102
RTVSPost2010Prop28
280
     0
102
RTVSPost2010PropOp28
 70
     1
102
RTVSPost2010Prop29
280
     1
102
RTVSPost2010PropOp29
 70
     1
102
RTVSPost2010Prop30
280
     1
102
RTVSPost2010PropOp30
 70
     1
102
RTVSPost2010Prop31
280
     0
102
RTVSPost2010PropOp31
 70
     1
102
RTVSPost2010Prop32
280
     0
102
RTVSPost2010PropOp32
 70
     1
102
RTVSPost2010Prop33
280
     0
102
RTVSPost2010PropOp33
 70
     1
102
RTVSPost2010Prop34
280
     0
102
RTVSPost2010PropOp34
 70
     1
102
RTVSPost2010Prop35
280
     0
102
RTVSPost2010PropOp35
 70
     1
102
RTVSPost2010Prop36
280
     0
102
RTVSPost2010PropOp36
 70
     1
102
RTVSPost2010Prop37
 90
       50
102
RTVSPost2010PropOp37
 70
     1
102
RTVSPost2010Prop38
140
0.0
102
RTVSPost2010PropOp38
 70
     1
102
RTVSPost2010Prop39
140
1.0
102
RTVSPost2010PropOp39
 70
     1
102
RTVSPost2010Prop40
 90
        0
102
RTVSPost2010PropOp40
 70
     1
102
RTVSPost2010Prop41ColorIndex
 90
       18
102
RTVSPost2010Prop41ColorRGB
 90
        0
102
RTVSPost2010PropOp41
 70
     1
102
RTVSPost2010Prop42
 90
       50
102
RTVSPost2010PropOp42
 70
     1
102
RTVSPost2010Prop43
 90
        3
102
RTVSPost2010PropOp43
 70
     1
102
RTVSPost2010Prop44ColorIndex
 90
        5
102
RTVSPost2010Prop44ColorRGB
 90
      255
102
RTVSPost2010PropOp44
 70
     1
102
RTVSPost2010Prop45
280
     0
102
RTVSPost2010PropOp45
 70
     1
102
RTVSPost2010Prop46
 90
       50
102
RTVSPost2010PropOp46
 70
     1
102
RTVSPost2010Prop47
 90
       50
102
RTVSPost2010PropOp47
 70
     1
102
RTVSPost2010Prop48
 90
       50
102
RTVSPost2010PropOp48
 70
     1
102
RTVSPost2010Prop49
280
     0
102
RTVSPost2010PropOp49
 70
     1
102
RTVSPost2010Prop50
 90
       50
102
RTVSPost2010PropOp50
 70
     1
102
RTVSPost2010Prop51ColorIndex
 90
      256
102
RTVSPost2010Prop51ColorRGB
 90
-16777216
102
RTVSPost2010PropOp51
 70
     0
102
RTVSPost2010Prop52
140
1.0
102
RTVSPost2010PropOp52
 70
     0
102
RTVSPost2010Prop53
 90
        2
102
RTVSPost2010PropOp53
 70
     1
102
RTVSPost2010Prop54
  1
strokes_ogs.tif
102
RTVSPost2010PropOp54
 70
     1
102
RTVSPost2010Prop55
280
     0
102
RTVSPost2010PropOp55
 70
     1
102
RTVSPost2010Prop56
140
1.0
102
RTVSPost2010PropOp56
 70
     1
102
RTVSPost2010Prop57
140
1.0
102
RTVSPost2010PropOp57
 70
     1
  0
XRECORD
  5
1D2
102
{ACAD_REACTORS
330
1D1
102
}
330
1D1
100
AcDbXrecord
280
     1
102
RTVSPropertyOp0
 70
     1
102
RTVSPropertyOp1
 70
     1
102
RTVSPropertyOp2
 70
     1
102
RTVSPropertyOp3
 70
     1
102
RTVSPropertyOp4
 70
     1
102
RTVSPropertyOp5
 70
     1
102
RTVSPropertyOp6
 70
     1
102
RTVSPropertyOp7
 70
     1
102
RTVSPropertyOp8
 70
     1
102
RTVSPropertyOp9
 70
     1
102
RTVSPropertyOp10
 70
     1
102
RTVSPropertyOp11
 70
     1
102
RTVSPropertyOp12
 70
     1
102
RTVSPropertyOp13
 70
     1
102
RTVSPropertyOp14
 70
     1
102
RTVSPropertyOp15
 70
     1
102
RTVSPropertyOp16
 70
     1
102
RTVSPropertyOp17
 70
     1
102
RTVSPropertyOp18
 70
     1
102
RTVSPropertyOp19
 70
     1
102
RTVSPropertyOp20
 70
     1
102
RTVSPropertyOp21
 70
     1
102
RTVSPropertyOp22
 70
     1
102
RTVSPropertyOp23
 70
     1
102
RTVSPropertyOp24
 70
     1
102
RTVSPropertyOp25
 70
     1
102
RTVSPropertyOp26
 70
     1
102
RTVSPropertyOp27
 70
     1
102
RTVSPropertyOp28
 70
     1
102
RTVSPropertyOp29
 70
     1
102
RTVSPropertyOp30
 70
     1
102
RTVSPropertyOp31
 70
     1
102
RTVSPropertyOp32
 70
     1
102
RTVSPropertyOp33
 70
     1
102
RTVSPropertyOp34
 70
     1
102
RTVSPropertyOp35
 70
     1
102
RTVSPropertyOp36
 70
     1
102
RTVSPropertyOp37
 70
     1
102
RTVSPropertyOp38
 70
     1
102
RTVSPropertyOp39
 70
     1
102
RTVSPropertyOp40
 70
     1
102
RTVSPropertyOp41
 70
     1
102
RTVSPropertyOp42
 70
     1
102
RTVSPropertyOp43
 70
     1
102
RTVSPropertyOp44
 70
     1
102
RTVSPropertyOp45
 70
     1
102
RTVSPropertyOp46
 70
     1
102
RTVSPropertyOp47
 70
     1
102
RTVSPropertyOp48
 70
     1
102
RTVSPropertyOp49
 70
     1
102
RTVSPropertyOp50
 70
     1
102
RTVSPropertyOp51
 70
     0
102
RTVSPropertyOp52
 70
     0
102
RTVSPropertyOp53
 70
     1
102
RTVSPropertyOp54
 70
     1
102
RTVSPropertyOp55
 70
     1
102
RTVSPropertyOp56
 70
     1
102
RTVSPropertyOp57
 70
     1
102
RTVSPost2010Prop28
280
     0
102
RTVSPost2010PropOp28
 70
     1
102
RTVSPost2010Prop29
280
     1
102
RTVSPost2010PropOp29
 70
     1
102
RTVSPost2010Prop30
280
     1
102
RTVSPost2010PropOp30
 70
     1
102
RTVSPost2010Prop31
280
     0
102
RTVSPost2010PropOp31
 70
     1
102
RTVSPost2010Prop32
280
     0
102
RTVSPost2010PropOp32
 70
     1
102
RTVSPost2010Prop33
280
     0
102
RTVSPost2010PropOp33
 70
     1
102
RTVSPost2010Prop34
280
     0
102
RTVSPost2010PropOp34
 70
     1
102
RTVSPost2010Prop35
280
     0
102
RTVSPost2010PropOp35
 70
     1
102
RTVSPost2010Prop36
280
     0
102
RTVSPost2010PropOp36
 70
     1
102
RTVSPost2010Prop37
 90
       50
102
RTVSPost2010PropOp37
 70
     1
102
RTVSPost2010Prop38
140
0.0
102
RTVSPost2010PropOp38
 70
     1
102
RTVSPost2010Prop39
140
1.0
102
RTVSPost2010PropOp39
 70
     1
102
RTVSPost2010Prop40
 90
        0
102
RTVSPost2010PropOp40
 70
     1
102
RTVSPost2010Prop41ColorIndex
 90
       18
102
RTVSPost2010Prop41ColorRGB
 90
        0
102
RTVSPost2010PropOp41
 70
     1
102
RTVSPost2010Prop42
 90
       50
102
RTVSPost2010PropOp42
 70
     1
102
RTVSPost2010Prop43
 90
        3
102
RTVSPost2010PropOp43
 70
     1
102
RTVSPost2010Prop44ColorIndex
 90
        5
102
RTVSPost2010Prop44ColorRGB
 90
      255
102
RTVSPost2010PropOp44
 70
     1
102
RTVSPost2010Prop45
280
     0
102
RTVSPost2010PropOp45
 70
     1
102
RTVSPost2010Prop46
 90
       50
102
RTVSPost2010PropOp46
 70
     1
102
RTVSPost2010Prop47
 90
       50
102
RTVSPost2010PropOp47
 70
     1
102
RTVSPost2010Prop48
 90
       50
102
RTVSPost2010PropOp48
 70
     1
102
RTVSPost2010Prop49
280
     0
102
RTVSPost2010PropOp49
 70
     1
102
RTVSPost2010Prop50
 90
       50
102
RTVSPost2010PropOp50
 70
     1
102
RTVSPost2010Prop51ColorIndex
 90
      256
102
RTVSPost2010Prop51ColorRGB
 90
-16777216
102
RTVSPost2010PropOp51
 70
     0
102
RTVSPost2010Prop52
140
1.0
102
RTVSPost2010PropOp52
 70
     0
102
RTVSPost2010Prop53
 90
        2
102
RTVSPost2010PropOp53
 70
     1
102
RTVSPost2010Prop54
  1
strokes_ogs.tif
102
RTVSPost2010PropOp54
 70
     1
102
RTVSPost2010Prop55
280
     0
102
RTVSPost2010PropOp55
 70
     1
102
RTVSPost2010Prop56
140
1.0
102
RTVSPost2010PropOp56
 70
     1
102
RTVSPost2010Prop57
140
1.0
102
RTVSPost2010PropOp57
 70
     1
  0
XRECORD
  5
1D8
102
{ACAD_REACTORS
330
1D7
102
}
330
1D7
100
AcDbXrecord
280
     1
102
RTVSPropertyOp0
 70
     1
102
RTVSPropertyOp1
 70
     1
102
RTVSPropertyOp2
 70
     1
102
RTVSPropertyOp3
 70
     1
102
RTVSPropertyOp4
 70
     1
102
RTVSPropertyOp5
 70
     1
102
RTVSPropertyOp6
 70
     1
102
RTVSPropertyOp7
 70
     1
102
RTVSPropertyOp8
 70
     1
102
RTVSPropertyOp9
 70
     1
102
RTVSPropertyOp10
 70
     1
102
RTVSPropertyOp11
 70
     1
102
RTVSPropertyOp12
 70
     1
102
RTVSPropertyOp13
 70
     1
102
RTVSPropertyOp14
 70
     1
102
RTVSPropertyOp15
 70
     1
102
RTVSPropertyOp16
 70
     1
102
RTVSPropertyOp17
 70
     1
102
RTVSPropertyOp18
 70
     1
102
RTVSPropertyOp19
 70
     1
102
RTVSPropertyOp20
 70
     1
102
RTVSPropertyOp21
 70
     1
102
RTVSPropertyOp22
 70
     1
102
RTVSPropertyOp23
 70
     1
102
RTVSPropertyOp24
 70
     1
102
RTVSPropertyOp25
 70
     1
102
RTVSPropertyOp26
 70
     1
102
RTVSPropertyOp27
 70
     1
102
RTVSPropertyOp28
 70
     1
102
RTVSPropertyOp29
 70
     1
102
RTVSPropertyOp30
 70
     1
102
RTVSPropertyOp31
 70
     1
102
RTVSPropertyOp32
 70
     1
102
RTVSPropertyOp33
 70
     1
102
RTVSPropertyOp34
 70
     1
102
RTVSPropertyOp35
 70
     1
102
RTVSPropertyOp36
 70
     1
102
RTVSPropertyOp37
 70
     1
102
RTVSPropertyOp38
 70
     1
102
RTVSPropertyOp39
 70
     1
102
RTVSPropertyOp40
 70
     1
102
RTVSPropertyOp41
 70
     1
102
RTVSPropertyOp42
 70
     1
102
RTVSPropertyOp43
 70
     1
102
RTVSPropertyOp44
 70
     1
102
RTVSPropertyOp45
 70
     1
102
RTVSPropertyOp46
 70
     1
102
RTVSPropertyOp47
 70
     1
102
RTVSPropertyOp48
 70
     1
102
RTVSPropertyOp49
 70
     1
102
RTVSPropertyOp50
 70
     1
102
RTVSPropertyOp51
 70
     0
102
RTVSPropertyOp52
 70
     0
102
RTVSPropertyOp53
 70
     1
102
RTVSPropertyOp54
 70
     1
102
RTVSPropertyOp55
 70
     1
102
RTVSPropertyOp56
 70
     1
102
RTVSPropertyOp57
 70
     1
102
RTVSPost2010Prop28
280
     0
102
RTVSPost2010PropOp28
 70
     1
102
RTVSPost2010Prop29
280
     1
102
RTVSPost2010PropOp29
 70
     1
102
RTVSPost2010Prop30
280
     1
102
RTVSPost2010PropOp30
 70
     1
102
RTVSPost2010Prop31
280
     0
102
RTVSPost2010PropOp31
 70
     1
102
RTVSPost2010Prop32
280
     0
102
RTVSPost2010PropOp32
 70
     1
102
RTVSPost2010Prop33
280
     0
102
RTVSPost2010PropOp33
 70
     1
102
RTVSPost2010Prop34
280
     0
102
RTVSPost2010PropOp34
 70
     1
102
RTVSPost2010Prop35
280
     0
102
RTVSPost2010PropOp35
 70
     1
102
RTVSPost2010Prop36
280
     0
102
RTVSPost2010PropOp36
 70
     1
102
RTVSPost2010Prop37
 90
       50
102
RTVSPost2010PropOp37
 70
     1
102
RTVSPost2010Prop38
140
0.0
102
RTVSPost2010PropOp38
 70
     1
102
RTVSPost2010Prop39
140
1.0
102
RTVSPost2010PropOp39
 70
     1
102
RTVSPost2010Prop40
 90
        0
102
RTVSPost2010PropOp40
 70
     1
102
RTVSPost2010Prop41ColorIndex
 90
       18
102
RTVSPost2010Prop41ColorRGB
 90
        0
102
RTVSPost2010PropOp41
 70
     1
102
RTVSPost2010Prop42
 90
       50
102
RTVSPost2010PropOp42
 70
     1
102
RTVSPost2010Prop43
 90
        3
102
RTVSPost2010PropOp43
 70
     1
102
RTVSPost2010Prop44ColorIndex
 90
        5
102
RTVSPost2010Prop44ColorRGB
 90
      255
102
RTVSPost2010PropOp44
 70
     1
102
RTVSPost2010Prop45
280
     0
102
RTVSPost2010PropOp45
 70
     1
102
RTVSPost2010Prop46
 90
       50
102
RTVSPost2010PropOp46
 70
     1
102
RTVSPost2010Prop47
 90
       50
102
RTVSPost2010PropOp47
 70
     1
102
RTVSPost2010Prop48
 90
       50
102
RTVSPost2010PropOp48
 70
     1
102
RTVSPost2010Prop49
280
     0
102
RTVSPost2010PropOp49
 70
     1
102
RTVSPost2010Prop50
 90
       50
102
RTVSPost2010PropOp50
 70
     1
102
RTVSPost2010Prop51ColorIndex
 90
      256
102
RTVSPost2010Prop51ColorRGB
 90
-16777216
102
RTVSPost2010PropOp51
 70
     0
102
RTVSPost2010Prop52
140
1.0
102
RTVSPost2010PropOp52
 70
     0
102
RTVSPost2010Prop53
 90
        2
102
RTVSPost2010PropOp53
 70
     1
102
RTVSPost2010Prop54
  1
strokes_ogs.tif
102
RTVSPost2010PropOp54
 70
     1
102
RTVSPost2010Prop55
280
     0
102
RTVSPost2010PropOp55
 70
     1
102
RTVSPost2010Prop56
140
1.0
102
RTVSPost2010PropOp56
 70
     1
102
RTVSPost2010Prop57
140
1.0
102
RTVSPost2010PropOp57
 70
     1
  0
XRECORD
  5
1EC
102
{ACAD_REACTORS
330
1EB
102
}
330
1EB
100
AcDbXrecord
280
     1
102
RTVSPropertyOp0
 70
     0
102
RTVSPropertyOp1
 70
     0
102
RTVSPropertyOp2
 70
     0
102
RTVSPropertyOp3
 70
     0
102
RTVSPropertyOp4
 70
     0
102
RTVSPropertyOp5
 70
     0
102
RTVSPropertyOp6
 70
     0
102
RTVSPropertyOp7
 70
     0
102
RTVSPropertyOp8
 70
     0
102
RTVSPropertyOp9
 70
     0
102
RTVSPropertyOp10
 70
     0
102
RTVSPropertyOp11
 70
     0
102
RTVSPropertyOp12
 70
     0
102
RTVSPropertyOp13
 70
     0
102
RTVSPropertyOp14
 70
     2
102
RTVSPropertyOp15
 70
     0
102
RTVSPropertyOp16
 70
     0
102
RTVSPropertyOp17
 70
     0
102
RTVSPropertyOp18
 70
     0
102
RTVSPropertyOp19
 70
     0
102
RTVSPropertyOp20
 70
     0
102
RTVSPropertyOp21
 70
     0
102
RTVSPropertyOp22
 70
     0
102
RTVSPropertyOp23
 70
     0
102
RTVSPropertyOp24
 70
     0
102
RTVSPropertyOp25
 70
     0
102
RTVSPropertyOp26
 70
     0
102
RTVSPropertyOp27
 70
     0
102
RTVSPropertyOp28
 70
     0
102
RTVSPropertyOp29
 70
     0
102
RTVSPropertyOp30
 70
     0
102
RTVSPropertyOp31
 70
     0
102
RTVSPropertyOp32
 70
     0
102
RTVSPropertyOp33
 70
     0
102
RTVSPropertyOp34
 70
     0
102
RTVSPropertyOp35
 70
     0
102
RTVSPropertyOp36
 70
     0
102
RTVSPropertyOp37
 70
     0
102
RTVSPropertyOp38
 70
     0
102
RTVSPropertyOp39
 70
     0
102
RTVSPropertyOp40
 70
     0
102
RTVSPropertyOp41
 70
     0
102
RTVSPropertyOp42
 70
     0
102
RTVSPropertyOp43
 70
     0
102
RTVSPropertyOp44
 70
     0
102
RTVSPropertyOp45
 70
     0
102
RTVSPropertyOp46
 70
     0
102
RTVSPropertyOp47
 70
     0
102
RTVSPropertyOp48
 70
     0
102
RTVSPropertyOp49
 70
     0
102
RTVSPropertyOp50
 70
     0
102
RTVSPropertyOp51
 70
     0
102
RTVSPropertyOp52
 70
     0
102
RTVSPropertyOp53
 70
     0
102
RTVSPropertyOp54
 70
     0
102
RTVSPropertyOp55
 70
     0
102
RTVSPropertyOp56
 70
     0
102
RTVSPropertyOp57
 70
     0
102
RTVSPost2010Prop28
280
     0
102
RTVSPost2010PropOp28
 70
     0
102
RTVSPost2010Prop29
280
     1
102
RTVSPost2010PropOp29
 70
     0
102
RTVSPost2010Prop30
280
     1
102
RTVSPost2010PropOp30
 70
     0
102
RTVSPost2010Prop31
280
     0
102
RTVSPost2010PropOp31
 70
     0
102
RTVSPost2010Prop32
280
     0
102
RTVSPost2010PropOp32
 70
     0
102
RTVSPost2010Prop33
280
     0
102
RTVSPost2010PropOp33
 70
     0
102
RTVSPost2010Prop34
280
     0
102
RTVSPost2010PropOp34
 70
     0
102
RTVSPost2010Prop35
280
     0
102
RTVSPost2010PropOp35
 70
     0
102
RTVSPost2010Prop36
280
     0
102
RTVSPost2010PropOp36
 70
     0
102
RTVSPost2010Prop37
 90
       50
102
RTVSPost2010PropOp37
 70
     0
102
RTVSPost2010Prop38
140
0.0
102
RTVSPost2010PropOp38
 70
     0
102
RTVSPost2010Prop39
140
1.0
102
RTVSPost2010PropOp39
 70
     0
102
RTVSPost2010Prop40
 90
        0
102
RTVSPost2010PropOp40
 70
     0
102
RTVSPost2010Prop41ColorIndex
 90
       18
102
RTVSPost2010Prop41ColorRGB
 90
        0
102
RTVSPost2010PropOp41
 70
     0
102
RTVSPost2010Prop42
 90
       50
102
RTVSPost2010PropOp42
 70
     0
102
RTVSPost2010Prop43
 90
        3
102
RTVSPost2010PropOp43
 70
     0
102
RTVSPost2010Prop44ColorIndex
 90
        5
102
RTVSPost2010Prop44ColorRGB
 90
      255
102
RTVSPost2010PropOp44
 70
     0
102
RTVSPost2010Prop45
280
     0
102
RTVSPost2010PropOp45
 70
     0
102
RTVSPost2010Prop46
 90
       50
102
RTVSPost2010PropOp46
 70
     0
102
RTVSPost2010Prop47
 90
       50
102
RTVSPost2010PropOp47
 70
     0
102
RTVSPost2010Prop48
 90
       50
102
RTVSPost2010PropOp48
 70
     0
102
RTVSPost2010Prop49
280
     0
102
RTVSPost2010PropOp49
 70
     0
102
RTVSPost2010Prop50
 90
       50
102
RTVSPost2010PropOp50
 70
     0
102
RTVSPost2010Prop51ColorIndex
 90
      256
102
RTVSPost2010Prop51ColorRGB
 90
-16777216
102
RTVSPost2010PropOp51
 70
     0
102
RTVSPost2010Prop52
140
1.0
102
RTVSPost2010PropOp52
 70
     0
102
RTVSPost2010Prop53
 90
        2
102
RTVSPost2010PropOp53
 70
     0
102
RTVSPost2010Prop54
  1
strokes_ogs.tif
102
RTVSPost2010PropOp54
 70
     0
102
RTVSPost2010Prop55
280
     0
102
RTVSPost2010PropOp55
 70
     0
102
RTVSPost2010Prop56
140
1.0
102
RTVSPost2010PropOp56
 70
     0
102
RTVSPost2010Prop57
140
1.0
102
RTVSPost2010PropOp57
 70
     0
  0
XRECORD
  5
1E6
102
{ACAD_REACTORS
330
1E5
102
}
330
1E5
100
AcDbXrecord
280
     1
102
RTVSPropertyOp0
 70
     1
102
RTVSPropertyOp1
 70
     1
102
RTVSPropertyOp2
 70
     1
102
RTVSPropertyOp3
 70
     1
102
RTVSPropertyOp4
 70
     1
102
RTVSPropertyOp5
 70
     1
102
RTVSPropertyOp6
 70
     1
102
RTVSPropertyOp7
 70
     1
102
RTVSPropertyOp8
 70
     1
102
RTVSPropertyOp9
 70
     1
102
RTVSPropertyOp10
 70
     1
102
RTVSPropertyOp11
 70
     1
102
RTVSPropertyOp12
 70
     1
102
RTVSPropertyOp13
 70
     1
102
RTVSPropertyOp14
 70
     1
102
RTVSPropertyOp15
 70
     1
102
RTVSPropertyOp16
 70
     1
102
RTVSPropertyOp17
 70
     1
102
RTVSPropertyOp18
 70
     1
102
RTVSPropertyOp19
 70
     1
102
RTVSPropertyOp20
 70
     1
102
RTVSPropertyOp21
 70
     1
102
RTVSPropertyOp22
 70
     1
102
RTVSPropertyOp23
 70
     1
102
RTVSPropertyOp24
 70
     1
102
RTVSPropertyOp25
 70
     1
102
RTVSPropertyOp26
 70
     1
102
RTVSPropertyOp27
 70
     1
102
RTVSPropertyOp28
 70
     1
102
RTVSPropertyOp29
 70
     1
102
RTVSPropertyOp30
 70
     1
102
RTVSPropertyOp31
 70
     1
102
RTVSPropertyOp32
 70
     1
102
RTVSPropertyOp33
 70
     1
102
RTVSPropertyOp34
 70
     1
102
RTVSPropertyOp35
 70
     1
102
RTVSPropertyOp36
 70
     1
102
RTVSPropertyOp37
 70
     1
102
RTVSPropertyOp38
 70
     1
102
RTVSPropertyOp39
 70
     1
102
RTVSPropertyOp40
 70
     1
102
RTVSPropertyOp41
 70
     1
102
RTVSPropertyOp42
 70
     1
102
RTVSPropertyOp43
 70
     1
102
RTVSPropertyOp44
 70
     1
102
RTVSPropertyOp45
 70
     1
102
RTVSPropertyOp46
 70
     1
102
RTVSPropertyOp47
 70
     1
102
RTVSPropertyOp48
 70
     1
102
RTVSPropertyOp49
 70
     1
102
RTVSPropertyOp50
 70
     1
102
RTVSPropertyOp51
 70
     0
102
RTVSPropertyOp52
 70
     0
102
RTVSPropertyOp53
 70
     1
102
RTVSPropertyOp54
 70
     1
102
RTVSPropertyOp55
 70
     1
102
RTVSPropertyOp56
 70
     1
102
RTVSPropertyOp57
 70
     1
102
RTVSPost2010Prop28
280
     0
102
RTVSPost2010PropOp28
 70
     1
102
RTVSPost2010Prop29
280
     1
102
RTVSPost2010PropOp29
 70
     1
102
RTVSPost2010Prop30
280
     1
102
RTVSPost2010PropOp30
 70
     1
102
RTVSPost2010Prop31
280
     0
102
RTVSPost2010PropOp31
 70
     1
102
RTVSPost2010Prop32
280
     0
102
RTVSPost2010PropOp32
 70
     1
102
RTVSPost2010Prop33
280
     0
102
RTVSPost2010PropOp33
 70
     1
102
RTVSPost2010Prop34
280
     0
102
RTVSPost2010PropOp34
 70
     1
102
RTVSPost2010Prop35
280
     0
102
RTVSPost2010PropOp35
 70
     1
102
RTVSPost2010Prop36
280
     0
102
RTVSPost2010PropOp36
 70
     1
102
RTVSPost2010Prop37
 90
       50
102
RTVSPost2010PropOp37
 70
     1
102
RTVSPost2010Prop38
140
0.0
102
RTVSPost2010PropOp38
 70
     1
102
RTVSPost2010Prop39
140
1.0
102
RTVSPost2010PropOp39
 70
     1
102
RTVSPost2010Prop40
 90
        0
102
RTVSPost2010PropOp40
 70
     1
102
RTVSPost2010Prop41ColorIndex
 90
       18
102
RTVSPost2010Prop41ColorRGB
 90
        0
102
RTVSPost2010PropOp41
 70
     1
102
RTVSPost2010Prop42
 90
       50
102
RTVSPost2010PropOp42
 70
     1
102
RTVSPost2010Prop43
 90
        3
102
RTVSPost2010PropOp43
 70
     1
102
RTVSPost2010Prop44ColorIndex
 90
        5
102
RTVSPost2010Prop44ColorRGB
 90
      255
102
RTVSPost2010PropOp44
 70
     1
102
RTVSPost2010Prop45
280
     0
102
RTVSPost2010PropOp45
 70
     1
102
RTVSPost2010Prop46
 90
       50
102
RTVSPost2010PropOp46
 70
     1
102
RTVSPost2010Prop47
 90
       50
102
RTVSPost2010PropOp47
 70
     1
102
RTVSPost2010Prop48
 90
       50
102
RTVSPost2010PropOp48
 70
     1
102
RTVSPost2010Prop49
280
     0
102
RTVSPost2010PropOp49
 70
     1
102
RTVSPost2010Prop50
 90
       50
102
RTVSPost2010PropOp50
 70
     1
102
RTVSPost2010Prop51ColorIndex
 90
      256
102
RTVSPost2010Prop51ColorRGB
 90
-16777216
102
RTVSPost2010PropOp51
 70
     0
102
RTVSPost2010Prop52
140
1.0
102
RTVSPost2010PropOp52
 70
     0
102
RTVSPost2010Prop53
 90
        2
102
RTVSPost2010PropOp53
 70
     1
102
RTVSPost2010Prop54
  1
strokes_ogs.tif
102
RTVSPost2010PropOp54
 70
     1
102
RTVSPost2010Prop55
280
     0
102
RTVSPost2010PropOp55
 70
     1
102
RTVSPost2010Prop56
140
1.0
102
RTVSPost2010PropOp56
 70
     1
102
RTVSPost2010Prop57
140
1.0
102
RTVSPost2010PropOp57
 70
     1
  0
XRECORD
  5
1EE
102
{ACAD_REACTORS
330
1ED
102
}
330
1ED
100
AcDbXrecord
280
     1
102
RTVSPropertyOp0
 70
     0
102
RTVSPropertyOp1
 70
     0
102
RTVSPropertyOp2
 70
     0
102
RTVSPropertyOp3
 70
     0
102
RTVSPropertyOp4
 70
     0
102
RTVSPropertyOp5
 70
     0
102
RTVSPropertyOp6
 70
     0
102
RTVSPropertyOp7
 70
     0
102
RTVSPropertyOp8
 70
     0
102
RTVSPropertyOp9
 70
     0
102
RTVSPropertyOp10
 70
     0
102
RTVSPropertyOp11
 70
     0
102
RTVSPropertyOp12
 70
     0
102
RTVSPropertyOp13
 70
     0
102
RTVSPropertyOp14
 70
     2
102
RTVSPropertyOp15
 70
     0
102
RTVSPropertyOp16
 70
     0
102
RTVSPropertyOp17
 70
     0
102
RTVSPropertyOp18
 70
     0
102
RTVSPropertyOp19
 70
     0
102
RTVSPropertyOp20
 70
     0
102
RTVSPropertyOp21
 70
     0
102
RTVSPropertyOp22
 70
     0
102
RTVSPropertyOp23
 70
     0
102
RTVSPropertyOp24
 70
     0
102
RTVSPropertyOp25
 70
     0
102
RTVSPropertyOp26
 70
     0
102
RTVSPropertyOp27
 70
     0
102
RTVSPropertyOp28
 70
     0
102
RTVSPropertyOp29
 70
     0
102
RTVSPropertyOp30
 70
     0
102
RTVSPropertyOp31
 70
     0
102
RTVSPropertyOp32
 70
     0
102
RTVSPropertyOp33
 70
     0
102
RTVSPropertyOp34
 70
     0
102
RTVSPropertyOp35
 70
     0
102
RTVSPropertyOp36
 70
     0
102
RTVSPropertyOp37
 70
     0
102
RTVSPropertyOp38
 70
     0
102
RTVSPropertyOp39
 70
     0
102
RTVSPropertyOp40
 70
     0
102
RTVSPropertyOp41
 70
     0
102
RTVSPropertyOp42
 70
     0
102
RTVSPropertyOp43
 70
     0
102
RTVSPropertyOp44
 70
     0
102
RTVSPropertyOp45
 70
     0
102
RTVSPropertyOp46
 70
     0
102
RTVSPropertyOp47
 70
     0
102
RTVSPropertyOp48
 70
     0
102
RTVSPropertyOp49
 70
     0
102
RTVSPropertyOp50
 70
     0
102
RTVSPropertyOp51
 70
     0
102
RTVSPropertyOp52
 70
     0
102
RTVSPropertyOp53
 70
     0
102
RTVSPropertyOp54
 70
     0
102
RTVSPropertyOp55
 70
     0
102
RTVSPropertyOp56
 70
     0
102
RTVSPropertyOp57
 70
     0
102
RTVSPost2010Prop28
280
     0
102
RTVSPost2010PropOp28
 70
     0
102
RTVSPost2010Prop29
280
     1
102
RTVSPost2010PropOp29
 70
     0
102
RTVSPost2010Prop30
280
     1
102
RTVSPost2010PropOp30
 70
     0
102
RTVSPost2010Prop31
280
     0
102
RTVSPost2010PropOp31
 70
     0
102
RTVSPost2010Prop32
280
     0
102
RTVSPost2010PropOp32
 70
     0
102
RTVSPost2010Prop33
280
     0
102
RTVSPost2010PropOp33
 70
     0
102
RTVSPost2010Prop34
280
     0
102
RTVSPost2010PropOp34
 70
     0
102
RTVSPost2010Prop35
280
     0
102
RTVSPost2010PropOp35
 70
     0
102
RTVSPost2010Prop36
280
     0
102
RTVSPost2010PropOp36
 70
     0
102
RTVSPost2010Prop37
 90
       50
102
RTVSPost2010PropOp37
 70
     0
102
RTVSPost2010Prop38
140
0.0
102
RTVSPost2010PropOp38
 70
     0
102
RTVSPost2010Prop39
140
1.0
102
RTVSPost2010PropOp39
 70
     0
102
RTVSPost2010Prop40
 90
        0
102
RTVSPost2010PropOp40
 70
     0
102
RTVSPost2010Prop41ColorIndex
 90
       18
102
RTVSPost2010Prop41ColorRGB
 90
        0
102
RTVSPost2010PropOp41
 70
     0
102
RTVSPost2010Prop42
 90
       50
102
RTVSPost2010PropOp42
 70
     0
102
RTVSPost2010Prop43
 90
        3
102
RTVSPost2010PropOp43
 70
     0
102
RTVSPost2010Prop44ColorIndex
 90
        5
102
RTVSPost2010Prop44ColorRGB
 90
      255
102
RTVSPost2010PropOp44
 70
     0
102
RTVSPost2010Prop45
280
     0
102
RTVSPost2010PropOp45
 70
     0
102
RTVSPost2010Prop46
 90
       50
102
RTVSPost2010PropOp46
 70
     0
102
RTVSPost2010Prop47
 90
       50
102
RTVSPost2010PropOp47
 70
     0
102
RTVSPost2010Prop48
 90
       50
102
RTVSPost2010PropOp48
 70
     0
102
RTVSPost2010Prop49
280
     0
102
RTVSPost2010PropOp49
 70
     0
102
RTVSPost2010Prop50
 90
       50
102
RTVSPost2010PropOp50
 70
     0
102
RTVSPost2010Prop51ColorIndex
 90
      256
102
RTVSPost2010Prop51ColorRGB
 90
-16777216
102
RTVSPost2010PropOp51
 70
     0
102
RTVSPost2010Prop52
140
1.0
102
RTVSPost2010PropOp52
 70
     0
102
RTVSPost2010Prop53
 90
        2
102
RTVSPost2010PropOp53
 70
     0
102
RTVSPost2010Prop54
  1
strokes_ogs.tif
102
RTVSPost2010PropOp54
 70
     0
102
RTVSPost2010Prop55
280
     0
102
RTVSPost2010PropOp55
 70
     0
102
RTVSPost2010Prop56
140
1.0
102
RTVSPost2010PropOp56
 70
     0
102
RTVSPost2010Prop57
140
1.0
102
RTVSPost2010PropOp57
 70
     0
  0
XRECORD
  5
1DC
102
{ACAD_REACTORS
330
1DB
102
}
330
1DB
100
AcDbXrecord
280
     1
102
RTVSPropertyOp0
 70
     1
102
RTVSPropertyOp1
 70
     1
102
RTVSPropertyOp2
 70
     1
102
RTVSPropertyOp3
 70
     1
102
RTVSPropertyOp4
 70
     1
102
RTVSPropertyOp5
 70
     1
102
RTVSPropertyOp6
 70
     1
102
RTVSPropertyOp7
 70
     1
102
RTVSPropertyOp8
 70
     1
102
RTVSPropertyOp9
 70
     1
102
RTVSPropertyOp10
 70
     1
102
RTVSPropertyOp11
 70
     1
102
RTVSPropertyOp12
 70
     1
102
RTVSPropertyOp13
 70
     1
102
RTVSPropertyOp14
 70
     1
102
RTVSPropertyOp15
 70
     1
102
RTVSPropertyOp16
 70
     1
102
RTVSPropertyOp17
 70
     1
102
RTVSPropertyOp18
 70
     1
102
RTVSPropertyOp19
 70
     1
102
RTVSPropertyOp20
 70
     1
102
RTVSPropertyOp21
 70
     1
102
RTVSPropertyOp22
 70
     1
102
RTVSPropertyOp23
 70
     1
102
RTVSPropertyOp24
 70
     1
102
RTVSPropertyOp25
 70
     1
102
RTVSPropertyOp26
 70
     1
102
RTVSPropertyOp27
 70
     1
102
RTVSPropertyOp28
 70
     1
102
RTVSPropertyOp29
 70
     1
102
RTVSPropertyOp30
 70
     1
102
RTVSPropertyOp31
 70
     1
102
RTVSPropertyOp32
 70
     1
102
RTVSPropertyOp33
 70
     1
102
RTVSPropertyOp34
 70
     1
102
RTVSPropertyOp35
 70
     1
102
RTVSPropertyOp36
 70
     1
102
RTVSPropertyOp37
 70
     1
102
RTVSPropertyOp38
 70
     1
102
RTVSPropertyOp39
 70
     1
102
RTVSPropertyOp40
 70
     1
102
RTVSPropertyOp41
 70
     1
102
RTVSPropertyOp42
 70
     1
102
RTVSPropertyOp43
 70
     1
102
RTVSPropertyOp44
 70
     1
102
RTVSPropertyOp45
 70
     1
102
RTVSPropertyOp46
 70
     1
102
RTVSPropertyOp47
 70
     1
102
RTVSPropertyOp48
 70
     1
102
RTVSPropertyOp49
 70
     1
102
RTVSPropertyOp50
 70
     1
102
RTVSPropertyOp51
 70
     0
102
RTVSPropertyOp52
 70
     0
102
RTVSPropertyOp53
 70
     1
102
RTVSPropertyOp54
 70
     1
102
RTVSPropertyOp55
 70
     1
102
RTVSPropertyOp56
 70
     1
102
RTVSPropertyOp57
 70
     1
102
RTVSPost2010Prop28
280
     0
102
RTVSPost2010PropOp28
 70
     1
102
RTVSPost2010Prop29
280
     1
102
RTVSPost2010PropOp29
 70
     1
102
RTVSPost2010Prop30
280
     1
102
RTVSPost2010PropOp30
 70
     1
102
RTVSPost2010Prop31
280
     0
102
RTVSPost2010PropOp31
 70
     1
102
RTVSPost2010Prop32
280
     0
102
RTVSPost2010PropOp32
 70
     1
102
RTVSPost2010Prop33
280
     0
102
RTVSPost2010PropOp33
 70
     1
102
RTVSPost2010Prop34
280
     0
102
RTVSPost2010PropOp34
 70
     1
102
RTVSPost2010Prop35
280
     0
102
RTVSPost2010PropOp35
 70
     1
102
RTVSPost2010Prop36
280
     0
102
RTVSPost2010PropOp36
 70
     1
102
RTVSPost2010Prop37
 90
       50
102
RTVSPost2010PropOp37
 70
     1
102
RTVSPost2010Prop38
140
0.0
102
RTVSPost2010PropOp38
 70
     1
102
RTVSPost2010Prop39
140
1.0
102
RTVSPost2010PropOp39
 70
     1
102
RTVSPost2010Prop40
 90
        0
102
RTVSPost2010PropOp40
 70
     1
102
RTVSPost2010Prop41ColorIndex
 90
       18
102
RTVSPost2010Prop41ColorRGB
 90
        0
102
RTVSPost2010PropOp41
 70
     1
102
RTVSPost2010Prop42
 90
       50
102
RTVSPost2010PropOp42
 70
     1
102
RTVSPost2010Prop43
 90
        3
102
RTVSPost2010PropOp43
 70
     1
102
RTVSPost2010Prop44ColorIndex
 90
        5
102
RTVSPost2010Prop44ColorRGB
 90
      255
102
RTVSPost2010PropOp44
 70
     1
102
RTVSPost2010Prop45
280
     0
102
RTVSPost2010PropOp45
 70
     1
102
RTVSPost2010Prop46
 90
       50
102
RTVSPost2010PropOp46
 70
     1
102
RTVSPost2010Prop47
 90
       50
102
RTVSPost2010PropOp47
 70
     1
102
RTVSPost2010Prop48
 90
       50
102
RTVSPost2010PropOp48
 70
     1
102
RTVSPost2010Prop49
280
     0
102
RTVSPost2010PropOp49
 70
     1
102
RTVSPost2010Prop50
 90
       50
102
RTVSPost2010PropOp50
 70
     1
102
RTVSPost2010Prop51ColorIndex
 90
      256
102
RTVSPost2010Prop51ColorRGB
 90
-16777216
102
RTVSPost2010PropOp51
 70
     0
102
RTVSPost2010Prop52
140
1.0
102
RTVSPost2010PropOp52
 70
     0
102
RTVSPost2010Prop53
 90
        2
102
RTVSPost2010PropOp53
 70
     1
102
RTVSPost2010Prop54
  1
strokes_ogs.tif
102
RTVSPost2010PropOp54
 70
     1
102
RTVSPost2010Prop55
280
     0
102
RTVSPost2010PropOp55
 70
     1
102
RTVSPost2010Prop56
140
1.0
102
RTVSPost2010PropOp56
 70
     1
102
RTVSPost2010Prop57
140
1.0
102
RTVSPost2010PropOp57
 70
     1
  0
XRECORD
  5
1FA
102
{ACAD_REACTORS
330
1F9
102
}
330
1F9
100
AcDbXrecord
280
     1
102
RTVSPropertyOp0
 70
     1
102
RTVSPropertyOp1
 70
     1
102
RTVSPropertyOp2
 70
     1
102
RTVSPropertyOp3
 70
     1
102
RTVSPropertyOp4
 70
     1
102
RTVSPropertyOp5
 70
     1
102
RTVSPropertyOp6
 70
     1
102
RTVSPropertyOp7
 70
     1
102
RTVSPropertyOp8
 70
     1
102
RTVSPropertyOp9
 70
     1
102
RTVSPropertyOp10
 70
     1
102
RTVSPropertyOp11
 70
     1
102
RTVSPropertyOp12
 70
     1
102
RTVSPropertyOp13
 70
     1
102
RTVSPropertyOp14
 70
     1
102
RTVSPropertyOp15
 70
     1
102
RTVSPropertyOp16
 70
     1
102
RTVSPropertyOp17
 70
     1
102
RTVSPropertyOp18
 70
     1
102
RTVSPropertyOp19
 70
     1
102
RTVSPropertyOp20
 70
     1
102
RTVSPropertyOp21
 70
     1
102
RTVSPropertyOp22
 70
     1
102
RTVSPropertyOp23
 70
     1
102
RTVSPropertyOp24
 70
     1
102
RTVSPropertyOp25
 70
     1
102
RTVSPropertyOp26
 70
     1
102
RTVSPropertyOp27
 70
     1
102
RTVSPropertyOp28
 70
     1
102
RTVSPropertyOp29
 70
     1
102
RTVSPropertyOp30
 70
     1
102
RTVSPropertyOp31
 70
     1
102
RTVSPropertyOp32
 70
     1
102
RTVSPropertyOp33
 70
     1
102
RTVSPropertyOp34
 70
     1
102
RTVSPropertyOp35
 70
     1
102
RTVSPropertyOp36
 70
     1
102
RTVSPropertyOp37
 70
     1
102
RTVSPropertyOp38
 70
     1
102
RTVSPropertyOp39
 70
     1
102
RTVSPropertyOp40
 70
     1
102
RTVSPropertyOp41
 70
     1
102
RTVSPropertyOp42
 70
     1
102
RTVSPropertyOp43
 70
     1
102
RTVSPropertyOp44
 70
     1
102
RTVSPropertyOp45
 70
     1
102
RTVSPropertyOp46
 70
     1
102
RTVSPropertyOp47
 70
     1
102
RTVSPropertyOp48
 70
     1
102
RTVSPropertyOp49
 70
     1
102
RTVSPropertyOp50
 70
     1
102
RTVSPropertyOp51
 70
     0
102
RTVSPropertyOp52
 70
     0
102
RTVSPropertyOp53
 70
     1
102
RTVSPropertyOp54
 70
     1
102
RTVSPropertyOp55
 70
     1
102
RTVSPropertyOp56
 70
     1
102
RTVSPropertyOp57
 70
     1
102
RTVSPost2010Prop28
280
     0
102
RTVSPost2010PropOp28
 70
     1
102
RTVSPost2010Prop29
280
     1
102
RTVSPost2010PropOp29
 70
     1
102
RTVSPost2010Prop30
280
     1
102
RTVSPost2010PropOp30
 70
     1
102
RTVSPost2010Prop31
280
     0
102
RTVSPost2010PropOp31
 70
     1
102
RTVSPost2010Prop32
280
     0
102
RTVSPost2010PropOp32
 70
     1
102
RTVSPost2010Prop33
280
     0
102
RTVSPost2010PropOp33
 70
     1
102
RTVSPost2010Prop34
280
     0
102
RTVSPost2010PropOp34
 70
     1
102
RTVSPost2010Prop35
280
     0
102
RTVSPost2010PropOp35
 70
     1
102
RTVSPost2010Prop36
280
     0
102
RTVSPost2010PropOp36
 70
     1
102
RTVSPost2010Prop37
 90
       50
102
RTVSPost2010PropOp37
 70
     1
102
RTVSPost2010Prop38
140
0.0
102
RTVSPost2010PropOp38
 70
     1
102
RTVSPost2010Prop39
140
1.0
102
RTVSPost2010PropOp39
 70
     1
102
RTVSPost2010Prop40
 90
        0
102
RTVSPost2010PropOp40
 70
     1
102
RTVSPost2010Prop41ColorIndex
 90
       18
102
RTVSPost2010Prop41ColorRGB
 90
        0
102
RTVSPost2010PropOp41
 70
     1
102
RTVSPost2010Prop42
 90
       50
102
RTVSPost2010PropOp42
 70
     1
102
RTVSPost2010Prop43
 90
        3
102
RTVSPost2010PropOp43
 70
     1
102
RTVSPost2010Prop44ColorIndex
 90
        5
102
RTVSPost2010Prop44ColorRGB
 90
      255
102
RTVSPost2010PropOp44
 70
     1
102
RTVSPost2010Prop45
280
     0
102
RTVSPost2010PropOp45
 70
     1
102
RTVSPost2010Prop46
 90
       50
102
RTVSPost2010PropOp46
 70
     1
102
RTVSPost2010Prop47
 90
       50
102
RTVSPost2010PropOp47
 70
     1
102
RTVSPost2010Prop48
 90
       50
102
RTVSPost2010PropOp48
 70
     1
102
RTVSPost2010Prop49
280
     0
102
RTVSPost2010PropOp49
 70
     1
102
RTVSPost2010Prop50
 90
       50
102
RTVSPost2010PropOp50
 70
     1
102
RTVSPost2010Prop51ColorIndex
 90
      256
102
RTVSPost2010Prop51ColorRGB
 90
-16777216
102
RTVSPost2010PropOp51
 70
     0
102
RTVSPost2010Prop52
140
1.0
102
RTVSPost2010PropOp52
 70
     0
102
RTVSPost2010Prop53
 90
        2
102
RTVSPost2010PropOp53
 70
     1
102
RTVSPost2010Prop54
  1
strokes_ogs.tif
102
RTVSPost2010PropOp54
 70
     1
102
RTVSPost2010Prop55
280
     0
102
RTVSPost2010PropOp55
 70
     1
102
RTVSPost2010Prop56
140
1.0
102
RTVSPost2010PropOp56
 70
     1
102
RTVSPost2010Prop57
140
1.0
102
RTVSPost2010PropOp57
 70
     1
  0
XRECORD
  5
1F8
102
{ACAD_REACTORS
330
1F7
102
}
330
1F7
100
AcDbXrecord
280
     1
102
RTVSPropertyOp0
 70
     1
102
RTVSPropertyOp1
 70
     1
102
RTVSPropertyOp2
 70
     1
102
RTVSPropertyOp3
 70
     1
102
RTVSPropertyOp4
 70
     1
102
RTVSPropertyOp5
 70
     1
102
RTVSPropertyOp6
 70
     1
102
RTVSPropertyOp7
 70
     1
102
RTVSPropertyOp8
 70
     1
102
RTVSPropertyOp9
 70
     1
102
RTVSPropertyOp10
 70
     1
102
RTVSPropertyOp11
 70
     1
102
RTVSPropertyOp12
 70
     1
102
RTVSPropertyOp13
 70
     1
102
RTVSPropertyOp14
 70
     1
102
RTVSPropertyOp15
 70
     1
102
RTVSPropertyOp16
 70
     1
102
RTVSPropertyOp17
 70
     1
102
RTVSPropertyOp18
 70
     1
102
RTVSPropertyOp19
 70
     1
102
RTVSPropertyOp20
 70
     1
102
RTVSPropertyOp21
 70
     1
102
RTVSPropertyOp22
 70
     1
102
RTVSPropertyOp23
 70
     1
102
RTVSPropertyOp24
 70
     1
102
RTVSPropertyOp25
 70
     1
102
RTVSPropertyOp26
 70
     1
102
RTVSPropertyOp27
 70
     1
102
RTVSPropertyOp28
 70
     1
102
RTVSPropertyOp29
 70
     1
102
RTVSPropertyOp30
 70
     1
102
RTVSPropertyOp31
 70
     1
102
RTVSPropertyOp32
 70
     1
102
RTVSPropertyOp33
 70
     1
102
RTVSPropertyOp34
 70
     1
102
RTVSPropertyOp35
 70
     1
102
RTVSPropertyOp36
 70
     1
102
RTVSPropertyOp37
 70
     1
102
RTVSPropertyOp38
 70
     1
102
RTVSPropertyOp39
 70
     1
102
RTVSPropertyOp40
 70
     1
102
RTVSPropertyOp41
 70
     1
102
RTVSPropertyOp42
 70
     1
102
RTVSPropertyOp43
 70
     1
102
RTVSPropertyOp44
 70
     1
102
RTVSPropertyOp45
 70
     1
102
RTVSPropertyOp46
 70
     1
102
RTVSPropertyOp47
 70
     1
102
RTVSPropertyOp48
 70
     1
102
RTVSPropertyOp49
 70
     1
102
RTVSPropertyOp50
 70
     1
102
RTVSPropertyOp51
 70
     0
102
RTVSPropertyOp52
 70
     0
102
RTVSPropertyOp53
 70
     1
102
RTVSPropertyOp54
 70
     1
102
RTVSPropertyOp55
 70
     1
102
RTVSPropertyOp56
 70
     1
102
RTVSPropertyOp57
 70
     1
102
RTVSPost2010Prop28
280
     0
102
RTVSPost2010PropOp28
 70
     1
102
RTVSPost2010Prop29
280
     1
102
RTVSPost2010PropOp29
 70
     1
102
RTVSPost2010Prop30
280
     1
102
RTVSPost2010PropOp30
 70
     1
102
RTVSPost2010Prop31
280
     0
102
RTVSPost2010PropOp31
 70
     1
102
RTVSPost2010Prop32
280
     0
102
RTVSPost2010PropOp32
 70
     1
102
RTVSPost2010Prop33
280
     0
102
RTVSPost2010PropOp33
 70
     1
102
RTVSPost2010Prop34
280
     0
102
RTVSPost2010PropOp34
 70
     1
102
RTVSPost2010Prop35
280
     0
102
RTVSPost2010PropOp35
 70
     1
102
RTVSPost2010Prop36
280
     0
102
RTVSPost2010PropOp36
 70
     1
102
RTVSPost2010Prop37
 90
       50
102
RTVSPost2010PropOp37
 70
     1
102
RTVSPost2010Prop38
140
0.0
102
RTVSPost2010PropOp38
 70
     1
102
RTVSPost2010Prop39
140
1.0
102
RTVSPost2010PropOp39
 70
     1
102
RTVSPost2010Prop40
 90
        0
102
RTVSPost2010PropOp40
 70
     1
102
RTVSPost2010Prop41ColorIndex
 90
       18
102
RTVSPost2010Prop41ColorRGB
 90
        0
102
RTVSPost2010PropOp41
 70
     1
102
RTVSPost2010Prop42
 90
       50
102
RTVSPost2010PropOp42
 70
     1
102
RTVSPost2010Prop43
 90
        3
102
RTVSPost2010PropOp43
 70
     1
102
RTVSPost2010Prop44ColorIndex
 90
        5
102
RTVSPost2010Prop44ColorRGB
 90
      255
102
RTVSPost2010PropOp44
 70
     1
102
RTVSPost2010Prop45
280
     0
102
RTVSPost2010PropOp45
 70
     1
102
RTVSPost2010Prop46
 90
       50
102
RTVSPost2010PropOp46
 70
     1
102
RTVSPost2010Prop47
 90
       50
102
RTVSPost2010PropOp47
 70
     1
102
RTVSPost2010Prop48
 90
       50
102
RTVSPost2010PropOp48
 70
     1
102
RTVSPost2010Prop49
280
     0
102
RTVSPost2010PropOp49
 70
     1
102
RTVSPost2010Prop50
 90
       50
102
RTVSPost2010PropOp50
 70
     1
102
RTVSPost2010Prop51ColorIndex
 90
      256
102
RTVSPost2010Prop51ColorRGB
 90
-16777216
102
RTVSPost2010PropOp51
 70
     0
102
RTVSPost2010Prop52
140
1.0
102
RTVSPost2010PropOp52
 70
     0
102
RTVSPost2010Prop53
 90
        2
102
RTVSPost2010PropOp53
 70
     1
102
RTVSPost2010Prop54
  1
strokes_ogs.tif
102
RTVSPost2010PropOp54
 70
     1
102
RTVSPost2010Prop55
280
     0
102
RTVSPost2010PropOp55
 70
     1
102
RTVSPost2010Prop56
140
1.0
102
RTVSPost2010PropOp56
 70
     1
102
RTVSPost2010Prop57
140
1.0
102
RTVSPost2010PropOp57
 70
     1
  0
XRECORD
  5
1F2
102
{ACAD_REACTORS
330
1F1
102
}
330
1F1
100
AcDbXrecord
280
     1
102
RTVSPropertyOp0
 70
     1
102
RTVSPropertyOp1
 70
     1
102
RTVSPropertyOp2
 70
     1
102
RTVSPropertyOp3
 70
     1
102
RTVSPropertyOp4
 70
     1
102
RTVSPropertyOp5
 70
     1
102
RTVSPropertyOp6
 70
     1
102
RTVSPropertyOp7
 70
     1
102
RTVSPropertyOp8
 70
     1
102
RTVSPropertyOp9
 70
     1
102
RTVSPropertyOp10
 70
     1
102
RTVSPropertyOp11
 70
     1
102
RTVSPropertyOp12
 70
     1
102
RTVSPropertyOp13
 70
     1
102
RTVSPropertyOp14
 70
     1
102
RTVSPropertyOp15
 70
     1
102
RTVSPropertyOp16
 70
     1
102
RTVSPropertyOp17
 70
     1
102
RTVSPropertyOp18
 70
     1
102
RTVSPropertyOp19
 70
     1
102
RTVSPropertyOp20
 70
     1
102
RTVSPropertyOp21
 70
     1
102
RTVSPropertyOp22
 70
     1
102
RTVSPropertyOp23
 70
     1
102
RTVSPropertyOp24
 70
     1
102
RTVSPropertyOp25
 70
     1
102
RTVSPropertyOp26
 70
     1
102
RTVSPropertyOp27
 70
     1
102
RTVSPropertyOp28
 70
     1
102
RTVSPropertyOp29
 70
     1
102
RTVSPropertyOp30
 70
     1
102
RTVSPropertyOp31
 70
     1
102
RTVSPropertyOp32
 70
     1
102
RTVSPropertyOp33
 70
     1
102
RTVSPropertyOp34
 70
     1
102
RTVSPropertyOp35
 70
     1
102
RTVSPropertyOp36
 70
     1
102
RTVSPropertyOp37
 70
     1
102
RTVSPropertyOp38
 70
     1
102
RTVSPropertyOp39
 70
     1
102
RTVSPropertyOp40
 70
     1
102
RTVSPropertyOp41
 70
     1
102
RTVSPropertyOp42
 70
     1
102
RTVSPropertyOp43
 70
     1
102
RTVSPropertyOp44
 70
     1
102
RTVSPropertyOp45
 70
     1
102
RTVSPropertyOp46
 70
     1
102
RTVSPropertyOp47
 70
     1
102
RTVSPropertyOp48
 70
     1
102
RTVSPropertyOp49
 70
     1
102
RTVSPropertyOp50
 70
     1
102
RTVSPropertyOp51
 70
     0
102
RTVSPropertyOp52
 70
     0
102
RTVSPropertyOp53
 70
     1
102
RTVSPropertyOp54
 70
     1
102
RTVSPropertyOp55
 70
     1
102
RTVSPropertyOp56
 70
     1
102
RTVSPropertyOp57
 70
     1
102
RTVSPost2010Prop28
280
     0
102
RTVSPost2010PropOp28
 70
     1
102
RTVSPost2010Prop29
280
     1
102
RTVSPost2010PropOp29
 70
     1
102
RTVSPost2010Prop30
280
     1
102
RTVSPost2010PropOp30
 70
     1
102
RTVSPost2010Prop31
280
     0
102
RTVSPost2010PropOp31
 70
     1
102
RTVSPost2010Prop32
280
     0
102
RTVSPost2010PropOp32
 70
     1
102
RTVSPost2010Prop33
280
     0
102
RTVSPost2010PropOp33
 70
     1
102
RTVSPost2010Prop34
280
     0
102
RTVSPost2010PropOp34
 70
     1
102
RTVSPost2010Prop35
280
     0
102
RTVSPost2010PropOp35
 70
     1
102
RTVSPost2010Prop36
280
     0
102
RTVSPost2010PropOp36
 70
     1
102
RTVSPost2010Prop37
 90
       50
102
RTVSPost2010PropOp37
 70
     1
102
RTVSPost2010Prop38
140
0.0
102
RTVSPost2010PropOp38
 70
     1
102
RTVSPost2010Prop39
140
1.0
102
RTVSPost2010PropOp39
 70
     1
102
RTVSPost2010Prop40
 90
        0
102
RTVSPost2010PropOp40
 70
     1
102
RTVSPost2010Prop41ColorIndex
 90
       18
102
RTVSPost2010Prop41ColorRGB
 90
        0
102
RTVSPost2010PropOp41
 70
     1
102
RTVSPost2010Prop42
 90
       50
102
RTVSPost2010PropOp42
 70
     1
102
RTVSPost2010Prop43
 90
        3
102
RTVSPost2010PropOp43
 70
     1
102
RTVSPost2010Prop44ColorIndex
 90
        5
102
RTVSPost2010Prop44ColorRGB
 90
      255
102
RTVSPost2010PropOp44
 70
     1
102
RTVSPost2010Prop45
280
     0
102
RTVSPost2010PropOp45
 70
     1
102
RTVSPost2010Prop46
 90
       50
102
RTVSPost2010PropOp46
 70
     1
102
RTVSPost2010Prop47
 90
       50
102
RTVSPost2010PropOp47
 70
     1
102
RTVSPost2010Prop48
 90
       50
102
RTVSPost2010PropOp48
 70
     1
102
RTVSPost2010Prop49
280
     0
102
RTVSPost2010PropOp49
 70
     1
102
RTVSPost2010Prop50
 90
       50
102
RTVSPost2010PropOp50
 70
     1
102
RTVSPost2010Prop51ColorIndex
 90
      256
102
RTVSPost2010Prop51ColorRGB
 90
-16777216
102
RTVSPost2010PropOp51
 70
     0
102
RTVSPost2010Prop52
140
1.0
102
RTVSPost2010PropOp52
 70
     0
102
RTVSPost2010Prop53
 90
        2
102
RTVSPost2010PropOp53
 70
     1
102
RTVSPost2010Prop54
  1
strokes_ogs.tif
102
RTVSPost2010PropOp54
 70
     1
102
RTVSPost2010Prop55
280
     0
102
RTVSPost2010PropOp55
 70
     1
102
RTVSPost2010Prop56
140
1.0
102
RTVSPost2010PropOp56
 70
     1
102
RTVSPost2010Prop57
140
1.0
102
RTVSPost2010PropOp57
 70
     1
  0
XRECORD
  5
1F4
102
{ACAD_REACTORS
330
1F3
102
}
330
1F3
100
AcDbXrecord
280
     1
102
RTVSPropertyOp0
 70
     1
102
RTVSPropertyOp1
 70
     1
102
RTVSPropertyOp2
 70
     1
102
RTVSPropertyOp3
 70
     1
102
RTVSPropertyOp4
 70
     1
102
RTVSPropertyOp5
 70
     1
102
RTVSPropertyOp6
 70
     1
102
RTVSPropertyOp7
 70
     1
102
RTVSPropertyOp8
 70
     1
102
RTVSPropertyOp9
 70
     1
102
RTVSPropertyOp10
 70
     1
102
RTVSPropertyOp11
 70
     1
102
RTVSPropertyOp12
 70
     1
102
RTVSPropertyOp13
 70
     1
102
RTVSPropertyOp14
 70
     1
102
RTVSPropertyOp15
 70
     1
102
RTVSPropertyOp16
 70
     1
102
RTVSPropertyOp17
 70
     1
102
RTVSPropertyOp18
 70
     1
102
RTVSPropertyOp19
 70
     1
102
RTVSPropertyOp20
 70
     1
102
RTVSPropertyOp21
 70
     1
102
RTVSPropertyOp22
 70
     1
102
RTVSPropertyOp23
 70
     1
102
RTVSPropertyOp24
 70
     1
102
RTVSPropertyOp25
 70
     1
102
RTVSPropertyOp26
 70
     1
102
RTVSPropertyOp27
 70
     1
102
RTVSPropertyOp28
 70
     1
102
RTVSPropertyOp29
 70
     1
102
RTVSPropertyOp30
 70
     1
102
RTVSPropertyOp31
 70
     1
102
RTVSPropertyOp32
 70
     1
102
RTVSPropertyOp33
 70
     1
102
RTVSPropertyOp34
 70
     1
102
RTVSPropertyOp35
 70
     1
102
RTVSPropertyOp36
 70
     1
102
RTVSPropertyOp37
 70
     1
102
RTVSPropertyOp38
 70
     1
102
RTVSPropertyOp39
 70
     1
102
RTVSPropertyOp40
 70
     1
102
RTVSPropertyOp41
 70
     1
102
RTVSPropertyOp42
 70
     1
102
RTVSPropertyOp43
 70
     1
102
RTVSPropertyOp44
 70
     1
102
RTVSPropertyOp45
 70
     1
102
RTVSPropertyOp46
 70
     1
102
RTVSPropertyOp47
 70
     1
102
RTVSPropertyOp48
 70
     1
102
RTVSPropertyOp49
 70
     1
102
RTVSPropertyOp50
 70
     1
102
RTVSPropertyOp51
 70
     0
102
RTVSPropertyOp52
 70
     0
102
RTVSPropertyOp53
 70
     1
102
RTVSPropertyOp54
 70
     1
102
RTVSPropertyOp55
 70
     1
102
RTVSPropertyOp56
 70
     1
102
RTVSPropertyOp57
 70
     1
102
RTVSPost2010Prop28
280
     0
102
RTVSPost2010PropOp28
 70
     1
102
RTVSPost2010Prop29
280
     1
102
RTVSPost2010PropOp29
 70
     1
102
RTVSPost2010Prop30
280
     1
102
RTVSPost2010PropOp30
 70
     1
102
RTVSPost2010Prop31
280
     0
102
RTVSPost2010PropOp31
 70
     1
102
RTVSPost2010Prop32
280
     0
102
RTVSPost2010PropOp32
 70
     1
102
RTVSPost2010Prop33
280
     0
102
RTVSPost2010PropOp33
 70
     1
102
RTVSPost2010Prop34
280
     0
102
RTVSPost2010PropOp34
 70
     1
102
RTVSPost2010Prop35
280
     0
102
RTVSPost2010PropOp35
 70
     1
102
RTVSPost2010Prop36
280
     0
102
RTVSPost2010PropOp36
 70
     1
102
RTVSPost2010Prop37
 90
       50
102
RTVSPost2010PropOp37
 70
     1
102
RTVSPost2010Prop38
140
0.0
102
RTVSPost2010PropOp38
 70
     1
102
RTVSPost2010Prop39
140
1.0
102
RTVSPost2010PropOp39
 70
     1
102
RTVSPost2010Prop40
 90
        0
102
RTVSPost2010PropOp40
 70
     1
102
RTVSPost2010Prop41ColorIndex
 90
       18
102
RTVSPost2010Prop41ColorRGB
 90
        0
102
RTVSPost2010PropOp41
 70
     1
102
RTVSPost2010Prop42
 90
       50
102
RTVSPost2010PropOp42
 70
     1
102
RTVSPost2010Prop43
 90
        3
102
RTVSPost2010PropOp43
 70
     1
102
RTVSPost2010Prop44ColorIndex
 90
        5
102
RTVSPost2010Prop44ColorRGB
 90
      255
102
RTVSPost2010PropOp44
 70
     1
102
RTVSPost2010Prop45
280
     0
102
RTVSPost2010PropOp45
 70
     1
102
RTVSPost2010Prop46
 90
       50
102
RTVSPost2010PropOp46
 70
     1
102
RTVSPost2010Prop47
 90
       50
102
RTVSPost2010PropOp47
 70
     1
102
RTVSPost2010Prop48
 90
       50
102
RTVSPost2010PropOp48
 70
     1
102
RTVSPost2010Prop49
280
     0
102
RTVSPost2010PropOp49
 70
     1
102
RTVSPost2010Prop50
 90
       50
102
RTVSPost2010PropOp50
 70
     1
102
RTVSPost2010Prop51ColorIndex
 90
      256
102
RTVSPost2010Prop51ColorRGB
 90
-16777216
102
RTVSPost2010PropOp51
 70
     0
102
RTVSPost2010Prop52
140
1.0
102
RTVSPost2010PropOp52
 70
     0
102
RTVSPost2010Prop53
 90
        2
102
RTVSPost2010PropOp53
 70
     1
102
RTVSPost2010Prop54
  1
strokes_ogs.tif
102
RTVSPost2010PropOp54
 70
     1
102
RTVSPost2010Prop55
280
     0
102
RTVSPost2010PropOp55
 70
     1
102
RTVSPost2010Prop56
140
1.0
102
RTVSPost2010PropOp56
 70
     1
102
RTVSPost2010Prop57
140
1.0
102
RTVSPost2010PropOp57
 70
     1
  0
XRECORD
  5
1E4
102
{ACAD_REACTORS
330
1E3
102
}
330
1E3
100
AcDbXrecord
280
     1
102
RTVSPropertyOp0
 70
     1
102
RTVSPropertyOp1
 70
     1
102
RTVSPropertyOp2
 70
     1
102
RTVSPropertyOp3
 70
     1
102
RTVSPropertyOp4
 70
     1
102
RTVSPropertyOp5
 70
     1
102
RTVSPropertyOp6
 70
     1
102
RTVSPropertyOp7
 70
     1
102
RTVSPropertyOp8
 70
     1
102
RTVSPropertyOp9
 70
     1
102
RTVSPropertyOp10
 70
     1
102
RTVSPropertyOp11
 70
     1
102
RTVSPropertyOp12
 70
     1
102
RTVSPropertyOp13
 70
     1
102
RTVSPropertyOp14
 70
     1
102
RTVSPropertyOp15
 70
     1
102
RTVSPropertyOp16
 70
     1
102
RTVSPropertyOp17
 70
     1
102
RTVSPropertyOp18
 70
     1
102
RTVSPropertyOp19
 70
     1
102
RTVSPropertyOp20
 70
     1
102
RTVSPropertyOp21
 70
     1
102
RTVSPropertyOp22
 70
     1
102
RTVSPropertyOp23
 70
     1
102
RTVSPropertyOp24
 70
     1
102
RTVSPropertyOp25
 70
     1
102
RTVSPropertyOp26
 70
     1
102
RTVSPropertyOp27
 70
     1
102
RTVSPropertyOp28
 70
     1
102
RTVSPropertyOp29
 70
     1
102
RTVSPropertyOp30
 70
     1
102
RTVSPropertyOp31
 70
     1
102
RTVSPropertyOp32
 70
     1
102
RTVSPropertyOp33
 70
     1
102
RTVSPropertyOp34
 70
     1
102
RTVSPropertyOp35
 70
     1
102
RTVSPropertyOp36
 70
     1
102
RTVSPropertyOp37
 70
     1
102
RTVSPropertyOp38
 70
     1
102
RTVSPropertyOp39
 70
     1
102
RTVSPropertyOp40
 70
     1
102
RTVSPropertyOp41
 70
     1
102
RTVSPropertyOp42
 70
     1
102
RTVSPropertyOp43
 70
     1
102
RTVSPropertyOp44
 70
     1
102
RTVSPropertyOp45
 70
     1
102
RTVSPropertyOp46
 70
     1
102
RTVSPropertyOp47
 70
     1
102
RTVSPropertyOp48
 70
     1
102
RTVSPropertyOp49
 70
     1
102
RTVSPropertyOp50
 70
     1
102
RTVSPropertyOp51
 70
     0
102
RTVSPropertyOp52
 70
     0
102
RTVSPropertyOp53
 70
     1
102
RTVSPropertyOp54
 70
     1
102
RTVSPropertyOp55
 70
     1
102
RTVSPropertyOp56
 70
     1
102
RTVSPropertyOp57
 70
     1
102
RTVSPost2010Prop28
280
     0
102
RTVSPost2010PropOp28
 70
     1
102
RTVSPost2010Prop29
280
     1
102
RTVSPost2010PropOp29
 70
     1
102
RTVSPost2010Prop30
280
     1
102
RTVSPost2010PropOp30
 70
     1
102
RTVSPost2010Prop31
280
     0
102
RTVSPost2010PropOp31
 70
     1
102
RTVSPost2010Prop32
280
     0
102
RTVSPost2010PropOp32
 70
     1
102
RTVSPost2010Prop33
280
     0
102
RTVSPost2010PropOp33
 70
     1
102
RTVSPost2010Prop34
280
     0
102
RTVSPost2010PropOp34
 70
     1
102
RTVSPost2010Prop35
280
     0
102
RTVSPost2010PropOp35
 70
     1
102
RTVSPost2010Prop36
280
     0
102
RTVSPost2010PropOp36
 70
     1
102
RTVSPost2010Prop37
 90
       50
102
RTVSPost2010PropOp37
 70
     1
102
RTVSPost2010Prop38
140
0.0
102
RTVSPost2010PropOp38
 70
     1
102
RTVSPost2010Prop39
140
1.0
102
RTVSPost2010PropOp39
 70
     1
102
RTVSPost2010Prop40
 90
        0
102
RTVSPost2010PropOp40
 70
     1
102
RTVSPost2010Prop41ColorIndex
 90
       18
102
RTVSPost2010Prop41ColorRGB
 90
        0
102
RTVSPost2010PropOp41
 70
     1
102
RTVSPost2010Prop42
 90
       50
102
RTVSPost2010PropOp42
 70
     1
102
RTVSPost2010Prop43
 90
        3
102
RTVSPost2010PropOp43
 70
     1
102
RTVSPost2010Prop44ColorIndex
 90
        5
102
RTVSPost2010Prop44ColorRGB
 90
      255
102
RTVSPost2010PropOp44
 70
     1
102
RTVSPost2010Prop45
280
     0
102
RTVSPost2010PropOp45
 70
     1
102
RTVSPost2010Prop46
 90
       50
102
RTVSPost2010PropOp46
 70
     1
102
RTVSPost2010Prop47
 90
       50
102
RTVSPost2010PropOp47
 70
     1
102
RTVSPost2010Prop48
 90
       50
102
RTVSPost2010PropOp48
 70
     1
102
RTVSPost2010Prop49
280
     0
102
RTVSPost2010PropOp49
 70
     1
102
RTVSPost2010Prop50
 90
       50
102
RTVSPost2010PropOp50
 70
     1
102
RTVSPost2010Prop51ColorIndex
 90
      256
102
RTVSPost2010Prop51ColorRGB
 90
-16777216
102
RTVSPost2010PropOp51
 70
     0
102
RTVSPost2010Prop52
140
1.0
102
RTVSPost2010PropOp52
 70
     0
102
RTVSPost2010Prop53
 90
        2
102
RTVSPost2010PropOp53
 70
     1
102
RTVSPost2010Prop54
  1
strokes_ogs.tif
102
RTVSPost2010PropOp54
 70
     1
102
RTVSPost2010Prop55
280
     0
102
RTVSPost2010PropOp55
 70
     1
102
RTVSPost2010Prop56
140
1.0
102
RTVSPost2010PropOp56
 70
     1
102
RTVSPost2010Prop57
140
1.0
102
RTVSPost2010PropOp57
 70
     1
  0
XRECORD
  5
1D6
102
{ACAD_REACTORS
330
1D5
102
}
330
1D5
100
AcDbXrecord
280
     1
102
RTVSPropertyOp0
 70
     1
102
RTVSPropertyOp1
 70
     1
102
RTVSPropertyOp2
 70
     1
102
RTVSPropertyOp3
 70
     1
102
RTVSPropertyOp4
 70
     1
102
RTVSPropertyOp5
 70
     1
102
RTVSPropertyOp6
 70
     1
102
RTVSPropertyOp7
 70
     1
102
RTVSPropertyOp8
 70
     1
102
RTVSPropertyOp9
 70
     1
102
RTVSPropertyOp10
 70
     1
102
RTVSPropertyOp11
 70
     1
102
RTVSPropertyOp12
 70
     1
102
RTVSPropertyOp13
 70
     1
102
RTVSPropertyOp14
 70
     1
102
RTVSPropertyOp15
 70
     1
102
RTVSPropertyOp16
 70
     1
102
RTVSPropertyOp17
 70
     1
102
RTVSPropertyOp18
 70
     1
102
RTVSPropertyOp19
 70
     1
102
RTVSPropertyOp20
 70
     1
102
RTVSPropertyOp21
 70
     1
102
RTVSPropertyOp22
 70
     1
102
RTVSPropertyOp23
 70
     1
102
RTVSPropertyOp24
 70
     1
102
RTVSPropertyOp25
 70
     1
102
RTVSPropertyOp26
 70
     1
102
RTVSPropertyOp27
 70
     1
102
RTVSPropertyOp28
 70
     1
102
RTVSPropertyOp29
 70
     1
102
RTVSPropertyOp30
 70
     1
102
RTVSPropertyOp31
 70
     1
102
RTVSPropertyOp32
 70
     1
102
RTVSPropertyOp33
 70
     1
102
RTVSPropertyOp34
 70
     1
102
RTVSPropertyOp35
 70
     1
102
RTVSPropertyOp36
 70
     1
102
RTVSPropertyOp37
 70
     1
102
RTVSPropertyOp38
 70
     1
102
RTVSPropertyOp39
 70
     1
102
RTVSPropertyOp40
 70
     1
102
RTVSPropertyOp41
 70
     1
102
RTVSPropertyOp42
 70
     1
102
RTVSPropertyOp43
 70
     1
102
RTVSPropertyOp44
 70
     1
102
RTVSPropertyOp45
 70
     1
102
RTVSPropertyOp46
 70
     1
102
RTVSPropertyOp47
 70
     1
102
RTVSPropertyOp48
 70
     1
102
RTVSPropertyOp49
 70
     1
102
RTVSPropertyOp50
 70
     1
102
RTVSPropertyOp51
 70
     0
102
RTVSPropertyOp52
 70
     0
102
RTVSPropertyOp53
 70
     1
102
RTVSPropertyOp54
 70
     1
102
RTVSPropertyOp55
 70
     1
102
RTVSPropertyOp56
 70
     1
102
RTVSPropertyOp57
 70
     1
102
RTVSPost2010Prop28
280
     0
102
RTVSPost2010PropOp28
 70
     1
102
RTVSPost2010Prop29
280
     1
102
RTVSPost2010PropOp29
 70
     1
102
RTVSPost2010Prop30
280
     1
102
RTVSPost2010PropOp30
 70
     1
102
RTVSPost2010Prop31
280
     0
102
RTVSPost2010PropOp31
 70
     1
102
RTVSPost2010Prop32
280
     0
102
RTVSPost2010PropOp32
 70
     1
102
RTVSPost2010Prop33
280
     0
102
RTVSPost2010PropOp33
 70
     1
102
RTVSPost2010Prop34
280
     0
102
RTVSPost2010PropOp34
 70
     1
102
RTVSPost2010Prop35
280
     0
102
RTVSPost2010PropOp35
 70
     1
102
RTVSPost2010Prop36
280
     0
102
RTVSPost2010PropOp36
 70
     1
102
RTVSPost2010Prop37
 90
       50
102
RTVSPost2010PropOp37
 70
     1
102
RTVSPost2010Prop38
140
0.0
102
RTVSPost2010PropOp38
 70
     1
102
RTVSPost2010Prop39
140
1.0
102
RTVSPost2010PropOp39
 70
     1
102
RTVSPost2010Prop40
 90
        0
102
RTVSPost2010PropOp40
 70
     1
102
RTVSPost2010Prop41ColorIndex
 90
       18
102
RTVSPost2010Prop41ColorRGB
 90
        0
102
RTVSPost2010PropOp41
 70
     1
102
RTVSPost2010Prop42
 90
       50
102
RTVSPost2010PropOp42
 70
     1
102
RTVSPost2010Prop43
 90
        3
102
RTVSPost2010PropOp43
 70
     1
102
RTVSPost2010Prop44ColorIndex
 90
        5
102
RTVSPost2010Prop44ColorRGB
 90
      255
102
RTVSPost2010PropOp44
 70
     1
102
RTVSPost2010Prop45
280
     0
102
RTVSPost2010PropOp45
 70
     1
102
RTVSPost2010Prop46
 90
       50
102
RTVSPost2010PropOp46
 70
     1
102
RTVSPost2010Prop47
 90
       50
102
RTVSPost2010PropOp47
 70
     1
102
RTVSPost2010Prop48
 90
       50
102
RTVSPost2010PropOp48
 70
     1
102
RTVSPost2010Prop49
280
     0
102
RTVSPost2010PropOp49
 70
     1
102
RTVSPost2010Prop50
 90
       50
102
RTVSPost2010PropOp50
 70
     1
102
RTVSPost2010Prop51ColorIndex
 90
      256
102
RTVSPost2010Prop51ColorRGB
 90
-16777216
102
RTVSPost2010PropOp51
 70
     0
102
RTVSPost2010Prop52
140
1.0
102
RTVSPost2010PropOp52
 70
     0
102
RTVSPost2010Prop53
 90
        2
102
RTVSPost2010PropOp53
 70
     1
102
RTVSPost2010Prop54
  1
strokes_ogs.tif
102
RTVSPost2010PropOp54
 70
     1
102
RTVSPost2010Prop55
280
     0
102
RTVSPost2010PropOp55
 70
     1
102
RTVSPost2010Prop56
140
1.0
102
RTVSPost2010PropOp56
 70
     1
102
RTVSPost2010Prop57
140
1.0
102
RTVSPost2010PropOp57
 70
     1
  0
XRECORD
  5
1F6
102
{ACAD_REACTORS
330
1F5
102
}
330
1F5
100
AcDbXrecord
280
     1
102
RTVSPropertyOp0
 70
     1
102
RTVSPropertyOp1
 70
     1
102
RTVSPropertyOp2
 70
     1
102
RTVSPropertyOp3
 70
     1
102
RTVSPropertyOp4
 70
     1
102
RTVSPropertyOp5
 70
     1
102
RTVSPropertyOp6
 70
     1
102
RTVSPropertyOp7
 70
     1
102
RTVSPropertyOp8
 70
     1
102
RTVSPropertyOp9
 70
     1
102
RTVSPropertyOp10
 70
     1
102
RTVSPropertyOp11
 70
     1
102
RTVSPropertyOp12
 70
     1
102
RTVSPropertyOp13
 70
     1
102
RTVSPropertyOp14
 70
     1
102
RTVSPropertyOp15
 70
     1
102
RTVSPropertyOp16
 70
     1
102
RTVSPropertyOp17
 70
     1
102
RTVSPropertyOp18
 70
     1
102
RTVSPropertyOp19
 70
     1
102
RTVSPropertyOp20
 70
     1
102
RTVSPropertyOp21
 70
     1
102
RTVSPropertyOp22
 70
     1
102
RTVSPropertyOp23
 70
     1
102
RTVSPropertyOp24
 70
     1
102
RTVSPropertyOp25
 70
     1
102
RTVSPropertyOp26
 70
     1
102
RTVSPropertyOp27
 70
     1
102
RTVSPropertyOp28
 70
     1
102
RTVSPropertyOp29
 70
     1
102
RTVSPropertyOp30
 70
     1
102
RTVSPropertyOp31
 70
     1
102
RTVSPropertyOp32
 70
     1
102
RTVSPropertyOp33
 70
     1
102
RTVSPropertyOp34
 70
     1
102
RTVSPropertyOp35
 70
     1
102
RTVSPropertyOp36
 70
     1
102
RTVSPropertyOp37
 70
     1
102
RTVSPropertyOp38
 70
     1
102
RTVSPropertyOp39
 70
     1
102
RTVSPropertyOp40
 70
     1
102
RTVSPropertyOp41
 70
     1
102
RTVSPropertyOp42
 70
     1
102
RTVSPropertyOp43
 70
     1
102
RTVSPropertyOp44
 70
     1
102
RTVSPropertyOp45
 70
     1
102
RTVSPropertyOp46
 70
     1
102
RTVSPropertyOp47
 70
     1
102
RTVSPropertyOp48
 70
     1
102
RTVSPropertyOp49
 70
     1
102
RTVSPropertyOp50
 70
     1
102
RTVSPropertyOp51
 70
     0
102
RTVSPropertyOp52
 70
     0
102
RTVSPropertyOp53
 70
     1
102
RTVSPropertyOp54
 70
     1
102
RTVSPropertyOp55
 70
     1
102
RTVSPropertyOp56
 70
     1
102
RTVSPropertyOp57
 70
     1
102
RTVSPost2010Prop28
280
     0
102
RTVSPost2010PropOp28
 70
     1
102
RTVSPost2010Prop29
280
     1
102
RTVSPost2010PropOp29
 70
     1
102
RTVSPost2010Prop30
280
     1
102
RTVSPost2010PropOp30
 70
     1
102
RTVSPost2010Prop31
280
     0
102
RTVSPost2010PropOp31
 70
     1
102
RTVSPost2010Prop32
280
     0
102
RTVSPost2010PropOp32
 70
     1
102
RTVSPost2010Prop33
280
     0
102
RTVSPost2010PropOp33
 70
     1
102
RTVSPost2010Prop34
280
     0
102
RTVSPost2010PropOp34
 70
     1
102
RTVSPost2010Prop35
280
     0
102
RTVSPost2010PropOp35
 70
     1
102
RTVSPost2010Prop36
280
     0
102
RTVSPost2010PropOp36
 70
     1
102
RTVSPost2010Prop37
 90
       50
102
RTVSPost2010PropOp37
 70
     1
102
RTVSPost2010Prop38
140
0.0
102
RTVSPost2010PropOp38
 70
     1
102
RTVSPost2010Prop39
140
1.0
102
RTVSPost2010PropOp39
 70
     1
102
RTVSPost2010Prop40
 90
        0
102
RTVSPost2010PropOp40
 70
     1
102
RTVSPost2010Prop41ColorIndex
 90
       18
102
RTVSPost2010Prop41ColorRGB
 90
        0
102
RTVSPost2010PropOp41
 70
     1
102
RTVSPost2010Prop42
 90
       50
102
RTVSPost2010PropOp42
 70
     1
102
RTVSPost2010Prop43
 90
        3
102
RTVSPost2010PropOp43
 70
     1
102
RTVSPost2010Prop44ColorIndex
 90
        5
102
RTVSPost2010Prop44ColorRGB
 90
      255
102
RTVSPost2010PropOp44
 70
     1
102
RTVSPost2010Prop45
280
     0
102
RTVSPost2010PropOp45
 70
     1
102
RTVSPost2010Prop46
 90
       50
102
RTVSPost2010PropOp46
 70
     1
102
RTVSPost2010Prop47
 90
       50
102
RTVSPost2010PropOp47
 70
     1
102
RTVSPost2010Prop48
 90
       50
102
RTVSPost2010PropOp48
 70
     1
102
RTVSPost2010Prop49
280
     0
102
RTVSPost2010PropOp49
 70
     1
102
RTVSPost2010Prop50
 90
       50
102
RTVSPost2010PropOp50
 70
     1
102
RTVSPost2010Prop51ColorIndex
 90
      256
102
RTVSPost2010Prop51ColorRGB
 90
-16777216
102
RTVSPost2010PropOp51
 70
     0
102
RTVSPost2010Prop52
140
1.0
102
RTVSPost2010PropOp52
 70
     0
102
RTVSPost2010Prop53
 90
        2
102
RTVSPost2010PropOp53
 70
     1
102
RTVSPost2010Prop54
  1
strokes_ogs.tif
102
RTVSPost2010PropOp54
 70
     1
102
RTVSPost2010Prop55
280
     0
102
RTVSPost2010PropOp55
 70
     1
102
RTVSPost2010Prop56
140
1.0
102
RTVSPost2010PropOp56
 70
     1
102
RTVSPost2010Prop57
140
1.0
102
RTVSPost2010PropOp57
 70
     1
  0
ENDSEC
  0
EOF
