  0
SECTION
  2
HEADER
  9
$ACADVER
  1
AC1021
  9
$ACADMAINTVER
 70
    25
  9
$DWGCODEPAGE
  3
ANSI_1252
  9
$INSBASE
 10
0.0
 20
0.0
 30
0.0
  9
$EXTMIN
 10
1.000000000000000E+20
 20
1.000000000000000E+20
 30
1.000000000000000E+20
  9
$EXTMAX
 10
-1.000000000000000E+20
 20
-1.000000000000000E+20
 30
-1.000000000000000E+20
  9
$LIMMIN
 10
0.0
 20
0.0
  9
$LIMMAX
 10
12.0
 20
9.0
  9
$ORTHOMODE
 70
     0
  9
$REGENMODE
 70
     1
  9
$FILLMODE
 70
     1
  9
$QTEXTMODE
 70
     0
  9
$MIRRTEXT
 70
     1
  9
$LTSCALE
 40
1.0
  9
$ATTMODE
 70
     1
  9
$TEXTSIZE
 40
0.2
  9
$TRACEWID
 40
0.05
  9
$TEXTSTYLE
  7
Standard
  9
$CLAYER
  8
Layer 01
  9
$CELTYPE
  6
ByLayer
  9
$CECOLOR
 62
   256
  9
$CELTSCALE
 40
1.0
  9
$DISPSILH
 70
     0
  9
$DIMSCALE
 40
1.0
  9
$DIMASZ
 40
0.18
  9
$DIMEXO
 40
0.0625
  9
$DIMDLI
 40
0.38
  9
$DIMRND
 40
0.0
  9
$DIMDLE
 40
0.0
  9
$DIMEXE
 40
0.18
  9
$DIMTP
 40
0.0
  9
$DIMTM
 40
0.0
  9
$DIMTXT
 40
0.18
  9
$DIMCEN
 40
0.09
  9
$DIMTSZ
 40
0.0
  9
$DIMTOL
 70
     0
  9
$DIMLIM
 70
     0
  9
$DIMTIH
 70
     1
  9
$DIMTOH
 70
     1
  9
$DIMSE1
 70
     0
  9
$DIMSE2
 70
     0
  9
$DIMTAD
 70
     0
  9
$DIMZIN
 70
     0
  9
$DIMBLK
  1

  9
$DIMASO
 70
     1
  9
$DIMSHO
 70
     1
  9
$DIMPOST
  1

  9
$DIMAPOST
  1

  9
$DIMALT
 70
     0
  9
$DIMALTD
 70
     2
  9
$DIMALTF
 40
25.4
  9
$DIMLFAC
 40
1.0
  9
$DIMTOFL
 70
     0
  9
$DIMTVP
 40
0.0
  9
$DIMTIX
 70
     0
  9
$DIMSOXD
 70
     0
  9
$DIMSAH
 70
     0
  9
$DIMBLK1
  1

  9
$DIMBLK2
  1

  9
$DIMSTYLE
  2
STANDARD_ACAD
  9
$DIMCLRD
 70
     0
  9
$DIMCLRE
 70
     0
  9
$DIMCLRT
 70
     0
  9
$DIMTFAC
 40
1.0
  9
$DIMGAP
 40
0.09
  9
$DIMJUST
 70
     0
  9
$DIMSD1
 70
     0
  9
$DIMSD2
 70
     0
  9
$DIMTOLJ
 70
     1
  9
$DIMTZIN
 70
     0
  9
$DIMALTZ
 70
     0
  9
$DIMALTTZ
 70
     0
  9
$DIMUPT
 70
     0
  9
$DIMDEC
 70
     4
  9
$DIMTDEC
 70
     4
  9
$DIMALTU
 70
     2
  9
$DIMALTTD
 70
     2
  9
$DIMTXSTY
  7
Standard
  9
$DIMAUNIT
 70
     0
  9
$DIMADEC
 70
     0
  9
$DIMALTRND
 40
0.0
  9
$DIMAZIN
 70
     0
  9
$DIMDSEP
 70
    46
  9
$DIMATFIT
 70
     3
  9
$DIMFRAC
 70
     0
  9
$DIMLDRBLK
  1

  9
$DIMLUNIT
 70
     2
  9
$DIMLWD
 70
    -2
  9
$DIMLWE
 70
    -2
  9
$DIMTMOVE
 70
     2
  9
$DIMFXL
 40
1.0
  9
$DIMFXLON
 70
     0
  9
$DIMJOGANG
 40
0.7853981633974483
  9
$DIMTFILL
 70
     0
  9
$DIMTFILLCLR
 70
     0
  9
$DIMARCSYM
 70
     0
  9
$DIMLTYPE
  6

  9
$DIMLTEX1
  6

  9
$DIMLTEX2
  6

  9
$LUNITS
 70
     2
  9
$LUPREC
 70
     3
  9
$SKETCHINC
 40
0.1
  9
$FILLETRAD
 40
0.5
  9
$AUNITS
 70
     0
  9
$AUPREC
 70
     0
  9
$MENU
  1
.
  9
$ELEVATION
 40
0.0
  9
$PELEVATION
 40
0.0
  9
$THICKNESS
 40
0.0
  9
$LIMCHECK
 70
     0
  9
$CHAMFERA
 40
0.0
  9
$CHAMFERB
 40
0.0
  9
$CHAMFERC
 40
0.0
  9
$CHAMFERD
 40
0.0
  9
$SKPOLY
 70
     0
  9
$TDCREATE
 40
2458610.459148067
  9
$TDUCREATE
 40
2458610.625814734
  9
$TDUPDATE
 40
2458610.45916434
  9
$TDUUPDATE
 40
2458610.625831007
  9
$TDINDWG
 40
0.0000000116
  9
$TDUSRTIMER
 40
0.0000000116
  9
$USRTIMER
 70
     1
  9
$ANGBASE
 50
0.0
  9
$ANGDIR
 70
     0
  9
$PDMODE
 70
     0
  9
$PDSIZE
 40
0.0
  9
$PLINEWID
 40
0.0
  9
$SPLFRAME
 70
     0
  9
$SPLINETYPE
 70
     6
  9
$SPLINESEGS
 70
     8
  9
$HANDSEED
  5
EA
  9
$SURFTAB1
 70
     6
  9
$SURFTAB2
 70
     6
  9
$SURFTYPE
 70
     6
  9
$SURFU
 70
     6
  9
$SURFV
 70
     6
  9
$UCSBASE
  2

  9
$UCSNAME
  2

  9
$UCSORG
 10
0.0
 20
0.0
 30
0.0
  9
$UCSXDIR
 10
1.0
 20
0.0
 30
0.0
  9
$UCSYDIR
 10
0.0
 20
1.0
 30
0.0
  9
$UCSORTHOREF
  2

  9
$UCSORTHOVIEW
 70
     0
  9
$UCSORGTOP
 10
0.0
 20
0.0
 30
0.0
  9
$UCSORGBOTTOM
 10
0.0
 20
0.0
 30
0.0
  9
$UCSORGLEFT
 10
0.0
 20
0.0
 30
0.0
  9
$UCSORGRIGHT
 10
0.0
 20
0.0
 30
0.0
  9
$UCSORGFRONT
 10
0.0
 20
0.0
 30
0.0
  9
$UCSORGBACK
 10
0.0
 20
0.0
 30
0.0
  9
$PUCSBASE
  2

  9
$PUCSNAME
  2

  9
$PUCSORG
 10
0.0
 20
0.0
 30
0.0
  9
$PUCSXDIR
 10
1.0
 20
0.0
 30
0.0
  9
$PUCSYDIR
 10
0.0
 20
1.0
 30
0.0
  9
$PUCSORTHOREF
  2

  9
$PUCSORTHOVIEW
 70
     0
  9
$PUCSORGTOP
 10
0.0
 20
0.0
 30
0.0
  9
$PUCSORGBOTTOM
 10
0.0
 20
0.0
 30
0.0
  9
$PUCSORGLEFT
 10
0.0
 20
0.0
 30
0.0
  9
$PUCSORGRIGHT
 10
0.0
 20
0.0
 30
0.0
  9
$PUCSORGFRONT
 10
0.0
 20
0.0
 30
0.0
  9
$PUCSORGBACK
 10
0.0
 20
0.0
 30
0.0
  9
$USERI1
 70
     0
  9
$USERI2
 70
     0
  9
$USERI3
 70
     0
  9
$USERI4
 70
     0
  9
$USERI5
 70
     0
  9
$USERR1
 40
0.0
  9
$USERR2
 40
0.0
  9
$USERR3
 40
0.0
  9
$USERR4
 40
0.0
  9
$USERR5
 40
0.0
  9
$WORLDVIEW
 70
     1
  9
$SHADEDGE
 70
     3
  9
$SHADEDIF
 70
    70
  9
$TILEMODE
 70
     1
  9
$MAXACTVP
 70
    64
  9
$PINSBASE
 10
0.0
 20
0.0
 30
0.0
  9
$PLIMCHECK
 70
     0
  9
$PEXTMIN
 10
1.000000000000000E+20
 20
1.000000000000000E+20
 30
1.000000000000000E+20
  9
$PEXTMAX
 10
-1.000000000000000E+20
 20
-1.000000000000000E+20
 30
-1.000000000000000E+20
  9
$PLIMMIN
 10
0.0
 20
0.0
  9
$PLIMMAX
 10
12.0
 20
9.0
  9
$UNITMODE
 70
     0
  9
$VISRETAIN
 70
     1
  9
$PLINEGEN
 70
     0
  9
$PSLTSCALE
 70
     1
  9
$TREEDEPTH
 70
  3020
  9
$CMLSTYLE
  2
Standard
  9
$CMLJUST
 70
     0
  9
$CMLSCALE
 40
1.0
  9
$PROXYGRAPHICS
 70
     1
  9
$MEASUREMENT
 70
     0
  9
$CELWEIGHT
370
    -1
  9
$ENDCAPS
280
     0
  9
$JOINSTYLE
280
     0
  9
$LWDISPLAY
290
     0
  9
$INSUNITS
 70
     1
  9
$HYPERLINKBASE
  1

  9
$STYLESHEET
  1

  9
$XEDIT
290
     1
  9
$CEPSNTYPE
380
     0
  9
$PSTYLEMODE
290
     1
  9
$FINGERPRINTGUID
  2
{2e826602-7a2c-4b1f-b864-b03aa3fbdcdc}
  9
$VERSIONGUID
  2
{FAEB1C32-E019-11D5-929B-00C0DF256EC4}
  9
$EXTNAMES
290
     1
  9
$PSVPSCALE
 40
0.0
  9
$OLESTARTUP
290
     0
  9
$SORTENTS
280
   127
  9
$INDEXCTL
280
     0
  9
$HIDETEXT
280
     1
  9
$XCLIPFRAME
290
     0
  9
$HALOGAP
280
     0
  9
$OBSCOLOR
 70
   257
  9
$OBSLTYPE
280
     0
  9
$INTERSECTIONDISPLAY
280
     0
  9
$INTERSECTIONCOLOR
 70
   257
  9
$DIMASSOC
280
     2
  9
$PROJECTNAME
  1

  9
$CAMERADISPLAY
290
     0
  9
$LENSLENGTH
 40
50.0
  9
$CAMERAHEIGHT
 40
0.0
  9
$STEPSPERSEC
 40
2.0
  9
$STEPSIZE
 40
6.0
  9
$3DDWFPREC
 40
2.0
  9
$PSOLWIDTH
 40
0.25
  9
$PSOLHEIGHT
 40
4.0
  9
$LOFTANG1
 40
1.570796326794897
  9
$LOFTANG2
 40
1.570796326794897
  9
$LOFTMAG1
 40
0.0
  9
$LOFTMAG2
 40
0.0
  9
$LOFTPARAM
 70
     7
  9
$LOFTNORMALS
280
     1
  9
$LATITUDE
 40
37.795
  9
$LONGITUDE
 40
-122.394
  9
$NORTHDIRECTION
 40
0.0
  9
$TIMEZONE
 70
 -8000
  9
$LIGHTGLYPHDISPLAY
280
     1
  9
$TILEMODELIGHTSYNCH
280
     1
  9
$CMATERIAL
347
44
  9
$SOLIDHIST
280
     0
  9
$SHOWHIST
280
     1
  9
$DWFFRAME
280
     2
  9
$DGNFRAME
280
     2
  9
$REALWORLDSCALE
290
     1
  9
$INTERFERECOLOR
 62
   256
  9
$CSHADOW
280
     0
  9
$SHADOWPLANELOCATION
 40
0.0
  0
ENDSEC
  0
SECTION
  2
CLASSES
  0
CLASS
  1
ACDBDICTIONARYWDFLT
  2
AcDbDictionaryWithDefault
  3
ObjectDBX Classes
 90
        0
 91
        3
280
     0
281
     0
  0
CLASS
  1
VISUALSTYLE
  2
AcDbVisualStyle
  3
ObjectDBX Classes
 90
     4095
 91
        3
280
     0
281
     0
  0
CLASS
  1
MATERIAL
  2
AcDbMaterial
  3
ObjectDBX Classes
 90
     1153
 91
        3
280
     0
281
     0
  0
CLASS
  1
SCALE
  2
AcDbScale
  3
ObjectDBX Classes
 90
     1153
 91
        3
280
     0
281
     0
  0
CLASS
  1
TABLESTYLE
  2
AcDbTableStyle
  3
ObjectDBX Classes
 90
     4095
 91
        3
280
     0
281
     0
  0
CLASS
  1
MLEADERSTYLE
  2
AcDbMLeaderStyle
  3
ACDB_MLEADERSTYLE_CLASS
 90
     4095
 91
        3
280
     0
281
     0
  0
CLASS
  1
SUN
  2
AcDbSun
  3
SCENEOE
 90
     1153
 91
        3
280
     0
281
     0
  0
CLASS
  1
DICTIONARYVAR
  2
AcDbDictionaryVar
  3
ObjectDBX Classes
 90
        0
 91
        3
280
     0
281
     0
  0
CLASS
  1
CELLSTYLEMAP
  2
AcDbCellStyleMap
  3
ObjectDBX Classes
 90
     1152
 91
        3
280
     0
281
     0
  0
ENDSEC
  0
SECTION
  2
TABLES
  0
TABLE
  2
VPORT
  5
8
330
0
100
AcDbSymbolTable
 70
     1
  0
VPORT
  5
29
330
8
100
AcDbSymbolTableRecord
100
AcDbViewportTableRecord
  2
*Active
 70
     0
 10
0.0
 20
0.0
 11
1.0
 21
1.0
 12
10.42990654205607
 22
4.5
 13
0.0
 23
0.0
 14
0.5
 24
0.5
 15
0.5
 25
0.5
 16
0.0
 26
0.0
 36
1.0
 17
0.0
 27
0.0
 37
0.0
 40
9.0
 41
1.972972972850329
 42
50.0
 43
0.0
 44
0.0
 50
0.0
 51
0.0
 71
     0
 72
   100
 73
     1
 74
     3
 75
     0
 76
     0
 77
     0
 78
     0
281
     0
 65
     1
110
0.0
120
0.0
130
0.0
111
1.0
121
0.0
131
0.0
112
0.0
122
1.0
132
0.0
 79
     0
146
0.0
348
2F
 60
     3
 61
     5
292
     1
282
     1
141
0.0
142
0.0
 63
   250
361
6D
  0
ENDTAB
  0
TABLE
  2
LTYPE
  5
5
330
0
100
AcDbSymbolTable
 70
     1
  0
LTYPE
  5
14
330
5
100
AcDbSymbolTableRecord
100
AcDbLinetypeTableRecord
  2
ByBlock
 70
     0
  3

 72
    65
 73
     0
 40
0.0
  0
LTYPE
  5
15
330
5
100
AcDbSymbolTableRecord
100
AcDbLinetypeTableRecord
  2
ByLayer
 70
     0
  3

 72
    65
 73
     0
 40
0.0
  0
LTYPE
  5
16
330
5
100
AcDbSymbolTableRecord
100
AcDbLinetypeTableRecord
  2
Continuous
 70
     0
  3
Solid line
 72
    65
 73
     0
 40
0.0
  0
ENDTAB
  0
TABLE
  2
LAYER
  5
2
330
0
100
AcDbSymbolTable
 70
     2
  0
LAYER
  5
10
330
2
100
AcDbSymbolTableRecord
100
AcDbLayerTableRecord
  2
0
 70
     0
 62
     7
  6
Continuous
370
    -3
390
F
347
46
  0
LAYER
  5
6E
330
2
100
AcDbSymbolTableRecord
100
AcDbLayerTableRecord
  2
Layer 01
 70
     0
 62
    18
420
        0
  6
Continuous
370
    -3
390
F
347
46
  0
ENDTAB
  0
TABLE
  2
STYLE
  5
3
330
0
100
AcDbSymbolTable
 70
     1
  0
STYLE
  5
11
330
3
100
AcDbSymbolTableRecord
100
AcDbTextStyleTableRecord
  2
Standard
 70
     0
 40
0.0
 41
1.0
 50
0.0
 71
     0
 42
0.2
  3
txt
  4

  0
ENDTAB
  0
TABLE
  2
VIEW
  5
6
330
0
100
AcDbSymbolTable
 70
     0
  0
ENDTAB
  0
TABLE
  2
UCS
  5
7
330
0
100
AcDbSymbolTable
 70
     0
  0
ENDTAB
  0
TABLE
  2
APPID
  5
9
330
0
100
AcDbSymbolTable
 70
     2
  0
APPID
  5
12
330
9
100
AcDbSymbolTableRecord
100
AcDbRegAppTableRecord
  2
ACAD
 70
     0
  0
APPID
  5
E2
330
9
100
AcDbSymbolTableRecord
100
AcDbRegAppTableRecord
  2
ACAD_MLEADERVER
 70
     0
  0
ENDTAB
  0
TABLE
  2
DIMSTYLE
  5
A
330
0
100
AcDbSymbolTable
 70
     1
100
AcDbDimStyleTable
  0
DIMSTYLE
105
27
330
A
100
AcDbSymbolTableRecord
100
AcDbDimStyleTableRecord
  2
STANDARD_ACAD
 70
     0
178
     0
340
11
  0
ENDTAB
  0
TABLE
  2
BLOCK_RECORD
  5
1
330
0
100
AcDbSymbolTable
 70
     1
  0
BLOCK_RECORD
  5
1F
330
1
100
AcDbSymbolTableRecord
100
AcDbBlockTableRecord
  2
*Model_Space
340
22
 70
     0
280
     1
281
     0
  0
BLOCK_RECORD
  5
1B
330
1
100
AcDbSymbolTableRecord
100
AcDbBlockTableRecord
  2
*Paper_Space
340
1E
 70
     0
280
     1
281
     0
  0
BLOCK_RECORD
  5
23
330
1
100
AcDbSymbolTableRecord
100
AcDbBlockTableRecord
  2
*Paper_Space0
340
26
 70
     0
280
     1
281
     0
  0
ENDTAB
  0
ENDSEC
  0
SECTION
  2
BLOCKS
  0
BLOCK
  5
20
330
1F
100
AcDbEntity
  8
0
100
AcDbBlockBegin
  2
*Model_Space
 70
     0
 10
0.0
 20
0.0
 30
0.0
  3
*Model_Space
  1

  0
ENDBLK
  5
21
330
1F
100
AcDbEntity
  8
0
100
AcDbBlockEnd
  0
BLOCK
  5
1C
330
1B
100
AcDbEntity
 67
     1
  8
0
100
AcDbBlockBegin
  2
*Paper_Space
 70
     0
 10
0.0
 20
0.0
 30
0.0
  3
*Paper_Space
  1

  0
ENDBLK
  5
1D
330
1B
100
AcDbEntity
 67
     1
  8
0
100
AcDbBlockEnd
  0
BLOCK
  5
24
330
23
100
AcDbEntity
  8
0
100
AcDbBlockBegin
  2
*Paper_Space0
 70
     0
 10
0.0
 20
0.0
 30
0.0
  3
*Paper_Space0
  1

  0
ENDBLK
  5
25
330
23
100
AcDbEntity
  8
0
100
AcDbBlockEnd
  0
ENDSEC
  0
SECTION
  2
ENTITIES
  0
SPLINE
  5
6F
330
1F
100
AcDbEntity
  8
Layer 01
100
AcDbSpline
210
0.0
220
0.0
230
1.0
 70
     8
 71
     3
 72
    70
 73
    66
 74
     0
 42
0.000000001
 43
0.0000000001
 40
47.25073437913524
 40
47.25073437913524
 40
47.25073437913524
 40
47.25073437913524
 40
48.88261089875702
 40
48.88261089875702
 40
48.88261089875702
 40
49.88261089875702
 40
49.88261089875702
 40
50.88261089875702
 40
50.88261089875702
 40
51.88261089875702
 40
51.88261089875702
 40
52.88261089875702
 40
52.88261089875702
 40
53.88261089875702
 40
53.88261089875702
 40
54.88261089875702
 40
54.88261089875702
 40
55.88261089875702
 40
55.88261089875702
 40
56.88261089875702
 40
56.88261089875702
 40
57.88261089875702
 40
57.88261089875702
 40
58.88261089875702
 40
58.88261089875702
 40
59.88261089875702
 40
59.88261089875702
 40
60.88261089875702
 40
60.88261089875702
 40
61.88261089875702
 40
61.88261089875702
 40
62.88261089875702
 40
62.88261089875702
 40
62.88261089875702
 40
63.62200225394449
 40
65.31991684055814
 40
67.01783142717179
 40
67.75722278235604
 40
67.75722278235604
 40
67.75722278235604
 40
68.75722278235604
 40
68.75722278235604
 40
69.75722278235604
 40
69.75722278235604
 40
70.75722278235604
 40
70.75722278235604
 40
71.75722278235604
 40
71.75722278235604
 40
72.75722278235604
 40
72.75722278235604
 40
73.75722278235604
 40
73.75722278235604
 40
74.75722278235604
 40
74.75722278235604
 40
75.75722278235604
 40
75.75722278235604
 40
76.75722278235604
 40
76.75722278235604
 40
77.75722278235604
 40
77.75722278235604
 40
78.75722278235604
 40
78.75722278235604
 40
79.75722278235604
 40
79.75722278235604
 40
80.09548258871335
 40
80.09548258871335
 40
80.09548258871335
 40
80.09548258871335
 10
73.39186376938267
 20
9.942999999999692
 30
-0.0000000000000002
 10
72.84790492950874
 20
9.942999999999692
 30
-0.0000000000000002
 10
72.30394608963482
 20
9.942999999999694
 30
-0.0000000000000002
 10
71.7599872497609
 20
9.942999999999696
 30
-0.0000000000000002
 10
71.46697432854158
 20
10.26921493549422
 30
-0.0000000000000002
 10
71.24050666387198
 20
10.63581511067357
 30
-0.0000000000000002
 10
70.92066184763215
 20
11.44978594040194
 30
-0.0000000000000002
 10
70.77322721435652
 20
11.85940673441593
 30
-0.0000000000000002
 10
70.50333349749391
 20
12.68391908074354
 30
-0.0000000000000002
 10
70.37711795217524
 20
13.09912475271143
 30
-0.0000000000000002
 10
70.14214948776318
 20
13.9354350942554
 30
-0.0000000000000002
 10
70.02894045532527
 20
14.3546718165021
 30
-0.0000000000000002
 10
69.81107278998563
 20
15.19530836394495
 30
-0.0000000000000002
 10
69.70626991103968
 20
15.61666564018982
 30
-0.0000000000000002
 10
69.50492606059542
 20
16.46145819772644
 30
-0.0000000000000002
 10
69.40739995949366
 20
16.8845728002038
 30
-0.0000000000000002
 10
69.21863940553082
 20
17.73223865257662
 30
-0.0000000000000002
 10
69.12451470323943
 20
18.15612696178144
 30
-0.0000000000000002
 10
68.93677644803672
 20
19.00401434622792
 30
-0.0000000000000002
 10
68.84271689715969
 20
19.42791550780456
 30
-0.0000000000000002
 10
68.65421694885428
 20
20.27563276966461
 30
-0.0000000000000002
 10
68.56082001352245
 20
20.69968366181313
 30
-0.0000000000000002
 10
68.37573222050044
 20
21.54816996854719
 30
-0.0000000000000002
 10
68.28770276508725
 20
21.97335522824709
 30
-0.0000000000000002
 10
68.12067273645646
 20
22.82560996031263
 30
-0.0000000000000002
 10
68.04498962458358
 20
23.25317288466289
 30
-0.0000000000000002
 10
67.90928720572289
 20
24.1111698499984
 30
-0.0000000000000002
 10
67.85095076055822
 20
24.54126313358679
 30
-0.0000000000000002
 10
67.75330739876026
 20
25.40363930260485
 30
-0.0000000000000002
 10
67.7230939650778
 20
25.83770748487354
 30
-0.0000000000000002
 10
67.69988359214601
 20
26.71160404493024
 30
-0.0000000000000002
 10
67.76148282314874
 20
27.13833142197626
 30
-0.0000000000000002
 10
67.89628647162006
 20
27.55483789603997
 30
-0.0000000000000002
 10
68.08312309598126
 20
27.72079740006005
 30
-0.0000000000000002
 10
68.75059570263109
 20
28.17736894776612
 30
-0.0000000000000002
 10
70.09046553970101
 20
28.55644220728893
 30
-0.0000000000000002
 10
71.46529214204996
 20
28.77884587294177
 30
-0.0000000000000002
 10
72.26280091935779
 20
28.64774819350667
 30
-0.0000000000000002
 10
72.50245103385193
 20
28.57600000037695
 30
-0.0000000000000002
 10
72.83598398618358
 20
28.43126203891944
 30
-0.0000000000000002
 10
73.14266145106721
 20
28.24370631840409
 30
-0.0000000000000002
 10
73.70230540593839
 20
27.78295935925773
 30
-0.0000000000000002
 10
73.95293002449044
 20
27.52459476639913
 30
-0.0000000000000002
 10
74.39578454382742
 20
26.95188335411105
 30
-0.0000000000000002
 10
74.59434199011484
 20
26.65089132073584
 30
-0.0000000000000002
 10
74.94571725592759
 20
26.01963459952307
 30
-0.0000000000000002
 10
75.10464866172357
 20
25.69587936629022
 30
-0.0000000000000002
 10
75.38899901909478
 20
25.03211515457156
 30
-0.0000000000000002
 10
75.51803634031937
 20
24.69525961317403
 30
-0.0000000000000002
 10
75.74983526784645
 20
24.01160165930258
 30
-0.0000000000000002
 10
75.85545768583977
 20
23.66666057673458
 30
-0.0000000000000002
 10
76.04614843028594
 20
22.97055420033398
 30
-0.0000000000000002
 10
76.13506721700924
 20
22.62089376354167
 30
-0.0000000000000002
 10
76.30005161945626
 20
21.91835839277307
 30
-0.0000000000000002
 10
76.37970476640562
 20
21.56645319183616
 30
-0.0000000000000002
 10
76.5333329517562
 20
20.86136775885715
 30
-0.0000000000000002
 10
76.60590169067716
 20
20.50794286932742
 30
-0.0000000000000002
 10
76.74254846101049
 20
19.79932874418752
 30
-0.0000000000000002
 10
76.8042898607652
 20
19.4438711882055
 30
-0.0000000000000002
 10
76.9146086894507
 20
18.73065508941727
 30
-0.0000000000000002
 10
76.96094521897157
 20
18.37284588911523
 30
-0.0000000000000002
 10
77.03597250836947
 20
17.6548251866953
 30
-0.0000000000000002
 10
77.0591004350441
 20
17.29492619456917
 30
-0.0000000000000002
 10
77.07079978149963
 20
16.81209860663789
 30
-0.0000000000000002
 10
77.07087766529952
 20
16.69005241946226
 30
-0.0000000000000002
 10
77.06807629509409
 20
16.56799999999999
 30
-0.0000000000000002
  0
SPLINE
  5
70
330
1F
100
AcDbEntity
  8
Layer 01
100
AcDbSpline
210
0.0
220
0.0
230
1.0
 70
    24
 71
     3
 72
     8
 73
     4
 74
     0
 42
0.000000001
 43
0.0000000001
 40
43.93761088688021
 40
43.93761088688021
 40
43.93761088688021
 40
43.93761088688021
 40
47.25073437913524
 40
47.25073437913524
 40
47.25073437913524
 40
47.25073437913524
 10
76.70498726163775
 20
9.942999999999687
 30
-0.0000000000000002
 10
75.60061276421939
 20
9.942999999999689
 30
-0.0000000000000002
 10
74.49623826680104
 20
9.942999999999692
 30
-0.0000000000000002
 10
73.3918637693827
 20
9.942999999999694
 30
-0.0000000000000002
  0
SPLINE
  5
71
330
1F
100
AcDbEntity
  8
Layer 01
100
AcDbSpline
210
0.0
220
0.0
230
1.0
 70
     8
 71
     2
 72
    15
 73
    12
 74
     0
 42
0.000000001
 43
0.0000000001
 40
44.47941482112188
 40
44.47941482112188
 40
44.47941482112188
 40
44.55799997279415
 40
45.55799997279415
 40
46.55799997279415
 40
47.55799997279415
 40
48.55799997279415
 40
49.55799997279415
 40
50.55799997279415
 40
51.55799997279415
 40
52.55799997279415
 40
53.55399108404778
 40
53.55399108404778
 40
53.55399108404778
 10
99.58644925135249
 20
10.43173442655681
 30
-0.0000000033706122
 10
99.60110640217545
 20
10.44699081604191
 30
-0.0000000033706122
 10
99.79575650482147
 20
10.66575028862729
 30
-0.0000000033706132
 10
99.9384575378225
 20
11.19232210548462
 30
-0.0000000033706121
 10
100.0154628918592
 20
11.72426040066719
 30
-0.0000000033706123
 10
100.0526669226883
 20
12.26150279182536
 30
-0.0000000033706122
 10
100.0628146848647
 20
12.79964563940535
 30
-0.0000000033706122
 10
100.0501207544514
 20
13.33772221016295
 30
-0.0000000033706122
 10
100.0105355867458
 20
13.87482679702087
 30
-0.0000000033706122
 10
99.92423280658875
 20
14.40565780886786
 30
-0.0000000033706122
 10
99.76785517282974
 20
14.92565754150955
 30
-0.0000000033706126
 10
99.5864492513577
 20
15.12836908177641
 30
-0.0000000033706105
  0
SPLINE
  5
72
330
1F
100
AcDbEntity
  8
Layer 01
100
AcDbSpline
210
2.130545794710607E-13
220
-1.441909277148578E-9
230
-1.0
 70
     8
 71
     2
 72
    10
 73
     7
 74
     0
 42
0.000000001
 43
0.0000000001
 40
21.534653727659
 40
21.534653727659
 40
21.534653727659
 40
21.71799997279414
 40
21.71799997279414
 40
40.55799997279415
 40
40.55799997279415
 40
40.56192153100284
 40
40.56192153100284
 40
40.56192153100284
 10
78.61693609098529
 20
9.943000000000005
 30
-0.0000000033746654
 10
78.68093381473105
 20
9.942417669232421
 30
-0.0000000033738121
 10
78.74498725001031
 20
9.943000000000001
 30
-0.0000000033706105
 10
88.16498725001031
 20
9.943
 30
-0.0000000033706105
 10
97.58498725001033
 20
9.942999999999998
 30
-0.0000000033706105
 10
97.58604250203989
 20
9.942995275423629
 30
-0.0000000033706105
 10
97.58709775239063
 20
9.942990814206793
 30
-0.0000000033706105
  0
LINE
  5
73
330
1F
100
AcDbEntity
  8
Layer 01
100
AcDbLine
 10
75.17411922930337
 20
16.52488359236114
 30
-0.0000000000000002
 11
72.50245099869532
 21
28.5760000109024
 31
-0.0000000000000002
  0
LINE
  5
74
330
1F
100
AcDbEntity
  8
Layer 01
100
AcDbLine
 10
71.58644925135758
 20
10.90958928449559
 30
-0.0000000000000002
 11
67.89628647270051
 21
27.55483789627949
 31
-0.0000000000000002
  0
LINE
  5
75
330
1F
100
AcDbEntity
  8
Layer 01
100
AcDbLine
 10
71.80073693687585
 20
9.942999999999696
 30
-0.0000000000000002
 11
71.71811655749529
 21
10.31567644753836
 31
-0.0000000000000002
  0
SPLINE
  5
76
330
1F
100
AcDbEntity
  8
Layer 01
100
AcDbSpline
210
0.0
220
0.0
230
1.0
 70
    11
 71
     2
 72
    48
 73
    45
 74
     0
 42
0.000000001
 43
0.0000000001
 40
90.40653886290555
 40
90.40653886290555
 40
90.40653886290555
 40
110.4025396797031
 40
110.4025396797031
 40
111.4025396797031
 40
112.4025396797031
 40
113.4025396797031
 40
114.4025396797031
 40
115.4025396797031
 40
116.4025396797031
 40
117.4025396797031
 40
118.4025396797031
 40
118.4025396797031
 40
136.902539679851
 40
136.902539679851
 40
137.902539679851
 40
138.902539679851
 40
139.902539679851
 40
140.902539679851
 40
141.902539679851
 40
142.902539679851
 40
143.902539679851
 40
144.902539679851
 40
144.902539679851
 40
164.8985402094916
 40
164.8985402094916
 40
165.8985402094916
 40
166.8985402094916
 40
167.8985402094916
 40
168.8985402094916
 40
169.8985402094916
 40
170.8985402094916
 40
171.8985402094916
 40
172.8985402094916
 40
172.8985402094916
 40
192.8090785426087
 40
192.8090785426087
 40
193.8090785426087
 40
194.8090785426087
 40
195.8090785426087
 40
196.8090785426087
 40
197.8090785426087
 40
198.8090785426087
 40
199.8090785426087
 40
200.8090785426087
 40
200.8090785426087
 40
200.8090785426087
 10
42.00002207901044
 20
66.6714620866884
 30
0.0
 10
42.00002207895565
 20
56.67346167828962
 30
0.0
 10
42.00002207890086
 20
46.67546126989085
 30
0.0
 10
42.00715175133776
 20
46.31077551466715
 30
0.0
 10
41.80587059386099
 20
45.59453821337542
 30
0.0
 10
41.23266240325088
 20
45.12224666059669
 30
0.0
 10
40.51676084415679
 20
44.95406549753022
 30
0.0
 10
39.79410487505814
 20
44.87519445575367
 30
0.0
 10
39.06819330888007
 20
44.82337716522041
 30
0.0
 10
38.3412545688722
 20
44.79265307134834
 30
0.0
 10
37.61379536180932
 20
44.77839591365849
 30
0.0
 10
37.24999999517
 20
44.77846161102934
 30
0.0
 10
27.99999999506731
 20
44.77846161102934
 30
0.0
 10
18.74999999496463
 20
44.77846161102934
 30
0.0
 10
18.38620461301903
 20
44.77839591385416
 30
0.0
 10
17.65874544793861
 20
44.79265307067406
 30
0.0
 10
16.93180664190193
 20
44.82337716581068
 30
0.0
 10
16.20589507256675
 20
44.87519445932455
 30
0.0
 10
15.48323907919107
 20
44.95406550807811
 30
0.0
 10
14.76733749141057
 20
45.12224668422625
 30
0.0
 10
14.19412952531783
 20
45.59453829151055
 30
0.0
 10
13.99284721659265
 20
46.31077558431031
 30
0.0
 10
13.9999803589755
 20
46.67546142127159
 30
0.0
 10
13.99998035897154
 20
56.67346168609194
 30
0.0
 10
13.99998035896759
 20
66.67146195091229
 30
0.0
 10
13.99393885863825
 20
66.98133429129007
 30
0.0
 10
14.18037157985051
 20
67.58026137683314
 30
0.0
 10
14.65714647690567
 20
67.99425714745061
 30
0.0
 10
15.27209874746782
 20
68.10524113360586
 30
0.0
 10
15.88833189470719
 20
68.09156212095141
 30
0.0
 10
16.50443092140362
 20
68.09368388641181
 30
0.0
 10
17.1205531534059
 20
68.09338521647643
 30
0.0
 10
17.73667153168017
 20
68.09343077813378
 30
0.0
 10
18.04473082847251
 20
68.09386537318355
 30
0.0
 10
27.99999999503101
 20
68.09386537318353
 30
0.0
 10
37.95526916158952
 20
68.09386537318352
 30
0.0
 10
38.26332854818996
 20
68.0934307780187
 30
0.0
 10
38.87944680896192
 20
68.0933852164473
 30
0.0
 10
39.49556906820096
 20
68.09368388643736
 30
0.0
 10
40.11166808954511
 20
68.09156212073503
 30
0.0
 10
40.72790121103476
 20
68.10524113501407
 30
0.0
 10
41.34285346837152
 20
67.9942571514195
 30
0.0
 10
41.81962855458273
 20
67.5802614233506
 30
0.0
 10
42.00606012045832
 20
66.98133430824365
 30
0.0
 10
42.00002207901044
 20
66.6714620866884
 30
0.0
  0
SPLINE
  5
77
330
1F
100
AcDbEntity
  8
Layer 01
100
AcDbSpline
210
0.0
220
0.0
230
1.0
 70
     8
 71
     2
 72
    16
 73
    13
 74
     0
 42
0.000000001
 43
0.0000000001
 40
-4.0
 40
-4.0
 40
-4.0
 40
-3.0
 40
-2.0
 40
-1.0
 40
0.0
 40
0.0
 40
25.12400000015798
 40
25.12400000015798
 40
26.12400000015798
 40
27.12400000015798
 40
28.12400000015798
 40
29.12400000015798
 40
29.12400000015798
 40
29.12400000015798
 10
14.00000000301829
 20
72.33609249817502
 30
0.0
 10
14.08341378286753
 20
72.51629613002771
 30
0.0
 10
14.47940147085473
 20
72.60489391746736
 30
0.0
 10
14.85949771627585
 20
72.64591987784485
 30
0.0
 10
15.24535591431732
 20
72.66085408237132
 30
0.0
 10
15.43799999992101
 20
72.66075191743928
 30
0.0
 10
28.00000000000896
 20
72.66075191747763
 30
0.0
 10
40.56200000009691
 20
72.66075191751597
 30
0.0
 10
40.75464408568268
 20
72.66085408237132
 30
0.0
 10
41.14050228372415
 20
72.64591987784485
 30
0.0
 10
41.52059852914527
 20
72.60489391746736
 30
0.0
 10
41.91658621713247
 20
72.51629613002771
 30
0.0
 10
41.99999999698171
 20
72.33609249817502
 30
0.0
  0
SPLINE
  5
78
330
1F
100
AcDbEntity
  8
Layer 01
370
    -3
100
AcDbSpline
210
0.0
220
0.0
230
1.0
 70
    11
 71
     3
 72
    45
 73
    41
 74
     0
 42
0.000000001
 43
0.0000000001
 40
37.72714851366177
 40
37.72714851366177
 40
37.72714851366177
 40
37.72714851366177
 40
56.22714851529099
 40
56.22714851529099
 40
56.22714851529099
 40
57.22714851529099
 40
57.22714851529099
 40
57.22714851529099
 40
58.8302970293791
 40
58.8302970293791
 40
58.8302970293791
 40
59.8302970293791
 40
59.8302970293791
 40
60.8302970293791
 40
60.8302970293791
 40
61.8302970293791
 40
61.8302970293791
 40
62.8302970293791
 40
62.8302970293791
 40
63.8302970293791
 40
63.8302970293791
 40
63.8302970293791
 40
88.95429702895277
 40
88.95429702895277
 40
88.95429702895277
 40
89.95429702895277
 40
89.95429702895277
 40
90.95429702895277
 40
90.95429702895277
 40
91.95429702895277
 40
91.95429702895277
 40
92.95429702895277
 40
92.95429702895277
 40
93.95429702895277
 40
93.95429702895277
 40
93.95429702895277
 40
95.55744554304087
 40
95.55744554304087
 40
95.55744554304087
 40
96.55744554304087
 40
96.55744554304087
 40
96.55744554304087
 40
96.55744554304087
 10
37.25000000081464
 20
68.09386537318349
 30
0.0
 10
31.08333333360489
 20
68.09386537318349
 30
0.0
 10
24.91666666639514
 20
68.09386537318349
 30
0.0
 10
18.74999999918539
 20
68.09386537318349
 30
0.0
 10
16.29771818508565
 20
68.09386537318349
 30
0.0
 10
13.99999999845387
 20
68.17857108393005
 30
0.0
 10
13.99999999994704
 20
69.55789118155971
 30
0.0
 10
14.00000000261167
 20
72.01934646158533
 30
0.0
 10
14.0000000052763
 20
74.48080174161093
 30
0.0
 10
14.00000000794093
 20
76.94225702163655
 30
0.0
 10
14.03505269195209
 20
77.0463252309892
 30
0.0
 10
14.10479219515999
 20
77.11315831304121
 30
0.0
 10
14.31364483996929
 20
77.17235422254402
 30
0.0
 10
14.4161623151984
 20
77.19511381334068
 30
0.0
 10
14.61737957130556
 20
77.2269562670245
 30
0.0
 10
14.71903050330852
 20
77.23867636022408
 30
0.0
 10
14.92441697521321
 20
77.25371427933851
 30
0.0
 10
15.02710830126391
 20
77.25905874098878
 30
0.0
 10
15.23248713356205
 20
77.26539866847538
 30
0.0
 10
15.33522122782878
 20
77.26696124738814
 30
0.0
 10
15.43800000021317
 20
77.26691644147033
 30
0.0
 10
23.81266666673773
 20
77.26691644147033
 30
0.0
 10
32.18733333326227
 20
77.26691644147033
 30
0.0
 10
40.56199999978683
 20
77.26691644147033
 30
0.0
 10
40.66477877217122
 20
77.26696124738814
 30
0.0
 10
40.76751286643795
 20
77.26539866847538
 30
0.0
 10
40.97289169873608
 20
77.25905874098878
 30
0.0
 10
41.07558302478679
 20
77.25371427933851
 30
0.0
 10
41.28096949669148
 20
77.23867636022408
 30
0.0
 10
41.38262042869444
 20
77.2269562670245
 30
0.0
 10
41.5838376848016
 20
77.19511381334068
 30
0.0
 10
41.68635516003072
 20
77.17235422254403
 30
0.0
 10
41.89520780484001
 20
77.11315831304121
 30
0.0
 10
41.96494730804792
 20
77.0463252309892
 30
0.0
 10
41.99999999205907
 20
76.94225702163655
 30
0.0
 10
41.9999999947237
 20
74.48080174161093
 30
0.0
 10
41.99999999738833
 20
72.01934646158533
 30
0.0
 10
42.00000000005296
 20
69.55789118155971
 30
0.0
 10
42.00000000154613
 20
68.17857108393005
 30
0.0
 10
39.70228181491435
 20
68.09386537318349
 30
0.0
 10
37.25000000081464
 20
68.09386537318349
 30
0.0
  0
LINE
  5
79
330
1F
100
AcDbEntity
  8
Layer 01
100
AcDbLine
 10
76.74498724547264
 20
15.13000000000006
 30
0.0
 11
99.58498725001034
 21
15.13000000000006
 31
0.0
  0
SPLINE
  5
7A
330
1F
100
AcDbEntity
  8
Layer 01
100
AcDbSpline
210
0.0
220
0.0
230
1.0
 70
    12
 71
     2
 72
     6
 73
     3
 74
     0
 42
0.000000001
 43
0.0000000001
 40
2.936580973137862
 40
2.936580973137862
 40
2.936580973137862
 40
25.05307104046907
 40
25.05307104046907
 40
25.05307104046907
 10
71.86179819316835
 20
28.69677515739896
 30
-0.0000000000000002
 41
0.9997752227929934
 10
85.05775444905068
 20
29.09156757911292
 30
-0.0000000000000003
 41
0.9990411707719065
 10
98.24777651471304
 20
28.57599999634252
 30
-0.0000000000000003
 41
1.0
  0
SPLINE
  5
7B
330
1F
100
AcDbEntity
  8
Layer 01
100
AcDbSpline
210
0.0
220
0.0
230
1.0
 70
     8
 71
     2
 72
    12
 73
     9
 74
     0
 42
0.000000001
 43
0.0000000001
 40
-1.320534171182072
 40
-1.320534171182072
 40
-1.320534171182072
 40
24.3256252524886
 40
24.3256252524886
 40
25.32555840361186
 40
26.32559182805023
 40
27.3256252524886
 40
27.3256252524886
 40
39.30718123985673
 40
39.30718123985673
 40
39.30718123985673
 10
72.50245103387722
 20
28.57602792576799
 30
-0.0000000000000002
 10
85.32549044471668
 20
28.5760151301901
 30
-0.0000000000000005
 10
98.14852985555613
 20
28.57600233461221
 30
-0.0000000000000007
 10
98.55040446744361
 20
28.58766202481864
 30
-0.0000000000000011
 10
99.27929303073854
 20
28.23573670112798
 30
-0.0000000000000011
 10
99.59160964016736
 20
27.50012290609545
 30
-0.0000000000000011
 10
99.58644925135773
 20
27.11155598736747
 30
-0.0000000000000011
 10
99.58644925135773
 20
21.1207779936834
 30
-0.0000000000000011
 10
99.58644925135773
 20
15.12999999999933
 30
-0.0000000000000011
  0
SPLINE
  5
7C
330
1F
100
AcDbEntity
  8
Layer 01
100
AcDbSpline
210
0.0
220
0.0
230
1.0
 70
    11
 71
     2
 72
    28
 73
    25
 74
     0
 42
0.000000001
 43
0.0000000001
 40
55.21799999999969
 40
55.21799999999969
 40
55.21799999999969
 40
59.9359999999997
 40
59.9359999999997
 40
60.9359999999997
 40
61.9359999999997
 40
62.9359999999997
 40
62.9359999999997
 40
81.43599999999967
 40
81.43599999999967
 40
82.43599999999967
 40
83.43599999999967
 40
84.43599999999967
 40
84.43599999999967
 40
89.15399999999894
 40
89.15399999999894
 40
90.15399999999894
 40
91.15399999999894
 40
92.15399999999894
 40
92.15399999999894
 40
116.153999999999
 40
116.153999999999
 40
117.153999999999
 40
118.153999999999
 40
119.153999999999
 40
119.153999999999
 40
119.153999999999
 10
71.58644925135755
 20
10.41199999999979
 30
-0.0000000000000011
 10
71.58644925135766
 20
12.7709999999999
 30
-0.0000000000000013
 10
71.58644925135776
 20
15.13
 30
-0.0000000000000015
 10
72.13646764455012
 20
15.81239877979926
 30
-0.0000000000000002
 10
73.78343288723855
 20
16.37117948580423
 30
0.0000000000000007
 10
75.48073884350035
 20
16.57180023862512
 30
-0.0000000000000002
 10
76.3364492513578
 20
16.568
 30
-0.0000000000000011
 10
85.58644925135778
 20
16.56800000000004
 30
-0.0000000000000006
 10
94.83644925135775
 20
16.56800000000009
 30
-0.0000000000000002
 10
95.69215972588694
 20
16.57180023534393
 30
-0.0000000000000006
 10
97.38946561461017
 20
16.37117948370861
 30
-0.000000000000002
 10
99.03643085407856
 20
15.81239878298356
 30
-0.000000000000002
 10
99.58644925135773
 20
15.12999999999933
 30
-0.0000000000000011
 10
99.58644925135783
 20
12.77099999999951
 30
-0.000000000000002
 10
99.58644925135793
 20
10.41199999999969
 30
-0.0000000000000029
 10
99.31116587381646
 20
10.19045171502642
 30
0.0000000000000025
 10
98.63168503660067
 20
9.999429687490634
 30
0.0000000000000016
 10
97.93596592343054
 20
9.938032686346872
 30
0.0000000000000007
 10
97.58644925139149
 20
9.942999999999998
 30
-0.0000000000000011
 10
85.58644925136714
 20
9.942999999999998
 30
-0.0000000000000011
 10
73.5864492513428
 20
9.942999999999998
 30
-0.0000000000000011
 10
73.23693256439202
 20
9.938032687082519
 30
-0.0000000000000024
 10
72.54121347260596
 20
9.999429685742168
 30
-0.000000000000002
 10
71.8617326097165
 20
10.19045172384834
 30
-0.000000000000002
 10
71.58644925135755
 20
10.41199999999979
 30
-0.0000000000000011
  0
LINE
  5
7D
330
1F
100
AcDbEntity
  8
Layer 01
100
AcDbLine
 10
71.58644925135776
 20
15.13
 30
-0.0000000000000015
 11
99.58644925135773
 21
15.12999999999933
 31
-0.0000000000000015
  0
SPLINE
  5
7E
330
1F
100
AcDbEntity
  8
Layer 01
100
AcDbSpline
210
0.0
220
0.0
230
1.0
 70
    15
 71
     2
 72
    20
 73
    17
 74
     0
 42
0.000000001
 43
0.0000000001
 40
0.9678548837145905
 40
0.9678548837145905
 40
0.9678548837145905
 40
0.9798997598065563
 40
0.9798997598065563
 40
1.048224645498407
 40
1.048224645498407
 40
1.07929150618392
 40
1.07929150618392
 40
1.87318417556541
 40
1.87318417556541
 40
1.904251036250935
 40
1.904251036250935
 40
1.972575921942521
 40
1.972575921942521
 40
1.984621115031509
 40
1.984621115031509
 40
2.820152744843107
 40
2.820152744843107
 40
2.820152744843107
 10
96.5936166238127
 20
0.1000000000000008
 30
0.0
 41
0.9976981326287162
 10
96.5931415412545
 20
0.093991633277411
 30
0.0
 41
0.9976893249578147
 10
96.59324672900037
 20
0.0879654313517871
 30
0.0
 41
1.0
 10
96.59384294583782
 20
0.0538081916115227
 30
0.0
 41
1.0
 10
96.59443916267526
 20
0.0196509518712583
 30
0.0
 41
1.0
 10
96.59478217131607
 20
-0.0000000000000106
 30
0.0
 41
0.7132504491539862
 10
96.6144361165784
 20
0.0000000000000019
 30
0.0
 41
1.0
 10
97.01138245126913
 20
0.0000000000000011
 30
0.0
 41
1.0
 10
97.40832878595984
 20
0.0000000000000002
 30
0.0
 41
1.0
 10
97.4279827312222
 20
-0.0000000000000325
 30
0.0
 41
0.7132504491539274
 10
97.42832573986303
 20
0.0196509518712628
 30
0.0
 41
1.0
 10
97.42892195670045
 20
0.0538081916115288
 30
0.0
 41
1.0
 10
97.42951817353787
 20
0.0879654313517948
 30
0.0
 41
1.0
 10
97.42962336402161
 20
0.0939916343525053
 30
0.0
 41
0.9976891428130761
 10
97.42914825362426
 20
0.1000000000000008
 30
0.0
 41
0.9976980122271819
 10
97.01138243871848
 20
0.1000000000000008
 30
0.0
 41
0.9976980122271819
 10
96.5936166238127
 20
0.1000000000000008
 30
0.0
 41
0.9976980122271819
  0
SPLINE
  5
7F
330
1F
100
AcDbEntity
  8
Layer 01
100
AcDbSpline
210
0.0
220
0.0
230
1.0
 70
    15
 71
     2
 72
    20
 73
    17
 74
     0
 42
0.000000001
 43
0.0000000001
 40
0.9678548837145905
 40
0.9678548837145905
 40
0.9678548837145905
 40
0.9798997598065563
 40
0.9798997598065563
 40
1.048224645498407
 40
1.048224645498407
 40
1.07929150618392
 40
1.07929150618392
 40
1.87318417556541
 40
1.87318417556541
 40
1.904251036250935
 40
1.904251036250935
 40
1.972575921942521
 40
1.972575921942521
 40
1.984621115031509
 40
1.984621115031509
 40
2.820152744843107
 40
2.820152744843107
 40
2.820152744843107
 10
74.57928187889407
 20
0.1000000000000008
 30
0.0
 41
0.9976981326287162
 10
74.57975696145228
 20
0.093991633277411
 30
0.0
 41
0.9976893249578147
 10
74.5796517737064
 20
0.0879654313517871
 30
0.0
 41
1.0
 10
74.57905555686895
 20
0.0538081916115227
 30
0.0
 41
1.0
 10
74.57845934003151
 20
0.0196509518712583
 30
0.0
 41
1.0
 10
74.5781163313907
 20
-0.0000000000000106
 30
0.0
 41
0.7132504491539862
 10
74.55846238612837
 20
0.0000000000000019
 30
0.0
 41
1.0
 10
74.16151605143764
 20
0.0000000000000011
 30
0.0
 41
1.0
 10
73.76456971674693
 20
0.0000000000000002
 30
0.0
 41
1.0
 10
73.74491577148459
 20
-0.0000000000000325
 30
0.0
 41
0.7132504491539274
 10
73.74457276284375
 20
0.0196509518712628
 30
0.0
 41
1.0
 10
73.74397654600632
 20
0.0538081916115288
 30
0.0
 41
1.0
 10
73.7433803291689
 20
0.0879654313517948
 30
0.0
 41
1.0
 10
73.74327513868516
 20
0.0939916343525053
 30
0.0
 41
0.9976891428130761
 10
73.74375024908248
 20
0.1000000000000008
 30
0.0
 41
0.9976980122271819
 10
74.16151606398827
 20
0.1000000000000008
 30
0.0
 41
0.9976980122271819
 10
74.57928187889404
 20
0.1000000000000008
 30
0.0
 41
0.9976980122271819
  0
SPLINE
  5
80
330
1F
100
AcDbEntity
  8
Layer 01
100
AcDbSpline
210
0.0
220
0.0
230
1.0
 70
    12
 71
     2
 72
    10
 73
     7
 74
     0
 42
0.000000001
 43
0.0000000001
 40
0.0000064887565516
 40
0.0000064887565516
 40
0.0000064887565516
 40
1.570796326794897
 40
1.570796326794897
 40
3.141592653589793
 40
3.141592653589793
 40
3.141597746554138
 40
3.141597746554138
 40
3.141597746554138
 10
73.63662352265047
 20
8.170999999999998
 30
0.0
 41
0.9999975802019533
 10
73.63662672520428
 20
7.811002103088856
 30
0.0
 41
0.7071079910905688
 10
74.34752257228092
 20
7.811000226199553
 30
0.0
 41
1.0
 10
75.05842257238089
 20
7.810998349299286
 30
0.0
 41
0.7071067811865475
 10
75.05842352284382
 20
8.170998349298031
 30
0.0
 41
1.0
 10
75.058423522846
 20
8.170999174649015
 30
0.0
 41
0.9999990503576468
 10
75.0584235228407
 20
8.171000000000001
 30
0.0
 41
0.9999981007214516
  0
SPLINE
  5
81
330
1F
100
AcDbEntity
  8
Layer 01
100
AcDbSpline
210
0.0
220
0.0
230
1.0
 70
    12
 71
     2
 72
    10
 73
     7
 74
     0
 42
0.000000001
 43
0.0000000001
 40
0.0000064887565516
 40
0.0000064887565516
 40
0.0000064887565516
 40
1.570796326794897
 40
1.570796326794897
 40
3.141592653589793
 40
3.141592653589793
 40
3.141597746554138
 40
3.141597746554138
 40
3.141597746554138
 10
97.53644925134122
 20
8.170999999999998
 30
0.0
 41
0.9999975802019533
 10
97.5364460487874
 20
7.811002103088856
 30
0.0
 41
0.7071079910905688
 10
96.82555020171077
 20
7.811000226199553
 30
0.0
 41
1.0
 10
96.11465020161079
 20
7.810998349299286
 30
0.0
 41
0.7071067811865475
 10
96.11464925114787
 20
8.170998349298031
 30
0.0
 41
1.0
 10
96.11464925114568
 20
8.170999174649015
 30
0.0
 41
0.9999990503576468
 10
96.11464925115102
 20
8.171000000000001
 30
0.0
 41
0.9999981007214516
  0
SPLINE
  5
82
330
1F
100
AcDbEntity
  8
Layer 01
100
AcDbSpline
210
0.0
220
0.0
230
1.0
 70
    15
 71
     2
 72
    16
 73
    13
 74
     0
 42
0.000000001
 43
0.0000000001
 40
7.69772726370307
 40
7.69772726370307
 40
7.69772726370307
 40
9.21972726370308
 40
9.21972726370308
 40
9.416076804552441
 40
9.416076804552441
 40
11.30544043640396
 40
11.30544043640396
 40
13.07744043640397
 40
13.07744043640397
 40
14.96680406825549
 40
14.96680406825549
 40
15.16315360910485
 40
15.16315360910485
 40
15.16315360910485
 10
73.44691134822565
 20
8.296000000000001
 30
0.0
 41
1.0
 10
73.44691134822565
 20
9.057000000000006
 30
0.0
 41
1.0
 10
73.44691134822565
 20
9.818000000000012
 30
0.0
 41
1.0
 10
73.44691134822565
 20
9.943000000000012
 30
0.0
 41
0.7071067811865476
 10
73.57191134822565
 20
9.943000000000012
 30
0.0
 41
1.0
 10
74.51659316415142
 20
9.943000000000012
 30
0.0
 41
1.0
 10
75.46127498007718
 20
9.943000000000012
 30
0.0
 41
1.0
 10
75.46127498007718
 20
9.057000000000006
 30
0.0
 41
1.0
 10
75.46127498007718
 20
8.171000000000001
 30
0.0
 41
1.0
 10
74.51659316415142
 20
8.171000000000001
 30
0.0
 41
1.0
 10
73.57191134822565
 20
8.171000000000001
 30
0.0
 41
1.0
 10
73.44691134822565
 20
8.171000000000001
 30
0.0
 41
0.7071067811865476
 10
73.44691134822565
 20
8.296000000000001
 30
0.0
 41
1.0
  0
SPLINE
  5
83
330
1F
100
AcDbEntity
  8
Layer 01
100
AcDbSpline
210
0.0
220
0.0
230
1.0
 70
    15
 71
     2
 72
    16
 73
    13
 74
     0
 42
0.000000001
 43
0.0000000001
 40
7.69772726370307
 40
7.69772726370307
 40
7.69772726370307
 40
9.21972726370308
 40
9.21972726370308
 40
9.416076804552441
 40
9.416076804552441
 40
11.30544043640396
 40
11.30544043640396
 40
13.07744043640397
 40
13.07744043640397
 40
14.96680406825549
 40
14.96680406825549
 40
15.16315360910485
 40
15.16315360910485
 40
15.16315360910485
 10
97.72598715448983
 20
8.296000000000001
 30
0.0
 41
1.0
 10
97.72598715448983
 20
9.057000000000006
 30
0.0
 41
1.0
 10
97.72598715448983
 20
9.818000000000012
 30
0.0
 41
1.0
 10
97.72598715448983
 20
9.943000000000012
 30
0.0
 41
0.7071067811865476
 10
97.60098715448983
 20
9.943000000000012
 30
0.0
 41
1.0
 10
96.65630533856407
 20
9.943000000000012
 30
0.0
 41
1.0
 10
95.7116235226383
 20
9.943000000000012
 30
0.0
 41
1.0
 10
95.7116235226383
 20
9.057000000000006
 30
0.0
 41
1.0
 10
95.7116235226383
 20
8.171000000000001
 30
0.0
 41
1.0
 10
96.65630533856407
 20
8.171000000000001
 30
0.0
 41
1.0
 10
97.60098715448983
 20
8.171000000000001
 30
0.0
 41
1.0
 10
97.72598715448983
 20
8.171000000000001
 30
0.0
 41
0.7071067811865476
 10
97.72598715448983
 20
8.296000000000001
 30
0.0
 41
1.0
  0
SPLINE
  5
84
330
1F
100
AcDbEntity
  8
Layer 01
100
AcDbSpline
210
0.0
220
0.0
230
1.0
 70
    11
 71
     3
 72
    89
 73
    85
 74
     0
 42
0.000000001
 43
0.0000000001
 40
6.727426052424903
 40
6.727426052424903
 40
6.727426052424903
 40
6.727426052424903
 40
26.53383341026247
 40
26.53383341026247
 40
26.53383341026247
 40
27.53383341026247
 40
27.53383341026247
 40
28.53383341026247
 40
28.53383341026247
 40
29.53383341026247
 40
29.53383341026247
 40
30.53383341026247
 40
30.53383341026247
 40
30.53383341026247
 40
31.83945947510851
 40
31.83945947510851
 40
31.83945947510851
 40
33.26125947530844
 40
33.26125947530844
 40
33.26125947530844
 40
41.254261578407
 40
41.254261578407
 40
41.254261578407
 40
42.25426157840701
 40
42.25426157840701
 40
42.25426157840701
 40
43.14839517858449
 40
43.14839517858449
 40
43.14839517858449
 40
44.14839517858449
 40
44.14839517858449
 40
44.14839517858449
 40
48.42470412721028
 40
48.42470412721028
 40
48.42470412721028
 40
49.42470412721028
 40
49.42470412721028
 40
50.42470412721028
 40
50.42470412721028
 40
51.42470412721028
 40
51.42470412721028
 40
52.42470412721028
 40
52.42470412721028
 40
52.42470412721028
 40
72.39633026185453
 40
72.39633026185453
 40
72.39633026185453
 40
73.39633026185453
 40
73.39633026185453
 40
74.39633026185453
 40
74.39633026185453
 40
75.39633026185453
 40
75.39633026185453
 40
76.39633026185453
 40
76.39633026185453
 40
76.39633026185453
 40
80.67263921048033
 40
80.67263921048033
 40
80.67263921048033
 40
81.67263921048033
 40
81.67263921048033
 40
81.67263921048033
 40
82.56677281065852
 40
82.56677281065852
 40
82.56677281065852
 40
83.56677281065852
 40
83.56677281065852
 40
83.56677281065852
 40
91.5597749137571
 40
91.5597749137571
 40
91.5597749137571
 40
92.98157491395703
 40
92.98157491395703
 40
92.98157491395703
 40
94.287200966182
 40
94.287200966182
 40
94.287200966182
 40
95.287200966182
 40
95.287200966182
 40
96.287200966182
 40
96.287200966182
 40
97.287200966182
 40
97.287200966182
 40
98.287200966182
 40
98.287200966182
 40
98.287200966182
 40
98.287200966182
 10
75.68324557244352
 20
6.240375753730881
 30
0.0
 10
82.28538135838633
 20
6.240375753730857
 30
0.0
 10
88.88751714432914
 20
6.240375753730834
 30
0.0
 10
95.48965293027193
 20
6.240375753730812
 30
0.0
 10
95.57251014515397
 20
6.240544357926219
 30
0.0
 10
95.65220511607015
 20
6.25647977078462
 30
0.0
 10
95.80527056997073
 20
6.319884213827407
 30
0.0
 10
95.87282912787339
 20
6.365027446567676
 30
0.0
 10
95.98999790558338
 20
6.482195934485965
 30
0.0
 10
96.03514125580828
 20
6.549754405074883
 30
0.0
 10
96.09854587899781
 20
6.702819799512269
 30
0.0
 10
96.11448125517718
 20
6.782514769505909
 30
0.0
 10
96.11464969594117
 20
6.865372012274494
 30
0.0
 10
96.11464954767673
 20
7.300580791282339
 30
0.0
 10
96.11464939941231
 20
7.735789570290184
 30
0.0
 10
96.11464925114787
 20
8.170998349298031
 30
0.0
 10
96.58858258454785
 20
8.170999600564876
 30
0.0
 10
97.06251591794783
 20
8.171000851831721
 30
0.0
 10
97.5364492513478
 20
8.171002103098566
 30
0.0
 10
97.5364492513501
 20
5.506668068732377
 30
0.0
 10
97.53644925135241
 20
2.842334034366189
 30
0.0
 10
97.53644925135471
 20
0.1780000000000003
 30
0.0
 10
97.53644925135475
 20
0.1270452526618923
 30
0.0
 10
97.5094039987023
 20
0.1000000000000013
 30
0.0
 10
97.4584492513666
 20
0.1000000000000012
 30
0.0
 10
97.16040471797105
 20
0.1000000000000011
 30
0.0
 10
96.86236018457548
 20
0.1000000000000009
 30
0.0
 10
96.5643156511799
 20
0.1000000000000008
 30
0.0
 10
96.51680143358013
 20
0.1000000000000008
 30
0.0
 10
96.48972589781744
 20
0.1252935434886253
 30
0.0
 10
96.4864960696641
 20
0.1726978558242519
 30
0.0
 10
96.38960121345173
 20
1.594827396327941
 30
0.0
 10
96.29270451997213
 20
3.0169839231354
 30
0.0
 10
96.19580952332042
 20
4.439115507282927
 30
0.0
 10
96.19028200478023
 20
4.518105753708777
 30
0.0
 10
96.17052495749418
 20
4.593352072022225
 30
0.0
 10
96.10255180543027
 20
4.736356852424314
 30
0.0
 10
96.05662861477064
 20
4.79913380983632
 30
0.0
 10
95.94090900419606
 20
4.907236859082257
 30
0.0
 10
95.87515545180956
 20
4.948786311333877
 30
0.0
 10
95.72786085283813
 20
5.006881071094415
 30
0.0
 10
95.65144557495535
 20
5.021477564438443
 30
0.0
 10
95.57226231867551
 20
5.02162317124623
 30
0.0
 10
88.91505360712743
 20
5.02162317124623
 30
0.0
 10
82.25784489557934
 20
5.02162317124623
 30
0.0
 10
75.60063618403126
 20
5.021623171246231
 30
0.0
 10
75.5214529377724
 20
5.021477566278671
 30
0.0
 10
75.44503766203047
 20
5.006881073417036
 30
0.0
 10
75.29774305158048
 20
4.948786311905616
 30
0.0
 10
75.23198949668169
 20
4.907236858838694
 30
0.0
 10
75.11626988753652
 20
4.799133808082424
 30
0.0
 10
75.07034669787068
 20
4.736356853131482
 30
0.0
 10
75.00237354835251
 20
4.593352084083984
 30
0.0
 10
74.98261650044661
 20
4.518105763679487
 30
0.0
 10
74.97708897939394
 20
4.439115507394246
 30
0.0
 10
74.88019398273973
 20
3.01698392320961
 30
0.0
 10
74.78329728925763
 20
1.594827396365045
 30
0.0
 10
74.68640243304274
 20
0.1726978558242464
 30
0.0
 10
74.68317260488942
 20
0.1252935434887248
 30
0.0
 10
74.65609706912699
 20
0.1000000000000008
 30
0.0
 10
74.6085828515274
 20
0.1000000000000008
 30
0.0
 10
74.3105383181347
 20
0.1000000000000008
 30
0.0
 10
74.012493784742
 20
0.1000000000000008
 30
0.0
 10
73.71444925134932
 20
0.1000000000000008
 30
0.0
 10
73.6634945040127
 20
0.1000000000000008
 30
0.0
 10
73.63644925135897
 20
0.1270452526613977
 30
0.0
 10
73.63644925135897
 20
0.1779999999999919
 30
0.0
 10
73.63644925135897
 20
2.842334034366183
 30
0.0
 10
73.63644925135897
 20
5.506668068732374
 30
0.0
 10
73.63644925135897
 20
8.171002103098566
 30
0.0
 10
74.11038258475894
 20
8.171000851831723
 30
0.0
 10
74.58431591815891
 20
8.170999600564882
 30
0.0
 10
75.05824925155889
 20
8.170998349298038
 30
0.0
 10
75.05824910329444
 20
7.735789573970955
 30
0.0
 10
75.05824895503001
 20
7.30058079864387
 30
0.0
 10
75.05824880676556
 20
6.865372023316786
 30
0.0
 10
75.05841724442111
 20
6.78251478898742
 30
0.0
 10
75.07435261921164
 20
6.702819819915604
 30
0.0
 10
75.13775724306264
 20
6.549754412287068
 30
0.0
 10
75.1829005938613
 20
6.482195938171575
 30
0.0
 10
75.30006937320495
 20
6.365027449338146
 30
0.0
 10
75.36762792915695
 20
6.319884216419518
 30
0.0
 10
75.5206933736213
 20
6.256479773578434
 30
0.0
 10
75.6003883473061
 20
6.240544359822402
 30
0.0
 10
75.68324557244352
 20
6.240375753730881
 30
0.0
  0
LINE
  5
85
330
1F
100
AcDbEntity
  8
Layer 01
100
AcDbLine
 10
95.7116235226383
 20
8.170999999999989
 30
0.0
 11
95.7116235226383
 21
9.942999999999998
 31
0.0
  0
LINE
  5
86
330
1F
100
AcDbEntity
  8
Layer 01
100
AcDbLine
 10
95.7116235226383
 20
9.942999999999998
 30
0.0
 11
75.4614492513534
 21
9.942999999999998
 31
0.0
  0
LINE
  5
87
330
1F
100
AcDbEntity
  8
Layer 01
100
AcDbLine
 10
75.4614492513534
 20
9.942999999999998
 30
0.0
 11
75.4614492513534
 21
8.170999999999989
 31
0.0
  0
LINE
  5
88
330
1F
100
AcDbEntity
  8
Layer 01
100
AcDbLine
 10
75.4614492513534
 20
8.170999999999989
 30
0.0
 11
95.7116235226383
 21
8.170999999999989
 31
0.0
  0
LINE
  5
89
330
1F
100
AcDbEntity
  8
Layer 01
100
AcDbLine
 10
14.0
 20
27.11155598736747
 30
0.0000000000000005
 11
14.0
 21
15.12999999999933
 31
0.0000000000000005
  0
SPLINE
  5
8A
330
1F
100
AcDbEntity
  8
Layer 01
100
AcDbSpline
210
0.0
220
0.0
230
1.0
 70
    12
 71
     2
 72
     6
 73
     3
 74
     0
 42
0.000000001
 43
0.0000000001
 40
2.936580973137862
 40
2.936580973137862
 40
2.936580973137862
 40
25.05307104046907
 40
25.05307104046907
 40
25.05307104046907
 10
46.80282098959075
 20
28.69677515739896
 30
0.0000000000000007
 41
0.9997752227929934
 10
31.07669045953099
 20
29.09156757911292
 30
0.0000000000000007
 41
0.9990411707719065
 10
15.43799999621979
 20
28.57599999634252
 30
0.0000000000000005
 41
1.0
  0
LINE
  5
8B
330
1F
100
AcDbEntity
  8
Layer 01
100
AcDbLine
 10
46.16216814888188
 20
28.57602792576799
 30
0.0000000000000007
 11
15.43799999621979
 21
28.57599999613219
 31
0.0000000000000007
  0
SPLINE
  5
8C
330
1F
100
AcDbEntity
  8
Layer 01
100
AcDbSpline
210
0.0
220
0.0
230
1.0
 70
     8
 71
     2
 72
     8
 73
     5
 74
     0
 42
0.000000001
 43
0.0000000001
 40
0.0
 40
0.0
 40
0.0
 40
1.0
 40
2.0
 40
3.0
 40
3.0
 40
3.0
 10
15.43799999621979
 20
28.57599999613219
 30
0.0000000000000005
 10
15.03608132856115
 20
28.58767966947297
 30
0.0000000000000005
 10
14.30715622061919
 20
28.23573670112798
 30
0.0000000000000005
 10
13.99483961119037
 20
27.50012290609545
 30
0.0000000000000005
 10
14.0
 20
27.11155598736747
 30
0.0000000000000005
  0
LINE
  5
8D
330
1F
100
AcDbEntity
  8
Layer 01
100
AcDbLine
 10
42.03133146810131
 20
9.942999999999696
 30
0.0000000000000007
 11
46.16216818406377
 21
28.5760000109024
 31
0.0000000000000007
  0
LINE
  5
8E
330
1F
100
AcDbEntity
  8
Layer 01
100
AcDbLine
 10
46.86388224588325
 20
9.942999999999696
 30
0.0000000000000007
 11
50.76833271005859
 21
27.55483789627949
 31
0.0000000000000007
  0
LINE
  5
8F
330
1F
100
AcDbEntity
  8
Layer 01
100
AcDbLine
 10
41.9596319699055
 20
14.82369182338557
 30
0.0000000000000007
 11
41.95963192112166
 21
9.942999999999678
 31
0.0000000000000007
  0
LINE
  5
90
330
1F
100
AcDbEntity
  8
Layer 01
100
AcDbLine
 10
46.9046319329982
 20
9.942999999999696
 30
0.0000000000000007
 11
41.95963192112171
 21
9.942999999999696
 31
0.0000000000000007
  0
SPLINE
  5
91
330
1F
100
AcDbEntity
  8
Layer 01
100
AcDbSpline
210
0.0
220
0.0
230
1.0
 70
     8
 71
     3
 72
    23
 73
    19
 74
     0
 42
0.000000001
 43
0.0000000001
 40
-1.98537336781277
 40
-1.98537336781277
 40
-1.98537336781277
 40
-1.98537336781277
 40
-1.328457279560145
 40
-0.2204581928287411
 40
-0.0000000000000274
 40
-0.0000000000000274
 40
-0.0000000000000274
 40
2.019023225314375
 40
3.015511815060542
 40
3.015511815060542
 40
3.015511815060542
 40
4.100191788121929
 40
6.178255997940536
 40
9.56154993581955
 40
11.08807941795622
 40
11.90021975147001
 40
12.74511832488725
 40
13.18987074080325
 40
13.18987074080325
 40
13.18987074080325
 40
13.18987074080325
 10
46.16216814890717
 20
28.57600000037695
 30
0.0000000000000007
 10
45.96066127246311
 20
28.48203580062712
 30
0.0000000000000007
 10
45.43208179590181
 20
28.2123988472115
 30
0.0000000000000007
 10
44.94261096051741
 20
27.76862397684069
 30
0.0000000000000007
 10
44.65602957132285
 20
27.43927844099341
 30
0.0000000000000007
 10
44.60954919301031
 20
27.38378806225788
 30
0.0000000000000007
 10
44.18040087286937
 20
26.87145137429387
 30
0.0000000000000007
 10
43.67669136132025
 20
25.99989944854794
 30
0.0000000000000007
 10
43.29130225033822
 20
25.06981752839306
 30
0.0000000000000007
 10
43.17458671038838
 20
24.75710794714641
 30
0.0000000000000007
 10
43.04795981604411
 20
24.41784341507708
 30
0.0000000000000007
 10
42.7152472571818
 20
23.41020891654282
 30
0.0000000000000007
 10
42.19566449766992
 20
21.23682934677327
 30
0.0000000000000007
 10
41.71820070187826
 20
18.8687362438803
 30
0.0000000000000007
 10
41.57344003130891
 20
16.94526304084866
 30
0.0000000000000007
 10
41.62053359815718
 20
15.92923176172981
 30
0.0000000000000007
 10
41.7382671936528
 20
15.29972044716799
 30
0.0000000000000007
 10
41.89843863371277
 20
14.93877973393599
 30
0.0000000000000007
 10
41.95963193982055
 20
14.82369186661968
 30
0.0000000000000007
  0
SPLINE
  5
92
330
1F
100
AcDbEntity
  8
Layer 01
100
AcDbSpline
210
0.0
220
0.0
230
1.0
 70
     8
 71
     5
 72
    63
 73
    57
 74
     0
 42
0.000000001
 43
0.0000000001
 40
-1.394067550056442
 40
-1.394067550056442
 40
-1.394067550056442
 40
-1.394067550056442
 40
-1.394067550056442
 40
-1.394067550056442
 40
-1.052275069230018
 40
-1.052275069230018
 40
-1.052275069230018
 40
-0.110475609682068
 40
-0.110475609682068
 40
-0.110475609682068
 40
-0.0000000000000244
 40
-0.0000000000000244
 40
-0.0000000000000244
 40
-0.0000000000000244
 40
-0.0000000000000244
 40
0.7596784685742293
 40
0.7596784685742293
 40
0.7596784685742293
 40
2.396639462686325
 40
2.396639462686325
 40
2.396639462686325
 40
2.396639462686325
 40
2.396639462686325
 40
4.46372202340031
 40
4.46372202340031
 40
4.46372202340031
 40
6.634123147909275
 40
6.634123147909275
 40
6.634123147909275
 40
6.634123147909275
 40
6.634123147909275
 40
9.13412314676858
 40
9.13412314676858
 40
9.13412314676858
 40
9.13412314676858
 40
9.13412314676858
 40
12.36112607925672
 40
12.36112607925672
 40
12.36112607925672
 40
12.36112613090548
 40
12.36112613090548
 40
12.36112613090548
 40
12.36112613090548
 40
12.36112613090548
 40
14.06661827400042
 40
14.06661827400042
 40
14.06661827400042
 40
15.25271405447717
 40
15.25271405447717
 40
15.25271405447717
 40
15.25271405447717
 40
15.25271405447717
 40
15.65292026394081
 40
16.05310088331343
 40
16.45328150268604
 40
16.85346210635482
 40
16.85346210635482
 40
16.85346210635482
 40
16.85346210635482
 40
16.85346210635482
 40
16.85346210635482
 10
46.9046319329982
 20
9.942999999999696
 30
0.0000000000000007
 10
46.95413097801607
 20
9.992499045018807
 30
0.0000000000000007
 10
47.00101289270452
 20
10.0437351730727
 30
0.0000000000000007
 10
47.04547492003316
 20
10.09649180517746
 30
0.0000000000000007
 10
47.20410372127269
 20
10.29951469002833
 30
0.0000000000000007
 10
47.33416713864352
 20
10.51787303280016
 30
0.0000000000000007
 10
47.41825902678391
 20
10.68442933396088
 30
0.0000000000000007
 10
47.50406008701375
 20
10.87547079516772
 30
0.0000000000000007
 10
47.58579243724083
 20
11.06965117066555
 30
0.0000000000000007
 10
47.59432877074532
 20
11.09007043601548
 30
0.0000000000000007
 10
47.60282088628024
 20
11.11052065347778
 30
0.0000000000000007
 10
47.61126909823645
 20
11.13100000000051
 30
0.0000000000000007
 10
47.67012983781709
 20
11.27368456907824
 30
0.0000000000000007
 10
47.72685938946186
 20
11.41778313455432
 30
0.0000000000000007
 10
47.78156408239981
 20
11.56267912728882
 30
0.0000000000000007
 10
47.94809427598265
 20
12.02036868972836
 30
0.0000000000000007
 10
48.09658798215791
 20
12.47372170251922
 30
0.0000000000000007
 10
48.1916941025235
 20
12.78252099421865
 30
0.0000000000000007
 10
48.28257749283701
 20
13.09164046821401
 30
0.0000000000000007
 10
48.37133398864836
 20
13.402251761514
 30
0.0000000000000007
 10
48.48412085634939
 20
13.79695948992723
 30
0.0000000000000007
 10
48.5934732303438
 20
14.19407619725678
 30
0.0000000000000007
 10
48.69952653157925
 20
14.59317696753225
 30
0.0000000000000007
 10
48.91044854267819
 20
15.41452290452632
 30
0.0000000000000007
 10
49.10864462718547
 20
16.24063536731014
 30
0.0000000000000007
 10
49.2072348284288
 20
16.66452359551879
 30
0.0000000000000007
 10
49.30331543476986
 20
17.08868304846781
 30
0.0000000000000007
 10
49.39730090631565
 20
17.51262411417589
 30
0.0000000000000007
 10
49.50552071325139
 20
18.00077211758572
 30
0.0000000000000007
 10
49.61374052018711
 20
18.48892012099555
 30
0.0000000000000007
 10
49.72196032712285
 20
18.97706812440538
 30
0.0000000000000007
 10
49.83018013405858
 20
19.46521612781521
 30
0.0000000000000007
 10
49.93839994099432
 20
19.95336413122504
 30
0.0000000000000007
 10
50.07502556597918
 20
20.56964249839634
 30
0.0000000000000007
 10
50.21479845304549
 20
21.19529332009573
 30
0.0000000000000007
 10
50.35168685740376
 20
21.82872409952288
 30
0.0000000000000007
 10
50.47965903631275
 20
22.46834235011469
 30
0.0000000000000007
 10
50.59268324245623
 20
23.1125555649807
 30
0.0000000000000007
 10
50.59268324426523
 20
23.11255557529145
 30
0.0000000000000007
 10
50.59268324607422
 20
23.1125555856022
 30
0.0000000000000007
 10
50.5926832478832
 20
23.11255559591294
 30
0.0000000000000007
 10
50.65195199891769
 20
23.45037449511279
 30
0.0000000000000007
 10
50.7071102853708
 20
23.78945693936522
 30
0.0000000000000007
 10
50.75768920779299
 20
24.12917577745875
 30
0.0000000000000007
 10
50.83488446435348
 20
24.70516999677806
 30
0.0000000000000007
 10
50.89622023271757
 20
25.27938799270409
 30
0.0000000000000007
 10
50.91720739714651
 20
25.5142249817109
 30
0.0000000000000007
 10
50.9325188813307
 20
25.74795970154794
 30
0.0000000000000007
 10
50.94065106036493
 20
25.98019044642976
 30
0.0000000000000007
 10
50.94349046679832
 20
26.06127504565656
 30
0.0000000000000007
 10
50.94731448302747
 20
26.223050323967
 30
0.0000000000000007
 10
50.94748684334667
 20
26.4645445083787
 30
0.0000000000000007
 10
50.93642785218643
 20
26.78390257846933
 30
0.0000000000000007
 10
50.9011625297793
 20
27.09812142718803
 30
0.0000000000000007
 10
50.84874415728984
 20
27.32897275745216
 30
0.0000000000000007
 10
50.79780253339487
 20
27.48002439215562
 30
0.0000000000000007
 10
50.76833271113904
 20
27.55483789603997
 30
0.0000000000000007
  0
SPLINE
  5
93
330
1F
100
AcDbEntity
  8
Layer 01
100
AcDbSpline
210
0.0
220
0.0
230
1.0
 70
     8
 71
     3
 72
    11
 73
     7
 74
     0
 42
0.000000001
 43
0.0000000001
 40
-4.874611883599021
 40
-4.874611883599021
 40
-4.874611883599021
 40
-4.874611883599021
 40
-4.135220528411553
 40
-2.4373059417979
 40
-0.7393913551842465
 40
0.0
 40
0.0
 40
0.0
 40
0.0
 10
50.76833271113904
 20
27.55483789603997
 30
0.0000000000000007
 10
50.58149608677783
 20
27.72079740006005
 30
0.0000000000000007
 10
49.91402348012801
 20
28.17736894776612
 30
0.0000000000000007
 10
48.57415364305808
 20
28.55644220728893
 30
0.0000000000000007
 10
47.19932704070914
 20
28.77884587294177
 30
0.0000000000000007
 10
46.40181826340131
 20
28.64774819350667
 30
0.0000000000000007
 10
46.16216814890717
 20
28.57600000037695
 30
0.0000000000000007
  0
SPLINE
  5
94
330
1F
100
AcDbEntity
  8
Layer 01
100
AcDbSpline
210
0.0
220
0.0
230
1.0
 70
    11
 71
     2
 72
    28
 73
    25
 74
     0
 42
0.000000001
 43
0.0000000001
 40
55.21799999999969
 40
55.21799999999969
 40
55.21799999999969
 40
59.9359999999997
 40
59.9359999999997
 40
60.9359999999997
 40
61.9359999999997
 40
62.9359999999997
 40
62.9359999999997
 40
81.43599999999967
 40
81.43599999999967
 40
82.43599999999967
 40
83.43599999999967
 40
84.43599999999967
 40
84.43599999999967
 40
89.15399999999894
 40
89.15399999999894
 40
90.15399999999894
 40
91.15399999999894
 40
92.15399999999894
 40
92.15399999999894
 40
116.153999999999
 40
116.153999999999
 40
117.153999999999
 40
118.153999999999
 40
119.153999999999
 40
119.153999999999
 40
119.153999999999
 10
41.95999999589296
 20
10.41199999999979
 30
0.0000000000000006
 10
41.95999999589284
 20
12.7709999999999
 30
0.0000000000000004
 10
41.95999999589273
 20
15.13
 30
0.0000000000000002
 10
41.40998160270038
 20
15.81239877979926
 30
0.0000000000000015
 10
39.76301636001196
 20
16.37117948580423
 30
0.0000000000000024
 10
38.06571040375016
 20
16.57180023862512
 30
0.0000000000000015
 10
37.2099999958927
 20
16.568
 30
0.0000000000000006
 10
27.95999999589273
 20
16.56800000000004
 30
0.0000000000000011
 10
18.75
 20
16.56800000000009
 30
0.0000000000000018
 10
17.89428952547081
 20
16.57180023534393
 30
0.0000000000000014
 10
16.19698363674758
 20
16.37117948370861
 30
0.0
 10
14.55001839727919
 20
15.81239878298356
 30
0.0
 10
14.0
 20
15.12999999999933
 30
0.0000000000000009
 10
13.9999999999999
 20
12.77099999999951
 30
0.0
 10
13.9999999999998
 20
10.41199999999969
 30
-0.0000000000000009
 10
14.27528337754129
 20
10.19045171502642
 30
0.0000000000000045
 10
14.95476421475706
 20
9.999429687490634
 30
0.0000000000000036
 10
15.65048332792719
 20
9.938032686346872
 30
0.0000000000000027
 10
15.99999999996626
 20
9.942999999999998
 30
0.0000000000000009
 10
27.95999999588338
 20
9.942999999999998
 30
0.0000000000000006
 10
39.95999999590771
 20
9.942999999999998
 30
0.0000000000000006
 10
40.30951668285849
 20
9.938032687082519
 30
-0.0000000000000007
 10
41.00523577464455
 20
9.999429685742168
 30
-0.0000000000000003
 10
41.684716637534
 20
10.19045172384834
 30
-0.0000000000000003
 10
41.95999999589296
 20
10.41199999999979
 30
0.0000000000000006
  0
LINE
  5
95
330
1F
100
AcDbEntity
  8
Layer 01
100
AcDbLine
 10
41.95999999589273
 20
15.13
 30
0.0000000000000002
 11
14.0
 21
15.12999999999933
 31
0.0000000000000002
  0
LINE
  5
96
330
1F
100
AcDbEntity
  8
Layer 01
100
AcDbLine
 10
41.95999999589296
 20
10.41199999999979
 30
0.0000000000000006
 11
13.9999999999998
 21
10.41199999999969
 31
0.0000000000000006
  0
SPLINE
  5
97
330
1F
100
AcDbEntity
  8
Layer 01
100
AcDbSpline
210
0.0
220
0.0
230
1.0
 70
    11
 71
     2
 72
    28
 73
    25
 74
     0
 42
0.000000001
 43
0.0000000001
 40
55.21799999999969
 40
55.21799999999969
 40
55.21799999999969
 40
59.9359999999997
 40
59.9359999999997
 40
60.9359999999997
 40
61.9359999999997
 40
62.9359999999997
 40
62.9359999999997
 40
81.43599999999967
 40
81.43599999999967
 40
82.43599999999967
 40
83.43599999999967
 40
84.43599999999967
 40
84.43599999999967
 40
89.15399999999894
 40
89.15399999999894
 40
90.15399999999894
 40
91.15399999999894
 40
92.15399999999894
 40
92.15399999999894
 40
116.153999999999
 40
116.153999999999
 40
117.153999999999
 40
118.153999999999
 40
119.153999999999
 40
119.153999999999
 40
119.153999999999
 10
-13.9596319655396
 20
10.41199999999979
 30
0.0000000000000006
 10
-13.95963196553949
 20
12.7709999999999
 30
0.0000000000000004
 10
-13.95963196553939
 20
15.13
 30
0.0000000000000002
 10
-13.40961357234703
 20
15.81239877979926
 30
0.0000000000000015
 10
-11.7626483296586
 20
16.37117948580423
 30
0.0000000000000024
 10
-10.0653423733968
 20
16.57180023862512
 30
0.0000000000000015
 10
-9.209631965539344
 20
16.568
 30
0.0000000000000006
 10
0.0000000000000284
 20
16.56800000000004
 30
0.000000000000001
 10
9.25
 20
16.56800000000009
 30
0.0000000000000015
 10
10.10571047452919
 20
16.57180023534393
 30
0.000000000000001
 10
11.80301636325242
 20
16.37117948370861
 30
-0.0000000000000003
 10
13.44998160272081
 20
15.81239878298356
 30
-0.0000000000000003
 10
14.0
 20
15.12999999999933
 30
0.0000000000000006
 10
14.0000000000001
 20
12.77099999999951
 30
-0.0000000000000003
 10
14.0000000000002
 20
10.41199999999969
 30
-0.0000000000000012
 10
13.72471662245871
 20
10.19045171502642
 30
0.0000000000000041
 10
13.04523578524291
 20
9.999429687490634
 30
0.0000000000000033
 10
12.34951667207278
 20
9.938032686346872
 30
0.0000000000000024
 10
12.00000000003374
 20
9.942999999999998
 30
0.0000000000000006
 10
0.0000000000094076
 20
9.942999999999998
 30
0.0000000000000006
 10
-11.95963196555435
 20
9.942999999999998
 30
0.0000000000000006
 10
-12.30914865250513
 20
9.938032687082519
 30
-0.0000000000000007
 10
-13.00486774429119
 20
9.999429685742168
 30
-0.0000000000000003
 10
-13.68434860718065
 20
10.19045172384834
 30
-0.0000000000000003
 10
-13.9596319655396
 20
10.41199999999979
 30
0.0000000000000006
  0
LINE
  5
98
330
1F
100
AcDbEntity
  8
Layer 01
100
AcDbLine
 10
-13.95963196553939
 20
15.13
 30
0.0000000000000002
 11
14.0
 21
15.12999999999933
 31
0.0000000000000002
  0
LINE
  5
99
330
1F
100
AcDbEntity
  8
Layer 01
100
AcDbLine
 10
-13.9596319655396
 20
10.41199999999979
 30
0.0000000000000006
 11
14.0000000000002
 21
10.41199999999969
 31
0.0000000000000006
  0
ARC
  5
9A
330
1F
100
AcDbEntity
  8
Layer 01
100
AcDbCircle
 10
-0.0400000040979478
 20
-239.8729341105257
 30
-0.0000000000000001
 40
268.7408244146934
210
0.0
220
0.0
230
-1.0
100
AcDbArc
 50
87.32933163841663
 51
92.67066836158337
  0
SPLINE
  5
9B
330
1F
100
AcDbEntity
  8
Layer 01
100
AcDbSpline
210
0.0
220
0.0
230
1.0
 70
     8
 71
     2
 72
    18
 73
    15
 74
     0
 42
0.000000001
 43
0.0000000001
 40
-17.50335281913432
 40
-17.50335281913432
 40
-17.50335281913432
 40
0.0
 40
0.0
 40
1.0
 40
2.0
 40
3.0
 40
3.0
 40
28.04399999803454
 40
28.04399999803454
 40
29.04399999803454
 40
30.04399999803454
 40
31.04399999803454
 40
31.04399999803454
 40
43.02555598624343
 40
43.02555598624343
 40
43.02555598624343
 10
-13.95999999590207
 20
15.13
 30
0.0000000000000001
 10
-13.93999999385309
 20
21.12077799410412
 30
0.0000000000000001
 10
-13.9199999918041
 20
27.11155598820823
 30
0.0000000000000001
 10
-13.92516038054103
 20
27.50012290679903
 30
0.0000000000000001
 10
-13.61284377071622
 20
28.23573670178585
 30
0.0000000000000001
 10
-12.88391866254295
 20
28.58767966969423
 30
0.0000000000000001
 10
-12.48199999491932
 20
28.57599999634255
 30
0.0000000000000001
 10
0.0400000040979549
 20
28.57599999634255
 30
0.0000000000000001
 10
12.56200000311523
 20
28.57599999634255
 30
0.0000000000000001
 10
12.96391867073885
 20
28.58767966969423
 30
0.0000000000000001
 10
13.69284377891213
 20
28.23573670178585
 30
0.0000000000000001
 10
14.00516038873693
 20
27.50012290679903
 30
0.0000000000000001
 10
14.0
 20
27.11155598820823
 30
0.0000000000000001
 10
14.0
 20
21.12077799410378
 30
0.0000000000000001
 10
14.0
 20
15.12999999999933
 30
0.0000000000000001
  0
SPLINE
  5
9C
330
1F
100
AcDbEntity
  8
Layer 01
100
AcDbSpline
210
0.0
220
0.0
230
1.0
 70
    11
 71
     2
 72
    48
 73
    45
 74
     0
 42
0.000000001
 43
0.0000000001
 40
90.40653886290555
 40
90.40653886290555
 40
90.40653886290555
 40
110.4025396797031
 40
110.4025396797031
 40
111.4025396797031
 40
112.4025396797031
 40
113.4025396797031
 40
114.4025396797031
 40
115.4025396797031
 40
116.4025396797031
 40
117.4025396797031
 40
118.4025396797031
 40
118.4025396797031
 40
136.902539679851
 40
136.902539679851
 40
137.902539679851
 40
138.902539679851
 40
139.902539679851
 40
140.902539679851
 40
141.902539679851
 40
142.902539679851
 40
143.902539679851
 40
144.902539679851
 40
144.902539679851
 40
164.8985402094916
 40
164.8985402094916
 40
165.8985402094916
 40
166.8985402094916
 40
167.8985402094916
 40
168.8985402094916
 40
169.8985402094916
 40
170.8985402094916
 40
171.8985402094916
 40
172.8985402094916
 40
172.8985402094916
 40
192.8090785426087
 40
192.8090785426087
 40
193.8090785426087
 40
194.8090785426087
 40
195.8090785426087
 40
196.8090785426087
 40
197.8090785426087
 40
198.8090785426087
 40
199.8090785426087
 40
200.8090785426087
 40
200.8090785426087
 40
200.8090785426087
 10
-14.00002207901044
 20
66.6714620866884
 30
0.0
 10
-14.00002207895565
 20
56.67346167828962
 30
0.0
 10
-14.00002207890086
 20
46.67546126989085
 30
0.0
 10
-14.00715175133776
 20
46.31077551466715
 30
0.0
 10
-13.80587059386099
 20
45.59453821337542
 30
0.0
 10
-13.23266240325088
 20
45.12224666059669
 30
0.0
 10
-12.51676084415679
 20
44.95406549753022
 30
0.0
 10
-11.79410487505814
 20
44.87519445575367
 30
0.0
 10
-11.06819330888007
 20
44.82337716522041
 30
0.0
 10
-10.3412545688722
 20
44.79265307134834
 30
0.0
 10
-9.613795361809323
 20
44.77839591365849
 30
0.0
 10
-9.24999999517
 20
44.77846161102934
 30
0.0
 10
0.0000000049326871
 20
44.77846161102934
 30
0.0
 10
9.250000005035375
 20
44.77846161102934
 30
0.0
 10
9.613795386980968
 20
44.77839591385416
 30
0.0
 10
10.34125455206139
 20
44.79265307067406
 30
0.0
 10
11.06819335809807
 20
44.82337716581068
 30
0.0
 10
11.79410492743325
 20
44.87519445932455
 30
0.0
 10
12.51676092080893
 20
44.95406550807811
 30
0.0
 10
13.23266250858943
 20
45.12224668422625
 30
0.0
 10
13.80587047468217
 20
45.59453829151055
 30
0.0
 10
14.00715278340735
 20
46.31077558431031
 30
0.0
 10
14.0000196410245
 20
46.67546142127159
 30
0.0
 10
14.00001964102846
 20
56.67346168609194
 30
0.0
 10
14.00001964103241
 20
66.67146195091229
 30
0.0
 10
14.00606114136175
 20
66.98133429129007
 30
0.0
 10
13.81962842014949
 20
67.58026137683314
 30
0.0
 10
13.34285352309433
 20
67.99425714745061
 30
0.0
 10
12.72790125253218
 20
68.10524113360586
 30
0.0
 10
12.11166810529281
 20
68.09156212095141
 30
0.0
 10
11.49556907859638
 20
68.09368388641181
 30
0.0
 10
10.8794468465941
 20
68.09338521647643
 30
0.0
 10
10.26332846831983
 20
68.09343077813378
 30
0.0
 10
9.955269171527494
 20
68.09386537318355
 30
0.0
 10
0.000000004968987
 20
68.09386537318353
 30
0.0
 10
-9.95526916158952
 20
68.09386537318352
 30
0.0
 10
-10.26332854818996
 20
68.0934307780187
 30
0.0
 10
-10.87944680896192
 20
68.0933852164473
 30
0.0
 10
-11.49556906820096
 20
68.09368388643736
 30
0.0
 10
-12.11166808954511
 20
68.09156212073503
 30
0.0
 10
-12.72790121103476
 20
68.10524113501407
 30
0.0
 10
-13.34285346837152
 20
67.9942571514195
 30
0.0
 10
-13.81962855458273
 20
67.5802614233506
 30
0.0
 10
-14.00606012045832
 20
66.98133430824365
 30
0.0
 10
-14.00002207901044
 20
66.6714620866884
 30
0.0
  0
SPLINE
  5
9D
330
1F
100
AcDbEntity
  8
Layer 01
100
AcDbSpline
210
0.0
220
0.0
230
1.0
 70
     8
 71
     2
 72
    16
 73
    13
 74
     0
 42
0.000000001
 43
0.0000000001
 40
-4.0
 40
-4.0
 40
-4.0
 40
-3.0
 40
-2.0
 40
-1.0
 40
0.0
 40
0.0
 40
25.12400000015798
 40
25.12400000015798
 40
26.12400000015798
 40
27.12400000015798
 40
28.12400000015798
 40
29.12400000015798
 40
29.12400000015798
 40
29.12400000015798
 10
13.99999999698171
 20
72.33609249817502
 30
0.0
 10
13.91658621713247
 20
72.51629613002771
 30
0.0
 10
13.52059852914527
 20
72.60489391746736
 30
0.0
 10
13.14050228372415
 20
72.64591987784485
 30
0.0
 10
12.75464408568268
 20
72.66085408237132
 30
0.0
 10
12.56200000007899
 20
72.66075191743928
 30
0.0
 10
-0.0000000000089599
 20
72.66075191747763
 30
0.0
 10
-12.56200000009691
 20
72.66075191751597
 30
0.0
 10
-12.75464408568268
 20
72.66085408237132
 30
0.0
 10
-13.14050228372415
 20
72.64591987784485
 30
0.0
 10
-13.52059852914527
 20
72.60489391746736
 30
0.0
 10
-13.91658621713247
 20
72.51629613002771
 30
0.0
 10
-13.99999999698171
 20
72.33609249817502
 30
0.0
  0
SPLINE
  5
9E
330
1F
100
AcDbEntity
  8
Layer 01
370
    -3
100
AcDbSpline
210
0.0
220
0.0
230
1.0
 70
    11
 71
     3
 72
    45
 73
    41
 74
     0
 42
0.000000001
 43
0.0000000001
 40
37.72714851366177
 40
37.72714851366177
 40
37.72714851366177
 40
37.72714851366177
 40
56.22714851529099
 40
56.22714851529099
 40
56.22714851529099
 40
57.22714851529099
 40
57.22714851529099
 40
57.22714851529099
 40
58.8302970293791
 40
58.8302970293791
 40
58.8302970293791
 40
59.8302970293791
 40
59.8302970293791
 40
60.8302970293791
 40
60.8302970293791
 40
61.8302970293791
 40
61.8302970293791
 40
62.8302970293791
 40
62.8302970293791
 40
63.8302970293791
 40
63.8302970293791
 40
63.8302970293791
 40
88.95429702895277
 40
88.95429702895277
 40
88.95429702895277
 40
89.95429702895277
 40
89.95429702895277
 40
90.95429702895277
 40
90.95429702895277
 40
91.95429702895277
 40
91.95429702895277
 40
92.95429702895277
 40
92.95429702895277
 40
93.95429702895277
 40
93.95429702895277
 40
93.95429702895277
 40
95.55744554304087
 40
95.55744554304087
 40
95.55744554304087
 40
96.55744554304087
 40
96.55744554304087
 40
96.55744554304087
 40
96.55744554304087
 10
-9.250000000814644
 20
68.09386537318349
 30
0.0
 10
-3.083333333604892
 20
68.09386537318349
 30
0.0
 10
3.08333333360486
 20
68.09386537318349
 30
0.0
 10
9.250000000814612
 20
68.09386537318349
 30
0.0
 10
11.70228181491435
 20
68.09386537318349
 30
0.0
 10
14.00000000154613
 20
68.17857108393005
 30
0.0
 10
14.00000000005296
 20
69.55789118155971
 30
0.0
 10
13.99999999738833
 20
72.01934646158533
 30
0.0
 10
13.9999999947237
 20
74.48080174161093
 30
0.0
 10
13.99999999205907
 20
76.94225702163655
 30
0.0
 10
13.96494730804791
 20
77.0463252309892
 30
0.0
 10
13.89520780484001
 20
77.11315831304121
 30
0.0
 10
13.68635516003071
 20
77.17235422254402
 30
0.0
 10
13.5838376848016
 20
77.19511381334068
 30
0.0
 10
13.38262042869444
 20
77.2269562670245
 30
0.0
 10
13.28096949669148
 20
77.23867636022408
 30
0.0
 10
13.07558302478679
 20
77.25371427933851
 30
0.0
 10
12.97289169873609
 20
77.25905874098878
 30
0.0
 10
12.76751286643795
 20
77.26539866847538
 30
0.0
 10
12.66477877217122
 20
77.26696124738814
 30
0.0
 10
12.56199999978683
 20
77.26691644147033
 30
0.0
 10
4.187333333262276
 20
77.26691644147033
 30
0.0
 10
-4.187333333262276
 20
77.26691644147033
 30
0.0
 10
-12.56199999978683
 20
77.26691644147033
 30
0.0
 10
-12.66477877217122
 20
77.26696124738814
 30
0.0
 10
-12.76751286643795
 20
77.26539866847538
 30
0.0
 10
-12.97289169873609
 20
77.25905874098878
 30
0.0
 10
-13.07558302478679
 20
77.25371427933851
 30
0.0
 10
-13.28096949669148
 20
77.23867636022408
 30
0.0
 10
-13.38262042869444
 20
77.2269562670245
 30
0.0
 10
-13.5838376848016
 20
77.19511381334068
 30
0.0
 10
-13.68635516003071
 20
77.17235422254403
 30
0.0
 10
-13.89520780484001
 20
77.11315831304121
 30
0.0
 10
-13.96494730804791
 20
77.0463252309892
 30
0.0
 10
-13.99999999205907
 20
76.94225702163655
 30
0.0
 10
-13.9999999947237
 20
74.48080174161093
 30
0.0
 10
-13.99999999738833
 20
72.01934646158533
 30
0.0
 10
-14.00000000005296
 20
69.55789118155971
 30
0.0
 10
-14.00000000154613
 20
68.17857108393005
 30
0.0
 10
-11.70228181491435
 20
68.09386537318349
 30
0.0
 10
-9.250000000814644
 20
68.09386537318349
 30
0.0
  0
SPLINE
  5
9F
330
1F
100
AcDbEntity
  8
Layer 01
100
AcDbSpline
210
0.0
220
0.0
230
1.0
 70
    11
 71
     2
 72
    18
 73
    15
 74
     0
 42
0.000000001
 43
0.0000000001
 40
0.0
 40
0.0
 40
0.0
 40
1.0
 40
2.0
 40
2.0
 40
2.530141636709722
 40
2.530141636709722
 40
3.530141636709722
 40
4.530141636709722
 40
4.530141636709722
 40
4.610502792389442
 40
4.610502792389442
 40
5.183429725987099
 40
5.183429725987099
 40
5.26379088166682
 40
5.26379088166682
 40
5.26379088166682
 10
30.60556797652018
 20
0.019650951837036
 30
0.0
 10
30.60579553660226
 20
0.0114909145598536
 30
0.0
 10
30.61740286615181
 20
0.0000845426910996
 30
0.0
 10
30.62556570507955
 20
0.0000000000000021
 30
0.0
 10
30.89063652343391
 20
0.000000000000002
 30
0.0
 10
31.15570734178827
 20
0.0000000000000019
 30
0.0
 10
31.16387017509737
 20
0.0000845401801917
 30
0.0
 10
31.175477501221
 20
0.0114909115839295
 30
0.0
 10
31.17570503948512
 20
0.0196509518370373
 30
0.0
 10
31.17640251485893
 20
0.0598254759185193
 30
0.0
 10
31.17709999023273
 20
0.1000000000000013
 30
0.0
 10
30.89063652343391
 20
0.1000000000000013
 30
0.0
 10
30.60417305663509
 20
0.1000000000000013
 30
0.0
 10
30.60487051657763
 20
0.0598254759185186
 30
0.0
 10
30.60556797652018
 20
0.019650951837036
 30
0.0
  0
SPLINE
  5
A0
330
1F
100
AcDbEntity
  8
Layer 01
100
AcDbSpline
210
0.0
220
0.0
230
1.0
 70
    11
 71
     5
 72
   111
 73
   105
 74
     0
 42
0.000000001
 43
0.0000000001
 40
3.0
 40
3.0
 40
3.0
 40
3.0
 40
3.0
 40
3.0
 40
3.04800931283149
 40
3.641075016851199
 40
3.641075016851199
 40
3.641075016851199
 40
3.641075016851199
 40
3.641075016851199
 40
4.641075016851199
 40
4.641075016851199
 40
4.641075016851199
 40
4.641075016851199
 40
5.641075016851199
 40
5.641075016851199
 40
5.641075016851199
 40
5.641075016851199
 40
6.641075016851199
 40
6.641075016851199
 40
6.641075016851199
 40
6.641075016851199
 40
6.641075016851199
 40
12.87107501578915
 40
12.87107501578915
 40
12.87107501578915
 40
12.87107501578915
 40
12.87107501578915
 40
13.87107501578915
 40
13.87107501578915
 40
13.87107501578915
 40
13.87107501578915
 40
14.87107501578915
 40
14.87107501578915
 40
14.87107501578915
 40
14.87107501578915
 40
15.87107501578915
 40
15.87107501578915
 40
15.87107501578915
 40
15.87107501578915
 40
15.87107501578915
 40
16.46414071980886
 40
16.51215003300583
 40
16.51215003300583
 40
16.51215003300583
 40
16.51215003300583
 40
16.51215003300583
 40
17.51215972133592
 40
17.51215972133592
 40
17.51215972133592
 40
17.51215972133592
 40
18.512169409666
 40
18.512169409666
 40
18.512169409666
 40
18.512169409666
 40
19.51215003300583
 40
19.51215003300583
 40
19.51215003300583
 40
19.51215003300583
 40
19.51215003300583
 40
26.29806699893696
 40
26.29806699893696
 40
26.29806699893696
 40
26.29806699893696
 40
26.29806699893696
 40
26.35886021242528
 40
26.35886021242528
 40
26.35886021242528
 40
26.35886021242528
 40
26.35886021242528
 40
26.42241568670672
 40
26.42241568670672
 40
26.42241568670672
 40
26.42241568670672
 40
26.42241568670672
 40
27.05050266082173
 40
27.05050266082173
 40
27.05050266082173
 40
27.05050266082173
 40
27.05050266082173
 40
27.11405799238038
 40
27.11405799238038
 40
27.11405799238038
 40
27.11405799238038
 40
27.11405799238038
 40
27.17485076756154
 40
27.17485076756154
 40
27.17485076756154
 40
27.17485076756154
 40
27.17485076756154
 40
33.96076773349267
 40
33.96076773349267
 40
33.96076773349267
 40
33.96076773349267
 40
33.96076773349267
 40
34.96076773349267
 40
34.96076773349267
 40
34.96076773349267
 40
34.96076773349267
 40
35.96076773349267
 40
35.96076773349267
 40
35.96076773349267
 40
35.96076773349267
 40
36.96076773349267
 40
36.96076773349267
 40
36.96076773349267
 40
36.96076773349267
 40
36.96076773349267
 40
36.96076773349267
 10
29.90718278699815
 20
7.505817418628412
 30
0.0
 10
29.88087377810567
 20
7.510362683226973
 30
0.0
 10
29.52956307522059
 20
7.571044044795543
 30
0.0
 10
29.17824093432245
 20
7.631723574185949
 30
0.0
 10
28.82689995709745
 20
7.692400093376994
 30
0.0
 10
28.47562364051487
 20
7.753086949196304
 30
0.0
 10
28.15063543051784
 20
7.809226436173753
 30
0.0
 10
28.11266027485228
 20
7.815272739339629
 30
0.0
 10
28.07528846693619
 20
7.82387348807727
 30
0.0
 10
28.03852000676959
 20
7.835028682386674
 30
0.0
 10
28.00235489435246
 20
7.848738322267844
 30
0.0
 10
27.93123136501717
 20
7.881266493173712
 30
0.0
 10
27.89930164751452
 20
7.901780504598447
 30
0.0
 10
27.87100397717686
 20
7.926544441994987
 30
0.0
 10
27.84633835400421
 20
7.955558305363328
 30
0.0
 10
27.80427120198889
 20
8.022085884043616
 30
0.0
 10
27.78878758546566
 20
8.056935569243365
 30
0.0
 10
27.77885392842685
 20
8.093371150302714
 30
0.0
 10
27.77447023087246
 20
8.131392627221667
 30
0.0
 10
27.77563649280251
 20
8.17100000000022
 30
0.0
 10
29.0216364926949
 20
8.17100000000022
 30
0.0
 10
30.2676364925873
 20
8.17100000000022
 30
0.0
 10
31.5136364924797
 20
8.17100000000022
 30
0.0
 10
32.7596364923721
 20
8.17100000000022
 30
0.0
 10
34.0056364922645
 20
8.17100000000022
 30
0.0
 10
34.00680275420798
 20
8.131392627231705
 30
0.0
 10
34.00241905665357
 20
8.093371150312583
 30
0.0
 10
33.99248539960125
 20
8.056935569242853
 30
0.0
 10
33.97700178305102
 20
8.022085884022516
 30
0.0
 10
33.93493463095478
 20
7.95555830528063
 30
0.0
 10
33.91026900776804
 20
7.926544441898737
 30
0.0
 10
33.88197133744269
 20
7.901780504505895
 30
0.0
 10
33.85004161997872
 20
7.881266493102103
 30
0.0
 10
33.77891809077355
 20
7.848738322272624
 30
0.0
 10
33.74275297838956
 20
7.835028682413892
 30
0.0
 10
33.70598451822418
 20
7.823873488111173
 30
0.0
 10
33.66861271027739
 20
7.815272739364458
 30
0.0
 10
33.6306375545492
 20
7.809226436173753
 30
0.0
 10
33.30564934455215
 20
7.753086949196304
 30
0.0
 10
32.95437302776929
 20
7.692400093342396
 30
0.0
 10
32.60303205034397
 20
7.631723574116765
 30
0.0
 10
32.25170990924555
 20
7.571044044691761
 30
0.0
 10
31.90039920616022
 20
7.510362683088596
 30
0.0
 10
31.87409019707118
 20
7.505817418433876
 30
0.0
 10
31.82211266824388
 20
7.496722246852809
 30
0.0
 10
31.77248034788197
 20
7.48211713980354
 30
0.0
 10
31.72519323598547
 20
7.462002097286072
 30
0.0
 10
31.68025133255437
 20
7.436377119300403
 30
0.0
 10
31.59505794262295
 20
7.374107292392665
 30
0.0
 10
31.55703785252042
 20
7.339046469679516
 30
0.0
 10
31.52359436728104
 20
7.300059737707089
 30
0.0
 10
31.49472748690483
 20
7.257147096475381
 30
0.0
 10
31.44614764186854
 20
7.163471356842232
 30
0.0
 10
31.42766074214203
 20
7.115154795617175
 30
0.0
 10
31.41497651221227
 20
7.065358862309225
 30
0.0
 10
31.40809495207926
 20
7.014083556918377
 30
0.0
 10
31.40701606174299
 20
6.961328879444634
 30
0.0
 10
31.38214532673609
 20
5.604374974822322
 30
0.0
 10
31.35727459172919
 20
4.247421070200009
 30
0.0
 10
31.33240385672229
 20
2.890467165577696
 30
0.0
 10
31.30753312171538
 20
1.533513260955383
 30
0.0
 10
31.28266238670848
 20
0.176559356333071
 30
0.0
 10
31.28244384132755
 20
0.1646047064910845
 30
0.0
 10
31.27993923730931
 20
0.1529058723638242
 30
0.0
 10
31.2753066174784
 20
0.1418588744456635
 30
0.0
 10
31.26870402465941
 20
0.1318597332309758
 30
0.0
 10
31.26028950167695
 20
0.1233044692141344
 30
0.0
 10
31.251493540378
 20
0.1143613869560848
 30
0.0
 10
31.24108523237997
 20
0.1073700461917883
 30
0.0
 10
31.22951395072701
 20
0.1025197996351033
 30
0.0
 10
31.21722906846326
 20
0.0999999999998879
 30
0.0
 10
31.20467995863288
 20
0.1000000000000005
 30
0.0
 10
31.07906256385499
 20
0.1000000000000006
 30
0.0
 10
30.9534451690771
 20
0.1000000000000008
 30
0.0
 10
30.82782777429921
 20
0.1000000000000009
 30
0.0
 10
30.70221037952133
 20
0.100000000000001
 30
0.0
 10
30.57659298474343
 20
0.1000000000000011
 30
0.0
 10
30.56404387624422
 20
0.0999999999976717
 30
0.0
 10
30.55175899327483
 20
0.1025197962149079
 30
0.0
 10
30.54018771092669
 20
0.1073700393541527
 30
0.0
 10
30.52977940429121
 20
0.1143613801178487
 30
0.0
 10
30.52098344845982
 20
0.1233044692084387
 30
0.0
 10
30.51256897135637
 20
0.1318596984330269
 30
0.0
 10
30.50596641708312
 20
0.1418587900971086
 30
0.0
 10
30.50133385412233
 20
0.1529057293382717
 30
0.0
 10
30.49882935095625
 20
0.1646045012941043
 30
0.0
 10
30.49861097606714
 20
0.1765590911021945
 30
0.0
 10
30.47374014361684
 20
1.533514582057482
 30
0.0
 10
30.44886931116653
 20
2.890470073012771
 30
0.0
 10
30.42399847871622
 20
4.247425563968059
 30
0.0
 10
30.39912764626592
 20
5.604381054923347
 30
0.0
 10
30.37425681381562
 20
6.961336545878634
 30
0.0
 10
30.37317715253437
 20
7.014091823061555
 30
0.0
 10
30.36629474869596
 20
7.065367569380458
 30
0.0
 10
30.35360960230039
 20
7.115163784835337
 30
0.0
 10
30.33512171334767
 20
7.163480469426199
 30
0.0
 10
30.2865404503279
 20
7.257154776879882
 30
0.0
 10
30.25767344958844
 20
7.300066115324093
 30
0.0
 10
30.22423007961942
 20
7.339051638485673
 30
0.0
 10
30.18621034042082
 20
7.374111346364622
 30
0.0
 10
30.10101812356448
 20
7.436379131557254
 30
0.0
 10
30.05607692485095
 20
7.46200329582216
 30
0.0
 10
30.00879063585205
 20
7.482117731755655
 30
0.0
 10
29.95915925656778
 20
7.49672243935774
 30
0.0
 10
29.90718278699815
 20
7.505817418628412
 30
0.0
  0
SPLINE
  5
A1
330
1F
100
AcDbEntity
  8
Layer 01
100
AcDbSpline
210
0.0
220
0.0
230
1.0
 70
    15
 71
     2
 72
    16
 73
    13
 74
     0
 42
0.000000001
 43
0.0000000001
 40
7.69772726370307
 40
7.69772726370307
 40
7.69772726370307
 40
9.21972726370308
 40
9.21972726370308
 40
9.416076804552441
 40
9.416076804552441
 40
11.30544043640396
 40
11.30544043640396
 40
13.07744043640397
 40
13.07744043640397
 40
14.96680406825549
 40
14.96680406825549
 40
15.16315360910485
 40
15.16315360910485
 40
15.16315360910485
 10
40.15500012435712
 20
8.296000000000001
 30
0.0
 41
1.0
 10
40.15500012435712
 20
9.057000000000006
 30
0.0
 41
1.0
 10
40.15500012435712
 20
9.818000000000012
 30
0.0
 41
1.0
 10
40.15500012435712
 20
9.943000000000012
 30
0.0
 41
0.7071067811865476
 10
40.03000012435712
 20
9.943000000000012
 30
0.0
 41
1.0
 10
39.08531830843135
 20
9.943000000000012
 30
0.0
 41
1.0
 10
38.14063649250559
 20
9.943000000000012
 30
0.0
 41
1.0
 10
38.14063649250559
 20
9.057000000000006
 30
0.0
 41
1.0
 10
38.14063649250559
 20
8.171000000000001
 30
0.0
 41
1.0
 10
39.08531830843135
 20
8.171000000000001
 30
0.0
 41
1.0
 10
40.03000012435712
 20
8.171000000000001
 30
0.0
 41
1.0
 10
40.15500012435712
 20
8.171000000000001
 30
0.0
 41
0.7071067811865476
 10
40.15500012435712
 20
8.296000000000001
 30
0.0
 41
1.0
  0
SPLINE
  5
A2
330
1F
100
AcDbEntity
  8
Layer 01
100
AcDbSpline
210
0.0
220
0.0
230
1.0
 70
    11
 71
     2
 72
    18
 73
    15
 74
     0
 42
0.000000001
 43
0.0000000001
 40
0.0
 40
0.0
 40
0.0
 40
1.0
 40
2.0
 40
2.0
 40
2.530141636709722
 40
2.530141636709722
 40
3.530141636709722
 40
4.530141636709722
 40
4.530141636709722
 40
4.610502792389442
 40
4.610502792389442
 40
5.183429725987099
 40
5.183429725987099
 40
5.26379088166682
 40
5.26379088166682
 40
5.26379088166682
 10
-30.60556797652015
 20
0.019650951837036
 30
0.0
 10
-30.60579553660222
 20
0.0114909145598536
 30
0.0
 10
-30.61740286615179
 20
0.0000845426910996
 30
0.0
 10
-30.62556570507951
 20
0.0000000000000021
 30
0.0
 10
-30.89063652343387
 20
0.000000000000002
 30
0.0
 10
-31.15570734178823
 20
0.0000000000000019
 30
0.0
 10
-31.16387017509734
 20
0.0000845401801917
 30
0.0
 10
-31.17547750122097
 20
0.0114909115839295
 30
0.0
 10
-31.17570503948508
 20
0.0196509518370373
 30
0.0
 10
-31.17640251485889
 20
0.0598254759185193
 30
0.0
 10
-31.1770999902327
 20
0.1000000000000013
 30
0.0
 10
-30.89063652343388
 20
0.1000000000000013
 30
0.0
 10
-30.60417305663506
 20
0.1000000000000013
 30
0.0
 10
-30.60487051657761
 20
0.0598254759185186
 30
0.0
 10
-30.60556797652015
 20
0.019650951837036
 30
0.0
  0
SPLINE
  5
A3
330
1F
100
AcDbEntity
  8
Layer 01
100
AcDbSpline
210
0.0
220
0.0
230
1.0
 70
    11
 71
     5
 72
   111
 73
   105
 74
     0
 42
0.000000001
 43
0.0000000001
 40
3.0
 40
3.0
 40
3.0
 40
3.0
 40
3.0
 40
3.0
 40
3.04800931283149
 40
3.641075016851199
 40
3.641075016851199
 40
3.641075016851199
 40
3.641075016851199
 40
3.641075016851199
 40
4.641075016851199
 40
4.641075016851199
 40
4.641075016851199
 40
4.641075016851199
 40
5.641075016851199
 40
5.641075016851199
 40
5.641075016851199
 40
5.641075016851199
 40
6.641075016851199
 40
6.641075016851199
 40
6.641075016851199
 40
6.641075016851199
 40
6.641075016851199
 40
12.87107501578915
 40
12.87107501578915
 40
12.87107501578915
 40
12.87107501578915
 40
12.87107501578915
 40
13.87107501578915
 40
13.87107501578915
 40
13.87107501578915
 40
13.87107501578915
 40
14.87107501578915
 40
14.87107501578915
 40
14.87107501578915
 40
14.87107501578915
 40
15.87107501578915
 40
15.87107501578915
 40
15.87107501578915
 40
15.87107501578915
 40
15.87107501578915
 40
16.46414071980886
 40
16.51215003300583
 40
16.51215003300583
 40
16.51215003300583
 40
16.51215003300583
 40
16.51215003300583
 40
17.51215972133592
 40
17.51215972133592
 40
17.51215972133592
 40
17.51215972133592
 40
18.512169409666
 40
18.512169409666
 40
18.512169409666
 40
18.512169409666
 40
19.51215003300583
 40
19.51215003300583
 40
19.51215003300583
 40
19.51215003300583
 40
19.51215003300583
 40
26.29806699893696
 40
26.29806699893696
 40
26.29806699893696
 40
26.29806699893696
 40
26.29806699893696
 40
26.35886021242528
 40
26.35886021242528
 40
26.35886021242528
 40
26.35886021242528
 40
26.35886021242528
 40
26.42241568670672
 40
26.42241568670672
 40
26.42241568670672
 40
26.42241568670672
 40
26.42241568670672
 40
27.05050266082173
 40
27.05050266082173
 40
27.05050266082173
 40
27.05050266082173
 40
27.05050266082173
 40
27.11405799238038
 40
27.11405799238038
 40
27.11405799238038
 40
27.11405799238038
 40
27.11405799238038
 40
27.17485076756154
 40
27.17485076756154
 40
27.17485076756154
 40
27.17485076756154
 40
27.17485076756154
 40
33.96076773349267
 40
33.96076773349267
 40
33.96076773349267
 40
33.96076773349267
 40
33.96076773349267
 40
34.96076773349267
 40
34.96076773349267
 40
34.96076773349267
 40
34.96076773349267
 40
35.96076773349267
 40
35.96076773349267
 40
35.96076773349267
 40
35.96076773349267
 40
36.96076773349267
 40
36.96076773349267
 40
36.96076773349267
 40
36.96076773349267
 40
36.96076773349267
 40
36.96076773349267
 10
-29.90718278699813
 20
7.505817418628412
 30
0.0
 10
-29.88087377810564
 20
7.510362683226973
 30
0.0
 10
-29.52956307522055
 20
7.571044044795543
 30
0.0
 10
-29.17824093432242
 20
7.631723574185949
 30
0.0
 10
-28.82689995709742
 20
7.692400093376994
 30
0.0
 10
-28.47562364051487
 20
7.753086949196304
 30
0.0
 10
-28.15063543051781
 20
7.809226436173753
 30
0.0
 10
-28.11266027485225
 20
7.815272739339629
 30
0.0
 10
-28.07528846693616
 20
7.82387348807727
 30
0.0
 10
-28.03852000676957
 20
7.835028682386674
 30
0.0
 10
-28.00235489435244
 20
7.848738322267844
 30
0.0
 10
-27.93123136501716
 20
7.881266493173712
 30
0.0
 10
-27.89930164751451
 20
7.901780504598447
 30
0.0
 10
-27.87100397717686
 20
7.926544441994987
 30
0.0
 10
-27.8463383540042
 20
7.955558305363328
 30
0.0
 10
-27.80427120198887
 20
8.022085884043616
 30
0.0
 10
-27.78878758546563
 20
8.056935569243365
 30
0.0
 10
-27.77885392842683
 20
8.093371150302714
 30
0.0
 10
-27.77447023087245
 20
8.131392627221667
 30
0.0
 10
-27.77563649280251
 20
8.17100000000022
 30
0.0
 10
-29.0216364926949
 20
8.17100000000022
 30
0.0
 10
-30.26763649258729
 20
8.17100000000022
 30
0.0
 10
-31.51363649247968
 20
8.17100000000022
 30
0.0
 10
-32.75963649237208
 20
8.17100000000022
 30
0.0
 10
-34.00563649226447
 20
8.17100000000022
 30
0.0
 10
-34.00680275420795
 20
8.131392627231705
 30
0.0
 10
-34.00241905665353
 20
8.093371150312583
 30
0.0
 10
-33.99248539960121
 20
8.056935569242853
 30
0.0
 10
-33.97700178305099
 20
8.022085884022516
 30
0.0
 10
-33.93493463095475
 20
7.95555830528063
 30
0.0
 10
-33.91026900776801
 20
7.926544441898737
 30
0.0
 10
-33.88197133744266
 20
7.901780504505895
 30
0.0
 10
-33.85004161997869
 20
7.881266493102103
 30
0.0
 10
-33.77891809077352
 20
7.848738322272624
 30
0.0
 10
-33.74275297838953
 20
7.835028682413892
 30
0.0
 10
-33.70598451822415
 20
7.823873488111173
 30
0.0
 10
-33.66861271027736
 20
7.815272739364458
 30
0.0
 10
-33.63063755454917
 20
7.809226436173753
 30
0.0
 10
-33.30564934455214
 20
7.753086949196304
 30
0.0
 10
-32.95437302776926
 20
7.692400093342396
 30
0.0
 10
-32.60303205034393
 20
7.631723574116765
 30
0.0
 10
-32.25170990924551
 20
7.571044044691761
 30
0.0
 10
-31.90039920616019
 20
7.510362683088596
 30
0.0
 10
-31.87409019707115
 20
7.505817418433876
 30
0.0
 10
-31.82211266824386
 20
7.496722246852809
 30
0.0
 10
-31.77248034788196
 20
7.48211713980354
 30
0.0
 10
-31.72519323598545
 20
7.462002097286072
 30
0.0
 10
-31.68025133255435
 20
7.436377119300403
 30
0.0
 10
-31.59505794262293
 20
7.374107292392665
 30
0.0
 10
-31.55703785252039
 20
7.339046469679516
 30
0.0
 10
-31.52359436728101
 20
7.300059737707089
 30
0.0
 10
-31.4947274869048
 20
7.257147096475381
 30
0.0
 10
-31.44614764186851
 20
7.163471356842232
 30
0.0
 10
-31.42766074214201
 20
7.115154795617175
 30
0.0
 10
-31.41497651221225
 20
7.065358862309225
 30
0.0
 10
-31.40809495207924
 20
7.014083556918377
 30
0.0
 10
-31.40701606174298
 20
6.961328879444634
 30
0.0
 10
-31.38214532673608
 20
5.604374974822322
 30
0.0
 10
-31.35727459172917
 20
4.247421070200009
 30
0.0
 10
-31.33240385672227
 20
2.890467165577696
 30
0.0
 10
-31.30753312171537
 20
1.533513260955383
 30
0.0
 10
-31.28266238670847
 20
0.176559356333071
 30
0.0
 10
-31.28244384132752
 20
0.1646047064910845
 30
0.0
 10
-31.27993923730929
 20
0.1529058723638242
 30
0.0
 10
-31.27530661747837
 20
0.1418588744456635
 30
0.0
 10
-31.26870402465939
 20
0.1318597332309758
 30
0.0
 10
-31.26028950167694
 20
0.1233044692141344
 30
0.0
 10
-31.25149354037798
 20
0.1143613869560848
 30
0.0
 10
-31.24108523237994
 20
0.1073700461917883
 30
0.0
 10
-31.22951395072697
 20
0.1025197996351033
 30
0.0
 10
-31.21722906846322
 20
0.0999999999998879
 30
0.0
 10
-31.20467995863285
 20
0.1000000000000005
 30
0.0
 10
-31.07906256385496
 20
0.1000000000000006
 30
0.0
 10
-30.95344516907707
 20
0.1000000000000008
 30
0.0
 10
-30.82782777429918
 20
0.1000000000000009
 30
0.0
 10
-30.7022103795213
 20
0.100000000000001
 30
0.0
 10
-30.5765929847434
 20
0.1000000000000011
 30
0.0
 10
-30.56404387624419
 20
0.0999999999976717
 30
0.0
 10
-30.5517589932748
 20
0.1025197962149079
 30
0.0
 10
-30.54018771092666
 20
0.1073700393541527
 30
0.0
 10
-30.52977940429118
 20
0.1143613801178487
 30
0.0
 10
-30.52098344845979
 20
0.1233044692084387
 30
0.0
 10
-30.51256897135634
 20
0.1318596984330269
 30
0.0
 10
-30.50596641708309
 20
0.1418587900971086
 30
0.0
 10
-30.5013338541223
 20
0.1529057293382717
 30
0.0
 10
-30.49882935095622
 20
0.1646045012941043
 30
0.0
 10
-30.49861097606711
 20
0.1765590911021945
 30
0.0
 10
-30.4737401436168
 20
1.533514582057482
 30
0.0
 10
-30.4488693111665
 20
2.890470073012771
 30
0.0
 10
-30.42399847871619
 20
4.247425563968059
 30
0.0
 10
-30.39912764626589
 20
5.604381054923347
 30
0.0
 10
-30.37425681381558
 20
6.961336545878634
 30
0.0
 10
-30.37317715253433
 20
7.014091823061555
 30
0.0
 10
-30.36629474869593
 20
7.065367569380458
 30
0.0
 10
-30.35360960230036
 20
7.115163784835337
 30
0.0
 10
-30.33512171334763
 20
7.163480469426199
 30
0.0
 10
-30.28654045032786
 20
7.257154776879882
 30
0.0
 10
-30.25767344958841
 20
7.300066115324093
 30
0.0
 10
-30.22423007961938
 20
7.339051638485673
 30
0.0
 10
-30.18621034042078
 20
7.374111346364622
 30
0.0
 10
-30.10101812356445
 20
7.436379131557254
 30
0.0
 10
-30.05607692485092
 20
7.46200329582216
 30
0.0
 10
-30.00879063585202
 20
7.482117731755655
 30
0.0
 10
-29.95915925656776
 20
7.49672243935774
 30
0.0
 10
-29.90718278699813
 20
7.505817418628412
 30
0.0
  0
SPLINE
  5
A4
330
1F
100
AcDbEntity
  8
Layer 01
100
AcDbSpline
210
0.0
220
0.0
230
1.0
 70
    15
 71
     2
 72
    16
 73
    13
 74
     0
 42
0.000000001
 43
0.0000000001
 40
7.69772726370307
 40
7.69772726370307
 40
7.69772726370307
 40
9.21972726370308
 40
9.21972726370308
 40
9.416076804552441
 40
9.416076804552441
 40
11.30544043640396
 40
11.30544043640396
 40
13.07744043640397
 40
13.07744043640397
 40
14.96680406825549
 40
14.96680406825549
 40
15.16315360910485
 40
15.16315360910485
 40
15.16315360910485
 10
-40.15500012435709
 20
8.296000000000001
 30
0.0
 41
1.0
 10
-40.15500012435709
 20
9.057000000000006
 30
0.0
 41
1.0
 10
-40.15500012435709
 20
9.818000000000012
 30
0.0
 41
1.0
 10
-40.15500012435709
 20
9.943000000000012
 30
0.0
 41
0.7071067811865476
 10
-40.03000012435709
 20
9.943000000000012
 30
0.0
 41
1.0
 10
-39.08531830843133
 20
9.943000000000012
 30
0.0
 41
1.0
 10
-38.14063649250556
 20
9.943000000000012
 30
0.0
 41
1.0
 10
-38.14063649250556
 20
9.057000000000006
 30
0.0
 41
1.0
 10
-38.14063649250556
 20
8.171000000000001
 30
0.0
 41
1.0
 10
-39.08531830843133
 20
8.171000000000001
 30
0.0
 41
1.0
 10
-40.03000012435709
 20
8.171000000000001
 30
0.0
 41
1.0
 10
-40.15500012435709
 20
8.171000000000001
 30
0.0
 41
0.7071067811865476
 10
-40.15500012435709
 20
8.296000000000001
 30
0.0
 41
1.0
  0
LINE
  5
A5
330
1F
100
AcDbEntity
  8
Layer 01
100
AcDbLine
 10
-38.14063649250565
 20
8.171220556275532
 30
0.0
 11
-38.14063649250565
 21
9.94277822280647
 31
0.0
  0
LINE
  5
A6
330
1F
100
AcDbEntity
  8
Layer 01
100
AcDbLine
 10
-38.14063649250565
 20
9.94277822280647
 30
0.0
 11
38.14063649250568
 21
9.94277822280647
 31
0.0
  0
LINE
  5
A7
330
1F
100
AcDbEntity
  8
Layer 01
100
AcDbLine
 10
38.14063649250568
 20
9.94277822280647
 30
0.0
 11
38.14063649250568
 21
8.171220556275532
 31
0.0
  0
LINE
  5
A8
330
1F
100
AcDbEntity
  8
Layer 01
100
AcDbLine
 10
38.14063649250568
 20
8.171220556275532
 30
0.0
 11
-38.14063649250565
 21
8.171220556275532
 31
0.0
  0
SPLINE
  5
A9
330
1F
100
AcDbEntity
  8
Layer 01
100
AcDbSpline
210
0.0
220
0.0
230
1.0
 70
    11
 71
     2
 72
    28
 73
    25
 74
     0
 42
0.000000001
 43
0.0000000001
 40
55.21799999999969
 40
55.21799999999969
 40
55.21799999999969
 40
59.9359999999997
 40
59.9359999999997
 40
60.9359999999997
 40
61.9359999999997
 40
62.9359999999997
 40
62.9359999999997
 40
81.43599999999967
 40
81.43599999999967
 40
82.43599999999967
 40
83.43599999999967
 40
84.43599999999967
 40
84.43599999999967
 40
89.15399999999894
 40
89.15399999999894
 40
90.15399999999894
 40
91.15399999999894
 40
92.15399999999894
 40
92.15399999999894
 40
116.153999999999
 40
116.153999999999
 40
117.153999999999
 40
118.153999999999
 40
119.153999999999
 40
119.153999999999
 40
119.153999999999
 10
-42.0000000000002
 20
10.41199999999979
 30
0.0000000000000008
 10
-42.00000000000009
 20
12.7709999999999
 30
0.0000000000000005
 10
-41.99999999999997
 20
15.13
 30
0.0000000000000003
 10
-41.44998160680763
 20
15.81239877979926
 30
0.0000000000000016
 10
-39.8030163641192
 20
16.37117948580423
 30
0.0000000000000025
 10
-38.1057104078574
 20
16.57180023862512
 30
0.0000000000000016
 10
-37.24999999999994
 20
16.568
 30
0.0000000000000008
 10
-27.99999999999997
 20
16.56800000000004
 30
0.0000000000000012
 10
-18.75
 20
16.56800000000009
 30
0.0000000000000016
 10
-17.89428952547081
 20
16.57180023534393
 30
0.0000000000000012
 10
-16.19698363674758
 20
16.37117948370861
 30
-0.0000000000000001
 10
-14.55001839727919
 20
15.81239878298356
 30
-0.0000000000000001
 10
-14.0
 20
15.12999999999933
 30
0.0000000000000008
 10
-13.9999999999999
 20
12.77099999999951
 30
-0.0000000000000001
 10
-13.9999999999998
 20
10.41199999999969
 30
-0.000000000000001
 10
-14.27528337754129
 20
10.19045171502642
 30
0.0000000000000043
 10
-14.95476421475706
 20
9.999429687490634
 30
0.0000000000000034
 10
-15.65048332792719
 20
9.938032686346872
 30
0.0000000000000025
 10
-15.99999999996626
 20
9.942999999999998
 30
0.0000000000000008
 10
-27.99999999999061
 20
9.942999999999998
 30
0.0000000000000008
 10
-40.00000000001495
 20
9.942999999999998
 30
0.0000000000000008
 10
-40.34951668696573
 20
9.938032687082519
 30
-0.0000000000000006
 10
-41.04523577875179
 20
9.999429685742168
 30
-0.0000000000000001
 10
-41.72471664164124
 20
10.19045172384834
 30
-0.0000000000000001
 10
-42.0000000000002
 20
10.41199999999979
 30
0.0000000000000008
  0
LINE
  5
AA
330
1F
100
AcDbEntity
  8
Layer 01
100
AcDbLine
 10
-41.99999999999997
 20
15.13
 30
0.0000000000000003
 11
-14.0
 21
15.12999999999933
 31
0.0000000000000003
  0
LINE
  5
AB
330
1F
100
AcDbEntity
  8
Layer 01
100
AcDbLine
 10
-42.0000000000002
 20
10.41199999999979
 30
0.0000000000000008
 11
-13.9999999999998
 21
10.41199999999969
 31
0.0000000000000008
  0
SPLINE
  5
AC
330
1F
100
AcDbEntity
  8
Layer 01
100
AcDbSpline
210
0.0
220
0.0
230
1.0
 70
    11
 71
     2
 72
    48
 73
    45
 74
     0
 42
0.000000001
 43
0.0000000001
 40
153.9405746580065
 40
153.9405746580065
 40
153.9405746580065
 40
172.440574657733
 40
172.440574657733
 40
173.440574657733
 40
174.440574657733
 40
175.440574657733
 40
176.440574657733
 40
177.440574657733
 40
178.440574657733
 40
179.440574657733
 40
180.440574657733
 40
180.440574657733
 40
205.5965752578765
 40
205.5965752578765
 40
206.5965752578765
 40
207.5965752578765
 40
208.5965752578765
 40
209.5965752578765
 40
210.5965752578765
 40
211.5965752578765
 40
212.5965752578765
 40
213.5965752578765
 40
213.5965752578765
 40
232.0965752576715
 40
232.0965752576715
 40
233.0965752576715
 40
234.0965752576715
 40
235.0965752576715
 40
236.0965752576715
 40
237.0965752576715
 40
238.0965752576715
 40
239.0965752576715
 40
240.0965752576715
 40
240.0965752576715
 40
265.2525758578149
 40
265.2525758578149
 40
266.2525758578149
 40
267.2525758578149
 40
268.2525758578149
 40
269.2525758578149
 40
270.2525758578149
 40
271.2525758578149
 40
272.2525758578149
 40
273.2525758578149
 40
273.2525758578149
 40
273.2525758578149
 10
-37.2499999997641
 20
44.77671161102603
 30
0.0
 10
-27.99999999966256
 20
44.77671161102603
 30
0.0
 10
-18.74999999956101
 20
44.77671161102602
 30
0.0
 10
-18.38620462123281
 20
44.77664591549119
 30
0.0
 10
-17.65874546329718
 20
44.79090307002337
 30
0.0
 10
-16.9318066645777
 20
44.82162716641509
 30
0.0
 10
-16.20589510210781
 20
44.87344445983532
 30
0.0
 10
-15.48323911812599
 20
44.95231550306062
 30
0.0
 10
-14.76733752035178
 20
45.12049667036204
 30
0.0
 10
-14.19412963778023
 20
45.59278825211874
 30
0.0
 10
-13.99284674564676
 20
46.30902552058727
 30
0.0
 10
-13.99998152411495
 20
46.67371138802926
 30
0.0
 10
-13.99998152411496
 20
59.251711688101
 30
0.0
 10
-13.99998152411496
 20
71.82971198817273
 30
0.0
 10
-13.99284674496119
 20
72.19439785051043
 30
0.0
 10
-14.19412963831791
 20
72.91063512507725
 30
0.0
 10
-14.76733751809038
 20
73.38292670543831
 30
0.0
 10
-15.48323913371684
 20
73.55110787571445
 30
0.0
 10
-16.20589509942089
 20
73.62997891622791
 30
0.0
 10
-16.9318066723273
 20
73.68179620869833
 30
0.0
 10
-17.65874541742618
 20
73.71252030500102
 30
0.0
 10
-18.38620462999294
 20
73.72677746090761
 30
0.0
 10
-18.7499999993234
 20
73.72671176517599
 30
0.0
 10
-27.99999999979001
 20
73.72671176517599
 30
0.0
 10
-37.25000000025662
 20
73.72671176517599
 30
0.0
 10
-37.61379537858483
 20
73.72677746071082
 30
0.0
 10
-38.34125453652047
 20
73.71252030617865
 30
0.0
 10
-39.06819333523993
 20
73.68179620978691
 30
0.0
 10
-39.79410489770981
 20
73.6299789163667
 30
0.0
 10
-40.51676088169166
 20
73.55110787314138
 30
0.0
 10
-41.23266247946584
 20
73.38292670583999
 30
0.0
 10
-41.80587036203741
 20
72.91063512408329
 30
0.0
 10
-42.00715325417087
 20
72.19439785561474
 30
0.0
 10
-42.00001847570267
 20
71.82971198817276
 30
0.0
 10
-42.00001847570267
 20
59.25171168810101
 30
0.0
 10
-42.00001847570267
 20
46.67371138802927
 30
0.0
 10
-42.00715325485987
 20
46.3090255256455
 30
0.0
 10
-41.80587036143986
 20
45.59278825099247
 30
0.0
 10
-41.23266248151268
 20
45.12049667066862
 30
0.0
 10
-40.51676086578472
 20
44.95231550043883
 30
0.0
 10
-39.79410489998756
 20
44.87344445993773
 30
0.0
 10
-39.06819332698915
 20
44.82162716747512
 30
0.0
 10
-38.34125458179847
 20
44.79090307118257
 30
0.0
 10
-37.61379536914022
 20
44.77664591528756
 30
0.0
 10
-37.2499999997641
 20
44.77671161102603
 30
0.0
  0
ENDSEC
  0
SECTION
  2
OBJECTS
  0
DICTIONARY
  5
C
330
0
100
AcDbDictionary
281
     1
  3
ACAD_DETAILVIEWSTYLE
350
E8
  3
ACAD_GROUP
350
D
  3
ACAD_LAYOUT
350
1A
  3
ACAD_MATERIAL
350
43
  3
ACAD_MLEADERSTYLE
350
6B
  3
ACAD_MLINESTYLE
350
17
  3
ACAD_PLOTSETTINGS
350
19
  3
ACAD_PLOTSTYLENAME
350
E
  3
ACAD_SCALELIST
350
47
  3
ACAD_SECTIONVIEWSTYLE
350
E9
  3
ACAD_TABLESTYLE
350
69
  3
ACAD_VISUALSTYLE
350
2A
  3
ACDB_RECOMPOSE_DATA
350
E5
  3
AcDbVariableDictionary
350
AD
  0
SUN
  5
6D
330
29
100
AcDbSun
 90
        1
290
     0
 63
     7
421
 16777215
 40
1.0
291
     1
 91
  2455826
 92
 54000000
292
     0
 70
     2
 71
   256
280
     1
  0
DICTIONARY
  5
E8
102
{ACAD_REACTORS
330
C
102
}
330
C
100
AcDbDictionary
281
     1
  0
DICTIONARY
  5
D
102
{ACAD_REACTORS
330
C
102
}
330
C
100
AcDbDictionary
281
     1
  0
DICTIONARY
  5
1A
102
{ACAD_REACTORS
330
C
102
}
330
C
100
AcDbDictionary
281
     1
  3
Layout1
350
1E
  3
Layout2
350
26
  3
Model
350
22
  0
DICTIONARY
  5
43
102
{ACAD_REACTORS
330
C
102
}
330
C
100
AcDbDictionary
281
     1
  3
ByBlock
350
45
  3
ByLayer
350
44
  3
Global
350
46
  0
DICTIONARY
  5
6B
102
{ACAD_REACTORS
330
C
102
}
330
C
100
AcDbDictionary
281
     1
  3
Standard
350
6C
  0
DICTIONARY
  5
17
102
{ACAD_REACTORS
330
C
102
}
330
C
100
AcDbDictionary
281
     1
  3
Standard
350
18
  0
DICTIONARY
  5
19
102
{ACAD_REACTORS
330
C
102
}
330
C
100
AcDbDictionary
281
     1
  0
ACDBDICTIONARYWDFLT
  5
E
102
{ACAD_REACTORS
330
C
102
}
330
C
100
AcDbDictionary
281
     1
  3
Normal
350
F
100
AcDbDictionaryWithDefault
340
F
  0
DICTIONARY
  5
47
102
{ACAD_REACTORS
330
C
102
}
330
C
100
AcDbDictionary
281
     1
  3
A0
350
48
  3
A1
350
49
  3
A2
350
4A
  3
A3
350
4B
  3
A4
350
4C
  3
A5
350
4D
  3
A6
350
4E
  3
A7
350
4F
  3
A8
350
50
  3
A9
350
51
  3
B0
350
52
  3
B1
350
53
  3
B2
350
54
  3
B3
350
55
  3
B4
350
56
  3
B5
350
57
  3
B6
350
58
  3
B7
350
59
  3
B8
350
5A
  3
B9
350
5B
  3
C0
350
5C
  3
C1
350
5D
  3
C2
350
5E
  3
C3
350
5F
  3
C4
350
60
  3
C5
350
61
  3
C6
350
62
  3
C7
350
63
  3
C8
350
64
  3
C9
350
65
  3
D0
350
66
  3
D1
350
67
  3
D2
350
68
  0
DICTIONARY
  5
E9
102
{ACAD_REACTORS
330
C
102
}
330
C
100
AcDbDictionary
281
     1
  0
DICTIONARY
  5
69
102
{ACAD_REACTORS
330
C
102
}
330
C
100
AcDbDictionary
281
     1
  3
Standard
350
6A
  0
DICTIONARY
  5
2A
102
{ACAD_REACTORS
330
C
102
}
330
C
100
AcDbDictionary
281
     1
  3
2dWireframe
350
2F
  3
Basic
350
32
  3
Brighten
350
36
  3
ColorChange
350
3A
  3
Conceptual
350
34
  3
Dim
350
35
  3
EdgeColorOff
350
3D
  3
Facepattern
350
39
  3
Flat
350
2B
  3
FlatWithEdges
350
2C
  3
Gouraud
350
2D
  3
GouraudWithEdges
350
2E
  3
Hidden
350
31
  3
JitterOff
350
3B
  3
Linepattern
350
38
  3
OverhangOff
350
3C
  3
Realistic
350
33
  3
Shaded
350
42
  3
Shaded with edges
350
41
  3
Shades of Gray
350
3E
  3
Sketchy
350
3F
  3
Thicken
350
37
  3
Wireframe
350
30
  3
X-Ray
350
40
  0
XRECORD
  5
E5
102
{ACAD_REACTORS
330
C
102
}
330
C
100
AcDbXrecord
280
     1
 90
        1
330
6A
  0
DICTIONARY
  5
AD
102
{ACAD_REACTORS
330
C
102
}
330
C
100
AcDbDictionary
281
     1
  3
CANNOSCALE
350
AE
  3
CMLEADERSTYLE
350
E7
  3
CTABLESTYLE
350
E6
  3
XCLIPFRAME
350
AF
  0
LAYOUT
  5
1E
102
{ACAD_REACTORS
330
1A
102
}
330
1A
100
AcDbPlotSettings
  1

  2
none_device
  4

  6

 40
0.0
 41
0.0
 42
0.0
 43
0.0
 44
0.0
 45
0.0
 46
0.0
 47
0.0
 48
0.0
 49
0.0
140
0.0
141
0.0
142
1.0
143
1.0
 70
   688
 72
     0
 73
     0
 74
     5
  7

 75
    16
 76
     0
 77
     2
 78
   300
147
1.0
148
0.0
149
0.0
100
AcDbLayout
  1
Layout1
 70
     1
 71
     1
 10
0.0
 20
0.0
 11
12.0
 21
9.0
 12
0.0
 22
0.0
 32
0.0
 14
1.000000000000000E+20
 24
1.000000000000000E+20
 34
1.000000000000000E+20
 15
-1.000000000000000E+20
 25
-1.000000000000000E+20
 35
-1.000000000000000E+20
146
0.0
 13
0.0
 23
0.0
 33
0.0
 16
1.0
 26
0.0
 36
0.0
 17
0.0
 27
1.0
 37
0.0
 76
     0
330
1B
  0
LAYOUT
  5
26
102
{ACAD_REACTORS
330
1A
102
}
330
1A
100
AcDbPlotSettings
  1

  2
none_device
  4

  6

 40
0.0
 41
0.0
 42
0.0
 43
0.0
 44
0.0
 45
0.0
 46
0.0
 47
0.0
 48
0.0
 49
0.0
140
0.0
141
0.0
142
1.0
143
1.0
 70
   688
 72
     0
 73
     0
 74
     5
  7

 75
    16
 76
     0
 77
     2
 78
   300
147
1.0
148
0.0
149
0.0
100
AcDbLayout
  1
Layout2
 70
     1
 71
     2
 10
0.0
 20
0.0
 11
0.0
 21
0.0
 12
0.0
 22
0.0
 32
0.0
 14
0.0
 24
0.0
 34
0.0
 15
0.0
 25
0.0
 35
0.0
146
0.0
 13
0.0
 23
0.0
 33
0.0
 16
1.0
 26
0.0
 36
0.0
 17
0.0
 27
1.0
 37
0.0
 76
     0
330
23
  0
LAYOUT
  5
22
102
{ACAD_REACTORS
330
1A
102
}
330
1A
100
AcDbPlotSettings
  1

  2
none_device
  4
Letter_(8.50_x_11.00_Inches)
  6

 40
6.35
 41
6.35
 42
6.35000508
 43
6.35000508
 44
215.9
 45
279.4
 46
0.0
 47
0.0
 48
0.0
 49
0.0
140
0.0
141
0.0
142
1.0
143
1.0
 70
  1712
 72
     0
 73
     0
 74
     0
  7

 75
     0
 76
     0
 77
     2
 78
   300
147
1.0
148
0.0
149
0.0
100
AcDbLayout
  1
Model
 70
     1
 71
     0
 10
0.0
 20
0.0
 11
12.0
 21
9.0
 12
0.0
 22
0.0
 32
0.0
 14
1.000000000000000E+20
 24
1.000000000000000E+20
 34
1.000000000000000E+20
 15
-1.000000000000000E+20
 25
-1.000000000000000E+20
 35
-1.000000000000000E+20
146
0.0
 13
0.0
 23
0.0
 33
0.0
 16
1.0
 26
0.0
 36
0.0
 17
0.0
 27
1.0
 37
0.0
 76
     0
330
1F
331
29
  0
MATERIAL
  5
45
102
{ACAD_REACTORS
330
43
102
}
330
43
100
AcDbMaterial
  1
ByBlock
 72
     1
 94
      127
  0
MATERIAL
  5
44
102
{ACAD_REACTORS
330
43
102
}
330
43
100
AcDbMaterial
  1
ByLayer
 72
     1
 94
      127
  0
MATERIAL
  5
46
102
{ACAD_REACTORS
330
43
102
}
330
43
100
AcDbMaterial
  1
Global
 72
     1
 94
      127
  0
MLEADERSTYLE
  5
6C
102
{ACAD_REACTORS
330
6B
102
}
102
{ACAD_XDICTIONARY
360
E3
102
}
330
6B
100
AcDbMLeaderStyle
170
     2
171
     1
172
     0
 90
        2
 40
0.0
 41
0.0
173
     1
 91
-1056964608
340
14
 92
       -2
290
     1
 42
0.09
291
     1
 43
0.36
  3
Standard
341
0
 44
0.18
300

342
11
174
     1
178
     6
175
     1
176
     0
 93
-1056964608
 45
0.18
292
     0
297
     0
 46
0.18
343
0
 94
-1056964608
 47
1.0
 49
1.0
140
1.0
293
     1
141
0.0
294
     1
177
     0
142
1.0
295
     0
296
     0
143
0.125
1001
ACAD_MLEADERVER
1070
     2
  0
MLINESTYLE
  5
18
102
{ACAD_REACTORS
330
17
102
}
330
17
100
AcDbMlineStyle
  2
Standard
 70
     0
  3

 62
   256
 51
90.0
 52
90.0
 71
     2
 49
0.5
 62
   256
  6
BYLAYER
 49
-0.5
 62
   256
  6
BYLAYER
  0
ACDBPLACEHOLDER
  5
F
102
{ACAD_REACTORS
330
E
102
}
330
E
  0
SCALE
  5
48
102
{ACAD_REACTORS
330
47
102
}
330
47
100
AcDbScale
 70
     0
300
1:1
140
1.0
141
1.0
290
     1
  0
SCALE
  5
49
102
{ACAD_REACTORS
330
47
102
}
330
47
100
AcDbScale
 70
     0
300
1:2
140
1.0
141
2.0
290
     0
  0
SCALE
  5
4A
102
{ACAD_REACTORS
330
47
102
}
330
47
100
AcDbScale
 70
     0
300
1:4
140
1.0
141
4.0
290
     0
  0
SCALE
  5
4B
102
{ACAD_REACTORS
330
47
102
}
330
47
100
AcDbScale
 70
     0
300
1:5
140
1.0
141
5.0
290
     0
  0
SCALE
  5
4C
102
{ACAD_REACTORS
330
47
102
}
330
47
100
AcDbScale
 70
     0
300
1:8
140
1.0
141
8.0
290
     0
  0
SCALE
  5
4D
102
{ACAD_REACTORS
330
47
102
}
330
47
100
AcDbScale
 70
     0
300
1:10
140
1.0
141
10.0
290
     0
  0
SCALE
  5
4E
102
{ACAD_REACTORS
330
47
102
}
330
47
100
AcDbScale
 70
     0
300
1:16
140
1.0
141
16.0
290
     0
  0
SCALE
  5
4F
102
{ACAD_REACTORS
330
47
102
}
330
47
100
AcDbScale
 70
     0
300
1:20
140
1.0
141
20.0
290
     0
  0
SCALE
  5
50
102
{ACAD_REACTORS
330
47
102
}
330
47
100
AcDbScale
 70
     0
300
1:30
140
1.0
141
30.0
290
     0
  0
SCALE
  5
51
102
{ACAD_REACTORS
330
47
102
}
330
47
100
AcDbScale
 70
     0
300
1:40
140
1.0
141
40.0
290
     0
  0
SCALE
  5
52
102
{ACAD_REACTORS
330
47
102
}
330
47
100
AcDbScale
 70
     0
300
1:50
140
1.0
141
50.0
290
     0
  0
SCALE
  5
53
102
{ACAD_REACTORS
330
47
102
}
330
47
100
AcDbScale
 70
     0
300
1:100
140
1.0
141
100.0
290
     0
  0
SCALE
  5
54
102
{ACAD_REACTORS
330
47
102
}
330
47
100
AcDbScale
 70
     0
300
2:1
140
2.0
141
1.0
290
     0
  0
SCALE
  5
55
102
{ACAD_REACTORS
330
47
102
}
330
47
100
AcDbScale
 70
     0
300
4:1
140
4.0
141
1.0
290
     0
  0
SCALE
  5
56
102
{ACAD_REACTORS
330
47
102
}
330
47
100
AcDbScale
 70
     0
300
8:1
140
8.0
141
1.0
290
     0
  0
SCALE
  5
57
102
{ACAD_REACTORS
330
47
102
}
330
47
100
AcDbScale
 70
     0
300
10:1
140
10.0
141
1.0
290
     0
  0
SCALE
  5
58
102
{ACAD_REACTORS
330
47
102
}
330
47
100
AcDbScale
 70
     0
300
100:1
140
100.0
141
1.0
290
     0
  0
SCALE
  5
59
102
{ACAD_REACTORS
330
47
102
}
330
47
100
AcDbScale
 70
     0
300
1/128" = 1'-0"
140
0.0078125
141
12.0
290
     0
  0
SCALE
  5
5A
102
{ACAD_REACTORS
330
47
102
}
330
47
100
AcDbScale
 70
     0
300
1/64" = 1'-0"
140
0.015625
141
12.0
290
     0
  0
SCALE
  5
5B
102
{ACAD_REACTORS
330
47
102
}
330
47
100
AcDbScale
 70
     0
300
1/32" = 1'-0"
140
0.03125
141
12.0
290
     0
  0
SCALE
  5
5C
102
{ACAD_REACTORS
330
47
102
}
330
47
100
AcDbScale
 70
     0
300
1/16" = 1'-0"
140
0.0625
141
12.0
290
     0
  0
SCALE
  5
5D
102
{ACAD_REACTORS
330
47
102
}
330
47
100
AcDbScale
 70
     0
300
3/32" = 1'-0"
140
0.09375
141
12.0
290
     0
  0
SCALE
  5
5E
102
{ACAD_REACTORS
330
47
102
}
330
47
100
AcDbScale
 70
     0
300
1/8" = 1'-0"
140
0.125
141
12.0
290
     0
  0
SCALE
  5
5F
102
{ACAD_REACTORS
330
47
102
}
330
47
100
AcDbScale
 70
     0
300
3/16" = 1'-0"
140
0.1875
141
12.0
290
     0
  0
SCALE
  5
60
102
{ACAD_REACTORS
330
47
102
}
330
47
100
AcDbScale
 70
     0
300
1/4" = 1'-0"
140
0.25
141
12.0
290
     0
  0
SCALE
  5
61
102
{ACAD_REACTORS
330
47
102
}
330
47
100
AcDbScale
 70
     0
300
3/8" = 1'-0"
140
0.375
141
12.0
290
     0
  0
SCALE
  5
62
102
{ACAD_REACTORS
330
47
102
}
330
47
100
AcDbScale
 70
     0
300
1/2" = 1'-0"
140
0.5
141
12.0
290
     0
  0
SCALE
  5
63
102
{ACAD_REACTORS
330
47
102
}
330
47
100
AcDbScale
 70
     0
300
3/4" = 1'-0"
140
0.75
141
12.0
290
     0
  0
SCALE
  5
64
102
{ACAD_REACTORS
330
47
102
}
330
47
100
AcDbScale
 70
     0
300
1" = 1'-0"
140
1.0
141
12.0
290
     0
  0
SCALE
  5
65
102
{ACAD_REACTORS
330
47
102
}
330
47
100
AcDbScale
 70
     0
300
1-1/2" = 1'-0"
140
1.5
141
12.0
290
     0
  0
SCALE
  5
66
102
{ACAD_REACTORS
330
47
102
}
330
47
100
AcDbScale
 70
     0
300
3" = 1'-0"
140
3.0
141
12.0
290
     0
  0
SCALE
  5
67
102
{ACAD_REACTORS
330
47
102
}
330
47
100
AcDbScale
 70
     0
300
6" = 1'-0"
140
6.0
141
12.0
290
     0
  0
SCALE
  5
68
102
{ACAD_REACTORS
330
47
102
}
330
47
100
AcDbScale
 70
     0
300
1'-0" = 1'-0"
140
12.0
141
12.0
290
     0
  0
TABLESTYLE
  5
6A
102
{ACAD_REACTORS
330
69
102
}
102
{ACAD_XDICTIONARY
360
E0
102
}
330
69
100
AcDbTableStyle
  3
Standard
 70
     0
 71
     0
 40
0.06
 41
0.06
280
     0
281
     0
  7
Standard
140
0.18
170
     2
 62
     0
 63
   257
283
     0
 90
        4
 91
        0
  1

274
    -2
284
     1
 64
     0
275
    -2
285
     1
 65
     0
276
    -2
286
     1
 66
     0
277
    -2
287
     1
 67
     0
278
    -2
288
     1
 68
     0
279
    -2
289
     1
 69
     0
  7
Standard
140
0.25
170
     5
 62
     0
 63
   257
283
     0
 90
        4
 91
        0
  1

274
    -2
284
     1
 64
     0
275
    -2
285
     1
 65
     0
276
    -2
286
     1
 66
     0
277
    -2
287
     1
 67
     0
278
    -2
288
     1
 68
     0
279
    -2
289
     1
 69
     0
  7
Standard
140
0.18
170
     5
 62
     0
 63
   257
283
     0
 90
        4
 91
        0
  1

274
    -2
284
     1
 64
     0
275
    -2
285
     1
 65
     0
276
    -2
286
     1
 66
     0
277
    -2
287
     1
 67
     0
278
    -2
288
     1
 68
     0
279
    -2
289
     1
 69
     0
  0
VISUALSTYLE
  5
2F
102
{ACAD_REACTORS
330
2A
102
}
102
{ACAD_XDICTIONARY
360
B8
102
}
330
2A
100
AcDbVisualStyle
  2
2dWireframe
 70
     4
 71
     0
 72
     2
 73
     0
 90
        0
 40
0.6
 41
30.0
 62
     5
 63
     7
421
 16777215
 74
     1
 91
        4
 64
     7
 65
   257
 75
     1
175
     1
 42
1.0
 92
        0
 66
   257
 43
1.0
 76
     1
 77
     6
 78
     2
 67
     7
 79
     5
170
     0
171
     0
290
     0
174
     0
 93
        1
 44
0.0
173
     0
291
     0
 45
0.0
  0
VISUALSTYLE
  5
32
102
{ACAD_REACTORS
330
2A
102
}
102
{ACAD_XDICTIONARY
360
BE
102
}
330
2A
100
AcDbVisualStyle
  2
Basic
 70
     7
 71
     1
 72
     0
 73
     1
 90
        0
 40
0.6
 41
30.0
 62
     5
 63
     7
421
 16777215
 74
     0
 91
        4
 64
     7
 65
   257
 75
     1
175
     1
 42
1.0
 92
        8
 66
     7
 43
1.0
 76
     1
 77
     6
 78
     2
 67
     7
 79
     5
170
     0
171
     0
290
     0
174
     0
 93
        1
 44
0.0
173
     0
291
     1
 45
0.0
  0
VISUALSTYLE
  5
36
102
{ACAD_REACTORS
330
2A
102
}
102
{ACAD_XDICTIONARY
360
C6
102
}
330
2A
100
AcDbVisualStyle
  2
Brighten
 70
    12
 71
     2
 72
     2
 73
     0
 90
        0
 40
0.6
 41
30.0
 62
     5
 63
     7
421
 16777215
 74
     1
 91
        4
 64
     7
 65
   257
 75
     1
175
     1
 42
1.0
 92
        8
 66
     7
 43
1.0
 76
     1
 77
     6
 78
     2
 67
     7
 79
     5
170
     0
171
     0
290
     0
174
     0
 93
        1
 44
50.0
173
     0
291
     1
 45
0.0
  0
VISUALSTYLE
  5
3A
102
{ACAD_REACTORS
330
2A
102
}
102
{ACAD_XDICTIONARY
360
CE
102
}
330
2A
100
AcDbVisualStyle
  2
ColorChange
 70
    16
 71
     2
 72
     2
 73
     3
 90
        0
 40
0.6
 41
30.0
 62
     5
 63
     8
421
  8421504
 74
     1
 91
        4
 64
     7
 65
   257
 75
     1
175
     1
 42
1.0
 92
        8
 66
     8
424
  8421504
 43
1.0
 76
     1
 77
     6
 78
     2
 67
     7
 79
     5
170
     0
171
     0
290
     0
174
     0
 93
        1
 44
0.0
173
     0
291
     1
 45
0.0
  0
VISUALSTYLE
  5
34
102
{ACAD_REACTORS
330
2A
102
}
102
{ACAD_XDICTIONARY
360
C2
102
}
330
2A
100
AcDbVisualStyle
  2
Conceptual
 70
     9
 71
     3
 72
     2
 73
     0
 90
        0
 40
0.6
 41
30.0
 62
     5
 63
     7
421
 16777215
 74
     2
 91
        2
 64
     7
 65
   257
 75
     1
175
     1
 42
179.0
 92
        8
 66
     7
 43
1.0
 76
     1
 77
     6
 78
     2
 67
     7
 79
     3
170
     0
171
     0
290
     0
174
     0
 93
        1
 44
0.0
173
     0
291
     0
 45
0.0
  0
VISUALSTYLE
  5
35
102
{ACAD_REACTORS
330
2A
102
}
102
{ACAD_XDICTIONARY
360
C4
102
}
330
2A
100
AcDbVisualStyle
  2
Dim
 70
    11
 71
     2
 72
     2
 73
     0
 90
        0
 40
0.6
 41
30.0
 62
     5
 63
     7
421
 16777215
 74
     1
 91
        4
 64
     7
 65
   257
 75
     1
175
     1
 42
1.0
 92
        8
 66
     7
 43
1.0
 76
     1
 77
     6
 78
     2
 67
     7
 79
     5
170
     0
171
     0
290
     0
174
     0
 93
        1
 44
-50.0
173
     0
291
     1
 45
0.0
  0
VISUALSTYLE
  5
3D
102
{ACAD_REACTORS
330
2A
102
}
102
{ACAD_XDICTIONARY
360
D4
102
}
330
2A
100
AcDbVisualStyle
  2
EdgeColorOff
 70
    22
 71
     2
 72
     2
 73
     0
 90
        0
 40
0.6
 41
30.0
 62
     5
 63
     7
421
 16777215
 74
     1
 91
        4
 64
     7
 65
   257
 75
     1
175
     1
 42
1.0
 92
        8
 66
     7
 43
1.0
 76
     1
 77
     6
 78
     2
 67
     7
 79
     5
170
     0
171
     0
290
     0
174
     0
 93
        1
 44
0.0
173
     0
291
     1
 45
0.0
  0
VISUALSTYLE
  5
39
102
{ACAD_REACTORS
330
2A
102
}
102
{ACAD_XDICTIONARY
360
CC
102
}
330
2A
100
AcDbVisualStyle
  2
Facepattern
 70
    15
 71
     2
 72
     2
 73
     0
 90
        0
 40
0.6
 41
30.0
 62
     5
 63
     7
421
 16777215
 74
     1
 91
        4
 64
     7
 65
   257
 75
     1
175
     1
 42
1.0
 92
        8
 66
     7
 43
1.0
 76
     1
 77
     6
 78
     2
 67
     7
 79
     5
170
     0
171
     0
290
     0
174
     0
 93
        1
 44
0.0
173
     0
291
     1
 45
0.0
  0
VISUALSTYLE
  5
2B
102
{ACAD_REACTORS
330
2A
102
}
102
{ACAD_XDICTIONARY
360
B0
102
}
330
2A
100
AcDbVisualStyle
  2
Flat
 70
     0
 71
     2
 72
     1
 73
     1
 90
        2
 40
0.6
 41
30.0
 62
     5
 63
     7
421
 16777215
 74
     0
 91
        0
 64
     7
 65
   257
 75
     1
175
     1
 42
1.0
 92
        8
 66
     7
 43
1.0
 76
     1
 77
     6
 78
     2
 67
     7
 79
     5
170
     0
171
     0
290
     0
174
     0
 93
       13
 44
0.0
173
     0
291
     1
 45
0.0
  0
VISUALSTYLE
  5
2C
102
{ACAD_REACTORS
330
2A
102
}
102
{ACAD_XDICTIONARY
360
B2
102
}
330
2A
100
AcDbVisualStyle
  2
FlatWithEdges
 70
     1
 71
     2
 72
     1
 73
     1
 90
        2
 40
0.6
 41
30.0
 62
     5
 63
     7
421
 16777215
 74
     1
 91
        0
 64
     7
 65
   257
 75
     1
175
     1
 42
1.0
 92
        0
 66
   257
 43
1.0
 76
     1
 77
     6
 78
     2
 67
     7
 79
     5
170
     0
171
     0
290
     0
174
     0
 93
       13
 44
0.0
173
     0
291
     1
 45
0.0
  0
VISUALSTYLE
  5
2D
102
{ACAD_REACTORS
330
2A
102
}
102
{ACAD_XDICTIONARY
360
B4
102
}
330
2A
100
AcDbVisualStyle
  2
Gouraud
 70
     2
 71
     2
 72
     2
 73
     1
 90
        2
 40
0.6
 41
30.0
 62
     5
 63
     7
421
 16777215
 74
     0
 91
        0
 64
     7
 65
   257
 75
     1
175
     1
 42
1.0
 92
        0
 66
     7
 43
1.0
 76
     1
 77
     6
 78
     2
 67
     7
 79
     5
170
     0
171
     0
290
     0
174
     0
 93
       13
 44
0.0
173
     0
291
     1
 45
0.0
  0
VISUALSTYLE
  5
2E
102
{ACAD_REACTORS
330
2A
102
}
102
{ACAD_XDICTIONARY
360
B6
102
}
330
2A
100
AcDbVisualStyle
  2
GouraudWithEdges
 70
     3
 71
     2
 72
     2
 73
     1
 90
        2
 40
0.6
 41
30.0
 62
     5
 63
     7
421
 16777215
 74
     1
 91
        0
 64
     7
 65
   257
 75
     1
175
     1
 42
1.0
 92
        0
 66
   257
 43
1.0
 76
     1
 77
     6
 78
     2
 67
     7
 79
     5
170
     0
171
     0
290
     0
174
     0
 93
       13
 44
0.0
173
     0
291
     1
 45
0.0
  0
VISUALSTYLE
  5
31
102
{ACAD_REACTORS
330
2A
102
}
102
{ACAD_XDICTIONARY
360
BC
102
}
330
2A
100
AcDbVisualStyle
  2
Hidden
 70
     6
 71
     1
 72
     2
 73
     2
 90
        0
 40
0.6
 41
30.0
 62
     5
 63
     7
421
 16777215
 74
     2
 91
        2
 64
     7
 65
   257
 75
     2
175
     1
 42
40.0
 92
        0
 66
   257
 43
1.0
 76
     1
 77
     6
 78
     2
 67
     7
 79
     3
170
     0
171
     0
290
     0
174
     0
 93
        1
 44
0.0
173
     0
291
     0
 45
0.0
  0
VISUALSTYLE
  5
3B
102
{ACAD_REACTORS
330
2A
102
}
102
{ACAD_XDICTIONARY
360
D0
102
}
330
2A
100
AcDbVisualStyle
  2
JitterOff
 70
    20
 71
     2
 72
     2
 73
     0
 90
        0
 40
0.6
 41
30.0
 62
     5
 63
     7
421
 16777215
 74
     1
 91
        4
 64
     7
 65
   257
 75
     1
175
     1
 42
1.0
 92
       10
 66
     7
 43
1.0
 76
     1
 77
     6
 78
     2
 67
     7
 79
     5
170
     0
171
     0
290
     0
174
     0
 93
        1
 44
0.0
173
     0
291
     1
 45
0.0
  0
VISUALSTYLE
  5
38
102
{ACAD_REACTORS
330
2A
102
}
102
{ACAD_XDICTIONARY
360
CA
102
}
330
2A
100
AcDbVisualStyle
  2
Linepattern
 70
    14
 71
     2
 72
     2
 73
     0
 90
        0
 40
0.6
 41
30.0
 62
     5
 63
     7
421
 16777215
 74
     1
 91
        4
 64
     7
 65
   257
 75
     7
175
     7
 42
1.0
 92
        8
 66
     7
 43
1.0
 76
     1
 77
     6
 78
     2
 67
     7
 79
     5
170
     0
171
     0
290
     0
174
     0
 93
        1
 44
0.0
173
     0
291
     1
 45
0.0
  0
VISUALSTYLE
  5
3C
102
{ACAD_REACTORS
330
2A
102
}
102
{ACAD_XDICTIONARY
360
D2
102
}
330
2A
100
AcDbVisualStyle
  2
OverhangOff
 70
    21
 71
     2
 72
     2
 73
     0
 90
        0
 40
0.6
 41
30.0
 62
     5
 63
     7
421
 16777215
 74
     1
 91
        4
 64
     7
 65
   257
 75
     1
175
     1
 42
1.0
 92
        9
 66
     7
 43
1.0
 76
     1
 77
     6
 78
     2
 67
     7
 79
     5
170
     0
171
     0
290
     0
174
     0
 93
        1
 44
0.0
173
     0
291
     1
 45
0.0
  0
VISUALSTYLE
  5
33
102
{ACAD_REACTORS
330
2A
102
}
102
{ACAD_XDICTIONARY
360
C0
102
}
330
2A
100
AcDbVisualStyle
  2
Realistic
 70
     8
 71
     2
 72
     3
 73
     0
 90
        2
 40
0.6
 41
30.0
 62
     5
 63
     7
421
 16777215
 74
     0
 91
        0
 64
     7
 65
   257
 75
     1
175
     1
 42
1.0
 92
        8
 66
   257
 43
1.0
 76
     1
 77
     6
 78
     2
 67
     7
 79
     3
170
     0
171
     0
290
     0
174
     0
 93
       13
 44
0.0
173
     0
291
     0
 45
0.0
  0
VISUALSTYLE
  5
42
102
{ACAD_REACTORS
330
2A
102
}
102
{ACAD_XDICTIONARY
360
DE
102
}
330
2A
100
AcDbVisualStyle
  2
Shaded
 70
    27
 71
     2
 72
     2
 73
     1
 90
        2
 40
0.6
 41
30.0
 62
     5
 63
     7
421
 16777215
 74
     0
 91
        4
 64
     7
 65
   257
 75
     1
175
     1
 42
1.0
 92
        8
 66
   257
 43
1.0
 76
     1
 77
     6
 78
     2
 67
     8
425
  7895160
 79
     3
170
     0
171
     0
290
     0
174
     0
 93
        5
 44
0.0
173
     0
291
     0
 45
0.0
  0
VISUALSTYLE
  5
41
102
{ACAD_REACTORS
330
2A
102
}
102
{ACAD_XDICTIONARY
360
DC
102
}
330
2A
100
AcDbVisualStyle
  2
Shaded with edges
 70
    26
 71
     2
 72
     2
 73
     1
 90
        2
 40
0.6
 41
30.0
 62
     5
 63
     7
421
 16777215
 74
     1
 91
       10
 64
     7
 65
   257
 75
     2
175
     1
 42
1.0
 92
        8
 66
   257
 43
1.0
 76
     1
 77
     6
 78
     2
 67
     7
 79
     3
170
     0
171
     0
290
     0
174
     0
 93
        5
 44
0.0
173
     0
291
     0
 45
0.0
  0
VISUALSTYLE
  5
3E
102
{ACAD_REACTORS
330
2A
102
}
102
{ACAD_XDICTIONARY
360
D6
102
}
330
2A
100
AcDbVisualStyle
  2
Shades of Gray
 70
    23
 71
     2
 72
     2
 73
     3
 90
        0
 40
0.6
 41
30.0
 62
     5
 63
     7
421
 16777215
 74
     2
 91
        2
 64
     7
 65
     7
 75
     1
175
     1
 42
40.0
 92
        8
 66
     7
 43
1.0
 76
     1
 77
     6
 78
     2
 67
     7
 79
     3
170
     0
171
     0
290
     0
174
     0
 93
        1
 44
0.0
173
     0
291
     0
 45
0.0
  0
VISUALSTYLE
  5
3F
102
{ACAD_REACTORS
330
2A
102
}
102
{ACAD_XDICTIONARY
360
D8
102
}
330
2A
100
AcDbVisualStyle
  2
Sketchy
 70
    24
 71
     1
 72
     2
 73
     2
 90
        0
 40
0.6
 41
30.0
 62
     5
 63
     7
421
 16777215
 74
     2
 91
        2
 64
     7
 65
     7
 75
     1
175
     1
 42
40.0
 92
       11
 66
     7
 43
1.0
 76
     1
 77
     6
 78
     2
 67
     7
 79
     6
170
     0
171
     0
290
     0
174
     0
 93
        1
 44
0.0
173
     0
291
     0
 45
0.0
  0
VISUALSTYLE
  5
37
102
{ACAD_REACTORS
330
2A
102
}
102
{ACAD_XDICTIONARY
360
C8
102
}
330
2A
100
AcDbVisualStyle
  2
Thicken
 70
    13
 71
     2
 72
     2
 73
     0
 90
        0
 40
0.6
 41
30.0
 62
     5
 63
     7
421
 16777215
 74
     1
 91
        4
 64
     7
 65
   257
 75
     1
175
     1
 42
1.0
 92
       12
 66
     7
 43
1.0
 76
     1
 77
     6
 78
     2
 67
     7
 79
     5
170
     0
171
     0
290
     0
174
     0
 93
        1
 44
0.0
173
     0
291
     1
 45
0.0
  0
VISUALSTYLE
  5
30
102
{ACAD_REACTORS
330
2A
102
}
102
{ACAD_XDICTIONARY
360
BA
102
}
330
2A
100
AcDbVisualStyle
  2
Wireframe
 70
     5
 71
     0
 72
     2
 73
     0
 90
        0
 40
0.6
 41
30.0
 62
     5
 63
     7
421
 16777215
 74
     1
 91
        4
 64
     7
 65
   257
 75
     1
175
     1
 42
1.0
 92
        0
 66
   257
 43
1.0
 76
     1
 77
     6
 78
     2
 67
     7
 79
     3
170
     0
171
     0
290
     0
174
     0
 93
        1
 44
0.0
173
     0
291
     0
 45
0.0
  0
VISUALSTYLE
  5
40
102
{ACAD_REACTORS
330
2A
102
}
102
{ACAD_XDICTIONARY
360
DA
102
}
330
2A
100
AcDbVisualStyle
  2
X-Ray
 70
    25
 71
     2
 72
     2
 73
     1
 90
        1
 40
0.5
 41
30.0
 62
     5
 63
     7
421
 16777215
 74
     1
 91
        0
 64
     7
 65
   257
 75
     1
175
     1
 42
1.0
 92
        8
 66
     7
 43
1.0
 76
     1
 77
     6
 78
     2
 67
     7
 79
     3
170
     0
171
     0
290
     0
174
     0
 93
       13
 44
0.0
173
     0
291
     0
 45
0.0
  0
DICTIONARYVAR
  5
AE
102
{ACAD_REACTORS
330
AD
102
}
330
AD
100
DictionaryVariables
280
     0
  1
1:1
  0
DICTIONARYVAR
  5
E7
102
{ACAD_REACTORS
330
AD
102
}
330
AD
100
DictionaryVariables
280
     0
  1
Standard
  0
DICTIONARYVAR
  5
E6
102
{ACAD_REACTORS
330
AD
102
}
330
AD
100
DictionaryVariables
280
     0
  1
Standard
  0
DICTIONARYVAR
  5
AF
102
{ACAD_REACTORS
330
AD
102
}
330
AD
100
DictionaryVariables
280
     0
  1
2
  0
DICTIONARY
  5
E3
330
6C
100
AcDbDictionary
280
     1
281
     1
  3
ACAD_XREC_ROUNDTRIP
360
E4
  0
DICTIONARY
  5
E0
330
6A
100
AcDbDictionary
280
     1
281
     1
  3
ACAD_ROUNDTRIP_2008_TABLESTYLE_CELLSTYLEMAP
360
E1
  0
DICTIONARY
  5
B8
330
2F
100
AcDbDictionary
280
     1
281
     1
  3
ACAD_XREC_ROUNDTRIP
360
B9
  0
DICTIONARY
  5
BE
330
32
100
AcDbDictionary
280
     1
281
     1
  3
ACAD_XREC_ROUNDTRIP
360
BF
  0
DICTIONARY
  5
C6
330
36
100
AcDbDictionary
280
     1
281
     1
  3
ACAD_XREC_ROUNDTRIP
360
C7
  0
DICTIONARY
  5
CE
330
3A
100
AcDbDictionary
280
     1
281
     1
  3
ACAD_XREC_ROUNDTRIP
360
CF
  0
DICTIONARY
  5
C2
330
34
100
AcDbDictionary
280
     1
281
     1
  3
ACAD_XREC_ROUNDTRIP
360
C3
  0
DICTIONARY
  5
C4
330
35
100
AcDbDictionary
280
     1
281
     1
  3
ACAD_XREC_ROUNDTRIP
360
C5
  0
DICTIONARY
  5
D4
330
3D
100
AcDbDictionary
280
     1
281
     1
  3
ACAD_XREC_ROUNDTRIP
360
D5
  0
DICTIONARY
  5
CC
330
39
100
AcDbDictionary
280
     1
281
     1
  3
ACAD_XREC_ROUNDTRIP
360
CD
  0
DICTIONARY
  5
B0
330
2B
100
AcDbDictionary
280
     1
281
     1
  3
ACAD_XREC_ROUNDTRIP
360
B1
  0
DICTIONARY
  5
B2
330
2C
100
AcDbDictionary
280
     1
281
     1
  3
ACAD_XREC_ROUNDTRIP
360
B3
  0
DICTIONARY
  5
B4
330
2D
100
AcDbDictionary
280
     1
281
     1
  3
ACAD_XREC_ROUNDTRIP
360
B5
  0
DICTIONARY
  5
B6
330
2E
100
AcDbDictionary
280
     1
281
     1
  3
ACAD_XREC_ROUNDTRIP
360
B7
  0
DICTIONARY
  5
BC
330
31
100
AcDbDictionary
280
     1
281
     1
  3
ACAD_XREC_ROUNDTRIP
360
BD
  0
DICTIONARY
  5
D0
330
3B
100
AcDbDictionary
280
     1
281
     1
  3
ACAD_XREC_ROUNDTRIP
360
D1
  0
DICTIONARY
  5
CA
330
38
100
AcDbDictionary
280
     1
281
     1
  3
ACAD_XREC_ROUNDTRIP
360
CB
  0
DICTIONARY
  5
D2
330
3C
100
AcDbDictionary
280
     1
281
     1
  3
ACAD_XREC_ROUNDTRIP
360
D3
  0
DICTIONARY
  5
C0
330
33
100
AcDbDictionary
280
     1
281
     1
  3
ACAD_XREC_ROUNDTRIP
360
C1
  0
DICTIONARY
  5
DE
330
42
100
AcDbDictionary
280
     1
281
     1
  3
ACAD_XREC_ROUNDTRIP
360
DF
  0
DICTIONARY
  5
DC
330
41
100
AcDbDictionary
280
     1
281
     1
  3
ACAD_XREC_ROUNDTRIP
360
DD
  0
DICTIONARY
  5
D6
330
3E
100
AcDbDictionary
280
     1
281
     1
  3
ACAD_XREC_ROUNDTRIP
360
D7
  0
DICTIONARY
  5
D8
330
3F
100
AcDbDictionary
280
     1
281
     1
  3
ACAD_XREC_ROUNDTRIP
360
D9
  0
DICTIONARY
  5
C8
330
37
100
AcDbDictionary
280
     1
281
     1
  3
ACAD_XREC_ROUNDTRIP
360
C9
  0
DICTIONARY
  5
BA
330
30
100
AcDbDictionary
280
     1
281
     1
  3
ACAD_XREC_ROUNDTRIP
360
BB
  0
DICTIONARY
  5
DA
330
40
100
AcDbDictionary
280
     1
281
     1
  3
ACAD_XREC_ROUNDTRIP
360
DB
  0
XRECORD
  5
E4
102
{ACAD_REACTORS
330
E3
102
}
330
E3
100
AcDbXrecord
280
     1
102
ACAD_ROUNDTRIP_2010_MLEADER_STYLE
  0
CELLSTYLEMAP
  5
E1
102
{ACAD_REACTORS
330
E0
102
}
330
E0
100
AcDbCellStyleMap
 90
        3
300
CELLSTYLE
  1
TABLEFORMAT_BEGIN
 90
        5
170
     1
 91
        0
 92
    32768
 62
   257
 93
        1
300
CONTENTFORMAT
  1
CONTENTFORMAT_BEGIN
 90
        0
 91
        0
 92
        4
 93
        0
300

 40
0.0
140
1.0
 94
        5
 62
     0
340
11
144
0.25
309
CONTENTFORMAT_END
171
     1
301
MARGIN
  1
CELLMARGIN_BEGIN
 40
0.06
 40
0.06
 40
0.06
 40
0.06
 40
0.06
 40
0.06
309
CELLMARGIN_END
 94
        6
 95
        1
302
GRIDFORMAT
  1
GRIDFORMAT_BEGIN
 90
        0
 91
        1
 62
     0
 92
       -2
340
14
 93
        0
 40
0.045
309
GRIDFORMAT_END
 95
        2
302
GRIDFORMAT
  1
GRIDFORMAT_BEGIN
 90
        0
 91
        1
 62
     0
 92
       -2
340
14
 93
        0
 40
0.045
309
GRIDFORMAT_END
 95
        4
302
GRIDFORMAT
  1
GRIDFORMAT_BEGIN
 90
        0
 91
        1
 62
     0
 92
       -2
340
14
 93
        0
 40
0.045
309
GRIDFORMAT_END
 95
        8
302
GRIDFORMAT
  1
GRIDFORMAT_BEGIN
 90
        0
 91
        1
 62
     0
 92
       -2
340
14
 93
        0
 40
0.045
309
GRIDFORMAT_END
 95
       16
302
GRIDFORMAT
  1
GRIDFORMAT_BEGIN
 90
        0
 91
        1
 62
     0
 92
       -2
340
14
 93
        0
 40
0.045
309
GRIDFORMAT_END
 95
       32
302
GRIDFORMAT
  1
GRIDFORMAT_BEGIN
 90
        0
 91
        1
 62
     0
 92
       -2
340
14
 93
        0
 40
0.045
309
GRIDFORMAT_END
309
TABLEFORMAT_END
  1
CELLSTYLE_BEGIN
 90
        1
 91
        1
300
_TITLE
309
CELLSTYLE_END
300
CELLSTYLE
  1
TABLEFORMAT_BEGIN
 90
        5
170
     1
 91
        0
 92
        0
 62
   257
 93
        1
300
CONTENTFORMAT
  1
CONTENTFORMAT_BEGIN
 90
        0
 91
        0
 92
        4
 93
        0
300

 40
0.0
140
1.0
 94
        5
 62
     0
340
11
144
0.18
309
CONTENTFORMAT_END
171
     1
301
MARGIN
  1
CELLMARGIN_BEGIN
 40
0.06
 40
0.06
 40
0.06
 40
0.06
 40
0.06
 40
0.06
309
CELLMARGIN_END
 94
        6
 95
        1
302
GRIDFORMAT
  1
GRIDFORMAT_BEGIN
 90
        0
 91
        1
 62
     0
 92
       -2
340
14
 93
        0
 40
0.045
309
GRIDFORMAT_END
 95
        2
302
GRIDFORMAT
  1
GRIDFORMAT_BEGIN
 90
        0
 91
        1
 62
     0
 92
       -2
340
14
 93
        0
 40
0.045
309
GRIDFORMAT_END
 95
        4
302
GRIDFORMAT
  1
GRIDFORMAT_BEGIN
 90
        0
 91
        1
 62
     0
 92
       -2
340
14
 93
        0
 40
0.045
309
GRIDFORMAT_END
 95
        8
302
GRIDFORMAT
  1
GRIDFORMAT_BEGIN
 90
        0
 91
        1
 62
     0
 92
       -2
340
14
 93
        0
 40
0.045
309
GRIDFORMAT_END
 95
       16
302
GRIDFORMAT
  1
GRIDFORMAT_BEGIN
 90
        0
 91
        1
 62
     0
 92
       -2
340
14
 93
        0
 40
0.045
309
GRIDFORMAT_END
 95
       32
302
GRIDFORMAT
  1
GRIDFORMAT_BEGIN
 90
        0
 91
        1
 62
     0
 92
       -2
340
14
 93
        0
 40
0.045
309
GRIDFORMAT_END
309
TABLEFORMAT_END
  1
CELLSTYLE_BEGIN
 90
        2
 91
        1
300
_HEADER
309
CELLSTYLE_END
300
CELLSTYLE
  1
TABLEFORMAT_BEGIN
 90
        5
170
     1
 91
        0
 92
        0
 62
   257
 93
        1
300
CONTENTFORMAT
  1
CONTENTFORMAT_BEGIN
 90
        0
 91
        0
 92
        4
 93
        0
300

 40
0.0
140
1.0
 94
        2
 62
     0
340
11
144
0.18
309
CONTENTFORMAT_END
171
     1
301
MARGIN
  1
CELLMARGIN_BEGIN
 40
0.06
 40
0.06
 40
0.06
 40
0.06
 40
0.06
 40
0.06
309
CELLMARGIN_END
 94
        6
 95
        1
302
GRIDFORMAT
  1
GRIDFORMAT_BEGIN
 90
        0
 91
        1
 62
     0
 92
       -2
340
14
 93
        0
 40
0.045
309
GRIDFORMAT_END
 95
        2
302
GRIDFORMAT
  1
GRIDFORMAT_BEGIN
 90
        0
 91
        1
 62
     0
 92
       -2
340
14
 93
        0
 40
0.045
309
GRIDFORMAT_END
 95
        4
302
GRIDFORMAT
  1
GRIDFORMAT_BEGIN
 90
        0
 91
        1
 62
     0
 92
       -2
340
14
 93
        0
 40
0.045
309
GRIDFORMAT_END
 95
        8
302
GRIDFORMAT
  1
GRIDFORMAT_BEGIN
 90
        0
 91
        1
 62
     0
 92
       -2
340
14
 93
        0
 40
0.045
309
GRIDFORMAT_END
 95
       16
302
GRIDFORMAT
  1
GRIDFORMAT_BEGIN
 90
        0
 91
        1
 62
     0
 92
       -2
340
14
 93
        0
 40
0.045
309
GRIDFORMAT_END
 95
       32
302
GRIDFORMAT
  1
GRIDFORMAT_BEGIN
 90
        0
 91
        1
 62
     0
 92
       -2
340
14
 93
        0
 40
0.045
309
GRIDFORMAT_END
309
TABLEFORMAT_END
  1
CELLSTYLE_BEGIN
 90
        3
 91
        2
300
_DATA
309
CELLSTYLE_END
  0
XRECORD
  5
B9
102
{ACAD_REACTORS
330
B8
102
}
330
B8
100
AcDbXrecord
280
     1
102
RTVSPropertyOp0
 70
     1
102
RTVSPropertyOp1
 70
     1
102
RTVSPropertyOp2
 70
     1
102
RTVSPropertyOp3
 70
     1
102
RTVSPropertyOp4
 70
     1
102
RTVSPropertyOp5
 70
     1
102
RTVSPropertyOp6
 70
     1
102
RTVSPropertyOp7
 70
     1
102
RTVSPropertyOp8
 70
     1
102
RTVSPropertyOp9
 70
     1
102
RTVSPropertyOp10
 70
     1
102
RTVSPropertyOp11
 70
     1
102
RTVSPropertyOp12
 70
     1
102
RTVSPropertyOp13
 70
     1
102
RTVSPropertyOp14
 70
     1
102
RTVSPropertyOp15
 70
     1
102
RTVSPropertyOp16
 70
     1
102
RTVSPropertyOp17
 70
     1
102
RTVSPropertyOp18
 70
     1
102
RTVSPropertyOp19
 70
     1
102
RTVSPropertyOp20
 70
     1
102
RTVSPropertyOp21
 70
     1
102
RTVSPropertyOp22
 70
     1
102
RTVSPropertyOp23
 70
     1
102
RTVSPropertyOp24
 70
     1
102
RTVSPropertyOp25
 70
     1
102
RTVSPropertyOp26
 70
     1
102
RTVSPropertyOp27
 70
     1
102
RTVSPropertyOp28
 70
     1
102
RTVSPropertyOp29
 70
     1
102
RTVSPropertyOp30
 70
     1
102
RTVSPropertyOp31
 70
     1
102
RTVSPropertyOp32
 70
     1
102
RTVSPropertyOp33
 70
     1
102
RTVSPropertyOp34
 70
     1
102
RTVSPropertyOp35
 70
     1
102
RTVSPropertyOp36
 70
     1
102
RTVSPropertyOp37
 70
     1
102
RTVSPropertyOp38
 70
     1
102
RTVSPropertyOp39
 70
     1
102
RTVSPropertyOp40
 70
     1
102
RTVSPropertyOp41
 70
     1
102
RTVSPropertyOp42
 70
     1
102
RTVSPropertyOp43
 70
     1
102
RTVSPropertyOp44
 70
     1
102
RTVSPropertyOp45
 70
     1
102
RTVSPropertyOp46
 70
     1
102
RTVSPropertyOp47
 70
     1
102
RTVSPropertyOp48
 70
     1
102
RTVSPropertyOp49
 70
     1
102
RTVSPropertyOp50
 70
     1
102
RTVSPropertyOp51
 70
     0
102
RTVSPropertyOp52
 70
     0
102
RTVSPropertyOp53
 70
     1
102
RTVSPropertyOp54
 70
     1
102
RTVSPropertyOp55
 70
     1
102
RTVSPropertyOp56
 70
     1
102
RTVSPropertyOp57
 70
     1
102
RTVSPost2010Prop28
280
     1
102
RTVSPost2010PropOp28
 70
     1
102
RTVSPost2010Prop29
280
     1
102
RTVSPost2010PropOp29
 70
     1
102
RTVSPost2010Prop30
280
     0
102
RTVSPost2010PropOp30
 70
     1
102
RTVSPost2010Prop31
280
     0
102
RTVSPost2010PropOp31
 70
     1
102
RTVSPost2010Prop32
280
     0
102
RTVSPost2010PropOp32
 70
     1
102
RTVSPost2010Prop33
280
     0
102
RTVSPost2010PropOp33
 70
     1
102
RTVSPost2010Prop34
280
     0
102
RTVSPost2010PropOp34
 70
     1
102
RTVSPost2010Prop35
280
     0
102
RTVSPost2010PropOp35
 70
     1
102
RTVSPost2010Prop36
280
     0
102
RTVSPost2010PropOp36
 70
     1
102
RTVSPost2010Prop37
 90
       50
102
RTVSPost2010PropOp37
 70
     1
102
RTVSPost2010Prop38
140
0.0
102
RTVSPost2010PropOp38
 70
     1
102
RTVSPost2010Prop39
140
1.0
102
RTVSPost2010PropOp39
 70
     1
102
RTVSPost2010Prop40
 90
        0
102
RTVSPost2010PropOp40
 70
     1
102
RTVSPost2010Prop41ColorIndex
 90
       18
102
RTVSPost2010Prop41ColorRGB
 90
        0
102
RTVSPost2010PropOp41
 70
     1
102
RTVSPost2010Prop42
 90
       50
102
RTVSPost2010PropOp42
 70
     1
102
RTVSPost2010Prop43
 90
        3
102
RTVSPost2010PropOp43
 70
     1
102
RTVSPost2010Prop44ColorIndex
 90
        5
102
RTVSPost2010Prop44ColorRGB
 90
      255
102
RTVSPost2010PropOp44
 70
     1
102
RTVSPost2010Prop45
280
     0
102
RTVSPost2010PropOp45
 70
     1
102
RTVSPost2010Prop46
 90
       50
102
RTVSPost2010PropOp46
 70
     1
102
RTVSPost2010Prop47
 90
       50
102
RTVSPost2010PropOp47
 70
     1
102
RTVSPost2010Prop48
 90
       50
102
RTVSPost2010PropOp48
 70
     1
102
RTVSPost2010Prop49
280
     0
102
RTVSPost2010PropOp49
 70
     1
102
RTVSPost2010Prop50
 90
       50
102
RTVSPost2010PropOp50
 70
     1
102
RTVSPost2010Prop51ColorIndex
 90
      256
102
RTVSPost2010Prop51ColorRGB
 90
-16777216
102
RTVSPost2010PropOp51
 70
     0
102
RTVSPost2010Prop52
140
1.0
102
RTVSPost2010PropOp52
 70
     0
102
RTVSPost2010Prop53
 90
        2
102
RTVSPost2010PropOp53
 70
     1
102
RTVSPost2010Prop54
  1
strokes_ogs.tif
102
RTVSPost2010PropOp54
 70
     1
102
RTVSPost2010Prop55
280
     0
102
RTVSPost2010PropOp55
 70
     1
102
RTVSPost2010Prop56
140
1.0
102
RTVSPost2010PropOp56
 70
     1
102
RTVSPost2010Prop57
140
1.0
102
RTVSPost2010PropOp57
 70
     1
  0
XRECORD
  5
BF
102
{ACAD_REACTORS
330
BE
102
}
330
BE
100
AcDbXrecord
280
     1
102
RTVSPropertyOp0
 70
     1
102
RTVSPropertyOp1
 70
     1
102
RTVSPropertyOp2
 70
     1
102
RTVSPropertyOp3
 70
     1
102
RTVSPropertyOp4
 70
     1
102
RTVSPropertyOp5
 70
     1
102
RTVSPropertyOp6
 70
     1
102
RTVSPropertyOp7
 70
     1
102
RTVSPropertyOp8
 70
     1
102
RTVSPropertyOp9
 70
     1
102
RTVSPropertyOp10
 70
     1
102
RTVSPropertyOp11
 70
     1
102
RTVSPropertyOp12
 70
     1
102
RTVSPropertyOp13
 70
     1
102
RTVSPropertyOp14
 70
     1
102
RTVSPropertyOp15
 70
     1
102
RTVSPropertyOp16
 70
     1
102
RTVSPropertyOp17
 70
     1
102
RTVSPropertyOp18
 70
     1
102
RTVSPropertyOp19
 70
     1
102
RTVSPropertyOp20
 70
     1
102
RTVSPropertyOp21
 70
     1
102
RTVSPropertyOp22
 70
     1
102
RTVSPropertyOp23
 70
     1
102
RTVSPropertyOp24
 70
     1
102
RTVSPropertyOp25
 70
     1
102
RTVSPropertyOp26
 70
     1
102
RTVSPropertyOp27
 70
     1
102
RTVSPropertyOp28
 70
     1
102
RTVSPropertyOp29
 70
     1
102
RTVSPropertyOp30
 70
     1
102
RTVSPropertyOp31
 70
     1
102
RTVSPropertyOp32
 70
     1
102
RTVSPropertyOp33
 70
     1
102
RTVSPropertyOp34
 70
     1
102
RTVSPropertyOp35
 70
     1
102
RTVSPropertyOp36
 70
     1
102
RTVSPropertyOp37
 70
     1
102
RTVSPropertyOp38
 70
     1
102
RTVSPropertyOp39
 70
     1
102
RTVSPropertyOp40
 70
     1
102
RTVSPropertyOp41
 70
     1
102
RTVSPropertyOp42
 70
     1
102
RTVSPropertyOp43
 70
     1
102
RTVSPropertyOp44
 70
     1
102
RTVSPropertyOp45
 70
     1
102
RTVSPropertyOp46
 70
     1
102
RTVSPropertyOp47
 70
     1
102
RTVSPropertyOp48
 70
     1
102
RTVSPropertyOp49
 70
     1
102
RTVSPropertyOp50
 70
     1
102
RTVSPropertyOp51
 70
     0
102
RTVSPropertyOp52
 70
     0
102
RTVSPropertyOp53
 70
     1
102
RTVSPropertyOp54
 70
     1
102
RTVSPropertyOp55
 70
     1
102
RTVSPropertyOp56
 70
     1
102
RTVSPropertyOp57
 70
     1
102
RTVSPost2010Prop28
280
     0
102
RTVSPost2010PropOp28
 70
     1
102
RTVSPost2010Prop29
280
     1
102
RTVSPost2010PropOp29
 70
     1
102
RTVSPost2010Prop30
280
     1
102
RTVSPost2010PropOp30
 70
     1
102
RTVSPost2010Prop31
280
     0
102
RTVSPost2010PropOp31
 70
     1
102
RTVSPost2010Prop32
280
     0
102
RTVSPost2010PropOp32
 70
     1
102
RTVSPost2010Prop33
280
     0
102
RTVSPost2010PropOp33
 70
     1
102
RTVSPost2010Prop34
280
     0
102
RTVSPost2010PropOp34
 70
     1
102
RTVSPost2010Prop35
280
     0
102
RTVSPost2010PropOp35
 70
     1
102
RTVSPost2010Prop36
280
     0
102
RTVSPost2010PropOp36
 70
     1
102
RTVSPost2010Prop37
 90
       50
102
RTVSPost2010PropOp37
 70
     1
102
RTVSPost2010Prop38
140
0.0
102
RTVSPost2010PropOp38
 70
     1
102
RTVSPost2010Prop39
140
1.0
102
RTVSPost2010PropOp39
 70
     1
102
RTVSPost2010Prop40
 90
        0
102
RTVSPost2010PropOp40
 70
     1
102
RTVSPost2010Prop41ColorIndex
 90
       18
102
RTVSPost2010Prop41ColorRGB
 90
        0
102
RTVSPost2010PropOp41
 70
     1
102
RTVSPost2010Prop42
 90
       50
102
RTVSPost2010PropOp42
 70
     1
102
RTVSPost2010Prop43
 90
        3
102
RTVSPost2010PropOp43
 70
     1
102
RTVSPost2010Prop44ColorIndex
 90
        5
102
RTVSPost2010Prop44ColorRGB
 90
      255
102
RTVSPost2010PropOp44
 70
     1
102
RTVSPost2010Prop45
280
     0
102
RTVSPost2010PropOp45
 70
     1
102
RTVSPost2010Prop46
 90
       50
102
RTVSPost2010PropOp46
 70
     1
102
RTVSPost2010Prop47
 90
       50
102
RTVSPost2010PropOp47
 70
     1
102
RTVSPost2010Prop48
 90
       50
102
RTVSPost2010PropOp48
 70
     1
102
RTVSPost2010Prop49
280
     0
102
RTVSPost2010PropOp49
 70
     1
102
RTVSPost2010Prop50
 90
       50
102
RTVSPost2010PropOp50
 70
     1
102
RTVSPost2010Prop51ColorIndex
 90
      256
102
RTVSPost2010Prop51ColorRGB
 90
-16777216
102
RTVSPost2010PropOp51
 70
     0
102
RTVSPost2010Prop52
140
1.0
102
RTVSPost2010PropOp52
 70
     0
102
RTVSPost2010Prop53
 90
        2
102
RTVSPost2010PropOp53
 70
     1
102
RTVSPost2010Prop54
  1
strokes_ogs.tif
102
RTVSPost2010PropOp54
 70
     1
102
RTVSPost2010Prop55
280
     0
102
RTVSPost2010PropOp55
 70
     1
102
RTVSPost2010Prop56
140
1.0
102
RTVSPost2010PropOp56
 70
     1
102
RTVSPost2010Prop57
140
1.0
102
RTVSPost2010PropOp57
 70
     1
  0
XRECORD
  5
C7
102
{ACAD_REACTORS
330
C6
102
}
330
C6
100
AcDbXrecord
280
     1
102
RTVSPropertyOp0
 70
     1
102
RTVSPropertyOp1
 70
     1
102
RTVSPropertyOp2
 70
     1
102
RTVSPropertyOp3
 70
     1
102
RTVSPropertyOp4
 70
     1
102
RTVSPropertyOp5
 70
     1
102
RTVSPropertyOp6
 70
     1
102
RTVSPropertyOp7
 70
     1
102
RTVSPropertyOp8
 70
     1
102
RTVSPropertyOp9
 70
     1
102
RTVSPropertyOp10
 70
     1
102
RTVSPropertyOp11
 70
     1
102
RTVSPropertyOp12
 70
     1
102
RTVSPropertyOp13
 70
     1
102
RTVSPropertyOp14
 70
     1
102
RTVSPropertyOp15
 70
     1
102
RTVSPropertyOp16
 70
     1
102
RTVSPropertyOp17
 70
     1
102
RTVSPropertyOp18
 70
     1
102
RTVSPropertyOp19
 70
     1
102
RTVSPropertyOp20
 70
     1
102
RTVSPropertyOp21
 70
     1
102
RTVSPropertyOp22
 70
     1
102
RTVSPropertyOp23
 70
     1
102
RTVSPropertyOp24
 70
     1
102
RTVSPropertyOp25
 70
     1
102
RTVSPropertyOp26
 70
     1
102
RTVSPropertyOp27
 70
     1
102
RTVSPropertyOp28
 70
     1
102
RTVSPropertyOp29
 70
     1
102
RTVSPropertyOp30
 70
     1
102
RTVSPropertyOp31
 70
     1
102
RTVSPropertyOp32
 70
     1
102
RTVSPropertyOp33
 70
     1
102
RTVSPropertyOp34
 70
     1
102
RTVSPropertyOp35
 70
     1
102
RTVSPropertyOp36
 70
     1
102
RTVSPropertyOp37
 70
     1
102
RTVSPropertyOp38
 70
     1
102
RTVSPropertyOp39
 70
     1
102
RTVSPropertyOp40
 70
     1
102
RTVSPropertyOp41
 70
     1
102
RTVSPropertyOp42
 70
     1
102
RTVSPropertyOp43
 70
     1
102
RTVSPropertyOp44
 70
     1
102
RTVSPropertyOp45
 70
     1
102
RTVSPropertyOp46
 70
     1
102
RTVSPropertyOp47
 70
     1
102
RTVSPropertyOp48
 70
     1
102
RTVSPropertyOp49
 70
     1
102
RTVSPropertyOp50
 70
     1
102
RTVSPropertyOp51
 70
     0
102
RTVSPropertyOp52
 70
     0
102
RTVSPropertyOp53
 70
     1
102
RTVSPropertyOp54
 70
     1
102
RTVSPropertyOp55
 70
     1
102
RTVSPropertyOp56
 70
     1
102
RTVSPropertyOp57
 70
     1
102
RTVSPost2010Prop28
280
     0
102
RTVSPost2010PropOp28
 70
     1
102
RTVSPost2010Prop29
280
     1
102
RTVSPost2010PropOp29
 70
     1
102
RTVSPost2010Prop30
280
     1
102
RTVSPost2010PropOp30
 70
     1
102
RTVSPost2010Prop31
280
     0
102
RTVSPost2010PropOp31
 70
     1
102
RTVSPost2010Prop32
280
     0
102
RTVSPost2010PropOp32
 70
     1
102
RTVSPost2010Prop33
280
     0
102
RTVSPost2010PropOp33
 70
     1
102
RTVSPost2010Prop34
280
     0
102
RTVSPost2010PropOp34
 70
     1
102
RTVSPost2010Prop35
280
     0
102
RTVSPost2010PropOp35
 70
     1
102
RTVSPost2010Prop36
280
     0
102
RTVSPost2010PropOp36
 70
     1
102
RTVSPost2010Prop37
 90
       50
102
RTVSPost2010PropOp37
 70
     1
102
RTVSPost2010Prop38
140
0.0
102
RTVSPost2010PropOp38
 70
     1
102
RTVSPost2010Prop39
140
1.0
102
RTVSPost2010PropOp39
 70
     1
102
RTVSPost2010Prop40
 90
        0
102
RTVSPost2010PropOp40
 70
     1
102
RTVSPost2010Prop41ColorIndex
 90
       18
102
RTVSPost2010Prop41ColorRGB
 90
        0
102
RTVSPost2010PropOp41
 70
     1
102
RTVSPost2010Prop42
 90
       50
102
RTVSPost2010PropOp42
 70
     1
102
RTVSPost2010Prop43
 90
        3
102
RTVSPost2010PropOp43
 70
     1
102
RTVSPost2010Prop44ColorIndex
 90
        5
102
RTVSPost2010Prop44ColorRGB
 90
      255
102
RTVSPost2010PropOp44
 70
     1
102
RTVSPost2010Prop45
280
     0
102
RTVSPost2010PropOp45
 70
     1
102
RTVSPost2010Prop46
 90
       50
102
RTVSPost2010PropOp46
 70
     1
102
RTVSPost2010Prop47
 90
       50
102
RTVSPost2010PropOp47
 70
     1
102
RTVSPost2010Prop48
 90
       50
102
RTVSPost2010PropOp48
 70
     1
102
RTVSPost2010Prop49
280
     0
102
RTVSPost2010PropOp49
 70
     1
102
RTVSPost2010Prop50
 90
       50
102
RTVSPost2010PropOp50
 70
     1
102
RTVSPost2010Prop51ColorIndex
 90
      256
102
RTVSPost2010Prop51ColorRGB
 90
-16777216
102
RTVSPost2010PropOp51
 70
     0
102
RTVSPost2010Prop52
140
1.0
102
RTVSPost2010PropOp52
 70
     0
102
RTVSPost2010Prop53
 90
        2
102
RTVSPost2010PropOp53
 70
     1
102
RTVSPost2010Prop54
  1
strokes_ogs.tif
102
RTVSPost2010PropOp54
 70
     1
102
RTVSPost2010Prop55
280
     0
102
RTVSPost2010PropOp55
 70
     1
102
RTVSPost2010Prop56
140
1.0
102
RTVSPost2010PropOp56
 70
     1
102
RTVSPost2010Prop57
140
1.0
102
RTVSPost2010PropOp57
 70
     1
  0
XRECORD
  5
CF
102
{ACAD_REACTORS
330
CE
102
}
330
CE
100
AcDbXrecord
280
     1
102
RTVSPropertyOp0
 70
     1
102
RTVSPropertyOp1
 70
     1
102
RTVSPropertyOp2
 70
     1
102
RTVSPropertyOp3
 70
     1
102
RTVSPropertyOp4
 70
     1
102
RTVSPropertyOp5
 70
     1
102
RTVSPropertyOp6
 70
     1
102
RTVSPropertyOp7
 70
     1
102
RTVSPropertyOp8
 70
     1
102
RTVSPropertyOp9
 70
     1
102
RTVSPropertyOp10
 70
     1
102
RTVSPropertyOp11
 70
     1
102
RTVSPropertyOp12
 70
     1
102
RTVSPropertyOp13
 70
     1
102
RTVSPropertyOp14
 70
     1
102
RTVSPropertyOp15
 70
     1
102
RTVSPropertyOp16
 70
     1
102
RTVSPropertyOp17
 70
     1
102
RTVSPropertyOp18
 70
     1
102
RTVSPropertyOp19
 70
     1
102
RTVSPropertyOp20
 70
     1
102
RTVSPropertyOp21
 70
     1
102
RTVSPropertyOp22
 70
     1
102
RTVSPropertyOp23
 70
     1
102
RTVSPropertyOp24
 70
     1
102
RTVSPropertyOp25
 70
     1
102
RTVSPropertyOp26
 70
     1
102
RTVSPropertyOp27
 70
     1
102
RTVSPropertyOp28
 70
     1
102
RTVSPropertyOp29
 70
     1
102
RTVSPropertyOp30
 70
     1
102
RTVSPropertyOp31
 70
     1
102
RTVSPropertyOp32
 70
     1
102
RTVSPropertyOp33
 70
     1
102
RTVSPropertyOp34
 70
     1
102
RTVSPropertyOp35
 70
     1
102
RTVSPropertyOp36
 70
     1
102
RTVSPropertyOp37
 70
     1
102
RTVSPropertyOp38
 70
     1
102
RTVSPropertyOp39
 70
     1
102
RTVSPropertyOp40
 70
     1
102
RTVSPropertyOp41
 70
     1
102
RTVSPropertyOp42
 70
     1
102
RTVSPropertyOp43
 70
     1
102
RTVSPropertyOp44
 70
     1
102
RTVSPropertyOp45
 70
     1
102
RTVSPropertyOp46
 70
     1
102
RTVSPropertyOp47
 70
     1
102
RTVSPropertyOp48
 70
     1
102
RTVSPropertyOp49
 70
     1
102
RTVSPropertyOp50
 70
     1
102
RTVSPropertyOp51
 70
     0
102
RTVSPropertyOp52
 70
     0
102
RTVSPropertyOp53
 70
     1
102
RTVSPropertyOp54
 70
     1
102
RTVSPropertyOp55
 70
     1
102
RTVSPropertyOp56
 70
     1
102
RTVSPropertyOp57
 70
     1
102
RTVSPost2010Prop28
280
     0
102
RTVSPost2010PropOp28
 70
     1
102
RTVSPost2010Prop29
280
     1
102
RTVSPost2010PropOp29
 70
     1
102
RTVSPost2010Prop30
280
     1
102
RTVSPost2010PropOp30
 70
     1
102
RTVSPost2010Prop31
280
     0
102
RTVSPost2010PropOp31
 70
     1
102
RTVSPost2010Prop32
280
     0
102
RTVSPost2010PropOp32
 70
     1
102
RTVSPost2010Prop33
280
     0
102
RTVSPost2010PropOp33
 70
     1
102
RTVSPost2010Prop34
280
     0
102
RTVSPost2010PropOp34
 70
     1
102
RTVSPost2010Prop35
280
     0
102
RTVSPost2010PropOp35
 70
     1
102
RTVSPost2010Prop36
280
     0
102
RTVSPost2010PropOp36
 70
     1
102
RTVSPost2010Prop37
 90
       50
102
RTVSPost2010PropOp37
 70
     1
102
RTVSPost2010Prop38
140
0.0
102
RTVSPost2010PropOp38
 70
     1
102
RTVSPost2010Prop39
140
1.0
102
RTVSPost2010PropOp39
 70
     1
102
RTVSPost2010Prop40
 90
        0
102
RTVSPost2010PropOp40
 70
     1
102
RTVSPost2010Prop41ColorIndex
 90
       18
102
RTVSPost2010Prop41ColorRGB
 90
        0
102
RTVSPost2010PropOp41
 70
     1
102
RTVSPost2010Prop42
 90
       50
102
RTVSPost2010PropOp42
 70
     1
102
RTVSPost2010Prop43
 90
        3
102
RTVSPost2010PropOp43
 70
     1
102
RTVSPost2010Prop44ColorIndex
 90
        5
102
RTVSPost2010Prop44ColorRGB
 90
      255
102
RTVSPost2010PropOp44
 70
     1
102
RTVSPost2010Prop45
280
     0
102
RTVSPost2010PropOp45
 70
     1
102
RTVSPost2010Prop46
 90
       50
102
RTVSPost2010PropOp46
 70
     1
102
RTVSPost2010Prop47
 90
       50
102
RTVSPost2010PropOp47
 70
     1
102
RTVSPost2010Prop48
 90
       50
102
RTVSPost2010PropOp48
 70
     1
102
RTVSPost2010Prop49
280
     0
102
RTVSPost2010PropOp49
 70
     1
102
RTVSPost2010Prop50
 90
       50
102
RTVSPost2010PropOp50
 70
     1
102
RTVSPost2010Prop51ColorIndex
 90
      256
102
RTVSPost2010Prop51ColorRGB
 90
-16777216
102
RTVSPost2010PropOp51
 70
     0
102
RTVSPost2010Prop52
140
1.0
102
RTVSPost2010PropOp52
 70
     0
102
RTVSPost2010Prop53
 90
        2
102
RTVSPost2010PropOp53
 70
     1
102
RTVSPost2010Prop54
  1
strokes_ogs.tif
102
RTVSPost2010PropOp54
 70
     1
102
RTVSPost2010Prop55
280
     0
102
RTVSPost2010PropOp55
 70
     1
102
RTVSPost2010Prop56
140
1.0
102
RTVSPost2010PropOp56
 70
     1
102
RTVSPost2010Prop57
140
1.0
102
RTVSPost2010PropOp57
 70
     1
  0
XRECORD
  5
C3
102
{ACAD_REACTORS
330
C2
102
}
330
C2
100
AcDbXrecord
280
     1
102
RTVSPropertyOp0
 70
     1
102
RTVSPropertyOp1
 70
     1
102
RTVSPropertyOp2
 70
     1
102
RTVSPropertyOp3
 70
     1
102
RTVSPropertyOp4
 70
     1
102
RTVSPropertyOp5
 70
     1
102
RTVSPropertyOp6
 70
     1
102
RTVSPropertyOp7
 70
     1
102
RTVSPropertyOp8
 70
     1
102
RTVSPropertyOp9
 70
     1
102
RTVSPropertyOp10
 70
     1
102
RTVSPropertyOp11
 70
     1
102
RTVSPropertyOp12
 70
     1
102
RTVSPropertyOp13
 70
     1
102
RTVSPropertyOp14
 70
     1
102
RTVSPropertyOp15
 70
     1
102
RTVSPropertyOp16
 70
     1
102
RTVSPropertyOp17
 70
     1
102
RTVSPropertyOp18
 70
     1
102
RTVSPropertyOp19
 70
     1
102
RTVSPropertyOp20
 70
     1
102
RTVSPropertyOp21
 70
     1
102
RTVSPropertyOp22
 70
     1
102
RTVSPropertyOp23
 70
     1
102
RTVSPropertyOp24
 70
     1
102
RTVSPropertyOp25
 70
     1
102
RTVSPropertyOp26
 70
     1
102
RTVSPropertyOp27
 70
     1
102
RTVSPropertyOp28
 70
     1
102
RTVSPropertyOp29
 70
     1
102
RTVSPropertyOp30
 70
     1
102
RTVSPropertyOp31
 70
     1
102
RTVSPropertyOp32
 70
     1
102
RTVSPropertyOp33
 70
     1
102
RTVSPropertyOp34
 70
     1
102
RTVSPropertyOp35
 70
     1
102
RTVSPropertyOp36
 70
     1
102
RTVSPropertyOp37
 70
     1
102
RTVSPropertyOp38
 70
     1
102
RTVSPropertyOp39
 70
     1
102
RTVSPropertyOp40
 70
     1
102
RTVSPropertyOp41
 70
     1
102
RTVSPropertyOp42
 70
     1
102
RTVSPropertyOp43
 70
     1
102
RTVSPropertyOp44
 70
     1
102
RTVSPropertyOp45
 70
     1
102
RTVSPropertyOp46
 70
     1
102
RTVSPropertyOp47
 70
     1
102
RTVSPropertyOp48
 70
     1
102
RTVSPropertyOp49
 70
     1
102
RTVSPropertyOp50
 70
     1
102
RTVSPropertyOp51
 70
     0
102
RTVSPropertyOp52
 70
     0
102
RTVSPropertyOp53
 70
     1
102
RTVSPropertyOp54
 70
     1
102
RTVSPropertyOp55
 70
     1
102
RTVSPropertyOp56
 70
     1
102
RTVSPropertyOp57
 70
     1
102
RTVSPost2010Prop28
280
     0
102
RTVSPost2010PropOp28
 70
     1
102
RTVSPost2010Prop29
280
     1
102
RTVSPost2010PropOp29
 70
     1
102
RTVSPost2010Prop30
280
     1
102
RTVSPost2010PropOp30
 70
     1
102
RTVSPost2010Prop31
280
     0
102
RTVSPost2010PropOp31
 70
     1
102
RTVSPost2010Prop32
280
     0
102
RTVSPost2010PropOp32
 70
     1
102
RTVSPost2010Prop33
280
     0
102
RTVSPost2010PropOp33
 70
     1
102
RTVSPost2010Prop34
280
     0
102
RTVSPost2010PropOp34
 70
     1
102
RTVSPost2010Prop35
280
     0
102
RTVSPost2010PropOp35
 70
     1
102
RTVSPost2010Prop36
280
     0
102
RTVSPost2010PropOp36
 70
     1
102
RTVSPost2010Prop37
 90
       50
102
RTVSPost2010PropOp37
 70
     1
102
RTVSPost2010Prop38
140
0.0
102
RTVSPost2010PropOp38
 70
     1
102
RTVSPost2010Prop39
140
1.0
102
RTVSPost2010PropOp39
 70
     1
102
RTVSPost2010Prop40
 90
        0
102
RTVSPost2010PropOp40
 70
     1
102
RTVSPost2010Prop41ColorIndex
 90
       18
102
RTVSPost2010Prop41ColorRGB
 90
        0
102
RTVSPost2010PropOp41
 70
     1
102
RTVSPost2010Prop42
 90
       50
102
RTVSPost2010PropOp42
 70
     1
102
RTVSPost2010Prop43
 90
        3
102
RTVSPost2010PropOp43
 70
     1
102
RTVSPost2010Prop44ColorIndex
 90
        5
102
RTVSPost2010Prop44ColorRGB
 90
      255
102
RTVSPost2010PropOp44
 70
     1
102
RTVSPost2010Prop45
280
     0
102
RTVSPost2010PropOp45
 70
     1
102
RTVSPost2010Prop46
 90
       50
102
RTVSPost2010PropOp46
 70
     1
102
RTVSPost2010Prop47
 90
       50
102
RTVSPost2010PropOp47
 70
     1
102
RTVSPost2010Prop48
 90
       50
102
RTVSPost2010PropOp48
 70
     1
102
RTVSPost2010Prop49
280
     0
102
RTVSPost2010PropOp49
 70
     1
102
RTVSPost2010Prop50
 90
       50
102
RTVSPost2010PropOp50
 70
     1
102
RTVSPost2010Prop51ColorIndex
 90
      256
102
RTVSPost2010Prop51ColorRGB
 90
-16777216
102
RTVSPost2010PropOp51
 70
     0
102
RTVSPost2010Prop52
140
1.0
102
RTVSPost2010PropOp52
 70
     0
102
RTVSPost2010Prop53
 90
        2
102
RTVSPost2010PropOp53
 70
     1
102
RTVSPost2010Prop54
  1
strokes_ogs.tif
102
RTVSPost2010PropOp54
 70
     1
102
RTVSPost2010Prop55
280
     0
102
RTVSPost2010PropOp55
 70
     1
102
RTVSPost2010Prop56
140
1.0
102
RTVSPost2010PropOp56
 70
     1
102
RTVSPost2010Prop57
140
1.0
102
RTVSPost2010PropOp57
 70
     1
  0
XRECORD
  5
C5
102
{ACAD_REACTORS
330
C4
102
}
330
C4
100
AcDbXrecord
280
     1
102
RTVSPropertyOp0
 70
     1
102
RTVSPropertyOp1
 70
     1
102
RTVSPropertyOp2
 70
     1
102
RTVSPropertyOp3
 70
     1
102
RTVSPropertyOp4
 70
     1
102
RTVSPropertyOp5
 70
     1
102
RTVSPropertyOp6
 70
     1
102
RTVSPropertyOp7
 70
     1
102
RTVSPropertyOp8
 70
     1
102
RTVSPropertyOp9
 70
     1
102
RTVSPropertyOp10
 70
     1
102
RTVSPropertyOp11
 70
     1
102
RTVSPropertyOp12
 70
     1
102
RTVSPropertyOp13
 70
     1
102
RTVSPropertyOp14
 70
     1
102
RTVSPropertyOp15
 70
     1
102
RTVSPropertyOp16
 70
     1
102
RTVSPropertyOp17
 70
     1
102
RTVSPropertyOp18
 70
     1
102
RTVSPropertyOp19
 70
     1
102
RTVSPropertyOp20
 70
     1
102
RTVSPropertyOp21
 70
     1
102
RTVSPropertyOp22
 70
     1
102
RTVSPropertyOp23
 70
     1
102
RTVSPropertyOp24
 70
     1
102
RTVSPropertyOp25
 70
     1
102
RTVSPropertyOp26
 70
     1
102
RTVSPropertyOp27
 70
     1
102
RTVSPropertyOp28
 70
     1
102
RTVSPropertyOp29
 70
     1
102
RTVSPropertyOp30
 70
     1
102
RTVSPropertyOp31
 70
     1
102
RTVSPropertyOp32
 70
     1
102
RTVSPropertyOp33
 70
     1
102
RTVSPropertyOp34
 70
     1
102
RTVSPropertyOp35
 70
     1
102
RTVSPropertyOp36
 70
     1
102
RTVSPropertyOp37
 70
     1
102
RTVSPropertyOp38
 70
     1
102
RTVSPropertyOp39
 70
     1
102
RTVSPropertyOp40
 70
     1
102
RTVSPropertyOp41
 70
     1
102
RTVSPropertyOp42
 70
     1
102
RTVSPropertyOp43
 70
     1
102
RTVSPropertyOp44
 70
     1
102
RTVSPropertyOp45
 70
     1
102
RTVSPropertyOp46
 70
     1
102
RTVSPropertyOp47
 70
     1
102
RTVSPropertyOp48
 70
     1
102
RTVSPropertyOp49
 70
     1
102
RTVSPropertyOp50
 70
     1
102
RTVSPropertyOp51
 70
     0
102
RTVSPropertyOp52
 70
     0
102
RTVSPropertyOp53
 70
     1
102
RTVSPropertyOp54
 70
     1
102
RTVSPropertyOp55
 70
     1
102
RTVSPropertyOp56
 70
     1
102
RTVSPropertyOp57
 70
     1
102
RTVSPost2010Prop28
280
     0
102
RTVSPost2010PropOp28
 70
     1
102
RTVSPost2010Prop29
280
     1
102
RTVSPost2010PropOp29
 70
     1
102
RTVSPost2010Prop30
280
     1
102
RTVSPost2010PropOp30
 70
     1
102
RTVSPost2010Prop31
280
     0
102
RTVSPost2010PropOp31
 70
     1
102
RTVSPost2010Prop32
280
     0
102
RTVSPost2010PropOp32
 70
     1
102
RTVSPost2010Prop33
280
     0
102
RTVSPost2010PropOp33
 70
     1
102
RTVSPost2010Prop34
280
     0
102
RTVSPost2010PropOp34
 70
     1
102
RTVSPost2010Prop35
280
     0
102
RTVSPost2010PropOp35
 70
     1
102
RTVSPost2010Prop36
280
     0
102
RTVSPost2010PropOp36
 70
     1
102
RTVSPost2010Prop37
 90
       50
102
RTVSPost2010PropOp37
 70
     1
102
RTVSPost2010Prop38
140
0.0
102
RTVSPost2010PropOp38
 70
     1
102
RTVSPost2010Prop39
140
1.0
102
RTVSPost2010PropOp39
 70
     1
102
RTVSPost2010Prop40
 90
        0
102
RTVSPost2010PropOp40
 70
     1
102
RTVSPost2010Prop41ColorIndex
 90
       18
102
RTVSPost2010Prop41ColorRGB
 90
        0
102
RTVSPost2010PropOp41
 70
     1
102
RTVSPost2010Prop42
 90
       50
102
RTVSPost2010PropOp42
 70
     1
102
RTVSPost2010Prop43
 90
        3
102
RTVSPost2010PropOp43
 70
     1
102
RTVSPost2010Prop44ColorIndex
 90
        5
102
RTVSPost2010Prop44ColorRGB
 90
      255
102
RTVSPost2010PropOp44
 70
     1
102
RTVSPost2010Prop45
280
     0
102
RTVSPost2010PropOp45
 70
     1
102
RTVSPost2010Prop46
 90
       50
102
RTVSPost2010PropOp46
 70
     1
102
RTVSPost2010Prop47
 90
       50
102
RTVSPost2010PropOp47
 70
     1
102
RTVSPost2010Prop48
 90
       50
102
RTVSPost2010PropOp48
 70
     1
102
RTVSPost2010Prop49
280
     0
102
RTVSPost2010PropOp49
 70
     1
102
RTVSPost2010Prop50
 90
       50
102
RTVSPost2010PropOp50
 70
     1
102
RTVSPost2010Prop51ColorIndex
 90
      256
102
RTVSPost2010Prop51ColorRGB
 90
-16777216
102
RTVSPost2010PropOp51
 70
     0
102
RTVSPost2010Prop52
140
1.0
102
RTVSPost2010PropOp52
 70
     0
102
RTVSPost2010Prop53
 90
        2
102
RTVSPost2010PropOp53
 70
     1
102
RTVSPost2010Prop54
  1
strokes_ogs.tif
102
RTVSPost2010PropOp54
 70
     1
102
RTVSPost2010Prop55
280
     0
102
RTVSPost2010PropOp55
 70
     1
102
RTVSPost2010Prop56
140
1.0
102
RTVSPost2010PropOp56
 70
     1
102
RTVSPost2010Prop57
140
1.0
102
RTVSPost2010PropOp57
 70
     1
  0
XRECORD
  5
D5
102
{ACAD_REACTORS
330
D4
102
}
330
D4
100
AcDbXrecord
280
     1
102
RTVSPropertyOp0
 70
     0
102
RTVSPropertyOp1
 70
     0
102
RTVSPropertyOp2
 70
     0
102
RTVSPropertyOp3
 70
     0
102
RTVSPropertyOp4
 70
     0
102
RTVSPropertyOp5
 70
     0
102
RTVSPropertyOp6
 70
     0
102
RTVSPropertyOp7
 70
     0
102
RTVSPropertyOp8
 70
     0
102
RTVSPropertyOp9
 70
     0
102
RTVSPropertyOp10
 70
     0
102
RTVSPropertyOp11
 70
     0
102
RTVSPropertyOp12
 70
     0
102
RTVSPropertyOp13
 70
     0
102
RTVSPropertyOp14
 70
     2
102
RTVSPropertyOp15
 70
     0
102
RTVSPropertyOp16
 70
     0
102
RTVSPropertyOp17
 70
     0
102
RTVSPropertyOp18
 70
     0
102
RTVSPropertyOp19
 70
     0
102
RTVSPropertyOp20
 70
     0
102
RTVSPropertyOp21
 70
     0
102
RTVSPropertyOp22
 70
     0
102
RTVSPropertyOp23
 70
     0
102
RTVSPropertyOp24
 70
     0
102
RTVSPropertyOp25
 70
     0
102
RTVSPropertyOp26
 70
     0
102
RTVSPropertyOp27
 70
     0
102
RTVSPropertyOp28
 70
     0
102
RTVSPropertyOp29
 70
     0
102
RTVSPropertyOp30
 70
     0
102
RTVSPropertyOp31
 70
     0
102
RTVSPropertyOp32
 70
     0
102
RTVSPropertyOp33
 70
     0
102
RTVSPropertyOp34
 70
     0
102
RTVSPropertyOp35
 70
     0
102
RTVSPropertyOp36
 70
     0
102
RTVSPropertyOp37
 70
     0
102
RTVSPropertyOp38
 70
     0
102
RTVSPropertyOp39
 70
     0
102
RTVSPropertyOp40
 70
     0
102
RTVSPropertyOp41
 70
     0
102
RTVSPropertyOp42
 70
     0
102
RTVSPropertyOp43
 70
     0
102
RTVSPropertyOp44
 70
     0
102
RTVSPropertyOp45
 70
     0
102
RTVSPropertyOp46
 70
     0
102
RTVSPropertyOp47
 70
     0
102
RTVSPropertyOp48
 70
     0
102
RTVSPropertyOp49
 70
     0
102
RTVSPropertyOp50
 70
     0
102
RTVSPropertyOp51
 70
     0
102
RTVSPropertyOp52
 70
     0
102
RTVSPropertyOp53
 70
     0
102
RTVSPropertyOp54
 70
     0
102
RTVSPropertyOp55
 70
     0
102
RTVSPropertyOp56
 70
     0
102
RTVSPropertyOp57
 70
     0
102
RTVSPost2010Prop28
280
     0
102
RTVSPost2010PropOp28
 70
     0
102
RTVSPost2010Prop29
280
     1
102
RTVSPost2010PropOp29
 70
     0
102
RTVSPost2010Prop30
280
     1
102
RTVSPost2010PropOp30
 70
     0
102
RTVSPost2010Prop31
280
     0
102
RTVSPost2010PropOp31
 70
     0
102
RTVSPost2010Prop32
280
     0
102
RTVSPost2010PropOp32
 70
     0
102
RTVSPost2010Prop33
280
     0
102
RTVSPost2010PropOp33
 70
     0
102
RTVSPost2010Prop34
280
     0
102
RTVSPost2010PropOp34
 70
     0
102
RTVSPost2010Prop35
280
     0
102
RTVSPost2010PropOp35
 70
     0
102
RTVSPost2010Prop36
280
     0
102
RTVSPost2010PropOp36
 70
     0
102
RTVSPost2010Prop37
 90
       50
102
RTVSPost2010PropOp37
 70
     0
102
RTVSPost2010Prop38
140
0.0
102
RTVSPost2010PropOp38
 70
     0
102
RTVSPost2010Prop39
140
1.0
102
RTVSPost2010PropOp39
 70
     0
102
RTVSPost2010Prop40
 90
        0
102
RTVSPost2010PropOp40
 70
     0
102
RTVSPost2010Prop41ColorIndex
 90
       18
102
RTVSPost2010Prop41ColorRGB
 90
        0
102
RTVSPost2010PropOp41
 70
     0
102
RTVSPost2010Prop42
 90
       50
102
RTVSPost2010PropOp42
 70
     0
102
RTVSPost2010Prop43
 90
        3
102
RTVSPost2010PropOp43
 70
     0
102
RTVSPost2010Prop44ColorIndex
 90
        5
102
RTVSPost2010Prop44ColorRGB
 90
      255
102
RTVSPost2010PropOp44
 70
     0
102
RTVSPost2010Prop45
280
     0
102
RTVSPost2010PropOp45
 70
     0
102
RTVSPost2010Prop46
 90
       50
102
RTVSPost2010PropOp46
 70
     0
102
RTVSPost2010Prop47
 90
       50
102
RTVSPost2010PropOp47
 70
     0
102
RTVSPost2010Prop48
 90
       50
102
RTVSPost2010PropOp48
 70
     0
102
RTVSPost2010Prop49
280
     0
102
RTVSPost2010PropOp49
 70
     0
102
RTVSPost2010Prop50
 90
       50
102
RTVSPost2010PropOp50
 70
     0
102
RTVSPost2010Prop51ColorIndex
 90
      256
102
RTVSPost2010Prop51ColorRGB
 90
-16777216
102
RTVSPost2010PropOp51
 70
     0
102
RTVSPost2010Prop52
140
1.0
102
RTVSPost2010PropOp52
 70
     0
102
RTVSPost2010Prop53
 90
        2
102
RTVSPost2010PropOp53
 70
     0
102
RTVSPost2010Prop54
  1
strokes_ogs.tif
102
RTVSPost2010PropOp54
 70
     0
102
RTVSPost2010Prop55
280
     0
102
RTVSPost2010PropOp55
 70
     0
102
RTVSPost2010Prop56
140
1.0
102
RTVSPost2010PropOp56
 70
     0
102
RTVSPost2010Prop57
140
1.0
102
RTVSPost2010PropOp57
 70
     0
  0
XRECORD
  5
CD
102
{ACAD_REACTORS
330
CC
102
}
330
CC
100
AcDbXrecord
280
     1
102
RTVSPropertyOp0
 70
     1
102
RTVSPropertyOp1
 70
     1
102
RTVSPropertyOp2
 70
     1
102
RTVSPropertyOp3
 70
     1
102
RTVSPropertyOp4
 70
     1
102
RTVSPropertyOp5
 70
     1
102
RTVSPropertyOp6
 70
     1
102
RTVSPropertyOp7
 70
     1
102
RTVSPropertyOp8
 70
     1
102
RTVSPropertyOp9
 70
     1
102
RTVSPropertyOp10
 70
     1
102
RTVSPropertyOp11
 70
     1
102
RTVSPropertyOp12
 70
     1
102
RTVSPropertyOp13
 70
     1
102
RTVSPropertyOp14
 70
     1
102
RTVSPropertyOp15
 70
     1
102
RTVSPropertyOp16
 70
     1
102
RTVSPropertyOp17
 70
     1
102
RTVSPropertyOp18
 70
     1
102
RTVSPropertyOp19
 70
     1
102
RTVSPropertyOp20
 70
     1
102
RTVSPropertyOp21
 70
     1
102
RTVSPropertyOp22
 70
     1
102
RTVSPropertyOp23
 70
     1
102
RTVSPropertyOp24
 70
     1
102
RTVSPropertyOp25
 70
     1
102
RTVSPropertyOp26
 70
     1
102
RTVSPropertyOp27
 70
     1
102
RTVSPropertyOp28
 70
     1
102
RTVSPropertyOp29
 70
     1
102
RTVSPropertyOp30
 70
     1
102
RTVSPropertyOp31
 70
     1
102
RTVSPropertyOp32
 70
     1
102
RTVSPropertyOp33
 70
     1
102
RTVSPropertyOp34
 70
     1
102
RTVSPropertyOp35
 70
     1
102
RTVSPropertyOp36
 70
     1
102
RTVSPropertyOp37
 70
     1
102
RTVSPropertyOp38
 70
     1
102
RTVSPropertyOp39
 70
     1
102
RTVSPropertyOp40
 70
     1
102
RTVSPropertyOp41
 70
     1
102
RTVSPropertyOp42
 70
     1
102
RTVSPropertyOp43
 70
     1
102
RTVSPropertyOp44
 70
     1
102
RTVSPropertyOp45
 70
     1
102
RTVSPropertyOp46
 70
     1
102
RTVSPropertyOp47
 70
     1
102
RTVSPropertyOp48
 70
     1
102
RTVSPropertyOp49
 70
     1
102
RTVSPropertyOp50
 70
     1
102
RTVSPropertyOp51
 70
     0
102
RTVSPropertyOp52
 70
     0
102
RTVSPropertyOp53
 70
     1
102
RTVSPropertyOp54
 70
     1
102
RTVSPropertyOp55
 70
     1
102
RTVSPropertyOp56
 70
     1
102
RTVSPropertyOp57
 70
     1
102
RTVSPost2010Prop28
280
     0
102
RTVSPost2010PropOp28
 70
     1
102
RTVSPost2010Prop29
280
     1
102
RTVSPost2010PropOp29
 70
     1
102
RTVSPost2010Prop30
280
     1
102
RTVSPost2010PropOp30
 70
     1
102
RTVSPost2010Prop31
280
     0
102
RTVSPost2010PropOp31
 70
     1
102
RTVSPost2010Prop32
280
     0
102
RTVSPost2010PropOp32
 70
     1
102
RTVSPost2010Prop33
280
     0
102
RTVSPost2010PropOp33
 70
     1
102
RTVSPost2010Prop34
280
     0
102
RTVSPost2010PropOp34
 70
     1
102
RTVSPost2010Prop35
280
     0
102
RTVSPost2010PropOp35
 70
     1
102
RTVSPost2010Prop36
280
     0
102
RTVSPost2010PropOp36
 70
     1
102
RTVSPost2010Prop37
 90
       50
102
RTVSPost2010PropOp37
 70
     1
102
RTVSPost2010Prop38
140
0.0
102
RTVSPost2010PropOp38
 70
     1
102
RTVSPost2010Prop39
140
1.0
102
RTVSPost2010PropOp39
 70
     1
102
RTVSPost2010Prop40
 90
        0
102
RTVSPost2010PropOp40
 70
     1
102
RTVSPost2010Prop41ColorIndex
 90
       18
102
RTVSPost2010Prop41ColorRGB
 90
        0
102
RTVSPost2010PropOp41
 70
     1
102
RTVSPost2010Prop42
 90
       50
102
RTVSPost2010PropOp42
 70
     1
102
RTVSPost2010Prop43
 90
        3
102
RTVSPost2010PropOp43
 70
     1
102
RTVSPost2010Prop44ColorIndex
 90
        5
102
RTVSPost2010Prop44ColorRGB
 90
      255
102
RTVSPost2010PropOp44
 70
     1
102
RTVSPost2010Prop45
280
     0
102
RTVSPost2010PropOp45
 70
     1
102
RTVSPost2010Prop46
 90
       50
102
RTVSPost2010PropOp46
 70
     1
102
RTVSPost2010Prop47
 90
       50
102
RTVSPost2010PropOp47
 70
     1
102
RTVSPost2010Prop48
 90
       50
102
RTVSPost2010PropOp48
 70
     1
102
RTVSPost2010Prop49
280
     0
102
RTVSPost2010PropOp49
 70
     1
102
RTVSPost2010Prop50
 90
       50
102
RTVSPost2010PropOp50
 70
     1
102
RTVSPost2010Prop51ColorIndex
 90
      256
102
RTVSPost2010Prop51ColorRGB
 90
-16777216
102
RTVSPost2010PropOp51
 70
     0
102
RTVSPost2010Prop52
140
1.0
102
RTVSPost2010PropOp52
 70
     0
102
RTVSPost2010Prop53
 90
        2
102
RTVSPost2010PropOp53
 70
     1
102
RTVSPost2010Prop54
  1
strokes_ogs.tif
102
RTVSPost2010PropOp54
 70
     1
102
RTVSPost2010Prop55
280
     0
102
RTVSPost2010PropOp55
 70
     1
102
RTVSPost2010Prop56
140
1.0
102
RTVSPost2010PropOp56
 70
     1
102
RTVSPost2010Prop57
140
1.0
102
RTVSPost2010PropOp57
 70
     1
  0
XRECORD
  5
B1
102
{ACAD_REACTORS
330
B0
102
}
330
B0
100
AcDbXrecord
280
     1
102
RTVSPropertyOp0
 70
     1
102
RTVSPropertyOp1
 70
     1
102
RTVSPropertyOp2
 70
     1
102
RTVSPropertyOp3
 70
     1
102
RTVSPropertyOp4
 70
     1
102
RTVSPropertyOp5
 70
     1
102
RTVSPropertyOp6
 70
     1
102
RTVSPropertyOp7
 70
     1
102
RTVSPropertyOp8
 70
     1
102
RTVSPropertyOp9
 70
     1
102
RTVSPropertyOp10
 70
     1
102
RTVSPropertyOp11
 70
     1
102
RTVSPropertyOp12
 70
     1
102
RTVSPropertyOp13
 70
     1
102
RTVSPropertyOp14
 70
     1
102
RTVSPropertyOp15
 70
     1
102
RTVSPropertyOp16
 70
     1
102
RTVSPropertyOp17
 70
     1
102
RTVSPropertyOp18
 70
     1
102
RTVSPropertyOp19
 70
     1
102
RTVSPropertyOp20
 70
     1
102
RTVSPropertyOp21
 70
     1
102
RTVSPropertyOp22
 70
     1
102
RTVSPropertyOp23
 70
     1
102
RTVSPropertyOp24
 70
     1
102
RTVSPropertyOp25
 70
     1
102
RTVSPropertyOp26
 70
     1
102
RTVSPropertyOp27
 70
     1
102
RTVSPropertyOp28
 70
     1
102
RTVSPropertyOp29
 70
     1
102
RTVSPropertyOp30
 70
     1
102
RTVSPropertyOp31
 70
     1
102
RTVSPropertyOp32
 70
     1
102
RTVSPropertyOp33
 70
     1
102
RTVSPropertyOp34
 70
     1
102
RTVSPropertyOp35
 70
     1
102
RTVSPropertyOp36
 70
     1
102
RTVSPropertyOp37
 70
     1
102
RTVSPropertyOp38
 70
     1
102
RTVSPropertyOp39
 70
     1
102
RTVSPropertyOp40
 70
     1
102
RTVSPropertyOp41
 70
     1
102
RTVSPropertyOp42
 70
     1
102
RTVSPropertyOp43
 70
     1
102
RTVSPropertyOp44
 70
     1
102
RTVSPropertyOp45
 70
     1
102
RTVSPropertyOp46
 70
     1
102
RTVSPropertyOp47
 70
     1
102
RTVSPropertyOp48
 70
     1
102
RTVSPropertyOp49
 70
     1
102
RTVSPropertyOp50
 70
     1
102
RTVSPropertyOp51
 70
     0
102
RTVSPropertyOp52
 70
     0
102
RTVSPropertyOp53
 70
     1
102
RTVSPropertyOp54
 70
     1
102
RTVSPropertyOp55
 70
     1
102
RTVSPropertyOp56
 70
     1
102
RTVSPropertyOp57
 70
     1
102
RTVSPost2010Prop28
280
     0
102
RTVSPost2010PropOp28
 70
     1
102
RTVSPost2010Prop29
280
     1
102
RTVSPost2010PropOp29
 70
     1
102
RTVSPost2010Prop30
280
     1
102
RTVSPost2010PropOp30
 70
     1
102
RTVSPost2010Prop31
280
     0
102
RTVSPost2010PropOp31
 70
     1
102
RTVSPost2010Prop32
280
     0
102
RTVSPost2010PropOp32
 70
     1
102
RTVSPost2010Prop33
280
     0
102
RTVSPost2010PropOp33
 70
     1
102
RTVSPost2010Prop34
280
     0
102
RTVSPost2010PropOp34
 70
     1
102
RTVSPost2010Prop35
280
     0
102
RTVSPost2010PropOp35
 70
     1
102
RTVSPost2010Prop36
280
     0
102
RTVSPost2010PropOp36
 70
     1
102
RTVSPost2010Prop37
 90
       50
102
RTVSPost2010PropOp37
 70
     1
102
RTVSPost2010Prop38
140
0.0
102
RTVSPost2010PropOp38
 70
     1
102
RTVSPost2010Prop39
140
1.0
102
RTVSPost2010PropOp39
 70
     1
102
RTVSPost2010Prop40
 90
        0
102
RTVSPost2010PropOp40
 70
     1
102
RTVSPost2010Prop41ColorIndex
 90
       18
102
RTVSPost2010Prop41ColorRGB
 90
        0
102
RTVSPost2010PropOp41
 70
     1
102
RTVSPost2010Prop42
 90
       50
102
RTVSPost2010PropOp42
 70
     1
102
RTVSPost2010Prop43
 90
        3
102
RTVSPost2010PropOp43
 70
     1
102
RTVSPost2010Prop44ColorIndex
 90
        5
102
RTVSPost2010Prop44ColorRGB
 90
      255
102
RTVSPost2010PropOp44
 70
     1
102
RTVSPost2010Prop45
280
     0
102
RTVSPost2010PropOp45
 70
     1
102
RTVSPost2010Prop46
 90
       50
102
RTVSPost2010PropOp46
 70
     1
102
RTVSPost2010Prop47
 90
       50
102
RTVSPost2010PropOp47
 70
     1
102
RTVSPost2010Prop48
 90
       50
102
RTVSPost2010PropOp48
 70
     1
102
RTVSPost2010Prop49
280
     0
102
RTVSPost2010PropOp49
 70
     1
102
RTVSPost2010Prop50
 90
       50
102
RTVSPost2010PropOp50
 70
     1
102
RTVSPost2010Prop51ColorIndex
 90
      256
102
RTVSPost2010Prop51ColorRGB
 90
-16777216
102
RTVSPost2010PropOp51
 70
     0
102
RTVSPost2010Prop52
140
1.0
102
RTVSPost2010PropOp52
 70
     0
102
RTVSPost2010Prop53
 90
        2
102
RTVSPost2010PropOp53
 70
     1
102
RTVSPost2010Prop54
  1
strokes_ogs.tif
102
RTVSPost2010PropOp54
 70
     1
102
RTVSPost2010Prop55
280
     0
102
RTVSPost2010PropOp55
 70
     1
102
RTVSPost2010Prop56
140
1.0
102
RTVSPost2010PropOp56
 70
     1
102
RTVSPost2010Prop57
140
1.0
102
RTVSPost2010PropOp57
 70
     1
  0
XRECORD
  5
B3
102
{ACAD_REACTORS
330
B2
102
}
330
B2
100
AcDbXrecord
280
     1
102
RTVSPropertyOp0
 70
     1
102
RTVSPropertyOp1
 70
     1
102
RTVSPropertyOp2
 70
     1
102
RTVSPropertyOp3
 70
     1
102
RTVSPropertyOp4
 70
     1
102
RTVSPropertyOp5
 70
     1
102
RTVSPropertyOp6
 70
     1
102
RTVSPropertyOp7
 70
     1
102
RTVSPropertyOp8
 70
     1
102
RTVSPropertyOp9
 70
     1
102
RTVSPropertyOp10
 70
     1
102
RTVSPropertyOp11
 70
     1
102
RTVSPropertyOp12
 70
     1
102
RTVSPropertyOp13
 70
     1
102
RTVSPropertyOp14
 70
     1
102
RTVSPropertyOp15
 70
     1
102
RTVSPropertyOp16
 70
     1
102
RTVSPropertyOp17
 70
     1
102
RTVSPropertyOp18
 70
     1
102
RTVSPropertyOp19
 70
     1
102
RTVSPropertyOp20
 70
     1
102
RTVSPropertyOp21
 70
     1
102
RTVSPropertyOp22
 70
     1
102
RTVSPropertyOp23
 70
     1
102
RTVSPropertyOp24
 70
     1
102
RTVSPropertyOp25
 70
     1
102
RTVSPropertyOp26
 70
     1
102
RTVSPropertyOp27
 70
     1
102
RTVSPropertyOp28
 70
     1
102
RTVSPropertyOp29
 70
     1
102
RTVSPropertyOp30
 70
     1
102
RTVSPropertyOp31
 70
     1
102
RTVSPropertyOp32
 70
     1
102
RTVSPropertyOp33
 70
     1
102
RTVSPropertyOp34
 70
     1
102
RTVSPropertyOp35
 70
     1
102
RTVSPropertyOp36
 70
     1
102
RTVSPropertyOp37
 70
     1
102
RTVSPropertyOp38
 70
     1
102
RTVSPropertyOp39
 70
     1
102
RTVSPropertyOp40
 70
     1
102
RTVSPropertyOp41
 70
     1
102
RTVSPropertyOp42
 70
     1
102
RTVSPropertyOp43
 70
     1
102
RTVSPropertyOp44
 70
     1
102
RTVSPropertyOp45
 70
     1
102
RTVSPropertyOp46
 70
     1
102
RTVSPropertyOp47
 70
     1
102
RTVSPropertyOp48
 70
     1
102
RTVSPropertyOp49
 70
     1
102
RTVSPropertyOp50
 70
     1
102
RTVSPropertyOp51
 70
     0
102
RTVSPropertyOp52
 70
     0
102
RTVSPropertyOp53
 70
     1
102
RTVSPropertyOp54
 70
     1
102
RTVSPropertyOp55
 70
     1
102
RTVSPropertyOp56
 70
     1
102
RTVSPropertyOp57
 70
     1
102
RTVSPost2010Prop28
280
     0
102
RTVSPost2010PropOp28
 70
     1
102
RTVSPost2010Prop29
280
     1
102
RTVSPost2010PropOp29
 70
     1
102
RTVSPost2010Prop30
280
     1
102
RTVSPost2010PropOp30
 70
     1
102
RTVSPost2010Prop31
280
     0
102
RTVSPost2010PropOp31
 70
     1
102
RTVSPost2010Prop32
280
     0
102
RTVSPost2010PropOp32
 70
     1
102
RTVSPost2010Prop33
280
     0
102
RTVSPost2010PropOp33
 70
     1
102
RTVSPost2010Prop34
280
     0
102
RTVSPost2010PropOp34
 70
     1
102
RTVSPost2010Prop35
280
     0
102
RTVSPost2010PropOp35
 70
     1
102
RTVSPost2010Prop36
280
     0
102
RTVSPost2010PropOp36
 70
     1
102
RTVSPost2010Prop37
 90
       50
102
RTVSPost2010PropOp37
 70
     1
102
RTVSPost2010Prop38
140
0.0
102
RTVSPost2010PropOp38
 70
     1
102
RTVSPost2010Prop39
140
1.0
102
RTVSPost2010PropOp39
 70
     1
102
RTVSPost2010Prop40
 90
        0
102
RTVSPost2010PropOp40
 70
     1
102
RTVSPost2010Prop41ColorIndex
 90
       18
102
RTVSPost2010Prop41ColorRGB
 90
        0
102
RTVSPost2010PropOp41
 70
     1
102
RTVSPost2010Prop42
 90
       50
102
RTVSPost2010PropOp42
 70
     1
102
RTVSPost2010Prop43
 90
        3
102
RTVSPost2010PropOp43
 70
     1
102
RTVSPost2010Prop44ColorIndex
 90
        5
102
RTVSPost2010Prop44ColorRGB
 90
      255
102
RTVSPost2010PropOp44
 70
     1
102
RTVSPost2010Prop45
280
     0
102
RTVSPost2010PropOp45
 70
     1
102
RTVSPost2010Prop46
 90
       50
102
RTVSPost2010PropOp46
 70
     1
102
RTVSPost2010Prop47
 90
       50
102
RTVSPost2010PropOp47
 70
     1
102
RTVSPost2010Prop48
 90
       50
102
RTVSPost2010PropOp48
 70
     1
102
RTVSPost2010Prop49
280
     0
102
RTVSPost2010PropOp49
 70
     1
102
RTVSPost2010Prop50
 90
       50
102
RTVSPost2010PropOp50
 70
     1
102
RTVSPost2010Prop51ColorIndex
 90
      256
102
RTVSPost2010Prop51ColorRGB
 90
-16777216
102
RTVSPost2010PropOp51
 70
     0
102
RTVSPost2010Prop52
140
1.0
102
RTVSPost2010PropOp52
 70
     0
102
RTVSPost2010Prop53
 90
        2
102
RTVSPost2010PropOp53
 70
     1
102
RTVSPost2010Prop54
  1
strokes_ogs.tif
102
RTVSPost2010PropOp54
 70
     1
102
RTVSPost2010Prop55
280
     0
102
RTVSPost2010PropOp55
 70
     1
102
RTVSPost2010Prop56
140
1.0
102
RTVSPost2010PropOp56
 70
     1
102
RTVSPost2010Prop57
140
1.0
102
RTVSPost2010PropOp57
 70
     1
  0
XRECORD
  5
B5
102
{ACAD_REACTORS
330
B4
102
}
330
B4
100
AcDbXrecord
280
     1
102
RTVSPropertyOp0
 70
     1
102
RTVSPropertyOp1
 70
     1
102
RTVSPropertyOp2
 70
     1
102
RTVSPropertyOp3
 70
     1
102
RTVSPropertyOp4
 70
     1
102
RTVSPropertyOp5
 70
     1
102
RTVSPropertyOp6
 70
     1
102
RTVSPropertyOp7
 70
     1
102
RTVSPropertyOp8
 70
     1
102
RTVSPropertyOp9
 70
     1
102
RTVSPropertyOp10
 70
     1
102
RTVSPropertyOp11
 70
     1
102
RTVSPropertyOp12
 70
     1
102
RTVSPropertyOp13
 70
     1
102
RTVSPropertyOp14
 70
     1
102
RTVSPropertyOp15
 70
     1
102
RTVSPropertyOp16
 70
     1
102
RTVSPropertyOp17
 70
     1
102
RTVSPropertyOp18
 70
     1
102
RTVSPropertyOp19
 70
     1
102
RTVSPropertyOp20
 70
     1
102
RTVSPropertyOp21
 70
     1
102
RTVSPropertyOp22
 70
     1
102
RTVSPropertyOp23
 70
     1
102
RTVSPropertyOp24
 70
     1
102
RTVSPropertyOp25
 70
     1
102
RTVSPropertyOp26
 70
     1
102
RTVSPropertyOp27
 70
     1
102
RTVSPropertyOp28
 70
     1
102
RTVSPropertyOp29
 70
     1
102
RTVSPropertyOp30
 70
     1
102
RTVSPropertyOp31
 70
     1
102
RTVSPropertyOp32
 70
     1
102
RTVSPropertyOp33
 70
     1
102
RTVSPropertyOp34
 70
     1
102
RTVSPropertyOp35
 70
     1
102
RTVSPropertyOp36
 70
     1
102
RTVSPropertyOp37
 70
     1
102
RTVSPropertyOp38
 70
     1
102
RTVSPropertyOp39
 70
     1
102
RTVSPropertyOp40
 70
     1
102
RTVSPropertyOp41
 70
     1
102
RTVSPropertyOp42
 70
     1
102
RTVSPropertyOp43
 70
     1
102
RTVSPropertyOp44
 70
     1
102
RTVSPropertyOp45
 70
     1
102
RTVSPropertyOp46
 70
     1
102
RTVSPropertyOp47
 70
     1
102
RTVSPropertyOp48
 70
     1
102
RTVSPropertyOp49
 70
     1
102
RTVSPropertyOp50
 70
     1
102
RTVSPropertyOp51
 70
     0
102
RTVSPropertyOp52
 70
     0
102
RTVSPropertyOp53
 70
     1
102
RTVSPropertyOp54
 70
     1
102
RTVSPropertyOp55
 70
     1
102
RTVSPropertyOp56
 70
     1
102
RTVSPropertyOp57
 70
     1
102
RTVSPost2010Prop28
280
     0
102
RTVSPost2010PropOp28
 70
     1
102
RTVSPost2010Prop29
280
     1
102
RTVSPost2010PropOp29
 70
     1
102
RTVSPost2010Prop30
280
     1
102
RTVSPost2010PropOp30
 70
     1
102
RTVSPost2010Prop31
280
     0
102
RTVSPost2010PropOp31
 70
     1
102
RTVSPost2010Prop32
280
     0
102
RTVSPost2010PropOp32
 70
     1
102
RTVSPost2010Prop33
280
     0
102
RTVSPost2010PropOp33
 70
     1
102
RTVSPost2010Prop34
280
     0
102
RTVSPost2010PropOp34
 70
     1
102
RTVSPost2010Prop35
280
     0
102
RTVSPost2010PropOp35
 70
     1
102
RTVSPost2010Prop36
280
     0
102
RTVSPost2010PropOp36
 70
     1
102
RTVSPost2010Prop37
 90
       50
102
RTVSPost2010PropOp37
 70
     1
102
RTVSPost2010Prop38
140
0.0
102
RTVSPost2010PropOp38
 70
     1
102
RTVSPost2010Prop39
140
1.0
102
RTVSPost2010PropOp39
 70
     1
102
RTVSPost2010Prop40
 90
        0
102
RTVSPost2010PropOp40
 70
     1
102
RTVSPost2010Prop41ColorIndex
 90
       18
102
RTVSPost2010Prop41ColorRGB
 90
        0
102
RTVSPost2010PropOp41
 70
     1
102
RTVSPost2010Prop42
 90
       50
102
RTVSPost2010PropOp42
 70
     1
102
RTVSPost2010Prop43
 90
        3
102
RTVSPost2010PropOp43
 70
     1
102
RTVSPost2010Prop44ColorIndex
 90
        5
102
RTVSPost2010Prop44ColorRGB
 90
      255
102
RTVSPost2010PropOp44
 70
     1
102
RTVSPost2010Prop45
280
     0
102
RTVSPost2010PropOp45
 70
     1
102
RTVSPost2010Prop46
 90
       50
102
RTVSPost2010PropOp46
 70
     1
102
RTVSPost2010Prop47
 90
       50
102
RTVSPost2010PropOp47
 70
     1
102
RTVSPost2010Prop48
 90
       50
102
RTVSPost2010PropOp48
 70
     1
102
RTVSPost2010Prop49
280
     0
102
RTVSPost2010PropOp49
 70
     1
102
RTVSPost2010Prop50
 90
       50
102
RTVSPost2010PropOp50
 70
     1
102
RTVSPost2010Prop51ColorIndex
 90
      256
102
RTVSPost2010Prop51ColorRGB
 90
-16777216
102
RTVSPost2010PropOp51
 70
     0
102
RTVSPost2010Prop52
140
1.0
102
RTVSPost2010PropOp52
 70
     0
102
RTVSPost2010Prop53
 90
        2
102
RTVSPost2010PropOp53
 70
     1
102
RTVSPost2010Prop54
  1
strokes_ogs.tif
102
RTVSPost2010PropOp54
 70
     1
102
RTVSPost2010Prop55
280
     0
102
RTVSPost2010PropOp55
 70
     1
102
RTVSPost2010Prop56
140
1.0
102
RTVSPost2010PropOp56
 70
     1
102
RTVSPost2010Prop57
140
1.0
102
RTVSPost2010PropOp57
 70
     1
  0
XRECORD
  5
B7
102
{ACAD_REACTORS
330
B6
102
}
330
B6
100
AcDbXrecord
280
     1
102
RTVSPropertyOp0
 70
     1
102
RTVSPropertyOp1
 70
     1
102
RTVSPropertyOp2
 70
     1
102
RTVSPropertyOp3
 70
     1
102
RTVSPropertyOp4
 70
     1
102
RTVSPropertyOp5
 70
     1
102
RTVSPropertyOp6
 70
     1
102
RTVSPropertyOp7
 70
     1
102
RTVSPropertyOp8
 70
     1
102
RTVSPropertyOp9
 70
     1
102
RTVSPropertyOp10
 70
     1
102
RTVSPropertyOp11
 70
     1
102
RTVSPropertyOp12
 70
     1
102
RTVSPropertyOp13
 70
     1
102
RTVSPropertyOp14
 70
     1
102
RTVSPropertyOp15
 70
     1
102
RTVSPropertyOp16
 70
     1
102
RTVSPropertyOp17
 70
     1
102
RTVSPropertyOp18
 70
     1
102
RTVSPropertyOp19
 70
     1
102
RTVSPropertyOp20
 70
     1
102
RTVSPropertyOp21
 70
     1
102
RTVSPropertyOp22
 70
     1
102
RTVSPropertyOp23
 70
     1
102
RTVSPropertyOp24
 70
     1
102
RTVSPropertyOp25
 70
     1
102
RTVSPropertyOp26
 70
     1
102
RTVSPropertyOp27
 70
     1
102
RTVSPropertyOp28
 70
     1
102
RTVSPropertyOp29
 70
     1
102
RTVSPropertyOp30
 70
     1
102
RTVSPropertyOp31
 70
     1
102
RTVSPropertyOp32
 70
     1
102
RTVSPropertyOp33
 70
     1
102
RTVSPropertyOp34
 70
     1
102
RTVSPropertyOp35
 70
     1
102
RTVSPropertyOp36
 70
     1
102
RTVSPropertyOp37
 70
     1
102
RTVSPropertyOp38
 70
     1
102
RTVSPropertyOp39
 70
     1
102
RTVSPropertyOp40
 70
     1
102
RTVSPropertyOp41
 70
     1
102
RTVSPropertyOp42
 70
     1
102
RTVSPropertyOp43
 70
     1
102
RTVSPropertyOp44
 70
     1
102
RTVSPropertyOp45
 70
     1
102
RTVSPropertyOp46
 70
     1
102
RTVSPropertyOp47
 70
     1
102
RTVSPropertyOp48
 70
     1
102
RTVSPropertyOp49
 70
     1
102
RTVSPropertyOp50
 70
     1
102
RTVSPropertyOp51
 70
     0
102
RTVSPropertyOp52
 70
     0
102
RTVSPropertyOp53
 70
     1
102
RTVSPropertyOp54
 70
     1
102
RTVSPropertyOp55
 70
     1
102
RTVSPropertyOp56
 70
     1
102
RTVSPropertyOp57
 70
     1
102
RTVSPost2010Prop28
280
     0
102
RTVSPost2010PropOp28
 70
     1
102
RTVSPost2010Prop29
280
     1
102
RTVSPost2010PropOp29
 70
     1
102
RTVSPost2010Prop30
280
     1
102
RTVSPost2010PropOp30
 70
     1
102
RTVSPost2010Prop31
280
     0
102
RTVSPost2010PropOp31
 70
     1
102
RTVSPost2010Prop32
280
     0
102
RTVSPost2010PropOp32
 70
     1
102
RTVSPost2010Prop33
280
     0
102
RTVSPost2010PropOp33
 70
     1
102
RTVSPost2010Prop34
280
     0
102
RTVSPost2010PropOp34
 70
     1
102
RTVSPost2010Prop35
280
     0
102
RTVSPost2010PropOp35
 70
     1
102
RTVSPost2010Prop36
280
     0
102
RTVSPost2010PropOp36
 70
     1
102
RTVSPost2010Prop37
 90
       50
102
RTVSPost2010PropOp37
 70
     1
102
RTVSPost2010Prop38
140
0.0
102
RTVSPost2010PropOp38
 70
     1
102
RTVSPost2010Prop39
140
1.0
102
RTVSPost2010PropOp39
 70
     1
102
RTVSPost2010Prop40
 90
        0
102
RTVSPost2010PropOp40
 70
     1
102
RTVSPost2010Prop41ColorIndex
 90
       18
102
RTVSPost2010Prop41ColorRGB
 90
        0
102
RTVSPost2010PropOp41
 70
     1
102
RTVSPost2010Prop42
 90
       50
102
RTVSPost2010PropOp42
 70
     1
102
RTVSPost2010Prop43
 90
        3
102
RTVSPost2010PropOp43
 70
     1
102
RTVSPost2010Prop44ColorIndex
 90
        5
102
RTVSPost2010Prop44ColorRGB
 90
      255
102
RTVSPost2010PropOp44
 70
     1
102
RTVSPost2010Prop45
280
     0
102
RTVSPost2010PropOp45
 70
     1
102
RTVSPost2010Prop46
 90
       50
102
RTVSPost2010PropOp46
 70
     1
102
RTVSPost2010Prop47
 90
       50
102
RTVSPost2010PropOp47
 70
     1
102
RTVSPost2010Prop48
 90
       50
102
RTVSPost2010PropOp48
 70
     1
102
RTVSPost2010Prop49
280
     0
102
RTVSPost2010PropOp49
 70
     1
102
RTVSPost2010Prop50
 90
       50
102
RTVSPost2010PropOp50
 70
     1
102
RTVSPost2010Prop51ColorIndex
 90
      256
102
RTVSPost2010Prop51ColorRGB
 90
-16777216
102
RTVSPost2010PropOp51
 70
     0
102
RTVSPost2010Prop52
140
1.0
102
RTVSPost2010PropOp52
 70
     0
102
RTVSPost2010Prop53
 90
        2
102
RTVSPost2010PropOp53
 70
     1
102
RTVSPost2010Prop54
  1
strokes_ogs.tif
102
RTVSPost2010PropOp54
 70
     1
102
RTVSPost2010Prop55
280
     0
102
RTVSPost2010PropOp55
 70
     1
102
RTVSPost2010Prop56
140
1.0
102
RTVSPost2010PropOp56
 70
     1
102
RTVSPost2010Prop57
140
1.0
102
RTVSPost2010PropOp57
 70
     1
  0
XRECORD
  5
BD
102
{ACAD_REACTORS
330
BC
102
}
330
BC
100
AcDbXrecord
280
     1
102
RTVSPropertyOp0
 70
     1
102
RTVSPropertyOp1
 70
     1
102
RTVSPropertyOp2
 70
     1
102
RTVSPropertyOp3
 70
     1
102
RTVSPropertyOp4
 70
     1
102
RTVSPropertyOp5
 70
     1
102
RTVSPropertyOp6
 70
     1
102
RTVSPropertyOp7
 70
     1
102
RTVSPropertyOp8
 70
     1
102
RTVSPropertyOp9
 70
     1
102
RTVSPropertyOp10
 70
     1
102
RTVSPropertyOp11
 70
     1
102
RTVSPropertyOp12
 70
     1
102
RTVSPropertyOp13
 70
     1
102
RTVSPropertyOp14
 70
     1
102
RTVSPropertyOp15
 70
     1
102
RTVSPropertyOp16
 70
     1
102
RTVSPropertyOp17
 70
     1
102
RTVSPropertyOp18
 70
     1
102
RTVSPropertyOp19
 70
     1
102
RTVSPropertyOp20
 70
     1
102
RTVSPropertyOp21
 70
     1
102
RTVSPropertyOp22
 70
     1
102
RTVSPropertyOp23
 70
     1
102
RTVSPropertyOp24
 70
     1
102
RTVSPropertyOp25
 70
     1
102
RTVSPropertyOp26
 70
     1
102
RTVSPropertyOp27
 70
     1
102
RTVSPropertyOp28
 70
     1
102
RTVSPropertyOp29
 70
     1
102
RTVSPropertyOp30
 70
     1
102
RTVSPropertyOp31
 70
     1
102
RTVSPropertyOp32
 70
     1
102
RTVSPropertyOp33
 70
     1
102
RTVSPropertyOp34
 70
     1
102
RTVSPropertyOp35
 70
     1
102
RTVSPropertyOp36
 70
     1
102
RTVSPropertyOp37
 70
     1
102
RTVSPropertyOp38
 70
     1
102
RTVSPropertyOp39
 70
     1
102
RTVSPropertyOp40
 70
     1
102
RTVSPropertyOp41
 70
     1
102
RTVSPropertyOp42
 70
     1
102
RTVSPropertyOp43
 70
     1
102
RTVSPropertyOp44
 70
     1
102
RTVSPropertyOp45
 70
     1
102
RTVSPropertyOp46
 70
     1
102
RTVSPropertyOp47
 70
     1
102
RTVSPropertyOp48
 70
     1
102
RTVSPropertyOp49
 70
     1
102
RTVSPropertyOp50
 70
     1
102
RTVSPropertyOp51
 70
     0
102
RTVSPropertyOp52
 70
     0
102
RTVSPropertyOp53
 70
     1
102
RTVSPropertyOp54
 70
     1
102
RTVSPropertyOp55
 70
     1
102
RTVSPropertyOp56
 70
     1
102
RTVSPropertyOp57
 70
     1
102
RTVSPost2010Prop28
280
     0
102
RTVSPost2010PropOp28
 70
     1
102
RTVSPost2010Prop29
280
     1
102
RTVSPost2010PropOp29
 70
     1
102
RTVSPost2010Prop30
280
     1
102
RTVSPost2010PropOp30
 70
     1
102
RTVSPost2010Prop31
280
     0
102
RTVSPost2010PropOp31
 70
     1
102
RTVSPost2010Prop32
280
     0
102
RTVSPost2010PropOp32
 70
     1
102
RTVSPost2010Prop33
280
     0
102
RTVSPost2010PropOp33
 70
     1
102
RTVSPost2010Prop34
280
     0
102
RTVSPost2010PropOp34
 70
     1
102
RTVSPost2010Prop35
280
     0
102
RTVSPost2010PropOp35
 70
     1
102
RTVSPost2010Prop36
280
     0
102
RTVSPost2010PropOp36
 70
     1
102
RTVSPost2010Prop37
 90
       50
102
RTVSPost2010PropOp37
 70
     1
102
RTVSPost2010Prop38
140
0.0
102
RTVSPost2010PropOp38
 70
     1
102
RTVSPost2010Prop39
140
1.0
102
RTVSPost2010PropOp39
 70
     1
102
RTVSPost2010Prop40
 90
        0
102
RTVSPost2010PropOp40
 70
     1
102
RTVSPost2010Prop41ColorIndex
 90
       18
102
RTVSPost2010Prop41ColorRGB
 90
        0
102
RTVSPost2010PropOp41
 70
     1
102
RTVSPost2010Prop42
 90
       50
102
RTVSPost2010PropOp42
 70
     1
102
RTVSPost2010Prop43
 90
        3
102
RTVSPost2010PropOp43
 70
     1
102
RTVSPost2010Prop44ColorIndex
 90
        5
102
RTVSPost2010Prop44ColorRGB
 90
      255
102
RTVSPost2010PropOp44
 70
     1
102
RTVSPost2010Prop45
280
     0
102
RTVSPost2010PropOp45
 70
     1
102
RTVSPost2010Prop46
 90
       50
102
RTVSPost2010PropOp46
 70
     1
102
RTVSPost2010Prop47
 90
       50
102
RTVSPost2010PropOp47
 70
     1
102
RTVSPost2010Prop48
 90
       50
102
RTVSPost2010PropOp48
 70
     1
102
RTVSPost2010Prop49
280
     0
102
RTVSPost2010PropOp49
 70
     1
102
RTVSPost2010Prop50
 90
       50
102
RTVSPost2010PropOp50
 70
     1
102
RTVSPost2010Prop51ColorIndex
 90
      256
102
RTVSPost2010Prop51ColorRGB
 90
-16777216
102
RTVSPost2010PropOp51
 70
     0
102
RTVSPost2010Prop52
140
1.0
102
RTVSPost2010PropOp52
 70
     0
102
RTVSPost2010Prop53
 90
        2
102
RTVSPost2010PropOp53
 70
     1
102
RTVSPost2010Prop54
  1
strokes_ogs.tif
102
RTVSPost2010PropOp54
 70
     1
102
RTVSPost2010Prop55
280
     0
102
RTVSPost2010PropOp55
 70
     1
102
RTVSPost2010Prop56
140
1.0
102
RTVSPost2010PropOp56
 70
     1
102
RTVSPost2010Prop57
140
1.0
102
RTVSPost2010PropOp57
 70
     1
  0
XRECORD
  5
D1
102
{ACAD_REACTORS
330
D0
102
}
330
D0
100
AcDbXrecord
280
     1
102
RTVSPropertyOp0
 70
     0
102
RTVSPropertyOp1
 70
     0
102
RTVSPropertyOp2
 70
     0
102
RTVSPropertyOp3
 70
     0
102
RTVSPropertyOp4
 70
     0
102
RTVSPropertyOp5
 70
     0
102
RTVSPropertyOp6
 70
     0
102
RTVSPropertyOp7
 70
     0
102
RTVSPropertyOp8
 70
     0
102
RTVSPropertyOp9
 70
     0
102
RTVSPropertyOp10
 70
     0
102
RTVSPropertyOp11
 70
     0
102
RTVSPropertyOp12
 70
     0
102
RTVSPropertyOp13
 70
     0
102
RTVSPropertyOp14
 70
     2
102
RTVSPropertyOp15
 70
     0
102
RTVSPropertyOp16
 70
     0
102
RTVSPropertyOp17
 70
     0
102
RTVSPropertyOp18
 70
     0
102
RTVSPropertyOp19
 70
     0
102
RTVSPropertyOp20
 70
     0
102
RTVSPropertyOp21
 70
     0
102
RTVSPropertyOp22
 70
     0
102
RTVSPropertyOp23
 70
     0
102
RTVSPropertyOp24
 70
     0
102
RTVSPropertyOp25
 70
     0
102
RTVSPropertyOp26
 70
     0
102
RTVSPropertyOp27
 70
     0
102
RTVSPropertyOp28
 70
     0
102
RTVSPropertyOp29
 70
     0
102
RTVSPropertyOp30
 70
     0
102
RTVSPropertyOp31
 70
     0
102
RTVSPropertyOp32
 70
     0
102
RTVSPropertyOp33
 70
     0
102
RTVSPropertyOp34
 70
     0
102
RTVSPropertyOp35
 70
     0
102
RTVSPropertyOp36
 70
     0
102
RTVSPropertyOp37
 70
     0
102
RTVSPropertyOp38
 70
     0
102
RTVSPropertyOp39
 70
     0
102
RTVSPropertyOp40
 70
     0
102
RTVSPropertyOp41
 70
     0
102
RTVSPropertyOp42
 70
     0
102
RTVSPropertyOp43
 70
     0
102
RTVSPropertyOp44
 70
     0
102
RTVSPropertyOp45
 70
     0
102
RTVSPropertyOp46
 70
     0
102
RTVSPropertyOp47
 70
     0
102
RTVSPropertyOp48
 70
     0
102
RTVSPropertyOp49
 70
     0
102
RTVSPropertyOp50
 70
     0
102
RTVSPropertyOp51
 70
     0
102
RTVSPropertyOp52
 70
     0
102
RTVSPropertyOp53
 70
     0
102
RTVSPropertyOp54
 70
     0
102
RTVSPropertyOp55
 70
     0
102
RTVSPropertyOp56
 70
     0
102
RTVSPropertyOp57
 70
     0
102
RTVSPost2010Prop28
280
     0
102
RTVSPost2010PropOp28
 70
     0
102
RTVSPost2010Prop29
280
     1
102
RTVSPost2010PropOp29
 70
     0
102
RTVSPost2010Prop30
280
     1
102
RTVSPost2010PropOp30
 70
     0
102
RTVSPost2010Prop31
280
     0
102
RTVSPost2010PropOp31
 70
     0
102
RTVSPost2010Prop32
280
     0
102
RTVSPost2010PropOp32
 70
     0
102
RTVSPost2010Prop33
280
     0
102
RTVSPost2010PropOp33
 70
     0
102
RTVSPost2010Prop34
280
     0
102
RTVSPost2010PropOp34
 70
     0
102
RTVSPost2010Prop35
280
     0
102
RTVSPost2010PropOp35
 70
     0
102
RTVSPost2010Prop36
280
     0
102
RTVSPost2010PropOp36
 70
     0
102
RTVSPost2010Prop37
 90
       50
102
RTVSPost2010PropOp37
 70
     0
102
RTVSPost2010Prop38
140
0.0
102
RTVSPost2010PropOp38
 70
     0
102
RTVSPost2010Prop39
140
1.0
102
RTVSPost2010PropOp39
 70
     0
102
RTVSPost2010Prop40
 90
        0
102
RTVSPost2010PropOp40
 70
     0
102
RTVSPost2010Prop41ColorIndex
 90
       18
102
RTVSPost2010Prop41ColorRGB
 90
        0
102
RTVSPost2010PropOp41
 70
     0
102
RTVSPost2010Prop42
 90
       50
102
RTVSPost2010PropOp42
 70
     0
102
RTVSPost2010Prop43
 90
        3
102
RTVSPost2010PropOp43
 70
     0
102
RTVSPost2010Prop44ColorIndex
 90
        5
102
RTVSPost2010Prop44ColorRGB
 90
      255
102
RTVSPost2010PropOp44
 70
     0
102
RTVSPost2010Prop45
280
     0
102
RTVSPost2010PropOp45
 70
     0
102
RTVSPost2010Prop46
 90
       50
102
RTVSPost2010PropOp46
 70
     0
102
RTVSPost2010Prop47
 90
       50
102
RTVSPost2010PropOp47
 70
     0
102
RTVSPost2010Prop48
 90
       50
102
RTVSPost2010PropOp48
 70
     0
102
RTVSPost2010Prop49
280
     0
102
RTVSPost2010PropOp49
 70
     0
102
RTVSPost2010Prop50
 90
       50
102
RTVSPost2010PropOp50
 70
     0
102
RTVSPost2010Prop51ColorIndex
 90
      256
102
RTVSPost2010Prop51ColorRGB
 90
-16777216
102
RTVSPost2010PropOp51
 70
     0
102
RTVSPost2010Prop52
140
1.0
102
RTVSPost2010PropOp52
 70
     0
102
RTVSPost2010Prop53
 90
        2
102
RTVSPost2010PropOp53
 70
     0
102
RTVSPost2010Prop54
  1
strokes_ogs.tif
102
RTVSPost2010PropOp54
 70
     0
102
RTVSPost2010Prop55
280
     0
102
RTVSPost2010PropOp55
 70
     0
102
RTVSPost2010Prop56
140
1.0
102
RTVSPost2010PropOp56
 70
     0
102
RTVSPost2010Prop57
140
1.0
102
RTVSPost2010PropOp57
 70
     0
  0
XRECORD
  5
CB
102
{ACAD_REACTORS
330
CA
102
}
330
CA
100
AcDbXrecord
280
     1
102
RTVSPropertyOp0
 70
     1
102
RTVSPropertyOp1
 70
     1
102
RTVSPropertyOp2
 70
     1
102
RTVSPropertyOp3
 70
     1
102
RTVSPropertyOp4
 70
     1
102
RTVSPropertyOp5
 70
     1
102
RTVSPropertyOp6
 70
     1
102
RTVSPropertyOp7
 70
     1
102
RTVSPropertyOp8
 70
     1
102
RTVSPropertyOp9
 70
     1
102
RTVSPropertyOp10
 70
     1
102
RTVSPropertyOp11
 70
     1
102
RTVSPropertyOp12
 70
     1
102
RTVSPropertyOp13
 70
     1
102
RTVSPropertyOp14
 70
     1
102
RTVSPropertyOp15
 70
     1
102
RTVSPropertyOp16
 70
     1
102
RTVSPropertyOp17
 70
     1
102
RTVSPropertyOp18
 70
     1
102
RTVSPropertyOp19
 70
     1
102
RTVSPropertyOp20
 70
     1
102
RTVSPropertyOp21
 70
     1
102
RTVSPropertyOp22
 70
     1
102
RTVSPropertyOp23
 70
     1
102
RTVSPropertyOp24
 70
     1
102
RTVSPropertyOp25
 70
     1
102
RTVSPropertyOp26
 70
     1
102
RTVSPropertyOp27
 70
     1
102
RTVSPropertyOp28
 70
     1
102
RTVSPropertyOp29
 70
     1
102
RTVSPropertyOp30
 70
     1
102
RTVSPropertyOp31
 70
     1
102
RTVSPropertyOp32
 70
     1
102
RTVSPropertyOp33
 70
     1
102
RTVSPropertyOp34
 70
     1
102
RTVSPropertyOp35
 70
     1
102
RTVSPropertyOp36
 70
     1
102
RTVSPropertyOp37
 70
     1
102
RTVSPropertyOp38
 70
     1
102
RTVSPropertyOp39
 70
     1
102
RTVSPropertyOp40
 70
     1
102
RTVSPropertyOp41
 70
     1
102
RTVSPropertyOp42
 70
     1
102
RTVSPropertyOp43
 70
     1
102
RTVSPropertyOp44
 70
     1
102
RTVSPropertyOp45
 70
     1
102
RTVSPropertyOp46
 70
     1
102
RTVSPropertyOp47
 70
     1
102
RTVSPropertyOp48
 70
     1
102
RTVSPropertyOp49
 70
     1
102
RTVSPropertyOp50
 70
     1
102
RTVSPropertyOp51
 70
     0
102
RTVSPropertyOp52
 70
     0
102
RTVSPropertyOp53
 70
     1
102
RTVSPropertyOp54
 70
     1
102
RTVSPropertyOp55
 70
     1
102
RTVSPropertyOp56
 70
     1
102
RTVSPropertyOp57
 70
     1
102
RTVSPost2010Prop28
280
     0
102
RTVSPost2010PropOp28
 70
     1
102
RTVSPost2010Prop29
280
     1
102
RTVSPost2010PropOp29
 70
     1
102
RTVSPost2010Prop30
280
     1
102
RTVSPost2010PropOp30
 70
     1
102
RTVSPost2010Prop31
280
     0
102
RTVSPost2010PropOp31
 70
     1
102
RTVSPost2010Prop32
280
     0
102
RTVSPost2010PropOp32
 70
     1
102
RTVSPost2010Prop33
280
     0
102
RTVSPost2010PropOp33
 70
     1
102
RTVSPost2010Prop34
280
     0
102
RTVSPost2010PropOp34
 70
     1
102
RTVSPost2010Prop35
280
     0
102
RTVSPost2010PropOp35
 70
     1
102
RTVSPost2010Prop36
280
     0
102
RTVSPost2010PropOp36
 70
     1
102
RTVSPost2010Prop37
 90
       50
102
RTVSPost2010PropOp37
 70
     1
102
RTVSPost2010Prop38
140
0.0
102
RTVSPost2010PropOp38
 70
     1
102
RTVSPost2010Prop39
140
1.0
102
RTVSPost2010PropOp39
 70
     1
102
RTVSPost2010Prop40
 90
        0
102
RTVSPost2010PropOp40
 70
     1
102
RTVSPost2010Prop41ColorIndex
 90
       18
102
RTVSPost2010Prop41ColorRGB
 90
        0
102
RTVSPost2010PropOp41
 70
     1
102
RTVSPost2010Prop42
 90
       50
102
RTVSPost2010PropOp42
 70
     1
102
RTVSPost2010Prop43
 90
        3
102
RTVSPost2010PropOp43
 70
     1
102
RTVSPost2010Prop44ColorIndex
 90
        5
102
RTVSPost2010Prop44ColorRGB
 90
      255
102
RTVSPost2010PropOp44
 70
     1
102
RTVSPost2010Prop45
280
     0
102
RTVSPost2010PropOp45
 70
     1
102
RTVSPost2010Prop46
 90
       50
102
RTVSPost2010PropOp46
 70
     1
102
RTVSPost2010Prop47
 90
       50
102
RTVSPost2010PropOp47
 70
     1
102
RTVSPost2010Prop48
 90
       50
102
RTVSPost2010PropOp48
 70
     1
102
RTVSPost2010Prop49
280
     0
102
RTVSPost2010PropOp49
 70
     1
102
RTVSPost2010Prop50
 90
       50
102
RTVSPost2010PropOp50
 70
     1
102
RTVSPost2010Prop51ColorIndex
 90
      256
102
RTVSPost2010Prop51ColorRGB
 90
-16777216
102
RTVSPost2010PropOp51
 70
     0
102
RTVSPost2010Prop52
140
1.0
102
RTVSPost2010PropOp52
 70
     0
102
RTVSPost2010Prop53
 90
        2
102
RTVSPost2010PropOp53
 70
     1
102
RTVSPost2010Prop54
  1
strokes_ogs.tif
102
RTVSPost2010PropOp54
 70
     1
102
RTVSPost2010Prop55
280
     0
102
RTVSPost2010PropOp55
 70
     1
102
RTVSPost2010Prop56
140
1.0
102
RTVSPost2010PropOp56
 70
     1
102
RTVSPost2010Prop57
140
1.0
102
RTVSPost2010PropOp57
 70
     1
  0
XRECORD
  5
D3
102
{ACAD_REACTORS
330
D2
102
}
330
D2
100
AcDbXrecord
280
     1
102
RTVSPropertyOp0
 70
     0
102
RTVSPropertyOp1
 70
     0
102
RTVSPropertyOp2
 70
     0
102
RTVSPropertyOp3
 70
     0
102
RTVSPropertyOp4
 70
     0
102
RTVSPropertyOp5
 70
     0
102
RTVSPropertyOp6
 70
     0
102
RTVSPropertyOp7
 70
     0
102
RTVSPropertyOp8
 70
     0
102
RTVSPropertyOp9
 70
     0
102
RTVSPropertyOp10
 70
     0
102
RTVSPropertyOp11
 70
     0
102
RTVSPropertyOp12
 70
     0
102
RTVSPropertyOp13
 70
     0
102
RTVSPropertyOp14
 70
     2
102
RTVSPropertyOp15
 70
     0
102
RTVSPropertyOp16
 70
     0
102
RTVSPropertyOp17
 70
     0
102
RTVSPropertyOp18
 70
     0
102
RTVSPropertyOp19
 70
     0
102
RTVSPropertyOp20
 70
     0
102
RTVSPropertyOp21
 70
     0
102
RTVSPropertyOp22
 70
     0
102
RTVSPropertyOp23
 70
     0
102
RTVSPropertyOp24
 70
     0
102
RTVSPropertyOp25
 70
     0
102
RTVSPropertyOp26
 70
     0
102
RTVSPropertyOp27
 70
     0
102
RTVSPropertyOp28
 70
     0
102
RTVSPropertyOp29
 70
     0
102
RTVSPropertyOp30
 70
     0
102
RTVSPropertyOp31
 70
     0
102
RTVSPropertyOp32
 70
     0
102
RTVSPropertyOp33
 70
     0
102
RTVSPropertyOp34
 70
     0
102
RTVSPropertyOp35
 70
     0
102
RTVSPropertyOp36
 70
     0
102
RTVSPropertyOp37
 70
     0
102
RTVSPropertyOp38
 70
     0
102
RTVSPropertyOp39
 70
     0
102
RTVSPropertyOp40
 70
     0
102
RTVSPropertyOp41
 70
     0
102
RTVSPropertyOp42
 70
     0
102
RTVSPropertyOp43
 70
     0
102
RTVSPropertyOp44
 70
     0
102
RTVSPropertyOp45
 70
     0
102
RTVSPropertyOp46
 70
     0
102
RTVSPropertyOp47
 70
     0
102
RTVSPropertyOp48
 70
     0
102
RTVSPropertyOp49
 70
     0
102
RTVSPropertyOp50
 70
     0
102
RTVSPropertyOp51
 70
     0
102
RTVSPropertyOp52
 70
     0
102
RTVSPropertyOp53
 70
     0
102
RTVSPropertyOp54
 70
     0
102
RTVSPropertyOp55
 70
     0
102
RTVSPropertyOp56
 70
     0
102
RTVSPropertyOp57
 70
     0
102
RTVSPost2010Prop28
280
     0
102
RTVSPost2010PropOp28
 70
     0
102
RTVSPost2010Prop29
280
     1
102
RTVSPost2010PropOp29
 70
     0
102
RTVSPost2010Prop30
280
     1
102
RTVSPost2010PropOp30
 70
     0
102
RTVSPost2010Prop31
280
     0
102
RTVSPost2010PropOp31
 70
     0
102
RTVSPost2010Prop32
280
     0
102
RTVSPost2010PropOp32
 70
     0
102
RTVSPost2010Prop33
280
     0
102
RTVSPost2010PropOp33
 70
     0
102
RTVSPost2010Prop34
280
     0
102
RTVSPost2010PropOp34
 70
     0
102
RTVSPost2010Prop35
280
     0
102
RTVSPost2010PropOp35
 70
     0
102
RTVSPost2010Prop36
280
     0
102
RTVSPost2010PropOp36
 70
     0
102
RTVSPost2010Prop37
 90
       50
102
RTVSPost2010PropOp37
 70
     0
102
RTVSPost2010Prop38
140
0.0
102
RTVSPost2010PropOp38
 70
     0
102
RTVSPost2010Prop39
140
1.0
102
RTVSPost2010PropOp39
 70
     0
102
RTVSPost2010Prop40
 90
        0
102
RTVSPost2010PropOp40
 70
     0
102
RTVSPost2010Prop41ColorIndex
 90
       18
102
RTVSPost2010Prop41ColorRGB
 90
        0
102
RTVSPost2010PropOp41
 70
     0
102
RTVSPost2010Prop42
 90
       50
102
RTVSPost2010PropOp42
 70
     0
102
RTVSPost2010Prop43
 90
        3
102
RTVSPost2010PropOp43
 70
     0
102
RTVSPost2010Prop44ColorIndex
 90
        5
102
RTVSPost2010Prop44ColorRGB
 90
      255
102
RTVSPost2010PropOp44
 70
     0
102
RTVSPost2010Prop45
280
     0
102
RTVSPost2010PropOp45
 70
     0
102
RTVSPost2010Prop46
 90
       50
102
RTVSPost2010PropOp46
 70
     0
102
RTVSPost2010Prop47
 90
       50
102
RTVSPost2010PropOp47
 70
     0
102
RTVSPost2010Prop48
 90
       50
102
RTVSPost2010PropOp48
 70
     0
102
RTVSPost2010Prop49
280
     0
102
RTVSPost2010PropOp49
 70
     0
102
RTVSPost2010Prop50
 90
       50
102
RTVSPost2010PropOp50
 70
     0
102
RTVSPost2010Prop51ColorIndex
 90
      256
102
RTVSPost2010Prop51ColorRGB
 90
-16777216
102
RTVSPost2010PropOp51
 70
     0
102
RTVSPost2010Prop52
140
1.0
102
RTVSPost2010PropOp52
 70
     0
102
RTVSPost2010Prop53
 90
        2
102
RTVSPost2010PropOp53
 70
     0
102
RTVSPost2010Prop54
  1
strokes_ogs.tif
102
RTVSPost2010PropOp54
 70
     0
102
RTVSPost2010Prop55
280
     0
102
RTVSPost2010PropOp55
 70
     0
102
RTVSPost2010Prop56
140
1.0
102
RTVSPost2010PropOp56
 70
     0
102
RTVSPost2010Prop57
140
1.0
102
RTVSPost2010PropOp57
 70
     0
  0
XRECORD
  5
C1
102
{ACAD_REACTORS
330
C0
102
}
330
C0
100
AcDbXrecord
280
     1
102
RTVSPropertyOp0
 70
     1
102
RTVSPropertyOp1
 70
     1
102
RTVSPropertyOp2
 70
     1
102
RTVSPropertyOp3
 70
     1
102
RTVSPropertyOp4
 70
     1
102
RTVSPropertyOp5
 70
     1
102
RTVSPropertyOp6
 70
     1
102
RTVSPropertyOp7
 70
     1
102
RTVSPropertyOp8
 70
     1
102
RTVSPropertyOp9
 70
     1
102
RTVSPropertyOp10
 70
     1
102
RTVSPropertyOp11
 70
     1
102
RTVSPropertyOp12
 70
     1
102
RTVSPropertyOp13
 70
     1
102
RTVSPropertyOp14
 70
     1
102
RTVSPropertyOp15
 70
     1
102
RTVSPropertyOp16
 70
     1
102
RTVSPropertyOp17
 70
     1
102
RTVSPropertyOp18
 70
     1
102
RTVSPropertyOp19
 70
     1
102
RTVSPropertyOp20
 70
     1
102
RTVSPropertyOp21
 70
     1
102
RTVSPropertyOp22
 70
     1
102
RTVSPropertyOp23
 70
     1
102
RTVSPropertyOp24
 70
     1
102
RTVSPropertyOp25
 70
     1
102
RTVSPropertyOp26
 70
     1
102
RTVSPropertyOp27
 70
     1
102
RTVSPropertyOp28
 70
     1
102
RTVSPropertyOp29
 70
     1
102
RTVSPropertyOp30
 70
     1
102
RTVSPropertyOp31
 70
     1
102
RTVSPropertyOp32
 70
     1
102
RTVSPropertyOp33
 70
     1
102
RTVSPropertyOp34
 70
     1
102
RTVSPropertyOp35
 70
     1
102
RTVSPropertyOp36
 70
     1
102
RTVSPropertyOp37
 70
     1
102
RTVSPropertyOp38
 70
     1
102
RTVSPropertyOp39
 70
     1
102
RTVSPropertyOp40
 70
     1
102
RTVSPropertyOp41
 70
     1
102
RTVSPropertyOp42
 70
     1
102
RTVSPropertyOp43
 70
     1
102
RTVSPropertyOp44
 70
     1
102
RTVSPropertyOp45
 70
     1
102
RTVSPropertyOp46
 70
     1
102
RTVSPropertyOp47
 70
     1
102
RTVSPropertyOp48
 70
     1
102
RTVSPropertyOp49
 70
     1
102
RTVSPropertyOp50
 70
     1
102
RTVSPropertyOp51
 70
     0
102
RTVSPropertyOp52
 70
     0
102
RTVSPropertyOp53
 70
     1
102
RTVSPropertyOp54
 70
     1
102
RTVSPropertyOp55
 70
     1
102
RTVSPropertyOp56
 70
     1
102
RTVSPropertyOp57
 70
     1
102
RTVSPost2010Prop28
280
     0
102
RTVSPost2010PropOp28
 70
     1
102
RTVSPost2010Prop29
280
     1
102
RTVSPost2010PropOp29
 70
     1
102
RTVSPost2010Prop30
280
     1
102
RTVSPost2010PropOp30
 70
     1
102
RTVSPost2010Prop31
280
     0
102
RTVSPost2010PropOp31
 70
     1
102
RTVSPost2010Prop32
280
     0
102
RTVSPost2010PropOp32
 70
     1
102
RTVSPost2010Prop33
280
     0
102
RTVSPost2010PropOp33
 70
     1
102
RTVSPost2010Prop34
280
     0
102
RTVSPost2010PropOp34
 70
     1
102
RTVSPost2010Prop35
280
     0
102
RTVSPost2010PropOp35
 70
     1
102
RTVSPost2010Prop36
280
     0
102
RTVSPost2010PropOp36
 70
     1
102
RTVSPost2010Prop37
 90
       50
102
RTVSPost2010PropOp37
 70
     1
102
RTVSPost2010Prop38
140
0.0
102
RTVSPost2010PropOp38
 70
     1
102
RTVSPost2010Prop39
140
1.0
102
RTVSPost2010PropOp39
 70
     1
102
RTVSPost2010Prop40
 90
        0
102
RTVSPost2010PropOp40
 70
     1
102
RTVSPost2010Prop41ColorIndex
 90
       18
102
RTVSPost2010Prop41ColorRGB
 90
        0
102
RTVSPost2010PropOp41
 70
     1
102
RTVSPost2010Prop42
 90
       50
102
RTVSPost2010PropOp42
 70
     1
102
RTVSPost2010Prop43
 90
        3
102
RTVSPost2010PropOp43
 70
     1
102
RTVSPost2010Prop44ColorIndex
 90
        5
102
RTVSPost2010Prop44ColorRGB
 90
      255
102
RTVSPost2010PropOp44
 70
     1
102
RTVSPost2010Prop45
280
     0
102
RTVSPost2010PropOp45
 70
     1
102
RTVSPost2010Prop46
 90
       50
102
RTVSPost2010PropOp46
 70
     1
102
RTVSPost2010Prop47
 90
       50
102
RTVSPost2010PropOp47
 70
     1
102
RTVSPost2010Prop48
 90
       50
102
RTVSPost2010PropOp48
 70
     1
102
RTVSPost2010Prop49
280
     0
102
RTVSPost2010PropOp49
 70
     1
102
RTVSPost2010Prop50
 90
       50
102
RTVSPost2010PropOp50
 70
     1
102
RTVSPost2010Prop51ColorIndex
 90
      256
102
RTVSPost2010Prop51ColorRGB
 90
-16777216
102
RTVSPost2010PropOp51
 70
     0
102
RTVSPost2010Prop52
140
1.0
102
RTVSPost2010PropOp52
 70
     0
102
RTVSPost2010Prop53
 90
        2
102
RTVSPost2010PropOp53
 70
     1
102
RTVSPost2010Prop54
  1
strokes_ogs.tif
102
RTVSPost2010PropOp54
 70
     1
102
RTVSPost2010Prop55
280
     0
102
RTVSPost2010PropOp55
 70
     1
102
RTVSPost2010Prop56
140
1.0
102
RTVSPost2010PropOp56
 70
     1
102
RTVSPost2010Prop57
140
1.0
102
RTVSPost2010PropOp57
 70
     1
  0
XRECORD
  5
DF
102
{ACAD_REACTORS
330
DE
102
}
330
DE
100
AcDbXrecord
280
     1
102
RTVSPropertyOp0
 70
     1
102
RTVSPropertyOp1
 70
     1
102
RTVSPropertyOp2
 70
     1
102
RTVSPropertyOp3
 70
     1
102
RTVSPropertyOp4
 70
     1
102
RTVSPropertyOp5
 70
     1
102
RTVSPropertyOp6
 70
     1
102
RTVSPropertyOp7
 70
     1
102
RTVSPropertyOp8
 70
     1
102
RTVSPropertyOp9
 70
     1
102
RTVSPropertyOp10
 70
     1
102
RTVSPropertyOp11
 70
     1
102
RTVSPropertyOp12
 70
     1
102
RTVSPropertyOp13
 70
     1
102
RTVSPropertyOp14
 70
     1
102
RTVSPropertyOp15
 70
     1
102
RTVSPropertyOp16
 70
     1
102
RTVSPropertyOp17
 70
     1
102
RTVSPropertyOp18
 70
     1
102
RTVSPropertyOp19
 70
     1
102
RTVSPropertyOp20
 70
     1
102
RTVSPropertyOp21
 70
     1
102
RTVSPropertyOp22
 70
     1
102
RTVSPropertyOp23
 70
     1
102
RTVSPropertyOp24
 70
     1
102
RTVSPropertyOp25
 70
     1
102
RTVSPropertyOp26
 70
     1
102
RTVSPropertyOp27
 70
     1
102
RTVSPropertyOp28
 70
     1
102
RTVSPropertyOp29
 70
     1
102
RTVSPropertyOp30
 70
     1
102
RTVSPropertyOp31
 70
     1
102
RTVSPropertyOp32
 70
     1
102
RTVSPropertyOp33
 70
     1
102
RTVSPropertyOp34
 70
     1
102
RTVSPropertyOp35
 70
     1
102
RTVSPropertyOp36
 70
     1
102
RTVSPropertyOp37
 70
     1
102
RTVSPropertyOp38
 70
     1
102
RTVSPropertyOp39
 70
     1
102
RTVSPropertyOp40
 70
     1
102
RTVSPropertyOp41
 70
     1
102
RTVSPropertyOp42
 70
     1
102
RTVSPropertyOp43
 70
     1
102
RTVSPropertyOp44
 70
     1
102
RTVSPropertyOp45
 70
     1
102
RTVSPropertyOp46
 70
     1
102
RTVSPropertyOp47
 70
     1
102
RTVSPropertyOp48
 70
     1
102
RTVSPropertyOp49
 70
     1
102
RTVSPropertyOp50
 70
     1
102
RTVSPropertyOp51
 70
     0
102
RTVSPropertyOp52
 70
     0
102
RTVSPropertyOp53
 70
     1
102
RTVSPropertyOp54
 70
     1
102
RTVSPropertyOp55
 70
     1
102
RTVSPropertyOp56
 70
     1
102
RTVSPropertyOp57
 70
     1
102
RTVSPost2010Prop28
280
     0
102
RTVSPost2010PropOp28
 70
     1
102
RTVSPost2010Prop29
280
     1
102
RTVSPost2010PropOp29
 70
     1
102
RTVSPost2010Prop30
280
     1
102
RTVSPost2010PropOp30
 70
     1
102
RTVSPost2010Prop31
280
     0
102
RTVSPost2010PropOp31
 70
     1
102
RTVSPost2010Prop32
280
     0
102
RTVSPost2010PropOp32
 70
     1
102
RTVSPost2010Prop33
280
     0
102
RTVSPost2010PropOp33
 70
     1
102
RTVSPost2010Prop34
280
     0
102
RTVSPost2010PropOp34
 70
     1
102
RTVSPost2010Prop35
280
     0
102
RTVSPost2010PropOp35
 70
     1
102
RTVSPost2010Prop36
280
     0
102
RTVSPost2010PropOp36
 70
     1
102
RTVSPost2010Prop37
 90
       50
102
RTVSPost2010PropOp37
 70
     1
102
RTVSPost2010Prop38
140
0.0
102
RTVSPost2010PropOp38
 70
     1
102
RTVSPost2010Prop39
140
1.0
102
RTVSPost2010PropOp39
 70
     1
102
RTVSPost2010Prop40
 90
        0
102
RTVSPost2010PropOp40
 70
     1
102
RTVSPost2010Prop41ColorIndex
 90
       18
102
RTVSPost2010Prop41ColorRGB
 90
        0
102
RTVSPost2010PropOp41
 70
     1
102
RTVSPost2010Prop42
 90
       50
102
RTVSPost2010PropOp42
 70
     1
102
RTVSPost2010Prop43
 90
        3
102
RTVSPost2010PropOp43
 70
     1
102
RTVSPost2010Prop44ColorIndex
 90
        5
102
RTVSPost2010Prop44ColorRGB
 90
      255
102
RTVSPost2010PropOp44
 70
     1
102
RTVSPost2010Prop45
280
     0
102
RTVSPost2010PropOp45
 70
     1
102
RTVSPost2010Prop46
 90
       50
102
RTVSPost2010PropOp46
 70
     1
102
RTVSPost2010Prop47
 90
       50
102
RTVSPost2010PropOp47
 70
     1
102
RTVSPost2010Prop48
 90
       50
102
RTVSPost2010PropOp48
 70
     1
102
RTVSPost2010Prop49
280
     0
102
RTVSPost2010PropOp49
 70
     1
102
RTVSPost2010Prop50
 90
       50
102
RTVSPost2010PropOp50
 70
     1
102
RTVSPost2010Prop51ColorIndex
 90
      256
102
RTVSPost2010Prop51ColorRGB
 90
-16777216
102
RTVSPost2010PropOp51
 70
     0
102
RTVSPost2010Prop52
140
1.0
102
RTVSPost2010PropOp52
 70
     0
102
RTVSPost2010Prop53
 90
        2
102
RTVSPost2010PropOp53
 70
     1
102
RTVSPost2010Prop54
  1
strokes_ogs.tif
102
RTVSPost2010PropOp54
 70
     1
102
RTVSPost2010Prop55
280
     0
102
RTVSPost2010PropOp55
 70
     1
102
RTVSPost2010Prop56
140
1.0
102
RTVSPost2010PropOp56
 70
     1
102
RTVSPost2010Prop57
140
1.0
102
RTVSPost2010PropOp57
 70
     1
  0
XRECORD
  5
DD
102
{ACAD_REACTORS
330
DC
102
}
330
DC
100
AcDbXrecord
280
     1
102
RTVSPropertyOp0
 70
     1
102
RTVSPropertyOp1
 70
     1
102
RTVSPropertyOp2
 70
     1
102
RTVSPropertyOp3
 70
     1
102
RTVSPropertyOp4
 70
     1
102
RTVSPropertyOp5
 70
     1
102
RTVSPropertyOp6
 70
     1
102
RTVSPropertyOp7
 70
     1
102
RTVSPropertyOp8
 70
     1
102
RTVSPropertyOp9
 70
     1
102
RTVSPropertyOp10
 70
     1
102
RTVSPropertyOp11
 70
     1
102
RTVSPropertyOp12
 70
     1
102
RTVSPropertyOp13
 70
     1
102
RTVSPropertyOp14
 70
     1
102
RTVSPropertyOp15
 70
     1
102
RTVSPropertyOp16
 70
     1
102
RTVSPropertyOp17
 70
     1
102
RTVSPropertyOp18
 70
     1
102
RTVSPropertyOp19
 70
     1
102
RTVSPropertyOp20
 70
     1
102
RTVSPropertyOp21
 70
     1
102
RTVSPropertyOp22
 70
     1
102
RTVSPropertyOp23
 70
     1
102
RTVSPropertyOp24
 70
     1
102
RTVSPropertyOp25
 70
     1
102
RTVSPropertyOp26
 70
     1
102
RTVSPropertyOp27
 70
     1
102
RTVSPropertyOp28
 70
     1
102
RTVSPropertyOp29
 70
     1
102
RTVSPropertyOp30
 70
     1
102
RTVSPropertyOp31
 70
     1
102
RTVSPropertyOp32
 70
     1
102
RTVSPropertyOp33
 70
     1
102
RTVSPropertyOp34
 70
     1
102
RTVSPropertyOp35
 70
     1
102
RTVSPropertyOp36
 70
     1
102
RTVSPropertyOp37
 70
     1
102
RTVSPropertyOp38
 70
     1
102
RTVSPropertyOp39
 70
     1
102
RTVSPropertyOp40
 70
     1
102
RTVSPropertyOp41
 70
     1
102
RTVSPropertyOp42
 70
     1
102
RTVSPropertyOp43
 70
     1
102
RTVSPropertyOp44
 70
     1
102
RTVSPropertyOp45
 70
     1
102
RTVSPropertyOp46
 70
     1
102
RTVSPropertyOp47
 70
     1
102
RTVSPropertyOp48
 70
     1
102
RTVSPropertyOp49
 70
     1
102
RTVSPropertyOp50
 70
     1
102
RTVSPropertyOp51
 70
     0
102
RTVSPropertyOp52
 70
     0
102
RTVSPropertyOp53
 70
     1
102
RTVSPropertyOp54
 70
     1
102
RTVSPropertyOp55
 70
     1
102
RTVSPropertyOp56
 70
     1
102
RTVSPropertyOp57
 70
     1
102
RTVSPost2010Prop28
280
     0
102
RTVSPost2010PropOp28
 70
     1
102
RTVSPost2010Prop29
280
     1
102
RTVSPost2010PropOp29
 70
     1
102
RTVSPost2010Prop30
280
     1
102
RTVSPost2010PropOp30
 70
     1
102
RTVSPost2010Prop31
280
     0
102
RTVSPost2010PropOp31
 70
     1
102
RTVSPost2010Prop32
280
     0
102
RTVSPost2010PropOp32
 70
     1
102
RTVSPost2010Prop33
280
     0
102
RTVSPost2010PropOp33
 70
     1
102
RTVSPost2010Prop34
280
     0
102
RTVSPost2010PropOp34
 70
     1
102
RTVSPost2010Prop35
280
     0
102
RTVSPost2010PropOp35
 70
     1
102
RTVSPost2010Prop36
280
     0
102
RTVSPost2010PropOp36
 70
     1
102
RTVSPost2010Prop37
 90
       50
102
RTVSPost2010PropOp37
 70
     1
102
RTVSPost2010Prop38
140
0.0
102
RTVSPost2010PropOp38
 70
     1
102
RTVSPost2010Prop39
140
1.0
102
RTVSPost2010PropOp39
 70
     1
102
RTVSPost2010Prop40
 90
        0
102
RTVSPost2010PropOp40
 70
     1
102
RTVSPost2010Prop41ColorIndex
 90
       18
102
RTVSPost2010Prop41ColorRGB
 90
        0
102
RTVSPost2010PropOp41
 70
     1
102
RTVSPost2010Prop42
 90
       50
102
RTVSPost2010PropOp42
 70
     1
102
RTVSPost2010Prop43
 90
        3
102
RTVSPost2010PropOp43
 70
     1
102
RTVSPost2010Prop44ColorIndex
 90
        5
102
RTVSPost2010Prop44ColorRGB
 90
      255
102
RTVSPost2010PropOp44
 70
     1
102
RTVSPost2010Prop45
280
     0
102
RTVSPost2010PropOp45
 70
     1
102
RTVSPost2010Prop46
 90
       50
102
RTVSPost2010PropOp46
 70
     1
102
RTVSPost2010Prop47
 90
       50
102
RTVSPost2010PropOp47
 70
     1
102
RTVSPost2010Prop48
 90
       50
102
RTVSPost2010PropOp48
 70
     1
102
RTVSPost2010Prop49
280
     0
102
RTVSPost2010PropOp49
 70
     1
102
RTVSPost2010Prop50
 90
       50
102
RTVSPost2010PropOp50
 70
     1
102
RTVSPost2010Prop51ColorIndex
 90
      256
102
RTVSPost2010Prop51ColorRGB
 90
-16777216
102
RTVSPost2010PropOp51
 70
     0
102
RTVSPost2010Prop52
140
1.0
102
RTVSPost2010PropOp52
 70
     0
102
RTVSPost2010Prop53
 90
        2
102
RTVSPost2010PropOp53
 70
     1
102
RTVSPost2010Prop54
  1
strokes_ogs.tif
102
RTVSPost2010PropOp54
 70
     1
102
RTVSPost2010Prop55
280
     0
102
RTVSPost2010PropOp55
 70
     1
102
RTVSPost2010Prop56
140
1.0
102
RTVSPost2010PropOp56
 70
     1
102
RTVSPost2010Prop57
140
1.0
102
RTVSPost2010PropOp57
 70
     1
  0
XRECORD
  5
D7
102
{ACAD_REACTORS
330
D6
102
}
330
D6
100
AcDbXrecord
280
     1
102
RTVSPropertyOp0
 70
     1
102
RTVSPropertyOp1
 70
     1
102
RTVSPropertyOp2
 70
     1
102
RTVSPropertyOp3
 70
     1
102
RTVSPropertyOp4
 70
     1
102
RTVSPropertyOp5
 70
     1
102
RTVSPropertyOp6
 70
     1
102
RTVSPropertyOp7
 70
     1
102
RTVSPropertyOp8
 70
     1
102
RTVSPropertyOp9
 70
     1
102
RTVSPropertyOp10
 70
     1
102
RTVSPropertyOp11
 70
     1
102
RTVSPropertyOp12
 70
     1
102
RTVSPropertyOp13
 70
     1
102
RTVSPropertyOp14
 70
     1
102
RTVSPropertyOp15
 70
     1
102
RTVSPropertyOp16
 70
     1
102
RTVSPropertyOp17
 70
     1
102
RTVSPropertyOp18
 70
     1
102
RTVSPropertyOp19
 70
     1
102
RTVSPropertyOp20
 70
     1
102
RTVSPropertyOp21
 70
     1
102
RTVSPropertyOp22
 70
     1
102
RTVSPropertyOp23
 70
     1
102
RTVSPropertyOp24
 70
     1
102
RTVSPropertyOp25
 70
     1
102
RTVSPropertyOp26
 70
     1
102
RTVSPropertyOp27
 70
     1
102
RTVSPropertyOp28
 70
     1
102
RTVSPropertyOp29
 70
     1
102
RTVSPropertyOp30
 70
     1
102
RTVSPropertyOp31
 70
     1
102
RTVSPropertyOp32
 70
     1
102
RTVSPropertyOp33
 70
     1
102
RTVSPropertyOp34
 70
     1
102
RTVSPropertyOp35
 70
     1
102
RTVSPropertyOp36
 70
     1
102
RTVSPropertyOp37
 70
     1
102
RTVSPropertyOp38
 70
     1
102
RTVSPropertyOp39
 70
     1
102
RTVSPropertyOp40
 70
     1
102
RTVSPropertyOp41
 70
     1
102
RTVSPropertyOp42
 70
     1
102
RTVSPropertyOp43
 70
     1
102
RTVSPropertyOp44
 70
     1
102
RTVSPropertyOp45
 70
     1
102
RTVSPropertyOp46
 70
     1
102
RTVSPropertyOp47
 70
     1
102
RTVSPropertyOp48
 70
     1
102
RTVSPropertyOp49
 70
     1
102
RTVSPropertyOp50
 70
     1
102
RTVSPropertyOp51
 70
     0
102
RTVSPropertyOp52
 70
     0
102
RTVSPropertyOp53
 70
     1
102
RTVSPropertyOp54
 70
     1
102
RTVSPropertyOp55
 70
     1
102
RTVSPropertyOp56
 70
     1
102
RTVSPropertyOp57
 70
     1
102
RTVSPost2010Prop28
280
     0
102
RTVSPost2010PropOp28
 70
     1
102
RTVSPost2010Prop29
280
     1
102
RTVSPost2010PropOp29
 70
     1
102
RTVSPost2010Prop30
280
     1
102
RTVSPost2010PropOp30
 70
     1
102
RTVSPost2010Prop31
280
     0
102
RTVSPost2010PropOp31
 70
     1
102
RTVSPost2010Prop32
280
     0
102
RTVSPost2010PropOp32
 70
     1
102
RTVSPost2010Prop33
280
     0
102
RTVSPost2010PropOp33
 70
     1
102
RTVSPost2010Prop34
280
     0
102
RTVSPost2010PropOp34
 70
     1
102
RTVSPost2010Prop35
280
     0
102
RTVSPost2010PropOp35
 70
     1
102
RTVSPost2010Prop36
280
     0
102
RTVSPost2010PropOp36
 70
     1
102
RTVSPost2010Prop37
 90
       50
102
RTVSPost2010PropOp37
 70
     1
102
RTVSPost2010Prop38
140
0.0
102
RTVSPost2010PropOp38
 70
     1
102
RTVSPost2010Prop39
140
1.0
102
RTVSPost2010PropOp39
 70
     1
102
RTVSPost2010Prop40
 90
        0
102
RTVSPost2010PropOp40
 70
     1
102
RTVSPost2010Prop41ColorIndex
 90
       18
102
RTVSPost2010Prop41ColorRGB
 90
        0
102
RTVSPost2010PropOp41
 70
     1
102
RTVSPost2010Prop42
 90
       50
102
RTVSPost2010PropOp42
 70
     1
102
RTVSPost2010Prop43
 90
        3
102
RTVSPost2010PropOp43
 70
     1
102
RTVSPost2010Prop44ColorIndex
 90
        5
102
RTVSPost2010Prop44ColorRGB
 90
      255
102
RTVSPost2010PropOp44
 70
     1
102
RTVSPost2010Prop45
280
     0
102
RTVSPost2010PropOp45
 70
     1
102
RTVSPost2010Prop46
 90
       50
102
RTVSPost2010PropOp46
 70
     1
102
RTVSPost2010Prop47
 90
       50
102
RTVSPost2010PropOp47
 70
     1
102
RTVSPost2010Prop48
 90
       50
102
RTVSPost2010PropOp48
 70
     1
102
RTVSPost2010Prop49
280
     0
102
RTVSPost2010PropOp49
 70
     1
102
RTVSPost2010Prop50
 90
       50
102
RTVSPost2010PropOp50
 70
     1
102
RTVSPost2010Prop51ColorIndex
 90
      256
102
RTVSPost2010Prop51ColorRGB
 90
-16777216
102
RTVSPost2010PropOp51
 70
     0
102
RTVSPost2010Prop52
140
1.0
102
RTVSPost2010PropOp52
 70
     0
102
RTVSPost2010Prop53
 90
        2
102
RTVSPost2010PropOp53
 70
     1
102
RTVSPost2010Prop54
  1
strokes_ogs.tif
102
RTVSPost2010PropOp54
 70
     1
102
RTVSPost2010Prop55
280
     0
102
RTVSPost2010PropOp55
 70
     1
102
RTVSPost2010Prop56
140
1.0
102
RTVSPost2010PropOp56
 70
     1
102
RTVSPost2010Prop57
140
1.0
102
RTVSPost2010PropOp57
 70
     1
  0
XRECORD
  5
D9
102
{ACAD_REACTORS
330
D8
102
}
330
D8
100
AcDbXrecord
280
     1
102
RTVSPropertyOp0
 70
     1
102
RTVSPropertyOp1
 70
     1
102
RTVSPropertyOp2
 70
     1
102
RTVSPropertyOp3
 70
     1
102
RTVSPropertyOp4
 70
     1
102
RTVSPropertyOp5
 70
     1
102
RTVSPropertyOp6
 70
     1
102
RTVSPropertyOp7
 70
     1
102
RTVSPropertyOp8
 70
     1
102
RTVSPropertyOp9
 70
     1
102
RTVSPropertyOp10
 70
     1
102
RTVSPropertyOp11
 70
     1
102
RTVSPropertyOp12
 70
     1
102
RTVSPropertyOp13
 70
     1
102
RTVSPropertyOp14
 70
     1
102
RTVSPropertyOp15
 70
     1
102
RTVSPropertyOp16
 70
     1
102
RTVSPropertyOp17
 70
     1
102
RTVSPropertyOp18
 70
     1
102
RTVSPropertyOp19
 70
     1
102
RTVSPropertyOp20
 70
     1
102
RTVSPropertyOp21
 70
     1
102
RTVSPropertyOp22
 70
     1
102
RTVSPropertyOp23
 70
     1
102
RTVSPropertyOp24
 70
     1
102
RTVSPropertyOp25
 70
     1
102
RTVSPropertyOp26
 70
     1
102
RTVSPropertyOp27
 70
     1
102
RTVSPropertyOp28
 70
     1
102
RTVSPropertyOp29
 70
     1
102
RTVSPropertyOp30
 70
     1
102
RTVSPropertyOp31
 70
     1
102
RTVSPropertyOp32
 70
     1
102
RTVSPropertyOp33
 70
     1
102
RTVSPropertyOp34
 70
     1
102
RTVSPropertyOp35
 70
     1
102
RTVSPropertyOp36
 70
     1
102
RTVSPropertyOp37
 70
     1
102
RTVSPropertyOp38
 70
     1
102
RTVSPropertyOp39
 70
     1
102
RTVSPropertyOp40
 70
     1
102
RTVSPropertyOp41
 70
     1
102
RTVSPropertyOp42
 70
     1
102
RTVSPropertyOp43
 70
     1
102
RTVSPropertyOp44
 70
     1
102
RTVSPropertyOp45
 70
     1
102
RTVSPropertyOp46
 70
     1
102
RTVSPropertyOp47
 70
     1
102
RTVSPropertyOp48
 70
     1
102
RTVSPropertyOp49
 70
     1
102
RTVSPropertyOp50
 70
     1
102
RTVSPropertyOp51
 70
     0
102
RTVSPropertyOp52
 70
     0
102
RTVSPropertyOp53
 70
     1
102
RTVSPropertyOp54
 70
     1
102
RTVSPropertyOp55
 70
     1
102
RTVSPropertyOp56
 70
     1
102
RTVSPropertyOp57
 70
     1
102
RTVSPost2010Prop28
280
     0
102
RTVSPost2010PropOp28
 70
     1
102
RTVSPost2010Prop29
280
     1
102
RTVSPost2010PropOp29
 70
     1
102
RTVSPost2010Prop30
280
     1
102
RTVSPost2010PropOp30
 70
     1
102
RTVSPost2010Prop31
280
     0
102
RTVSPost2010PropOp31
 70
     1
102
RTVSPost2010Prop32
280
     0
102
RTVSPost2010PropOp32
 70
     1
102
RTVSPost2010Prop33
280
     0
102
RTVSPost2010PropOp33
 70
     1
102
RTVSPost2010Prop34
280
     0
102
RTVSPost2010PropOp34
 70
     1
102
RTVSPost2010Prop35
280
     0
102
RTVSPost2010PropOp35
 70
     1
102
RTVSPost2010Prop36
280
     0
102
RTVSPost2010PropOp36
 70
     1
102
RTVSPost2010Prop37
 90
       50
102
RTVSPost2010PropOp37
 70
     1
102
RTVSPost2010Prop38
140
0.0
102
RTVSPost2010PropOp38
 70
     1
102
RTVSPost2010Prop39
140
1.0
102
RTVSPost2010PropOp39
 70
     1
102
RTVSPost2010Prop40
 90
        0
102
RTVSPost2010PropOp40
 70
     1
102
RTVSPost2010Prop41ColorIndex
 90
       18
102
RTVSPost2010Prop41ColorRGB
 90
        0
102
RTVSPost2010PropOp41
 70
     1
102
RTVSPost2010Prop42
 90
       50
102
RTVSPost2010PropOp42
 70
     1
102
RTVSPost2010Prop43
 90
        3
102
RTVSPost2010PropOp43
 70
     1
102
RTVSPost2010Prop44ColorIndex
 90
        5
102
RTVSPost2010Prop44ColorRGB
 90
      255
102
RTVSPost2010PropOp44
 70
     1
102
RTVSPost2010Prop45
280
     0
102
RTVSPost2010PropOp45
 70
     1
102
RTVSPost2010Prop46
 90
       50
102
RTVSPost2010PropOp46
 70
     1
102
RTVSPost2010Prop47
 90
       50
102
RTVSPost2010PropOp47
 70
     1
102
RTVSPost2010Prop48
 90
       50
102
RTVSPost2010PropOp48
 70
     1
102
RTVSPost2010Prop49
280
     0
102
RTVSPost2010PropOp49
 70
     1
102
RTVSPost2010Prop50
 90
       50
102
RTVSPost2010PropOp50
 70
     1
102
RTVSPost2010Prop51ColorIndex
 90
      256
102
RTVSPost2010Prop51ColorRGB
 90
-16777216
102
RTVSPost2010PropOp51
 70
     0
102
RTVSPost2010Prop52
140
1.0
102
RTVSPost2010PropOp52
 70
     0
102
RTVSPost2010Prop53
 90
        2
102
RTVSPost2010PropOp53
 70
     1
102
RTVSPost2010Prop54
  1
strokes_ogs.tif
102
RTVSPost2010PropOp54
 70
     1
102
RTVSPost2010Prop55
280
     0
102
RTVSPost2010PropOp55
 70
     1
102
RTVSPost2010Prop56
140
1.0
102
RTVSPost2010PropOp56
 70
     1
102
RTVSPost2010Prop57
140
1.0
102
RTVSPost2010PropOp57
 70
     1
  0
XRECORD
  5
C9
102
{ACAD_REACTORS
330
C8
102
}
330
C8
100
AcDbXrecord
280
     1
102
RTVSPropertyOp0
 70
     1
102
RTVSPropertyOp1
 70
     1
102
RTVSPropertyOp2
 70
     1
102
RTVSPropertyOp3
 70
     1
102
RTVSPropertyOp4
 70
     1
102
RTVSPropertyOp5
 70
     1
102
RTVSPropertyOp6
 70
     1
102
RTVSPropertyOp7
 70
     1
102
RTVSPropertyOp8
 70
     1
102
RTVSPropertyOp9
 70
     1
102
RTVSPropertyOp10
 70
     1
102
RTVSPropertyOp11
 70
     1
102
RTVSPropertyOp12
 70
     1
102
RTVSPropertyOp13
 70
     1
102
RTVSPropertyOp14
 70
     1
102
RTVSPropertyOp15
 70
     1
102
RTVSPropertyOp16
 70
     1
102
RTVSPropertyOp17
 70
     1
102
RTVSPropertyOp18
 70
     1
102
RTVSPropertyOp19
 70
     1
102
RTVSPropertyOp20
 70
     1
102
RTVSPropertyOp21
 70
     1
102
RTVSPropertyOp22
 70
     1
102
RTVSPropertyOp23
 70
     1
102
RTVSPropertyOp24
 70
     1
102
RTVSPropertyOp25
 70
     1
102
RTVSPropertyOp26
 70
     1
102
RTVSPropertyOp27
 70
     1
102
RTVSPropertyOp28
 70
     1
102
RTVSPropertyOp29
 70
     1
102
RTVSPropertyOp30
 70
     1
102
RTVSPropertyOp31
 70
     1
102
RTVSPropertyOp32
 70
     1
102
RTVSPropertyOp33
 70
     1
102
RTVSPropertyOp34
 70
     1
102
RTVSPropertyOp35
 70
     1
102
RTVSPropertyOp36
 70
     1
102
RTVSPropertyOp37
 70
     1
102
RTVSPropertyOp38
 70
     1
102
RTVSPropertyOp39
 70
     1
102
RTVSPropertyOp40
 70
     1
102
RTVSPropertyOp41
 70
     1
102
RTVSPropertyOp42
 70
     1
102
RTVSPropertyOp43
 70
     1
102
RTVSPropertyOp44
 70
     1
102
RTVSPropertyOp45
 70
     1
102
RTVSPropertyOp46
 70
     1
102
RTVSPropertyOp47
 70
     1
102
RTVSPropertyOp48
 70
     1
102
RTVSPropertyOp49
 70
     1
102
RTVSPropertyOp50
 70
     1
102
RTVSPropertyOp51
 70
     0
102
RTVSPropertyOp52
 70
     0
102
RTVSPropertyOp53
 70
     1
102
RTVSPropertyOp54
 70
     1
102
RTVSPropertyOp55
 70
     1
102
RTVSPropertyOp56
 70
     1
102
RTVSPropertyOp57
 70
     1
102
RTVSPost2010Prop28
280
     0
102
RTVSPost2010PropOp28
 70
     1
102
RTVSPost2010Prop29
280
     1
102
RTVSPost2010PropOp29
 70
     1
102
RTVSPost2010Prop30
280
     1
102
RTVSPost2010PropOp30
 70
     1
102
RTVSPost2010Prop31
280
     0
102
RTVSPost2010PropOp31
 70
     1
102
RTVSPost2010Prop32
280
     0
102
RTVSPost2010PropOp32
 70
     1
102
RTVSPost2010Prop33
280
     0
102
RTVSPost2010PropOp33
 70
     1
102
RTVSPost2010Prop34
280
     0
102
RTVSPost2010PropOp34
 70
     1
102
RTVSPost2010Prop35
280
     0
102
RTVSPost2010PropOp35
 70
     1
102
RTVSPost2010Prop36
280
     0
102
RTVSPost2010PropOp36
 70
     1
102
RTVSPost2010Prop37
 90
       50
102
RTVSPost2010PropOp37
 70
     1
102
RTVSPost2010Prop38
140
0.0
102
RTVSPost2010PropOp38
 70
     1
102
RTVSPost2010Prop39
140
1.0
102
RTVSPost2010PropOp39
 70
     1
102
RTVSPost2010Prop40
 90
        0
102
RTVSPost2010PropOp40
 70
     1
102
RTVSPost2010Prop41ColorIndex
 90
       18
102
RTVSPost2010Prop41ColorRGB
 90
        0
102
RTVSPost2010PropOp41
 70
     1
102
RTVSPost2010Prop42
 90
       50
102
RTVSPost2010PropOp42
 70
     1
102
RTVSPost2010Prop43
 90
        3
102
RTVSPost2010PropOp43
 70
     1
102
RTVSPost2010Prop44ColorIndex
 90
        5
102
RTVSPost2010Prop44ColorRGB
 90
      255
102
RTVSPost2010PropOp44
 70
     1
102
RTVSPost2010Prop45
280
     0
102
RTVSPost2010PropOp45
 70
     1
102
RTVSPost2010Prop46
 90
       50
102
RTVSPost2010PropOp46
 70
     1
102
RTVSPost2010Prop47
 90
       50
102
RTVSPost2010PropOp47
 70
     1
102
RTVSPost2010Prop48
 90
       50
102
RTVSPost2010PropOp48
 70
     1
102
RTVSPost2010Prop49
280
     0
102
RTVSPost2010PropOp49
 70
     1
102
RTVSPost2010Prop50
 90
       50
102
RTVSPost2010PropOp50
 70
     1
102
RTVSPost2010Prop51ColorIndex
 90
      256
102
RTVSPost2010Prop51ColorRGB
 90
-16777216
102
RTVSPost2010PropOp51
 70
     0
102
RTVSPost2010Prop52
140
1.0
102
RTVSPost2010PropOp52
 70
     0
102
RTVSPost2010Prop53
 90
        2
102
RTVSPost2010PropOp53
 70
     1
102
RTVSPost2010Prop54
  1
strokes_ogs.tif
102
RTVSPost2010PropOp54
 70
     1
102
RTVSPost2010Prop55
280
     0
102
RTVSPost2010PropOp55
 70
     1
102
RTVSPost2010Prop56
140
1.0
102
RTVSPost2010PropOp56
 70
     1
102
RTVSPost2010Prop57
140
1.0
102
RTVSPost2010PropOp57
 70
     1
  0
XRECORD
  5
BB
102
{ACAD_REACTORS
330
BA
102
}
330
BA
100
AcDbXrecord
280
     1
102
RTVSPropertyOp0
 70
     1
102
RTVSPropertyOp1
 70
     1
102
RTVSPropertyOp2
 70
     1
102
RTVSPropertyOp3
 70
     1
102
RTVSPropertyOp4
 70
     1
102
RTVSPropertyOp5
 70
     1
102
RTVSPropertyOp6
 70
     1
102
RTVSPropertyOp7
 70
     1
102
RTVSPropertyOp8
 70
     1
102
RTVSPropertyOp9
 70
     1
102
RTVSPropertyOp10
 70
     1
102
RTVSPropertyOp11
 70
     1
102
RTVSPropertyOp12
 70
     1
102
RTVSPropertyOp13
 70
     1
102
RTVSPropertyOp14
 70
     1
102
RTVSPropertyOp15
 70
     1
102
RTVSPropertyOp16
 70
     1
102
RTVSPropertyOp17
 70
     1
102
RTVSPropertyOp18
 70
     1
102
RTVSPropertyOp19
 70
     1
102
RTVSPropertyOp20
 70
     1
102
RTVSPropertyOp21
 70
     1
102
RTVSPropertyOp22
 70
     1
102
RTVSPropertyOp23
 70
     1
102
RTVSPropertyOp24
 70
     1
102
RTVSPropertyOp25
 70
     1
102
RTVSPropertyOp26
 70
     1
102
RTVSPropertyOp27
 70
     1
102
RTVSPropertyOp28
 70
     1
102
RTVSPropertyOp29
 70
     1
102
RTVSPropertyOp30
 70
     1
102
RTVSPropertyOp31
 70
     1
102
RTVSPropertyOp32
 70
     1
102
RTVSPropertyOp33
 70
     1
102
RTVSPropertyOp34
 70
     1
102
RTVSPropertyOp35
 70
     1
102
RTVSPropertyOp36
 70
     1
102
RTVSPropertyOp37
 70
     1
102
RTVSPropertyOp38
 70
     1
102
RTVSPropertyOp39
 70
     1
102
RTVSPropertyOp40
 70
     1
102
RTVSPropertyOp41
 70
     1
102
RTVSPropertyOp42
 70
     1
102
RTVSPropertyOp43
 70
     1
102
RTVSPropertyOp44
 70
     1
102
RTVSPropertyOp45
 70
     1
102
RTVSPropertyOp46
 70
     1
102
RTVSPropertyOp47
 70
     1
102
RTVSPropertyOp48
 70
     1
102
RTVSPropertyOp49
 70
     1
102
RTVSPropertyOp50
 70
     1
102
RTVSPropertyOp51
 70
     0
102
RTVSPropertyOp52
 70
     0
102
RTVSPropertyOp53
 70
     1
102
RTVSPropertyOp54
 70
     1
102
RTVSPropertyOp55
 70
     1
102
RTVSPropertyOp56
 70
     1
102
RTVSPropertyOp57
 70
     1
102
RTVSPost2010Prop28
280
     0
102
RTVSPost2010PropOp28
 70
     1
102
RTVSPost2010Prop29
280
     1
102
RTVSPost2010PropOp29
 70
     1
102
RTVSPost2010Prop30
280
     1
102
RTVSPost2010PropOp30
 70
     1
102
RTVSPost2010Prop31
280
     0
102
RTVSPost2010PropOp31
 70
     1
102
RTVSPost2010Prop32
280
     0
102
RTVSPost2010PropOp32
 70
     1
102
RTVSPost2010Prop33
280
     0
102
RTVSPost2010PropOp33
 70
     1
102
RTVSPost2010Prop34
280
     0
102
RTVSPost2010PropOp34
 70
     1
102
RTVSPost2010Prop35
280
     0
102
RTVSPost2010PropOp35
 70
     1
102
RTVSPost2010Prop36
280
     0
102
RTVSPost2010PropOp36
 70
     1
102
RTVSPost2010Prop37
 90
       50
102
RTVSPost2010PropOp37
 70
     1
102
RTVSPost2010Prop38
140
0.0
102
RTVSPost2010PropOp38
 70
     1
102
RTVSPost2010Prop39
140
1.0
102
RTVSPost2010PropOp39
 70
     1
102
RTVSPost2010Prop40
 90
        0
102
RTVSPost2010PropOp40
 70
     1
102
RTVSPost2010Prop41ColorIndex
 90
       18
102
RTVSPost2010Prop41ColorRGB
 90
        0
102
RTVSPost2010PropOp41
 70
     1
102
RTVSPost2010Prop42
 90
       50
102
RTVSPost2010PropOp42
 70
     1
102
RTVSPost2010Prop43
 90
        3
102
RTVSPost2010PropOp43
 70
     1
102
RTVSPost2010Prop44ColorIndex
 90
        5
102
RTVSPost2010Prop44ColorRGB
 90
      255
102
RTVSPost2010PropOp44
 70
     1
102
RTVSPost2010Prop45
280
     0
102
RTVSPost2010PropOp45
 70
     1
102
RTVSPost2010Prop46
 90
       50
102
RTVSPost2010PropOp46
 70
     1
102
RTVSPost2010Prop47
 90
       50
102
RTVSPost2010PropOp47
 70
     1
102
RTVSPost2010Prop48
 90
       50
102
RTVSPost2010PropOp48
 70
     1
102
RTVSPost2010Prop49
280
     0
102
RTVSPost2010PropOp49
 70
     1
102
RTVSPost2010Prop50
 90
       50
102
RTVSPost2010PropOp50
 70
     1
102
RTVSPost2010Prop51ColorIndex
 90
      256
102
RTVSPost2010Prop51ColorRGB
 90
-16777216
102
RTVSPost2010PropOp51
 70
     0
102
RTVSPost2010Prop52
140
1.0
102
RTVSPost2010PropOp52
 70
     0
102
RTVSPost2010Prop53
 90
        2
102
RTVSPost2010PropOp53
 70
     1
102
RTVSPost2010Prop54
  1
strokes_ogs.tif
102
RTVSPost2010PropOp54
 70
     1
102
RTVSPost2010Prop55
280
     0
102
RTVSPost2010PropOp55
 70
     1
102
RTVSPost2010Prop56
140
1.0
102
RTVSPost2010PropOp56
 70
     1
102
RTVSPost2010Prop57
140
1.0
102
RTVSPost2010PropOp57
 70
     1
  0
XRECORD
  5
DB
102
{ACAD_REACTORS
330
DA
102
}
330
DA
100
AcDbXrecord
280
     1
102
RTVSPropertyOp0
 70
     1
102
RTVSPropertyOp1
 70
     1
102
RTVSPropertyOp2
 70
     1
102
RTVSPropertyOp3
 70
     1
102
RTVSPropertyOp4
 70
     1
102
RTVSPropertyOp5
 70
     1
102
RTVSPropertyOp6
 70
     1
102
RTVSPropertyOp7
 70
     1
102
RTVSPropertyOp8
 70
     1
102
RTVSPropertyOp9
 70
     1
102
RTVSPropertyOp10
 70
     1
102
RTVSPropertyOp11
 70
     1
102
RTVSPropertyOp12
 70
     1
102
RTVSPropertyOp13
 70
     1
102
RTVSPropertyOp14
 70
     1
102
RTVSPropertyOp15
 70
     1
102
RTVSPropertyOp16
 70
     1
102
RTVSPropertyOp17
 70
     1
102
RTVSPropertyOp18
 70
     1
102
RTVSPropertyOp19
 70
     1
102
RTVSPropertyOp20
 70
     1
102
RTVSPropertyOp21
 70
     1
102
RTVSPropertyOp22
 70
     1
102
RTVSPropertyOp23
 70
     1
102
RTVSPropertyOp24
 70
     1
102
RTVSPropertyOp25
 70
     1
102
RTVSPropertyOp26
 70
     1
102
RTVSPropertyOp27
 70
     1
102
RTVSPropertyOp28
 70
     1
102
RTVSPropertyOp29
 70
     1
102
RTVSPropertyOp30
 70
     1
102
RTVSPropertyOp31
 70
     1
102
RTVSPropertyOp32
 70
     1
102
RTVSPropertyOp33
 70
     1
102
RTVSPropertyOp34
 70
     1
102
RTVSPropertyOp35
 70
     1
102
RTVSPropertyOp36
 70
     1
102
RTVSPropertyOp37
 70
     1
102
RTVSPropertyOp38
 70
     1
102
RTVSPropertyOp39
 70
     1
102
RTVSPropertyOp40
 70
     1
102
RTVSPropertyOp41
 70
     1
102
RTVSPropertyOp42
 70
     1
102
RTVSPropertyOp43
 70
     1
102
RTVSPropertyOp44
 70
     1
102
RTVSPropertyOp45
 70
     1
102
RTVSPropertyOp46
 70
     1
102
RTVSPropertyOp47
 70
     1
102
RTVSPropertyOp48
 70
     1
102
RTVSPropertyOp49
 70
     1
102
RTVSPropertyOp50
 70
     1
102
RTVSPropertyOp51
 70
     0
102
RTVSPropertyOp52
 70
     0
102
RTVSPropertyOp53
 70
     1
102
RTVSPropertyOp54
 70
     1
102
RTVSPropertyOp55
 70
     1
102
RTVSPropertyOp56
 70
     1
102
RTVSPropertyOp57
 70
     1
102
RTVSPost2010Prop28
280
     0
102
RTVSPost2010PropOp28
 70
     1
102
RTVSPost2010Prop29
280
     1
102
RTVSPost2010PropOp29
 70
     1
102
RTVSPost2010Prop30
280
     1
102
RTVSPost2010PropOp30
 70
     1
102
RTVSPost2010Prop31
280
     0
102
RTVSPost2010PropOp31
 70
     1
102
RTVSPost2010Prop32
280
     0
102
RTVSPost2010PropOp32
 70
     1
102
RTVSPost2010Prop33
280
     0
102
RTVSPost2010PropOp33
 70
     1
102
RTVSPost2010Prop34
280
     0
102
RTVSPost2010PropOp34
 70
     1
102
RTVSPost2010Prop35
280
     0
102
RTVSPost2010PropOp35
 70
     1
102
RTVSPost2010Prop36
280
     0
102
RTVSPost2010PropOp36
 70
     1
102
RTVSPost2010Prop37
 90
       50
102
RTVSPost2010PropOp37
 70
     1
102
RTVSPost2010Prop38
140
0.0
102
RTVSPost2010PropOp38
 70
     1
102
RTVSPost2010Prop39
140
1.0
102
RTVSPost2010PropOp39
 70
     1
102
RTVSPost2010Prop40
 90
        0
102
RTVSPost2010PropOp40
 70
     1
102
RTVSPost2010Prop41ColorIndex
 90
       18
102
RTVSPost2010Prop41ColorRGB
 90
        0
102
RTVSPost2010PropOp41
 70
     1
102
RTVSPost2010Prop42
 90
       50
102
RTVSPost2010PropOp42
 70
     1
102
RTVSPost2010Prop43
 90
        3
102
RTVSPost2010PropOp43
 70
     1
102
RTVSPost2010Prop44ColorIndex
 90
        5
102
RTVSPost2010Prop44ColorRGB
 90
      255
102
RTVSPost2010PropOp44
 70
     1
102
RTVSPost2010Prop45
280
     0
102
RTVSPost2010PropOp45
 70
     1
102
RTVSPost2010Prop46
 90
       50
102
RTVSPost2010PropOp46
 70
     1
102
RTVSPost2010Prop47
 90
       50
102
RTVSPost2010PropOp47
 70
     1
102
RTVSPost2010Prop48
 90
       50
102
RTVSPost2010PropOp48
 70
     1
102
RTVSPost2010Prop49
280
     0
102
RTVSPost2010PropOp49
 70
     1
102
RTVSPost2010Prop50
 90
       50
102
RTVSPost2010PropOp50
 70
     1
102
RTVSPost2010Prop51ColorIndex
 90
      256
102
RTVSPost2010Prop51ColorRGB
 90
-16777216
102
RTVSPost2010PropOp51
 70
     0
102
RTVSPost2010Prop52
140
1.0
102
RTVSPost2010PropOp52
 70
     0
102
RTVSPost2010Prop53
 90
        2
102
RTVSPost2010PropOp53
 70
     1
102
RTVSPost2010Prop54
  1
strokes_ogs.tif
102
RTVSPost2010PropOp54
 70
     1
102
RTVSPost2010Prop55
280
     0
102
RTVSPost2010PropOp55
 70
     1
102
RTVSPost2010Prop56
140
1.0
102
RTVSPost2010PropOp56
 70
     1
102
RTVSPost2010Prop57
140
1.0
102
RTVSPost2010PropOp57
 70
     1
  0
ENDSEC
  0
EOF
