  0
SECTION
  2
HEADER
  9
$ACADVER
  1
AC1021
  9
$ACADMAINTVER
 70
    25
  9
$DWGCODEPAGE
  3
ANSI_1252
  9
$INSBASE
 10
0.0
 20
0.0
 30
0.0
  9
$EXTMIN
 10
1.000000000000000E+20
 20
1.000000000000000E+20
 30
1.000000000000000E+20
  9
$EXTMAX
 10
-1.000000000000000E+20
 20
-1.000000000000000E+20
 30
-1.000000000000000E+20
  9
$LIMMIN
 10
0.0
 20
0.0
  9
$LIMMAX
 10
12.0
 20
9.0
  9
$ORTHOMODE
 70
     0
  9
$REGENMODE
 70
     1
  9
$FILLMODE
 70
     1
  9
$QTEXTMODE
 70
     0
  9
$MIRRTEXT
 70
     1
  9
$LTSCALE
 40
1.0
  9
$ATTMODE
 70
     1
  9
$TEXTSIZE
 40
0.2
  9
$TRACEWID
 40
0.05
  9
$TEXTSTYLE
  7
Standard
  9
$CLAYER
  8
0
  9
$CELTYPE
  6
ByLayer
  9
$CECOLOR
 62
   256
  9
$CELTSCALE
 40
1.0
  9
$DISPSILH
 70
     0
  9
$DIMSCALE
 40
1.0
  9
$DIMASZ
 40
0.18
  9
$DIMEXO
 40
0.0625
  9
$DIMDLI
 40
0.38
  9
$DIMRND
 40
0.0
  9
$DIMDLE
 40
0.0
  9
$DIMEXE
 40
0.18
  9
$DIMTP
 40
0.0
  9
$DIMTM
 40
0.0
  9
$DIMTXT
 40
0.18
  9
$DIMCEN
 40
0.09
  9
$DIMTSZ
 40
0.0
  9
$DIMTOL
 70
     0
  9
$DIMLIM
 70
     0
  9
$DIMTIH
 70
     1
  9
$DIMTOH
 70
     1
  9
$DIMSE1
 70
     0
  9
$DIMSE2
 70
     0
  9
$DIMTAD
 70
     0
  9
$DIMZIN
 70
     0
  9
$DIMBLK
  1

  9
$DIMASO
 70
     1
  9
$DIMSHO
 70
     1
  9
$DIMPOST
  1

  9
$DIMAPOST
  1

  9
$DIMALT
 70
     0
  9
$DIMALTD
 70
     2
  9
$DIMALTF
 40
25.4
  9
$DIMLFAC
 40
1.0
  9
$DIMTOFL
 70
     0
  9
$DIMTVP
 40
0.0
  9
$DIMTIX
 70
     0
  9
$DIMSOXD
 70
     0
  9
$DIMSAH
 70
     0
  9
$DIMBLK1
  1

  9
$DIMBLK2
  1

  9
$DIMSTYLE
  2
STANDARD_ACAD
  9
$DIMCLRD
 70
     0
  9
$DIMCLRE
 70
     0
  9
$DIMCLRT
 70
     0
  9
$DIMTFAC
 40
1.0
  9
$DIMGAP
 40
0.09
  9
$DIMJUST
 70
     0
  9
$DIMSD1
 70
     0
  9
$DIMSD2
 70
     0
  9
$DIMTOLJ
 70
     1
  9
$DIMTZIN
 70
     0
  9
$DIMALTZ
 70
     0
  9
$DIMALTTZ
 70
     0
  9
$DIMUPT
 70
     0
  9
$DIMDEC
 70
     4
  9
$DIMTDEC
 70
     4
  9
$DIMALTU
 70
     2
  9
$DIMALTTD
 70
     2
  9
$DIMTXSTY
  7
Standard
  9
$DIMAUNIT
 70
     0
  9
$DIMADEC
 70
     0
  9
$DIMALTRND
 40
0.0
  9
$DIMAZIN
 70
     0
  9
$DIMDSEP
 70
    46
  9
$DIMATFIT
 70
     3
  9
$DIMFRAC
 70
     0
  9
$DIMLDRBLK
  1

  9
$DIMLUNIT
 70
     2
  9
$DIMLWD
 70
    -2
  9
$DIMLWE
 70
    -2
  9
$DIMTMOVE
 70
     2
  9
$DIMFXL
 40
1.0
  9
$DIMFXLON
 70
     0
  9
$DIMJOGANG
 40
0.7853981633974483
  9
$DIMTFILL
 70
     0
  9
$DIMTFILLCLR
 70
     0
  9
$DIMARCSYM
 70
     0
  9
$DIMLTYPE
  6

  9
$DIMLTEX1
  6

  9
$DIMLTEX2
  6

  9
$LUNITS
 70
     2
  9
$LUPREC
 70
     3
  9
$SKETCHINC
 40
0.1
  9
$FILLETRAD
 40
0.5
  9
$AUNITS
 70
     0
  9
$AUPREC
 70
     0
  9
$MENU
  1
.
  9
$ELEVATION
 40
0.0
  9
$PELEVATION
 40
0.0
  9
$THICKNESS
 40
0.0
  9
$LIMCHECK
 70
     0
  9
$CHAMFERA
 40
0.0
  9
$CHAMFERB
 40
0.0
  9
$CHAMFERC
 40
0.0
  9
$CHAMFERD
 40
0.0
  9
$SKPOLY
 70
     0
  9
$TDCREATE
 40
2458608.888232893
  9
$TDUCREATE
 40
2458609.05489956
  9
$TDUPDATE
 40
2458608.888240405
  9
$TDUUPDATE
 40
2458609.054907072
  9
$TDINDWG
 40
0.0000000116
  9
$TDUSRTIMER
 40
0.0000000116
  9
$USRTIMER
 70
     1
  9
$ANGBASE
 50
0.0
  9
$ANGDIR
 70
     0
  9
$PDMODE
 70
     0
  9
$PDSIZE
 40
0.0
  9
$PLINEWID
 40
0.0
  9
$SPLFRAME
 70
     0
  9
$SPLINETYPE
 70
     6
  9
$SPLINESEGS
 70
     8
  9
$HANDSEED
  5
11A
  9
$SURFTAB1
 70
     6
  9
$SURFTAB2
 70
     6
  9
$SURFTYPE
 70
     6
  9
$SURFU
 70
     6
  9
$SURFV
 70
     6
  9
$UCSBASE
  2

  9
$UCSNAME
  2

  9
$UCSORG
 10
0.0
 20
0.0
 30
0.0
  9
$UCSXDIR
 10
1.0
 20
0.0
 30
0.0
  9
$UCSYDIR
 10
0.0
 20
1.0
 30
0.0
  9
$UCSORTHOREF
  2

  9
$UCSORTHOVIEW
 70
     0
  9
$UCSORGTOP
 10
0.0
 20
0.0
 30
0.0
  9
$UCSORGBOTTOM
 10
0.0
 20
0.0
 30
0.0
  9
$UCSORGLEFT
 10
0.0
 20
0.0
 30
0.0
  9
$UCSORGRIGHT
 10
0.0
 20
0.0
 30
0.0
  9
$UCSORGFRONT
 10
0.0
 20
0.0
 30
0.0
  9
$UCSORGBACK
 10
0.0
 20
0.0
 30
0.0
  9
$PUCSBASE
  2

  9
$PUCSNAME
  2

  9
$PUCSORG
 10
0.0
 20
0.0
 30
0.0
  9
$PUCSXDIR
 10
1.0
 20
0.0
 30
0.0
  9
$PUCSYDIR
 10
0.0
 20
1.0
 30
0.0
  9
$PUCSORTHOREF
  2

  9
$PUCSORTHOVIEW
 70
     0
  9
$PUCSORGTOP
 10
0.0
 20
0.0
 30
0.0
  9
$PUCSORGBOTTOM
 10
0.0
 20
0.0
 30
0.0
  9
$PUCSORGLEFT
 10
0.0
 20
0.0
 30
0.0
  9
$PUCSORGRIGHT
 10
0.0
 20
0.0
 30
0.0
  9
$PUCSORGFRONT
 10
0.0
 20
0.0
 30
0.0
  9
$PUCSORGBACK
 10
0.0
 20
0.0
 30
0.0
  9
$USERI1
 70
     0
  9
$USERI2
 70
     0
  9
$USERI3
 70
     0
  9
$USERI4
 70
     0
  9
$USERI5
 70
     0
  9
$USERR1
 40
0.0
  9
$USERR2
 40
0.0
  9
$USERR3
 40
0.0
  9
$USERR4
 40
0.0
  9
$USERR5
 40
0.0
  9
$WORLDVIEW
 70
     1
  9
$SHADEDGE
 70
     3
  9
$SHADEDIF
 70
    70
  9
$TILEMODE
 70
     1
  9
$MAXACTVP
 70
    64
  9
$PINSBASE
 10
0.0
 20
0.0
 30
0.0
  9
$PLIMCHECK
 70
     0
  9
$PEXTMIN
 10
1.000000000000000E+20
 20
1.000000000000000E+20
 30
1.000000000000000E+20
  9
$PEXTMAX
 10
-1.000000000000000E+20
 20
-1.000000000000000E+20
 30
-1.000000000000000E+20
  9
$PLIMMIN
 10
0.0
 20
0.0
  9
$PLIMMAX
 10
12.0
 20
9.0
  9
$UNITMODE
 70
     0
  9
$VISRETAIN
 70
     1
  9
$PLINEGEN
 70
     0
  9
$PSLTSCALE
 70
     1
  9
$TREEDEPTH
 70
  3020
  9
$CMLSTYLE
  2
Standard
  9
$CMLJUST
 70
     0
  9
$CMLSCALE
 40
1.0
  9
$PROXYGRAPHICS
 70
     1
  9
$MEASUREMENT
 70
     0
  9
$CELWEIGHT
370
    -1
  9
$ENDCAPS
280
     0
  9
$JOINSTYLE
280
     0
  9
$LWDISPLAY
290
     0
  9
$INSUNITS
 70
     1
  9
$HYPERLINKBASE
  1

  9
$STYLESHEET
  1

  9
$XEDIT
290
     1
  9
$CEPSNTYPE
380
     0
  9
$PSTYLEMODE
290
     1
  9
$FINGERPRINTGUID
  2
{92e84c5f-8e2a-405b-9415-7af958a26dcf}
  9
$VERSIONGUID
  2
{FAEB1C32-E019-11D5-929B-00C0DF256EC4}
  9
$EXTNAMES
290
     1
  9
$PSVPSCALE
 40
0.0
  9
$OLESTARTUP
290
     0
  9
$SORTENTS
280
   127
  9
$INDEXCTL
280
     0
  9
$HIDETEXT
280
     1
  9
$XCLIPFRAME
290
     0
  9
$HALOGAP
280
     0
  9
$OBSCOLOR
 70
   257
  9
$OBSLTYPE
280
     0
  9
$INTERSECTIONDISPLAY
280
     0
  9
$INTERSECTIONCOLOR
 70
   257
  9
$DIMASSOC
280
     2
  9
$PROJECTNAME
  1

  9
$CAMERADISPLAY
290
     0
  9
$LENSLENGTH
 40
50.0
  9
$CAMERAHEIGHT
 40
0.0
  9
$STEPSPERSEC
 40
2.0
  9
$STEPSIZE
 40
6.0
  9
$3DDWFPREC
 40
2.0
  9
$PSOLWIDTH
 40
0.25
  9
$PSOLHEIGHT
 40
4.0
  9
$LOFTANG1
 40
1.570796326794897
  9
$LOFTANG2
 40
1.570796326794897
  9
$LOFTMAG1
 40
0.0
  9
$LOFTMAG2
 40
0.0
  9
$LOFTPARAM
 70
     7
  9
$LOFTNORMALS
280
     1
  9
$LATITUDE
 40
37.795
  9
$LONGITUDE
 40
-122.394
  9
$NORTHDIRECTION
 40
0.0
  9
$TIMEZONE
 70
 -8000
  9
$LIGHTGLYPHDISPLAY
280
     1
  9
$TILEMODELIGHTSYNCH
280
     1
  9
$CMATERIAL
347
44
  9
$SOLIDHIST
280
     0
  9
$SHOWHIST
280
     1
  9
$DWFFRAME
280
     2
  9
$DGNFRAME
280
     2
  9
$REALWORLDSCALE
290
     1
  9
$INTERFERECOLOR
 62
   256
  9
$CSHADOW
280
     0
  9
$SHADOWPLANELOCATION
 40
0.0
  0
ENDSEC
  0
SECTION
  2
CLASSES
  0
CLASS
  1
ACDBDICTIONARYWDFLT
  2
AcDbDictionaryWithDefault
  3
ObjectDBX Classes
 90
        0
 91
        3
280
     0
281
     0
  0
CLASS
  1
VISUALSTYLE
  2
AcDbVisualStyle
  3
ObjectDBX Classes
 90
     4095
 91
        3
280
     0
281
     0
  0
CLASS
  1
MATERIAL
  2
AcDbMaterial
  3
ObjectDBX Classes
 90
     1153
 91
        3
280
     0
281
     0
  0
CLASS
  1
SCALE
  2
AcDbScale
  3
ObjectDBX Classes
 90
     1153
 91
        3
280
     0
281
     0
  0
CLASS
  1
TABLESTYLE
  2
AcDbTableStyle
  3
ObjectDBX Classes
 90
     4095
 91
        3
280
     0
281
     0
  0
CLASS
  1
MLEADERSTYLE
  2
AcDbMLeaderStyle
  3
ACDB_MLEADERSTYLE_CLASS
 90
     4095
 91
        3
280
     0
281
     0
  0
CLASS
  1
SUN
  2
AcDbSun
  3
SCENEOE
 90
     1153
 91
        3
280
     0
281
     0
  0
CLASS
  1
DICTIONARYVAR
  2
AcDbDictionaryVar
  3
ObjectDBX Classes
 90
        0
 91
        3
280
     0
281
     0
  0
CLASS
  1
CELLSTYLEMAP
  2
AcDbCellStyleMap
  3
ObjectDBX Classes
 90
     1152
 91
        3
280
     0
281
     0
  0
ENDSEC
  0
SECTION
  2
TABLES
  0
TABLE
  2
VPORT
  5
8
330
0
100
AcDbSymbolTable
 70
     1
  0
VPORT
  5
29
330
8
100
AcDbSymbolTableRecord
100
AcDbViewportTableRecord
  2
*Active
 70
     0
 10
0.0
 20
0.0
 11
1.0
 21
1.0
 12
10.42990654205607
 22
4.5
 13
0.0
 23
0.0
 14
0.5
 24
0.5
 15
0.5
 25
0.5
 16
0.0
 26
0.0
 36
1.0
 17
0.0
 27
0.0
 37
0.0
 40
9.0
 41
1.972972972850329
 42
50.0
 43
0.0
 44
0.0
 50
0.0
 51
0.0
 71
     0
 72
   100
 73
     1
 74
     3
 75
     0
 76
     0
 77
     0
 78
     0
281
     0
 65
     1
110
0.0
120
0.0
130
0.0
111
1.0
121
0.0
131
0.0
112
0.0
122
1.0
132
0.0
 79
     0
146
0.0
348
2F
 60
     3
 61
     5
292
     1
282
     1
141
0.0
142
0.0
 63
   250
361
6D
  0
ENDTAB
  0
TABLE
  2
LTYPE
  5
5
330
0
100
AcDbSymbolTable
 70
     1
  0
LTYPE
  5
14
330
5
100
AcDbSymbolTableRecord
100
AcDbLinetypeTableRecord
  2
ByBlock
 70
     0
  3

 72
    65
 73
     0
 40
0.0
  0
LTYPE
  5
15
330
5
100
AcDbSymbolTableRecord
100
AcDbLinetypeTableRecord
  2
ByLayer
 70
     0
  3

 72
    65
 73
     0
 40
0.0
  0
LTYPE
  5
16
330
5
100
AcDbSymbolTableRecord
100
AcDbLinetypeTableRecord
  2
Continuous
 70
     0
  3
Solid line
 72
    65
 73
     0
 40
0.0
  0
ENDTAB
  0
TABLE
  2
LAYER
  5
2
330
0
100
AcDbSymbolTable
 70
     2
  0
LAYER
  5
10
330
2
100
AcDbSymbolTableRecord
100
AcDbLayerTableRecord
  2
0
 70
     0
 62
     7
  6
Continuous
370
    -3
390
F
347
46
  0
LAYER
  5
6E
330
2
100
AcDbSymbolTableRecord
100
AcDbLayerTableRecord
  2
Layer 01
 70
     0
 62
    18
420
        0
  6
Continuous
370
    -3
390
F
347
46
  0
ENDTAB
  0
TABLE
  2
STYLE
  5
3
330
0
100
AcDbSymbolTable
 70
     1
  0
STYLE
  5
11
330
3
100
AcDbSymbolTableRecord
100
AcDbTextStyleTableRecord
  2
Standard
 70
     0
 40
0.0
 41
1.0
 50
0.0
 71
     0
 42
0.2
  3
txt
  4

  0
ENDTAB
  0
TABLE
  2
VIEW
  5
6
330
0
100
AcDbSymbolTable
 70
     0
  0
ENDTAB
  0
TABLE
  2
UCS
  5
7
330
0
100
AcDbSymbolTable
 70
     0
  0
ENDTAB
  0
TABLE
  2
APPID
  5
9
330
0
100
AcDbSymbolTable
 70
     2
  0
APPID
  5
12
330
9
100
AcDbSymbolTableRecord
100
AcDbRegAppTableRecord
  2
ACAD
 70
     0
  0
APPID
  5
112
330
9
100
AcDbSymbolTableRecord
100
AcDbRegAppTableRecord
  2
ACAD_MLEADERVER
 70
     0
  0
ENDTAB
  0
TABLE
  2
DIMSTYLE
  5
A
330
0
100
AcDbSymbolTable
 70
     1
100
AcDbDimStyleTable
  0
DIMSTYLE
105
27
330
A
100
AcDbSymbolTableRecord
100
AcDbDimStyleTableRecord
  2
STANDARD_ACAD
 70
     0
178
     0
340
11
  0
ENDTAB
  0
TABLE
  2
BLOCK_RECORD
  5
1
330
0
100
AcDbSymbolTable
 70
     1
  0
BLOCK_RECORD
  5
1F
330
1
100
AcDbSymbolTableRecord
100
AcDbBlockTableRecord
  2
*Model_Space
340
22
 70
     0
280
     1
281
     0
  0
BLOCK_RECORD
  5
1B
330
1
100
AcDbSymbolTableRecord
100
AcDbBlockTableRecord
  2
*Paper_Space
340
1E
 70
     0
280
     1
281
     0
  0
BLOCK_RECORD
  5
23
330
1
100
AcDbSymbolTableRecord
100
AcDbBlockTableRecord
  2
*Paper_Space0
340
26
 70
     0
280
     1
281
     0
  0
ENDTAB
  0
ENDSEC
  0
SECTION
  2
BLOCKS
  0
BLOCK
  5
20
330
1F
100
AcDbEntity
  8
0
100
AcDbBlockBegin
  2
*Model_Space
 70
     0
 10
0.0
 20
0.0
 30
0.0
  3
*Model_Space
  1

  0
ENDBLK
  5
21
330
1F
100
AcDbEntity
  8
0
100
AcDbBlockEnd
  0
BLOCK
  5
1C
330
1B
100
AcDbEntity
 67
     1
  8
0
100
AcDbBlockBegin
  2
*Paper_Space
 70
     0
 10
0.0
 20
0.0
 30
0.0
  3
*Paper_Space
  1

  0
ENDBLK
  5
1D
330
1B
100
AcDbEntity
 67
     1
  8
0
100
AcDbBlockEnd
  0
BLOCK
  5
24
330
23
100
AcDbEntity
  8
0
100
AcDbBlockBegin
  2
*Paper_Space0
 70
     0
 10
0.0
 20
0.0
 30
0.0
  3
*Paper_Space0
  1

  0
ENDBLK
  5
25
330
23
100
AcDbEntity
  8
0
100
AcDbBlockEnd
  0
ENDSEC
  0
SECTION
  2
ENTITIES
  0
POLYLINE
  5
6F
330
1F
100
AcDbEntity
  8
Layer 01
100
AcDb2dPolyline
 66
     1
 10
0.0
 20
0.0
 30
0.0
 70
     1
  0
VERTEX
  5
70
330
6F
100
AcDbEntity
  8
Layer 01
100
AcDbVertex
100
AcDb2dVertex
 10
-52.14063649250565
 20
8.171220556275532
 30
0.0
  0
VERTEX
  5
71
330
6F
100
AcDbEntity
  8
Layer 01
100
AcDbVertex
100
AcDb2dVertex
 10
-52.14063649250565
 20
9.94277822280647
 30
0.0
  0
VERTEX
  5
72
330
6F
100
AcDbEntity
  8
Layer 01
100
AcDbVertex
100
AcDb2dVertex
 10
52.14063649250568
 20
9.94277822280647
 30
0.0
  0
VERTEX
  5
73
330
6F
100
AcDbEntity
  8
Layer 01
100
AcDbVertex
100
AcDb2dVertex
 10
52.14063649250568
 20
8.171220556275532
 30
0.0
  0
SEQEND
  5
74
330
6F
100
AcDbEntity
  8
Layer 01
  0
SPLINE
  5
75
330
1F
100
AcDbEntity
  8
Layer 01
100
AcDbSpline
210
0.0
220
0.0
230
1.0
 70
    15
 71
     2
 72
    16
 73
    13
 74
     0
 42
0.000000001
 43
0.0000000001
 40
7.69772726370307
 40
7.69772726370307
 40
7.69772726370307
 40
9.21972726370308
 40
9.21972726370308
 40
9.416076804552441
 40
9.416076804552441
 40
11.30544043640396
 40
11.30544043640396
 40
13.07744043640397
 40
13.07744043640397
 40
14.96680406825549
 40
14.96680406825549
 40
15.16315360910485
 40
15.16315360910485
 40
15.16315360910485
 10
-54.15500012435709
 20
8.296000000000001
 30
0.0
 41
1.0
 10
-54.15500012435709
 20
9.057000000000006
 30
0.0
 41
1.0
 10
-54.15500012435709
 20
9.818000000000012
 30
0.0
 41
1.0
 10
-54.15500012435709
 20
9.943000000000012
 30
0.0
 41
0.7071067811865476
 10
-54.03000012435709
 20
9.943000000000012
 30
0.0
 41
1.0
 10
-53.08531830843133
 20
9.943000000000012
 30
0.0
 41
1.0
 10
-52.14063649250556
 20
9.943000000000012
 30
0.0
 41
1.0
 10
-52.14063649250556
 20
9.057000000000006
 30
0.0
 41
1.0
 10
-52.14063649250556
 20
8.171000000000001
 30
0.0
 41
1.0
 10
-53.08531830843133
 20
8.171000000000001
 30
0.0
 41
1.0
 10
-54.03000012435709
 20
8.171000000000001
 30
0.0
 41
1.0
 10
-54.15500012435709
 20
8.171000000000001
 30
0.0
 41
0.7071067811865476
 10
-54.15500012435709
 20
8.296000000000001
 30
0.0
 41
1.0
  0
SPLINE
  5
76
330
1F
100
AcDbEntity
  8
Layer 01
100
AcDbSpline
210
0.0
220
0.0
230
1.0
 70
    11
 71
     5
 72
   111
 73
   105
 74
     0
 42
0.000000001
 43
0.0000000001
 40
3.0
 40
3.0
 40
3.0
 40
3.0
 40
3.0
 40
3.0
 40
3.04800931283149
 40
3.641075016851199
 40
3.641075016851199
 40
3.641075016851199
 40
3.641075016851199
 40
3.641075016851199
 40
4.641075016851199
 40
4.641075016851199
 40
4.641075016851199
 40
4.641075016851199
 40
5.641075016851199
 40
5.641075016851199
 40
5.641075016851199
 40
5.641075016851199
 40
6.641075016851199
 40
6.641075016851199
 40
6.641075016851199
 40
6.641075016851199
 40
6.641075016851199
 40
12.87107501578915
 40
12.87107501578915
 40
12.87107501578915
 40
12.87107501578915
 40
12.87107501578915
 40
13.87107501578915
 40
13.87107501578915
 40
13.87107501578915
 40
13.87107501578915
 40
14.87107501578915
 40
14.87107501578915
 40
14.87107501578915
 40
14.87107501578915
 40
15.87107501578915
 40
15.87107501578915
 40
15.87107501578915
 40
15.87107501578915
 40
15.87107501578915
 40
16.46414071980886
 40
16.51215003300583
 40
16.51215003300583
 40
16.51215003300583
 40
16.51215003300583
 40
16.51215003300583
 40
17.51215972133592
 40
17.51215972133592
 40
17.51215972133592
 40
17.51215972133592
 40
18.512169409666
 40
18.512169409666
 40
18.512169409666
 40
18.512169409666
 40
19.51215003300583
 40
19.51215003300583
 40
19.51215003300583
 40
19.51215003300583
 40
19.51215003300583
 40
26.29806699893696
 40
26.29806699893696
 40
26.29806699893696
 40
26.29806699893696
 40
26.29806699893696
 40
26.35886021242528
 40
26.35886021242528
 40
26.35886021242528
 40
26.35886021242528
 40
26.35886021242528
 40
26.42241568670672
 40
26.42241568670672
 40
26.42241568670672
 40
26.42241568670672
 40
26.42241568670672
 40
27.05050266082173
 40
27.05050266082173
 40
27.05050266082173
 40
27.05050266082173
 40
27.05050266082173
 40
27.11405799238038
 40
27.11405799238038
 40
27.11405799238038
 40
27.11405799238038
 40
27.11405799238038
 40
27.17485076756154
 40
27.17485076756154
 40
27.17485076756154
 40
27.17485076756154
 40
27.17485076756154
 40
33.96076773349267
 40
33.96076773349267
 40
33.96076773349267
 40
33.96076773349267
 40
33.96076773349267
 40
34.96076773349267
 40
34.96076773349267
 40
34.96076773349267
 40
34.96076773349267
 40
35.96076773349267
 40
35.96076773349267
 40
35.96076773349267
 40
35.96076773349267
 40
36.96076773349267
 40
36.96076773349267
 40
36.96076773349267
 40
36.96076773349267
 40
36.96076773349267
 40
36.96076773349267
 10
-43.90718278699813
 20
7.505817418628412
 30
0.0
 10
-43.88087377810564
 20
7.510362683226973
 30
0.0
 10
-43.52956307522055
 20
7.571044044795543
 30
0.0
 10
-43.17824093432242
 20
7.631723574185949
 30
0.0
 10
-42.82689995709742
 20
7.692400093376994
 30
0.0
 10
-42.47562364051487
 20
7.753086949196304
 30
0.0
 10
-42.15063543051781
 20
7.809226436173753
 30
0.0
 10
-42.11266027485225
 20
7.815272739339629
 30
0.0
 10
-42.07528846693616
 20
7.82387348807727
 30
0.0
 10
-42.03852000676956
 20
7.835028682386674
 30
0.0
 10
-42.00235489435244
 20
7.848738322267844
 30
0.0
 10
-41.93123136501715
 20
7.881266493173712
 30
0.0
 10
-41.89930164751451
 20
7.901780504598447
 30
0.0
 10
-41.87100397717685
 20
7.926544441994987
 30
0.0
 10
-41.8463383540042
 20
7.955558305363328
 30
0.0
 10
-41.80427120198887
 20
8.022085884043616
 30
0.0
 10
-41.78878758546563
 20
8.056935569243365
 30
0.0
 10
-41.77885392842683
 20
8.093371150302714
 30
0.0
 10
-41.77447023087245
 20
8.131392627221667
 30
0.0
 10
-41.77563649280251
 20
8.17100000000022
 30
0.0
 10
-43.0216364926949
 20
8.17100000000022
 30
0.0
 10
-44.26763649258729
 20
8.17100000000022
 30
0.0
 10
-45.51363649247968
 20
8.17100000000022
 30
0.0
 10
-46.75963649237208
 20
8.17100000000022
 30
0.0
 10
-48.00563649226447
 20
8.17100000000022
 30
0.0
 10
-48.00680275420795
 20
8.131392627231705
 30
0.0
 10
-48.00241905665352
 20
8.093371150312583
 30
0.0
 10
-47.99248539960121
 20
8.056935569242853
 30
0.0
 10
-47.97700178305098
 20
8.022085884022516
 30
0.0
 10
-47.93493463095474
 20
7.95555830528063
 30
0.0
 10
-47.91026900776801
 20
7.926544441898737
 30
0.0
 10
-47.88197133744265
 20
7.901780504505895
 30
0.0
 10
-47.85004161997868
 20
7.881266493102103
 30
0.0
 10
-47.77891809077352
 20
7.848738322272624
 30
0.0
 10
-47.74275297838953
 20
7.835028682413892
 30
0.0
 10
-47.70598451822414
 20
7.823873488111173
 30
0.0
 10
-47.66861271027736
 20
7.815272739364458
 30
0.0
 10
-47.63063755454917
 20
7.809226436173753
 30
0.0
 10
-47.30564934455214
 20
7.753086949196304
 30
0.0
 10
-46.95437302776926
 20
7.692400093342396
 30
0.0
 10
-46.60303205034393
 20
7.631723574116765
 30
0.0
 10
-46.25170990924551
 20
7.571044044691761
 30
0.0
 10
-45.90039920616019
 20
7.510362683088596
 30
0.0
 10
-45.87409019707115
 20
7.505817418433876
 30
0.0
 10
-45.82211266824385
 20
7.496722246852809
 30
0.0
 10
-45.77248034788195
 20
7.48211713980354
 30
0.0
 10
-45.72519323598544
 20
7.462002097286072
 30
0.0
 10
-45.68025133255435
 20
7.436377119300403
 30
0.0
 10
-45.59505794262293
 20
7.374107292392665
 30
0.0
 10
-45.55703785252038
 20
7.339046469679516
 30
0.0
 10
-45.52359436728101
 20
7.300059737707089
 30
0.0
 10
-45.49472748690479
 20
7.257147096475381
 30
0.0
 10
-45.44614764186851
 20
7.163471356842232
 30
0.0
 10
-45.427660742142
 20
7.115154795617175
 30
0.0
 10
-45.41497651221224
 20
7.065358862309225
 30
0.0
 10
-45.40809495207924
 20
7.014083556918377
 30
0.0
 10
-45.40701606174298
 20
6.961328879444634
 30
0.0
 10
-45.38214532673607
 20
5.604374974822322
 30
0.0
 10
-45.35727459172917
 20
4.247421070200009
 30
0.0
 10
-45.33240385672227
 20
2.890467165577696
 30
0.0
 10
-45.30753312171537
 20
1.533513260955383
 30
0.0
 10
-45.28266238670847
 20
0.176559356333071
 30
0.0
 10
-45.28244384132752
 20
0.1646047064910845
 30
0.0
 10
-45.27993923730928
 20
0.1529058723638242
 30
0.0
 10
-45.27530661747837
 20
0.1418588744456635
 30
0.0
 10
-45.26870402465939
 20
0.1318597332309758
 30
0.0
 10
-45.26028950167694
 20
0.1233044692141344
 30
0.0
 10
-45.25149354037798
 20
0.1143613869560848
 30
0.0
 10
-45.24108523237994
 20
0.1073700461917883
 30
0.0
 10
-45.22951395072697
 20
0.1025197996351033
 30
0.0
 10
-45.21722906846322
 20
0.0999999999998879
 30
0.0
 10
-45.20467995863285
 20
0.1000000000000005
 30
0.0
 10
-45.07906256385496
 20
0.1000000000000006
 30
0.0
 10
-44.95344516907707
 20
0.1000000000000008
 30
0.0
 10
-44.82782777429918
 20
0.1000000000000009
 30
0.0
 10
-44.70221037952129
 20
0.100000000000001
 30
0.0
 10
-44.5765929847434
 20
0.1000000000000011
 30
0.0
 10
-44.56404387624418
 20
0.0999999999976717
 30
0.0
 10
-44.5517589932748
 20
0.1025197962149079
 30
0.0
 10
-44.54018771092666
 20
0.1073700393541527
 30
0.0
 10
-44.52977940429118
 20
0.1143613801178487
 30
0.0
 10
-44.52098344845979
 20
0.1233044692084387
 30
0.0
 10
-44.51256897135633
 20
0.1318596984330269
 30
0.0
 10
-44.50596641708309
 20
0.1418587900971086
 30
0.0
 10
-44.50133385412229
 20
0.1529057293382717
 30
0.0
 10
-44.49882935095621
 20
0.1646045012941043
 30
0.0
 10
-44.49861097606711
 20
0.1765590911021945
 30
0.0
 10
-44.4737401436168
 20
1.533514582057482
 30
0.0
 10
-44.44886931116649
 20
2.890470073012771
 30
0.0
 10
-44.42399847871619
 20
4.247425563968059
 30
0.0
 10
-44.39912764626588
 20
5.604381054923347
 30
0.0
 10
-44.37425681381558
 20
6.961336545878634
 30
0.0
 10
-44.37317715253432
 20
7.014091823061555
 30
0.0
 10
-44.36629474869592
 20
7.065367569380458
 30
0.0
 10
-44.35360960230035
 20
7.115163784835337
 30
0.0
 10
-44.33512171334763
 20
7.163480469426199
 30
0.0
 10
-44.28654045032786
 20
7.257154776879882
 30
0.0
 10
-44.2576734495884
 20
7.300066115324093
 30
0.0
 10
-44.22423007961937
 20
7.339051638485673
 30
0.0
 10
-44.18621034042077
 20
7.374111346364622
 30
0.0
 10
-44.10101812356444
 20
7.436379131557254
 30
0.0
 10
-44.05607692485091
 20
7.46200329582216
 30
0.0
 10
-44.00879063585202
 20
7.482117731755655
 30
0.0
 10
-43.95915925656776
 20
7.49672243935774
 30
0.0
 10
-43.90718278699813
 20
7.505817418628412
 30
0.0
  0
SPLINE
  5
77
330
1F
100
AcDbEntity
  8
Layer 01
100
AcDbSpline
210
0.0
220
0.0
230
1.0
 70
    11
 71
     2
 72
    18
 73
    15
 74
     0
 42
0.000000001
 43
0.0000000001
 40
0.0
 40
0.0
 40
0.0
 40
1.0
 40
2.0
 40
2.0
 40
2.530141636709722
 40
2.530141636709722
 40
3.530141636709722
 40
4.530141636709722
 40
4.530141636709722
 40
4.610502792389442
 40
4.610502792389442
 40
5.183429725987099
 40
5.183429725987099
 40
5.26379088166682
 40
5.26379088166682
 40
5.26379088166682
 10
-44.60556797652015
 20
0.019650951837036
 30
0.0
 10
-44.60579553660222
 20
0.0114909145598536
 30
0.0
 10
-44.61740286615179
 20
0.0000845426910996
 30
0.0
 10
-44.62556570507951
 20
0.0000000000000021
 30
0.0
 10
-44.89063652343387
 20
0.000000000000002
 30
0.0
 10
-45.15570734178823
 20
0.0000000000000019
 30
0.0
 10
-45.16387017509734
 20
0.0000845401801917
 30
0.0
 10
-45.17547750122097
 20
0.0114909115839295
 30
0.0
 10
-45.17570503948508
 20
0.0196509518370373
 30
0.0
 10
-45.17640251485889
 20
0.0598254759185193
 30
0.0
 10
-45.1770999902327
 20
0.1000000000000013
 30
0.0
 10
-44.89063652343388
 20
0.1000000000000013
 30
0.0
 10
-44.60417305663506
 20
0.1000000000000013
 30
0.0
 10
-44.60487051657761
 20
0.0598254759185186
 30
0.0
 10
-44.60556797652015
 20
0.019650951837036
 30
0.0
  0
SPLINE
  5
78
330
1F
100
AcDbEntity
  8
Layer 01
100
AcDbSpline
210
0.0
220
0.0
230
1.0
 70
    15
 71
     2
 72
    16
 73
    13
 74
     0
 42
0.000000001
 43
0.0000000001
 40
7.69772726370307
 40
7.69772726370307
 40
7.69772726370307
 40
9.21972726370308
 40
9.21972726370308
 40
9.416076804552441
 40
9.416076804552441
 40
11.30544043640396
 40
11.30544043640396
 40
13.07744043640397
 40
13.07744043640397
 40
14.96680406825549
 40
14.96680406825549
 40
15.16315360910485
 40
15.16315360910485
 40
15.16315360910485
 10
54.15500012435712
 20
8.296000000000001
 30
0.0
 41
1.0
 10
54.15500012435712
 20
9.057000000000006
 30
0.0
 41
1.0
 10
54.15500012435712
 20
9.818000000000012
 30
0.0
 41
1.0
 10
54.15500012435712
 20
9.943000000000012
 30
0.0
 41
0.7071067811865476
 10
54.03000012435712
 20
9.943000000000012
 30
0.0
 41
1.0
 10
53.08531830843135
 20
9.943000000000012
 30
0.0
 41
1.0
 10
52.14063649250559
 20
9.943000000000012
 30
0.0
 41
1.0
 10
52.14063649250559
 20
9.057000000000006
 30
0.0
 41
1.0
 10
52.14063649250559
 20
8.171000000000001
 30
0.0
 41
1.0
 10
53.08531830843135
 20
8.171000000000001
 30
0.0
 41
1.0
 10
54.03000012435712
 20
8.171000000000001
 30
0.0
 41
1.0
 10
54.15500012435712
 20
8.171000000000001
 30
0.0
 41
0.7071067811865476
 10
54.15500012435712
 20
8.296000000000001
 30
0.0
 41
1.0
  0
SPLINE
  5
79
330
1F
100
AcDbEntity
  8
Layer 01
100
AcDbSpline
210
0.0
220
0.0
230
1.0
 70
    11
 71
     5
 72
   111
 73
   105
 74
     0
 42
0.000000001
 43
0.0000000001
 40
3.0
 40
3.0
 40
3.0
 40
3.0
 40
3.0
 40
3.0
 40
3.04800931283149
 40
3.641075016851199
 40
3.641075016851199
 40
3.641075016851199
 40
3.641075016851199
 40
3.641075016851199
 40
4.641075016851199
 40
4.641075016851199
 40
4.641075016851199
 40
4.641075016851199
 40
5.641075016851199
 40
5.641075016851199
 40
5.641075016851199
 40
5.641075016851199
 40
6.641075016851199
 40
6.641075016851199
 40
6.641075016851199
 40
6.641075016851199
 40
6.641075016851199
 40
12.87107501578915
 40
12.87107501578915
 40
12.87107501578915
 40
12.87107501578915
 40
12.87107501578915
 40
13.87107501578915
 40
13.87107501578915
 40
13.87107501578915
 40
13.87107501578915
 40
14.87107501578915
 40
14.87107501578915
 40
14.87107501578915
 40
14.87107501578915
 40
15.87107501578915
 40
15.87107501578915
 40
15.87107501578915
 40
15.87107501578915
 40
15.87107501578915
 40
16.46414071980886
 40
16.51215003300583
 40
16.51215003300583
 40
16.51215003300583
 40
16.51215003300583
 40
16.51215003300583
 40
17.51215972133592
 40
17.51215972133592
 40
17.51215972133592
 40
17.51215972133592
 40
18.512169409666
 40
18.512169409666
 40
18.512169409666
 40
18.512169409666
 40
19.51215003300583
 40
19.51215003300583
 40
19.51215003300583
 40
19.51215003300583
 40
19.51215003300583
 40
26.29806699893696
 40
26.29806699893696
 40
26.29806699893696
 40
26.29806699893696
 40
26.29806699893696
 40
26.35886021242528
 40
26.35886021242528
 40
26.35886021242528
 40
26.35886021242528
 40
26.35886021242528
 40
26.42241568670672
 40
26.42241568670672
 40
26.42241568670672
 40
26.42241568670672
 40
26.42241568670672
 40
27.05050266082173
 40
27.05050266082173
 40
27.05050266082173
 40
27.05050266082173
 40
27.05050266082173
 40
27.11405799238038
 40
27.11405799238038
 40
27.11405799238038
 40
27.11405799238038
 40
27.11405799238038
 40
27.17485076756154
 40
27.17485076756154
 40
27.17485076756154
 40
27.17485076756154
 40
27.17485076756154
 40
33.96076773349267
 40
33.96076773349267
 40
33.96076773349267
 40
33.96076773349267
 40
33.96076773349267
 40
34.96076773349267
 40
34.96076773349267
 40
34.96076773349267
 40
34.96076773349267
 40
35.96076773349267
 40
35.96076773349267
 40
35.96076773349267
 40
35.96076773349267
 40
36.96076773349267
 40
36.96076773349267
 40
36.96076773349267
 40
36.96076773349267
 40
36.96076773349267
 40
36.96076773349267
 10
43.90718278699815
 20
7.505817418628412
 30
0.0
 10
43.88087377810567
 20
7.510362683226973
 30
0.0
 10
43.52956307522059
 20
7.571044044795543
 30
0.0
 10
43.17824093432245
 20
7.631723574185949
 30
0.0
 10
42.82689995709745
 20
7.692400093376994
 30
0.0
 10
42.47562364051487
 20
7.753086949196304
 30
0.0
 10
42.15063543051784
 20
7.809226436173753
 30
0.0
 10
42.11266027485227
 20
7.815272739339629
 30
0.0
 10
42.07528846693619
 20
7.82387348807727
 30
0.0
 10
42.03852000676959
 20
7.835028682386674
 30
0.0
 10
42.00235489435246
 20
7.848738322267844
 30
0.0
 10
41.93123136501717
 20
7.881266493173712
 30
0.0
 10
41.89930164751451
 20
7.901780504598447
 30
0.0
 10
41.87100397717685
 20
7.926544441994987
 30
0.0
 10
41.8463383540042
 20
7.955558305363328
 30
0.0
 10
41.80427120198889
 20
8.022085884043616
 30
0.0
 10
41.78878758546566
 20
8.056935569243365
 30
0.0
 10
41.77885392842684
 20
8.093371150302714
 30
0.0
 10
41.77447023087246
 20
8.131392627221667
 30
0.0
 10
41.77563649280251
 20
8.17100000000022
 30
0.0
 10
43.0216364926949
 20
8.17100000000022
 30
0.0
 10
44.2676364925873
 20
8.17100000000022
 30
0.0
 10
45.5136364924797
 20
8.17100000000022
 30
0.0
 10
46.75963649237209
 20
8.17100000000022
 30
0.0
 10
48.0056364922645
 20
8.17100000000022
 30
0.0
 10
48.00680275420798
 20
8.131392627231705
 30
0.0
 10
48.00241905665357
 20
8.093371150312583
 30
0.0
 10
47.99248539960125
 20
8.056935569242853
 30
0.0
 10
47.97700178305102
 20
8.022085884022516
 30
0.0
 10
47.93493463095477
 20
7.95555830528063
 30
0.0
 10
47.91026900776804
 20
7.926544441898737
 30
0.0
 10
47.88197133744268
 20
7.901780504505895
 30
0.0
 10
47.85004161997871
 20
7.881266493102103
 30
0.0
 10
47.77891809077354
 20
7.848738322272624
 30
0.0
 10
47.74275297838956
 20
7.835028682413892
 30
0.0
 10
47.70598451822417
 20
7.823873488111173
 30
0.0
 10
47.66861271027739
 20
7.815272739364458
 30
0.0
 10
47.6306375545492
 20
7.809226436173753
 30
0.0
 10
47.30564934455215
 20
7.753086949196304
 30
0.0
 10
46.95437302776929
 20
7.692400093342396
 30
0.0
 10
46.60303205034397
 20
7.631723574116765
 30
0.0
 10
46.25170990924555
 20
7.571044044691761
 30
0.0
 10
45.90039920616022
 20
7.510362683088596
 30
0.0
 10
45.87409019707118
 20
7.505817418433876
 30
0.0
 10
45.82211266824388
 20
7.496722246852809
 30
0.0
 10
45.77248034788197
 20
7.48211713980354
 30
0.0
 10
45.72519323598547
 20
7.462002097286072
 30
0.0
 10
45.68025133255436
 20
7.436377119300403
 30
0.0
 10
45.59505794262294
 20
7.374107292392665
 30
0.0
 10
45.55703785252041
 20
7.339046469679516
 30
0.0
 10
45.52359436728104
 20
7.300059737707089
 30
0.0
 10
45.49472748690482
 20
7.257147096475381
 30
0.0
 10
45.44614764186854
 20
7.163471356842232
 30
0.0
 10
45.42766074214203
 20
7.115154795617175
 30
0.0
 10
45.41497651221226
 20
7.065358862309225
 30
0.0
 10
45.40809495207926
 20
7.014083556918377
 30
0.0
 10
45.40701606174299
 20
6.961328879444634
 30
0.0
 10
45.38214532673609
 20
5.604374974822322
 30
0.0
 10
45.35727459172918
 20
4.247421070200009
 30
0.0
 10
45.33240385672228
 20
2.890467165577696
 30
0.0
 10
45.30753312171538
 20
1.533513260955383
 30
0.0
 10
45.28266238670848
 20
0.176559356333071
 30
0.0
 10
45.28244384132754
 20
0.1646047064910845
 30
0.0
 10
45.27993923730931
 20
0.1529058723638242
 30
0.0
 10
45.27530661747839
 20
0.1418588744456635
 30
0.0
 10
45.2687040246594
 20
0.1318597332309758
 30
0.0
 10
45.26028950167695
 20
0.1233044692141344
 30
0.0
 10
45.251493540378
 20
0.1143613869560848
 30
0.0
 10
45.24108523237997
 20
0.1073700461917883
 30
0.0
 10
45.22951395072701
 20
0.1025197996351033
 30
0.0
 10
45.21722906846325
 20
0.0999999999998879
 30
0.0
 10
45.20467995863288
 20
0.1000000000000005
 30
0.0
 10
45.07906256385499
 20
0.1000000000000006
 30
0.0
 10
44.9534451690771
 20
0.1000000000000008
 30
0.0
 10
44.82782777429921
 20
0.1000000000000009
 30
0.0
 10
44.70221037952132
 20
0.100000000000001
 30
0.0
 10
44.57659298474343
 20
0.1000000000000011
 30
0.0
 10
44.56404387624421
 20
0.0999999999976717
 30
0.0
 10
44.55175899327483
 20
0.1025197962149079
 30
0.0
 10
44.54018771092669
 20
0.1073700393541527
 30
0.0
 10
44.5297794042912
 20
0.1143613801178487
 30
0.0
 10
44.52098344845982
 20
0.1233044692084387
 30
0.0
 10
44.51256897135636
 20
0.1318596984330269
 30
0.0
 10
44.50596641708312
 20
0.1418587900971086
 30
0.0
 10
44.50133385412232
 20
0.1529057293382717
 30
0.0
 10
44.49882935095624
 20
0.1646045012941043
 30
0.0
 10
44.49861097606714
 20
0.1765590911021945
 30
0.0
 10
44.47374014361684
 20
1.533514582057482
 30
0.0
 10
44.44886931116653
 20
2.890470073012771
 30
0.0
 10
44.42399847871622
 20
4.247425563968059
 30
0.0
 10
44.39912764626592
 20
5.604381054923347
 30
0.0
 10
44.37425681381562
 20
6.961336545878634
 30
0.0
 10
44.37317715253437
 20
7.014091823061555
 30
0.0
 10
44.36629474869596
 20
7.065367569380458
 30
0.0
 10
44.35360960230039
 20
7.115163784835337
 30
0.0
 10
44.33512171334766
 20
7.163480469426199
 30
0.0
 10
44.28654045032789
 20
7.257154776879882
 30
0.0
 10
44.25767344958844
 20
7.300066115324093
 30
0.0
 10
44.22423007961942
 20
7.339051638485673
 30
0.0
 10
44.18621034042081
 20
7.374111346364622
 30
0.0
 10
44.10101812356448
 20
7.436379131557254
 30
0.0
 10
44.05607692485094
 20
7.46200329582216
 30
0.0
 10
44.00879063585204
 20
7.482117731755655
 30
0.0
 10
43.95915925656777
 20
7.49672243935774
 30
0.0
 10
43.90718278699815
 20
7.505817418628412
 30
0.0
  0
SPLINE
  5
7A
330
1F
100
AcDbEntity
  8
Layer 01
100
AcDbSpline
210
0.0
220
0.0
230
1.0
 70
    11
 71
     2
 72
    18
 73
    15
 74
     0
 42
0.000000001
 43
0.0000000001
 40
0.0
 40
0.0
 40
0.0
 40
1.0
 40
2.0
 40
2.0
 40
2.530141636709722
 40
2.530141636709722
 40
3.530141636709722
 40
4.530141636709722
 40
4.530141636709722
 40
4.610502792389442
 40
4.610502792389442
 40
5.183429725987099
 40
5.183429725987099
 40
5.26379088166682
 40
5.26379088166682
 40
5.26379088166682
 10
44.60556797652018
 20
0.019650951837036
 30
0.0
 10
44.60579553660226
 20
0.0114909145598536
 30
0.0
 10
44.61740286615181
 20
0.0000845426910996
 30
0.0
 10
44.62556570507955
 20
0.0000000000000021
 30
0.0
 10
44.89063652343391
 20
0.000000000000002
 30
0.0
 10
45.15570734178827
 20
0.0000000000000019
 30
0.0
 10
45.16387017509737
 20
0.0000845401801917
 30
0.0
 10
45.175477501221
 20
0.0114909115839295
 30
0.0
 10
45.17570503948512
 20
0.0196509518370373
 30
0.0
 10
45.17640251485892
 20
0.0598254759185193
 30
0.0
 10
45.17709999023273
 20
0.1000000000000013
 30
0.0
 10
44.89063652343391
 20
0.1000000000000013
 30
0.0
 10
44.60417305663509
 20
0.1000000000000013
 30
0.0
 10
44.60487051657763
 20
0.0598254759185186
 30
0.0
 10
44.60556797652018
 20
0.019650951837036
 30
0.0
  0
SPLINE
  5
7B
330
1F
100
AcDbEntity
  8
Layer 01
100
AcDbSpline
210
0.0
220
0.0
230
1.0
 70
    15
 71
     2
 72
    20
 73
    17
 74
     0
 42
0.000000001
 43
0.0000000001
 40
5.409822549481623
 40
5.409822549481623
 40
5.409822549481623
 40
7.213096732642164
 40
7.213096732642164
 40
32.83709673264217
 40
32.83709673264217
 40
34.64037091580271
 40
34.64037091580271
 40
60.26437091580271
 40
60.26437091580271
 40
62.06764509896325
 40
62.06764509896325
 40
87.69164509896325
 40
87.69164509896325
 40
89.49491928212379
 40
89.49491928212379
 40
115.1189192821238
 40
115.1189192821238
 40
115.1189192821238
 10
-27.96000000000001
 20
72.06196168810101
 30
0.0
 41
1.0
 10
-27.96
 20
73.209961688101
 30
0.0
 41
0.7071067811865476
 10
-26.812
 20
73.209961688101
 30
0.0
 41
1.0
 10
-14.0
 20
73.209961688101
 30
0.0
 41
1.0
 10
-1.188000000000002
 20
73.209961688101
 30
0.0
 41
1.0
 10
-0.0400000000000039
 20
73.209961688101
 30
0.0
 41
0.7071067811865476
 10
-0.0400000000000063
 20
72.06196168810101
 30
0.0
 41
1.0
 10
-0.0400000000000063
 20
59.24996168810101
 30
0.0
 41
1.0
 10
-0.0400000000000063
 20
46.43796168810101
 30
0.0
 41
1.0
 10
-0.0400000000000039
 20
45.28996168810099
 30
0.0
 41
0.7071067811865476
 10
-1.188000000000002
 20
45.289961688101
 30
0.0
 41
1.0
 10
-14.0
 20
45.289961688101
 30
0.0
 41
1.0
 10
-26.812
 20
45.28996168810101
 30
0.0
 41
1.0
 10
-27.96
 20
45.28996168810099
 30
0.0
 41
0.7071067811865476
 10
-27.96000000000001
 20
46.43796168810101
 30
0.0
 41
1.0
 10
-27.96000000000001
 20
59.24996168810101
 30
0.0
 41
1.0
 10
-27.96000000000001
 20
72.06196168810101
 30
0.0
 41
1.0
  0
POLYLINE
  5
7C
330
1F
100
AcDbEntity
  8
Layer 01
100
AcDb2dPolyline
 66
     1
 10
0.0
 20
0.0
 30
0.0
 70
     1
  0
VERTEX
  5
7D
330
7C
100
AcDbEntity
  8
Layer 01
100
AcDbVertex
100
AcDb2dVertex
 10
-25.625
 20
10.443
 30
0.0
  0
VERTEX
  5
7E
330
7C
100
AcDbEntity
  8
Layer 01
100
AcDbVertex
100
AcDb2dVertex
 10
-2.375
 20
10.443
 30
0.0
  0
VERTEX
  5
7F
330
7C
100
AcDbEntity
  8
Layer 01
100
AcDbVertex
100
AcDb2dVertex
 10
-2.375
 20
9.943000000000001
 30
0.0
  0
VERTEX
  5
80
330
7C
100
AcDbEntity
  8
Layer 01
100
AcDbVertex
100
AcDb2dVertex
 10
-25.625
 20
9.943000000000001
 30
0.0
  0
SEQEND
  5
81
330
7C
100
AcDbEntity
  8
Layer 01
  0
SPLINE
  5
82
330
1F
100
AcDbEntity
  8
Layer 01
100
AcDbSpline
210
0.0
220
0.0
230
1.0
 70
    15
 71
     2
 72
    20
 73
    17
 74
     0
 42
0.000000001
 43
0.0000000001
 40
8.069473241346326
 40
8.069473241346326
 40
8.069473241346326
 40
8.962806597466113
 40
8.962806597466113
 40
9.025638450537922
 40
9.025638450537922
 40
10.02278130768078
 40
10.02278130768078
 40
10.08561316075258
 40
10.08561316075258
 40
10.97894651687236
 40
10.97894651687236
 40
11.04177836994414
 40
11.04177836994414
 40
12.038921227087
 40
12.038921227087
 40
12.10175308015879
 40
12.10175308015879
 40
12.10175308015879
 10
0.0000000000000284
 20
10.48299983978271
 30
0.0
 41
1.0
 10
0.0000000000000162
 20
10.81799991989136
 30
0.0
 41
1.0
 10
0.000000000000004
 20
11.153
 30
0.0
 41
1.0
 10
0.000000000000008
 20
11.19300000000001
 30
0.0
 41
0.707106781186422
 10
-0.0399999999999991
 20
11.193
 30
0.0
 41
1.0
 10
-14.0
 20
11.193
 30
0.0
 41
1.0
 10
-27.96000000000001
 20
11.193
 30
0.0
 41
1.0
 10
-28.0
 20
11.193
 30
0.0
 41
0.7071067811865318
 10
-28.0
 20
11.153
 30
0.0
 41
1.0
 10
-28.0
 20
10.81799991989136
 30
0.0
 41
1.0
 10
-27.99999999999999
 20
10.48299983978271
 30
0.0
 41
1.0
 10
-27.99999999999998
 20
10.44299983978273
 30
0.0
 41
0.7071067811866889
 10
-27.96
 20
10.44299983978272
 30
0.0
 41
1.0
 10
-13.99999999999998
 20
10.44299983978271
 30
0.0
 41
1.0
 10
-0.0399999999999636
 20
10.44299983978271
 30
0.0
 41
1.0
 10
0.0000000000000364
 20
10.44299983978271
 30
0.0
 41
0.7071067811865476
 10
0.0000000000000364
 20
10.48299983978271
 30
0.0
 41
1.0
  0
SPLINE
  5
83
330
1F
100
AcDbEntity
  8
Layer 01
370
    -3
100
AcDbSpline
210
0.0
220
0.0
230
1.0
 70
    11
 71
     3
 72
    65
 73
    61
 74
     0
 42
0.000000001
 43
0.0000000001
 40
79.9783659945508
 40
79.9783659945508
 40
79.9783659945508
 40
79.9783659945508
 40
96.92836599536903
 40
96.92836599536903
 40
96.92836599536903
 40
97.92836599536903
 40
97.92836599536903
 40
97.92836599536903
 40
105.3127318348029
 40
105.3127318348029
 40
105.3127318348029
 40
106.3127318348029
 40
106.3127318348029
 40
107.3127318348029
 40
107.3127318348029
 40
108.3127318348029
 40
108.3127318348029
 40
109.3127318348029
 40
109.3127318348029
 40
110.3127318348029
 40
110.3127318348029
 40
110.3127318348029
 40
134.9704542047492
 40
134.9704542047492
 40
134.9704542047492
 40
135.9704542047492
 40
135.9704542047492
 40
136.9704542047492
 40
136.9704542047492
 40
137.9704542047492
 40
137.9704542047492
 40
138.9704542047492
 40
138.9704542047492
 40
139.9704542047492
 40
139.9704542047492
 40
139.9704542047492
 40
169.4544543596885
 40
169.4544543596885
 40
169.4544543596885
 40
170.4544543596885
 40
170.4544543596885
 40
171.4544543596885
 40
171.4544543596885
 40
172.4544543596885
 40
172.4544543596885
 40
173.4544543596885
 40
173.4544543596885
 40
174.4544543596885
 40
174.4544543596885
 40
174.4544543596885
 40
181.8388201985
 40
181.8388201985
 40
181.8388201985
 40
182.8388201985
 40
182.8388201985
 40
182.8388201985
 40
204.9488201993
 40
204.9488201993
 40
204.9488201993
 40
205.9488201993
 40
205.9488201993
 40
205.9488201993
 40
205.9488201993
 10
-55.99999652794216
 20
66.89013014058463
 30
0.0
 10
-56.00000727226324
 20
61.62822821871959
 30
0.0
 10
-56.00001801658431
 20
55.97822821844684
 30
0.0
 10
-56.00002876090539
 20
50.3282282181741
 30
0.0
 10
-56.0000609938686
 20
46.70736855065397
 30
0.0
 10
-56.04258880881574
 20
45.57822821966661
 30
0.0
 10
-57.46408680224306
 20
45.57822821898878
 30
0.0
 10
-59.92554208205435
 20
45.5782282216357
 30
0.0
 10
-62.38699736186562
 20
45.57822822428262
 30
0.0
 10
-64.84845264167691
 20
45.57822822692954
 30
0.0
 10
-64.9491799933244
 20
45.61466641552406
 30
0.0
 10
-65.0153223518059
 20
45.68463128597605
 30
0.0
 10
-65.07843708243695
 20
45.89161439059492
 30
0.0
 10
-65.10199696914111
 20
45.99376480008866
 30
0.0
 10
-65.13312178532678
 20
46.19538333344479
 30
0.0
 10
-65.14470037375274
 20
46.2971325932174
 30
0.0
 10
-65.15988991127092
 20
46.50251109895173
 30
0.0
 10
-65.16526891830094
 20
46.60521673733789
 30
0.0
 10
-65.17159540890276
 20
46.8106607851482
 30
0.0
 10
-65.17315537489158
 20
46.91342393781222
 30
0.0
 10
-65.17311206156828
 20
47.0162282192351
 30
0.0
 10
-65.17140213311143
 20
55.23546883135071
 30
0.0
 10
-65.16969220465458
 20
63.45470944346632
 30
0.0
 10
-65.16798227619773
 20
71.67395005558194
 30
0.0
 10
-65.15428123569558
 20
72.29346849277078
 30
0.0
 10
-65.07147245614118
 20
72.90489806916108
 30
0.0
 10
-64.76763941892793
 20
74.11157950034445
 30
0.0
 10
-64.51327906338321
 20
74.67044926474256
 30
0.0
 10
-63.79967067841761
 20
75.69924689115155
 30
0.0
 10
-63.35158699242362
 20
76.1149683978438
 30
0.0
 10
-62.27286063341327
 20
76.7490567982037
 30
0.0
 10
-61.69854635159803
 20
76.96855740988022
 30
0.0
 10
-60.48001558334741
 20
77.2124714562263
 30
0.0
 10
-59.86572575274097
 20
77.2712763090428
 30
0.0
 10
-59.24641147565342
 20
77.26692899150277
 30
0.0
 10
-49.41841142400699
 20
77.26692898214961
 30
0.0
 10
-39.59041137236056
 20
77.26692897279645
 30
0.0
 10
-29.76241132071414
 20
77.26692896344329
 30
0.0
 10
-29.65960703998056
 20
77.2669722760545
 30
0.0
 10
-29.55684388725506
 20
77.26541230967922
 30
0.0
 10
-29.35139983782017
 20
77.25908581895573
 30
0.0
 10
-29.24869419614077
 20
77.25370681142991
 30
0.0
 10
-29.043315678858
 20
77.2385172720501
 30
0.0
 10
-28.94156642000401
 20
77.22693868356615
 30
0.0
 10
-28.73994790187079
 20
77.19581386901012
 30
0.0
 10
-28.63779749477561
 20
77.17225398190104
 30
0.0
 10
-28.43081438452809
 20
77.10913924802074
 30
0.0
 10
-28.3608495147077
 20
77.04299688927156
 30
0.0
 10
-28.32441133019066
 20
76.94226953871339
 30
0.0
 10
-28.32441132723788
 20
74.48081425910956
 30
0.0
 10
-28.3244113242851
 20
72.01935897950574
 30
0.0
 10
-28.32441132133232
 20
69.55790369990194
 30
0.0
 10
-28.32441132150485
 20
68.18163526841704
 30
0.0
 10
-29.67650250835804
 20
68.09387789152547
 30
0.0
 10
-33.07441132051791
 20
68.09387789152547
 30
0.0
 10
-40.4444113207846
 20
68.093867147211
 30
0.0
 10
-47.8144113210513
 20
68.09385640289653
 30
0.0
 10
-54.79631324291029
 20
68.09384565858207
 30
0.0
 10
-55.41388447013117
 20
68.0938447082136
 30
0.0
 10
-55.9999952121221
 20
67.534537174208
 30
0.0
 10
-55.99999652794216
 20
66.89013014058463
 30
0.0
  0
LINE
  5
84
330
1F
100
AcDbEntity
  8
Layer 01
100
AcDbLine
 10
-60.22194753617697
 20
72.3157644338319
 30
0.0
 11
-55.63480787212865
 21
67.72862476978509
 31
0.0
  0
SPLINE
  5
85
330
1F
100
AcDbEntity
  8
Layer 01
370
    -3
100
AcDbSpline
210
0.0
220
0.0
230
1.0
 70
     8
 71
     2
 72
    26
 73
    23
 74
     0
 42
0.000000001
 43
0.0000000001
 40
-5.0
 40
-5.0
 40
-5.0
 40
-4.0
 40
-3.0
 40
-2.0
 40
-1.0
 40
0.0
 40
0.0
 40
29.48400204651853
 40
29.48400204651853
 40
30.48400204651853
 40
31.48400204651853
 40
32.48400204651853
 40
33.48400204651853
 40
34.48400204651853
 40
34.48400204651853
 40
58.80800399407179
 40
58.80800399407179
 40
59.80800399407179
 40
60.80800399407179
 40
61.80800399407179
 40
62.80800399407179
 40
63.80800399407179
 40
63.80800399407179
 40
63.80800399407179
 10
-28.32441132517422
 20
72.33610501614427
 30
0.0
 10
-28.37906850426131
 20
72.48719611461061
 30
0.0
 10
-28.689543190805
 20
72.58186827629945
 30
0.0
 10
-28.99197098683595
 20
72.62855551918784
 30
0.0
 10
-29.30003878803298
 20
72.65133980621562
 30
0.0
 10
-29.60820488931576
 20
72.66082940993002
 30
0.0
 10
-29.76241132139398
 20
72.66076443519356
 30
0.0
 10
-44.50441234375478
 20
72.6609271945053
 30
0.0
 10
-59.24641336611558
 20
72.66108995381705
 30
0.0
 10
-59.4597450352172
 20
72.66249010244957
 30
0.0
 10
-59.87651759315381
 20
72.56517722962732
 30
0.0
 10
-60.23789007429028
 20
72.33148814646125
 30
0.0
 10
-60.47302767458794
 20
71.97071019652307
 30
0.0
 10
-60.56878776038468
 20
71.55351813321107
 30
0.0
 10
-60.567268019099
 20
71.34023016450837
 30
0.0
 10
-60.56710777923456
 20
59.17822919178736
 30
0.0
 10
-60.56694753937012
 20
47.01622821906635
 30
0.0
 10
-60.56701251476426
 20
46.86202178592654
 30
0.0
 10
-60.55752291096229
 20
46.55385568704082
 30
0.0
 10
-60.53473862637
 20
46.2457879030995
 30
0.0
 10
-60.48805138061405
 20
45.94336008445503
 30
0.0
 10
-60.39337922283715
 20
45.63288540634118
 30
0.0
 10
-60.24228812220682
 20
45.57822822214527
 30
0.0
  0
SPLINE
  5
86
330
1F
100
AcDbEntity
  8
Layer 01
100
AcDbSpline
210
0.0
220
0.0
230
1.0
 70
    11
 71
     2
 72
    36
 73
    33
 74
     0
 42
0.000000001
 43
0.0000000001
 40
0.0
 40
0.0
 40
0.0
 40
1.0
 40
2.0
 40
3.0
 40
4.0
 40
5.0
 40
5.0
 40
24.99600052964069
 40
24.99600052964069
 40
25.99600052964069
 40
26.99600052964069
 40
27.99600052964069
 40
28.99600052964069
 40
29.99600052964069
 40
29.99600052964069
 40
48.49600052978854
 40
48.49600052978854
 40
49.49600052978854
 40
50.49600052978854
 40
51.49600052978854
 40
52.49600052978854
 40
53.49600052978854
 40
53.49600052978854
 40
73.49200134657971
 40
73.49200134657971
 40
74.49200134657971
 40
75.49200134657971
 40
76.49200134657971
 40
77.49200134657971
 40
78.49200134657971
 40
78.49200134657971
 40
98.40253967969674
 40
98.40253967969674
 40
98.40253967969674
 10
-51.95526916652642
 20
68.09386537318355
 30
0.0
 10
-52.44799711959955
 20
68.09356032693896
 30
0.0
 10
-53.43478901624614
 20
68.09139332338444
 30
0.0
 10
-54.41490313978125
 20
68.10554906219255
 30
0.0
 10
-55.43374400673794
 20
68.02406227257433
 30
0.0
 10
-56.02932423827947
 20
67.1832072554937
 30
0.0
 10
-56.00001963603133
 20
66.67146195091226
 30
0.0
 10
-56.00001963602737
 20
56.67346168609193
 30
0.0
 10
-56.00001963602342
 20
46.67546142127159
 30
0.0
 10
-56.04206226281798
 20
46.06661930089477
 30
0.0
 10
-55.3417348297543
 20
45.09411891005345
 30
0.0
 10
-54.15107180507855
 20
44.90209281128971
 30
0.0
 10
-52.99672731287894
 20
44.81599073494699
 30
0.0
 10
-51.83190544021814
 20
44.7781435632884
 30
0.0
 10
-51.250000000097
 20
44.77846161102933
 30
0.0
 10
-42.0
 20
44.77846161102933
 30
0.0
 10
-32.749999999903
 20
44.77846161102933
 30
0.0
 10
-32.16809457015025
 20
44.77814356385299
 30
0.0
 10
-31.00327271741502
 20
44.81599073066558
 30
0.0
 10
-29.84892824589984
 20
44.90209281054063
 30
0.0
 10
-28.65826507123248
 20
45.09411889144645
 30
0.0
 10
-27.95793878230729
 20
46.06661915840385
 30
0.0
 10
-27.99997791609805
 20
46.67546126989722
 30
0.0
 10
-27.99997791604326
 20
56.67346167829281
 30
0.0
 10
-27.99997791598847
 20
66.6714620866884
 30
0.0
 10
-27.97067678720642
 20
67.18320727081539
 30
0.0
 10
-28.56625585097632
 20
68.02406229209694
 30
0.0
 10
-29.58509693261315
 20
68.10554905871163
 30
0.0
 10
-30.5652109798656
 20
68.09139332398664
 30
0.0
 10
-31.55200293436556
 20
68.09356032691497
 30
0.0
 10
-32.04473083340939
 20
68.09386537318355
 30
0.0
 10
-41.9999999999679
 20
68.09386537318355
 30
0.0
 10
-51.95526916652642
 20
68.09386537318355
 30
0.0
  0
POLYLINE
  5
87
330
1F
100
AcDbEntity
  8
Layer 01
100
AcDb2dPolyline
 66
     1
 10
0.0
 20
0.0
 30
0.0000000000000006
  0
VERTEX
  5
88
330
87
100
AcDbEntity
  8
Layer 01
100
AcDbVertex
100
AcDb2dVertex
 10
-55.95999999589296
 20
10.41199999999979
 30
0.0000000000000006
  0
VERTEX
  5
89
330
87
100
AcDbEntity
  8
Layer 01
100
AcDbVertex
100
AcDb2dVertex
 10
-27.9999999999998
 20
10.41199999999969
 30
0.0000000000000006
  0
SEQEND
  5
8A
330
87
100
AcDbEntity
  8
Layer 01
  0
POLYLINE
  5
8B
330
1F
100
AcDbEntity
  8
Layer 01
100
AcDb2dPolyline
 66
     1
 10
0.0
 20
0.0
 30
0.0000000000000002
  0
VERTEX
  5
8C
330
8B
100
AcDbEntity
  8
Layer 01
100
AcDbVertex
100
AcDb2dVertex
 10
-55.95999999589273
 20
15.13
 30
0.0000000000000002
  0
VERTEX
  5
8D
330
8B
100
AcDbEntity
  8
Layer 01
100
AcDbVertex
100
AcDb2dVertex
 10
-28.0
 20
15.12999999999933
 30
0.0000000000000002
  0
SEQEND
  5
8E
330
8B
100
AcDbEntity
  8
Layer 01
  0
SPLINE
  5
8F
330
1F
100
AcDbEntity
  8
Layer 01
100
AcDbSpline
210
0.0
220
0.0
230
1.0
 70
    11
 71
     2
 72
    28
 73
    25
 74
     0
 42
0.000000001
 43
0.0000000001
 40
55.21799999999969
 40
55.21799999999969
 40
55.21799999999969
 40
59.9359999999997
 40
59.9359999999997
 40
60.9359999999997
 40
61.9359999999997
 40
62.9359999999997
 40
62.9359999999997
 40
81.43599999999967
 40
81.43599999999967
 40
82.43599999999967
 40
83.43599999999967
 40
84.43599999999967
 40
84.43599999999967
 40
89.15399999999894
 40
89.15399999999894
 40
90.15399999999894
 40
91.15399999999894
 40
92.15399999999894
 40
92.15399999999894
 40
116.153999999999
 40
116.153999999999
 40
117.153999999999
 40
118.153999999999
 40
119.153999999999
 40
119.153999999999
 40
119.153999999999
 10
-55.95999999589296
 20
10.41199999999979
 30
0.0000000000000006
 10
-55.95999999589284
 20
12.7709999999999
 30
0.0000000000000004
 10
-55.95999999589273
 20
15.13
 30
0.0000000000000002
 10
-55.40998160270038
 20
15.81239877979926
 30
0.0000000000000015
 10
-53.76301636001196
 20
16.37117948580423
 30
0.0000000000000024
 10
-52.06571040375016
 20
16.57180023862512
 30
0.0000000000000015
 10
-51.2099999958927
 20
16.568
 30
0.0000000000000006
 10
-41.95999999589273
 20
16.56800000000004
 30
0.0000000000000011
 10
-32.75
 20
16.56800000000009
 30
0.0000000000000018
 10
-31.89428952547081
 20
16.57180023534393
 30
0.0000000000000014
 10
-30.19698363674758
 20
16.37117948370861
 30
0.0
 10
-28.55001839727919
 20
15.81239878298356
 30
0.0
 10
-28.0
 20
15.12999999999933
 30
0.0000000000000009
 10
-27.9999999999999
 20
12.77099999999951
 30
0.0
 10
-27.9999999999998
 20
10.41199999999969
 30
-0.0000000000000009
 10
-28.27528337754129
 20
10.19045171502642
 30
0.0000000000000045
 10
-28.95476421475706
 20
9.999429687490634
 30
0.0000000000000036
 10
-29.65048332792719
 20
9.938032686346872
 30
0.0000000000000027
 10
-29.99999999996626
 20
9.942999999999998
 30
0.0000000000000009
 10
-41.95999999588338
 20
9.942999999999998
 30
0.0000000000000006
 10
-53.95999999590771
 20
9.942999999999998
 30
0.0000000000000006
 10
-54.30951668285849
 20
9.938032687082519
 30
-0.0000000000000007
 10
-55.00523577464455
 20
9.999429685742168
 30
-0.0000000000000003
 10
-55.684716637534
 20
10.19045172384834
 30
-0.0000000000000003
 10
-55.95999999589296
 20
10.41199999999979
 30
0.0000000000000006
  0
SPLINE
  5
90
330
1F
100
AcDbEntity
  8
Layer 01
100
AcDbSpline
210
0.0
220
0.0
230
1.0
 70
     8
 71
     3
 72
    11
 73
     7
 74
     0
 42
0.000000001
 43
0.0000000001
 40
-4.874611883599021
 40
-4.874611883599021
 40
-4.874611883599021
 40
-4.874611883599021
 40
-4.135220528411553
 40
-2.4373059417979
 40
-0.7393913551842465
 40
0.0
 40
0.0
 40
0.0
 40
0.0
 10
-64.76833271113904
 20
27.55483789603997
 30
0.0000000000000007
 10
-64.58149608677783
 20
27.72079740006005
 30
0.0000000000000007
 10
-63.91402348012801
 20
28.17736894776612
 30
0.0000000000000007
 10
-62.57415364305808
 20
28.55644220728893
 30
0.0000000000000007
 10
-61.19932704070914
 20
28.77884587294177
 30
0.0000000000000007
 10
-60.40181826340131
 20
28.64774819350667
 30
0.0000000000000007
 10
-60.16216814890717
 20
28.57600000037695
 30
0.0000000000000007
  0
SPLINE
  5
91
330
1F
100
AcDbEntity
  8
Layer 01
100
AcDbSpline
210
0.0
220
0.0
230
1.0
 70
     8
 71
     5
 72
    63
 73
    57
 74
     0
 42
0.000000001
 43
0.0000000001
 40
-1.394067550056442
 40
-1.394067550056442
 40
-1.394067550056442
 40
-1.394067550056442
 40
-1.394067550056442
 40
-1.394067550056442
 40
-1.052275069230018
 40
-1.052275069230018
 40
-1.052275069230018
 40
-0.110475609682068
 40
-0.110475609682068
 40
-0.110475609682068
 40
-0.0000000000000244
 40
-0.0000000000000244
 40
-0.0000000000000244
 40
-0.0000000000000244
 40
-0.0000000000000244
 40
0.7596784685742293
 40
0.7596784685742293
 40
0.7596784685742293
 40
2.396639462686325
 40
2.396639462686325
 40
2.396639462686325
 40
2.396639462686325
 40
2.396639462686325
 40
4.46372202340031
 40
4.46372202340031
 40
4.46372202340031
 40
6.634123147909275
 40
6.634123147909275
 40
6.634123147909275
 40
6.634123147909275
 40
6.634123147909275
 40
9.13412314676858
 40
9.13412314676858
 40
9.13412314676858
 40
9.13412314676858
 40
9.13412314676858
 40
12.36112607925672
 40
12.36112607925672
 40
12.36112607925672
 40
12.36112613090548
 40
12.36112613090548
 40
12.36112613090548
 40
12.36112613090548
 40
12.36112613090548
 40
14.06661827400042
 40
14.06661827400042
 40
14.06661827400042
 40
15.25271405447717
 40
15.25271405447717
 40
15.25271405447717
 40
15.25271405447717
 40
15.25271405447717
 40
15.65292026394081
 40
16.05310088331343
 40
16.45328150268604
 40
16.85346210635482
 40
16.85346210635482
 40
16.85346210635482
 40
16.85346210635482
 40
16.85346210635482
 40
16.85346210635482
 10
-60.9046319329982
 20
9.942999999999696
 30
0.0000000000000007
 10
-60.95413097801607
 20
9.992499045018807
 30
0.0000000000000007
 10
-61.00101289270451
 20
10.0437351730727
 30
0.0000000000000007
 10
-61.04547492003316
 20
10.09649180517746
 30
0.0000000000000007
 10
-61.20410372127266
 20
10.29951469002833
 30
0.0000000000000007
 10
-61.33416713864349
 20
10.51787303280016
 30
0.0000000000000007
 10
-61.41825902678395
 20
10.68442933396088
 30
0.0000000000000007
 10
-61.50406008701376
 20
10.87547079516772
 30
0.0000000000000007
 10
-61.58579243724082
 20
11.06965117066555
 30
0.0000000000000007
 10
-61.59432877074532
 20
11.09007043601548
 30
0.0000000000000007
 10
-61.60282088628024
 20
11.11052065347778
 30
0.0000000000000007
 10
-61.61126909823645
 20
11.13100000000051
 30
0.0000000000000007
 10
-61.67012983781709
 20
11.27368456907824
 30
0.0000000000000007
 10
-61.72685938946186
 20
11.41778313455432
 30
0.0000000000000007
 10
-61.78156408239981
 20
11.56267912728882
 30
0.0000000000000007
 10
-61.94809427598265
 20
12.02036868972836
 30
0.0000000000000007
 10
-62.09658798215797
 20
12.47372170251922
 30
0.0000000000000007
 10
-62.19169410252349
 20
12.78252099421865
 30
0.0000000000000007
 10
-62.28257749283701
 20
13.09164046821401
 30
0.0000000000000007
 10
-62.37133398864836
 20
13.402251761514
 30
0.0000000000000007
 10
-62.48412085634939
 20
13.79695948992723
 30
0.0000000000000007
 10
-62.5934732303438
 20
14.19407619725678
 30
0.0000000000000007
 10
-62.69952653157926
 20
14.59317696753225
 30
0.0000000000000007
 10
-62.9104485426782
 20
15.41452290452632
 30
0.0000000000000007
 10
-63.10864462718545
 20
16.24063536731014
 30
0.0000000000000007
 10
-63.20723482842878
 20
16.66452359551879
 30
0.0000000000000007
 10
-63.30331543476986
 20
17.08868304846781
 30
0.0000000000000007
 10
-63.39730090631565
 20
17.51262411417589
 30
0.0000000000000007
 10
-63.50552071325139
 20
18.00077211758572
 30
0.0000000000000007
 10
-63.61374052018711
 20
18.48892012099555
 30
0.0000000000000007
 10
-63.72196032712285
 20
18.97706812440538
 30
0.0000000000000007
 10
-63.83018013405858
 20
19.46521612781521
 30
0.0000000000000007
 10
-63.93839994099432
 20
19.95336413122504
 30
0.0000000000000007
 10
-64.07502556597919
 20
20.56964249839634
 30
0.0000000000000007
 10
-64.2147984530455
 20
21.19529332009573
 30
0.0000000000000007
 10
-64.35168685740375
 20
21.82872409952288
 30
0.0000000000000007
 10
-64.47965903631274
 20
22.46834235011469
 30
0.0000000000000007
 10
-64.59268324245625
 20
23.1125555649807
 30
0.0000000000000007
 10
-64.59268324426523
 20
23.11255557529145
 30
0.0000000000000007
 10
-64.59268324607422
 20
23.1125555856022
 30
0.0000000000000007
 10
-64.5926832478832
 20
23.11255559591294
 30
0.0000000000000007
 10
-64.65195199891768
 20
23.45037449511279
 30
0.0000000000000007
 10
-64.7071102853708
 20
23.78945693936522
 30
0.0000000000000007
 10
-64.75768920779299
 20
24.12917577745875
 30
0.0000000000000007
 10
-64.83488446435348
 20
24.70516999677806
 30
0.0000000000000007
 10
-64.89622023271751
 20
25.27938799270409
 30
0.0000000000000007
 10
-64.91720739714648
 20
25.5142249817109
 30
0.0000000000000007
 10
-64.9325188813307
 20
25.74795970154794
 30
0.0000000000000007
 10
-64.94065106036493
 20
25.98019044642976
 30
0.0000000000000007
 10
-64.94349046679832
 20
26.06127504565656
 30
0.0000000000000007
 10
-64.94731448302747
 20
26.223050323967
 30
0.0000000000000007
 10
-64.94748684334667
 20
26.4645445083787
 30
0.0000000000000007
 10
-64.93642785218643
 20
26.78390257846933
 30
0.0000000000000007
 10
-64.9011625297793
 20
27.09812142718803
 30
0.0000000000000007
 10
-64.84874415728984
 20
27.32897275745216
 30
0.0000000000000007
 10
-64.79780253339487
 20
27.48002439215562
 30
0.0000000000000007
 10
-64.76833271113904
 20
27.55483789603997
 30
0.0000000000000007
  0
SPLINE
  5
92
330
1F
100
AcDbEntity
  8
Layer 01
100
AcDbSpline
210
0.0
220
0.0
230
1.0
 70
     8
 71
     3
 72
    23
 73
    19
 74
     0
 42
0.000000001
 43
0.0000000001
 40
-1.98537336781277
 40
-1.98537336781277
 40
-1.98537336781277
 40
-1.98537336781277
 40
-1.328457279560145
 40
-0.2204581928287411
 40
-0.0000000000000274
 40
-0.0000000000000274
 40
-0.0000000000000274
 40
2.019023225314375
 40
3.015511815060542
 40
3.015511815060542
 40
3.015511815060542
 40
4.100191788121929
 40
6.178255997940536
 40
9.56154993581955
 40
11.08807941795622
 40
11.90021975147001
 40
12.74511832488725
 40
13.18987074080325
 40
13.18987074080325
 40
13.18987074080325
 40
13.18987074080325
 10
-60.16216814890717
 20
28.57600000037695
 30
0.0000000000000007
 10
-59.96066127246311
 20
28.48203580062712
 30
0.0000000000000007
 10
-59.43208179590181
 20
28.2123988472115
 30
0.0000000000000007
 10
-58.94261096051741
 20
27.76862397684069
 30
0.0000000000000007
 10
-58.65602957132285
 20
27.43927844099341
 30
0.0000000000000007
 10
-58.60954919301031
 20
27.38378806225788
 30
0.0000000000000007
 10
-58.18040087286937
 20
26.87145137429387
 30
0.0000000000000007
 10
-57.67669136132025
 20
25.99989944854794
 30
0.0000000000000007
 10
-57.29130225033822
 20
25.06981752839306
 30
0.0000000000000007
 10
-57.17458671038838
 20
24.75710794714641
 30
0.0000000000000007
 10
-57.04795981604411
 20
24.41784341507708
 30
0.0000000000000007
 10
-56.7152472571818
 20
23.41020891654282
 30
0.0000000000000007
 10
-56.19566449766992
 20
21.23682934677327
 30
0.0000000000000007
 10
-55.71820070187826
 20
18.8687362438803
 30
0.0000000000000007
 10
-55.57344003130891
 20
16.94526304084866
 30
0.0000000000000007
 10
-55.62053359815718
 20
15.92923176172981
 30
0.0000000000000007
 10
-55.7382671936528
 20
15.29972044716799
 30
0.0000000000000007
 10
-55.89843863371277
 20
14.93877973393599
 30
0.0000000000000007
 10
-55.95963193982055
 20
14.82369186661968
 30
0.0000000000000007
  0
LINE
  5
93
330
1F
100
AcDbEntity
  8
Layer 01
100
AcDbLine
 10
-60.9046319329982
 20
9.942999999999696
 30
0.0000000000000007
 11
-55.95963192112171
 21
9.942999999999696
 31
0.0000000000000007
  0
LINE
  5
94
330
1F
100
AcDbEntity
  8
Layer 01
100
AcDbLine
 10
-55.9596319699055
 20
14.82369182338557
 30
0.0000000000000007
 11
-55.95963192112166
 21
9.942999999999678
 31
0.0000000000000007
  0
LINE
  5
95
330
1F
100
AcDbEntity
  8
Layer 01
100
AcDbLine
 10
-60.86388224588325
 20
9.942999999999696
 30
0.0000000000000007
 11
-64.76833271005859
 21
27.55483789627949
 31
0.0000000000000007
  0
LINE
  5
96
330
1F
100
AcDbEntity
  8
Layer 01
100
AcDbLine
 10
-56.03133146810131
 20
9.942999999999696
 30
0.0000000000000007
 11
-60.16216818406377
 21
28.5760000109024
 31
0.0000000000000007
  0
SPLINE
  5
97
330
1F
100
AcDbEntity
  8
Layer 01
100
AcDbSpline
210
0.0
220
0.0
230
1.0
 70
     8
 71
     2
 72
     8
 73
     5
 74
     0
 42
0.000000001
 43
0.0000000001
 40
0.0
 40
0.0
 40
0.0
 40
1.0
 40
2.0
 40
3.0
 40
3.0
 40
3.0
 10
-29.43799999621979
 20
28.57599999613219
 30
0.0000000000000005
 10
-29.03608132856115
 20
28.58767966947297
 30
0.0000000000000005
 10
-28.30715622061919
 20
28.23573670112798
 30
0.0000000000000005
 10
-27.99483961119037
 20
27.50012290609545
 30
0.0000000000000005
 10
-28.0
 20
27.11155598736747
 30
0.0000000000000005
  0
POLYLINE
  5
98
330
1F
100
AcDbEntity
  8
Layer 01
100
AcDb2dPolyline
 66
     1
 10
0.0
 20
0.0
 30
0.0000000000000007
  0
VERTEX
  5
99
330
98
100
AcDbEntity
  8
Layer 01
100
AcDbVertex
100
AcDb2dVertex
 10
-60.16216814888188
 20
28.57602792576799
 30
0.0000000000000007
  0
VERTEX
  5
9A
330
98
100
AcDbEntity
  8
Layer 01
100
AcDbVertex
100
AcDb2dVertex
 10
-29.43799999621979
 20
28.57599999613219
 30
0.0000000000000007
  0
SEQEND
  5
9B
330
98
100
AcDbEntity
  8
Layer 01
  0
SPLINE
  5
9C
330
1F
100
AcDbEntity
  8
Layer 01
100
AcDbSpline
210
0.0
220
0.0
230
1.0
 70
    12
 71
     2
 72
     6
 73
     3
 74
     0
 42
0.000000001
 43
0.0000000001
 40
2.936580973137862
 40
2.936580973137862
 40
2.936580973137862
 40
25.05307104046907
 40
25.05307104046907
 40
25.05307104046907
 10
-60.80282098959074
 20
28.69677515739896
 30
0.0000000000000007
 41
0.9997752227929934
 10
-45.07669045953099
 20
29.09156757911292
 30
0.0000000000000007
 41
0.9990411707719065
 10
-29.43799999621979
 20
28.57599999634252
 30
0.0000000000000005
 41
1.0
  0
POLYLINE
  5
9D
330
1F
100
AcDbEntity
  8
Layer 01
100
AcDb2dPolyline
 66
     1
 10
0.0
 20
0.0
 30
0.0000000000000005
  0
VERTEX
  5
9E
330
9D
100
AcDbEntity
  8
Layer 01
100
AcDbVertex
100
AcDb2dVertex
 10
-28.0
 20
27.11155598736747
 30
0.0000000000000005
  0
VERTEX
  5
9F
330
9D
100
AcDbEntity
  8
Layer 01
100
AcDbVertex
100
AcDb2dVertex
 10
-28.0
 20
15.12999999999933
 30
0.0000000000000005
  0
SEQEND
  5
A0
330
9D
100
AcDbEntity
  8
Layer 01
  0
SPLINE
  5
A1
330
1F
100
AcDbEntity
  8
Layer 01
370
    -3
100
AcDbSpline
210
0.0
220
0.0
230
1.0
 70
    11
 71
     3
 72
    45
 73
    41
 74
     0
 42
0.000000001
 43
0.0000000001
 40
37.72714851366177
 40
37.72714851366177
 40
37.72714851366177
 40
37.72714851366177
 40
56.22714851529099
 40
56.22714851529099
 40
56.22714851529099
 40
57.22714851529099
 40
57.22714851529099
 40
57.22714851529099
 40
58.8302970293791
 40
58.8302970293791
 40
58.8302970293791
 40
59.8302970293791
 40
59.8302970293791
 40
60.8302970293791
 40
60.8302970293791
 40
61.8302970293791
 40
61.8302970293791
 40
62.8302970293791
 40
62.8302970293791
 40
63.8302970293791
 40
63.8302970293791
 40
63.8302970293791
 40
88.95429702895277
 40
88.95429702895277
 40
88.95429702895277
 40
89.95429702895277
 40
89.95429702895277
 40
90.95429702895277
 40
90.95429702895277
 40
91.95429702895277
 40
91.95429702895277
 40
92.95429702895277
 40
92.95429702895277
 40
93.95429702895277
 40
93.95429702895277
 40
93.95429702895277
 40
95.55744554304087
 40
95.55744554304087
 40
95.55744554304087
 40
96.55744554304087
 40
96.55744554304087
 40
96.55744554304087
 40
96.55744554304087
 10
4.749999999185356
 20
68.09386537318349
 30
0.0
 10
10.91666666639511
 20
68.09386537318349
 30
0.0
 10
17.08333333360486
 20
68.09386537318349
 30
0.0
 10
23.25000000081461
 20
68.09386537318349
 30
0.0
 10
25.70228181491435
 20
68.09386537318349
 30
0.0
 10
28.00000000154613
 20
68.17857108393005
 30
0.0
 10
28.00000000005296
 20
69.55789118155971
 30
0.0
 10
27.99999999738833
 20
72.01934646158533
 30
0.0
 10
27.9999999947237
 20
74.48080174161093
 30
0.0
 10
27.99999999205907
 20
76.94225702163655
 30
0.0
 10
27.96494730804791
 20
77.0463252309892
 30
0.0
 10
27.89520780484001
 20
77.11315831304121
 30
0.0
 10
27.68635516003071
 20
77.17235422254402
 30
0.0
 10
27.5838376848016
 20
77.19511381334068
 30
0.0
 10
27.38262042869444
 20
77.2269562670245
 30
0.0
 10
27.28096949669148
 20
77.23867636022408
 30
0.0
 10
27.07558302478679
 20
77.25371427933851
 30
0.0
 10
26.97289169873609
 20
77.25905874098878
 30
0.0
 10
26.76751286643794
 20
77.26539866847538
 30
0.0
 10
26.66477877217122
 20
77.26696124738814
 30
0.0
 10
26.56199999978683
 20
77.26691644147033
 30
0.0
 10
18.18733333326228
 20
77.26691644147033
 30
0.0
 10
9.812666666737725
 20
77.26691644147033
 30
0.0
 10
1.438000000213172
 20
77.26691644147033
 30
0.0
 10
1.335221227828785
 20
77.26696124738814
 30
0.0
 10
1.232487133562055
 20
77.26539866847538
 30
0.0
 10
1.027108301263913
 20
77.25905874098878
 30
0.0
 10
0.9244169752132052
 20
77.25371427933851
 30
0.0
 10
0.7190305033085167
 20
77.23867636022408
 30
0.0
 10
0.6173795713055554
 20
77.2269562670245
 30
0.0
 10
0.4161623151983989
 20
77.19511381334068
 30
0.0
 10
0.3136448399692853
 20
77.17235422254403
 30
0.0
 10
0.1047921951599875
 20
77.11315831304121
 30
0.0
 10
0.0350526919520865
 20
77.0463252309892
 30
0.0
 10
0.0000000079409332
 20
76.94225702163655
 30
0.0
 10
0.0000000052763032
 20
74.48080174161093
 30
0.0
 10
0.0000000026116732
 20
72.01934646158533
 30
0.0
 10
-0.0000000000529568
 20
69.55789118155971
 30
0.0
 10
-0.0000000015461339
 20
68.17857108393005
 30
0.0
 10
2.29771818508565
 20
68.09386537318349
 30
0.0
 10
4.749999999185356
 20
68.09386537318349
 30
0.0
  0
SPLINE
  5
A2
330
1F
100
AcDbEntity
  8
Layer 01
100
AcDbSpline
210
0.0
220
0.0
230
1.0
 70
     8
 71
     2
 72
    16
 73
    13
 74
     0
 42
0.000000001
 43
0.0000000001
 40
-4.0
 40
-4.0
 40
-4.0
 40
-3.0
 40
-2.0
 40
-1.0
 40
0.0
 40
0.0
 40
25.12400000015798
 40
25.12400000015798
 40
26.12400000015798
 40
27.12400000015798
 40
28.12400000015798
 40
29.12400000015798
 40
29.12400000015798
 40
29.12400000015798
 10
27.99999999698171
 20
72.33609249817502
 30
0.0
 10
27.91658621713247
 20
72.51629613002771
 30
0.0
 10
27.52059852914527
 20
72.60489391746736
 30
0.0
 10
27.14050228372415
 20
72.64591987784485
 30
0.0
 10
26.75464408568268
 20
72.66085408237132
 30
0.0
 10
26.56200000007899
 20
72.66075191743928
 30
0.0
 10
13.99999999999104
 20
72.66075191747763
 30
0.0
 10
1.437999999903091
 20
72.66075191751597
 30
0.0
 10
1.245355914317315
 20
72.66085408237132
 30
0.0
 10
0.8594977162758539
 20
72.64591987784485
 30
0.0
 10
0.4794014708547323
 20
72.60489391746736
 30
0.0
 10
0.083413782867531
 20
72.51629613002771
 30
0.0
 10
0.0000000030182932
 20
72.33609249817502
 30
0.0
  0
SPLINE
  5
A3
330
1F
100
AcDbEntity
  8
Layer 01
100
AcDbSpline
210
0.0
220
0.0
230
1.0
 70
    11
 71
     2
 72
    48
 73
    45
 74
     0
 42
0.000000001
 43
0.0000000001
 40
90.40653886290555
 40
90.40653886290555
 40
90.40653886290555
 40
110.4025396797031
 40
110.4025396797031
 40
111.4025396797031
 40
112.4025396797031
 40
113.4025396797031
 40
114.4025396797031
 40
115.4025396797031
 40
116.4025396797031
 40
117.4025396797031
 40
118.4025396797031
 40
118.4025396797031
 40
136.902539679851
 40
136.902539679851
 40
137.902539679851
 40
138.902539679851
 40
139.902539679851
 40
140.902539679851
 40
141.902539679851
 40
142.902539679851
 40
143.902539679851
 40
144.902539679851
 40
144.902539679851
 40
164.8985402094916
 40
164.8985402094916
 40
165.8985402094916
 40
166.8985402094916
 40
167.8985402094916
 40
168.8985402094916
 40
169.8985402094916
 40
170.8985402094916
 40
171.8985402094916
 40
172.8985402094916
 40
172.8985402094916
 40
192.8090785426087
 40
192.8090785426087
 40
193.8090785426087
 40
194.8090785426087
 40
195.8090785426087
 40
196.8090785426087
 40
197.8090785426087
 40
198.8090785426087
 40
199.8090785426087
 40
200.8090785426087
 40
200.8090785426087
 40
200.8090785426087
 10
-0.0000220790104422
 20
66.6714620866884
 30
0.0
 10
-0.0000220789556487
 20
56.67346167828962
 30
0.0
 10
-0.0000220789008551
 20
46.67546126989085
 30
0.0
 10
-0.0071517513377586
 20
46.31077551466715
 30
0.0
 10
0.1941294061390053
 20
45.59453821337542
 30
0.0
 10
0.7673375967491225
 20
45.12224666059669
 30
0.0
 10
1.483239155843208
 20
44.95406549753022
 30
0.0
 10
2.205895124941861
 20
44.87519445575367
 30
0.0
 10
2.931806691119931
 20
44.82337716522041
 30
0.0
 10
3.658745431127798
 20
44.79265307134834
 30
0.0
 10
4.386204638190677
 20
44.77839591365849
 30
0.0
 10
4.75000000483
 20
44.77846161102934
 30
0.0
 10
14.00000000493269
 20
44.77846161102934
 30
0.0
 10
23.25000000503537
 20
44.77846161102934
 30
0.0
 10
23.61379538698097
 20
44.77839591385416
 30
0.0
 10
24.34125455206139
 20
44.79265307067406
 30
0.0
 10
25.06819335809807
 20
44.82337716581068
 30
0.0
 10
25.79410492743325
 20
44.87519445932455
 30
0.0
 10
26.51676092080893
 20
44.95406550807811
 30
0.0
 10
27.23266250858943
 20
45.12224668422625
 30
0.0
 10
27.80587047468217
 20
45.59453829151055
 30
0.0
 10
28.00715278340736
 20
46.31077558431031
 30
0.0
 10
28.0000196410245
 20
46.67546142127159
 30
0.0
 10
28.00001964102846
 20
56.67346168609194
 30
0.0
 10
28.00001964103241
 20
66.67146195091229
 30
0.0
 10
28.00606114136175
 20
66.98133429129007
 30
0.0
 10
27.81962842014948
 20
67.58026137683314
 30
0.0
 10
27.34285352309433
 20
67.99425714745061
 30
0.0
 10
26.72790125253218
 20
68.10524113360586
 30
0.0
 10
26.11166810529281
 20
68.09156212095141
 30
0.0
 10
25.49556907859638
 20
68.09368388641181
 30
0.0
 10
24.8794468465941
 20
68.09338521647643
 30
0.0
 10
24.26332846831983
 20
68.09343077813378
 30
0.0
 10
23.95526917152749
 20
68.09386537318355
 30
0.0
 10
14.00000000496899
 20
68.09386537318353
 30
0.0
 10
4.04473083841048
 20
68.09386537318352
 30
0.0
 10
3.736671451810039
 20
68.0934307780187
 30
0.0
 10
3.120553191038084
 20
68.0933852164473
 30
0.0
 10
2.504430931799035
 20
68.09368388643736
 30
0.0
 10
1.888331910454895
 20
68.09156212073503
 30
0.0
 10
1.272098788965238
 20
68.10524113501407
 30
0.0
 10
0.6571465316284772
 20
67.9942571514195
 30
0.0
 10
0.180371445417272
 20
67.5802614233506
 30
0.0
 10
-0.0060601204583222
 20
66.98133430824365
 30
0.0
 10
-0.0000220790104422
 20
66.6714620866884
 30
0.0
  0
SPLINE
  5
A4
330
1F
100
AcDbEntity
  8
Layer 01
100
AcDbSpline
210
0.0
220
0.0
230
1.0
 70
     8
 71
     2
 72
    18
 73
    15
 74
     0
 42
0.000000001
 43
0.0000000001
 40
-17.50335281913432
 40
-17.50335281913432
 40
-17.50335281913432
 40
0.0
 40
0.0
 40
1.0
 40
2.0
 40
3.0
 40
3.0
 40
28.04399999803454
 40
28.04399999803454
 40
29.04399999803454
 40
30.04399999803454
 40
31.04399999803454
 40
31.04399999803454
 40
43.02555598624343
 40
43.02555598624343
 40
43.02555598624343
 10
0.0400000040979336
 20
15.13
 30
0.0000000000000001
 10
0.0600000061469146
 20
21.12077799410412
 30
0.0000000000000001
 10
0.0800000081958956
 20
27.11155598820823
 30
0.0000000000000001
 10
0.0748396194589702
 20
27.50012290679903
 30
0.0000000000000001
 10
0.3871562292837751
 20
28.23573670178585
 30
0.0000000000000001
 10
1.116081337457047
 20
28.58767966969423
 30
0.0000000000000001
 10
1.51800000508068
 20
28.57599999634255
 30
0.0000000000000001
 10
14.04000000409795
 20
28.57599999634255
 30
0.0000000000000001
 10
26.56200000311523
 20
28.57599999634255
 30
0.0000000000000001
 10
26.96391867073885
 20
28.58767966969423
 30
0.0000000000000001
 10
27.69284377891213
 20
28.23573670178585
 30
0.0000000000000001
 10
28.00516038873693
 20
27.50012290679903
 30
0.0000000000000001
 10
28.0
 20
27.11155598820823
 30
0.0000000000000001
 10
28.0
 20
21.12077799410378
 30
0.0000000000000001
 10
28.0
 20
15.12999999999933
 30
0.0000000000000001
  0
ARC
  5
A5
330
1F
100
AcDbEntity
  8
Layer 01
100
AcDbCircle
 10
-14.04000000409795
 20
-239.8729341105257
 30
-0.0000000000000001
 40
268.7408244146934
210
0.0
220
0.0
230
-1.0
100
AcDbArc
 50
87.32933163841663
 51
92.67066836158337
  0
POLYLINE
  5
A6
330
1F
100
AcDbEntity
  8
Layer 01
100
AcDb2dPolyline
 66
     1
 10
0.0
 20
0.0
 30
0.0000000000000006
  0
VERTEX
  5
A7
330
A6
100
AcDbEntity
  8
Layer 01
100
AcDbVertex
100
AcDb2dVertex
 10
0.0403680344603998
 20
10.41199999999979
 30
0.0000000000000006
  0
VERTEX
  5
A8
330
A6
100
AcDbEntity
  8
Layer 01
100
AcDbVertex
100
AcDb2dVertex
 10
28.0000000000002
 20
10.41199999999969
 30
0.0000000000000006
  0
SEQEND
  5
A9
330
A6
100
AcDbEntity
  8
Layer 01
  0
POLYLINE
  5
AA
330
1F
100
AcDbEntity
  8
Layer 01
100
AcDb2dPolyline
 66
     1
 10
0.0
 20
0.0
 30
0.0000000000000002
  0
VERTEX
  5
AB
330
AA
100
AcDbEntity
  8
Layer 01
100
AcDbVertex
100
AcDb2dVertex
 10
0.040368034460613
 20
15.13
 30
0.0000000000000002
  0
VERTEX
  5
AC
330
AA
100
AcDbEntity
  8
Layer 01
100
AcDbVertex
100
AcDb2dVertex
 10
28.0
 20
15.12999999999933
 30
0.0000000000000002
  0
SEQEND
  5
AD
330
AA
100
AcDbEntity
  8
Layer 01
  0
SPLINE
  5
AE
330
1F
100
AcDbEntity
  8
Layer 01
100
AcDbSpline
210
0.0
220
0.0
230
1.0
 70
    11
 71
     2
 72
    28
 73
    25
 74
     0
 42
0.000000001
 43
0.0000000001
 40
55.21799999999969
 40
55.21799999999969
 40
55.21799999999969
 40
59.9359999999997
 40
59.9359999999997
 40
60.9359999999997
 40
61.9359999999997
 40
62.9359999999997
 40
62.9359999999997
 40
81.43599999999967
 40
81.43599999999967
 40
82.43599999999967
 40
83.43599999999967
 40
84.43599999999967
 40
84.43599999999967
 40
89.15399999999894
 40
89.15399999999894
 40
90.15399999999894
 40
91.15399999999894
 40
92.15399999999894
 40
92.15399999999894
 40
116.153999999999
 40
116.153999999999
 40
117.153999999999
 40
118.153999999999
 40
119.153999999999
 40
119.153999999999
 40
119.153999999999
 10
0.0403680344603998
 20
10.41199999999979
 30
0.0000000000000006
 10
0.0403680344605064
 20
12.7709999999999
 30
0.0000000000000004
 10
0.040368034460613
 20
15.13
 30
0.0000000000000002
 10
0.5903864276529731
 20
15.81239877979926
 30
0.0000000000000015
 10
2.237351670341397
 20
16.37117948580423
 30
0.0000000000000024
 10
3.934657626603197
 20
16.57180023862512
 30
0.0000000000000015
 10
4.790368034460656
 20
16.568
 30
0.0000000000000006
 10
14.00000000000003
 20
16.56800000000004
 30
0.000000000000001
 10
23.25
 20
16.56800000000009
 30
0.0000000000000015
 10
24.10571047452919
 20
16.57180023534393
 30
0.000000000000001
 10
25.80301636325242
 20
16.37117948370861
 30
-0.0000000000000003
 10
27.44998160272081
 20
15.81239878298356
 30
-0.0000000000000003
 10
28.0
 20
15.12999999999933
 30
0.0000000000000006
 10
28.0000000000001
 20
12.77099999999951
 30
-0.0000000000000003
 10
28.0000000000002
 20
10.41199999999969
 30
-0.0000000000000012
 10
27.72471662245871
 20
10.19045171502642
 30
0.0000000000000041
 10
27.04523578524291
 20
9.999429687490634
 30
0.0000000000000033
 10
26.34951667207278
 20
9.938032686346872
 30
0.0000000000000024
 10
26.00000000003374
 20
9.942999999999998
 30
0.0000000000000006
 10
14.00000000000941
 20
9.942999999999998
 30
0.0000000000000006
 10
2.040368034445649
 20
9.942999999999998
 30
0.0000000000000006
 10
1.690851347494871
 20
9.938032687082519
 30
-0.0000000000000007
 10
0.9951322557088105
 20
9.999429685742168
 30
-0.0000000000000003
 10
0.3156513928193476
 20
10.19045172384834
 30
-0.0000000000000003
 10
0.0403680344603998
 20
10.41199999999979
 30
0.0000000000000006
  0
POLYLINE
  5
AF
330
1F
100
AcDbEntity
  8
Layer 01
100
AcDb2dPolyline
 66
     1
 10
0.0
 20
0.0
 30
0.0000000000000006
  0
VERTEX
  5
B0
330
AF
100
AcDbEntity
  8
Layer 01
100
AcDbVertex
100
AcDb2dVertex
 10
55.95999999589296
 20
10.41199999999979
 30
0.0000000000000006
  0
VERTEX
  5
B1
330
AF
100
AcDbEntity
  8
Layer 01
100
AcDbVertex
100
AcDb2dVertex
 10
27.9999999999998
 20
10.41199999999969
 30
0.0000000000000006
  0
SEQEND
  5
B2
330
AF
100
AcDbEntity
  8
Layer 01
  0
POLYLINE
  5
B3
330
1F
100
AcDbEntity
  8
Layer 01
100
AcDb2dPolyline
 66
     1
 10
0.0
 20
0.0
 30
0.0000000000000002
  0
VERTEX
  5
B4
330
B3
100
AcDbEntity
  8
Layer 01
100
AcDbVertex
100
AcDb2dVertex
 10
55.95999999589273
 20
15.13
 30
0.0000000000000002
  0
VERTEX
  5
B5
330
B3
100
AcDbEntity
  8
Layer 01
100
AcDbVertex
100
AcDb2dVertex
 10
28.0
 20
15.12999999999933
 30
0.0000000000000002
  0
SEQEND
  5
B6
330
B3
100
AcDbEntity
  8
Layer 01
  0
SPLINE
  5
B7
330
1F
100
AcDbEntity
  8
Layer 01
100
AcDbSpline
210
0.0
220
0.0
230
1.0
 70
    11
 71
     2
 72
    28
 73
    25
 74
     0
 42
0.000000001
 43
0.0000000001
 40
55.21799999999969
 40
55.21799999999969
 40
55.21799999999969
 40
59.9359999999997
 40
59.9359999999997
 40
60.9359999999997
 40
61.9359999999997
 40
62.9359999999997
 40
62.9359999999997
 40
81.43599999999967
 40
81.43599999999967
 40
82.43599999999967
 40
83.43599999999967
 40
84.43599999999967
 40
84.43599999999967
 40
89.15399999999894
 40
89.15399999999894
 40
90.15399999999894
 40
91.15399999999894
 40
92.15399999999894
 40
92.15399999999894
 40
116.153999999999
 40
116.153999999999
 40
117.153999999999
 40
118.153999999999
 40
119.153999999999
 40
119.153999999999
 40
119.153999999999
 10
55.95999999589296
 20
10.41199999999979
 30
0.0000000000000006
 10
55.95999999589284
 20
12.7709999999999
 30
0.0000000000000004
 10
55.95999999589273
 20
15.13
 30
0.0000000000000002
 10
55.40998160270038
 20
15.81239877979926
 30
0.0000000000000015
 10
53.76301636001196
 20
16.37117948580423
 30
0.0000000000000024
 10
52.06571040375016
 20
16.57180023862512
 30
0.0000000000000015
 10
51.2099999958927
 20
16.568
 30
0.0000000000000006
 10
41.95999999589273
 20
16.56800000000004
 30
0.0000000000000011
 10
32.75
 20
16.56800000000009
 30
0.0000000000000018
 10
31.89428952547081
 20
16.57180023534393
 30
0.0000000000000014
 10
30.19698363674758
 20
16.37117948370861
 30
0.0
 10
28.55001839727919
 20
15.81239878298356
 30
0.0
 10
28.0
 20
15.12999999999933
 30
0.0000000000000009
 10
27.9999999999999
 20
12.77099999999951
 30
0.0
 10
27.9999999999998
 20
10.41199999999969
 30
-0.0000000000000009
 10
28.27528337754129
 20
10.19045171502642
 30
0.0000000000000045
 10
28.95476421475706
 20
9.999429687490634
 30
0.0000000000000036
 10
29.65048332792719
 20
9.938032686346872
 30
0.0000000000000027
 10
29.99999999996626
 20
9.942999999999998
 30
0.0000000000000009
 10
41.95999999588338
 20
9.942999999999998
 30
0.0000000000000006
 10
53.95999999590771
 20
9.942999999999998
 30
0.0000000000000006
 10
54.30951668285849
 20
9.938032687082519
 30
-0.0000000000000007
 10
55.00523577464455
 20
9.999429685742168
 30
-0.0000000000000003
 10
55.684716637534
 20
10.19045172384834
 30
-0.0000000000000003
 10
55.95999999589296
 20
10.41199999999979
 30
0.0000000000000006
  0
SPLINE
  5
B8
330
1F
100
AcDbEntity
  8
Layer 01
100
AcDbSpline
210
0.0
220
0.0
230
1.0
 70
     8
 71
     3
 72
    11
 73
     7
 74
     0
 42
0.000000001
 43
0.0000000001
 40
-4.874611883599021
 40
-4.874611883599021
 40
-4.874611883599021
 40
-4.874611883599021
 40
-4.135220528411553
 40
-2.4373059417979
 40
-0.7393913551842465
 40
0.0
 40
0.0
 40
0.0
 40
0.0
 10
64.76833271113904
 20
27.55483789603997
 30
0.0000000000000007
 10
64.58149608677783
 20
27.72079740006005
 30
0.0000000000000007
 10
63.91402348012801
 20
28.17736894776612
 30
0.0000000000000007
 10
62.57415364305808
 20
28.55644220728893
 30
0.0000000000000007
 10
61.19932704070914
 20
28.77884587294177
 30
0.0000000000000007
 10
60.40181826340131
 20
28.64774819350667
 30
0.0000000000000007
 10
60.16216814890717
 20
28.57600000037695
 30
0.0000000000000007
  0
SPLINE
  5
B9
330
1F
100
AcDbEntity
  8
Layer 01
100
AcDbSpline
210
0.0
220
0.0
230
1.0
 70
     8
 71
     5
 72
    63
 73
    57
 74
     0
 42
0.000000001
 43
0.0000000001
 40
-1.394067550056442
 40
-1.394067550056442
 40
-1.394067550056442
 40
-1.394067550056442
 40
-1.394067550056442
 40
-1.394067550056442
 40
-1.052275069230018
 40
-1.052275069230018
 40
-1.052275069230018
 40
-0.110475609682068
 40
-0.110475609682068
 40
-0.110475609682068
 40
-0.0000000000000244
 40
-0.0000000000000244
 40
-0.0000000000000244
 40
-0.0000000000000244
 40
-0.0000000000000244
 40
0.7596784685742293
 40
0.7596784685742293
 40
0.7596784685742293
 40
2.396639462686325
 40
2.396639462686325
 40
2.396639462686325
 40
2.396639462686325
 40
2.396639462686325
 40
4.46372202340031
 40
4.46372202340031
 40
4.46372202340031
 40
6.634123147909275
 40
6.634123147909275
 40
6.634123147909275
 40
6.634123147909275
 40
6.634123147909275
 40
9.13412314676858
 40
9.13412314676858
 40
9.13412314676858
 40
9.13412314676858
 40
9.13412314676858
 40
12.36112607925672
 40
12.36112607925672
 40
12.36112607925672
 40
12.36112613090548
 40
12.36112613090548
 40
12.36112613090548
 40
12.36112613090548
 40
12.36112613090548
 40
14.06661827400042
 40
14.06661827400042
 40
14.06661827400042
 40
15.25271405447717
 40
15.25271405447717
 40
15.25271405447717
 40
15.25271405447717
 40
15.25271405447717
 40
15.65292026394081
 40
16.05310088331343
 40
16.45328150268604
 40
16.85346210635482
 40
16.85346210635482
 40
16.85346210635482
 40
16.85346210635482
 40
16.85346210635482
 40
16.85346210635482
 10
60.9046319329982
 20
9.942999999999696
 30
0.0000000000000007
 10
60.95413097801607
 20
9.992499045018807
 30
0.0000000000000007
 10
61.00101289270451
 20
10.0437351730727
 30
0.0000000000000007
 10
61.04547492003316
 20
10.09649180517746
 30
0.0000000000000007
 10
61.20410372127266
 20
10.29951469002833
 30
0.0000000000000007
 10
61.33416713864349
 20
10.51787303280016
 30
0.0000000000000007
 10
61.41825902678395
 20
10.68442933396088
 30
0.0000000000000007
 10
61.50406008701376
 20
10.87547079516772
 30
0.0000000000000007
 10
61.58579243724082
 20
11.06965117066555
 30
0.0000000000000007
 10
61.59432877074532
 20
11.09007043601548
 30
0.0000000000000007
 10
61.60282088628024
 20
11.11052065347778
 30
0.0000000000000007
 10
61.61126909823645
 20
11.13100000000051
 30
0.0000000000000007
 10
61.67012983781709
 20
11.27368456907824
 30
0.0000000000000007
 10
61.72685938946186
 20
11.41778313455432
 30
0.0000000000000007
 10
61.78156408239981
 20
11.56267912728882
 30
0.0000000000000007
 10
61.94809427598265
 20
12.02036868972836
 30
0.0000000000000007
 10
62.09658798215797
 20
12.47372170251922
 30
0.0000000000000007
 10
62.19169410252349
 20
12.78252099421865
 30
0.0000000000000007
 10
62.28257749283701
 20
13.09164046821401
 30
0.0000000000000007
 10
62.37133398864836
 20
13.402251761514
 30
0.0000000000000007
 10
62.48412085634939
 20
13.79695948992723
 30
0.0000000000000007
 10
62.5934732303438
 20
14.19407619725678
 30
0.0000000000000007
 10
62.69952653157926
 20
14.59317696753225
 30
0.0000000000000007
 10
62.9104485426782
 20
15.41452290452632
 30
0.0000000000000007
 10
63.10864462718545
 20
16.24063536731014
 30
0.0000000000000007
 10
63.20723482842878
 20
16.66452359551879
 30
0.0000000000000007
 10
63.30331543476986
 20
17.08868304846781
 30
0.0000000000000007
 10
63.39730090631565
 20
17.51262411417589
 30
0.0000000000000007
 10
63.50552071325139
 20
18.00077211758572
 30
0.0000000000000007
 10
63.61374052018711
 20
18.48892012099555
 30
0.0000000000000007
 10
63.72196032712285
 20
18.97706812440538
 30
0.0000000000000007
 10
63.83018013405858
 20
19.46521612781521
 30
0.0000000000000007
 10
63.93839994099432
 20
19.95336413122504
 30
0.0000000000000007
 10
64.07502556597919
 20
20.56964249839634
 30
0.0000000000000007
 10
64.2147984530455
 20
21.19529332009573
 30
0.0000000000000007
 10
64.35168685740375
 20
21.82872409952288
 30
0.0000000000000007
 10
64.47965903631274
 20
22.46834235011469
 30
0.0000000000000007
 10
64.59268324245625
 20
23.1125555649807
 30
0.0000000000000007
 10
64.59268324426523
 20
23.11255557529145
 30
0.0000000000000007
 10
64.59268324607422
 20
23.1125555856022
 30
0.0000000000000007
 10
64.5926832478832
 20
23.11255559591294
 30
0.0000000000000007
 10
64.65195199891768
 20
23.45037449511279
 30
0.0000000000000007
 10
64.7071102853708
 20
23.78945693936522
 30
0.0000000000000007
 10
64.75768920779299
 20
24.12917577745875
 30
0.0000000000000007
 10
64.83488446435348
 20
24.70516999677806
 30
0.0000000000000007
 10
64.89622023271751
 20
25.27938799270409
 30
0.0000000000000007
 10
64.91720739714648
 20
25.5142249817109
 30
0.0000000000000007
 10
64.9325188813307
 20
25.74795970154794
 30
0.0000000000000007
 10
64.94065106036493
 20
25.98019044642976
 30
0.0000000000000007
 10
64.94349046679832
 20
26.06127504565656
 30
0.0000000000000007
 10
64.94731448302747
 20
26.223050323967
 30
0.0000000000000007
 10
64.94748684334667
 20
26.4645445083787
 30
0.0000000000000007
 10
64.93642785218643
 20
26.78390257846933
 30
0.0000000000000007
 10
64.9011625297793
 20
27.09812142718803
 30
0.0000000000000007
 10
64.84874415728984
 20
27.32897275745216
 30
0.0000000000000007
 10
64.79780253339487
 20
27.48002439215562
 30
0.0000000000000007
 10
64.76833271113904
 20
27.55483789603997
 30
0.0000000000000007
  0
SPLINE
  5
BA
330
1F
100
AcDbEntity
  8
Layer 01
100
AcDbSpline
210
0.0
220
0.0
230
1.0
 70
     8
 71
     3
 72
    23
 73
    19
 74
     0
 42
0.000000001
 43
0.0000000001
 40
-1.98537336781277
 40
-1.98537336781277
 40
-1.98537336781277
 40
-1.98537336781277
 40
-1.328457279560145
 40
-0.2204581928287411
 40
-0.0000000000000274
 40
-0.0000000000000274
 40
-0.0000000000000274
 40
2.019023225314375
 40
3.015511815060542
 40
3.015511815060542
 40
3.015511815060542
 40
4.100191788121929
 40
6.178255997940536
 40
9.56154993581955
 40
11.08807941795622
 40
11.90021975147001
 40
12.74511832488725
 40
13.18987074080325
 40
13.18987074080325
 40
13.18987074080325
 40
13.18987074080325
 10
60.16216814890717
 20
28.57600000037695
 30
0.0000000000000007
 10
59.96066127246311
 20
28.48203580062712
 30
0.0000000000000007
 10
59.43208179590181
 20
28.2123988472115
 30
0.0000000000000007
 10
58.94261096051741
 20
27.76862397684069
 30
0.0000000000000007
 10
58.65602957132285
 20
27.43927844099341
 30
0.0000000000000007
 10
58.60954919301031
 20
27.38378806225788
 30
0.0000000000000007
 10
58.18040087286937
 20
26.87145137429387
 30
0.0000000000000007
 10
57.67669136132025
 20
25.99989944854794
 30
0.0000000000000007
 10
57.29130225033822
 20
25.06981752839306
 30
0.0000000000000007
 10
57.17458671038838
 20
24.75710794714641
 30
0.0000000000000007
 10
57.04795981604411
 20
24.41784341507708
 30
0.0000000000000007
 10
56.7152472571818
 20
23.41020891654282
 30
0.0000000000000007
 10
56.19566449766992
 20
21.23682934677327
 30
0.0000000000000007
 10
55.71820070187826
 20
18.8687362438803
 30
0.0000000000000007
 10
55.57344003130891
 20
16.94526304084866
 30
0.0000000000000007
 10
55.62053359815718
 20
15.92923176172981
 30
0.0000000000000007
 10
55.7382671936528
 20
15.29972044716799
 30
0.0000000000000007
 10
55.89843863371277
 20
14.93877973393599
 30
0.0000000000000007
 10
55.95963193982055
 20
14.82369186661968
 30
0.0000000000000007
  0
LINE
  5
BB
330
1F
100
AcDbEntity
  8
Layer 01
100
AcDbLine
 10
60.9046319329982
 20
9.942999999999696
 30
0.0000000000000007
 11
55.95963192112171
 21
9.942999999999696
 31
0.0000000000000007
  0
LINE
  5
BC
330
1F
100
AcDbEntity
  8
Layer 01
100
AcDbLine
 10
55.9596319699055
 20
14.82369182338557
 30
0.0000000000000007
 11
55.95963192112166
 21
9.942999999999678
 31
0.0000000000000007
  0
LINE
  5
BD
330
1F
100
AcDbEntity
  8
Layer 01
100
AcDbLine
 10
60.86388224588325
 20
9.942999999999696
 30
0.0000000000000007
 11
64.76833271005859
 21
27.55483789627949
 31
0.0000000000000007
  0
LINE
  5
BE
330
1F
100
AcDbEntity
  8
Layer 01
100
AcDbLine
 10
56.03133146810131
 20
9.942999999999696
 30
0.0000000000000007
 11
60.16216818406377
 21
28.5760000109024
 31
0.0000000000000007
  0
SPLINE
  5
BF
330
1F
100
AcDbEntity
  8
Layer 01
100
AcDbSpline
210
0.0
220
0.0
230
1.0
 70
     8
 71
     2
 72
     8
 73
     5
 74
     0
 42
0.000000001
 43
0.0000000001
 40
0.0
 40
0.0
 40
0.0
 40
1.0
 40
2.0
 40
3.0
 40
3.0
 40
3.0
 10
29.43799999621979
 20
28.57599999613219
 30
0.0000000000000005
 10
29.03608132856115
 20
28.58767966947297
 30
0.0000000000000005
 10
28.30715622061919
 20
28.23573670112798
 30
0.0000000000000005
 10
27.99483961119037
 20
27.50012290609545
 30
0.0000000000000005
 10
28.0
 20
27.11155598736747
 30
0.0000000000000005
  0
POLYLINE
  5
C0
330
1F
100
AcDbEntity
  8
Layer 01
100
AcDb2dPolyline
 66
     1
 10
0.0
 20
0.0
 30
0.0000000000000007
  0
VERTEX
  5
C1
330
C0
100
AcDbEntity
  8
Layer 01
100
AcDbVertex
100
AcDb2dVertex
 10
60.16216814888188
 20
28.57602792576799
 30
0.0000000000000007
  0
VERTEX
  5
C2
330
C0
100
AcDbEntity
  8
Layer 01
100
AcDbVertex
100
AcDb2dVertex
 10
29.43799999621979
 20
28.57599999613219
 30
0.0000000000000007
  0
SEQEND
  5
C3
330
C0
100
AcDbEntity
  8
Layer 01
  0
SPLINE
  5
C4
330
1F
100
AcDbEntity
  8
Layer 01
100
AcDbSpline
210
0.0
220
0.0
230
1.0
 70
    12
 71
     2
 72
     6
 73
     3
 74
     0
 42
0.000000001
 43
0.0000000001
 40
2.936580973137862
 40
2.936580973137862
 40
2.936580973137862
 40
25.05307104046907
 40
25.05307104046907
 40
25.05307104046907
 10
60.80282098959074
 20
28.69677515739896
 30
0.0000000000000007
 41
0.9997752227929934
 10
45.07669045953099
 20
29.09156757911292
 30
0.0000000000000007
 41
0.9990411707719065
 10
29.43799999621979
 20
28.57599999634252
 30
0.0000000000000005
 41
1.0
  0
POLYLINE
  5
C5
330
1F
100
AcDbEntity
  8
Layer 01
100
AcDb2dPolyline
 66
     1
 10
0.0
 20
0.0
 30
0.0000000000000005
  0
VERTEX
  5
C6
330
C5
100
AcDbEntity
  8
Layer 01
100
AcDbVertex
100
AcDb2dVertex
 10
28.0
 20
27.11155598736747
 30
0.0000000000000005
  0
VERTEX
  5
C7
330
C5
100
AcDbEntity
  8
Layer 01
100
AcDbVertex
100
AcDb2dVertex
 10
28.0
 20
15.12999999999933
 30
0.0000000000000005
  0
SEQEND
  5
C8
330
C5
100
AcDbEntity
  8
Layer 01
  0
POLYLINE
  5
C9
330
1F
100
AcDbEntity
  8
Layer 01
100
AcDb2dPolyline
 66
     1
 10
0.0
 20
0.0
 30
0.0
 70
     1
  0
VERTEX
  5
CA
330
C9
100
AcDbEntity
  8
Layer 01
100
AcDbVertex
100
AcDb2dVertex
 10
109.7116235226383
 20
8.170999999999989
 30
0.0
  0
VERTEX
  5
CB
330
C9
100
AcDbEntity
  8
Layer 01
100
AcDbVertex
100
AcDb2dVertex
 10
109.7116235226383
 20
9.942999999999998
 30
0.0
  0
VERTEX
  5
CC
330
C9
100
AcDbEntity
  8
Layer 01
100
AcDbVertex
100
AcDb2dVertex
 10
89.4614492513534
 20
9.942999999999998
 30
0.0
  0
VERTEX
  5
CD
330
C9
100
AcDbEntity
  8
Layer 01
100
AcDbVertex
100
AcDb2dVertex
 10
89.4614492513534
 20
8.170999999999989
 30
0.0
  0
SEQEND
  5
CE
330
C9
100
AcDbEntity
  8
Layer 01
  0
SPLINE
  5
CF
330
1F
100
AcDbEntity
  8
Layer 01
100
AcDbSpline
210
0.0
220
0.0
230
1.0
 70
    11
 71
     3
 72
    89
 73
    85
 74
     0
 42
0.000000001
 43
0.0000000001
 40
6.727426052424903
 40
6.727426052424903
 40
6.727426052424903
 40
6.727426052424903
 40
26.53383341026247
 40
26.53383341026247
 40
26.53383341026247
 40
27.53383341026247
 40
27.53383341026247
 40
28.53383341026247
 40
28.53383341026247
 40
29.53383341026247
 40
29.53383341026247
 40
30.53383341026247
 40
30.53383341026247
 40
30.53383341026247
 40
31.83945947510851
 40
31.83945947510851
 40
31.83945947510851
 40
33.26125947530844
 40
33.26125947530844
 40
33.26125947530844
 40
41.254261578407
 40
41.254261578407
 40
41.254261578407
 40
42.25426157840701
 40
42.25426157840701
 40
42.25426157840701
 40
43.14839517858449
 40
43.14839517858449
 40
43.14839517858449
 40
44.14839517858449
 40
44.14839517858449
 40
44.14839517858449
 40
48.42470412721028
 40
48.42470412721028
 40
48.42470412721028
 40
49.42470412721028
 40
49.42470412721028
 40
50.42470412721028
 40
50.42470412721028
 40
51.42470412721028
 40
51.42470412721028
 40
52.42470412721028
 40
52.42470412721028
 40
52.42470412721028
 40
72.39633026185453
 40
72.39633026185453
 40
72.39633026185453
 40
73.39633026185453
 40
73.39633026185453
 40
74.39633026185453
 40
74.39633026185453
 40
75.39633026185453
 40
75.39633026185453
 40
76.39633026185453
 40
76.39633026185453
 40
76.39633026185453
 40
80.67263921048033
 40
80.67263921048033
 40
80.67263921048033
 40
81.67263921048033
 40
81.67263921048033
 40
81.67263921048033
 40
82.56677281065852
 40
82.56677281065852
 40
82.56677281065852
 40
83.56677281065852
 40
83.56677281065852
 40
83.56677281065852
 40
91.5597749137571
 40
91.5597749137571
 40
91.5597749137571
 40
92.98157491395703
 40
92.98157491395703
 40
92.98157491395703
 40
94.287200966182
 40
94.287200966182
 40
94.287200966182
 40
95.287200966182
 40
95.287200966182
 40
96.287200966182
 40
96.287200966182
 40
97.287200966182
 40
97.287200966182
 40
98.287200966182
 40
98.287200966182
 40
98.287200966182
 40
98.287200966182
 10
89.68324557244352
 20
6.240375753730881
 30
0.0
 10
96.28538135838635
 20
6.240375753730857
 30
0.0
 10
102.8875171443291
 20
6.240375753730834
 30
0.0
 10
109.4896529302719
 20
6.240375753730812
 30
0.0
 10
109.572510145154
 20
6.240544357926219
 30
0.0
 10
109.6522051160701
 20
6.25647977078462
 30
0.0
 10
109.8052705699707
 20
6.319884213827407
 30
0.0
 10
109.8728291278734
 20
6.365027446567676
 30
0.0
 10
109.9899979055834
 20
6.482195934485965
 30
0.0
 10
110.0351412558083
 20
6.549754405074883
 30
0.0
 10
110.0985458789978
 20
6.702819799512269
 30
0.0
 10
110.1144812551772
 20
6.782514769505909
 30
0.0
 10
110.1146496959412
 20
6.865372012274494
 30
0.0
 10
110.1146495476767
 20
7.300580791282339
 30
0.0
 10
110.1146493994123
 20
7.735789570290184
 30
0.0
 10
110.1146492511479
 20
8.170998349298031
 30
0.0
 10
110.5885825845479
 20
8.170999600564876
 30
0.0
 10
111.0625159179478
 20
8.171000851831721
 30
0.0
 10
111.5364492513478
 20
8.171002103098566
 30
0.0
 10
111.5364492513501
 20
5.506668068732377
 30
0.0
 10
111.5364492513524
 20
2.842334034366189
 30
0.0
 10
111.5364492513547
 20
0.1780000000000003
 30
0.0
 10
111.5364492513548
 20
0.1270452526618923
 30
0.0
 10
111.5094039987023
 20
0.1000000000000013
 30
0.0
 10
111.4584492513666
 20
0.1000000000000012
 30
0.0
 10
111.160404717971
 20
0.1000000000000011
 30
0.0
 10
110.8623601845755
 20
0.1000000000000009
 30
0.0
 10
110.5643156511799
 20
0.1000000000000008
 30
0.0
 10
110.5168014335801
 20
0.1000000000000008
 30
0.0
 10
110.4897258978174
 20
0.1252935434886253
 30
0.0
 10
110.4864960696641
 20
0.1726978558242519
 30
0.0
 10
110.3896012134517
 20
1.594827396327941
 30
0.0
 10
110.2927045199721
 20
3.0169839231354
 30
0.0
 10
110.1958095233204
 20
4.439115507282927
 30
0.0
 10
110.1902820047802
 20
4.518105753708777
 30
0.0
 10
110.1705249574942
 20
4.593352072022225
 30
0.0
 10
110.1025518054303
 20
4.736356852424314
 30
0.0
 10
110.0566286147706
 20
4.79913380983632
 30
0.0
 10
109.9409090041961
 20
4.907236859082257
 30
0.0
 10
109.8751554518096
 20
4.948786311333877
 30
0.0
 10
109.7278608528381
 20
5.006881071094415
 30
0.0
 10
109.6514455749553
 20
5.021477564438443
 30
0.0
 10
109.5722623186755
 20
5.02162317124623
 30
0.0
 10
102.9150536071274
 20
5.02162317124623
 30
0.0
 10
96.25784489557934
 20
5.02162317124623
 30
0.0
 10
89.60063618403126
 20
5.021623171246231
 30
0.0
 10
89.5214529377724
 20
5.021477566278671
 30
0.0
 10
89.44503766203047
 20
5.006881073417036
 30
0.0
 10
89.29774305158048
 20
4.948786311905616
 30
0.0
 10
89.23198949668169
 20
4.907236858838694
 30
0.0
 10
89.11626988753652
 20
4.799133808082424
 30
0.0
 10
89.07034669787068
 20
4.736356853131482
 30
0.0
 10
89.00237354835251
 20
4.593352084083984
 30
0.0
 10
88.98261650044661
 20
4.518105763679487
 30
0.0
 10
88.97708897939394
 20
4.439115507394246
 30
0.0
 10
88.88019398273973
 20
3.01698392320961
 30
0.0
 10
88.78329728925763
 20
1.594827396365045
 30
0.0
 10
88.68640243304274
 20
0.1726978558242464
 30
0.0
 10
88.68317260488942
 20
0.1252935434887248
 30
0.0
 10
88.65609706912699
 20
0.1000000000000008
 30
0.0
 10
88.6085828515274
 20
0.1000000000000008
 30
0.0
 10
88.3105383181347
 20
0.1000000000000008
 30
0.0
 10
88.012493784742
 20
0.1000000000000008
 30
0.0
 10
87.71444925134932
 20
0.1000000000000008
 30
0.0
 10
87.6634945040127
 20
0.1000000000000008
 30
0.0
 10
87.63644925135897
 20
0.1270452526613977
 30
0.0
 10
87.63644925135897
 20
0.1779999999999919
 30
0.0
 10
87.63644925135897
 20
2.842334034366183
 30
0.0
 10
87.63644925135897
 20
5.506668068732374
 30
0.0
 10
87.63644925135897
 20
8.171002103098566
 30
0.0
 10
88.11038258475894
 20
8.171000851831723
 30
0.0
 10
88.58431591815891
 20
8.170999600564882
 30
0.0
 10
89.05824925155889
 20
8.170998349298038
 30
0.0
 10
89.05824910329444
 20
7.735789573970955
 30
0.0
 10
89.05824895503001
 20
7.30058079864387
 30
0.0
 10
89.05824880676556
 20
6.865372023316786
 30
0.0
 10
89.05841724442111
 20
6.78251478898742
 30
0.0
 10
89.07435261921164
 20
6.702819819915604
 30
0.0
 10
89.13775724306264
 20
6.549754412287068
 30
0.0
 10
89.18290059386129
 20
6.482195938171575
 30
0.0
 10
89.30006937320495
 20
6.365027449338146
 30
0.0
 10
89.36762792915697
 20
6.319884216419518
 30
0.0
 10
89.52069337362131
 20
6.256479773578434
 30
0.0
 10
89.6003883473061
 20
6.240544359822402
 30
0.0
 10
89.68324557244352
 20
6.240375753730881
 30
0.0
  0
SPLINE
  5
D0
330
1F
100
AcDbEntity
  8
Layer 01
100
AcDbSpline
210
0.0
220
0.0
230
1.0
 70
    15
 71
     2
 72
    16
 73
    13
 74
     0
 42
0.000000001
 43
0.0000000001
 40
7.69772726370307
 40
7.69772726370307
 40
7.69772726370307
 40
9.21972726370308
 40
9.21972726370308
 40
9.416076804552441
 40
9.416076804552441
 40
11.30544043640396
 40
11.30544043640396
 40
13.07744043640397
 40
13.07744043640397
 40
14.96680406825549
 40
14.96680406825549
 40
15.16315360910485
 40
15.16315360910485
 40
15.16315360910485
 10
111.7259871544898
 20
8.296000000000001
 30
0.0
 41
1.0
 10
111.7259871544898
 20
9.057000000000006
 30
0.0
 41
1.0
 10
111.7259871544898
 20
9.818000000000012
 30
0.0
 41
1.0
 10
111.7259871544898
 20
9.943000000000012
 30
0.0
 41
0.7071067811865476
 10
111.6009871544898
 20
9.943000000000012
 30
0.0
 41
1.0
 10
110.6563053385641
 20
9.943000000000012
 30
0.0
 41
1.0
 10
109.7116235226383
 20
9.943000000000012
 30
0.0
 41
1.0
 10
109.7116235226383
 20
9.057000000000006
 30
0.0
 41
1.0
 10
109.7116235226383
 20
8.171000000000001
 30
0.0
 41
1.0
 10
110.6563053385641
 20
8.171000000000001
 30
0.0
 41
1.0
 10
111.6009871544898
 20
8.171000000000001
 30
0.0
 41
1.0
 10
111.7259871544898
 20
8.171000000000001
 30
0.0
 41
0.7071067811865476
 10
111.7259871544898
 20
8.296000000000001
 30
0.0
 41
1.0
  0
SPLINE
  5
D1
330
1F
100
AcDbEntity
  8
Layer 01
100
AcDbSpline
210
0.0
220
0.0
230
1.0
 70
    15
 71
     2
 72
    16
 73
    13
 74
     0
 42
0.000000001
 43
0.0000000001
 40
7.69772726370307
 40
7.69772726370307
 40
7.69772726370307
 40
9.21972726370308
 40
9.21972726370308
 40
9.416076804552441
 40
9.416076804552441
 40
11.30544043640396
 40
11.30544043640396
 40
13.07744043640397
 40
13.07744043640397
 40
14.96680406825549
 40
14.96680406825549
 40
15.16315360910485
 40
15.16315360910485
 40
15.16315360910485
 10
87.44691134822565
 20
8.296000000000001
 30
0.0
 41
1.0
 10
87.44691134822565
 20
9.057000000000006
 30
0.0
 41
1.0
 10
87.44691134822565
 20
9.818000000000012
 30
0.0
 41
1.0
 10
87.44691134822564
 20
9.943000000000012
 30
0.0
 41
0.7071067811865476
 10
87.57191134822565
 20
9.943000000000012
 30
0.0
 41
1.0
 10
88.51659316415142
 20
9.943000000000012
 30
0.0
 41
1.0
 10
89.46127498007718
 20
9.943000000000012
 30
0.0
 41
1.0
 10
89.46127498007718
 20
9.057000000000006
 30
0.0
 41
1.0
 10
89.46127498007718
 20
8.171000000000001
 30
0.0
 41
1.0
 10
88.51659316415142
 20
8.171000000000001
 30
0.0
 41
1.0
 10
87.57191134822565
 20
8.171000000000001
 30
0.0
 41
1.0
 10
87.44691134822564
 20
8.171000000000001
 30
0.0
 41
0.7071067811865476
 10
87.44691134822565
 20
8.296000000000001
 30
0.0
 41
1.0
  0
SPLINE
  5
D2
330
1F
100
AcDbEntity
  8
Layer 01
100
AcDbSpline
210
0.0
220
0.0
230
1.0
 70
    12
 71
     2
 72
    10
 73
     7
 74
     0
 42
0.000000001
 43
0.0000000001
 40
0.0000064887565516
 40
0.0000064887565516
 40
0.0000064887565516
 40
1.570796326794897
 40
1.570796326794897
 40
3.141592653589793
 40
3.141592653589793
 40
3.141597746554138
 40
3.141597746554138
 40
3.141597746554138
 10
111.5364492513412
 20
8.170999999999998
 30
0.0
 41
0.9999975802019533
 10
111.5364460487874
 20
7.811002103088856
 30
0.0
 41
0.7071079910905688
 10
110.8255502017108
 20
7.811000226199553
 30
0.0
 41
1.0
 10
110.1146502016108
 20
7.810998349299286
 30
0.0
 41
0.7071067811865475
 10
110.1146492511479
 20
8.170998349298031
 30
0.0
 41
1.0
 10
110.1146492511457
 20
8.170999174649015
 30
0.0
 41
0.9999990503576468
 10
110.114649251151
 20
8.171000000000001
 30
0.0
 41
0.9999981007214516
  0
SPLINE
  5
D3
330
1F
100
AcDbEntity
  8
Layer 01
100
AcDbSpline
210
0.0
220
0.0
230
1.0
 70
    12
 71
     2
 72
    10
 73
     7
 74
     0
 42
0.000000001
 43
0.0000000001
 40
0.0000064887565516
 40
0.0000064887565516
 40
0.0000064887565516
 40
1.570796326794897
 40
1.570796326794897
 40
3.141592653589793
 40
3.141592653589793
 40
3.141597746554138
 40
3.141597746554138
 40
3.141597746554138
 10
87.63662352265047
 20
8.170999999999998
 30
0.0
 41
0.9999975802019533
 10
87.63662672520428
 20
7.811002103088856
 30
0.0
 41
0.7071079910905688
 10
88.34752257228092
 20
7.811000226199553
 30
0.0
 41
1.0
 10
89.05842257238089
 20
7.810998349299286
 30
0.0
 41
0.7071067811865475
 10
89.05842352284382
 20
8.170998349298031
 30
0.0
 41
1.0
 10
89.058423522846
 20
8.170999174649015
 30
0.0
 41
0.9999990503576468
 10
89.05842352284071
 20
8.171000000000001
 30
0.0
 41
0.9999981007214516
  0
SPLINE
  5
D4
330
1F
100
AcDbEntity
  8
Layer 01
100
AcDbSpline
210
0.0
220
0.0
230
1.0
 70
    15
 71
     2
 72
    20
 73
    17
 74
     0
 42
0.000000001
 43
0.0000000001
 40
0.9678548837145905
 40
0.9678548837145905
 40
0.9678548837145905
 40
0.9798997598065563
 40
0.9798997598065563
 40
1.048224645498407
 40
1.048224645498407
 40
1.07929150618392
 40
1.07929150618392
 40
1.87318417556541
 40
1.87318417556541
 40
1.904251036250935
 40
1.904251036250935
 40
1.972575921942521
 40
1.972575921942521
 40
1.984621115031509
 40
1.984621115031509
 40
2.820152744843107
 40
2.820152744843107
 40
2.820152744843107
 10
88.57928187889407
 20
0.1000000000000008
 30
0.0
 41
0.9976981326287162
 10
88.57975696145226
 20
0.093991633277411
 30
0.0
 41
0.9976893249578147
 10
88.5796517737064
 20
0.0879654313517871
 30
0.0
 41
1.0
 10
88.57905555686895
 20
0.0538081916115227
 30
0.0
 41
1.0
 10
88.57845934003151
 20
0.0196509518712583
 30
0.0
 41
1.0
 10
88.5781163313907
 20
-0.0000000000000106
 30
0.0
 41
0.7132504491539862
 10
88.55846238612837
 20
0.0000000000000019
 30
0.0
 41
1.0
 10
88.16151605143764
 20
0.0000000000000011
 30
0.0
 41
1.0
 10
87.76456971674693
 20
0.0000000000000002
 30
0.0
 41
1.0
 10
87.74491577148459
 20
-0.0000000000000325
 30
0.0
 41
0.7132504491539274
 10
87.74457276284375
 20
0.0196509518712628
 30
0.0
 41
1.0
 10
87.74397654600632
 20
0.0538081916115288
 30
0.0
 41
1.0
 10
87.7433803291689
 20
0.0879654313517948
 30
0.0
 41
1.0
 10
87.74327513868516
 20
0.0939916343525053
 30
0.0
 41
0.9976891428130761
 10
87.74375024908248
 20
0.1000000000000008
 30
0.0
 41
0.9976980122271819
 10
88.16151606398827
 20
0.1000000000000008
 30
0.0
 41
0.9976980122271819
 10
88.57928187889408
 20
0.1000000000000008
 30
0.0
 41
0.9976980122271819
  0
SPLINE
  5
D5
330
1F
100
AcDbEntity
  8
Layer 01
100
AcDbSpline
210
0.0
220
0.0
230
1.0
 70
    15
 71
     2
 72
    20
 73
    17
 74
     0
 42
0.000000001
 43
0.0000000001
 40
0.9678548837145905
 40
0.9678548837145905
 40
0.9678548837145905
 40
0.9798997598065563
 40
0.9798997598065563
 40
1.048224645498407
 40
1.048224645498407
 40
1.07929150618392
 40
1.07929150618392
 40
1.87318417556541
 40
1.87318417556541
 40
1.904251036250935
 40
1.904251036250935
 40
1.972575921942521
 40
1.972575921942521
 40
1.984621115031509
 40
1.984621115031509
 40
2.820152744843107
 40
2.820152744843107
 40
2.820152744843107
 10
110.5936166238127
 20
0.1000000000000008
 30
0.0
 41
0.9976981326287162
 10
110.5931415412545
 20
0.093991633277411
 30
0.0
 41
0.9976893249578147
 10
110.5932467290004
 20
0.0879654313517871
 30
0.0
 41
1.0
 10
110.5938429458378
 20
0.0538081916115227
 30
0.0
 41
1.0
 10
110.5944391626753
 20
0.0196509518712583
 30
0.0
 41
1.0
 10
110.5947821713161
 20
-0.0000000000000106
 30
0.0
 41
0.7132504491539862
 10
110.6144361165784
 20
0.0000000000000019
 30
0.0
 41
1.0
 10
111.0113824512691
 20
0.0000000000000011
 30
0.0
 41
1.0
 10
111.4083287859598
 20
0.0000000000000002
 30
0.0
 41
1.0
 10
111.4279827312222
 20
-0.0000000000000325
 30
0.0
 41
0.7132504491539274
 10
111.428325739863
 20
0.0196509518712628
 30
0.0
 41
1.0
 10
111.4289219567004
 20
0.0538081916115288
 30
0.0
 41
1.0
 10
111.4295181735379
 20
0.0879654313517948
 30
0.0
 41
1.0
 10
111.4296233640216
 20
0.0939916343525053
 30
0.0
 41
0.9976891428130761
 10
111.4291482536243
 20
0.1000000000000008
 30
0.0
 41
0.9976980122271819
 10
111.0113824387185
 20
0.1000000000000008
 30
0.0
 41
0.9976980122271819
 10
110.5936166238127
 20
0.1000000000000008
 30
0.0
 41
0.9976980122271819
  0
SPLINE
  5
D6
330
1F
100
AcDbEntity
  8
Layer 01
100
AcDbSpline
210
0.0
220
0.0
230
1.0
 70
     8
 71
     2
 72
    16
 73
    13
 74
     0
 42
0.000000001
 43
0.0000000001
 40
43.28310933211343
 40
43.28310933211343
 40
43.28310933211343
 40
43.55799997279415
 40
44.55799997279415
 40
45.55799997279415
 40
46.55799997279415
 40
47.55799997279415
 40
48.55799997279415
 40
49.55799997279415
 40
50.55799997279415
 40
51.55799997279415
 40
52.55799997279415
 40
53.55399108404765
 40
53.55399108404765
 40
53.55399108404765
 10
113.035421778705
 20
10.12013897730342
 30
-0.0000000033706121
 10
113.1066755133416
 20
10.14239023094919
 30
-0.000000003370612
 10
113.4348205094683
 20
10.26010874563699
 30
-0.0000000033706114
 10
113.7957565048215
 20
10.66575028862729
 30
-0.0000000033706132
 10
113.9384575378225
 20
11.19232210548462
 30
-0.0000000033706121
 10
114.0154628918592
 20
11.72426040066719
 30
-0.0000000033706123
 10
114.0526669226883
 20
12.26150279182536
 30
-0.0000000033706122
 10
114.0628146848647
 20
12.79964563940535
 30
-0.0000000033706122
 10
114.0501207544514
 20
13.33772221016295
 30
-0.0000000033706122
 10
114.0105355867458
 20
13.87482679702087
 30
-0.0000000033706122
 10
113.9242328065887
 20
14.40565780886786
 30
-0.0000000033706122
 10
113.7678551728297
 20
14.92565754150952
 30
-0.0000000033706126
 10
113.5864492513577
 20
15.12836908177636
 30
-0.0000000033706105
  0
SPLINE
  5
D7
330
1F
100
AcDbEntity
  8
Layer 01
100
AcDbSpline
210
0.0
220
0.0
230
1.0
 70
    12
 71
     3
 72
    58
 73
    54
 74
     0
 42
0.000000001
 43
0.0000000001
 40
-47.49284969131465
 40
-47.49284969131465
 40
-47.49284969131465
 40
-47.49284969131465
 40
-46.49291654019139
 40
-46.49291654019139
 40
-45.49288311575302
 40
-45.49288311575302
 40
-44.49284969131465
 40
-44.49284969131465
 40
-44.49284969131465
 40
-28.49429370394687
 40
-28.49429370394687
 40
-28.49429370394687
 40
-26.65646200159685
 40
-26.65646200159685
 40
-26.65646200159685
 40
0.0
 40
0.0
 40
0.0
 40
1.0
 40
1.0
 40
2.0
 40
2.0
 40
3.0
 40
3.0
 40
4.0
 40
4.0
 40
5.0
 40
5.0
 40
6.0
 40
6.0
 40
7.0
 40
7.0
 40
8.0
 40
8.0
 40
9.0
 40
9.0
 40
10.0
 40
10.0
 40
11.0
 40
11.0
 40
12.0
 40
12.0
 40
13.0
 40
13.0
 40
14.0
 40
14.0
 40
14.0
 40
14.73939135518747
 40
16.43730594180112
 40
17.5304929299556
 40
17.5304929299556
 40
17.5304929299556
 40
39.6469829972868
 40
39.6469829972868
 40
39.6469829972868
 40
39.6469829972868
 10
112.1485298555561
 20
28.57600233461221
 30
-0.0000000000000007
 41
1.0
 10
112.4164462634811
 20
28.5837754614165
 30
-0.0000000000000009
 41
1.0
 10
112.6718798038849
 20
28.52901074497926
 30
-0.0000000000000011
 41
1.0
 10
113.1578055127482
 20
28.29439386251881
 30
-0.0000000000000011
 41
1.0
 10
113.3313457989767
 20
28.11313440195589
 30
-0.0000000000000011
 41
1.0
 10
113.5395568719292
 20
27.62272520526754
 30
-0.0000000000000011
 41
1.0
 10
113.5898895105641
 20
27.37060059985279
 30
-0.0000000000000011
 41
1.0
 10
113.5864492513577
 20
27.11155598736747
 30
-0.0000000000000011
 41
1.0
 10
113.5864492513577
 20
21.77870399157821
 30
-0.0000000000000011
 41
1.0
 10
113.5864492513577
 20
16.44585199578895
 30
-0.0000000000000011
 41
1.0
 10
113.5864492513577
 20
11.11299999999969
 30
-0.0000000000000011
 41
1.0
 10
113.5864492513577
 20
10.42762986797621
 30
-0.0000000000000005
 41
0.8047378541243667
 10
113.1018193833812
 20
9.942999999999696
 30
-0.0000000000000001
 41
0.8047378541243667
 10
112.4164492513577
 20
9.942999999999696
 30
-0.0000000000000002
 41
1.0
 10
103.5309619174921
 20
9.942999999999696
 30
-0.0000000000000002
 41
1.0
 10
94.6454745836265
 20
9.942999999999696
 30
-0.0000000000000002
 41
1.0
 10
85.7599872497609
 20
9.942999999999696
 30
-0.0000000000000002
 41
1.0
 10
85.46697432854158
 20
10.26921493549422
 30
-0.0000000000000002
 41
1.0
 10
85.24050666387198
 20
10.63581511067357
 30
-0.0000000000000002
 41
1.0
 10
84.92066184763215
 20
11.44978594040194
 30
-0.0000000000000002
 41
1.0
 10
84.77322721435652
 20
11.85940673441593
 30
-0.0000000000000002
 41
1.0
 10
84.50333349749391
 20
12.68391908074354
 30
-0.0000000000000002
 41
1.0
 10
84.37711795217524
 20
13.09912475271143
 30
-0.0000000000000002
 41
1.0
 10
84.14214948776318
 20
13.9354350942554
 30
-0.0000000000000002
 41
1.0
 10
84.02894045532527
 20
14.3546718165021
 30
-0.0000000000000002
 41
1.0
 10
83.81107278998563
 20
15.19530836394495
 30
-0.0000000000000002
 41
1.0
 10
83.70626991103968
 20
15.61666564018982
 30
-0.0000000000000002
 41
1.0
 10
83.50492606059542
 20
16.46145819772644
 30
-0.0000000000000002
 41
1.0
 10
83.40739995949366
 20
16.8845728002038
 30
-0.0000000000000002
 41
1.0
 10
83.21863940553082
 20
17.73223865257662
 30
-0.0000000000000002
 41
1.0
 10
83.12451470323943
 20
18.15612696178144
 30
-0.0000000000000002
 41
1.0
 10
82.93677644803672
 20
19.00401434622792
 30
-0.0000000000000002
 41
1.0
 10
82.84271689715969
 20
19.42791550780456
 30
-0.0000000000000002
 41
1.0
 10
82.65421694885428
 20
20.27563276966461
 30
-0.0000000000000002
 41
1.0
 10
82.56082001352245
 20
20.69968366181313
 30
-0.0000000000000002
 41
1.0
 10
82.37573222050044
 20
21.54816996854719
 30
-0.0000000000000002
 41
1.0
 10
82.28770276508725
 20
21.97335522824709
 30
-0.0000000000000002
 41
1.0
 10
82.12067273645646
 20
22.82560996031263
 30
-0.0000000000000002
 41
1.0
 10
82.04498962458358
 20
23.25317288466289
 30
-0.0000000000000002
 41
1.0
 10
81.90928720572289
 20
24.1111698499984
 30
-0.0000000000000002
 41
1.0
 10
81.85095076055822
 20
24.54126313358679
 30
-0.0000000000000002
 41
1.0
 10
81.75330739876026
 20
25.40363930260485
 30
-0.0000000000000002
 41
1.0
 10
81.7230939650778
 20
25.83770748487354
 30
-0.0000000000000002
 41
1.0
 10
81.69988359214601
 20
26.71160404493024
 30
-0.0000000000000002
 41
1.0
 10
81.76148282314874
 20
27.13833142197626
 30
-0.0000000000000002
 41
1.0
 10
81.89628647162006
 20
27.55483789603997
 30
-0.0000000000000002
 41
1.0
 10
82.08312309598126
 20
27.72079740006005
 30
-0.0000000000000002
 41
1.0
 10
82.75059570263109
 20
28.17736894776612
 30
-0.0000000000000002
 41
1.0
 10
83.89452525955112
 20
28.50100718023387
 30
-0.0000000000000002
 41
1.0
 10
84.81742682593062
 20
28.68647456487066
 30
-0.0000000000000002
 41
1.0
 10
85.17952591714678
 20
28.69677515739896
 30
-0.0000000000000002
 41
1.0
 10
94.42941280016186
 20
28.95990565959028
 30
-0.0000000000000003
 41
0.9995105219624361
 10
103.4572407082808
 20
28.91960179430899
 30
-0.0000000000000003
 41
0.999585464543489
 10
112.247776514713
 20
28.57599999634252
 30
-0.0000000000000003
 41
1.000224827743159
  0
SPLINE
  5
D8
330
1F
100
AcDbEntity
  8
Layer 01
100
AcDbSpline
210
0.0
220
0.0
230
1.0
 70
    12
 71
     2
 72
    10
 73
     7
 74
     0
 42
0.000000001
 43
0.0000000001
 40
0.0
 40
0.0
 40
0.0
 40
6.65454730543804
 40
6.65454730543804
 40
8.61804271393185
 40
8.61804271393185
 40
39.05820549366956
 40
39.05820549366956
 40
39.05820549366956
 10
113.5864492513577
 20
19.65029059060175
 30
-0.0000000000000011
 41
1.0
 10
113.5864492513577
 20
22.97756424332076
 30
-0.0000000000000008
 41
1.0
 10
113.5864492513578
 20
26.30483789603979
 30
-0.0000000000000004
 41
1.0
 10
113.5864492513579
 20
27.55483789603997
 30
0.0
 41
0.7071067811864943
 10
112.3364492513578
 20
27.55483789603997
 30
-0.0000000000000001
 41
1.0
 10
97.11636786148891
 20
27.55483789603997
 30
-0.0000000000000002
 41
1.0
 10
81.89628647162006
 20
27.55483789603997
 30
-0.0000000000000002
 41
1.0
  0
SPLINE
  5
D9
330
1F
100
AcDbEntity
  8
Layer 01
370
    -3
100
AcDbSpline
210
0.0
220
0.0
230
1.0
 70
    11
 71
     3
 72
    65
 73
    61
 74
     0
 42
0.000000001
 43
0.0000000001
 40
79.9783659945508
 40
79.9783659945508
 40
79.9783659945508
 40
79.9783659945508
 40
96.92836599536903
 40
96.92836599536903
 40
96.92836599536903
 40
97.92836599536903
 40
97.92836599536903
 40
97.92836599536903
 40
105.3127318348029
 40
105.3127318348029
 40
105.3127318348029
 40
106.3127318348029
 40
106.3127318348029
 40
107.3127318348029
 40
107.3127318348029
 40
108.3127318348029
 40
108.3127318348029
 40
109.3127318348029
 40
109.3127318348029
 40
110.3127318348029
 40
110.3127318348029
 40
110.3127318348029
 40
134.9704542047492
 40
134.9704542047492
 40
134.9704542047492
 40
135.9704542047492
 40
135.9704542047492
 40
136.9704542047492
 40
136.9704542047492
 40
137.9704542047492
 40
137.9704542047492
 40
138.9704542047492
 40
138.9704542047492
 40
139.9704542047492
 40
139.9704542047492
 40
139.9704542047492
 40
169.4544543596885
 40
169.4544543596885
 40
169.4544543596885
 40
170.4544543596885
 40
170.4544543596885
 40
171.4544543596885
 40
171.4544543596885
 40
172.4544543596885
 40
172.4544543596885
 40
173.4544543596885
 40
173.4544543596885
 40
174.4544543596885
 40
174.4544543596885
 40
174.4544543596885
 40
181.8388201985
 40
181.8388201985
 40
181.8388201985
 40
182.8388201985
 40
182.8388201985
 40
182.8388201985
 40
204.9488201993
 40
204.9488201993
 40
204.9488201993
 40
205.9488201993
 40
205.9488201993
 40
205.9488201993
 40
205.9488201993
 10
55.99999652794216
 20
66.89013014058463
 30
0.0
 10
56.00000727226324
 20
61.62822821871959
 30
0.0
 10
56.00001801658431
 20
55.97822821844684
 30
0.0
 10
56.00002876090539
 20
50.3282282181741
 30
0.0
 10
56.0000609938686
 20
46.70736855065397
 30
0.0
 10
56.04258880881574
 20
45.57822821966661
 30
0.0
 10
57.46408680224306
 20
45.57822821898878
 30
0.0
 10
59.92554208205435
 20
45.5782282216357
 30
0.0
 10
62.38699736186562
 20
45.57822822428262
 30
0.0
 10
64.84845264167691
 20
45.57822822692954
 30
0.0
 10
64.9491799933244
 20
45.61466641552406
 30
0.0
 10
65.0153223518059
 20
45.68463128597605
 30
0.0
 10
65.07843708243695
 20
45.89161439059492
 30
0.0
 10
65.10199696914111
 20
45.99376480008866
 30
0.0
 10
65.13312178532678
 20
46.19538333344479
 30
0.0
 10
65.14470037375274
 20
46.2971325932174
 30
0.0
 10
65.15988991127092
 20
46.50251109895173
 30
0.0
 10
65.16526891830094
 20
46.60521673733789
 30
0.0
 10
65.17159540890276
 20
46.8106607851482
 30
0.0
 10
65.17315537489158
 20
46.91342393781222
 30
0.0
 10
65.17311206156828
 20
47.0162282192351
 30
0.0
 10
65.17140213311143
 20
55.23546883135071
 30
0.0
 10
65.16969220465458
 20
63.45470944346632
 30
0.0
 10
65.16798227619773
 20
71.67395005558194
 30
0.0
 10
65.15428123569558
 20
72.29346849277078
 30
0.0
 10
65.07147245614118
 20
72.90489806916108
 30
0.0
 10
64.76763941892793
 20
74.11157950034445
 30
0.0
 10
64.51327906338321
 20
74.67044926474256
 30
0.0
 10
63.79967067841761
 20
75.69924689115155
 30
0.0
 10
63.35158699242362
 20
76.1149683978438
 30
0.0
 10
62.27286063341327
 20
76.7490567982037
 30
0.0
 10
61.69854635159803
 20
76.96855740988022
 30
0.0
 10
60.48001558334741
 20
77.2124714562263
 30
0.0
 10
59.86572575274097
 20
77.2712763090428
 30
0.0
 10
59.24641147565342
 20
77.26692899150277
 30
0.0
 10
49.41841142400699
 20
77.26692898214961
 30
0.0
 10
39.59041137236056
 20
77.26692897279645
 30
0.0
 10
29.76241132071414
 20
77.26692896344329
 30
0.0
 10
29.65960703998056
 20
77.2669722760545
 30
0.0
 10
29.55684388725506
 20
77.26541230967922
 30
0.0
 10
29.35139983782017
 20
77.25908581895573
 30
0.0
 10
29.24869419614077
 20
77.25370681142991
 30
0.0
 10
29.043315678858
 20
77.2385172720501
 30
0.0
 10
28.94156642000401
 20
77.22693868356615
 30
0.0
 10
28.73994790187079
 20
77.19581386901012
 30
0.0
 10
28.63779749477561
 20
77.17225398190104
 30
0.0
 10
28.43081438452809
 20
77.10913924802074
 30
0.0
 10
28.3608495147077
 20
77.04299688927156
 30
0.0
 10
28.32441133019066
 20
76.94226953871339
 30
0.0
 10
28.32441132723788
 20
74.48081425910956
 30
0.0
 10
28.3244113242851
 20
72.01935897950574
 30
0.0
 10
28.32441132133232
 20
69.55790369990194
 30
0.0
 10
28.32441132150485
 20
68.18163526841704
 30
0.0
 10
29.67650250835804
 20
68.09387789152547
 30
0.0
 10
33.07441132051791
 20
68.09387789152547
 30
0.0
 10
40.4444113207846
 20
68.093867147211
 30
0.0
 10
47.8144113210513
 20
68.09385640289653
 30
0.0
 10
54.79631324291029
 20
68.09384565858207
 30
0.0
 10
55.41388447013117
 20
68.0938447082136
 30
0.0
 10
55.9999952121221
 20
67.534537174208
 30
0.0
 10
55.99999652794216
 20
66.89013014058463
 30
0.0
  0
LINE
  5
DA
330
1F
100
AcDbEntity
  8
Layer 01
100
AcDbLine
 10
60.22194753617697
 20
72.3157644338319
 30
0.0
 11
55.63480787212865
 21
67.72862476978509
 31
0.0
  0
SPLINE
  5
DB
330
1F
100
AcDbEntity
  8
Layer 01
370
    -3
100
AcDbSpline
210
0.0
220
0.0
230
1.0
 70
     8
 71
     2
 72
    26
 73
    23
 74
     0
 42
0.000000001
 43
0.0000000001
 40
-5.0
 40
-5.0
 40
-5.0
 40
-4.0
 40
-3.0
 40
-2.0
 40
-1.0
 40
0.0
 40
0.0
 40
29.48400204651853
 40
29.48400204651853
 40
30.48400204651853
 40
31.48400204651853
 40
32.48400204651853
 40
33.48400204651853
 40
34.48400204651853
 40
34.48400204651853
 40
58.80800399407179
 40
58.80800399407179
 40
59.80800399407179
 40
60.80800399407179
 40
61.80800399407179
 40
62.80800399407179
 40
63.80800399407179
 40
63.80800399407179
 40
63.80800399407179
 10
28.32441132517422
 20
72.33610501614427
 30
0.0
 10
28.37906850426131
 20
72.48719611461061
 30
0.0
 10
28.689543190805
 20
72.58186827629945
 30
0.0
 10
28.99197098683595
 20
72.62855551918784
 30
0.0
 10
29.30003878803298
 20
72.65133980621562
 30
0.0
 10
29.60820488931576
 20
72.66082940993002
 30
0.0
 10
29.76241132139398
 20
72.66076443519356
 30
0.0
 10
44.50441234375478
 20
72.6609271945053
 30
0.0
 10
59.24641336611558
 20
72.66108995381705
 30
0.0
 10
59.4597450352172
 20
72.66249010244957
 30
0.0
 10
59.87651759315381
 20
72.56517722962732
 30
0.0
 10
60.23789007429028
 20
72.33148814646125
 30
0.0
 10
60.47302767458794
 20
71.97071019652307
 30
0.0
 10
60.56878776038468
 20
71.55351813321107
 30
0.0
 10
60.567268019099
 20
71.34023016450837
 30
0.0
 10
60.56710777923456
 20
59.17822919178736
 30
0.0
 10
60.56694753937012
 20
47.01622821906635
 30
0.0
 10
60.56701251476426
 20
46.86202178592654
 30
0.0
 10
60.55752291096229
 20
46.55385568704082
 30
0.0
 10
60.53473862637
 20
46.2457879030995
 30
0.0
 10
60.48805138061405
 20
45.94336008445503
 30
0.0
 10
60.39337922283715
 20
45.63288540634118
 30
0.0
 10
60.24228812220682
 20
45.57822822214527
 30
0.0
  0
SPLINE
  5
DC
330
1F
100
AcDbEntity
  8
Layer 01
100
AcDbSpline
210
0.0
220
0.0
230
1.0
 70
    11
 71
     2
 72
    36
 73
    33
 74
     0
 42
0.000000001
 43
0.0000000001
 40
0.0
 40
0.0
 40
0.0
 40
1.0
 40
2.0
 40
3.0
 40
4.0
 40
5.0
 40
5.0
 40
24.99600052964069
 40
24.99600052964069
 40
25.99600052964069
 40
26.99600052964069
 40
27.99600052964069
 40
28.99600052964069
 40
29.99600052964069
 40
29.99600052964069
 40
48.49600052978854
 40
48.49600052978854
 40
49.49600052978854
 40
50.49600052978854
 40
51.49600052978854
 40
52.49600052978854
 40
53.49600052978854
 40
53.49600052978854
 40
73.49200134657971
 40
73.49200134657971
 40
74.49200134657971
 40
75.49200134657971
 40
76.49200134657971
 40
77.49200134657971
 40
78.49200134657971
 40
78.49200134657971
 40
98.40253967969674
 40
98.40253967969674
 40
98.40253967969674
 10
51.95526916652642
 20
68.09386537318355
 30
0.0
 10
52.44799711959955
 20
68.09356032693896
 30
0.0
 10
53.43478901624614
 20
68.09139332338444
 30
0.0
 10
54.41490313978125
 20
68.10554906219255
 30
0.0
 10
55.43374400673794
 20
68.02406227257433
 30
0.0
 10
56.02932423827947
 20
67.1832072554937
 30
0.0
 10
56.00001963603133
 20
66.67146195091226
 30
0.0
 10
56.00001963602737
 20
56.67346168609193
 30
0.0
 10
56.00001963602342
 20
46.67546142127159
 30
0.0
 10
56.04206226281798
 20
46.06661930089477
 30
0.0
 10
55.3417348297543
 20
45.09411891005345
 30
0.0
 10
54.15107180507855
 20
44.90209281128971
 30
0.0
 10
52.99672731287894
 20
44.81599073494699
 30
0.0
 10
51.83190544021814
 20
44.7781435632884
 30
0.0
 10
51.250000000097
 20
44.77846161102933
 30
0.0
 10
42.0
 20
44.77846161102933
 30
0.0
 10
32.749999999903
 20
44.77846161102933
 30
0.0
 10
32.16809457015025
 20
44.77814356385299
 30
0.0
 10
31.00327271741502
 20
44.81599073066558
 30
0.0
 10
29.84892824589984
 20
44.90209281054063
 30
0.0
 10
28.65826507123248
 20
45.09411889144645
 30
0.0
 10
27.95793878230729
 20
46.06661915840385
 30
0.0
 10
27.99997791609805
 20
46.67546126989722
 30
0.0
 10
27.99997791604326
 20
56.67346167829281
 30
0.0
 10
27.99997791598847
 20
66.6714620866884
 30
0.0
 10
27.97067678720642
 20
67.18320727081539
 30
0.0
 10
28.56625585097632
 20
68.02406229209694
 30
0.0
 10
29.58509693261315
 20
68.10554905871163
 30
0.0
 10
30.5652109798656
 20
68.09139332398664
 30
0.0
 10
31.55200293436556
 20
68.09356032691497
 30
0.0
 10
32.04473083340939
 20
68.09386537318355
 30
0.0
 10
41.9999999999679
 20
68.09386537318355
 30
0.0
 10
51.95526916652642
 20
68.09386537318355
 30
0.0
  0
ENDSEC
  0
SECTION
  2
OBJECTS
  0
DICTIONARY
  5
C
330
0
100
AcDbDictionary
281
     1
  3
ACAD_DETAILVIEWSTYLE
350
118
  3
ACAD_GROUP
350
D
  3
ACAD_LAYOUT
350
1A
  3
ACAD_MATERIAL
350
43
  3
ACAD_MLEADERSTYLE
350
6B
  3
ACAD_MLINESTYLE
350
17
  3
ACAD_PLOTSETTINGS
350
19
  3
ACAD_PLOTSTYLENAME
350
E
  3
ACAD_SCALELIST
350
47
  3
ACAD_SECTIONVIEWSTYLE
350
119
  3
ACAD_TABLESTYLE
350
69
  3
ACAD_VISUALSTYLE
350
2A
  3
ACDB_RECOMPOSE_DATA
350
115
  3
AcDbVariableDictionary
350
DD
  0
SUN
  5
6D
330
29
100
AcDbSun
 90
        1
290
     0
 63
     7
421
 16777215
 40
1.0
291
     1
 91
  2455826
 92
 54000000
292
     0
 70
     2
 71
   256
280
     1
  0
DICTIONARY
  5
118
102
{ACAD_REACTORS
330
C
102
}
330
C
100
AcDbDictionary
281
     1
  0
DICTIONARY
  5
D
102
{ACAD_REACTORS
330
C
102
}
330
C
100
AcDbDictionary
281
     1
  0
DICTIONARY
  5
1A
102
{ACAD_REACTORS
330
C
102
}
330
C
100
AcDbDictionary
281
     1
  3
Layout1
350
1E
  3
Layout2
350
26
  3
Model
350
22
  0
DICTIONARY
  5
43
102
{ACAD_REACTORS
330
C
102
}
330
C
100
AcDbDictionary
281
     1
  3
ByBlock
350
45
  3
ByLayer
350
44
  3
Global
350
46
  0
DICTIONARY
  5
6B
102
{ACAD_REACTORS
330
C
102
}
330
C
100
AcDbDictionary
281
     1
  3
Standard
350
6C
  0
DICTIONARY
  5
17
102
{ACAD_REACTORS
330
C
102
}
330
C
100
AcDbDictionary
281
     1
  3
Standard
350
18
  0
DICTIONARY
  5
19
102
{ACAD_REACTORS
330
C
102
}
330
C
100
AcDbDictionary
281
     1
  0
ACDBDICTIONARYWDFLT
  5
E
102
{ACAD_REACTORS
330
C
102
}
330
C
100
AcDbDictionary
281
     1
  3
Normal
350
F
100
AcDbDictionaryWithDefault
340
F
  0
DICTIONARY
  5
47
102
{ACAD_REACTORS
330
C
102
}
330
C
100
AcDbDictionary
281
     1
  3
A0
350
48
  3
A1
350
49
  3
A2
350
4A
  3
A3
350
4B
  3
A4
350
4C
  3
A5
350
4D
  3
A6
350
4E
  3
A7
350
4F
  3
A8
350
50
  3
A9
350
51
  3
B0
350
52
  3
B1
350
53
  3
B2
350
54
  3
B3
350
55
  3
B4
350
56
  3
B5
350
57
  3
B6
350
58
  3
B7
350
59
  3
B8
350
5A
  3
B9
350
5B
  3
C0
350
5C
  3
C1
350
5D
  3
C2
350
5E
  3
C3
350
5F
  3
C4
350
60
  3
C5
350
61
  3
C6
350
62
  3
C7
350
63
  3
C8
350
64
  3
C9
350
65
  3
D0
350
66
  3
D1
350
67
  3
D2
350
68
  0
DICTIONARY
  5
119
102
{ACAD_REACTORS
330
C
102
}
330
C
100
AcDbDictionary
281
     1
  0
DICTIONARY
  5
69
102
{ACAD_REACTORS
330
C
102
}
330
C
100
AcDbDictionary
281
     1
  3
Standard
350
6A
  0
DICTIONARY
  5
2A
102
{ACAD_REACTORS
330
C
102
}
330
C
100
AcDbDictionary
281
     1
  3
2dWireframe
350
2F
  3
Basic
350
32
  3
Brighten
350
36
  3
ColorChange
350
3A
  3
Conceptual
350
34
  3
Dim
350
35
  3
EdgeColorOff
350
3D
  3
Facepattern
350
39
  3
Flat
350
2B
  3
FlatWithEdges
350
2C
  3
Gouraud
350
2D
  3
GouraudWithEdges
350
2E
  3
Hidden
350
31
  3
JitterOff
350
3B
  3
Linepattern
350
38
  3
OverhangOff
350
3C
  3
Realistic
350
33
  3
Shaded
350
42
  3
Shaded with edges
350
41
  3
Shades of Gray
350
3E
  3
Sketchy
350
3F
  3
Thicken
350
37
  3
Wireframe
350
30
  3
X-Ray
350
40
  0
XRECORD
  5
115
102
{ACAD_REACTORS
330
C
102
}
330
C
100
AcDbXrecord
280
     1
 90
        1
330
6A
  0
DICTIONARY
  5
DD
102
{ACAD_REACTORS
330
C
102
}
330
C
100
AcDbDictionary
281
     1
  3
CANNOSCALE
350
DE
  3
CMLEADERSTYLE
350
117
  3
CTABLESTYLE
350
116
  3
XCLIPFRAME
350
DF
  0
LAYOUT
  5
1E
102
{ACAD_REACTORS
330
1A
102
}
330
1A
100
AcDbPlotSettings
  1

  2
none_device
  4

  6

 40
0.0
 41
0.0
 42
0.0
 43
0.0
 44
0.0
 45
0.0
 46
0.0
 47
0.0
 48
0.0
 49
0.0
140
0.0
141
0.0
142
1.0
143
1.0
 70
   688
 72
     0
 73
     0
 74
     5
  7

 75
    16
 76
     0
 77
     2
 78
   300
147
1.0
148
0.0
149
0.0
100
AcDbLayout
  1
Layout1
 70
     1
 71
     1
 10
0.0
 20
0.0
 11
12.0
 21
9.0
 12
0.0
 22
0.0
 32
0.0
 14
1.000000000000000E+20
 24
1.000000000000000E+20
 34
1.000000000000000E+20
 15
-1.000000000000000E+20
 25
-1.000000000000000E+20
 35
-1.000000000000000E+20
146
0.0
 13
0.0
 23
0.0
 33
0.0
 16
1.0
 26
0.0
 36
0.0
 17
0.0
 27
1.0
 37
0.0
 76
     0
330
1B
  0
LAYOUT
  5
26
102
{ACAD_REACTORS
330
1A
102
}
330
1A
100
AcDbPlotSettings
  1

  2
none_device
  4

  6

 40
0.0
 41
0.0
 42
0.0
 43
0.0
 44
0.0
 45
0.0
 46
0.0
 47
0.0
 48
0.0
 49
0.0
140
0.0
141
0.0
142
1.0
143
1.0
 70
   688
 72
     0
 73
     0
 74
     5
  7

 75
    16
 76
     0
 77
     2
 78
   300
147
1.0
148
0.0
149
0.0
100
AcDbLayout
  1
Layout2
 70
     1
 71
     2
 10
0.0
 20
0.0
 11
0.0
 21
0.0
 12
0.0
 22
0.0
 32
0.0
 14
0.0
 24
0.0
 34
0.0
 15
0.0
 25
0.0
 35
0.0
146
0.0
 13
0.0
 23
0.0
 33
0.0
 16
1.0
 26
0.0
 36
0.0
 17
0.0
 27
1.0
 37
0.0
 76
     0
330
23
  0
LAYOUT
  5
22
102
{ACAD_REACTORS
330
1A
102
}
330
1A
100
AcDbPlotSettings
  1

  2
none_device
  4
Letter_(8.50_x_11.00_Inches)
  6

 40
6.35
 41
6.35
 42
6.35000508
 43
6.35000508
 44
215.9
 45
279.4
 46
0.0
 47
0.0
 48
0.0
 49
0.0
140
0.0
141
0.0
142
1.0
143
1.0
 70
  1712
 72
     0
 73
     0
 74
     0
  7

 75
     0
 76
     0
 77
     2
 78
   300
147
1.0
148
0.0
149
0.0
100
AcDbLayout
  1
Model
 70
     1
 71
     0
 10
0.0
 20
0.0
 11
12.0
 21
9.0
 12
0.0
 22
0.0
 32
0.0
 14
1.000000000000000E+20
 24
1.000000000000000E+20
 34
1.000000000000000E+20
 15
-1.000000000000000E+20
 25
-1.000000000000000E+20
 35
-1.000000000000000E+20
146
0.0
 13
0.0
 23
0.0
 33
0.0
 16
1.0
 26
0.0
 36
0.0
 17
0.0
 27
1.0
 37
0.0
 76
     0
330
1F
331
29
  0
MATERIAL
  5
45
102
{ACAD_REACTORS
330
43
102
}
330
43
100
AcDbMaterial
  1
ByBlock
 72
     1
 94
      127
  0
MATERIAL
  5
44
102
{ACAD_REACTORS
330
43
102
}
330
43
100
AcDbMaterial
  1
ByLayer
 72
     1
 94
      127
  0
MATERIAL
  5
46
102
{ACAD_REACTORS
330
43
102
}
330
43
100
AcDbMaterial
  1
Global
 72
     1
 94
      127
  0
MLEADERSTYLE
  5
6C
102
{ACAD_REACTORS
330
6B
102
}
102
{ACAD_XDICTIONARY
360
113
102
}
330
6B
100
AcDbMLeaderStyle
170
     2
171
     1
172
     0
 90
        2
 40
0.0
 41
0.0
173
     1
 91
-1056964608
340
14
 92
       -2
290
     1
 42
0.09
291
     1
 43
0.36
  3
Standard
341
0
 44
0.18
300

342
11
174
     1
178
     6
175
     1
176
     0
 93
-1056964608
 45
0.18
292
     0
297
     0
 46
0.18
343
0
 94
-1056964608
 47
1.0
 49
1.0
140
1.0
293
     1
141
0.0
294
     1
177
     0
142
1.0
295
     0
296
     0
143
0.125
1001
ACAD_MLEADERVER
1070
     2
  0
MLINESTYLE
  5
18
102
{ACAD_REACTORS
330
17
102
}
330
17
100
AcDbMlineStyle
  2
Standard
 70
     0
  3

 62
   256
 51
90.0
 52
90.0
 71
     2
 49
0.5
 62
   256
  6
BYLAYER
 49
-0.5
 62
   256
  6
BYLAYER
  0
ACDBPLACEHOLDER
  5
F
102
{ACAD_REACTORS
330
E
102
}
330
E
  0
SCALE
  5
48
102
{ACAD_REACTORS
330
47
102
}
330
47
100
AcDbScale
 70
     0
300
1:1
140
1.0
141
1.0
290
     1
  0
SCALE
  5
49
102
{ACAD_REACTORS
330
47
102
}
330
47
100
AcDbScale
 70
     0
300
1:2
140
1.0
141
2.0
290
     0
  0
SCALE
  5
4A
102
{ACAD_REACTORS
330
47
102
}
330
47
100
AcDbScale
 70
     0
300
1:4
140
1.0
141
4.0
290
     0
  0
SCALE
  5
4B
102
{ACAD_REACTORS
330
47
102
}
330
47
100
AcDbScale
 70
     0
300
1:5
140
1.0
141
5.0
290
     0
  0
SCALE
  5
4C
102
{ACAD_REACTORS
330
47
102
}
330
47
100
AcDbScale
 70
     0
300
1:8
140
1.0
141
8.0
290
     0
  0
SCALE
  5
4D
102
{ACAD_REACTORS
330
47
102
}
330
47
100
AcDbScale
 70
     0
300
1:10
140
1.0
141
10.0
290
     0
  0
SCALE
  5
4E
102
{ACAD_REACTORS
330
47
102
}
330
47
100
AcDbScale
 70
     0
300
1:16
140
1.0
141
16.0
290
     0
  0
SCALE
  5
4F
102
{ACAD_REACTORS
330
47
102
}
330
47
100
AcDbScale
 70
     0
300
1:20
140
1.0
141
20.0
290
     0
  0
SCALE
  5
50
102
{ACAD_REACTORS
330
47
102
}
330
47
100
AcDbScale
 70
     0
300
1:30
140
1.0
141
30.0
290
     0
  0
SCALE
  5
51
102
{ACAD_REACTORS
330
47
102
}
330
47
100
AcDbScale
 70
     0
300
1:40
140
1.0
141
40.0
290
     0
  0
SCALE
  5
52
102
{ACAD_REACTORS
330
47
102
}
330
47
100
AcDbScale
 70
     0
300
1:50
140
1.0
141
50.0
290
     0
  0
SCALE
  5
53
102
{ACAD_REACTORS
330
47
102
}
330
47
100
AcDbScale
 70
     0
300
1:100
140
1.0
141
100.0
290
     0
  0
SCALE
  5
54
102
{ACAD_REACTORS
330
47
102
}
330
47
100
AcDbScale
 70
     0
300
2:1
140
2.0
141
1.0
290
     0
  0
SCALE
  5
55
102
{ACAD_REACTORS
330
47
102
}
330
47
100
AcDbScale
 70
     0
300
4:1
140
4.0
141
1.0
290
     0
  0
SCALE
  5
56
102
{ACAD_REACTORS
330
47
102
}
330
47
100
AcDbScale
 70
     0
300
8:1
140
8.0
141
1.0
290
     0
  0
SCALE
  5
57
102
{ACAD_REACTORS
330
47
102
}
330
47
100
AcDbScale
 70
     0
300
10:1
140
10.0
141
1.0
290
     0
  0
SCALE
  5
58
102
{ACAD_REACTORS
330
47
102
}
330
47
100
AcDbScale
 70
     0
300
100:1
140
100.0
141
1.0
290
     0
  0
SCALE
  5
59
102
{ACAD_REACTORS
330
47
102
}
330
47
100
AcDbScale
 70
     0
300
1/128" = 1'-0"
140
0.0078125
141
12.0
290
     0
  0
SCALE
  5
5A
102
{ACAD_REACTORS
330
47
102
}
330
47
100
AcDbScale
 70
     0
300
1/64" = 1'-0"
140
0.015625
141
12.0
290
     0
  0
SCALE
  5
5B
102
{ACAD_REACTORS
330
47
102
}
330
47
100
AcDbScale
 70
     0
300
1/32" = 1'-0"
140
0.03125
141
12.0
290
     0
  0
SCALE
  5
5C
102
{ACAD_REACTORS
330
47
102
}
330
47
100
AcDbScale
 70
     0
300
1/16" = 1'-0"
140
0.0625
141
12.0
290
     0
  0
SCALE
  5
5D
102
{ACAD_REACTORS
330
47
102
}
330
47
100
AcDbScale
 70
     0
300
3/32" = 1'-0"
140
0.09375
141
12.0
290
     0
  0
SCALE
  5
5E
102
{ACAD_REACTORS
330
47
102
}
330
47
100
AcDbScale
 70
     0
300
1/8" = 1'-0"
140
0.125
141
12.0
290
     0
  0
SCALE
  5
5F
102
{ACAD_REACTORS
330
47
102
}
330
47
100
AcDbScale
 70
     0
300
3/16" = 1'-0"
140
0.1875
141
12.0
290
     0
  0
SCALE
  5
60
102
{ACAD_REACTORS
330
47
102
}
330
47
100
AcDbScale
 70
     0
300
1/4" = 1'-0"
140
0.25
141
12.0
290
     0
  0
SCALE
  5
61
102
{ACAD_REACTORS
330
47
102
}
330
47
100
AcDbScale
 70
     0
300
3/8" = 1'-0"
140
0.375
141
12.0
290
     0
  0
SCALE
  5
62
102
{ACAD_REACTORS
330
47
102
}
330
47
100
AcDbScale
 70
     0
300
1/2" = 1'-0"
140
0.5
141
12.0
290
     0
  0
SCALE
  5
63
102
{ACAD_REACTORS
330
47
102
}
330
47
100
AcDbScale
 70
     0
300
3/4" = 1'-0"
140
0.75
141
12.0
290
     0
  0
SCALE
  5
64
102
{ACAD_REACTORS
330
47
102
}
330
47
100
AcDbScale
 70
     0
300
1" = 1'-0"
140
1.0
141
12.0
290
     0
  0
SCALE
  5
65
102
{ACAD_REACTORS
330
47
102
}
330
47
100
AcDbScale
 70
     0
300
1-1/2" = 1'-0"
140
1.5
141
12.0
290
     0
  0
SCALE
  5
66
102
{ACAD_REACTORS
330
47
102
}
330
47
100
AcDbScale
 70
     0
300
3" = 1'-0"
140
3.0
141
12.0
290
     0
  0
SCALE
  5
67
102
{ACAD_REACTORS
330
47
102
}
330
47
100
AcDbScale
 70
     0
300
6" = 1'-0"
140
6.0
141
12.0
290
     0
  0
SCALE
  5
68
102
{ACAD_REACTORS
330
47
102
}
330
47
100
AcDbScale
 70
     0
300
1'-0" = 1'-0"
140
12.0
141
12.0
290
     0
  0
TABLESTYLE
  5
6A
102
{ACAD_REACTORS
330
69
102
}
102
{ACAD_XDICTIONARY
360
110
102
}
330
69
100
AcDbTableStyle
  3
Standard
 70
     0
 71
     0
 40
0.06
 41
0.06
280
     0
281
     0
  7
Standard
140
0.18
170
     2
 62
     0
 63
   257
283
     0
 90
        4
 91
        0
  1

274
    -2
284
     1
 64
     0
275
    -2
285
     1
 65
     0
276
    -2
286
     1
 66
     0
277
    -2
287
     1
 67
     0
278
    -2
288
     1
 68
     0
279
    -2
289
     1
 69
     0
  7
Standard
140
0.25
170
     5
 62
     0
 63
   257
283
     0
 90
        4
 91
        0
  1

274
    -2
284
     1
 64
     0
275
    -2
285
     1
 65
     0
276
    -2
286
     1
 66
     0
277
    -2
287
     1
 67
     0
278
    -2
288
     1
 68
     0
279
    -2
289
     1
 69
     0
  7
Standard
140
0.18
170
     5
 62
     0
 63
   257
283
     0
 90
        4
 91
        0
  1

274
    -2
284
     1
 64
     0
275
    -2
285
     1
 65
     0
276
    -2
286
     1
 66
     0
277
    -2
287
     1
 67
     0
278
    -2
288
     1
 68
     0
279
    -2
289
     1
 69
     0
  0
VISUALSTYLE
  5
2F
102
{ACAD_REACTORS
330
2A
102
}
102
{ACAD_XDICTIONARY
360
E8
102
}
330
2A
100
AcDbVisualStyle
  2
2dWireframe
 70
     4
 71
     0
 72
     2
 73
     0
 90
        0
 40
0.6
 41
30.0
 62
     5
 63
     7
421
 16777215
 74
     1
 91
        4
 64
     7
 65
   257
 75
     1
175
     1
 42
1.0
 92
        0
 66
   257
 43
1.0
 76
     1
 77
     6
 78
     2
 67
     7
 79
     5
170
     0
171
     0
290
     0
174
     0
 93
        1
 44
0.0
173
     0
291
     0
 45
0.0
  0
VISUALSTYLE
  5
32
102
{ACAD_REACTORS
330
2A
102
}
102
{ACAD_XDICTIONARY
360
EE
102
}
330
2A
100
AcDbVisualStyle
  2
Basic
 70
     7
 71
     1
 72
     0
 73
     1
 90
        0
 40
0.6
 41
30.0
 62
     5
 63
     7
421
 16777215
 74
     0
 91
        4
 64
     7
 65
   257
 75
     1
175
     1
 42
1.0
 92
        8
 66
     7
 43
1.0
 76
     1
 77
     6
 78
     2
 67
     7
 79
     5
170
     0
171
     0
290
     0
174
     0
 93
        1
 44
0.0
173
     0
291
     1
 45
0.0
  0
VISUALSTYLE
  5
36
102
{ACAD_REACTORS
330
2A
102
}
102
{ACAD_XDICTIONARY
360
F6
102
}
330
2A
100
AcDbVisualStyle
  2
Brighten
 70
    12
 71
     2
 72
     2
 73
     0
 90
        0
 40
0.6
 41
30.0
 62
     5
 63
     7
421
 16777215
 74
     1
 91
        4
 64
     7
 65
   257
 75
     1
175
     1
 42
1.0
 92
        8
 66
     7
 43
1.0
 76
     1
 77
     6
 78
     2
 67
     7
 79
     5
170
     0
171
     0
290
     0
174
     0
 93
        1
 44
50.0
173
     0
291
     1
 45
0.0
  0
VISUALSTYLE
  5
3A
102
{ACAD_REACTORS
330
2A
102
}
102
{ACAD_XDICTIONARY
360
FE
102
}
330
2A
100
AcDbVisualStyle
  2
ColorChange
 70
    16
 71
     2
 72
     2
 73
     3
 90
        0
 40
0.6
 41
30.0
 62
     5
 63
     8
421
  8421504
 74
     1
 91
        4
 64
     7
 65
   257
 75
     1
175
     1
 42
1.0
 92
        8
 66
     8
424
  8421504
 43
1.0
 76
     1
 77
     6
 78
     2
 67
     7
 79
     5
170
     0
171
     0
290
     0
174
     0
 93
        1
 44
0.0
173
     0
291
     1
 45
0.0
  0
VISUALSTYLE
  5
34
102
{ACAD_REACTORS
330
2A
102
}
102
{ACAD_XDICTIONARY
360
F2
102
}
330
2A
100
AcDbVisualStyle
  2
Conceptual
 70
     9
 71
     3
 72
     2
 73
     0
 90
        0
 40
0.6
 41
30.0
 62
     5
 63
     7
421
 16777215
 74
     2
 91
        2
 64
     7
 65
   257
 75
     1
175
     1
 42
179.0
 92
        8
 66
     7
 43
1.0
 76
     1
 77
     6
 78
     2
 67
     7
 79
     3
170
     0
171
     0
290
     0
174
     0
 93
        1
 44
0.0
173
     0
291
     0
 45
0.0
  0
VISUALSTYLE
  5
35
102
{ACAD_REACTORS
330
2A
102
}
102
{ACAD_XDICTIONARY
360
F4
102
}
330
2A
100
AcDbVisualStyle
  2
Dim
 70
    11
 71
     2
 72
     2
 73
     0
 90
        0
 40
0.6
 41
30.0
 62
     5
 63
     7
421
 16777215
 74
     1
 91
        4
 64
     7
 65
   257
 75
     1
175
     1
 42
1.0
 92
        8
 66
     7
 43
1.0
 76
     1
 77
     6
 78
     2
 67
     7
 79
     5
170
     0
171
     0
290
     0
174
     0
 93
        1
 44
-50.0
173
     0
291
     1
 45
0.0
  0
VISUALSTYLE
  5
3D
102
{ACAD_REACTORS
330
2A
102
}
102
{ACAD_XDICTIONARY
360
104
102
}
330
2A
100
AcDbVisualStyle
  2
EdgeColorOff
 70
    22
 71
     2
 72
     2
 73
     0
 90
        0
 40
0.6
 41
30.0
 62
     5
 63
     7
421
 16777215
 74
     1
 91
        4
 64
     7
 65
   257
 75
     1
175
     1
 42
1.0
 92
        8
 66
     7
 43
1.0
 76
     1
 77
     6
 78
     2
 67
     7
 79
     5
170
     0
171
     0
290
     0
174
     0
 93
        1
 44
0.0
173
     0
291
     1
 45
0.0
  0
VISUALSTYLE
  5
39
102
{ACAD_REACTORS
330
2A
102
}
102
{ACAD_XDICTIONARY
360
FC
102
}
330
2A
100
AcDbVisualStyle
  2
Facepattern
 70
    15
 71
     2
 72
     2
 73
     0
 90
        0
 40
0.6
 41
30.0
 62
     5
 63
     7
421
 16777215
 74
     1
 91
        4
 64
     7
 65
   257
 75
     1
175
     1
 42
1.0
 92
        8
 66
     7
 43
1.0
 76
     1
 77
     6
 78
     2
 67
     7
 79
     5
170
     0
171
     0
290
     0
174
     0
 93
        1
 44
0.0
173
     0
291
     1
 45
0.0
  0
VISUALSTYLE
  5
2B
102
{ACAD_REACTORS
330
2A
102
}
102
{ACAD_XDICTIONARY
360
E0
102
}
330
2A
100
AcDbVisualStyle
  2
Flat
 70
     0
 71
     2
 72
     1
 73
     1
 90
        2
 40
0.6
 41
30.0
 62
     5
 63
     7
421
 16777215
 74
     0
 91
        0
 64
     7
 65
   257
 75
     1
175
     1
 42
1.0
 92
        8
 66
     7
 43
1.0
 76
     1
 77
     6
 78
     2
 67
     7
 79
     5
170
     0
171
     0
290
     0
174
     0
 93
       13
 44
0.0
173
     0
291
     1
 45
0.0
  0
VISUALSTYLE
  5
2C
102
{ACAD_REACTORS
330
2A
102
}
102
{ACAD_XDICTIONARY
360
E2
102
}
330
2A
100
AcDbVisualStyle
  2
FlatWithEdges
 70
     1
 71
     2
 72
     1
 73
     1
 90
        2
 40
0.6
 41
30.0
 62
     5
 63
     7
421
 16777215
 74
     1
 91
        0
 64
     7
 65
   257
 75
     1
175
     1
 42
1.0
 92
        0
 66
   257
 43
1.0
 76
     1
 77
     6
 78
     2
 67
     7
 79
     5
170
     0
171
     0
290
     0
174
     0
 93
       13
 44
0.0
173
     0
291
     1
 45
0.0
  0
VISUALSTYLE
  5
2D
102
{ACAD_REACTORS
330
2A
102
}
102
{ACAD_XDICTIONARY
360
E4
102
}
330
2A
100
AcDbVisualStyle
  2
Gouraud
 70
     2
 71
     2
 72
     2
 73
     1
 90
        2
 40
0.6
 41
30.0
 62
     5
 63
     7
421
 16777215
 74
     0
 91
        0
 64
     7
 65
   257
 75
     1
175
     1
 42
1.0
 92
        0
 66
     7
 43
1.0
 76
     1
 77
     6
 78
     2
 67
     7
 79
     5
170
     0
171
     0
290
     0
174
     0
 93
       13
 44
0.0
173
     0
291
     1
 45
0.0
  0
VISUALSTYLE
  5
2E
102
{ACAD_REACTORS
330
2A
102
}
102
{ACAD_XDICTIONARY
360
E6
102
}
330
2A
100
AcDbVisualStyle
  2
GouraudWithEdges
 70
     3
 71
     2
 72
     2
 73
     1
 90
        2
 40
0.6
 41
30.0
 62
     5
 63
     7
421
 16777215
 74
     1
 91
        0
 64
     7
 65
   257
 75
     1
175
     1
 42
1.0
 92
        0
 66
   257
 43
1.0
 76
     1
 77
     6
 78
     2
 67
     7
 79
     5
170
     0
171
     0
290
     0
174
     0
 93
       13
 44
0.0
173
     0
291
     1
 45
0.0
  0
VISUALSTYLE
  5
31
102
{ACAD_REACTORS
330
2A
102
}
102
{ACAD_XDICTIONARY
360
EC
102
}
330
2A
100
AcDbVisualStyle
  2
Hidden
 70
     6
 71
     1
 72
     2
 73
     2
 90
        0
 40
0.6
 41
30.0
 62
     5
 63
     7
421
 16777215
 74
     2
 91
        2
 64
     7
 65
   257
 75
     2
175
     1
 42
40.0
 92
        0
 66
   257
 43
1.0
 76
     1
 77
     6
 78
     2
 67
     7
 79
     3
170
     0
171
     0
290
     0
174
     0
 93
        1
 44
0.0
173
     0
291
     0
 45
0.0
  0
VISUALSTYLE
  5
3B
102
{ACAD_REACTORS
330
2A
102
}
102
{ACAD_XDICTIONARY
360
100
102
}
330
2A
100
AcDbVisualStyle
  2
JitterOff
 70
    20
 71
     2
 72
     2
 73
     0
 90
        0
 40
0.6
 41
30.0
 62
     5
 63
     7
421
 16777215
 74
     1
 91
        4
 64
     7
 65
   257
 75
     1
175
     1
 42
1.0
 92
       10
 66
     7
 43
1.0
 76
     1
 77
     6
 78
     2
 67
     7
 79
     5
170
     0
171
     0
290
     0
174
     0
 93
        1
 44
0.0
173
     0
291
     1
 45
0.0
  0
VISUALSTYLE
  5
38
102
{ACAD_REACTORS
330
2A
102
}
102
{ACAD_XDICTIONARY
360
FA
102
}
330
2A
100
AcDbVisualStyle
  2
Linepattern
 70
    14
 71
     2
 72
     2
 73
     0
 90
        0
 40
0.6
 41
30.0
 62
     5
 63
     7
421
 16777215
 74
     1
 91
        4
 64
     7
 65
   257
 75
     7
175
     7
 42
1.0
 92
        8
 66
     7
 43
1.0
 76
     1
 77
     6
 78
     2
 67
     7
 79
     5
170
     0
171
     0
290
     0
174
     0
 93
        1
 44
0.0
173
     0
291
     1
 45
0.0
  0
VISUALSTYLE
  5
3C
102
{ACAD_REACTORS
330
2A
102
}
102
{ACAD_XDICTIONARY
360
102
102
}
330
2A
100
AcDbVisualStyle
  2
OverhangOff
 70
    21
 71
     2
 72
     2
 73
     0
 90
        0
 40
0.6
 41
30.0
 62
     5
 63
     7
421
 16777215
 74
     1
 91
        4
 64
     7
 65
   257
 75
     1
175
     1
 42
1.0
 92
        9
 66
     7
 43
1.0
 76
     1
 77
     6
 78
     2
 67
     7
 79
     5
170
     0
171
     0
290
     0
174
     0
 93
        1
 44
0.0
173
     0
291
     1
 45
0.0
  0
VISUALSTYLE
  5
33
102
{ACAD_REACTORS
330
2A
102
}
102
{ACAD_XDICTIONARY
360
F0
102
}
330
2A
100
AcDbVisualStyle
  2
Realistic
 70
     8
 71
     2
 72
     3
 73
     0
 90
        2
 40
0.6
 41
30.0
 62
     5
 63
     7
421
 16777215
 74
     0
 91
        0
 64
     7
 65
   257
 75
     1
175
     1
 42
1.0
 92
        8
 66
   257
 43
1.0
 76
     1
 77
     6
 78
     2
 67
     7
 79
     3
170
     0
171
     0
290
     0
174
     0
 93
       13
 44
0.0
173
     0
291
     0
 45
0.0
  0
VISUALSTYLE
  5
42
102
{ACAD_REACTORS
330
2A
102
}
102
{ACAD_XDICTIONARY
360
10E
102
}
330
2A
100
AcDbVisualStyle
  2
Shaded
 70
    27
 71
     2
 72
     2
 73
     1
 90
        2
 40
0.6
 41
30.0
 62
     5
 63
     7
421
 16777215
 74
     0
 91
        4
 64
     7
 65
   257
 75
     1
175
     1
 42
1.0
 92
        8
 66
   257
 43
1.0
 76
     1
 77
     6
 78
     2
 67
     8
425
  7895160
 79
     3
170
     0
171
     0
290
     0
174
     0
 93
        5
 44
0.0
173
     0
291
     0
 45
0.0
  0
VISUALSTYLE
  5
41
102
{ACAD_REACTORS
330
2A
102
}
102
{ACAD_XDICTIONARY
360
10C
102
}
330
2A
100
AcDbVisualStyle
  2
Shaded with edges
 70
    26
 71
     2
 72
     2
 73
     1
 90
        2
 40
0.6
 41
30.0
 62
     5
 63
     7
421
 16777215
 74
     1
 91
       10
 64
     7
 65
   257
 75
     2
175
     1
 42
1.0
 92
        8
 66
   257
 43
1.0
 76
     1
 77
     6
 78
     2
 67
     7
 79
     3
170
     0
171
     0
290
     0
174
     0
 93
        5
 44
0.0
173
     0
291
     0
 45
0.0
  0
VISUALSTYLE
  5
3E
102
{ACAD_REACTORS
330
2A
102
}
102
{ACAD_XDICTIONARY
360
106
102
}
330
2A
100
AcDbVisualStyle
  2
Shades of Gray
 70
    23
 71
     2
 72
     2
 73
     3
 90
        0
 40
0.6
 41
30.0
 62
     5
 63
     7
421
 16777215
 74
     2
 91
        2
 64
     7
 65
     7
 75
     1
175
     1
 42
40.0
 92
        8
 66
     7
 43
1.0
 76
     1
 77
     6
 78
     2
 67
     7
 79
     3
170
     0
171
     0
290
     0
174
     0
 93
        1
 44
0.0
173
     0
291
     0
 45
0.0
  0
VISUALSTYLE
  5
3F
102
{ACAD_REACTORS
330
2A
102
}
102
{ACAD_XDICTIONARY
360
108
102
}
330
2A
100
AcDbVisualStyle
  2
Sketchy
 70
    24
 71
     1
 72
     2
 73
     2
 90
        0
 40
0.6
 41
30.0
 62
     5
 63
     7
421
 16777215
 74
     2
 91
        2
 64
     7
 65
     7
 75
     1
175
     1
 42
40.0
 92
       11
 66
     7
 43
1.0
 76
     1
 77
     6
 78
     2
 67
     7
 79
     6
170
     0
171
     0
290
     0
174
     0
 93
        1
 44
0.0
173
     0
291
     0
 45
0.0
  0
VISUALSTYLE
  5
37
102
{ACAD_REACTORS
330
2A
102
}
102
{ACAD_XDICTIONARY
360
F8
102
}
330
2A
100
AcDbVisualStyle
  2
Thicken
 70
    13
 71
     2
 72
     2
 73
     0
 90
        0
 40
0.6
 41
30.0
 62
     5
 63
     7
421
 16777215
 74
     1
 91
        4
 64
     7
 65
   257
 75
     1
175
     1
 42
1.0
 92
       12
 66
     7
 43
1.0
 76
     1
 77
     6
 78
     2
 67
     7
 79
     5
170
     0
171
     0
290
     0
174
     0
 93
        1
 44
0.0
173
     0
291
     1
 45
0.0
  0
VISUALSTYLE
  5
30
102
{ACAD_REACTORS
330
2A
102
}
102
{ACAD_XDICTIONARY
360
EA
102
}
330
2A
100
AcDbVisualStyle
  2
Wireframe
 70
     5
 71
     0
 72
     2
 73
     0
 90
        0
 40
0.6
 41
30.0
 62
     5
 63
     7
421
 16777215
 74
     1
 91
        4
 64
     7
 65
   257
 75
     1
175
     1
 42
1.0
 92
        0
 66
   257
 43
1.0
 76
     1
 77
     6
 78
     2
 67
     7
 79
     3
170
     0
171
     0
290
     0
174
     0
 93
        1
 44
0.0
173
     0
291
     0
 45
0.0
  0
VISUALSTYLE
  5
40
102
{ACAD_REACTORS
330
2A
102
}
102
{ACAD_XDICTIONARY
360
10A
102
}
330
2A
100
AcDbVisualStyle
  2
X-Ray
 70
    25
 71
     2
 72
     2
 73
     1
 90
        1
 40
0.5
 41
30.0
 62
     5
 63
     7
421
 16777215
 74
     1
 91
        0
 64
     7
 65
   257
 75
     1
175
     1
 42
1.0
 92
        8
 66
     7
 43
1.0
 76
     1
 77
     6
 78
     2
 67
     7
 79
     3
170
     0
171
     0
290
     0
174
     0
 93
       13
 44
0.0
173
     0
291
     0
 45
0.0
  0
DICTIONARYVAR
  5
DE
102
{ACAD_REACTORS
330
DD
102
}
330
DD
100
DictionaryVariables
280
     0
  1
1:1
  0
DICTIONARYVAR
  5
117
102
{ACAD_REACTORS
330
DD
102
}
330
DD
100
DictionaryVariables
280
     0
  1
Standard
  0
DICTIONARYVAR
  5
116
102
{ACAD_REACTORS
330
DD
102
}
330
DD
100
DictionaryVariables
280
     0
  1
Standard
  0
DICTIONARYVAR
  5
DF
102
{ACAD_REACTORS
330
DD
102
}
330
DD
100
DictionaryVariables
280
     0
  1
2
  0
DICTIONARY
  5
113
330
6C
100
AcDbDictionary
280
     1
281
     1
  3
ACAD_XREC_ROUNDTRIP
360
114
  0
DICTIONARY
  5
110
330
6A
100
AcDbDictionary
280
     1
281
     1
  3
ACAD_ROUNDTRIP_2008_TABLESTYLE_CELLSTYLEMAP
360
111
  0
DICTIONARY
  5
E8
330
2F
100
AcDbDictionary
280
     1
281
     1
  3
ACAD_XREC_ROUNDTRIP
360
E9
  0
DICTIONARY
  5
EE
330
32
100
AcDbDictionary
280
     1
281
     1
  3
ACAD_XREC_ROUNDTRIP
360
EF
  0
DICTIONARY
  5
F6
330
36
100
AcDbDictionary
280
     1
281
     1
  3
ACAD_XREC_ROUNDTRIP
360
F7
  0
DICTIONARY
  5
FE
330
3A
100
AcDbDictionary
280
     1
281
     1
  3
ACAD_XREC_ROUNDTRIP
360
FF
  0
DICTIONARY
  5
F2
330
34
100
AcDbDictionary
280
     1
281
     1
  3
ACAD_XREC_ROUNDTRIP
360
F3
  0
DICTIONARY
  5
F4
330
35
100
AcDbDictionary
280
     1
281
     1
  3
ACAD_XREC_ROUNDTRIP
360
F5
  0
DICTIONARY
  5
104
330
3D
100
AcDbDictionary
280
     1
281
     1
  3
ACAD_XREC_ROUNDTRIP
360
105
  0
DICTIONARY
  5
FC
330
39
100
AcDbDictionary
280
     1
281
     1
  3
ACAD_XREC_ROUNDTRIP
360
FD
  0
DICTIONARY
  5
E0
330
2B
100
AcDbDictionary
280
     1
281
     1
  3
ACAD_XREC_ROUNDTRIP
360
E1
  0
DICTIONARY
  5
E2
330
2C
100
AcDbDictionary
280
     1
281
     1
  3
ACAD_XREC_ROUNDTRIP
360
E3
  0
DICTIONARY
  5
E4
330
2D
100
AcDbDictionary
280
     1
281
     1
  3
ACAD_XREC_ROUNDTRIP
360
E5
  0
DICTIONARY
  5
E6
330
2E
100
AcDbDictionary
280
     1
281
     1
  3
ACAD_XREC_ROUNDTRIP
360
E7
  0
DICTIONARY
  5
EC
330
31
100
AcDbDictionary
280
     1
281
     1
  3
ACAD_XREC_ROUNDTRIP
360
ED
  0
DICTIONARY
  5
100
330
3B
100
AcDbDictionary
280
     1
281
     1
  3
ACAD_XREC_ROUNDTRIP
360
101
  0
DICTIONARY
  5
FA
330
38
100
AcDbDictionary
280
     1
281
     1
  3
ACAD_XREC_ROUNDTRIP
360
FB
  0
DICTIONARY
  5
102
330
3C
100
AcDbDictionary
280
     1
281
     1
  3
ACAD_XREC_ROUNDTRIP
360
103
  0
DICTIONARY
  5
F0
330
33
100
AcDbDictionary
280
     1
281
     1
  3
ACAD_XREC_ROUNDTRIP
360
F1
  0
DICTIONARY
  5
10E
330
42
100
AcDbDictionary
280
     1
281
     1
  3
ACAD_XREC_ROUNDTRIP
360
10F
  0
DICTIONARY
  5
10C
330
41
100
AcDbDictionary
280
     1
281
     1
  3
ACAD_XREC_ROUNDTRIP
360
10D
  0
DICTIONARY
  5
106
330
3E
100
AcDbDictionary
280
     1
281
     1
  3
ACAD_XREC_ROUNDTRIP
360
107
  0
DICTIONARY
  5
108
330
3F
100
AcDbDictionary
280
     1
281
     1
  3
ACAD_XREC_ROUNDTRIP
360
109
  0
DICTIONARY
  5
F8
330
37
100
AcDbDictionary
280
     1
281
     1
  3
ACAD_XREC_ROUNDTRIP
360
F9
  0
DICTIONARY
  5
EA
330
30
100
AcDbDictionary
280
     1
281
     1
  3
ACAD_XREC_ROUNDTRIP
360
EB
  0
DICTIONARY
  5
10A
330
40
100
AcDbDictionary
280
     1
281
     1
  3
ACAD_XREC_ROUNDTRIP
360
10B
  0
XRECORD
  5
114
102
{ACAD_REACTORS
330
113
102
}
330
113
100
AcDbXrecord
280
     1
102
ACAD_ROUNDTRIP_2010_MLEADER_STYLE
  0
CELLSTYLEMAP
  5
111
102
{ACAD_REACTORS
330
110
102
}
330
110
100
AcDbCellStyleMap
 90
        3
300
CELLSTYLE
  1
TABLEFORMAT_BEGIN
 90
        5
170
     1
 91
        0
 92
    32768
 62
   257
 93
        1
300
CONTENTFORMAT
  1
CONTENTFORMAT_BEGIN
 90
        0
 91
        0
 92
        4
 93
        0
300

 40
0.0
140
1.0
 94
        5
 62
     0
340
11
144
0.25
309
CONTENTFORMAT_END
171
     1
301
MARGIN
  1
CELLMARGIN_BEGIN
 40
0.06
 40
0.06
 40
0.06
 40
0.06
 40
0.06
 40
0.06
309
CELLMARGIN_END
 94
        6
 95
        1
302
GRIDFORMAT
  1
GRIDFORMAT_BEGIN
 90
        0
 91
        1
 62
     0
 92
       -2
340
14
 93
        0
 40
0.045
309
GRIDFORMAT_END
 95
        2
302
GRIDFORMAT
  1
GRIDFORMAT_BEGIN
 90
        0
 91
        1
 62
     0
 92
       -2
340
14
 93
        0
 40
0.045
309
GRIDFORMAT_END
 95
        4
302
GRIDFORMAT
  1
GRIDFORMAT_BEGIN
 90
        0
 91
        1
 62
     0
 92
       -2
340
14
 93
        0
 40
0.045
309
GRIDFORMAT_END
 95
        8
302
GRIDFORMAT
  1
GRIDFORMAT_BEGIN
 90
        0
 91
        1
 62
     0
 92
       -2
340
14
 93
        0
 40
0.045
309
GRIDFORMAT_END
 95
       16
302
GRIDFORMAT
  1
GRIDFORMAT_BEGIN
 90
        0
 91
        1
 62
     0
 92
       -2
340
14
 93
        0
 40
0.045
309
GRIDFORMAT_END
 95
       32
302
GRIDFORMAT
  1
GRIDFORMAT_BEGIN
 90
        0
 91
        1
 62
     0
 92
       -2
340
14
 93
        0
 40
0.045
309
GRIDFORMAT_END
309
TABLEFORMAT_END
  1
CELLSTYLE_BEGIN
 90
        1
 91
        1
300
_TITLE
309
CELLSTYLE_END
300
CELLSTYLE
  1
TABLEFORMAT_BEGIN
 90
        5
170
     1
 91
        0
 92
        0
 62
   257
 93
        1
300
CONTENTFORMAT
  1
CONTENTFORMAT_BEGIN
 90
        0
 91
        0
 92
        4
 93
        0
300

 40
0.0
140
1.0
 94
        5
 62
     0
340
11
144
0.18
309
CONTENTFORMAT_END
171
     1
301
MARGIN
  1
CELLMARGIN_BEGIN
 40
0.06
 40
0.06
 40
0.06
 40
0.06
 40
0.06
 40
0.06
309
CELLMARGIN_END
 94
        6
 95
        1
302
GRIDFORMAT
  1
GRIDFORMAT_BEGIN
 90
        0
 91
        1
 62
     0
 92
       -2
340
14
 93
        0
 40
0.045
309
GRIDFORMAT_END
 95
        2
302
GRIDFORMAT
  1
GRIDFORMAT_BEGIN
 90
        0
 91
        1
 62
     0
 92
       -2
340
14
 93
        0
 40
0.045
309
GRIDFORMAT_END
 95
        4
302
GRIDFORMAT
  1
GRIDFORMAT_BEGIN
 90
        0
 91
        1
 62
     0
 92
       -2
340
14
 93
        0
 40
0.045
309
GRIDFORMAT_END
 95
        8
302
GRIDFORMAT
  1
GRIDFORMAT_BEGIN
 90
        0
 91
        1
 62
     0
 92
       -2
340
14
 93
        0
 40
0.045
309
GRIDFORMAT_END
 95
       16
302
GRIDFORMAT
  1
GRIDFORMAT_BEGIN
 90
        0
 91
        1
 62
     0
 92
       -2
340
14
 93
        0
 40
0.045
309
GRIDFORMAT_END
 95
       32
302
GRIDFORMAT
  1
GRIDFORMAT_BEGIN
 90
        0
 91
        1
 62
     0
 92
       -2
340
14
 93
        0
 40
0.045
309
GRIDFORMAT_END
309
TABLEFORMAT_END
  1
CELLSTYLE_BEGIN
 90
        2
 91
        1
300
_HEADER
309
CELLSTYLE_END
300
CELLSTYLE
  1
TABLEFORMAT_BEGIN
 90
        5
170
     1
 91
        0
 92
        0
 62
   257
 93
        1
300
CONTENTFORMAT
  1
CONTENTFORMAT_BEGIN
 90
        0
 91
        0
 92
        4
 93
        0
300

 40
0.0
140
1.0
 94
        2
 62
     0
340
11
144
0.18
309
CONTENTFORMAT_END
171
     1
301
MARGIN
  1
CELLMARGIN_BEGIN
 40
0.06
 40
0.06
 40
0.06
 40
0.06
 40
0.06
 40
0.06
309
CELLMARGIN_END
 94
        6
 95
        1
302
GRIDFORMAT
  1
GRIDFORMAT_BEGIN
 90
        0
 91
        1
 62
     0
 92
       -2
340
14
 93
        0
 40
0.045
309
GRIDFORMAT_END
 95
        2
302
GRIDFORMAT
  1
GRIDFORMAT_BEGIN
 90
        0
 91
        1
 62
     0
 92
       -2
340
14
 93
        0
 40
0.045
309
GRIDFORMAT_END
 95
        4
302
GRIDFORMAT
  1
GRIDFORMAT_BEGIN
 90
        0
 91
        1
 62
     0
 92
       -2
340
14
 93
        0
 40
0.045
309
GRIDFORMAT_END
 95
        8
302
GRIDFORMAT
  1
GRIDFORMAT_BEGIN
 90
        0
 91
        1
 62
     0
 92
       -2
340
14
 93
        0
 40
0.045
309
GRIDFORMAT_END
 95
       16
302
GRIDFORMAT
  1
GRIDFORMAT_BEGIN
 90
        0
 91
        1
 62
     0
 92
       -2
340
14
 93
        0
 40
0.045
309
GRIDFORMAT_END
 95
       32
302
GRIDFORMAT
  1
GRIDFORMAT_BEGIN
 90
        0
 91
        1
 62
     0
 92
       -2
340
14
 93
        0
 40
0.045
309
GRIDFORMAT_END
309
TABLEFORMAT_END
  1
CELLSTYLE_BEGIN
 90
        3
 91
        2
300
_DATA
309
CELLSTYLE_END
  0
XRECORD
  5
E9
102
{ACAD_REACTORS
330
E8
102
}
330
E8
100
AcDbXrecord
280
     1
102
RTVSPropertyOp0
 70
     1
102
RTVSPropertyOp1
 70
     1
102
RTVSPropertyOp2
 70
     1
102
RTVSPropertyOp3
 70
     1
102
RTVSPropertyOp4
 70
     1
102
RTVSPropertyOp5
 70
     1
102
RTVSPropertyOp6
 70
     1
102
RTVSPropertyOp7
 70
     1
102
RTVSPropertyOp8
 70
     1
102
RTVSPropertyOp9
 70
     1
102
RTVSPropertyOp10
 70
     1
102
RTVSPropertyOp11
 70
     1
102
RTVSPropertyOp12
 70
     1
102
RTVSPropertyOp13
 70
     1
102
RTVSPropertyOp14
 70
     1
102
RTVSPropertyOp15
 70
     1
102
RTVSPropertyOp16
 70
     1
102
RTVSPropertyOp17
 70
     1
102
RTVSPropertyOp18
 70
     1
102
RTVSPropertyOp19
 70
     1
102
RTVSPropertyOp20
 70
     1
102
RTVSPropertyOp21
 70
     1
102
RTVSPropertyOp22
 70
     1
102
RTVSPropertyOp23
 70
     1
102
RTVSPropertyOp24
 70
     1
102
RTVSPropertyOp25
 70
     1
102
RTVSPropertyOp26
 70
     1
102
RTVSPropertyOp27
 70
     1
102
RTVSPropertyOp28
 70
     1
102
RTVSPropertyOp29
 70
     1
102
RTVSPropertyOp30
 70
     1
102
RTVSPropertyOp31
 70
     1
102
RTVSPropertyOp32
 70
     1
102
RTVSPropertyOp33
 70
     1
102
RTVSPropertyOp34
 70
     1
102
RTVSPropertyOp35
 70
     1
102
RTVSPropertyOp36
 70
     1
102
RTVSPropertyOp37
 70
     1
102
RTVSPropertyOp38
 70
     1
102
RTVSPropertyOp39
 70
     1
102
RTVSPropertyOp40
 70
     1
102
RTVSPropertyOp41
 70
     1
102
RTVSPropertyOp42
 70
     1
102
RTVSPropertyOp43
 70
     1
102
RTVSPropertyOp44
 70
     1
102
RTVSPropertyOp45
 70
     1
102
RTVSPropertyOp46
 70
     1
102
RTVSPropertyOp47
 70
     1
102
RTVSPropertyOp48
 70
     1
102
RTVSPropertyOp49
 70
     1
102
RTVSPropertyOp50
 70
     1
102
RTVSPropertyOp51
 70
     0
102
RTVSPropertyOp52
 70
     0
102
RTVSPropertyOp53
 70
     1
102
RTVSPropertyOp54
 70
     1
102
RTVSPropertyOp55
 70
     1
102
RTVSPropertyOp56
 70
     1
102
RTVSPropertyOp57
 70
     1
102
RTVSPost2010Prop28
280
     1
102
RTVSPost2010PropOp28
 70
     1
102
RTVSPost2010Prop29
280
     1
102
RTVSPost2010PropOp29
 70
     1
102
RTVSPost2010Prop30
280
     0
102
RTVSPost2010PropOp30
 70
     1
102
RTVSPost2010Prop31
280
     0
102
RTVSPost2010PropOp31
 70
     1
102
RTVSPost2010Prop32
280
     0
102
RTVSPost2010PropOp32
 70
     1
102
RTVSPost2010Prop33
280
     0
102
RTVSPost2010PropOp33
 70
     1
102
RTVSPost2010Prop34
280
     0
102
RTVSPost2010PropOp34
 70
     1
102
RTVSPost2010Prop35
280
     0
102
RTVSPost2010PropOp35
 70
     1
102
RTVSPost2010Prop36
280
     0
102
RTVSPost2010PropOp36
 70
     1
102
RTVSPost2010Prop37
 90
       50
102
RTVSPost2010PropOp37
 70
     1
102
RTVSPost2010Prop38
140
0.0
102
RTVSPost2010PropOp38
 70
     1
102
RTVSPost2010Prop39
140
1.0
102
RTVSPost2010PropOp39
 70
     1
102
RTVSPost2010Prop40
 90
        0
102
RTVSPost2010PropOp40
 70
     1
102
RTVSPost2010Prop41ColorIndex
 90
       18
102
RTVSPost2010Prop41ColorRGB
 90
        0
102
RTVSPost2010PropOp41
 70
     1
102
RTVSPost2010Prop42
 90
       50
102
RTVSPost2010PropOp42
 70
     1
102
RTVSPost2010Prop43
 90
        3
102
RTVSPost2010PropOp43
 70
     1
102
RTVSPost2010Prop44ColorIndex
 90
        5
102
RTVSPost2010Prop44ColorRGB
 90
      255
102
RTVSPost2010PropOp44
 70
     1
102
RTVSPost2010Prop45
280
     0
102
RTVSPost2010PropOp45
 70
     1
102
RTVSPost2010Prop46
 90
       50
102
RTVSPost2010PropOp46
 70
     1
102
RTVSPost2010Prop47
 90
       50
102
RTVSPost2010PropOp47
 70
     1
102
RTVSPost2010Prop48
 90
       50
102
RTVSPost2010PropOp48
 70
     1
102
RTVSPost2010Prop49
280
     0
102
RTVSPost2010PropOp49
 70
     1
102
RTVSPost2010Prop50
 90
       50
102
RTVSPost2010PropOp50
 70
     1
102
RTVSPost2010Prop51ColorIndex
 90
      256
102
RTVSPost2010Prop51ColorRGB
 90
-16777216
102
RTVSPost2010PropOp51
 70
     0
102
RTVSPost2010Prop52
140
1.0
102
RTVSPost2010PropOp52
 70
     0
102
RTVSPost2010Prop53
 90
        2
102
RTVSPost2010PropOp53
 70
     1
102
RTVSPost2010Prop54
  1
strokes_ogs.tif
102
RTVSPost2010PropOp54
 70
     1
102
RTVSPost2010Prop55
280
     0
102
RTVSPost2010PropOp55
 70
     1
102
RTVSPost2010Prop56
140
1.0
102
RTVSPost2010PropOp56
 70
     1
102
RTVSPost2010Prop57
140
1.0
102
RTVSPost2010PropOp57
 70
     1
  0
XRECORD
  5
EF
102
{ACAD_REACTORS
330
EE
102
}
330
EE
100
AcDbXrecord
280
     1
102
RTVSPropertyOp0
 70
     1
102
RTVSPropertyOp1
 70
     1
102
RTVSPropertyOp2
 70
     1
102
RTVSPropertyOp3
 70
     1
102
RTVSPropertyOp4
 70
     1
102
RTVSPropertyOp5
 70
     1
102
RTVSPropertyOp6
 70
     1
102
RTVSPropertyOp7
 70
     1
102
RTVSPropertyOp8
 70
     1
102
RTVSPropertyOp9
 70
     1
102
RTVSPropertyOp10
 70
     1
102
RTVSPropertyOp11
 70
     1
102
RTVSPropertyOp12
 70
     1
102
RTVSPropertyOp13
 70
     1
102
RTVSPropertyOp14
 70
     1
102
RTVSPropertyOp15
 70
     1
102
RTVSPropertyOp16
 70
     1
102
RTVSPropertyOp17
 70
     1
102
RTVSPropertyOp18
 70
     1
102
RTVSPropertyOp19
 70
     1
102
RTVSPropertyOp20
 70
     1
102
RTVSPropertyOp21
 70
     1
102
RTVSPropertyOp22
 70
     1
102
RTVSPropertyOp23
 70
     1
102
RTVSPropertyOp24
 70
     1
102
RTVSPropertyOp25
 70
     1
102
RTVSPropertyOp26
 70
     1
102
RTVSPropertyOp27
 70
     1
102
RTVSPropertyOp28
 70
     1
102
RTVSPropertyOp29
 70
     1
102
RTVSPropertyOp30
 70
     1
102
RTVSPropertyOp31
 70
     1
102
RTVSPropertyOp32
 70
     1
102
RTVSPropertyOp33
 70
     1
102
RTVSPropertyOp34
 70
     1
102
RTVSPropertyOp35
 70
     1
102
RTVSPropertyOp36
 70
     1
102
RTVSPropertyOp37
 70
     1
102
RTVSPropertyOp38
 70
     1
102
RTVSPropertyOp39
 70
     1
102
RTVSPropertyOp40
 70
     1
102
RTVSPropertyOp41
 70
     1
102
RTVSPropertyOp42
 70
     1
102
RTVSPropertyOp43
 70
     1
102
RTVSPropertyOp44
 70
     1
102
RTVSPropertyOp45
 70
     1
102
RTVSPropertyOp46
 70
     1
102
RTVSPropertyOp47
 70
     1
102
RTVSPropertyOp48
 70
     1
102
RTVSPropertyOp49
 70
     1
102
RTVSPropertyOp50
 70
     1
102
RTVSPropertyOp51
 70
     0
102
RTVSPropertyOp52
 70
     0
102
RTVSPropertyOp53
 70
     1
102
RTVSPropertyOp54
 70
     1
102
RTVSPropertyOp55
 70
     1
102
RTVSPropertyOp56
 70
     1
102
RTVSPropertyOp57
 70
     1
102
RTVSPost2010Prop28
280
     0
102
RTVSPost2010PropOp28
 70
     1
102
RTVSPost2010Prop29
280
     1
102
RTVSPost2010PropOp29
 70
     1
102
RTVSPost2010Prop30
280
     1
102
RTVSPost2010PropOp30
 70
     1
102
RTVSPost2010Prop31
280
     0
102
RTVSPost2010PropOp31
 70
     1
102
RTVSPost2010Prop32
280
     0
102
RTVSPost2010PropOp32
 70
     1
102
RTVSPost2010Prop33
280
     0
102
RTVSPost2010PropOp33
 70
     1
102
RTVSPost2010Prop34
280
     0
102
RTVSPost2010PropOp34
 70
     1
102
RTVSPost2010Prop35
280
     0
102
RTVSPost2010PropOp35
 70
     1
102
RTVSPost2010Prop36
280
     0
102
RTVSPost2010PropOp36
 70
     1
102
RTVSPost2010Prop37
 90
       50
102
RTVSPost2010PropOp37
 70
     1
102
RTVSPost2010Prop38
140
0.0
102
RTVSPost2010PropOp38
 70
     1
102
RTVSPost2010Prop39
140
1.0
102
RTVSPost2010PropOp39
 70
     1
102
RTVSPost2010Prop40
 90
        0
102
RTVSPost2010PropOp40
 70
     1
102
RTVSPost2010Prop41ColorIndex
 90
       18
102
RTVSPost2010Prop41ColorRGB
 90
        0
102
RTVSPost2010PropOp41
 70
     1
102
RTVSPost2010Prop42
 90
       50
102
RTVSPost2010PropOp42
 70
     1
102
RTVSPost2010Prop43
 90
        3
102
RTVSPost2010PropOp43
 70
     1
102
RTVSPost2010Prop44ColorIndex
 90
        5
102
RTVSPost2010Prop44ColorRGB
 90
      255
102
RTVSPost2010PropOp44
 70
     1
102
RTVSPost2010Prop45
280
     0
102
RTVSPost2010PropOp45
 70
     1
102
RTVSPost2010Prop46
 90
       50
102
RTVSPost2010PropOp46
 70
     1
102
RTVSPost2010Prop47
 90
       50
102
RTVSPost2010PropOp47
 70
     1
102
RTVSPost2010Prop48
 90
       50
102
RTVSPost2010PropOp48
 70
     1
102
RTVSPost2010Prop49
280
     0
102
RTVSPost2010PropOp49
 70
     1
102
RTVSPost2010Prop50
 90
       50
102
RTVSPost2010PropOp50
 70
     1
102
RTVSPost2010Prop51ColorIndex
 90
      256
102
RTVSPost2010Prop51ColorRGB
 90
-16777216
102
RTVSPost2010PropOp51
 70
     0
102
RTVSPost2010Prop52
140
1.0
102
RTVSPost2010PropOp52
 70
     0
102
RTVSPost2010Prop53
 90
        2
102
RTVSPost2010PropOp53
 70
     1
102
RTVSPost2010Prop54
  1
strokes_ogs.tif
102
RTVSPost2010PropOp54
 70
     1
102
RTVSPost2010Prop55
280
     0
102
RTVSPost2010PropOp55
 70
     1
102
RTVSPost2010Prop56
140
1.0
102
RTVSPost2010PropOp56
 70
     1
102
RTVSPost2010Prop57
140
1.0
102
RTVSPost2010PropOp57
 70
     1
  0
XRECORD
  5
F7
102
{ACAD_REACTORS
330
F6
102
}
330
F6
100
AcDbXrecord
280
     1
102
RTVSPropertyOp0
 70
     1
102
RTVSPropertyOp1
 70
     1
102
RTVSPropertyOp2
 70
     1
102
RTVSPropertyOp3
 70
     1
102
RTVSPropertyOp4
 70
     1
102
RTVSPropertyOp5
 70
     1
102
RTVSPropertyOp6
 70
     1
102
RTVSPropertyOp7
 70
     1
102
RTVSPropertyOp8
 70
     1
102
RTVSPropertyOp9
 70
     1
102
RTVSPropertyOp10
 70
     1
102
RTVSPropertyOp11
 70
     1
102
RTVSPropertyOp12
 70
     1
102
RTVSPropertyOp13
 70
     1
102
RTVSPropertyOp14
 70
     1
102
RTVSPropertyOp15
 70
     1
102
RTVSPropertyOp16
 70
     1
102
RTVSPropertyOp17
 70
     1
102
RTVSPropertyOp18
 70
     1
102
RTVSPropertyOp19
 70
     1
102
RTVSPropertyOp20
 70
     1
102
RTVSPropertyOp21
 70
     1
102
RTVSPropertyOp22
 70
     1
102
RTVSPropertyOp23
 70
     1
102
RTVSPropertyOp24
 70
     1
102
RTVSPropertyOp25
 70
     1
102
RTVSPropertyOp26
 70
     1
102
RTVSPropertyOp27
 70
     1
102
RTVSPropertyOp28
 70
     1
102
RTVSPropertyOp29
 70
     1
102
RTVSPropertyOp30
 70
     1
102
RTVSPropertyOp31
 70
     1
102
RTVSPropertyOp32
 70
     1
102
RTVSPropertyOp33
 70
     1
102
RTVSPropertyOp34
 70
     1
102
RTVSPropertyOp35
 70
     1
102
RTVSPropertyOp36
 70
     1
102
RTVSPropertyOp37
 70
     1
102
RTVSPropertyOp38
 70
     1
102
RTVSPropertyOp39
 70
     1
102
RTVSPropertyOp40
 70
     1
102
RTVSPropertyOp41
 70
     1
102
RTVSPropertyOp42
 70
     1
102
RTVSPropertyOp43
 70
     1
102
RTVSPropertyOp44
 70
     1
102
RTVSPropertyOp45
 70
     1
102
RTVSPropertyOp46
 70
     1
102
RTVSPropertyOp47
 70
     1
102
RTVSPropertyOp48
 70
     1
102
RTVSPropertyOp49
 70
     1
102
RTVSPropertyOp50
 70
     1
102
RTVSPropertyOp51
 70
     0
102
RTVSPropertyOp52
 70
     0
102
RTVSPropertyOp53
 70
     1
102
RTVSPropertyOp54
 70
     1
102
RTVSPropertyOp55
 70
     1
102
RTVSPropertyOp56
 70
     1
102
RTVSPropertyOp57
 70
     1
102
RTVSPost2010Prop28
280
     0
102
RTVSPost2010PropOp28
 70
     1
102
RTVSPost2010Prop29
280
     1
102
RTVSPost2010PropOp29
 70
     1
102
RTVSPost2010Prop30
280
     1
102
RTVSPost2010PropOp30
 70
     1
102
RTVSPost2010Prop31
280
     0
102
RTVSPost2010PropOp31
 70
     1
102
RTVSPost2010Prop32
280
     0
102
RTVSPost2010PropOp32
 70
     1
102
RTVSPost2010Prop33
280
     0
102
RTVSPost2010PropOp33
 70
     1
102
RTVSPost2010Prop34
280
     0
102
RTVSPost2010PropOp34
 70
     1
102
RTVSPost2010Prop35
280
     0
102
RTVSPost2010PropOp35
 70
     1
102
RTVSPost2010Prop36
280
     0
102
RTVSPost2010PropOp36
 70
     1
102
RTVSPost2010Prop37
 90
       50
102
RTVSPost2010PropOp37
 70
     1
102
RTVSPost2010Prop38
140
0.0
102
RTVSPost2010PropOp38
 70
     1
102
RTVSPost2010Prop39
140
1.0
102
RTVSPost2010PropOp39
 70
     1
102
RTVSPost2010Prop40
 90
        0
102
RTVSPost2010PropOp40
 70
     1
102
RTVSPost2010Prop41ColorIndex
 90
       18
102
RTVSPost2010Prop41ColorRGB
 90
        0
102
RTVSPost2010PropOp41
 70
     1
102
RTVSPost2010Prop42
 90
       50
102
RTVSPost2010PropOp42
 70
     1
102
RTVSPost2010Prop43
 90
        3
102
RTVSPost2010PropOp43
 70
     1
102
RTVSPost2010Prop44ColorIndex
 90
        5
102
RTVSPost2010Prop44ColorRGB
 90
      255
102
RTVSPost2010PropOp44
 70
     1
102
RTVSPost2010Prop45
280
     0
102
RTVSPost2010PropOp45
 70
     1
102
RTVSPost2010Prop46
 90
       50
102
RTVSPost2010PropOp46
 70
     1
102
RTVSPost2010Prop47
 90
       50
102
RTVSPost2010PropOp47
 70
     1
102
RTVSPost2010Prop48
 90
       50
102
RTVSPost2010PropOp48
 70
     1
102
RTVSPost2010Prop49
280
     0
102
RTVSPost2010PropOp49
 70
     1
102
RTVSPost2010Prop50
 90
       50
102
RTVSPost2010PropOp50
 70
     1
102
RTVSPost2010Prop51ColorIndex
 90
      256
102
RTVSPost2010Prop51ColorRGB
 90
-16777216
102
RTVSPost2010PropOp51
 70
     0
102
RTVSPost2010Prop52
140
1.0
102
RTVSPost2010PropOp52
 70
     0
102
RTVSPost2010Prop53
 90
        2
102
RTVSPost2010PropOp53
 70
     1
102
RTVSPost2010Prop54
  1
strokes_ogs.tif
102
RTVSPost2010PropOp54
 70
     1
102
RTVSPost2010Prop55
280
     0
102
RTVSPost2010PropOp55
 70
     1
102
RTVSPost2010Prop56
140
1.0
102
RTVSPost2010PropOp56
 70
     1
102
RTVSPost2010Prop57
140
1.0
102
RTVSPost2010PropOp57
 70
     1
  0
XRECORD
  5
FF
102
{ACAD_REACTORS
330
FE
102
}
330
FE
100
AcDbXrecord
280
     1
102
RTVSPropertyOp0
 70
     1
102
RTVSPropertyOp1
 70
     1
102
RTVSPropertyOp2
 70
     1
102
RTVSPropertyOp3
 70
     1
102
RTVSPropertyOp4
 70
     1
102
RTVSPropertyOp5
 70
     1
102
RTVSPropertyOp6
 70
     1
102
RTVSPropertyOp7
 70
     1
102
RTVSPropertyOp8
 70
     1
102
RTVSPropertyOp9
 70
     1
102
RTVSPropertyOp10
 70
     1
102
RTVSPropertyOp11
 70
     1
102
RTVSPropertyOp12
 70
     1
102
RTVSPropertyOp13
 70
     1
102
RTVSPropertyOp14
 70
     1
102
RTVSPropertyOp15
 70
     1
102
RTVSPropertyOp16
 70
     1
102
RTVSPropertyOp17
 70
     1
102
RTVSPropertyOp18
 70
     1
102
RTVSPropertyOp19
 70
     1
102
RTVSPropertyOp20
 70
     1
102
RTVSPropertyOp21
 70
     1
102
RTVSPropertyOp22
 70
     1
102
RTVSPropertyOp23
 70
     1
102
RTVSPropertyOp24
 70
     1
102
RTVSPropertyOp25
 70
     1
102
RTVSPropertyOp26
 70
     1
102
RTVSPropertyOp27
 70
     1
102
RTVSPropertyOp28
 70
     1
102
RTVSPropertyOp29
 70
     1
102
RTVSPropertyOp30
 70
     1
102
RTVSPropertyOp31
 70
     1
102
RTVSPropertyOp32
 70
     1
102
RTVSPropertyOp33
 70
     1
102
RTVSPropertyOp34
 70
     1
102
RTVSPropertyOp35
 70
     1
102
RTVSPropertyOp36
 70
     1
102
RTVSPropertyOp37
 70
     1
102
RTVSPropertyOp38
 70
     1
102
RTVSPropertyOp39
 70
     1
102
RTVSPropertyOp40
 70
     1
102
RTVSPropertyOp41
 70
     1
102
RTVSPropertyOp42
 70
     1
102
RTVSPropertyOp43
 70
     1
102
RTVSPropertyOp44
 70
     1
102
RTVSPropertyOp45
 70
     1
102
RTVSPropertyOp46
 70
     1
102
RTVSPropertyOp47
 70
     1
102
RTVSPropertyOp48
 70
     1
102
RTVSPropertyOp49
 70
     1
102
RTVSPropertyOp50
 70
     1
102
RTVSPropertyOp51
 70
     0
102
RTVSPropertyOp52
 70
     0
102
RTVSPropertyOp53
 70
     1
102
RTVSPropertyOp54
 70
     1
102
RTVSPropertyOp55
 70
     1
102
RTVSPropertyOp56
 70
     1
102
RTVSPropertyOp57
 70
     1
102
RTVSPost2010Prop28
280
     0
102
RTVSPost2010PropOp28
 70
     1
102
RTVSPost2010Prop29
280
     1
102
RTVSPost2010PropOp29
 70
     1
102
RTVSPost2010Prop30
280
     1
102
RTVSPost2010PropOp30
 70
     1
102
RTVSPost2010Prop31
280
     0
102
RTVSPost2010PropOp31
 70
     1
102
RTVSPost2010Prop32
280
     0
102
RTVSPost2010PropOp32
 70
     1
102
RTVSPost2010Prop33
280
     0
102
RTVSPost2010PropOp33
 70
     1
102
RTVSPost2010Prop34
280
     0
102
RTVSPost2010PropOp34
 70
     1
102
RTVSPost2010Prop35
280
     0
102
RTVSPost2010PropOp35
 70
     1
102
RTVSPost2010Prop36
280
     0
102
RTVSPost2010PropOp36
 70
     1
102
RTVSPost2010Prop37
 90
       50
102
RTVSPost2010PropOp37
 70
     1
102
RTVSPost2010Prop38
140
0.0
102
RTVSPost2010PropOp38
 70
     1
102
RTVSPost2010Prop39
140
1.0
102
RTVSPost2010PropOp39
 70
     1
102
RTVSPost2010Prop40
 90
        0
102
RTVSPost2010PropOp40
 70
     1
102
RTVSPost2010Prop41ColorIndex
 90
       18
102
RTVSPost2010Prop41ColorRGB
 90
        0
102
RTVSPost2010PropOp41
 70
     1
102
RTVSPost2010Prop42
 90
       50
102
RTVSPost2010PropOp42
 70
     1
102
RTVSPost2010Prop43
 90
        3
102
RTVSPost2010PropOp43
 70
     1
102
RTVSPost2010Prop44ColorIndex
 90
        5
102
RTVSPost2010Prop44ColorRGB
 90
      255
102
RTVSPost2010PropOp44
 70
     1
102
RTVSPost2010Prop45
280
     0
102
RTVSPost2010PropOp45
 70
     1
102
RTVSPost2010Prop46
 90
       50
102
RTVSPost2010PropOp46
 70
     1
102
RTVSPost2010Prop47
 90
       50
102
RTVSPost2010PropOp47
 70
     1
102
RTVSPost2010Prop48
 90
       50
102
RTVSPost2010PropOp48
 70
     1
102
RTVSPost2010Prop49
280
     0
102
RTVSPost2010PropOp49
 70
     1
102
RTVSPost2010Prop50
 90
       50
102
RTVSPost2010PropOp50
 70
     1
102
RTVSPost2010Prop51ColorIndex
 90
      256
102
RTVSPost2010Prop51ColorRGB
 90
-16777216
102
RTVSPost2010PropOp51
 70
     0
102
RTVSPost2010Prop52
140
1.0
102
RTVSPost2010PropOp52
 70
     0
102
RTVSPost2010Prop53
 90
        2
102
RTVSPost2010PropOp53
 70
     1
102
RTVSPost2010Prop54
  1
strokes_ogs.tif
102
RTVSPost2010PropOp54
 70
     1
102
RTVSPost2010Prop55
280
     0
102
RTVSPost2010PropOp55
 70
     1
102
RTVSPost2010Prop56
140
1.0
102
RTVSPost2010PropOp56
 70
     1
102
RTVSPost2010Prop57
140
1.0
102
RTVSPost2010PropOp57
 70
     1
  0
XRECORD
  5
F3
102
{ACAD_REACTORS
330
F2
102
}
330
F2
100
AcDbXrecord
280
     1
102
RTVSPropertyOp0
 70
     1
102
RTVSPropertyOp1
 70
     1
102
RTVSPropertyOp2
 70
     1
102
RTVSPropertyOp3
 70
     1
102
RTVSPropertyOp4
 70
     1
102
RTVSPropertyOp5
 70
     1
102
RTVSPropertyOp6
 70
     1
102
RTVSPropertyOp7
 70
     1
102
RTVSPropertyOp8
 70
     1
102
RTVSPropertyOp9
 70
     1
102
RTVSPropertyOp10
 70
     1
102
RTVSPropertyOp11
 70
     1
102
RTVSPropertyOp12
 70
     1
102
RTVSPropertyOp13
 70
     1
102
RTVSPropertyOp14
 70
     1
102
RTVSPropertyOp15
 70
     1
102
RTVSPropertyOp16
 70
     1
102
RTVSPropertyOp17
 70
     1
102
RTVSPropertyOp18
 70
     1
102
RTVSPropertyOp19
 70
     1
102
RTVSPropertyOp20
 70
     1
102
RTVSPropertyOp21
 70
     1
102
RTVSPropertyOp22
 70
     1
102
RTVSPropertyOp23
 70
     1
102
RTVSPropertyOp24
 70
     1
102
RTVSPropertyOp25
 70
     1
102
RTVSPropertyOp26
 70
     1
102
RTVSPropertyOp27
 70
     1
102
RTVSPropertyOp28
 70
     1
102
RTVSPropertyOp29
 70
     1
102
RTVSPropertyOp30
 70
     1
102
RTVSPropertyOp31
 70
     1
102
RTVSPropertyOp32
 70
     1
102
RTVSPropertyOp33
 70
     1
102
RTVSPropertyOp34
 70
     1
102
RTVSPropertyOp35
 70
     1
102
RTVSPropertyOp36
 70
     1
102
RTVSPropertyOp37
 70
     1
102
RTVSPropertyOp38
 70
     1
102
RTVSPropertyOp39
 70
     1
102
RTVSPropertyOp40
 70
     1
102
RTVSPropertyOp41
 70
     1
102
RTVSPropertyOp42
 70
     1
102
RTVSPropertyOp43
 70
     1
102
RTVSPropertyOp44
 70
     1
102
RTVSPropertyOp45
 70
     1
102
RTVSPropertyOp46
 70
     1
102
RTVSPropertyOp47
 70
     1
102
RTVSPropertyOp48
 70
     1
102
RTVSPropertyOp49
 70
     1
102
RTVSPropertyOp50
 70
     1
102
RTVSPropertyOp51
 70
     0
102
RTVSPropertyOp52
 70
     0
102
RTVSPropertyOp53
 70
     1
102
RTVSPropertyOp54
 70
     1
102
RTVSPropertyOp55
 70
     1
102
RTVSPropertyOp56
 70
     1
102
RTVSPropertyOp57
 70
     1
102
RTVSPost2010Prop28
280
     0
102
RTVSPost2010PropOp28
 70
     1
102
RTVSPost2010Prop29
280
     1
102
RTVSPost2010PropOp29
 70
     1
102
RTVSPost2010Prop30
280
     1
102
RTVSPost2010PropOp30
 70
     1
102
RTVSPost2010Prop31
280
     0
102
RTVSPost2010PropOp31
 70
     1
102
RTVSPost2010Prop32
280
     0
102
RTVSPost2010PropOp32
 70
     1
102
RTVSPost2010Prop33
280
     0
102
RTVSPost2010PropOp33
 70
     1
102
RTVSPost2010Prop34
280
     0
102
RTVSPost2010PropOp34
 70
     1
102
RTVSPost2010Prop35
280
     0
102
RTVSPost2010PropOp35
 70
     1
102
RTVSPost2010Prop36
280
     0
102
RTVSPost2010PropOp36
 70
     1
102
RTVSPost2010Prop37
 90
       50
102
RTVSPost2010PropOp37
 70
     1
102
RTVSPost2010Prop38
140
0.0
102
RTVSPost2010PropOp38
 70
     1
102
RTVSPost2010Prop39
140
1.0
102
RTVSPost2010PropOp39
 70
     1
102
RTVSPost2010Prop40
 90
        0
102
RTVSPost2010PropOp40
 70
     1
102
RTVSPost2010Prop41ColorIndex
 90
       18
102
RTVSPost2010Prop41ColorRGB
 90
        0
102
RTVSPost2010PropOp41
 70
     1
102
RTVSPost2010Prop42
 90
       50
102
RTVSPost2010PropOp42
 70
     1
102
RTVSPost2010Prop43
 90
        3
102
RTVSPost2010PropOp43
 70
     1
102
RTVSPost2010Prop44ColorIndex
 90
        5
102
RTVSPost2010Prop44ColorRGB
 90
      255
102
RTVSPost2010PropOp44
 70
     1
102
RTVSPost2010Prop45
280
     0
102
RTVSPost2010PropOp45
 70
     1
102
RTVSPost2010Prop46
 90
       50
102
RTVSPost2010PropOp46
 70
     1
102
RTVSPost2010Prop47
 90
       50
102
RTVSPost2010PropOp47
 70
     1
102
RTVSPost2010Prop48
 90
       50
102
RTVSPost2010PropOp48
 70
     1
102
RTVSPost2010Prop49
280
     0
102
RTVSPost2010PropOp49
 70
     1
102
RTVSPost2010Prop50
 90
       50
102
RTVSPost2010PropOp50
 70
     1
102
RTVSPost2010Prop51ColorIndex
 90
      256
102
RTVSPost2010Prop51ColorRGB
 90
-16777216
102
RTVSPost2010PropOp51
 70
     0
102
RTVSPost2010Prop52
140
1.0
102
RTVSPost2010PropOp52
 70
     0
102
RTVSPost2010Prop53
 90
        2
102
RTVSPost2010PropOp53
 70
     1
102
RTVSPost2010Prop54
  1
strokes_ogs.tif
102
RTVSPost2010PropOp54
 70
     1
102
RTVSPost2010Prop55
280
     0
102
RTVSPost2010PropOp55
 70
     1
102
RTVSPost2010Prop56
140
1.0
102
RTVSPost2010PropOp56
 70
     1
102
RTVSPost2010Prop57
140
1.0
102
RTVSPost2010PropOp57
 70
     1
  0
XRECORD
  5
F5
102
{ACAD_REACTORS
330
F4
102
}
330
F4
100
AcDbXrecord
280
     1
102
RTVSPropertyOp0
 70
     1
102
RTVSPropertyOp1
 70
     1
102
RTVSPropertyOp2
 70
     1
102
RTVSPropertyOp3
 70
     1
102
RTVSPropertyOp4
 70
     1
102
RTVSPropertyOp5
 70
     1
102
RTVSPropertyOp6
 70
     1
102
RTVSPropertyOp7
 70
     1
102
RTVSPropertyOp8
 70
     1
102
RTVSPropertyOp9
 70
     1
102
RTVSPropertyOp10
 70
     1
102
RTVSPropertyOp11
 70
     1
102
RTVSPropertyOp12
 70
     1
102
RTVSPropertyOp13
 70
     1
102
RTVSPropertyOp14
 70
     1
102
RTVSPropertyOp15
 70
     1
102
RTVSPropertyOp16
 70
     1
102
RTVSPropertyOp17
 70
     1
102
RTVSPropertyOp18
 70
     1
102
RTVSPropertyOp19
 70
     1
102
RTVSPropertyOp20
 70
     1
102
RTVSPropertyOp21
 70
     1
102
RTVSPropertyOp22
 70
     1
102
RTVSPropertyOp23
 70
     1
102
RTVSPropertyOp24
 70
     1
102
RTVSPropertyOp25
 70
     1
102
RTVSPropertyOp26
 70
     1
102
RTVSPropertyOp27
 70
     1
102
RTVSPropertyOp28
 70
     1
102
RTVSPropertyOp29
 70
     1
102
RTVSPropertyOp30
 70
     1
102
RTVSPropertyOp31
 70
     1
102
RTVSPropertyOp32
 70
     1
102
RTVSPropertyOp33
 70
     1
102
RTVSPropertyOp34
 70
     1
102
RTVSPropertyOp35
 70
     1
102
RTVSPropertyOp36
 70
     1
102
RTVSPropertyOp37
 70
     1
102
RTVSPropertyOp38
 70
     1
102
RTVSPropertyOp39
 70
     1
102
RTVSPropertyOp40
 70
     1
102
RTVSPropertyOp41
 70
     1
102
RTVSPropertyOp42
 70
     1
102
RTVSPropertyOp43
 70
     1
102
RTVSPropertyOp44
 70
     1
102
RTVSPropertyOp45
 70
     1
102
RTVSPropertyOp46
 70
     1
102
RTVSPropertyOp47
 70
     1
102
RTVSPropertyOp48
 70
     1
102
RTVSPropertyOp49
 70
     1
102
RTVSPropertyOp50
 70
     1
102
RTVSPropertyOp51
 70
     0
102
RTVSPropertyOp52
 70
     0
102
RTVSPropertyOp53
 70
     1
102
RTVSPropertyOp54
 70
     1
102
RTVSPropertyOp55
 70
     1
102
RTVSPropertyOp56
 70
     1
102
RTVSPropertyOp57
 70
     1
102
RTVSPost2010Prop28
280
     0
102
RTVSPost2010PropOp28
 70
     1
102
RTVSPost2010Prop29
280
     1
102
RTVSPost2010PropOp29
 70
     1
102
RTVSPost2010Prop30
280
     1
102
RTVSPost2010PropOp30
 70
     1
102
RTVSPost2010Prop31
280
     0
102
RTVSPost2010PropOp31
 70
     1
102
RTVSPost2010Prop32
280
     0
102
RTVSPost2010PropOp32
 70
     1
102
RTVSPost2010Prop33
280
     0
102
RTVSPost2010PropOp33
 70
     1
102
RTVSPost2010Prop34
280
     0
102
RTVSPost2010PropOp34
 70
     1
102
RTVSPost2010Prop35
280
     0
102
RTVSPost2010PropOp35
 70
     1
102
RTVSPost2010Prop36
280
     0
102
RTVSPost2010PropOp36
 70
     1
102
RTVSPost2010Prop37
 90
       50
102
RTVSPost2010PropOp37
 70
     1
102
RTVSPost2010Prop38
140
0.0
102
RTVSPost2010PropOp38
 70
     1
102
RTVSPost2010Prop39
140
1.0
102
RTVSPost2010PropOp39
 70
     1
102
RTVSPost2010Prop40
 90
        0
102
RTVSPost2010PropOp40
 70
     1
102
RTVSPost2010Prop41ColorIndex
 90
       18
102
RTVSPost2010Prop41ColorRGB
 90
        0
102
RTVSPost2010PropOp41
 70
     1
102
RTVSPost2010Prop42
 90
       50
102
RTVSPost2010PropOp42
 70
     1
102
RTVSPost2010Prop43
 90
        3
102
RTVSPost2010PropOp43
 70
     1
102
RTVSPost2010Prop44ColorIndex
 90
        5
102
RTVSPost2010Prop44ColorRGB
 90
      255
102
RTVSPost2010PropOp44
 70
     1
102
RTVSPost2010Prop45
280
     0
102
RTVSPost2010PropOp45
 70
     1
102
RTVSPost2010Prop46
 90
       50
102
RTVSPost2010PropOp46
 70
     1
102
RTVSPost2010Prop47
 90
       50
102
RTVSPost2010PropOp47
 70
     1
102
RTVSPost2010Prop48
 90
       50
102
RTVSPost2010PropOp48
 70
     1
102
RTVSPost2010Prop49
280
     0
102
RTVSPost2010PropOp49
 70
     1
102
RTVSPost2010Prop50
 90
       50
102
RTVSPost2010PropOp50
 70
     1
102
RTVSPost2010Prop51ColorIndex
 90
      256
102
RTVSPost2010Prop51ColorRGB
 90
-16777216
102
RTVSPost2010PropOp51
 70
     0
102
RTVSPost2010Prop52
140
1.0
102
RTVSPost2010PropOp52
 70
     0
102
RTVSPost2010Prop53
 90
        2
102
RTVSPost2010PropOp53
 70
     1
102
RTVSPost2010Prop54
  1
strokes_ogs.tif
102
RTVSPost2010PropOp54
 70
     1
102
RTVSPost2010Prop55
280
     0
102
RTVSPost2010PropOp55
 70
     1
102
RTVSPost2010Prop56
140
1.0
102
RTVSPost2010PropOp56
 70
     1
102
RTVSPost2010Prop57
140
1.0
102
RTVSPost2010PropOp57
 70
     1
  0
XRECORD
  5
105
102
{ACAD_REACTORS
330
104
102
}
330
104
100
AcDbXrecord
280
     1
102
RTVSPropertyOp0
 70
     0
102
RTVSPropertyOp1
 70
     0
102
RTVSPropertyOp2
 70
     0
102
RTVSPropertyOp3
 70
     0
102
RTVSPropertyOp4
 70
     0
102
RTVSPropertyOp5
 70
     0
102
RTVSPropertyOp6
 70
     0
102
RTVSPropertyOp7
 70
     0
102
RTVSPropertyOp8
 70
     0
102
RTVSPropertyOp9
 70
     0
102
RTVSPropertyOp10
 70
     0
102
RTVSPropertyOp11
 70
     0
102
RTVSPropertyOp12
 70
     0
102
RTVSPropertyOp13
 70
     0
102
RTVSPropertyOp14
 70
     2
102
RTVSPropertyOp15
 70
     0
102
RTVSPropertyOp16
 70
     0
102
RTVSPropertyOp17
 70
     0
102
RTVSPropertyOp18
 70
     0
102
RTVSPropertyOp19
 70
     0
102
RTVSPropertyOp20
 70
     0
102
RTVSPropertyOp21
 70
     0
102
RTVSPropertyOp22
 70
     0
102
RTVSPropertyOp23
 70
     0
102
RTVSPropertyOp24
 70
     0
102
RTVSPropertyOp25
 70
     0
102
RTVSPropertyOp26
 70
     0
102
RTVSPropertyOp27
 70
     0
102
RTVSPropertyOp28
 70
     0
102
RTVSPropertyOp29
 70
     0
102
RTVSPropertyOp30
 70
     0
102
RTVSPropertyOp31
 70
     0
102
RTVSPropertyOp32
 70
     0
102
RTVSPropertyOp33
 70
     0
102
RTVSPropertyOp34
 70
     0
102
RTVSPropertyOp35
 70
     0
102
RTVSPropertyOp36
 70
     0
102
RTVSPropertyOp37
 70
     0
102
RTVSPropertyOp38
 70
     0
102
RTVSPropertyOp39
 70
     0
102
RTVSPropertyOp40
 70
     0
102
RTVSPropertyOp41
 70
     0
102
RTVSPropertyOp42
 70
     0
102
RTVSPropertyOp43
 70
     0
102
RTVSPropertyOp44
 70
     0
102
RTVSPropertyOp45
 70
     0
102
RTVSPropertyOp46
 70
     0
102
RTVSPropertyOp47
 70
     0
102
RTVSPropertyOp48
 70
     0
102
RTVSPropertyOp49
 70
     0
102
RTVSPropertyOp50
 70
     0
102
RTVSPropertyOp51
 70
     0
102
RTVSPropertyOp52
 70
     0
102
RTVSPropertyOp53
 70
     0
102
RTVSPropertyOp54
 70
     0
102
RTVSPropertyOp55
 70
     0
102
RTVSPropertyOp56
 70
     0
102
RTVSPropertyOp57
 70
     0
102
RTVSPost2010Prop28
280
     0
102
RTVSPost2010PropOp28
 70
     0
102
RTVSPost2010Prop29
280
     1
102
RTVSPost2010PropOp29
 70
     0
102
RTVSPost2010Prop30
280
     1
102
RTVSPost2010PropOp30
 70
     0
102
RTVSPost2010Prop31
280
     0
102
RTVSPost2010PropOp31
 70
     0
102
RTVSPost2010Prop32
280
     0
102
RTVSPost2010PropOp32
 70
     0
102
RTVSPost2010Prop33
280
     0
102
RTVSPost2010PropOp33
 70
     0
102
RTVSPost2010Prop34
280
     0
102
RTVSPost2010PropOp34
 70
     0
102
RTVSPost2010Prop35
280
     0
102
RTVSPost2010PropOp35
 70
     0
102
RTVSPost2010Prop36
280
     0
102
RTVSPost2010PropOp36
 70
     0
102
RTVSPost2010Prop37
 90
       50
102
RTVSPost2010PropOp37
 70
     0
102
RTVSPost2010Prop38
140
0.0
102
RTVSPost2010PropOp38
 70
     0
102
RTVSPost2010Prop39
140
1.0
102
RTVSPost2010PropOp39
 70
     0
102
RTVSPost2010Prop40
 90
        0
102
RTVSPost2010PropOp40
 70
     0
102
RTVSPost2010Prop41ColorIndex
 90
       18
102
RTVSPost2010Prop41ColorRGB
 90
        0
102
RTVSPost2010PropOp41
 70
     0
102
RTVSPost2010Prop42
 90
       50
102
RTVSPost2010PropOp42
 70
     0
102
RTVSPost2010Prop43
 90
        3
102
RTVSPost2010PropOp43
 70
     0
102
RTVSPost2010Prop44ColorIndex
 90
        5
102
RTVSPost2010Prop44ColorRGB
 90
      255
102
RTVSPost2010PropOp44
 70
     0
102
RTVSPost2010Prop45
280
     0
102
RTVSPost2010PropOp45
 70
     0
102
RTVSPost2010Prop46
 90
       50
102
RTVSPost2010PropOp46
 70
     0
102
RTVSPost2010Prop47
 90
       50
102
RTVSPost2010PropOp47
 70
     0
102
RTVSPost2010Prop48
 90
       50
102
RTVSPost2010PropOp48
 70
     0
102
RTVSPost2010Prop49
280
     0
102
RTVSPost2010PropOp49
 70
     0
102
RTVSPost2010Prop50
 90
       50
102
RTVSPost2010PropOp50
 70
     0
102
RTVSPost2010Prop51ColorIndex
 90
      256
102
RTVSPost2010Prop51ColorRGB
 90
-16777216
102
RTVSPost2010PropOp51
 70
     0
102
RTVSPost2010Prop52
140
1.0
102
RTVSPost2010PropOp52
 70
     0
102
RTVSPost2010Prop53
 90
        2
102
RTVSPost2010PropOp53
 70
     0
102
RTVSPost2010Prop54
  1
strokes_ogs.tif
102
RTVSPost2010PropOp54
 70
     0
102
RTVSPost2010Prop55
280
     0
102
RTVSPost2010PropOp55
 70
     0
102
RTVSPost2010Prop56
140
1.0
102
RTVSPost2010PropOp56
 70
     0
102
RTVSPost2010Prop57
140
1.0
102
RTVSPost2010PropOp57
 70
     0
  0
XRECORD
  5
FD
102
{ACAD_REACTORS
330
FC
102
}
330
FC
100
AcDbXrecord
280
     1
102
RTVSPropertyOp0
 70
     1
102
RTVSPropertyOp1
 70
     1
102
RTVSPropertyOp2
 70
     1
102
RTVSPropertyOp3
 70
     1
102
RTVSPropertyOp4
 70
     1
102
RTVSPropertyOp5
 70
     1
102
RTVSPropertyOp6
 70
     1
102
RTVSPropertyOp7
 70
     1
102
RTVSPropertyOp8
 70
     1
102
RTVSPropertyOp9
 70
     1
102
RTVSPropertyOp10
 70
     1
102
RTVSPropertyOp11
 70
     1
102
RTVSPropertyOp12
 70
     1
102
RTVSPropertyOp13
 70
     1
102
RTVSPropertyOp14
 70
     1
102
RTVSPropertyOp15
 70
     1
102
RTVSPropertyOp16
 70
     1
102
RTVSPropertyOp17
 70
     1
102
RTVSPropertyOp18
 70
     1
102
RTVSPropertyOp19
 70
     1
102
RTVSPropertyOp20
 70
     1
102
RTVSPropertyOp21
 70
     1
102
RTVSPropertyOp22
 70
     1
102
RTVSPropertyOp23
 70
     1
102
RTVSPropertyOp24
 70
     1
102
RTVSPropertyOp25
 70
     1
102
RTVSPropertyOp26
 70
     1
102
RTVSPropertyOp27
 70
     1
102
RTVSPropertyOp28
 70
     1
102
RTVSPropertyOp29
 70
     1
102
RTVSPropertyOp30
 70
     1
102
RTVSPropertyOp31
 70
     1
102
RTVSPropertyOp32
 70
     1
102
RTVSPropertyOp33
 70
     1
102
RTVSPropertyOp34
 70
     1
102
RTVSPropertyOp35
 70
     1
102
RTVSPropertyOp36
 70
     1
102
RTVSPropertyOp37
 70
     1
102
RTVSPropertyOp38
 70
     1
102
RTVSPropertyOp39
 70
     1
102
RTVSPropertyOp40
 70
     1
102
RTVSPropertyOp41
 70
     1
102
RTVSPropertyOp42
 70
     1
102
RTVSPropertyOp43
 70
     1
102
RTVSPropertyOp44
 70
     1
102
RTVSPropertyOp45
 70
     1
102
RTVSPropertyOp46
 70
     1
102
RTVSPropertyOp47
 70
     1
102
RTVSPropertyOp48
 70
     1
102
RTVSPropertyOp49
 70
     1
102
RTVSPropertyOp50
 70
     1
102
RTVSPropertyOp51
 70
     0
102
RTVSPropertyOp52
 70
     0
102
RTVSPropertyOp53
 70
     1
102
RTVSPropertyOp54
 70
     1
102
RTVSPropertyOp55
 70
     1
102
RTVSPropertyOp56
 70
     1
102
RTVSPropertyOp57
 70
     1
102
RTVSPost2010Prop28
280
     0
102
RTVSPost2010PropOp28
 70
     1
102
RTVSPost2010Prop29
280
     1
102
RTVSPost2010PropOp29
 70
     1
102
RTVSPost2010Prop30
280
     1
102
RTVSPost2010PropOp30
 70
     1
102
RTVSPost2010Prop31
280
     0
102
RTVSPost2010PropOp31
 70
     1
102
RTVSPost2010Prop32
280
     0
102
RTVSPost2010PropOp32
 70
     1
102
RTVSPost2010Prop33
280
     0
102
RTVSPost2010PropOp33
 70
     1
102
RTVSPost2010Prop34
280
     0
102
RTVSPost2010PropOp34
 70
     1
102
RTVSPost2010Prop35
280
     0
102
RTVSPost2010PropOp35
 70
     1
102
RTVSPost2010Prop36
280
     0
102
RTVSPost2010PropOp36
 70
     1
102
RTVSPost2010Prop37
 90
       50
102
RTVSPost2010PropOp37
 70
     1
102
RTVSPost2010Prop38
140
0.0
102
RTVSPost2010PropOp38
 70
     1
102
RTVSPost2010Prop39
140
1.0
102
RTVSPost2010PropOp39
 70
     1
102
RTVSPost2010Prop40
 90
        0
102
RTVSPost2010PropOp40
 70
     1
102
RTVSPost2010Prop41ColorIndex
 90
       18
102
RTVSPost2010Prop41ColorRGB
 90
        0
102
RTVSPost2010PropOp41
 70
     1
102
RTVSPost2010Prop42
 90
       50
102
RTVSPost2010PropOp42
 70
     1
102
RTVSPost2010Prop43
 90
        3
102
RTVSPost2010PropOp43
 70
     1
102
RTVSPost2010Prop44ColorIndex
 90
        5
102
RTVSPost2010Prop44ColorRGB
 90
      255
102
RTVSPost2010PropOp44
 70
     1
102
RTVSPost2010Prop45
280
     0
102
RTVSPost2010PropOp45
 70
     1
102
RTVSPost2010Prop46
 90
       50
102
RTVSPost2010PropOp46
 70
     1
102
RTVSPost2010Prop47
 90
       50
102
RTVSPost2010PropOp47
 70
     1
102
RTVSPost2010Prop48
 90
       50
102
RTVSPost2010PropOp48
 70
     1
102
RTVSPost2010Prop49
280
     0
102
RTVSPost2010PropOp49
 70
     1
102
RTVSPost2010Prop50
 90
       50
102
RTVSPost2010PropOp50
 70
     1
102
RTVSPost2010Prop51ColorIndex
 90
      256
102
RTVSPost2010Prop51ColorRGB
 90
-16777216
102
RTVSPost2010PropOp51
 70
     0
102
RTVSPost2010Prop52
140
1.0
102
RTVSPost2010PropOp52
 70
     0
102
RTVSPost2010Prop53
 90
        2
102
RTVSPost2010PropOp53
 70
     1
102
RTVSPost2010Prop54
  1
strokes_ogs.tif
102
RTVSPost2010PropOp54
 70
     1
102
RTVSPost2010Prop55
280
     0
102
RTVSPost2010PropOp55
 70
     1
102
RTVSPost2010Prop56
140
1.0
102
RTVSPost2010PropOp56
 70
     1
102
RTVSPost2010Prop57
140
1.0
102
RTVSPost2010PropOp57
 70
     1
  0
XRECORD
  5
E1
102
{ACAD_REACTORS
330
E0
102
}
330
E0
100
AcDbXrecord
280
     1
102
RTVSPropertyOp0
 70
     1
102
RTVSPropertyOp1
 70
     1
102
RTVSPropertyOp2
 70
     1
102
RTVSPropertyOp3
 70
     1
102
RTVSPropertyOp4
 70
     1
102
RTVSPropertyOp5
 70
     1
102
RTVSPropertyOp6
 70
     1
102
RTVSPropertyOp7
 70
     1
102
RTVSPropertyOp8
 70
     1
102
RTVSPropertyOp9
 70
     1
102
RTVSPropertyOp10
 70
     1
102
RTVSPropertyOp11
 70
     1
102
RTVSPropertyOp12
 70
     1
102
RTVSPropertyOp13
 70
     1
102
RTVSPropertyOp14
 70
     1
102
RTVSPropertyOp15
 70
     1
102
RTVSPropertyOp16
 70
     1
102
RTVSPropertyOp17
 70
     1
102
RTVSPropertyOp18
 70
     1
102
RTVSPropertyOp19
 70
     1
102
RTVSPropertyOp20
 70
     1
102
RTVSPropertyOp21
 70
     1
102
RTVSPropertyOp22
 70
     1
102
RTVSPropertyOp23
 70
     1
102
RTVSPropertyOp24
 70
     1
102
RTVSPropertyOp25
 70
     1
102
RTVSPropertyOp26
 70
     1
102
RTVSPropertyOp27
 70
     1
102
RTVSPropertyOp28
 70
     1
102
RTVSPropertyOp29
 70
     1
102
RTVSPropertyOp30
 70
     1
102
RTVSPropertyOp31
 70
     1
102
RTVSPropertyOp32
 70
     1
102
RTVSPropertyOp33
 70
     1
102
RTVSPropertyOp34
 70
     1
102
RTVSPropertyOp35
 70
     1
102
RTVSPropertyOp36
 70
     1
102
RTVSPropertyOp37
 70
     1
102
RTVSPropertyOp38
 70
     1
102
RTVSPropertyOp39
 70
     1
102
RTVSPropertyOp40
 70
     1
102
RTVSPropertyOp41
 70
     1
102
RTVSPropertyOp42
 70
     1
102
RTVSPropertyOp43
 70
     1
102
RTVSPropertyOp44
 70
     1
102
RTVSPropertyOp45
 70
     1
102
RTVSPropertyOp46
 70
     1
102
RTVSPropertyOp47
 70
     1
102
RTVSPropertyOp48
 70
     1
102
RTVSPropertyOp49
 70
     1
102
RTVSPropertyOp50
 70
     1
102
RTVSPropertyOp51
 70
     0
102
RTVSPropertyOp52
 70
     0
102
RTVSPropertyOp53
 70
     1
102
RTVSPropertyOp54
 70
     1
102
RTVSPropertyOp55
 70
     1
102
RTVSPropertyOp56
 70
     1
102
RTVSPropertyOp57
 70
     1
102
RTVSPost2010Prop28
280
     0
102
RTVSPost2010PropOp28
 70
     1
102
RTVSPost2010Prop29
280
     1
102
RTVSPost2010PropOp29
 70
     1
102
RTVSPost2010Prop30
280
     1
102
RTVSPost2010PropOp30
 70
     1
102
RTVSPost2010Prop31
280
     0
102
RTVSPost2010PropOp31
 70
     1
102
RTVSPost2010Prop32
280
     0
102
RTVSPost2010PropOp32
 70
     1
102
RTVSPost2010Prop33
280
     0
102
RTVSPost2010PropOp33
 70
     1
102
RTVSPost2010Prop34
280
     0
102
RTVSPost2010PropOp34
 70
     1
102
RTVSPost2010Prop35
280
     0
102
RTVSPost2010PropOp35
 70
     1
102
RTVSPost2010Prop36
280
     0
102
RTVSPost2010PropOp36
 70
     1
102
RTVSPost2010Prop37
 90
       50
102
RTVSPost2010PropOp37
 70
     1
102
RTVSPost2010Prop38
140
0.0
102
RTVSPost2010PropOp38
 70
     1
102
RTVSPost2010Prop39
140
1.0
102
RTVSPost2010PropOp39
 70
     1
102
RTVSPost2010Prop40
 90
        0
102
RTVSPost2010PropOp40
 70
     1
102
RTVSPost2010Prop41ColorIndex
 90
       18
102
RTVSPost2010Prop41ColorRGB
 90
        0
102
RTVSPost2010PropOp41
 70
     1
102
RTVSPost2010Prop42
 90
       50
102
RTVSPost2010PropOp42
 70
     1
102
RTVSPost2010Prop43
 90
        3
102
RTVSPost2010PropOp43
 70
     1
102
RTVSPost2010Prop44ColorIndex
 90
        5
102
RTVSPost2010Prop44ColorRGB
 90
      255
102
RTVSPost2010PropOp44
 70
     1
102
RTVSPost2010Prop45
280
     0
102
RTVSPost2010PropOp45
 70
     1
102
RTVSPost2010Prop46
 90
       50
102
RTVSPost2010PropOp46
 70
     1
102
RTVSPost2010Prop47
 90
       50
102
RTVSPost2010PropOp47
 70
     1
102
RTVSPost2010Prop48
 90
       50
102
RTVSPost2010PropOp48
 70
     1
102
RTVSPost2010Prop49
280
     0
102
RTVSPost2010PropOp49
 70
     1
102
RTVSPost2010Prop50
 90
       50
102
RTVSPost2010PropOp50
 70
     1
102
RTVSPost2010Prop51ColorIndex
 90
      256
102
RTVSPost2010Prop51ColorRGB
 90
-16777216
102
RTVSPost2010PropOp51
 70
     0
102
RTVSPost2010Prop52
140
1.0
102
RTVSPost2010PropOp52
 70
     0
102
RTVSPost2010Prop53
 90
        2
102
RTVSPost2010PropOp53
 70
     1
102
RTVSPost2010Prop54
  1
strokes_ogs.tif
102
RTVSPost2010PropOp54
 70
     1
102
RTVSPost2010Prop55
280
     0
102
RTVSPost2010PropOp55
 70
     1
102
RTVSPost2010Prop56
140
1.0
102
RTVSPost2010PropOp56
 70
     1
102
RTVSPost2010Prop57
140
1.0
102
RTVSPost2010PropOp57
 70
     1
  0
XRECORD
  5
E3
102
{ACAD_REACTORS
330
E2
102
}
330
E2
100
AcDbXrecord
280
     1
102
RTVSPropertyOp0
 70
     1
102
RTVSPropertyOp1
 70
     1
102
RTVSPropertyOp2
 70
     1
102
RTVSPropertyOp3
 70
     1
102
RTVSPropertyOp4
 70
     1
102
RTVSPropertyOp5
 70
     1
102
RTVSPropertyOp6
 70
     1
102
RTVSPropertyOp7
 70
     1
102
RTVSPropertyOp8
 70
     1
102
RTVSPropertyOp9
 70
     1
102
RTVSPropertyOp10
 70
     1
102
RTVSPropertyOp11
 70
     1
102
RTVSPropertyOp12
 70
     1
102
RTVSPropertyOp13
 70
     1
102
RTVSPropertyOp14
 70
     1
102
RTVSPropertyOp15
 70
     1
102
RTVSPropertyOp16
 70
     1
102
RTVSPropertyOp17
 70
     1
102
RTVSPropertyOp18
 70
     1
102
RTVSPropertyOp19
 70
     1
102
RTVSPropertyOp20
 70
     1
102
RTVSPropertyOp21
 70
     1
102
RTVSPropertyOp22
 70
     1
102
RTVSPropertyOp23
 70
     1
102
RTVSPropertyOp24
 70
     1
102
RTVSPropertyOp25
 70
     1
102
RTVSPropertyOp26
 70
     1
102
RTVSPropertyOp27
 70
     1
102
RTVSPropertyOp28
 70
     1
102
RTVSPropertyOp29
 70
     1
102
RTVSPropertyOp30
 70
     1
102
RTVSPropertyOp31
 70
     1
102
RTVSPropertyOp32
 70
     1
102
RTVSPropertyOp33
 70
     1
102
RTVSPropertyOp34
 70
     1
102
RTVSPropertyOp35
 70
     1
102
RTVSPropertyOp36
 70
     1
102
RTVSPropertyOp37
 70
     1
102
RTVSPropertyOp38
 70
     1
102
RTVSPropertyOp39
 70
     1
102
RTVSPropertyOp40
 70
     1
102
RTVSPropertyOp41
 70
     1
102
RTVSPropertyOp42
 70
     1
102
RTVSPropertyOp43
 70
     1
102
RTVSPropertyOp44
 70
     1
102
RTVSPropertyOp45
 70
     1
102
RTVSPropertyOp46
 70
     1
102
RTVSPropertyOp47
 70
     1
102
RTVSPropertyOp48
 70
     1
102
RTVSPropertyOp49
 70
     1
102
RTVSPropertyOp50
 70
     1
102
RTVSPropertyOp51
 70
     0
102
RTVSPropertyOp52
 70
     0
102
RTVSPropertyOp53
 70
     1
102
RTVSPropertyOp54
 70
     1
102
RTVSPropertyOp55
 70
     1
102
RTVSPropertyOp56
 70
     1
102
RTVSPropertyOp57
 70
     1
102
RTVSPost2010Prop28
280
     0
102
RTVSPost2010PropOp28
 70
     1
102
RTVSPost2010Prop29
280
     1
102
RTVSPost2010PropOp29
 70
     1
102
RTVSPost2010Prop30
280
     1
102
RTVSPost2010PropOp30
 70
     1
102
RTVSPost2010Prop31
280
     0
102
RTVSPost2010PropOp31
 70
     1
102
RTVSPost2010Prop32
280
     0
102
RTVSPost2010PropOp32
 70
     1
102
RTVSPost2010Prop33
280
     0
102
RTVSPost2010PropOp33
 70
     1
102
RTVSPost2010Prop34
280
     0
102
RTVSPost2010PropOp34
 70
     1
102
RTVSPost2010Prop35
280
     0
102
RTVSPost2010PropOp35
 70
     1
102
RTVSPost2010Prop36
280
     0
102
RTVSPost2010PropOp36
 70
     1
102
RTVSPost2010Prop37
 90
       50
102
RTVSPost2010PropOp37
 70
     1
102
RTVSPost2010Prop38
140
0.0
102
RTVSPost2010PropOp38
 70
     1
102
RTVSPost2010Prop39
140
1.0
102
RTVSPost2010PropOp39
 70
     1
102
RTVSPost2010Prop40
 90
        0
102
RTVSPost2010PropOp40
 70
     1
102
RTVSPost2010Prop41ColorIndex
 90
       18
102
RTVSPost2010Prop41ColorRGB
 90
        0
102
RTVSPost2010PropOp41
 70
     1
102
RTVSPost2010Prop42
 90
       50
102
RTVSPost2010PropOp42
 70
     1
102
RTVSPost2010Prop43
 90
        3
102
RTVSPost2010PropOp43
 70
     1
102
RTVSPost2010Prop44ColorIndex
 90
        5
102
RTVSPost2010Prop44ColorRGB
 90
      255
102
RTVSPost2010PropOp44
 70
     1
102
RTVSPost2010Prop45
280
     0
102
RTVSPost2010PropOp45
 70
     1
102
RTVSPost2010Prop46
 90
       50
102
RTVSPost2010PropOp46
 70
     1
102
RTVSPost2010Prop47
 90
       50
102
RTVSPost2010PropOp47
 70
     1
102
RTVSPost2010Prop48
 90
       50
102
RTVSPost2010PropOp48
 70
     1
102
RTVSPost2010Prop49
280
     0
102
RTVSPost2010PropOp49
 70
     1
102
RTVSPost2010Prop50
 90
       50
102
RTVSPost2010PropOp50
 70
     1
102
RTVSPost2010Prop51ColorIndex
 90
      256
102
RTVSPost2010Prop51ColorRGB
 90
-16777216
102
RTVSPost2010PropOp51
 70
     0
102
RTVSPost2010Prop52
140
1.0
102
RTVSPost2010PropOp52
 70
     0
102
RTVSPost2010Prop53
 90
        2
102
RTVSPost2010PropOp53
 70
     1
102
RTVSPost2010Prop54
  1
strokes_ogs.tif
102
RTVSPost2010PropOp54
 70
     1
102
RTVSPost2010Prop55
280
     0
102
RTVSPost2010PropOp55
 70
     1
102
RTVSPost2010Prop56
140
1.0
102
RTVSPost2010PropOp56
 70
     1
102
RTVSPost2010Prop57
140
1.0
102
RTVSPost2010PropOp57
 70
     1
  0
XRECORD
  5
E5
102
{ACAD_REACTORS
330
E4
102
}
330
E4
100
AcDbXrecord
280
     1
102
RTVSPropertyOp0
 70
     1
102
RTVSPropertyOp1
 70
     1
102
RTVSPropertyOp2
 70
     1
102
RTVSPropertyOp3
 70
     1
102
RTVSPropertyOp4
 70
     1
102
RTVSPropertyOp5
 70
     1
102
RTVSPropertyOp6
 70
     1
102
RTVSPropertyOp7
 70
     1
102
RTVSPropertyOp8
 70
     1
102
RTVSPropertyOp9
 70
     1
102
RTVSPropertyOp10
 70
     1
102
RTVSPropertyOp11
 70
     1
102
RTVSPropertyOp12
 70
     1
102
RTVSPropertyOp13
 70
     1
102
RTVSPropertyOp14
 70
     1
102
RTVSPropertyOp15
 70
     1
102
RTVSPropertyOp16
 70
     1
102
RTVSPropertyOp17
 70
     1
102
RTVSPropertyOp18
 70
     1
102
RTVSPropertyOp19
 70
     1
102
RTVSPropertyOp20
 70
     1
102
RTVSPropertyOp21
 70
     1
102
RTVSPropertyOp22
 70
     1
102
RTVSPropertyOp23
 70
     1
102
RTVSPropertyOp24
 70
     1
102
RTVSPropertyOp25
 70
     1
102
RTVSPropertyOp26
 70
     1
102
RTVSPropertyOp27
 70
     1
102
RTVSPropertyOp28
 70
     1
102
RTVSPropertyOp29
 70
     1
102
RTVSPropertyOp30
 70
     1
102
RTVSPropertyOp31
 70
     1
102
RTVSPropertyOp32
 70
     1
102
RTVSPropertyOp33
 70
     1
102
RTVSPropertyOp34
 70
     1
102
RTVSPropertyOp35
 70
     1
102
RTVSPropertyOp36
 70
     1
102
RTVSPropertyOp37
 70
     1
102
RTVSPropertyOp38
 70
     1
102
RTVSPropertyOp39
 70
     1
102
RTVSPropertyOp40
 70
     1
102
RTVSPropertyOp41
 70
     1
102
RTVSPropertyOp42
 70
     1
102
RTVSPropertyOp43
 70
     1
102
RTVSPropertyOp44
 70
     1
102
RTVSPropertyOp45
 70
     1
102
RTVSPropertyOp46
 70
     1
102
RTVSPropertyOp47
 70
     1
102
RTVSPropertyOp48
 70
     1
102
RTVSPropertyOp49
 70
     1
102
RTVSPropertyOp50
 70
     1
102
RTVSPropertyOp51
 70
     0
102
RTVSPropertyOp52
 70
     0
102
RTVSPropertyOp53
 70
     1
102
RTVSPropertyOp54
 70
     1
102
RTVSPropertyOp55
 70
     1
102
RTVSPropertyOp56
 70
     1
102
RTVSPropertyOp57
 70
     1
102
RTVSPost2010Prop28
280
     0
102
RTVSPost2010PropOp28
 70
     1
102
RTVSPost2010Prop29
280
     1
102
RTVSPost2010PropOp29
 70
     1
102
RTVSPost2010Prop30
280
     1
102
RTVSPost2010PropOp30
 70
     1
102
RTVSPost2010Prop31
280
     0
102
RTVSPost2010PropOp31
 70
     1
102
RTVSPost2010Prop32
280
     0
102
RTVSPost2010PropOp32
 70
     1
102
RTVSPost2010Prop33
280
     0
102
RTVSPost2010PropOp33
 70
     1
102
RTVSPost2010Prop34
280
     0
102
RTVSPost2010PropOp34
 70
     1
102
RTVSPost2010Prop35
280
     0
102
RTVSPost2010PropOp35
 70
     1
102
RTVSPost2010Prop36
280
     0
102
RTVSPost2010PropOp36
 70
     1
102
RTVSPost2010Prop37
 90
       50
102
RTVSPost2010PropOp37
 70
     1
102
RTVSPost2010Prop38
140
0.0
102
RTVSPost2010PropOp38
 70
     1
102
RTVSPost2010Prop39
140
1.0
102
RTVSPost2010PropOp39
 70
     1
102
RTVSPost2010Prop40
 90
        0
102
RTVSPost2010PropOp40
 70
     1
102
RTVSPost2010Prop41ColorIndex
 90
       18
102
RTVSPost2010Prop41ColorRGB
 90
        0
102
RTVSPost2010PropOp41
 70
     1
102
RTVSPost2010Prop42
 90
       50
102
RTVSPost2010PropOp42
 70
     1
102
RTVSPost2010Prop43
 90
        3
102
RTVSPost2010PropOp43
 70
     1
102
RTVSPost2010Prop44ColorIndex
 90
        5
102
RTVSPost2010Prop44ColorRGB
 90
      255
102
RTVSPost2010PropOp44
 70
     1
102
RTVSPost2010Prop45
280
     0
102
RTVSPost2010PropOp45
 70
     1
102
RTVSPost2010Prop46
 90
       50
102
RTVSPost2010PropOp46
 70
     1
102
RTVSPost2010Prop47
 90
       50
102
RTVSPost2010PropOp47
 70
     1
102
RTVSPost2010Prop48
 90
       50
102
RTVSPost2010PropOp48
 70
     1
102
RTVSPost2010Prop49
280
     0
102
RTVSPost2010PropOp49
 70
     1
102
RTVSPost2010Prop50
 90
       50
102
RTVSPost2010PropOp50
 70
     1
102
RTVSPost2010Prop51ColorIndex
 90
      256
102
RTVSPost2010Prop51ColorRGB
 90
-16777216
102
RTVSPost2010PropOp51
 70
     0
102
RTVSPost2010Prop52
140
1.0
102
RTVSPost2010PropOp52
 70
     0
102
RTVSPost2010Prop53
 90
        2
102
RTVSPost2010PropOp53
 70
     1
102
RTVSPost2010Prop54
  1
strokes_ogs.tif
102
RTVSPost2010PropOp54
 70
     1
102
RTVSPost2010Prop55
280
     0
102
RTVSPost2010PropOp55
 70
     1
102
RTVSPost2010Prop56
140
1.0
102
RTVSPost2010PropOp56
 70
     1
102
RTVSPost2010Prop57
140
1.0
102
RTVSPost2010PropOp57
 70
     1
  0
XRECORD
  5
E7
102
{ACAD_REACTORS
330
E6
102
}
330
E6
100
AcDbXrecord
280
     1
102
RTVSPropertyOp0
 70
     1
102
RTVSPropertyOp1
 70
     1
102
RTVSPropertyOp2
 70
     1
102
RTVSPropertyOp3
 70
     1
102
RTVSPropertyOp4
 70
     1
102
RTVSPropertyOp5
 70
     1
102
RTVSPropertyOp6
 70
     1
102
RTVSPropertyOp7
 70
     1
102
RTVSPropertyOp8
 70
     1
102
RTVSPropertyOp9
 70
     1
102
RTVSPropertyOp10
 70
     1
102
RTVSPropertyOp11
 70
     1
102
RTVSPropertyOp12
 70
     1
102
RTVSPropertyOp13
 70
     1
102
RTVSPropertyOp14
 70
     1
102
RTVSPropertyOp15
 70
     1
102
RTVSPropertyOp16
 70
     1
102
RTVSPropertyOp17
 70
     1
102
RTVSPropertyOp18
 70
     1
102
RTVSPropertyOp19
 70
     1
102
RTVSPropertyOp20
 70
     1
102
RTVSPropertyOp21
 70
     1
102
RTVSPropertyOp22
 70
     1
102
RTVSPropertyOp23
 70
     1
102
RTVSPropertyOp24
 70
     1
102
RTVSPropertyOp25
 70
     1
102
RTVSPropertyOp26
 70
     1
102
RTVSPropertyOp27
 70
     1
102
RTVSPropertyOp28
 70
     1
102
RTVSPropertyOp29
 70
     1
102
RTVSPropertyOp30
 70
     1
102
RTVSPropertyOp31
 70
     1
102
RTVSPropertyOp32
 70
     1
102
RTVSPropertyOp33
 70
     1
102
RTVSPropertyOp34
 70
     1
102
RTVSPropertyOp35
 70
     1
102
RTVSPropertyOp36
 70
     1
102
RTVSPropertyOp37
 70
     1
102
RTVSPropertyOp38
 70
     1
102
RTVSPropertyOp39
 70
     1
102
RTVSPropertyOp40
 70
     1
102
RTVSPropertyOp41
 70
     1
102
RTVSPropertyOp42
 70
     1
102
RTVSPropertyOp43
 70
     1
102
RTVSPropertyOp44
 70
     1
102
RTVSPropertyOp45
 70
     1
102
RTVSPropertyOp46
 70
     1
102
RTVSPropertyOp47
 70
     1
102
RTVSPropertyOp48
 70
     1
102
RTVSPropertyOp49
 70
     1
102
RTVSPropertyOp50
 70
     1
102
RTVSPropertyOp51
 70
     0
102
RTVSPropertyOp52
 70
     0
102
RTVSPropertyOp53
 70
     1
102
RTVSPropertyOp54
 70
     1
102
RTVSPropertyOp55
 70
     1
102
RTVSPropertyOp56
 70
     1
102
RTVSPropertyOp57
 70
     1
102
RTVSPost2010Prop28
280
     0
102
RTVSPost2010PropOp28
 70
     1
102
RTVSPost2010Prop29
280
     1
102
RTVSPost2010PropOp29
 70
     1
102
RTVSPost2010Prop30
280
     1
102
RTVSPost2010PropOp30
 70
     1
102
RTVSPost2010Prop31
280
     0
102
RTVSPost2010PropOp31
 70
     1
102
RTVSPost2010Prop32
280
     0
102
RTVSPost2010PropOp32
 70
     1
102
RTVSPost2010Prop33
280
     0
102
RTVSPost2010PropOp33
 70
     1
102
RTVSPost2010Prop34
280
     0
102
RTVSPost2010PropOp34
 70
     1
102
RTVSPost2010Prop35
280
     0
102
RTVSPost2010PropOp35
 70
     1
102
RTVSPost2010Prop36
280
     0
102
RTVSPost2010PropOp36
 70
     1
102
RTVSPost2010Prop37
 90
       50
102
RTVSPost2010PropOp37
 70
     1
102
RTVSPost2010Prop38
140
0.0
102
RTVSPost2010PropOp38
 70
     1
102
RTVSPost2010Prop39
140
1.0
102
RTVSPost2010PropOp39
 70
     1
102
RTVSPost2010Prop40
 90
        0
102
RTVSPost2010PropOp40
 70
     1
102
RTVSPost2010Prop41ColorIndex
 90
       18
102
RTVSPost2010Prop41ColorRGB
 90
        0
102
RTVSPost2010PropOp41
 70
     1
102
RTVSPost2010Prop42
 90
       50
102
RTVSPost2010PropOp42
 70
     1
102
RTVSPost2010Prop43
 90
        3
102
RTVSPost2010PropOp43
 70
     1
102
RTVSPost2010Prop44ColorIndex
 90
        5
102
RTVSPost2010Prop44ColorRGB
 90
      255
102
RTVSPost2010PropOp44
 70
     1
102
RTVSPost2010Prop45
280
     0
102
RTVSPost2010PropOp45
 70
     1
102
RTVSPost2010Prop46
 90
       50
102
RTVSPost2010PropOp46
 70
     1
102
RTVSPost2010Prop47
 90
       50
102
RTVSPost2010PropOp47
 70
     1
102
RTVSPost2010Prop48
 90
       50
102
RTVSPost2010PropOp48
 70
     1
102
RTVSPost2010Prop49
280
     0
102
RTVSPost2010PropOp49
 70
     1
102
RTVSPost2010Prop50
 90
       50
102
RTVSPost2010PropOp50
 70
     1
102
RTVSPost2010Prop51ColorIndex
 90
      256
102
RTVSPost2010Prop51ColorRGB
 90
-16777216
102
RTVSPost2010PropOp51
 70
     0
102
RTVSPost2010Prop52
140
1.0
102
RTVSPost2010PropOp52
 70
     0
102
RTVSPost2010Prop53
 90
        2
102
RTVSPost2010PropOp53
 70
     1
102
RTVSPost2010Prop54
  1
strokes_ogs.tif
102
RTVSPost2010PropOp54
 70
     1
102
RTVSPost2010Prop55
280
     0
102
RTVSPost2010PropOp55
 70
     1
102
RTVSPost2010Prop56
140
1.0
102
RTVSPost2010PropOp56
 70
     1
102
RTVSPost2010Prop57
140
1.0
102
RTVSPost2010PropOp57
 70
     1
  0
XRECORD
  5
ED
102
{ACAD_REACTORS
330
EC
102
}
330
EC
100
AcDbXrecord
280
     1
102
RTVSPropertyOp0
 70
     1
102
RTVSPropertyOp1
 70
     1
102
RTVSPropertyOp2
 70
     1
102
RTVSPropertyOp3
 70
     1
102
RTVSPropertyOp4
 70
     1
102
RTVSPropertyOp5
 70
     1
102
RTVSPropertyOp6
 70
     1
102
RTVSPropertyOp7
 70
     1
102
RTVSPropertyOp8
 70
     1
102
RTVSPropertyOp9
 70
     1
102
RTVSPropertyOp10
 70
     1
102
RTVSPropertyOp11
 70
     1
102
RTVSPropertyOp12
 70
     1
102
RTVSPropertyOp13
 70
     1
102
RTVSPropertyOp14
 70
     1
102
RTVSPropertyOp15
 70
     1
102
RTVSPropertyOp16
 70
     1
102
RTVSPropertyOp17
 70
     1
102
RTVSPropertyOp18
 70
     1
102
RTVSPropertyOp19
 70
     1
102
RTVSPropertyOp20
 70
     1
102
RTVSPropertyOp21
 70
     1
102
RTVSPropertyOp22
 70
     1
102
RTVSPropertyOp23
 70
     1
102
RTVSPropertyOp24
 70
     1
102
RTVSPropertyOp25
 70
     1
102
RTVSPropertyOp26
 70
     1
102
RTVSPropertyOp27
 70
     1
102
RTVSPropertyOp28
 70
     1
102
RTVSPropertyOp29
 70
     1
102
RTVSPropertyOp30
 70
     1
102
RTVSPropertyOp31
 70
     1
102
RTVSPropertyOp32
 70
     1
102
RTVSPropertyOp33
 70
     1
102
RTVSPropertyOp34
 70
     1
102
RTVSPropertyOp35
 70
     1
102
RTVSPropertyOp36
 70
     1
102
RTVSPropertyOp37
 70
     1
102
RTVSPropertyOp38
 70
     1
102
RTVSPropertyOp39
 70
     1
102
RTVSPropertyOp40
 70
     1
102
RTVSPropertyOp41
 70
     1
102
RTVSPropertyOp42
 70
     1
102
RTVSPropertyOp43
 70
     1
102
RTVSPropertyOp44
 70
     1
102
RTVSPropertyOp45
 70
     1
102
RTVSPropertyOp46
 70
     1
102
RTVSPropertyOp47
 70
     1
102
RTVSPropertyOp48
 70
     1
102
RTVSPropertyOp49
 70
     1
102
RTVSPropertyOp50
 70
     1
102
RTVSPropertyOp51
 70
     0
102
RTVSPropertyOp52
 70
     0
102
RTVSPropertyOp53
 70
     1
102
RTVSPropertyOp54
 70
     1
102
RTVSPropertyOp55
 70
     1
102
RTVSPropertyOp56
 70
     1
102
RTVSPropertyOp57
 70
     1
102
RTVSPost2010Prop28
280
     0
102
RTVSPost2010PropOp28
 70
     1
102
RTVSPost2010Prop29
280
     1
102
RTVSPost2010PropOp29
 70
     1
102
RTVSPost2010Prop30
280
     1
102
RTVSPost2010PropOp30
 70
     1
102
RTVSPost2010Prop31
280
     0
102
RTVSPost2010PropOp31
 70
     1
102
RTVSPost2010Prop32
280
     0
102
RTVSPost2010PropOp32
 70
     1
102
RTVSPost2010Prop33
280
     0
102
RTVSPost2010PropOp33
 70
     1
102
RTVSPost2010Prop34
280
     0
102
RTVSPost2010PropOp34
 70
     1
102
RTVSPost2010Prop35
280
     0
102
RTVSPost2010PropOp35
 70
     1
102
RTVSPost2010Prop36
280
     0
102
RTVSPost2010PropOp36
 70
     1
102
RTVSPost2010Prop37
 90
       50
102
RTVSPost2010PropOp37
 70
     1
102
RTVSPost2010Prop38
140
0.0
102
RTVSPost2010PropOp38
 70
     1
102
RTVSPost2010Prop39
140
1.0
102
RTVSPost2010PropOp39
 70
     1
102
RTVSPost2010Prop40
 90
        0
102
RTVSPost2010PropOp40
 70
     1
102
RTVSPost2010Prop41ColorIndex
 90
       18
102
RTVSPost2010Prop41ColorRGB
 90
        0
102
RTVSPost2010PropOp41
 70
     1
102
RTVSPost2010Prop42
 90
       50
102
RTVSPost2010PropOp42
 70
     1
102
RTVSPost2010Prop43
 90
        3
102
RTVSPost2010PropOp43
 70
     1
102
RTVSPost2010Prop44ColorIndex
 90
        5
102
RTVSPost2010Prop44ColorRGB
 90
      255
102
RTVSPost2010PropOp44
 70
     1
102
RTVSPost2010Prop45
280
     0
102
RTVSPost2010PropOp45
 70
     1
102
RTVSPost2010Prop46
 90
       50
102
RTVSPost2010PropOp46
 70
     1
102
RTVSPost2010Prop47
 90
       50
102
RTVSPost2010PropOp47
 70
     1
102
RTVSPost2010Prop48
 90
       50
102
RTVSPost2010PropOp48
 70
     1
102
RTVSPost2010Prop49
280
     0
102
RTVSPost2010PropOp49
 70
     1
102
RTVSPost2010Prop50
 90
       50
102
RTVSPost2010PropOp50
 70
     1
102
RTVSPost2010Prop51ColorIndex
 90
      256
102
RTVSPost2010Prop51ColorRGB
 90
-16777216
102
RTVSPost2010PropOp51
 70
     0
102
RTVSPost2010Prop52
140
1.0
102
RTVSPost2010PropOp52
 70
     0
102
RTVSPost2010Prop53
 90
        2
102
RTVSPost2010PropOp53
 70
     1
102
RTVSPost2010Prop54
  1
strokes_ogs.tif
102
RTVSPost2010PropOp54
 70
     1
102
RTVSPost2010Prop55
280
     0
102
RTVSPost2010PropOp55
 70
     1
102
RTVSPost2010Prop56
140
1.0
102
RTVSPost2010PropOp56
 70
     1
102
RTVSPost2010Prop57
140
1.0
102
RTVSPost2010PropOp57
 70
     1
  0
XRECORD
  5
101
102
{ACAD_REACTORS
330
100
102
}
330
100
100
AcDbXrecord
280
     1
102
RTVSPropertyOp0
 70
     0
102
RTVSPropertyOp1
 70
     0
102
RTVSPropertyOp2
 70
     0
102
RTVSPropertyOp3
 70
     0
102
RTVSPropertyOp4
 70
     0
102
RTVSPropertyOp5
 70
     0
102
RTVSPropertyOp6
 70
     0
102
RTVSPropertyOp7
 70
     0
102
RTVSPropertyOp8
 70
     0
102
RTVSPropertyOp9
 70
     0
102
RTVSPropertyOp10
 70
     0
102
RTVSPropertyOp11
 70
     0
102
RTVSPropertyOp12
 70
     0
102
RTVSPropertyOp13
 70
     0
102
RTVSPropertyOp14
 70
     2
102
RTVSPropertyOp15
 70
     0
102
RTVSPropertyOp16
 70
     0
102
RTVSPropertyOp17
 70
     0
102
RTVSPropertyOp18
 70
     0
102
RTVSPropertyOp19
 70
     0
102
RTVSPropertyOp20
 70
     0
102
RTVSPropertyOp21
 70
     0
102
RTVSPropertyOp22
 70
     0
102
RTVSPropertyOp23
 70
     0
102
RTVSPropertyOp24
 70
     0
102
RTVSPropertyOp25
 70
     0
102
RTVSPropertyOp26
 70
     0
102
RTVSPropertyOp27
 70
     0
102
RTVSPropertyOp28
 70
     0
102
RTVSPropertyOp29
 70
     0
102
RTVSPropertyOp30
 70
     0
102
RTVSPropertyOp31
 70
     0
102
RTVSPropertyOp32
 70
     0
102
RTVSPropertyOp33
 70
     0
102
RTVSPropertyOp34
 70
     0
102
RTVSPropertyOp35
 70
     0
102
RTVSPropertyOp36
 70
     0
102
RTVSPropertyOp37
 70
     0
102
RTVSPropertyOp38
 70
     0
102
RTVSPropertyOp39
 70
     0
102
RTVSPropertyOp40
 70
     0
102
RTVSPropertyOp41
 70
     0
102
RTVSPropertyOp42
 70
     0
102
RTVSPropertyOp43
 70
     0
102
RTVSPropertyOp44
 70
     0
102
RTVSPropertyOp45
 70
     0
102
RTVSPropertyOp46
 70
     0
102
RTVSPropertyOp47
 70
     0
102
RTVSPropertyOp48
 70
     0
102
RTVSPropertyOp49
 70
     0
102
RTVSPropertyOp50
 70
     0
102
RTVSPropertyOp51
 70
     0
102
RTVSPropertyOp52
 70
     0
102
RTVSPropertyOp53
 70
     0
102
RTVSPropertyOp54
 70
     0
102
RTVSPropertyOp55
 70
     0
102
RTVSPropertyOp56
 70
     0
102
RTVSPropertyOp57
 70
     0
102
RTVSPost2010Prop28
280
     0
102
RTVSPost2010PropOp28
 70
     0
102
RTVSPost2010Prop29
280
     1
102
RTVSPost2010PropOp29
 70
     0
102
RTVSPost2010Prop30
280
     1
102
RTVSPost2010PropOp30
 70
     0
102
RTVSPost2010Prop31
280
     0
102
RTVSPost2010PropOp31
 70
     0
102
RTVSPost2010Prop32
280
     0
102
RTVSPost2010PropOp32
 70
     0
102
RTVSPost2010Prop33
280
     0
102
RTVSPost2010PropOp33
 70
     0
102
RTVSPost2010Prop34
280
     0
102
RTVSPost2010PropOp34
 70
     0
102
RTVSPost2010Prop35
280
     0
102
RTVSPost2010PropOp35
 70
     0
102
RTVSPost2010Prop36
280
     0
102
RTVSPost2010PropOp36
 70
     0
102
RTVSPost2010Prop37
 90
       50
102
RTVSPost2010PropOp37
 70
     0
102
RTVSPost2010Prop38
140
0.0
102
RTVSPost2010PropOp38
 70
     0
102
RTVSPost2010Prop39
140
1.0
102
RTVSPost2010PropOp39
 70
     0
102
RTVSPost2010Prop40
 90
        0
102
RTVSPost2010PropOp40
 70
     0
102
RTVSPost2010Prop41ColorIndex
 90
       18
102
RTVSPost2010Prop41ColorRGB
 90
        0
102
RTVSPost2010PropOp41
 70
     0
102
RTVSPost2010Prop42
 90
       50
102
RTVSPost2010PropOp42
 70
     0
102
RTVSPost2010Prop43
 90
        3
102
RTVSPost2010PropOp43
 70
     0
102
RTVSPost2010Prop44ColorIndex
 90
        5
102
RTVSPost2010Prop44ColorRGB
 90
      255
102
RTVSPost2010PropOp44
 70
     0
102
RTVSPost2010Prop45
280
     0
102
RTVSPost2010PropOp45
 70
     0
102
RTVSPost2010Prop46
 90
       50
102
RTVSPost2010PropOp46
 70
     0
102
RTVSPost2010Prop47
 90
       50
102
RTVSPost2010PropOp47
 70
     0
102
RTVSPost2010Prop48
 90
       50
102
RTVSPost2010PropOp48
 70
     0
102
RTVSPost2010Prop49
280
     0
102
RTVSPost2010PropOp49
 70
     0
102
RTVSPost2010Prop50
 90
       50
102
RTVSPost2010PropOp50
 70
     0
102
RTVSPost2010Prop51ColorIndex
 90
      256
102
RTVSPost2010Prop51ColorRGB
 90
-16777216
102
RTVSPost2010PropOp51
 70
     0
102
RTVSPost2010Prop52
140
1.0
102
RTVSPost2010PropOp52
 70
     0
102
RTVSPost2010Prop53
 90
        2
102
RTVSPost2010PropOp53
 70
     0
102
RTVSPost2010Prop54
  1
strokes_ogs.tif
102
RTVSPost2010PropOp54
 70
     0
102
RTVSPost2010Prop55
280
     0
102
RTVSPost2010PropOp55
 70
     0
102
RTVSPost2010Prop56
140
1.0
102
RTVSPost2010PropOp56
 70
     0
102
RTVSPost2010Prop57
140
1.0
102
RTVSPost2010PropOp57
 70
     0
  0
XRECORD
  5
FB
102
{ACAD_REACTORS
330
FA
102
}
330
FA
100
AcDbXrecord
280
     1
102
RTVSPropertyOp0
 70
     1
102
RTVSPropertyOp1
 70
     1
102
RTVSPropertyOp2
 70
     1
102
RTVSPropertyOp3
 70
     1
102
RTVSPropertyOp4
 70
     1
102
RTVSPropertyOp5
 70
     1
102
RTVSPropertyOp6
 70
     1
102
RTVSPropertyOp7
 70
     1
102
RTVSPropertyOp8
 70
     1
102
RTVSPropertyOp9
 70
     1
102
RTVSPropertyOp10
 70
     1
102
RTVSPropertyOp11
 70
     1
102
RTVSPropertyOp12
 70
     1
102
RTVSPropertyOp13
 70
     1
102
RTVSPropertyOp14
 70
     1
102
RTVSPropertyOp15
 70
     1
102
RTVSPropertyOp16
 70
     1
102
RTVSPropertyOp17
 70
     1
102
RTVSPropertyOp18
 70
     1
102
RTVSPropertyOp19
 70
     1
102
RTVSPropertyOp20
 70
     1
102
RTVSPropertyOp21
 70
     1
102
RTVSPropertyOp22
 70
     1
102
RTVSPropertyOp23
 70
     1
102
RTVSPropertyOp24
 70
     1
102
RTVSPropertyOp25
 70
     1
102
RTVSPropertyOp26
 70
     1
102
RTVSPropertyOp27
 70
     1
102
RTVSPropertyOp28
 70
     1
102
RTVSPropertyOp29
 70
     1
102
RTVSPropertyOp30
 70
     1
102
RTVSPropertyOp31
 70
     1
102
RTVSPropertyOp32
 70
     1
102
RTVSPropertyOp33
 70
     1
102
RTVSPropertyOp34
 70
     1
102
RTVSPropertyOp35
 70
     1
102
RTVSPropertyOp36
 70
     1
102
RTVSPropertyOp37
 70
     1
102
RTVSPropertyOp38
 70
     1
102
RTVSPropertyOp39
 70
     1
102
RTVSPropertyOp40
 70
     1
102
RTVSPropertyOp41
 70
     1
102
RTVSPropertyOp42
 70
     1
102
RTVSPropertyOp43
 70
     1
102
RTVSPropertyOp44
 70
     1
102
RTVSPropertyOp45
 70
     1
102
RTVSPropertyOp46
 70
     1
102
RTVSPropertyOp47
 70
     1
102
RTVSPropertyOp48
 70
     1
102
RTVSPropertyOp49
 70
     1
102
RTVSPropertyOp50
 70
     1
102
RTVSPropertyOp51
 70
     0
102
RTVSPropertyOp52
 70
     0
102
RTVSPropertyOp53
 70
     1
102
RTVSPropertyOp54
 70
     1
102
RTVSPropertyOp55
 70
     1
102
RTVSPropertyOp56
 70
     1
102
RTVSPropertyOp57
 70
     1
102
RTVSPost2010Prop28
280
     0
102
RTVSPost2010PropOp28
 70
     1
102
RTVSPost2010Prop29
280
     1
102
RTVSPost2010PropOp29
 70
     1
102
RTVSPost2010Prop30
280
     1
102
RTVSPost2010PropOp30
 70
     1
102
RTVSPost2010Prop31
280
     0
102
RTVSPost2010PropOp31
 70
     1
102
RTVSPost2010Prop32
280
     0
102
RTVSPost2010PropOp32
 70
     1
102
RTVSPost2010Prop33
280
     0
102
RTVSPost2010PropOp33
 70
     1
102
RTVSPost2010Prop34
280
     0
102
RTVSPost2010PropOp34
 70
     1
102
RTVSPost2010Prop35
280
     0
102
RTVSPost2010PropOp35
 70
     1
102
RTVSPost2010Prop36
280
     0
102
RTVSPost2010PropOp36
 70
     1
102
RTVSPost2010Prop37
 90
       50
102
RTVSPost2010PropOp37
 70
     1
102
RTVSPost2010Prop38
140
0.0
102
RTVSPost2010PropOp38
 70
     1
102
RTVSPost2010Prop39
140
1.0
102
RTVSPost2010PropOp39
 70
     1
102
RTVSPost2010Prop40
 90
        0
102
RTVSPost2010PropOp40
 70
     1
102
RTVSPost2010Prop41ColorIndex
 90
       18
102
RTVSPost2010Prop41ColorRGB
 90
        0
102
RTVSPost2010PropOp41
 70
     1
102
RTVSPost2010Prop42
 90
       50
102
RTVSPost2010PropOp42
 70
     1
102
RTVSPost2010Prop43
 90
        3
102
RTVSPost2010PropOp43
 70
     1
102
RTVSPost2010Prop44ColorIndex
 90
        5
102
RTVSPost2010Prop44ColorRGB
 90
      255
102
RTVSPost2010PropOp44
 70
     1
102
RTVSPost2010Prop45
280
     0
102
RTVSPost2010PropOp45
 70
     1
102
RTVSPost2010Prop46
 90
       50
102
RTVSPost2010PropOp46
 70
     1
102
RTVSPost2010Prop47
 90
       50
102
RTVSPost2010PropOp47
 70
     1
102
RTVSPost2010Prop48
 90
       50
102
RTVSPost2010PropOp48
 70
     1
102
RTVSPost2010Prop49
280
     0
102
RTVSPost2010PropOp49
 70
     1
102
RTVSPost2010Prop50
 90
       50
102
RTVSPost2010PropOp50
 70
     1
102
RTVSPost2010Prop51ColorIndex
 90
      256
102
RTVSPost2010Prop51ColorRGB
 90
-16777216
102
RTVSPost2010PropOp51
 70
     0
102
RTVSPost2010Prop52
140
1.0
102
RTVSPost2010PropOp52
 70
     0
102
RTVSPost2010Prop53
 90
        2
102
RTVSPost2010PropOp53
 70
     1
102
RTVSPost2010Prop54
  1
strokes_ogs.tif
102
RTVSPost2010PropOp54
 70
     1
102
RTVSPost2010Prop55
280
     0
102
RTVSPost2010PropOp55
 70
     1
102
RTVSPost2010Prop56
140
1.0
102
RTVSPost2010PropOp56
 70
     1
102
RTVSPost2010Prop57
140
1.0
102
RTVSPost2010PropOp57
 70
     1
  0
XRECORD
  5
103
102
{ACAD_REACTORS
330
102
102
}
330
102
100
AcDbXrecord
280
     1
102
RTVSPropertyOp0
 70
     0
102
RTVSPropertyOp1
 70
     0
102
RTVSPropertyOp2
 70
     0
102
RTVSPropertyOp3
 70
     0
102
RTVSPropertyOp4
 70
     0
102
RTVSPropertyOp5
 70
     0
102
RTVSPropertyOp6
 70
     0
102
RTVSPropertyOp7
 70
     0
102
RTVSPropertyOp8
 70
     0
102
RTVSPropertyOp9
 70
     0
102
RTVSPropertyOp10
 70
     0
102
RTVSPropertyOp11
 70
     0
102
RTVSPropertyOp12
 70
     0
102
RTVSPropertyOp13
 70
     0
102
RTVSPropertyOp14
 70
     2
102
RTVSPropertyOp15
 70
     0
102
RTVSPropertyOp16
 70
     0
102
RTVSPropertyOp17
 70
     0
102
RTVSPropertyOp18
 70
     0
102
RTVSPropertyOp19
 70
     0
102
RTVSPropertyOp20
 70
     0
102
RTVSPropertyOp21
 70
     0
102
RTVSPropertyOp22
 70
     0
102
RTVSPropertyOp23
 70
     0
102
RTVSPropertyOp24
 70
     0
102
RTVSPropertyOp25
 70
     0
102
RTVSPropertyOp26
 70
     0
102
RTVSPropertyOp27
 70
     0
102
RTVSPropertyOp28
 70
     0
102
RTVSPropertyOp29
 70
     0
102
RTVSPropertyOp30
 70
     0
102
RTVSPropertyOp31
 70
     0
102
RTVSPropertyOp32
 70
     0
102
RTVSPropertyOp33
 70
     0
102
RTVSPropertyOp34
 70
     0
102
RTVSPropertyOp35
 70
     0
102
RTVSPropertyOp36
 70
     0
102
RTVSPropertyOp37
 70
     0
102
RTVSPropertyOp38
 70
     0
102
RTVSPropertyOp39
 70
     0
102
RTVSPropertyOp40
 70
     0
102
RTVSPropertyOp41
 70
     0
102
RTVSPropertyOp42
 70
     0
102
RTVSPropertyOp43
 70
     0
102
RTVSPropertyOp44
 70
     0
102
RTVSPropertyOp45
 70
     0
102
RTVSPropertyOp46
 70
     0
102
RTVSPropertyOp47
 70
     0
102
RTVSPropertyOp48
 70
     0
102
RTVSPropertyOp49
 70
     0
102
RTVSPropertyOp50
 70
     0
102
RTVSPropertyOp51
 70
     0
102
RTVSPropertyOp52
 70
     0
102
RTVSPropertyOp53
 70
     0
102
RTVSPropertyOp54
 70
     0
102
RTVSPropertyOp55
 70
     0
102
RTVSPropertyOp56
 70
     0
102
RTVSPropertyOp57
 70
     0
102
RTVSPost2010Prop28
280
     0
102
RTVSPost2010PropOp28
 70
     0
102
RTVSPost2010Prop29
280
     1
102
RTVSPost2010PropOp29
 70
     0
102
RTVSPost2010Prop30
280
     1
102
RTVSPost2010PropOp30
 70
     0
102
RTVSPost2010Prop31
280
     0
102
RTVSPost2010PropOp31
 70
     0
102
RTVSPost2010Prop32
280
     0
102
RTVSPost2010PropOp32
 70
     0
102
RTVSPost2010Prop33
280
     0
102
RTVSPost2010PropOp33
 70
     0
102
RTVSPost2010Prop34
280
     0
102
RTVSPost2010PropOp34
 70
     0
102
RTVSPost2010Prop35
280
     0
102
RTVSPost2010PropOp35
 70
     0
102
RTVSPost2010Prop36
280
     0
102
RTVSPost2010PropOp36
 70
     0
102
RTVSPost2010Prop37
 90
       50
102
RTVSPost2010PropOp37
 70
     0
102
RTVSPost2010Prop38
140
0.0
102
RTVSPost2010PropOp38
 70
     0
102
RTVSPost2010Prop39
140
1.0
102
RTVSPost2010PropOp39
 70
     0
102
RTVSPost2010Prop40
 90
        0
102
RTVSPost2010PropOp40
 70
     0
102
RTVSPost2010Prop41ColorIndex
 90
       18
102
RTVSPost2010Prop41ColorRGB
 90
        0
102
RTVSPost2010PropOp41
 70
     0
102
RTVSPost2010Prop42
 90
       50
102
RTVSPost2010PropOp42
 70
     0
102
RTVSPost2010Prop43
 90
        3
102
RTVSPost2010PropOp43
 70
     0
102
RTVSPost2010Prop44ColorIndex
 90
        5
102
RTVSPost2010Prop44ColorRGB
 90
      255
102
RTVSPost2010PropOp44
 70
     0
102
RTVSPost2010Prop45
280
     0
102
RTVSPost2010PropOp45
 70
     0
102
RTVSPost2010Prop46
 90
       50
102
RTVSPost2010PropOp46
 70
     0
102
RTVSPost2010Prop47
 90
       50
102
RTVSPost2010PropOp47
 70
     0
102
RTVSPost2010Prop48
 90
       50
102
RTVSPost2010PropOp48
 70
     0
102
RTVSPost2010Prop49
280
     0
102
RTVSPost2010PropOp49
 70
     0
102
RTVSPost2010Prop50
 90
       50
102
RTVSPost2010PropOp50
 70
     0
102
RTVSPost2010Prop51ColorIndex
 90
      256
102
RTVSPost2010Prop51ColorRGB
 90
-16777216
102
RTVSPost2010PropOp51
 70
     0
102
RTVSPost2010Prop52
140
1.0
102
RTVSPost2010PropOp52
 70
     0
102
RTVSPost2010Prop53
 90
        2
102
RTVSPost2010PropOp53
 70
     0
102
RTVSPost2010Prop54
  1
strokes_ogs.tif
102
RTVSPost2010PropOp54
 70
     0
102
RTVSPost2010Prop55
280
     0
102
RTVSPost2010PropOp55
 70
     0
102
RTVSPost2010Prop56
140
1.0
102
RTVSPost2010PropOp56
 70
     0
102
RTVSPost2010Prop57
140
1.0
102
RTVSPost2010PropOp57
 70
     0
  0
XRECORD
  5
F1
102
{ACAD_REACTORS
330
F0
102
}
330
F0
100
AcDbXrecord
280
     1
102
RTVSPropertyOp0
 70
     1
102
RTVSPropertyOp1
 70
     1
102
RTVSPropertyOp2
 70
     1
102
RTVSPropertyOp3
 70
     1
102
RTVSPropertyOp4
 70
     1
102
RTVSPropertyOp5
 70
     1
102
RTVSPropertyOp6
 70
     1
102
RTVSPropertyOp7
 70
     1
102
RTVSPropertyOp8
 70
     1
102
RTVSPropertyOp9
 70
     1
102
RTVSPropertyOp10
 70
     1
102
RTVSPropertyOp11
 70
     1
102
RTVSPropertyOp12
 70
     1
102
RTVSPropertyOp13
 70
     1
102
RTVSPropertyOp14
 70
     1
102
RTVSPropertyOp15
 70
     1
102
RTVSPropertyOp16
 70
     1
102
RTVSPropertyOp17
 70
     1
102
RTVSPropertyOp18
 70
     1
102
RTVSPropertyOp19
 70
     1
102
RTVSPropertyOp20
 70
     1
102
RTVSPropertyOp21
 70
     1
102
RTVSPropertyOp22
 70
     1
102
RTVSPropertyOp23
 70
     1
102
RTVSPropertyOp24
 70
     1
102
RTVSPropertyOp25
 70
     1
102
RTVSPropertyOp26
 70
     1
102
RTVSPropertyOp27
 70
     1
102
RTVSPropertyOp28
 70
     1
102
RTVSPropertyOp29
 70
     1
102
RTVSPropertyOp30
 70
     1
102
RTVSPropertyOp31
 70
     1
102
RTVSPropertyOp32
 70
     1
102
RTVSPropertyOp33
 70
     1
102
RTVSPropertyOp34
 70
     1
102
RTVSPropertyOp35
 70
     1
102
RTVSPropertyOp36
 70
     1
102
RTVSPropertyOp37
 70
     1
102
RTVSPropertyOp38
 70
     1
102
RTVSPropertyOp39
 70
     1
102
RTVSPropertyOp40
 70
     1
102
RTVSPropertyOp41
 70
     1
102
RTVSPropertyOp42
 70
     1
102
RTVSPropertyOp43
 70
     1
102
RTVSPropertyOp44
 70
     1
102
RTVSPropertyOp45
 70
     1
102
RTVSPropertyOp46
 70
     1
102
RTVSPropertyOp47
 70
     1
102
RTVSPropertyOp48
 70
     1
102
RTVSPropertyOp49
 70
     1
102
RTVSPropertyOp50
 70
     1
102
RTVSPropertyOp51
 70
     0
102
RTVSPropertyOp52
 70
     0
102
RTVSPropertyOp53
 70
     1
102
RTVSPropertyOp54
 70
     1
102
RTVSPropertyOp55
 70
     1
102
RTVSPropertyOp56
 70
     1
102
RTVSPropertyOp57
 70
     1
102
RTVSPost2010Prop28
280
     0
102
RTVSPost2010PropOp28
 70
     1
102
RTVSPost2010Prop29
280
     1
102
RTVSPost2010PropOp29
 70
     1
102
RTVSPost2010Prop30
280
     1
102
RTVSPost2010PropOp30
 70
     1
102
RTVSPost2010Prop31
280
     0
102
RTVSPost2010PropOp31
 70
     1
102
RTVSPost2010Prop32
280
     0
102
RTVSPost2010PropOp32
 70
     1
102
RTVSPost2010Prop33
280
     0
102
RTVSPost2010PropOp33
 70
     1
102
RTVSPost2010Prop34
280
     0
102
RTVSPost2010PropOp34
 70
     1
102
RTVSPost2010Prop35
280
     0
102
RTVSPost2010PropOp35
 70
     1
102
RTVSPost2010Prop36
280
     0
102
RTVSPost2010PropOp36
 70
     1
102
RTVSPost2010Prop37
 90
       50
102
RTVSPost2010PropOp37
 70
     1
102
RTVSPost2010Prop38
140
0.0
102
RTVSPost2010PropOp38
 70
     1
102
RTVSPost2010Prop39
140
1.0
102
RTVSPost2010PropOp39
 70
     1
102
RTVSPost2010Prop40
 90
        0
102
RTVSPost2010PropOp40
 70
     1
102
RTVSPost2010Prop41ColorIndex
 90
       18
102
RTVSPost2010Prop41ColorRGB
 90
        0
102
RTVSPost2010PropOp41
 70
     1
102
RTVSPost2010Prop42
 90
       50
102
RTVSPost2010PropOp42
 70
     1
102
RTVSPost2010Prop43
 90
        3
102
RTVSPost2010PropOp43
 70
     1
102
RTVSPost2010Prop44ColorIndex
 90
        5
102
RTVSPost2010Prop44ColorRGB
 90
      255
102
RTVSPost2010PropOp44
 70
     1
102
RTVSPost2010Prop45
280
     0
102
RTVSPost2010PropOp45
 70
     1
102
RTVSPost2010Prop46
 90
       50
102
RTVSPost2010PropOp46
 70
     1
102
RTVSPost2010Prop47
 90
       50
102
RTVSPost2010PropOp47
 70
     1
102
RTVSPost2010Prop48
 90
       50
102
RTVSPost2010PropOp48
 70
     1
102
RTVSPost2010Prop49
280
     0
102
RTVSPost2010PropOp49
 70
     1
102
RTVSPost2010Prop50
 90
       50
102
RTVSPost2010PropOp50
 70
     1
102
RTVSPost2010Prop51ColorIndex
 90
      256
102
RTVSPost2010Prop51ColorRGB
 90
-16777216
102
RTVSPost2010PropOp51
 70
     0
102
RTVSPost2010Prop52
140
1.0
102
RTVSPost2010PropOp52
 70
     0
102
RTVSPost2010Prop53
 90
        2
102
RTVSPost2010PropOp53
 70
     1
102
RTVSPost2010Prop54
  1
strokes_ogs.tif
102
RTVSPost2010PropOp54
 70
     1
102
RTVSPost2010Prop55
280
     0
102
RTVSPost2010PropOp55
 70
     1
102
RTVSPost2010Prop56
140
1.0
102
RTVSPost2010PropOp56
 70
     1
102
RTVSPost2010Prop57
140
1.0
102
RTVSPost2010PropOp57
 70
     1
  0
XRECORD
  5
10F
102
{ACAD_REACTORS
330
10E
102
}
330
10E
100
AcDbXrecord
280
     1
102
RTVSPropertyOp0
 70
     1
102
RTVSPropertyOp1
 70
     1
102
RTVSPropertyOp2
 70
     1
102
RTVSPropertyOp3
 70
     1
102
RTVSPropertyOp4
 70
     1
102
RTVSPropertyOp5
 70
     1
102
RTVSPropertyOp6
 70
     1
102
RTVSPropertyOp7
 70
     1
102
RTVSPropertyOp8
 70
     1
102
RTVSPropertyOp9
 70
     1
102
RTVSPropertyOp10
 70
     1
102
RTVSPropertyOp11
 70
     1
102
RTVSPropertyOp12
 70
     1
102
RTVSPropertyOp13
 70
     1
102
RTVSPropertyOp14
 70
     1
102
RTVSPropertyOp15
 70
     1
102
RTVSPropertyOp16
 70
     1
102
RTVSPropertyOp17
 70
     1
102
RTVSPropertyOp18
 70
     1
102
RTVSPropertyOp19
 70
     1
102
RTVSPropertyOp20
 70
     1
102
RTVSPropertyOp21
 70
     1
102
RTVSPropertyOp22
 70
     1
102
RTVSPropertyOp23
 70
     1
102
RTVSPropertyOp24
 70
     1
102
RTVSPropertyOp25
 70
     1
102
RTVSPropertyOp26
 70
     1
102
RTVSPropertyOp27
 70
     1
102
RTVSPropertyOp28
 70
     1
102
RTVSPropertyOp29
 70
     1
102
RTVSPropertyOp30
 70
     1
102
RTVSPropertyOp31
 70
     1
102
RTVSPropertyOp32
 70
     1
102
RTVSPropertyOp33
 70
     1
102
RTVSPropertyOp34
 70
     1
102
RTVSPropertyOp35
 70
     1
102
RTVSPropertyOp36
 70
     1
102
RTVSPropertyOp37
 70
     1
102
RTVSPropertyOp38
 70
     1
102
RTVSPropertyOp39
 70
     1
102
RTVSPropertyOp40
 70
     1
102
RTVSPropertyOp41
 70
     1
102
RTVSPropertyOp42
 70
     1
102
RTVSPropertyOp43
 70
     1
102
RTVSPropertyOp44
 70
     1
102
RTVSPropertyOp45
 70
     1
102
RTVSPropertyOp46
 70
     1
102
RTVSPropertyOp47
 70
     1
102
RTVSPropertyOp48
 70
     1
102
RTVSPropertyOp49
 70
     1
102
RTVSPropertyOp50
 70
     1
102
RTVSPropertyOp51
 70
     0
102
RTVSPropertyOp52
 70
     0
102
RTVSPropertyOp53
 70
     1
102
RTVSPropertyOp54
 70
     1
102
RTVSPropertyOp55
 70
     1
102
RTVSPropertyOp56
 70
     1
102
RTVSPropertyOp57
 70
     1
102
RTVSPost2010Prop28
280
     0
102
RTVSPost2010PropOp28
 70
     1
102
RTVSPost2010Prop29
280
     1
102
RTVSPost2010PropOp29
 70
     1
102
RTVSPost2010Prop30
280
     1
102
RTVSPost2010PropOp30
 70
     1
102
RTVSPost2010Prop31
280
     0
102
RTVSPost2010PropOp31
 70
     1
102
RTVSPost2010Prop32
280
     0
102
RTVSPost2010PropOp32
 70
     1
102
RTVSPost2010Prop33
280
     0
102
RTVSPost2010PropOp33
 70
     1
102
RTVSPost2010Prop34
280
     0
102
RTVSPost2010PropOp34
 70
     1
102
RTVSPost2010Prop35
280
     0
102
RTVSPost2010PropOp35
 70
     1
102
RTVSPost2010Prop36
280
     0
102
RTVSPost2010PropOp36
 70
     1
102
RTVSPost2010Prop37
 90
       50
102
RTVSPost2010PropOp37
 70
     1
102
RTVSPost2010Prop38
140
0.0
102
RTVSPost2010PropOp38
 70
     1
102
RTVSPost2010Prop39
140
1.0
102
RTVSPost2010PropOp39
 70
     1
102
RTVSPost2010Prop40
 90
        0
102
RTVSPost2010PropOp40
 70
     1
102
RTVSPost2010Prop41ColorIndex
 90
       18
102
RTVSPost2010Prop41ColorRGB
 90
        0
102
RTVSPost2010PropOp41
 70
     1
102
RTVSPost2010Prop42
 90
       50
102
RTVSPost2010PropOp42
 70
     1
102
RTVSPost2010Prop43
 90
        3
102
RTVSPost2010PropOp43
 70
     1
102
RTVSPost2010Prop44ColorIndex
 90
        5
102
RTVSPost2010Prop44ColorRGB
 90
      255
102
RTVSPost2010PropOp44
 70
     1
102
RTVSPost2010Prop45
280
     0
102
RTVSPost2010PropOp45
 70
     1
102
RTVSPost2010Prop46
 90
       50
102
RTVSPost2010PropOp46
 70
     1
102
RTVSPost2010Prop47
 90
       50
102
RTVSPost2010PropOp47
 70
     1
102
RTVSPost2010Prop48
 90
       50
102
RTVSPost2010PropOp48
 70
     1
102
RTVSPost2010Prop49
280
     0
102
RTVSPost2010PropOp49
 70
     1
102
RTVSPost2010Prop50
 90
       50
102
RTVSPost2010PropOp50
 70
     1
102
RTVSPost2010Prop51ColorIndex
 90
      256
102
RTVSPost2010Prop51ColorRGB
 90
-16777216
102
RTVSPost2010PropOp51
 70
     0
102
RTVSPost2010Prop52
140
1.0
102
RTVSPost2010PropOp52
 70
     0
102
RTVSPost2010Prop53
 90
        2
102
RTVSPost2010PropOp53
 70
     1
102
RTVSPost2010Prop54
  1
strokes_ogs.tif
102
RTVSPost2010PropOp54
 70
     1
102
RTVSPost2010Prop55
280
     0
102
RTVSPost2010PropOp55
 70
     1
102
RTVSPost2010Prop56
140
1.0
102
RTVSPost2010PropOp56
 70
     1
102
RTVSPost2010Prop57
140
1.0
102
RTVSPost2010PropOp57
 70
     1
  0
XRECORD
  5
10D
102
{ACAD_REACTORS
330
10C
102
}
330
10C
100
AcDbXrecord
280
     1
102
RTVSPropertyOp0
 70
     1
102
RTVSPropertyOp1
 70
     1
102
RTVSPropertyOp2
 70
     1
102
RTVSPropertyOp3
 70
     1
102
RTVSPropertyOp4
 70
     1
102
RTVSPropertyOp5
 70
     1
102
RTVSPropertyOp6
 70
     1
102
RTVSPropertyOp7
 70
     1
102
RTVSPropertyOp8
 70
     1
102
RTVSPropertyOp9
 70
     1
102
RTVSPropertyOp10
 70
     1
102
RTVSPropertyOp11
 70
     1
102
RTVSPropertyOp12
 70
     1
102
RTVSPropertyOp13
 70
     1
102
RTVSPropertyOp14
 70
     1
102
RTVSPropertyOp15
 70
     1
102
RTVSPropertyOp16
 70
     1
102
RTVSPropertyOp17
 70
     1
102
RTVSPropertyOp18
 70
     1
102
RTVSPropertyOp19
 70
     1
102
RTVSPropertyOp20
 70
     1
102
RTVSPropertyOp21
 70
     1
102
RTVSPropertyOp22
 70
     1
102
RTVSPropertyOp23
 70
     1
102
RTVSPropertyOp24
 70
     1
102
RTVSPropertyOp25
 70
     1
102
RTVSPropertyOp26
 70
     1
102
RTVSPropertyOp27
 70
     1
102
RTVSPropertyOp28
 70
     1
102
RTVSPropertyOp29
 70
     1
102
RTVSPropertyOp30
 70
     1
102
RTVSPropertyOp31
 70
     1
102
RTVSPropertyOp32
 70
     1
102
RTVSPropertyOp33
 70
     1
102
RTVSPropertyOp34
 70
     1
102
RTVSPropertyOp35
 70
     1
102
RTVSPropertyOp36
 70
     1
102
RTVSPropertyOp37
 70
     1
102
RTVSPropertyOp38
 70
     1
102
RTVSPropertyOp39
 70
     1
102
RTVSPropertyOp40
 70
     1
102
RTVSPropertyOp41
 70
     1
102
RTVSPropertyOp42
 70
     1
102
RTVSPropertyOp43
 70
     1
102
RTVSPropertyOp44
 70
     1
102
RTVSPropertyOp45
 70
     1
102
RTVSPropertyOp46
 70
     1
102
RTVSPropertyOp47
 70
     1
102
RTVSPropertyOp48
 70
     1
102
RTVSPropertyOp49
 70
     1
102
RTVSPropertyOp50
 70
     1
102
RTVSPropertyOp51
 70
     0
102
RTVSPropertyOp52
 70
     0
102
RTVSPropertyOp53
 70
     1
102
RTVSPropertyOp54
 70
     1
102
RTVSPropertyOp55
 70
     1
102
RTVSPropertyOp56
 70
     1
102
RTVSPropertyOp57
 70
     1
102
RTVSPost2010Prop28
280
     0
102
RTVSPost2010PropOp28
 70
     1
102
RTVSPost2010Prop29
280
     1
102
RTVSPost2010PropOp29
 70
     1
102
RTVSPost2010Prop30
280
     1
102
RTVSPost2010PropOp30
 70
     1
102
RTVSPost2010Prop31
280
     0
102
RTVSPost2010PropOp31
 70
     1
102
RTVSPost2010Prop32
280
     0
102
RTVSPost2010PropOp32
 70
     1
102
RTVSPost2010Prop33
280
     0
102
RTVSPost2010PropOp33
 70
     1
102
RTVSPost2010Prop34
280
     0
102
RTVSPost2010PropOp34
 70
     1
102
RTVSPost2010Prop35
280
     0
102
RTVSPost2010PropOp35
 70
     1
102
RTVSPost2010Prop36
280
     0
102
RTVSPost2010PropOp36
 70
     1
102
RTVSPost2010Prop37
 90
       50
102
RTVSPost2010PropOp37
 70
     1
102
RTVSPost2010Prop38
140
0.0
102
RTVSPost2010PropOp38
 70
     1
102
RTVSPost2010Prop39
140
1.0
102
RTVSPost2010PropOp39
 70
     1
102
RTVSPost2010Prop40
 90
        0
102
RTVSPost2010PropOp40
 70
     1
102
RTVSPost2010Prop41ColorIndex
 90
       18
102
RTVSPost2010Prop41ColorRGB
 90
        0
102
RTVSPost2010PropOp41
 70
     1
102
RTVSPost2010Prop42
 90
       50
102
RTVSPost2010PropOp42
 70
     1
102
RTVSPost2010Prop43
 90
        3
102
RTVSPost2010PropOp43
 70
     1
102
RTVSPost2010Prop44ColorIndex
 90
        5
102
RTVSPost2010Prop44ColorRGB
 90
      255
102
RTVSPost2010PropOp44
 70
     1
102
RTVSPost2010Prop45
280
     0
102
RTVSPost2010PropOp45
 70
     1
102
RTVSPost2010Prop46
 90
       50
102
RTVSPost2010PropOp46
 70
     1
102
RTVSPost2010Prop47
 90
       50
102
RTVSPost2010PropOp47
 70
     1
102
RTVSPost2010Prop48
 90
       50
102
RTVSPost2010PropOp48
 70
     1
102
RTVSPost2010Prop49
280
     0
102
RTVSPost2010PropOp49
 70
     1
102
RTVSPost2010Prop50
 90
       50
102
RTVSPost2010PropOp50
 70
     1
102
RTVSPost2010Prop51ColorIndex
 90
      256
102
RTVSPost2010Prop51ColorRGB
 90
-16777216
102
RTVSPost2010PropOp51
 70
     0
102
RTVSPost2010Prop52
140
1.0
102
RTVSPost2010PropOp52
 70
     0
102
RTVSPost2010Prop53
 90
        2
102
RTVSPost2010PropOp53
 70
     1
102
RTVSPost2010Prop54
  1
strokes_ogs.tif
102
RTVSPost2010PropOp54
 70
     1
102
RTVSPost2010Prop55
280
     0
102
RTVSPost2010PropOp55
 70
     1
102
RTVSPost2010Prop56
140
1.0
102
RTVSPost2010PropOp56
 70
     1
102
RTVSPost2010Prop57
140
1.0
102
RTVSPost2010PropOp57
 70
     1
  0
XRECORD
  5
107
102
{ACAD_REACTORS
330
106
102
}
330
106
100
AcDbXrecord
280
     1
102
RTVSPropertyOp0
 70
     1
102
RTVSPropertyOp1
 70
     1
102
RTVSPropertyOp2
 70
     1
102
RTVSPropertyOp3
 70
     1
102
RTVSPropertyOp4
 70
     1
102
RTVSPropertyOp5
 70
     1
102
RTVSPropertyOp6
 70
     1
102
RTVSPropertyOp7
 70
     1
102
RTVSPropertyOp8
 70
     1
102
RTVSPropertyOp9
 70
     1
102
RTVSPropertyOp10
 70
     1
102
RTVSPropertyOp11
 70
     1
102
RTVSPropertyOp12
 70
     1
102
RTVSPropertyOp13
 70
     1
102
RTVSPropertyOp14
 70
     1
102
RTVSPropertyOp15
 70
     1
102
RTVSPropertyOp16
 70
     1
102
RTVSPropertyOp17
 70
     1
102
RTVSPropertyOp18
 70
     1
102
RTVSPropertyOp19
 70
     1
102
RTVSPropertyOp20
 70
     1
102
RTVSPropertyOp21
 70
     1
102
RTVSPropertyOp22
 70
     1
102
RTVSPropertyOp23
 70
     1
102
RTVSPropertyOp24
 70
     1
102
RTVSPropertyOp25
 70
     1
102
RTVSPropertyOp26
 70
     1
102
RTVSPropertyOp27
 70
     1
102
RTVSPropertyOp28
 70
     1
102
RTVSPropertyOp29
 70
     1
102
RTVSPropertyOp30
 70
     1
102
RTVSPropertyOp31
 70
     1
102
RTVSPropertyOp32
 70
     1
102
RTVSPropertyOp33
 70
     1
102
RTVSPropertyOp34
 70
     1
102
RTVSPropertyOp35
 70
     1
102
RTVSPropertyOp36
 70
     1
102
RTVSPropertyOp37
 70
     1
102
RTVSPropertyOp38
 70
     1
102
RTVSPropertyOp39
 70
     1
102
RTVSPropertyOp40
 70
     1
102
RTVSPropertyOp41
 70
     1
102
RTVSPropertyOp42
 70
     1
102
RTVSPropertyOp43
 70
     1
102
RTVSPropertyOp44
 70
     1
102
RTVSPropertyOp45
 70
     1
102
RTVSPropertyOp46
 70
     1
102
RTVSPropertyOp47
 70
     1
102
RTVSPropertyOp48
 70
     1
102
RTVSPropertyOp49
 70
     1
102
RTVSPropertyOp50
 70
     1
102
RTVSPropertyOp51
 70
     0
102
RTVSPropertyOp52
 70
     0
102
RTVSPropertyOp53
 70
     1
102
RTVSPropertyOp54
 70
     1
102
RTVSPropertyOp55
 70
     1
102
RTVSPropertyOp56
 70
     1
102
RTVSPropertyOp57
 70
     1
102
RTVSPost2010Prop28
280
     0
102
RTVSPost2010PropOp28
 70
     1
102
RTVSPost2010Prop29
280
     1
102
RTVSPost2010PropOp29
 70
     1
102
RTVSPost2010Prop30
280
     1
102
RTVSPost2010PropOp30
 70
     1
102
RTVSPost2010Prop31
280
     0
102
RTVSPost2010PropOp31
 70
     1
102
RTVSPost2010Prop32
280
     0
102
RTVSPost2010PropOp32
 70
     1
102
RTVSPost2010Prop33
280
     0
102
RTVSPost2010PropOp33
 70
     1
102
RTVSPost2010Prop34
280
     0
102
RTVSPost2010PropOp34
 70
     1
102
RTVSPost2010Prop35
280
     0
102
RTVSPost2010PropOp35
 70
     1
102
RTVSPost2010Prop36
280
     0
102
RTVSPost2010PropOp36
 70
     1
102
RTVSPost2010Prop37
 90
       50
102
RTVSPost2010PropOp37
 70
     1
102
RTVSPost2010Prop38
140
0.0
102
RTVSPost2010PropOp38
 70
     1
102
RTVSPost2010Prop39
140
1.0
102
RTVSPost2010PropOp39
 70
     1
102
RTVSPost2010Prop40
 90
        0
102
RTVSPost2010PropOp40
 70
     1
102
RTVSPost2010Prop41ColorIndex
 90
       18
102
RTVSPost2010Prop41ColorRGB
 90
        0
102
RTVSPost2010PropOp41
 70
     1
102
RTVSPost2010Prop42
 90
       50
102
RTVSPost2010PropOp42
 70
     1
102
RTVSPost2010Prop43
 90
        3
102
RTVSPost2010PropOp43
 70
     1
102
RTVSPost2010Prop44ColorIndex
 90
        5
102
RTVSPost2010Prop44ColorRGB
 90
      255
102
RTVSPost2010PropOp44
 70
     1
102
RTVSPost2010Prop45
280
     0
102
RTVSPost2010PropOp45
 70
     1
102
RTVSPost2010Prop46
 90
       50
102
RTVSPost2010PropOp46
 70
     1
102
RTVSPost2010Prop47
 90
       50
102
RTVSPost2010PropOp47
 70
     1
102
RTVSPost2010Prop48
 90
       50
102
RTVSPost2010PropOp48
 70
     1
102
RTVSPost2010Prop49
280
     0
102
RTVSPost2010PropOp49
 70
     1
102
RTVSPost2010Prop50
 90
       50
102
RTVSPost2010PropOp50
 70
     1
102
RTVSPost2010Prop51ColorIndex
 90
      256
102
RTVSPost2010Prop51ColorRGB
 90
-16777216
102
RTVSPost2010PropOp51
 70
     0
102
RTVSPost2010Prop52
140
1.0
102
RTVSPost2010PropOp52
 70
     0
102
RTVSPost2010Prop53
 90
        2
102
RTVSPost2010PropOp53
 70
     1
102
RTVSPost2010Prop54
  1
strokes_ogs.tif
102
RTVSPost2010PropOp54
 70
     1
102
RTVSPost2010Prop55
280
     0
102
RTVSPost2010PropOp55
 70
     1
102
RTVSPost2010Prop56
140
1.0
102
RTVSPost2010PropOp56
 70
     1
102
RTVSPost2010Prop57
140
1.0
102
RTVSPost2010PropOp57
 70
     1
  0
XRECORD
  5
109
102
{ACAD_REACTORS
330
108
102
}
330
108
100
AcDbXrecord
280
     1
102
RTVSPropertyOp0
 70
     1
102
RTVSPropertyOp1
 70
     1
102
RTVSPropertyOp2
 70
     1
102
RTVSPropertyOp3
 70
     1
102
RTVSPropertyOp4
 70
     1
102
RTVSPropertyOp5
 70
     1
102
RTVSPropertyOp6
 70
     1
102
RTVSPropertyOp7
 70
     1
102
RTVSPropertyOp8
 70
     1
102
RTVSPropertyOp9
 70
     1
102
RTVSPropertyOp10
 70
     1
102
RTVSPropertyOp11
 70
     1
102
RTVSPropertyOp12
 70
     1
102
RTVSPropertyOp13
 70
     1
102
RTVSPropertyOp14
 70
     1
102
RTVSPropertyOp15
 70
     1
102
RTVSPropertyOp16
 70
     1
102
RTVSPropertyOp17
 70
     1
102
RTVSPropertyOp18
 70
     1
102
RTVSPropertyOp19
 70
     1
102
RTVSPropertyOp20
 70
     1
102
RTVSPropertyOp21
 70
     1
102
RTVSPropertyOp22
 70
     1
102
RTVSPropertyOp23
 70
     1
102
RTVSPropertyOp24
 70
     1
102
RTVSPropertyOp25
 70
     1
102
RTVSPropertyOp26
 70
     1
102
RTVSPropertyOp27
 70
     1
102
RTVSPropertyOp28
 70
     1
102
RTVSPropertyOp29
 70
     1
102
RTVSPropertyOp30
 70
     1
102
RTVSPropertyOp31
 70
     1
102
RTVSPropertyOp32
 70
     1
102
RTVSPropertyOp33
 70
     1
102
RTVSPropertyOp34
 70
     1
102
RTVSPropertyOp35
 70
     1
102
RTVSPropertyOp36
 70
     1
102
RTVSPropertyOp37
 70
     1
102
RTVSPropertyOp38
 70
     1
102
RTVSPropertyOp39
 70
     1
102
RTVSPropertyOp40
 70
     1
102
RTVSPropertyOp41
 70
     1
102
RTVSPropertyOp42
 70
     1
102
RTVSPropertyOp43
 70
     1
102
RTVSPropertyOp44
 70
     1
102
RTVSPropertyOp45
 70
     1
102
RTVSPropertyOp46
 70
     1
102
RTVSPropertyOp47
 70
     1
102
RTVSPropertyOp48
 70
     1
102
RTVSPropertyOp49
 70
     1
102
RTVSPropertyOp50
 70
     1
102
RTVSPropertyOp51
 70
     0
102
RTVSPropertyOp52
 70
     0
102
RTVSPropertyOp53
 70
     1
102
RTVSPropertyOp54
 70
     1
102
RTVSPropertyOp55
 70
     1
102
RTVSPropertyOp56
 70
     1
102
RTVSPropertyOp57
 70
     1
102
RTVSPost2010Prop28
280
     0
102
RTVSPost2010PropOp28
 70
     1
102
RTVSPost2010Prop29
280
     1
102
RTVSPost2010PropOp29
 70
     1
102
RTVSPost2010Prop30
280
     1
102
RTVSPost2010PropOp30
 70
     1
102
RTVSPost2010Prop31
280
     0
102
RTVSPost2010PropOp31
 70
     1
102
RTVSPost2010Prop32
280
     0
102
RTVSPost2010PropOp32
 70
     1
102
RTVSPost2010Prop33
280
     0
102
RTVSPost2010PropOp33
 70
     1
102
RTVSPost2010Prop34
280
     0
102
RTVSPost2010PropOp34
 70
     1
102
RTVSPost2010Prop35
280
     0
102
RTVSPost2010PropOp35
 70
     1
102
RTVSPost2010Prop36
280
     0
102
RTVSPost2010PropOp36
 70
     1
102
RTVSPost2010Prop37
 90
       50
102
RTVSPost2010PropOp37
 70
     1
102
RTVSPost2010Prop38
140
0.0
102
RTVSPost2010PropOp38
 70
     1
102
RTVSPost2010Prop39
140
1.0
102
RTVSPost2010PropOp39
 70
     1
102
RTVSPost2010Prop40
 90
        0
102
RTVSPost2010PropOp40
 70
     1
102
RTVSPost2010Prop41ColorIndex
 90
       18
102
RTVSPost2010Prop41ColorRGB
 90
        0
102
RTVSPost2010PropOp41
 70
     1
102
RTVSPost2010Prop42
 90
       50
102
RTVSPost2010PropOp42
 70
     1
102
RTVSPost2010Prop43
 90
        3
102
RTVSPost2010PropOp43
 70
     1
102
RTVSPost2010Prop44ColorIndex
 90
        5
102
RTVSPost2010Prop44ColorRGB
 90
      255
102
RTVSPost2010PropOp44
 70
     1
102
RTVSPost2010Prop45
280
     0
102
RTVSPost2010PropOp45
 70
     1
102
RTVSPost2010Prop46
 90
       50
102
RTVSPost2010PropOp46
 70
     1
102
RTVSPost2010Prop47
 90
       50
102
RTVSPost2010PropOp47
 70
     1
102
RTVSPost2010Prop48
 90
       50
102
RTVSPost2010PropOp48
 70
     1
102
RTVSPost2010Prop49
280
     0
102
RTVSPost2010PropOp49
 70
     1
102
RTVSPost2010Prop50
 90
       50
102
RTVSPost2010PropOp50
 70
     1
102
RTVSPost2010Prop51ColorIndex
 90
      256
102
RTVSPost2010Prop51ColorRGB
 90
-16777216
102
RTVSPost2010PropOp51
 70
     0
102
RTVSPost2010Prop52
140
1.0
102
RTVSPost2010PropOp52
 70
     0
102
RTVSPost2010Prop53
 90
        2
102
RTVSPost2010PropOp53
 70
     1
102
RTVSPost2010Prop54
  1
strokes_ogs.tif
102
RTVSPost2010PropOp54
 70
     1
102
RTVSPost2010Prop55
280
     0
102
RTVSPost2010PropOp55
 70
     1
102
RTVSPost2010Prop56
140
1.0
102
RTVSPost2010PropOp56
 70
     1
102
RTVSPost2010Prop57
140
1.0
102
RTVSPost2010PropOp57
 70
     1
  0
XRECORD
  5
F9
102
{ACAD_REACTORS
330
F8
102
}
330
F8
100
AcDbXrecord
280
     1
102
RTVSPropertyOp0
 70
     1
102
RTVSPropertyOp1
 70
     1
102
RTVSPropertyOp2
 70
     1
102
RTVSPropertyOp3
 70
     1
102
RTVSPropertyOp4
 70
     1
102
RTVSPropertyOp5
 70
     1
102
RTVSPropertyOp6
 70
     1
102
RTVSPropertyOp7
 70
     1
102
RTVSPropertyOp8
 70
     1
102
RTVSPropertyOp9
 70
     1
102
RTVSPropertyOp10
 70
     1
102
RTVSPropertyOp11
 70
     1
102
RTVSPropertyOp12
 70
     1
102
RTVSPropertyOp13
 70
     1
102
RTVSPropertyOp14
 70
     1
102
RTVSPropertyOp15
 70
     1
102
RTVSPropertyOp16
 70
     1
102
RTVSPropertyOp17
 70
     1
102
RTVSPropertyOp18
 70
     1
102
RTVSPropertyOp19
 70
     1
102
RTVSPropertyOp20
 70
     1
102
RTVSPropertyOp21
 70
     1
102
RTVSPropertyOp22
 70
     1
102
RTVSPropertyOp23
 70
     1
102
RTVSPropertyOp24
 70
     1
102
RTVSPropertyOp25
 70
     1
102
RTVSPropertyOp26
 70
     1
102
RTVSPropertyOp27
 70
     1
102
RTVSPropertyOp28
 70
     1
102
RTVSPropertyOp29
 70
     1
102
RTVSPropertyOp30
 70
     1
102
RTVSPropertyOp31
 70
     1
102
RTVSPropertyOp32
 70
     1
102
RTVSPropertyOp33
 70
     1
102
RTVSPropertyOp34
 70
     1
102
RTVSPropertyOp35
 70
     1
102
RTVSPropertyOp36
 70
     1
102
RTVSPropertyOp37
 70
     1
102
RTVSPropertyOp38
 70
     1
102
RTVSPropertyOp39
 70
     1
102
RTVSPropertyOp40
 70
     1
102
RTVSPropertyOp41
 70
     1
102
RTVSPropertyOp42
 70
     1
102
RTVSPropertyOp43
 70
     1
102
RTVSPropertyOp44
 70
     1
102
RTVSPropertyOp45
 70
     1
102
RTVSPropertyOp46
 70
     1
102
RTVSPropertyOp47
 70
     1
102
RTVSPropertyOp48
 70
     1
102
RTVSPropertyOp49
 70
     1
102
RTVSPropertyOp50
 70
     1
102
RTVSPropertyOp51
 70
     0
102
RTVSPropertyOp52
 70
     0
102
RTVSPropertyOp53
 70
     1
102
RTVSPropertyOp54
 70
     1
102
RTVSPropertyOp55
 70
     1
102
RTVSPropertyOp56
 70
     1
102
RTVSPropertyOp57
 70
     1
102
RTVSPost2010Prop28
280
     0
102
RTVSPost2010PropOp28
 70
     1
102
RTVSPost2010Prop29
280
     1
102
RTVSPost2010PropOp29
 70
     1
102
RTVSPost2010Prop30
280
     1
102
RTVSPost2010PropOp30
 70
     1
102
RTVSPost2010Prop31
280
     0
102
RTVSPost2010PropOp31
 70
     1
102
RTVSPost2010Prop32
280
     0
102
RTVSPost2010PropOp32
 70
     1
102
RTVSPost2010Prop33
280
     0
102
RTVSPost2010PropOp33
 70
     1
102
RTVSPost2010Prop34
280
     0
102
RTVSPost2010PropOp34
 70
     1
102
RTVSPost2010Prop35
280
     0
102
RTVSPost2010PropOp35
 70
     1
102
RTVSPost2010Prop36
280
     0
102
RTVSPost2010PropOp36
 70
     1
102
RTVSPost2010Prop37
 90
       50
102
RTVSPost2010PropOp37
 70
     1
102
RTVSPost2010Prop38
140
0.0
102
RTVSPost2010PropOp38
 70
     1
102
RTVSPost2010Prop39
140
1.0
102
RTVSPost2010PropOp39
 70
     1
102
RTVSPost2010Prop40
 90
        0
102
RTVSPost2010PropOp40
 70
     1
102
RTVSPost2010Prop41ColorIndex
 90
       18
102
RTVSPost2010Prop41ColorRGB
 90
        0
102
RTVSPost2010PropOp41
 70
     1
102
RTVSPost2010Prop42
 90
       50
102
RTVSPost2010PropOp42
 70
     1
102
RTVSPost2010Prop43
 90
        3
102
RTVSPost2010PropOp43
 70
     1
102
RTVSPost2010Prop44ColorIndex
 90
        5
102
RTVSPost2010Prop44ColorRGB
 90
      255
102
RTVSPost2010PropOp44
 70
     1
102
RTVSPost2010Prop45
280
     0
102
RTVSPost2010PropOp45
 70
     1
102
RTVSPost2010Prop46
 90
       50
102
RTVSPost2010PropOp46
 70
     1
102
RTVSPost2010Prop47
 90
       50
102
RTVSPost2010PropOp47
 70
     1
102
RTVSPost2010Prop48
 90
       50
102
RTVSPost2010PropOp48
 70
     1
102
RTVSPost2010Prop49
280
     0
102
RTVSPost2010PropOp49
 70
     1
102
RTVSPost2010Prop50
 90
       50
102
RTVSPost2010PropOp50
 70
     1
102
RTVSPost2010Prop51ColorIndex
 90
      256
102
RTVSPost2010Prop51ColorRGB
 90
-16777216
102
RTVSPost2010PropOp51
 70
     0
102
RTVSPost2010Prop52
140
1.0
102
RTVSPost2010PropOp52
 70
     0
102
RTVSPost2010Prop53
 90
        2
102
RTVSPost2010PropOp53
 70
     1
102
RTVSPost2010Prop54
  1
strokes_ogs.tif
102
RTVSPost2010PropOp54
 70
     1
102
RTVSPost2010Prop55
280
     0
102
RTVSPost2010PropOp55
 70
     1
102
RTVSPost2010Prop56
140
1.0
102
RTVSPost2010PropOp56
 70
     1
102
RTVSPost2010Prop57
140
1.0
102
RTVSPost2010PropOp57
 70
     1
  0
XRECORD
  5
EB
102
{ACAD_REACTORS
330
EA
102
}
330
EA
100
AcDbXrecord
280
     1
102
RTVSPropertyOp0
 70
     1
102
RTVSPropertyOp1
 70
     1
102
RTVSPropertyOp2
 70
     1
102
RTVSPropertyOp3
 70
     1
102
RTVSPropertyOp4
 70
     1
102
RTVSPropertyOp5
 70
     1
102
RTVSPropertyOp6
 70
     1
102
RTVSPropertyOp7
 70
     1
102
RTVSPropertyOp8
 70
     1
102
RTVSPropertyOp9
 70
     1
102
RTVSPropertyOp10
 70
     1
102
RTVSPropertyOp11
 70
     1
102
RTVSPropertyOp12
 70
     1
102
RTVSPropertyOp13
 70
     1
102
RTVSPropertyOp14
 70
     1
102
RTVSPropertyOp15
 70
     1
102
RTVSPropertyOp16
 70
     1
102
RTVSPropertyOp17
 70
     1
102
RTVSPropertyOp18
 70
     1
102
RTVSPropertyOp19
 70
     1
102
RTVSPropertyOp20
 70
     1
102
RTVSPropertyOp21
 70
     1
102
RTVSPropertyOp22
 70
     1
102
RTVSPropertyOp23
 70
     1
102
RTVSPropertyOp24
 70
     1
102
RTVSPropertyOp25
 70
     1
102
RTVSPropertyOp26
 70
     1
102
RTVSPropertyOp27
 70
     1
102
RTVSPropertyOp28
 70
     1
102
RTVSPropertyOp29
 70
     1
102
RTVSPropertyOp30
 70
     1
102
RTVSPropertyOp31
 70
     1
102
RTVSPropertyOp32
 70
     1
102
RTVSPropertyOp33
 70
     1
102
RTVSPropertyOp34
 70
     1
102
RTVSPropertyOp35
 70
     1
102
RTVSPropertyOp36
 70
     1
102
RTVSPropertyOp37
 70
     1
102
RTVSPropertyOp38
 70
     1
102
RTVSPropertyOp39
 70
     1
102
RTVSPropertyOp40
 70
     1
102
RTVSPropertyOp41
 70
     1
102
RTVSPropertyOp42
 70
     1
102
RTVSPropertyOp43
 70
     1
102
RTVSPropertyOp44
 70
     1
102
RTVSPropertyOp45
 70
     1
102
RTVSPropertyOp46
 70
     1
102
RTVSPropertyOp47
 70
     1
102
RTVSPropertyOp48
 70
     1
102
RTVSPropertyOp49
 70
     1
102
RTVSPropertyOp50
 70
     1
102
RTVSPropertyOp51
 70
     0
102
RTVSPropertyOp52
 70
     0
102
RTVSPropertyOp53
 70
     1
102
RTVSPropertyOp54
 70
     1
102
RTVSPropertyOp55
 70
     1
102
RTVSPropertyOp56
 70
     1
102
RTVSPropertyOp57
 70
     1
102
RTVSPost2010Prop28
280
     0
102
RTVSPost2010PropOp28
 70
     1
102
RTVSPost2010Prop29
280
     1
102
RTVSPost2010PropOp29
 70
     1
102
RTVSPost2010Prop30
280
     1
102
RTVSPost2010PropOp30
 70
     1
102
RTVSPost2010Prop31
280
     0
102
RTVSPost2010PropOp31
 70
     1
102
RTVSPost2010Prop32
280
     0
102
RTVSPost2010PropOp32
 70
     1
102
RTVSPost2010Prop33
280
     0
102
RTVSPost2010PropOp33
 70
     1
102
RTVSPost2010Prop34
280
     0
102
RTVSPost2010PropOp34
 70
     1
102
RTVSPost2010Prop35
280
     0
102
RTVSPost2010PropOp35
 70
     1
102
RTVSPost2010Prop36
280
     0
102
RTVSPost2010PropOp36
 70
     1
102
RTVSPost2010Prop37
 90
       50
102
RTVSPost2010PropOp37
 70
     1
102
RTVSPost2010Prop38
140
0.0
102
RTVSPost2010PropOp38
 70
     1
102
RTVSPost2010Prop39
140
1.0
102
RTVSPost2010PropOp39
 70
     1
102
RTVSPost2010Prop40
 90
        0
102
RTVSPost2010PropOp40
 70
     1
102
RTVSPost2010Prop41ColorIndex
 90
       18
102
RTVSPost2010Prop41ColorRGB
 90
        0
102
RTVSPost2010PropOp41
 70
     1
102
RTVSPost2010Prop42
 90
       50
102
RTVSPost2010PropOp42
 70
     1
102
RTVSPost2010Prop43
 90
        3
102
RTVSPost2010PropOp43
 70
     1
102
RTVSPost2010Prop44ColorIndex
 90
        5
102
RTVSPost2010Prop44ColorRGB
 90
      255
102
RTVSPost2010PropOp44
 70
     1
102
RTVSPost2010Prop45
280
     0
102
RTVSPost2010PropOp45
 70
     1
102
RTVSPost2010Prop46
 90
       50
102
RTVSPost2010PropOp46
 70
     1
102
RTVSPost2010Prop47
 90
       50
102
RTVSPost2010PropOp47
 70
     1
102
RTVSPost2010Prop48
 90
       50
102
RTVSPost2010PropOp48
 70
     1
102
RTVSPost2010Prop49
280
     0
102
RTVSPost2010PropOp49
 70
     1
102
RTVSPost2010Prop50
 90
       50
102
RTVSPost2010PropOp50
 70
     1
102
RTVSPost2010Prop51ColorIndex
 90
      256
102
RTVSPost2010Prop51ColorRGB
 90
-16777216
102
RTVSPost2010PropOp51
 70
     0
102
RTVSPost2010Prop52
140
1.0
102
RTVSPost2010PropOp52
 70
     0
102
RTVSPost2010Prop53
 90
        2
102
RTVSPost2010PropOp53
 70
     1
102
RTVSPost2010Prop54
  1
strokes_ogs.tif
102
RTVSPost2010PropOp54
 70
     1
102
RTVSPost2010Prop55
280
     0
102
RTVSPost2010PropOp55
 70
     1
102
RTVSPost2010Prop56
140
1.0
102
RTVSPost2010PropOp56
 70
     1
102
RTVSPost2010Prop57
140
1.0
102
RTVSPost2010PropOp57
 70
     1
  0
XRECORD
  5
10B
102
{ACAD_REACTORS
330
10A
102
}
330
10A
100
AcDbXrecord
280
     1
102
RTVSPropertyOp0
 70
     1
102
RTVSPropertyOp1
 70
     1
102
RTVSPropertyOp2
 70
     1
102
RTVSPropertyOp3
 70
     1
102
RTVSPropertyOp4
 70
     1
102
RTVSPropertyOp5
 70
     1
102
RTVSPropertyOp6
 70
     1
102
RTVSPropertyOp7
 70
     1
102
RTVSPropertyOp8
 70
     1
102
RTVSPropertyOp9
 70
     1
102
RTVSPropertyOp10
 70
     1
102
RTVSPropertyOp11
 70
     1
102
RTVSPropertyOp12
 70
     1
102
RTVSPropertyOp13
 70
     1
102
RTVSPropertyOp14
 70
     1
102
RTVSPropertyOp15
 70
     1
102
RTVSPropertyOp16
 70
     1
102
RTVSPropertyOp17
 70
     1
102
RTVSPropertyOp18
 70
     1
102
RTVSPropertyOp19
 70
     1
102
RTVSPropertyOp20
 70
     1
102
RTVSPropertyOp21
 70
     1
102
RTVSPropertyOp22
 70
     1
102
RTVSPropertyOp23
 70
     1
102
RTVSPropertyOp24
 70
     1
102
RTVSPropertyOp25
 70
     1
102
RTVSPropertyOp26
 70
     1
102
RTVSPropertyOp27
 70
     1
102
RTVSPropertyOp28
 70
     1
102
RTVSPropertyOp29
 70
     1
102
RTVSPropertyOp30
 70
     1
102
RTVSPropertyOp31
 70
     1
102
RTVSPropertyOp32
 70
     1
102
RTVSPropertyOp33
 70
     1
102
RTVSPropertyOp34
 70
     1
102
RTVSPropertyOp35
 70
     1
102
RTVSPropertyOp36
 70
     1
102
RTVSPropertyOp37
 70
     1
102
RTVSPropertyOp38
 70
     1
102
RTVSPropertyOp39
 70
     1
102
RTVSPropertyOp40
 70
     1
102
RTVSPropertyOp41
 70
     1
102
RTVSPropertyOp42
 70
     1
102
RTVSPropertyOp43
 70
     1
102
RTVSPropertyOp44
 70
     1
102
RTVSPropertyOp45
 70
     1
102
RTVSPropertyOp46
 70
     1
102
RTVSPropertyOp47
 70
     1
102
RTVSPropertyOp48
 70
     1
102
RTVSPropertyOp49
 70
     1
102
RTVSPropertyOp50
 70
     1
102
RTVSPropertyOp51
 70
     0
102
RTVSPropertyOp52
 70
     0
102
RTVSPropertyOp53
 70
     1
102
RTVSPropertyOp54
 70
     1
102
RTVSPropertyOp55
 70
     1
102
RTVSPropertyOp56
 70
     1
102
RTVSPropertyOp57
 70
     1
102
RTVSPost2010Prop28
280
     0
102
RTVSPost2010PropOp28
 70
     1
102
RTVSPost2010Prop29
280
     1
102
RTVSPost2010PropOp29
 70
     1
102
RTVSPost2010Prop30
280
     1
102
RTVSPost2010PropOp30
 70
     1
102
RTVSPost2010Prop31
280
     0
102
RTVSPost2010PropOp31
 70
     1
102
RTVSPost2010Prop32
280
     0
102
RTVSPost2010PropOp32
 70
     1
102
RTVSPost2010Prop33
280
     0
102
RTVSPost2010PropOp33
 70
     1
102
RTVSPost2010Prop34
280
     0
102
RTVSPost2010PropOp34
 70
     1
102
RTVSPost2010Prop35
280
     0
102
RTVSPost2010PropOp35
 70
     1
102
RTVSPost2010Prop36
280
     0
102
RTVSPost2010PropOp36
 70
     1
102
RTVSPost2010Prop37
 90
       50
102
RTVSPost2010PropOp37
 70
     1
102
RTVSPost2010Prop38
140
0.0
102
RTVSPost2010PropOp38
 70
     1
102
RTVSPost2010Prop39
140
1.0
102
RTVSPost2010PropOp39
 70
     1
102
RTVSPost2010Prop40
 90
        0
102
RTVSPost2010PropOp40
 70
     1
102
RTVSPost2010Prop41ColorIndex
 90
       18
102
RTVSPost2010Prop41ColorRGB
 90
        0
102
RTVSPost2010PropOp41
 70
     1
102
RTVSPost2010Prop42
 90
       50
102
RTVSPost2010PropOp42
 70
     1
102
RTVSPost2010Prop43
 90
        3
102
RTVSPost2010PropOp43
 70
     1
102
RTVSPost2010Prop44ColorIndex
 90
        5
102
RTVSPost2010Prop44ColorRGB
 90
      255
102
RTVSPost2010PropOp44
 70
     1
102
RTVSPost2010Prop45
280
     0
102
RTVSPost2010PropOp45
 70
     1
102
RTVSPost2010Prop46
 90
       50
102
RTVSPost2010PropOp46
 70
     1
102
RTVSPost2010Prop47
 90
       50
102
RTVSPost2010PropOp47
 70
     1
102
RTVSPost2010Prop48
 90
       50
102
RTVSPost2010PropOp48
 70
     1
102
RTVSPost2010Prop49
280
     0
102
RTVSPost2010PropOp49
 70
     1
102
RTVSPost2010Prop50
 90
       50
102
RTVSPost2010PropOp50
 70
     1
102
RTVSPost2010Prop51ColorIndex
 90
      256
102
RTVSPost2010Prop51ColorRGB
 90
-16777216
102
RTVSPost2010PropOp51
 70
     0
102
RTVSPost2010Prop52
140
1.0
102
RTVSPost2010PropOp52
 70
     0
102
RTVSPost2010Prop53
 90
        2
102
RTVSPost2010PropOp53
 70
     1
102
RTVSPost2010Prop54
  1
strokes_ogs.tif
102
RTVSPost2010PropOp54
 70
     1
102
RTVSPost2010Prop55
280
     0
102
RTVSPost2010PropOp55
 70
     1
102
RTVSPost2010Prop56
140
1.0
102
RTVSPost2010PropOp56
 70
     1
102
RTVSPost2010Prop57
140
1.0
102
RTVSPost2010PropOp57
 70
     1
  0
ENDSEC
  0
EOF
