  0
SECTION
  2
HEADER
  9
$ACADVER
  1
AC1018
  9
$ACADMAINTVER
 70
     0
  9
$DWGCODEPAGE
  3
ANSI_1252
  9
$INSBASE
 10
0.0
 20
0.0
 30
0.0
  9
$EXTMIN
 10
-29.49996213047346
 20
0.0000000172578751
 30
0.0
  9
$EXTMAX
 10
71.56892157702481
 20
58.55260101055394
 30
0.0
  9
$LIMMIN
 10
0.0
 20
0.0
  9
$LIMMAX
 10
12.0
 20
9.0
  9
$ORTHOMODE
 70
     0
  9
$REGENMODE
 70
     1
  9
$FILLMODE
 70
     1
  9
$QTEXTMODE
 70
     0
  9
$MIRRTEXT
 70
     1
  9
$LTSCALE
 40
0.0393700787401575
  9
$ATTMODE
 70
     1
  9
$TEXTSIZE
 40
0.2
  9
$TRACEWID
 40
0.05
  9
$TEXTSTYLE
  7
Standard
  9
$CLAYER
  8
Default
  9
$CELTYPE
  6
ByLayer
  9
$CECOLOR
 62
   256
  9
$CELTSCALE
 40
1.0
  9
$DISPSILH
 70
     0
  9
$DIMSCALE
 40
1.0
  9
$DIMASZ
 40
0.18
  9
$DIMEXO
 40
0.0625
  9
$DIMDLI
 40
0.38
  9
$DIMRND
 40
0.0
  9
$DIMDLE
 40
0.0
  9
$DIMEXE
 40
0.18
  9
$DIMTP
 40
0.0
  9
$DIMTM
 40
0.0
  9
$DIMTXT
 40
0.18
  9
$DIMCEN
 40
0.09
  9
$DIMTSZ
 40
0.0
  9
$DIMTOL
 70
     0
  9
$DIMLIM
 70
     0
  9
$DIMTIH
 70
     1
  9
$DIMTOH
 70
     1
  9
$DIMSE1
 70
     0
  9
$DIMSE2
 70
     0
  9
$DIMTAD
 70
     0
  9
$DIMZIN
 70
     0
  9
$DIMBLK
  1

  9
$DIMASO
 70
     1
  9
$DIMSHO
 70
     1
  9
$DIMPOST
  1

  9
$DIMAPOST
  1

  9
$DIMALT
 70
     0
  9
$DIMALTD
 70
     2
  9
$DIMALTF
 40
25.4
  9
$DIMLFAC
 40
1.0
  9
$DIMTOFL
 70
     0
  9
$DIMTVP
 40
0.0
  9
$DIMTIX
 70
     0
  9
$DIMSOXD
 70
     0
  9
$DIMSAH
 70
     0
  9
$DIMBLK1
  1

  9
$DIMBLK2
  1

  9
$DIMSTYLE
  2
Standard
  9
$DIMCLRD
 70
     0
  9
$DIMCLRE
 70
     0
  9
$DIMCLRT
 70
     0
  9
$DIMTFAC
 40
1.0
  9
$DIMGAP
 40
0.09
  9
$DIMJUST
 70
     0
  9
$DIMSD1
 70
     0
  9
$DIMSD2
 70
     0
  9
$DIMTOLJ
 70
     1
  9
$DIMTZIN
 70
     0
  9
$DIMALTZ
 70
     0
  9
$DIMALTTZ
 70
     0
  9
$DIMUPT
 70
     0
  9
$DIMDEC
 70
     4
  9
$DIMTDEC
 70
     4
  9
$DIMALTU
 70
     2
  9
$DIMALTTD
 70
     2
  9
$DIMTXSTY
  7
Standard
  9
$DIMAUNIT
 70
     0
  9
$DIMADEC
 70
     0
  9
$DIMALTRND
 40
0.0
  9
$DIMAZIN
 70
     0
  9
$DIMDSEP
 70
    46
  9
$DIMATFIT
 70
     3
  9
$DIMFRAC
 70
     0
  9
$DIMLDRBLK
  1

  9
$DIMLUNIT
 70
     2
  9
$DIMLWD
 70
    -2
  9
$DIMLWE
 70
    -2
  9
$DIMTMOVE
 70
     2
  9
$LUNITS
 70
     2
  9
$LUPREC
 70
     3
  9
$SKETCHINC
 40
0.1
  9
$FILLETRAD
 40
0.5
  9
$AUNITS
 70
     0
  9
$AUPREC
 70
     0
  9
$MENU
  1
.
  9
$ELEVATION
 40
0.0
  9
$PELEVATION
 40
0.0
  9
$THICKNESS
 40
0.0
  9
$LIMCHECK
 70
     0
  9
$CHAMFERA
 40
0.5
  9
$CHAMFERB
 40
0.5
  9
$CHAMFERC
 40
1.0
  9
$CHAMFERD
 40
0.0
  9
$SKPOLY
 70
     0
  9
$TDCREATE
 40
2458155.484763981
  9
$TDUCREATE
 40
2458155.693097315
  9
$TDUPDATE
 40
2458155.484763993
  9
$TDUUPDATE
 40
2458155.693097326
  9
$TDINDWG
 40
0.0000000116
  9
$TDUSRTIMER
 40
0.0000000116
  9
$USRTIMER
 70
     1
  9
$ANGBASE
 50
0.0
  9
$ANGDIR
 70
     0
  9
$PDMODE
 70
     0
  9
$PDSIZE
 40
0.0
  9
$PLINEWID
 40
0.0
  9
$SPLFRAME
 70
     0
  9
$SPLINETYPE
 70
     6
  9
$SPLINESEGS
 70
     8
  9
$HANDSEED
  5
F3
  9
$SURFTAB1
 70
     6
  9
$SURFTAB2
 70
     6
  9
$SURFTYPE
 70
     6
  9
$SURFU
 70
     6
  9
$SURFV
 70
     6
  9
$UCSBASE
  2

  9
$UCSNAME
  2

  9
$UCSORG
 10
0.0
 20
0.0
 30
0.0
  9
$UCSXDIR
 10
1.0
 20
0.0
 30
0.0
  9
$UCSYDIR
 10
0.0
 20
1.0
 30
0.0
  9
$UCSORTHOREF
  2

  9
$UCSORTHOVIEW
 70
     0
  9
$UCSORGTOP
 10
0.0
 20
0.0
 30
0.0
  9
$UCSORGBOTTOM
 10
0.0
 20
0.0
 30
0.0
  9
$UCSORGLEFT
 10
0.0
 20
0.0
 30
0.0
  9
$UCSORGRIGHT
 10
0.0
 20
0.0
 30
0.0
  9
$UCSORGFRONT
 10
0.0
 20
0.0
 30
0.0
  9
$UCSORGBACK
 10
0.0
 20
0.0
 30
0.0
  9
$PUCSBASE
  2

  9
$PUCSNAME
  2

  9
$PUCSORG
 10
0.0
 20
0.0
 30
0.0
  9
$PUCSXDIR
 10
1.0
 20
0.0
 30
0.0
  9
$PUCSYDIR
 10
0.0
 20
1.0
 30
0.0
  9
$PUCSORTHOREF
  2

  9
$PUCSORTHOVIEW
 70
     0
  9
$PUCSORGTOP
 10
0.0
 20
0.0
 30
0.0
  9
$PUCSORGBOTTOM
 10
0.0
 20
0.0
 30
0.0
  9
$PUCSORGLEFT
 10
0.0
 20
0.0
 30
0.0
  9
$PUCSORGRIGHT
 10
0.0
 20
0.0
 30
0.0
  9
$PUCSORGFRONT
 10
0.0
 20
0.0
 30
0.0
  9
$PUCSORGBACK
 10
0.0
 20
0.0
 30
0.0
  9
$USERI1
 70
     0
  9
$USERI2
 70
     0
  9
$USERI3
 70
     0
  9
$USERI4
 70
     0
  9
$USERI5
 70
     0
  9
$USERR1
 40
0.0
  9
$USERR2
 40
0.0
  9
$USERR3
 40
0.0
  9
$USERR4
 40
0.0
  9
$USERR5
 40
0.0
  9
$WORLDVIEW
 70
     1
  9
$SHADEDGE
 70
     3
  9
$SHADEDIF
 70
    70
  9
$TILEMODE
 70
     1
  9
$MAXACTVP
 70
    64
  9
$PINSBASE
 10
0.0
 20
0.0
 30
0.0
  9
$PLIMCHECK
 70
     0
  9
$PEXTMIN
 10
1.000000000000000E+20
 20
1.000000000000000E+20
 30
1.000000000000000E+20
  9
$PEXTMAX
 10
-1.000000000000000E+20
 20
-1.000000000000000E+20
 30
-1.000000000000000E+20
  9
$PLIMMIN
 10
0.0
 20
0.0
  9
$PLIMMAX
 10
12.0
 20
9.0
  9
$UNITMODE
 70
     0
  9
$VISRETAIN
 70
     1
  9
$PLINEGEN
 70
     0
  9
$PSLTSCALE
 70
     1
  9
$TREEDEPTH
 70
  3020
  9
$CMLSTYLE
  2
Standard
  9
$CMLJUST
 70
     0
  9
$CMLSCALE
 40
1.0
  9
$PROXYGRAPHICS
 70
     1
  9
$MEASUREMENT
 70
     0
  9
$CELWEIGHT
370
    -1
  9
$ENDCAPS
280
     0
  9
$JOINSTYLE
280
     0
  9
$LWDISPLAY
290
     0
  9
$INSUNITS
 70
     1
  9
$HYPERLINKBASE
  1

  9
$STYLESHEET
  1

  9
$XEDIT
290
     1
  9
$CEPSNTYPE
380
     0
  9
$PSTYLEMODE
290
     1
  9
$FINGERPRINTGUID
  2
{54DB3C43-FA04-4D63-8460-22973ABA9DDD}
  9
$VERSIONGUID
  2
{FAEB1C32-E019-11D5-929B-00C0DF256EC4}
  9
$EXTNAMES
290
     1
  9
$PSVPSCALE
 40
0.0
  9
$OLESTARTUP
290
     0
  9
$SORTENTS
280
   127
  9
$INDEXCTL
280
     0
  9
$HIDETEXT
280
     1
  9
$XCLIPFRAME
290
     0
  9
$HALOGAP
280
     0
  9
$OBSCOLOR
 70
   257
  9
$OBSLTYPE
280
     0
  9
$INTERSECTIONDISPLAY
280
     0
  9
$INTERSECTIONCOLOR
 70
   257
  9
$DIMASSOC
280
     2
  9
$PROJECTNAME
  1

  0
ENDSEC
  0
SECTION
  2
CLASSES
  0
CLASS
  1
ACDBDICTIONARYWDFLT
  2
AcDbDictionaryWithDefault
  3
ObjectDBX Classes
 90
        0
 91
        4
280
     0
281
     0
  0
CLASS
  1
VISUALSTYLE
  2
AcDbVisualStyle
  3
ObjectDBX Classes
 90
     4095
 91
        4
280
     0
281
     0
  0
ENDSEC
  0
SECTION
  2
TABLES
  0
TABLE
  2
VPORT
  5
8
330
0
100
AcDbSymbolTable
 70
     1
  0
VPORT
  5
29
330
8
100
AcDbSymbolTableRecord
100
AcDbViewportTableRecord
  2
*Active
 70
     0
 10
0.0
 20
0.0
 11
1.0
 21
1.0
 12
21.03447972327567
 22
29.27630051390591
 13
0.0
 23
0.0
 14
0.5
 24
0.5
 15
0.5
 25
0.5
 16
0.0
 26
0.0
 36
1.0
 17
0.0
 27
0.0
 37
0.0
 40
59.72365301316199
 41
1.72612116273144
 42
50.0
 43
0.0
 44
0.0
 50
0.0
 51
0.0
 71
     0
 72
   100
 73
     1
 74
     3
 75
     0
 76
     0
 77
     0
 78
     0
281
     0
 65
     1
110
0.0
120
0.0
130
0.0
111
1.0
121
0.0
131
0.0
112
0.0
122
1.0
132
0.0
 79
     0
146
0.0
  0
ENDTAB
  0
TABLE
  2
LTYPE
  5
5
330
0
100
AcDbSymbolTable
 70
     1
  0
LTYPE
  5
14
330
5
100
AcDbSymbolTableRecord
100
AcDbLinetypeTableRecord
  2
ByBlock
 70
     0
  3

 72
    65
 73
     0
 40
0.0
  0
LTYPE
  5
15
330
5
100
AcDbSymbolTableRecord
100
AcDbLinetypeTableRecord
  2
ByLayer
 70
     0
  3

 72
    65
 73
     0
 40
0.0
  0
LTYPE
  5
16
330
5
100
AcDbSymbolTableRecord
100
AcDbLinetypeTableRecord
  2
Continuous
 70
     0
  3
Solid line
 72
    65
 73
     0
 40
0.0
  0
ENDTAB
  0
TABLE
  2
LAYER
  5
2
330
0
100
AcDbSymbolTable
 70
     2
  0
LAYER
  5
10
330
2
100
AcDbSymbolTableRecord
100
AcDbLayerTableRecord
  2
0
 70
     0
 62
     7
  6
Continuous
370
    -3
390
F
  0
LAYER
  5
3B
330
2
100
AcDbSymbolTableRecord
100
AcDbLayerTableRecord
  2
Default
 70
     0
 62
     7
  6
Continuous
370
    -3
390
F
  0
ENDTAB
  0
TABLE
  2
STYLE
  5
3
330
0
100
AcDbSymbolTable
 70
     1
  0
STYLE
  5
11
330
3
100
AcDbSymbolTableRecord
100
AcDbTextStyleTableRecord
  2
Standard
 70
     0
 40
0.0
 41
1.0
 50
0.0
 71
     0
 42
0.2
  3
txt
  4

  0
ENDTAB
  0
TABLE
  2
VIEW
  5
6
330
0
100
AcDbSymbolTable
 70
     0
  0
ENDTAB
  0
TABLE
  2
UCS
  5
7
330
0
100
AcDbSymbolTable
 70
     0
  0
ENDTAB
  0
TABLE
  2
APPID
  5
9
330
0
100
AcDbSymbolTable
 70
     1
  0
APPID
  5
12
330
9
100
AcDbSymbolTableRecord
100
AcDbRegAppTableRecord
  2
ACAD
 70
     0
  0
ENDTAB
  0
TABLE
  2
DIMSTYLE
  5
A
330
0
100
AcDbSymbolTable
 70
     1
100
AcDbDimStyleTable
  0
DIMSTYLE
105
27
330
A
100
AcDbSymbolTableRecord
100
AcDbDimStyleTableRecord
  2
Standard
 70
     0
340
11
  0
ENDTAB
  0
TABLE
  2
BLOCK_RECORD
  5
1
330
0
100
AcDbSymbolTable
 70
     1
  0
BLOCK_RECORD
  5
1F
330
1
100
AcDbSymbolTableRecord
100
AcDbBlockTableRecord
  2
*Model_Space
340
22
  0
BLOCK_RECORD
  5
1B
330
1
100
AcDbSymbolTableRecord
100
AcDbBlockTableRecord
  2
*Paper_Space
340
1E
  0
BLOCK_RECORD
  5
23
330
1
100
AcDbSymbolTableRecord
100
AcDbBlockTableRecord
  2
*Paper_Space0
340
26
  0
ENDTAB
  0
ENDSEC
  0
SECTION
  2
BLOCKS
  0
BLOCK
  5
20
330
1F
100
AcDbEntity
  8
0
100
AcDbBlockBegin
  2
*Model_Space
 70
     0
 10
0.0
 20
0.0
 30
0.0
  3
*Model_Space
  1

  0
ENDBLK
  5
21
330
1F
100
AcDbEntity
  8
0
100
AcDbBlockEnd
  0
BLOCK
  5
1C
330
1B
100
AcDbEntity
 67
     1
  8
0
100
AcDbBlockBegin
  2
*Paper_Space
 70
     0
 10
0.0
 20
0.0
 30
0.0
  3
*Paper_Space
  1

  0
ENDBLK
  5
1D
330
1B
100
AcDbEntity
 67
     1
  8
0
100
AcDbBlockEnd
  0
BLOCK
  5
24
330
23
100
AcDbEntity
  8
0
100
AcDbBlockBegin
  2
*Paper_Space0
 70
     0
 10
0.0
 20
0.0
 30
0.0
  3
*Paper_Space0
  1

  0
ENDBLK
  5
25
330
23
100
AcDbEntity
  8
0
100
AcDbBlockEnd
  0
ENDSEC
  0
SECTION
  2
ENTITIES
  0
SPLINE
  5
3C
330
1F
100
AcDbEntity
  8
Default
100
AcDbSpline
210
0.0
220
0.0
230
1.0
 70
    12
 71
     2
 72
     6
 73
     3
 74
     0
 42
0.0000000001
 43
0.0000000001
 40
-8.008238752710616
 40
-8.008238752710616
 40
-8.008238752710616
 40
0.0
 40
0.0
 40
0.0
 10
-28.18746215469385
 20
49.2538465480708
 30
0.0
 41
1.0
 10
-31.19003058830669
 20
45.55260100458506
 30
0.0
 41
0.7765957483063642
 10
-28.18746213966317
 20
41.85135545450915
 30
0.0
 41
1.0
  0
SPLINE
  5
3D
330
1F
100
AcDbEntity
  8
Default
100
AcDbSpline
210
0.0
220
0.0
230
1.0
 70
    12
 71
     3
 72
    10
 73
     6
 74
     0
 42
0.0000000001
 43
0.0000000001
 40
0.0
 40
0.0
 40
0.0
 40
0.0
 40
0.2685060296014
 40
0.6911384391467
 40
1.0
 40
1.0
 40
1.0
 40
1.0
 10
-28.18746213966317
 20
41.85135545450915
 30
0.0
 41
1.0
 10
-26.7759918247832
 20
40.1114456878048
 30
0.0
 41
1.0
 10
-21.31010204641331
 20
37.62576318003666
 30
0.0
 41
1.0
 10
-13.92764725740345
 20
35.07904836598347
 30
0.0
 41
1.0
 10
-7.97035184483957
 20
33.56970654733336
 30
0.0
 41
1.0
 10
-5.249962130473854
 20
33.04978868866205
 30
0.0
 41
1.0
  0
SPLINE
  5
3E
330
1F
100
AcDbEntity
  8
Default
100
AcDbSpline
210
0.0
220
0.0
230
1.0
 70
    12
 71
     2
 72
     6
 73
     3
 74
     0
 42
0.0000000001
 43
0.0000000001
 40
0.0
 40
0.0
 40
0.0
 40
10.56266765359342
 40
10.56266765359342
 40
10.56266765359342
 10
-5.249962130473854
 20
33.04978868866205
 30
0.0
 41
1.0
 10
0.000037869526419
 20
32.04641452370294
 30
0.0
 41
0.9822223449741211
 10
5.25003786952702
 20
33.04978868866035
 30
0.0
 41
1.0
  0
SPLINE
  5
3F
330
1F
100
AcDbEntity
  8
Default
100
AcDbSpline
210
0.0
220
0.0
230
1.0
 70
    12
 71
     3
 72
    10
 73
     6
 74
     0
 42
0.0000000001
 43
0.0000000001
 40
0.0
 40
0.0
 40
0.0
 40
0.0
 40
0.3088615608533
 40
0.7314939703986
 40
1.0
 40
1.0
 40
1.0
 40
1.0
 10
5.25003786952702
 20
33.04978868866035
 30
0.0
 41
1.0
 10
7.970427583892771
 20
33.56970654733177
 30
0.0
 41
1.0
 10
13.92772299645672
 20
35.07904836598222
 30
0.0
 41
1.0
 10
21.31017778546667
 20
37.62576318003578
 30
0.0
 41
1.0
 10
26.77606756383663
 20
40.1114456878042
 30
0.0
 41
1.0
 10
28.18753786952667
 20
41.85135544318032
 30
0.0
 41
1.0
  0
SPLINE
  5
40
330
1F
100
AcDbEntity
  8
Default
100
AcDbSpline
210
0.0
220
0.0
230
1.0
 70
    12
 71
     2
 72
     6
 73
     3
 74
     0
 42
0.0000000001
 43
0.0000000001
 40
0.0
 40
0.0
 40
0.0
 40
8.008238820329595
 40
8.008238820329595
 40
8.008238820329595
 10
28.18753786952667
 20
41.85135544318032
 30
0.0
 41
1.0
 10
31.19010636267686
 20
45.55260101055351
 30
0.0
 41
0.7765957446808482
 10
28.18753786952606
 20
49.25384657792622
 30
0.0
 41
1.0
  0
SPLINE
  5
41
330
1F
100
AcDbEntity
  8
Default
100
AcDbSpline
210
0.0
220
0.0
230
1.0
 70
    12
 71
     3
 72
    10
 73
     6
 74
     0
 42
0.0000000001
 43
0.0000000001
 40
0.0
 40
0.0
 40
0.0
 40
0.0
 40
0.2685060296014
 40
0.6911384391467
 40
1.0
 40
1.0
 40
1.0
 40
1.0
 10
28.18753786952606
 20
49.25384657792622
 30
0.0
 41
1.0
 10
26.77606756383604
 20
50.99375633330222
 30
0.0
 41
1.0
 10
21.31017778546616
 20
53.47943884107035
 30
0.0
 41
1.0
 10
13.9277229964563
 20
56.02615365512352
 30
0.0
 41
1.0
 10
7.970427583892416
 20
57.53549547377366
 30
0.0
 41
1.0
 10
5.2500378695267
 20
58.05541333244494
 30
0.0
 41
1.0
  0
SPLINE
  5
42
330
1F
100
AcDbEntity
  8
Default
100
AcDbSpline
210
0.0
220
0.0
230
1.0
 70
    12
 71
     2
 72
     6
 73
     3
 74
     0
 42
0.0000000001
 43
0.0000000001
 40
0.0
 40
0.0
 40
0.0
 40
10.56266765359342
 40
10.56266765359342
 40
10.56266765359342
 10
5.2500378695267
 20
58.05541333244494
 30
0.0
 41
1.0
 10
0.0000378695264237
 20
59.05878749740408
 30
0.0
 41
0.9822223449741212
 10
-5.249962130474179
 20
58.05541333244664
 30
0.0
 41
1.0
  0
SPLINE
  5
43
330
1F
100
AcDbEntity
  8
Default
100
AcDbSpline
210
0.0
220
0.0
230
1.0
 70
    12
 71
     3
 72
    10
 73
     6
 74
     0
 42
0.0000000001
 43
0.0000000001
 40
0.0
 40
0.0
 40
0.0
 40
0.0
 40
0.3088615608533
 40
0.7314939703986
 40
1.0
 40
1.0
 40
1.0
 40
1.0
 10
-5.249962130474179
 20
58.05541333244664
 30
0.0
 41
1.0
 10
-7.970351844839922
 20
57.53549547377522
 30
0.0
 41
1.0
 10
-13.92764725740388
 20
56.02615365512477
 30
0.0
 41
1.0
 10
-21.31010204641382
 20
53.47943884107124
 30
0.0
 41
1.0
 10
-26.77599182478378
 20
50.99375633330279
 30
0.0
 41
1.0
 10
-28.18746215469385
 20
49.2538465480708
 30
0.0
 41
1.0
  0
POLYLINE
  5
44
330
1F
100
AcDbEntity
  8
Default
100
AcDb2dPolyline
 66
     1
 10
0.0
 20
0.0
 30
0.0
  0
VERTEX
  5
45
330
44
100
AcDbEntity
  8
Default
100
AcDbVertex
100
AcDb2dVertex
 10
47.04219783144754
 20
15.00099995378041
 30
0.0
  0
VERTEX
  5
46
330
44
100
AcDbEntity
  8
Default
100
AcDbVertex
100
AcDb2dVertex
 10
70.09564532260208
 20
15.00099995378062
 30
0.0
  0
SEQEND
  5
47
330
44
100
AcDbEntity
  8
Default
  0
LINE
  5
48
330
1F
100
AcDbEntity
  8
Default
100
AcDbLine
 10
70.09564532260208
 20
15.00099995378062
 30
0.0
 11
71.56892157702481
 21
15.68799997689791
 31
0.0
  0
SPLINE
  5
49
330
1F
100
AcDbEntity
  8
Default
100
AcDbSpline
210
0.0
220
0.0
230
1.0
 70
    24
 71
     2
 72
     6
 73
     3
 74
     0
 42
0.0000000001
 43
0.0000000001
 40
-0.3130000000000468
 40
-0.3130000000000468
 40
-0.3130000000000468
 40
0.0
 40
0.0
 40
0.0
 10
71.56892157702481
 20
15.68799997689791
 30
0.0
 10
71.56892157702481
 20
15.84449998844896
 30
0.0
 10
71.56892157702481
 20
16.001
 30
0.0
  0
POLYLINE
  5
4A
330
1F
100
AcDbEntity
  8
Default
100
AcDb2dPolyline
 66
     1
 10
0.0
 20
0.0
 30
0.0
  0
VERTEX
  5
4B
330
4A
100
AcDbEntity
  8
Default
100
AcDbVertex
100
AcDb2dVertex
 10
71.56892157702481
 20
16.001
 30
0.0
  0
VERTEX
  5
4C
330
4A
100
AcDbEntity
  8
Default
100
AcDbVertex
100
AcDb2dVertex
 10
45.56892157702481
 20
16.00099995379597
 30
0.0
  0
SEQEND
  5
4D
330
4A
100
AcDbEntity
  8
Default
  0
SPLINE
  5
4E
330
1F
100
AcDbEntity
  8
Default
100
AcDbSpline
210
0.0
220
0.0
230
1.0
 70
    24
 71
     2
 72
     6
 73
     3
 74
     0
 42
0.0000000001
 43
0.0000000001
 40
-0.3130000000157516
 40
-0.3130000000157516
 40
-0.3130000000157516
 40
-0.0000000000156035
 40
-0.0000000000156035
 40
-0.0000000000156035
 10
45.56892157702481
 20
16.00099995379597
 30
0.0
 10
45.56892157702481
 20
15.84449995379591
 30
0.0
 10
45.56892157702481
 20
15.68799995379585
 30
0.0
  0
LINE
  5
4F
330
1F
100
AcDbEntity
  8
Default
100
AcDbLine
 10
45.56892157702481
 20
15.68799995379585
 30
0.0
 11
47.04219783144754
 21
15.00099995378041
 31
0.0
  0
POLYLINE
  5
50
330
1F
100
AcDbEntity
  8
Default
100
AcDb2dPolyline
 66
     1
 10
0.0
 20
0.0
 30
0.0
  0
VERTEX
  5
51
330
50
100
AcDbEntity
  8
Default
100
AcDbVertex
100
AcDb2dVertex
 10
71.56892157702481
 20
15.68799997689791
 30
0.0
  0
VERTEX
  5
52
330
50
100
AcDbEntity
  8
Default
100
AcDbVertex
100
AcDb2dVertex
 10
45.56892157702481
 20
15.68799995379585
 30
0.0
  0
SEQEND
  5
53
330
50
100
AcDbEntity
  8
Default
  0
POLYLINE
  5
54
330
1F
100
AcDbEntity
  8
Default
100
AcDb2dPolyline
 66
     1
 10
0.0
 20
0.0
 30
0.0
  0
VERTEX
  5
55
330
54
100
AcDbEntity
  8
Default
100
AcDbVertex
100
AcDb2dVertex
 10
51.44483153567964
 20
14.81299995379598
 30
0.0
  0
VERTEX
  5
56
330
54
100
AcDbEntity
  8
Default
100
AcDbVertex
100
AcDb2dVertex
 10
53.36483152375315
 20
14.81299995379598
 30
0.0
  0
SEQEND
  5
57
330
54
100
AcDbEntity
  8
Default
  0
LINE
  5
58
330
1F
100
AcDbEntity
  8
Default
100
AcDbLine
 10
53.36483152375315
 20
14.81299995379598
 30
0.0
 11
49.34025427881788
 21
0.3411434610924147
 31
0.0
  0
SPLINE
  5
59
330
1F
100
AcDbEntity
  8
Default
100
AcDbSpline
210
0.0
220
0.0
230
1.0
 70
    12
 71
     2
 72
     6
 73
     3
 74
     0
 42
0.0000000001
 43
0.0000000001
 40
0.0
 40
0.0
 40
0.0
 40
0.1616850968361503
 40
0.1616850968361503
 40
0.1616850968361503
 10
49.34025427881788
 20
0.3411434610924147
 30
0.0
 41
1.0
 10
49.3143114660699
 20
0.2499999540756359
 30
0.0
 41
0.7980522358946985
 10
49.2199272511934
 20
0.2499999537959638
 30
0.0
 41
1.0
  0
SPLINE
  5
5A
330
1F
100
AcDbEntity
  8
Default
100
AcDbSpline
210
0.0
220
0.0
230
1.0
 70
    24
 71
     3
 72
     8
 73
     4
 74
     0
 42
0.0000000001
 43
0.0000000001
 40
0.0
 40
0.0
 40
0.0
 40
0.0
 40
0.7871765120049421
 40
0.7871765120049421
 40
0.7871765120049421
 40
0.7871765120049421
 10
49.2199272511934
 20
0.2499999537959638
 30
0.0
 10
48.95753508052508
 20
0.2499999537959638
 30
0.0
 10
48.69514290985676
 20
0.2499999537959638
 30
0.0
 10
48.43139759973839
 20
0.2499999537959638
 30
0.0
  0
SPLINE
  5
5B
330
1F
100
AcDbEntity
  8
Default
100
AcDbSpline
210
0.0
220
0.0
230
1.0
 70
    12
 71
     2
 72
     8
 73
     5
 74
     0
 42
0.0000000001
 43
0.0000000001
 40
0.0
 40
0.0
 40
0.0
 40
0.1115701719591791
 40
0.1115701719591791
 40
0.2231403439183581
 40
0.2231403439183581
 40
0.2231403439183581
 10
48.43139759973839
 20
0.2499999537959638
 30
0.0
 41
1.0
 10
48.37023494944003
 20
0.249999954169354
 30
0.0
 41
0.9020586426837911
 10
48.3327092909753
 20
0.2965725055778989
 30
0.0
 41
1.0
 10
48.29518363251059
 20
0.3431450569864506
 30
0.0
 41
0.9020586426837911
 10
48.30790447688599
 20
0.4015861188033796
 30
0.0
 41
1.0
  0
LINE
  5
5C
330
1F
100
AcDbEntity
  8
Default
100
AcDbLine
 10
48.30790447688599
 20
0.4015861188033796
 30
0.0
 11
51.44483153567964
 21
14.81299995379598
 31
0.0
  0
POLYLINE
  5
5D
330
1F
100
AcDbEntity
  8
Default
100
AcDb2dPolyline
 66
     1
 10
0.0
 20
0.0
 30
0.0
  0
VERTEX
  5
5E
330
5D
100
AcDbEntity
  8
Default
100
AcDbVertex
100
AcDb2dVertex
 10
50.44447217085026
 20
15.00099995379597
 30
0.0
  0
VERTEX
  5
5F
330
5D
100
AcDbEntity
  8
Default
100
AcDbVertex
100
AcDb2dVertex
 10
54.44447217085027
 20
15.00099995379597
 30
0.0
  0
SEQEND
  5
60
330
5D
100
AcDbEntity
  8
Default
  0
SPLINE
  5
61
330
1F
100
AcDbEntity
  8
Default
100
AcDbSpline
210
0.0
220
0.0
230
1.0
 70
    24
 71
     2
 72
     6
 73
     3
 74
     0
 42
0.0000000001
 43
0.0000000001
 40
0.0
 40
0.0
 40
0.0
 40
0.1879999999999988
 40
0.1879999999999988
 40
0.1879999999999988
 10
54.44447217085027
 20
15.00099995379597
 30
0.0
 10
54.44447217085027
 20
14.90699995379597
 30
0.0
 10
54.44447217085027
 20
14.81299995379598
 30
0.0
  0
POLYLINE
  5
62
330
1F
100
AcDbEntity
  8
Default
100
AcDb2dPolyline
 66
     1
 10
0.0
 20
0.0
 30
0.0
  0
VERTEX
  5
63
330
62
100
AcDbEntity
  8
Default
100
AcDbVertex
100
AcDb2dVertex
 10
54.44447217085027
 20
14.81299995379598
 30
0.0
  0
VERTEX
  5
64
330
62
100
AcDbEntity
  8
Default
100
AcDbVertex
100
AcDb2dVertex
 10
50.44447217085026
 20
14.81299995379598
 30
0.0
  0
SEQEND
  5
65
330
62
100
AcDbEntity
  8
Default
  0
SPLINE
  5
66
330
1F
100
AcDbEntity
  8
Default
100
AcDbSpline
210
0.0
220
0.0
230
1.0
 70
    24
 71
     2
 72
     6
 73
     3
 74
     0
 42
0.0000000001
 43
0.0000000001
 40
0.0
 40
0.0
 40
0.0
 40
0.1879999999999988
 40
0.1879999999999988
 40
0.1879999999999988
 10
50.44447217085026
 20
14.81299995379598
 30
0.0
 10
50.44447217085026
 20
14.90699995379597
 30
0.0
 10
50.44447217085026
 20
15.00099995379597
 30
0.0
  0
POLYLINE
  5
67
330
1F
100
AcDbEntity
  8
Default
100
AcDb2dPolyline
 66
     1
 10
0.0
 20
0.0
 30
0.0
  0
VERTEX
  5
68
330
67
100
AcDbEntity
  8
Default
100
AcDbVertex
100
AcDb2dVertex
 10
48.51262233040394
 20
0.2495555575554533
 30
0.0
  0
VERTEX
  5
69
330
67
100
AcDbEntity
  8
Default
100
AcDbVertex
100
AcDb2dVertex
 10
49.13740869873367
 20
0.2499999537959923
 30
0.0
  0
SEQEND
  5
6A
330
67
100
AcDbEntity
  8
Default
  0
SPLINE
  5
6B
330
1F
100
AcDbEntity
  8
Default
100
AcDbSpline
210
0.0
220
0.0
230
1.0
 70
    12
 71
     3
 72
    12
 73
     8
 74
     0
 42
0.0000000001
 43
0.0000000001
 40
0.0
 40
0.0
 40
0.0
 40
0.0
 40
0.12
 40
0.2100000000000001
 40
0.3100000000000002
 40
0.3650000000000002
 40
0.417705002618688
 40
0.417705002618688
 40
0.417705002618688
 40
0.417705002618688
 10
49.13740869873367
 20
0.2499999537959923
 30
0.0
 41
1.0
 10
49.12009571662635
 20
0.2139408266496901
 30
0.0
 41
1.0
 10
49.08223706807938
 20
0.1544276893688163
 30
0.0
 41
1.0
 10
49.00928867035587
 20
0.080727487294439
 30
0.0
 41
1.0
 10
48.94244190591526
 20
0.0329931727003725
 30
0.0
 41
1.0
 10
48.87838572577728
 20
0.0058027260483016
 30
0.0
 41
1.0
 10
48.84260175587079
 20
0.0000343864811896
 30
0.0
 41
1.0
 10
48.82488862687337
 20
0.0000000172578751
 30
0.0
 41
1.0
  0
SPLINE
  5
6C
330
1F
100
AcDbEntity
  8
Default
100
AcDbSpline
210
0.0
220
0.0
230
1.0
 70
    12
 71
     3
 72
    12
 73
     8
 74
     0
 42
0.0000000001
 43
0.0000000001
 40
0.0
 40
0.0
 40
0.0
 40
0.0
 40
0.0401648656689836
 40
0.1026648656689837
 40
0.2076648656689838
 40
0.3126648656689838
 40
0.4171717875963918
 40
0.4171717875963918
 40
0.4171717875963918
 40
0.4171717875963918
 10
48.82488862687337
 20
0.0000000172578751
 30
0.0
 41
1.0
 10
48.81135553551961
 20
0.0000262393981814
 30
0.0
 41
1.0
 10
48.77716127671273
 20
0.0041965687688048
 30
0.0
 41
1.0
 10
48.71225109037344
 20
0.0296041752171163
 30
0.0
 41
1.0
 10
48.63762680388902
 20
0.0824186987409519
 30
0.0
 41
1.0
 10
48.56448175358453
 20
0.1583335670529493
 30
0.0
 41
1.0
 10
48.5277304812319
 20
0.2181665304602802
 30
0.0
 41
1.0
 10
48.51262233040394
 20
0.2495555575554533
 30
0.0
 41
1.0
  0
POLYLINE
  5
6D
330
1F
100
AcDbEntity
  8
Default
100
AcDb2dPolyline
 66
     1
 10
0.0
 20
0.0
 30
0.0
  0
VERTEX
  5
6E
330
6D
100
AcDbEntity
  8
Default
100
AcDbVertex
100
AcDb2dVertex
 10
57.53796610179718
 20
14.81299995379598
 30
0.0
  0
VERTEX
  5
6F
330
6D
100
AcDbEntity
  8
Default
100
AcDbVertex
100
AcDb2dVertex
 10
59.60047140447539
 20
14.81299995379598
 30
0.0
  0
SEQEND
  5
70
330
6D
100
AcDbEntity
  8
Default
  0
LINE
  5
71
330
1F
100
AcDbEntity
  8
Default
100
AcDbLine
 10
59.60047140447539
 20
14.81299995379598
 30
0.0
 11
59.27045785312799
 21
0.3738232789182376
 31
0.0
  0
SPLINE
  5
72
330
1F
100
AcDbEntity
  8
Default
100
AcDbSpline
210
0.0
220
0.0
230
1.0
 70
    12
 71
     2
 72
     6
 73
     3
 74
     0
 42
0.0000000001
 43
0.0000000001
 40
0.0
 40
0.0
 40
0.0
 40
0.1931291024889738
 40
0.1931291024889738
 40
0.1931291024889738
 10
59.27045785312799
 20
0.3738232789182376
 30
0.0
 41
1.0
 10
59.26725407290925
 20
0.2500583262085875
 30
0.0
 41
0.7164009657824958
 10
59.14546384777754
 20
0.2499999552059364
 30
0.0
 41
1.0
  0
POLYLINE
  5
73
330
1F
100
AcDbEntity
  8
Default
100
AcDb2dPolyline
 66
     1
 10
0.0
 20
0.0
 30
0.0
  0
VERTEX
  5
74
330
73
100
AcDbEntity
  8
Default
100
AcDbVertex
100
AcDb2dVertex
 10
59.14546384777754
 20
0.2499999552059364
 30
0.0
  0
VERTEX
  5
75
330
73
100
AcDbEntity
  8
Default
100
AcDbVertex
100
AcDb2dVertex
 10
57.9939791304582
 20
0.2499999538052862
 30
0.0
  0
SEQEND
  5
76
330
73
100
AcDbEntity
  8
Default
  0
SPLINE
  5
77
330
1F
100
AcDbEntity
  8
Default
100
AcDbSpline
210
0.0
220
0.0
230
1.0
 70
    12
 71
     2
 72
     6
 73
     3
 74
     0
 42
0.0000000001
 43
0.0000000001
 40
0.0
 40
0.0
 40
0.0
 40
0.1931036858539009
 40
0.1931036858539009
 40
0.1931036858539009
 10
57.9939791304582
 20
0.2499999538052862
 30
0.0
 41
1.0
 10
57.87218305305525
 20
0.2500427680478189
 30
0.0
 41
0.7162234065659479
 10
57.86899350030784
 20
0.3738106462821662
 30
0.0
 41
1.0
  0
LINE
  5
78
330
1F
100
AcDbEntity
  8
Default
100
AcDbLine
 10
57.86899350030784
 20
0.3738106462821662
 30
0.0
 11
57.53796610179718
 21
14.81299995379598
 31
0.0
  0
POLYLINE
  5
79
330
1F
100
AcDbEntity
  8
Default
100
AcDb2dPolyline
 66
     1
 10
0.0
 20
0.0
 30
0.0
  0
VERTEX
  5
7A
330
79
100
AcDbEntity
  8
Default
100
AcDbVertex
100
AcDb2dVertex
 10
56.56922472661607
 20
15.00099995379597
 30
0.0
  0
VERTEX
  5
7B
330
79
100
AcDbEntity
  8
Default
100
AcDbVertex
100
AcDb2dVertex
 10
60.56922470753392
 20
15.00099995379597
 30
0.0
  0
SEQEND
  5
7C
330
79
100
AcDbEntity
  8
Default
  0
SPLINE
  5
7D
330
1F
100
AcDbEntity
  8
Default
100
AcDbSpline
210
0.0
220
0.0
230
1.0
 70
    24
 71
     2
 72
     6
 73
     3
 74
     0
 42
0.0000000001
 43
0.0000000001
 40
0.0
 40
0.0
 40
0.0
 40
0.1879999999999988
 40
0.1879999999999988
 40
0.1879999999999988
 10
60.56922470753392
 20
15.00099995379597
 30
0.0
 10
60.5687306852384
 20
14.90699995379597
 30
0.0
 10
60.56823666294288
 20
14.81299995379598
 30
0.0
  0
SPLINE
  5
7E
330
1F
100
AcDbEntity
  8
Default
100
AcDbSpline
210
0.0
220
0.0
230
1.0
 70
    24
 71
     2
 72
     6
 73
     3
 74
     0
 42
0.0000000001
 43
0.0000000001
 40
0.0
 40
0.0
 40
0.0
 40
3.998023891735777
 40
3.998023891735777
 40
3.998023891735777
 10
60.56823666294288
 20
14.81299995379598
 30
0.0
 10
58.56873069477948
 20
14.81299995379598
 30
0.0
 10
56.56922472661607
 20
14.81299995379598
 30
0.0
  0
SPLINE
  5
7F
330
1F
100
AcDbEntity
  8
Default
100
AcDbSpline
210
0.0
220
0.0
230
1.0
 70
    24
 71
     2
 72
     6
 73
     3
 74
     0
 42
0.0000000001
 43
0.0000000001
 40
-0.1879999999999988
 40
-0.1879999999999988
 40
-0.1879999999999988
 40
0.0
 40
0.0
 40
0.0
 10
56.56922472661607
 20
14.81299995379598
 30
0.0
 10
56.56922472661607
 20
14.90699995379597
 30
0.0
 10
56.56922472661607
 20
15.00099995379597
 30
0.0
  0
POLYLINE
  5
80
330
1F
100
AcDbEntity
  8
Default
100
AcDb2dPolyline
 66
     1
 10
0.0
 20
0.0
 30
0.0
  0
VERTEX
  5
81
330
80
100
AcDbEntity
  8
Default
100
AcDbVertex
100
AcDb2dVertex
 10
58.25672470753393
 20
0.2499999537959923
 30
0.0
  0
VERTEX
  5
82
330
80
100
AcDbEntity
  8
Default
100
AcDbVertex
100
AcDb2dVertex
 10
58.88172470753389
 20
0.2499999537959923
 30
0.0
  0
SEQEND
  5
83
330
80
100
AcDbEntity
  8
Default
  0
SPLINE
  5
84
330
1F
100
AcDbEntity
  8
Default
100
AcDbSpline
210
0.0
220
0.0
230
1.0
 70
    12
 71
     3
 72
    12
 73
     8
 74
     0
 42
0.0000000001
 43
0.0000000001
 40
0.0
 40
0.0
 40
0.0
 40
0.0
 40
0.12
 40
0.2100000000000001
 40
0.3100000000000002
 40
0.3650000000000002
 40
0.4175757365975664
 40
0.4175757365975664
 40
0.4175757365975664
 40
0.4175757365975664
 10
58.88172470753389
 20
0.2499999537959923
 30
0.0
 41
1.0
 10
58.86441172542661
 20
0.2139408266496901
 30
0.0
 41
1.0
 10
58.82655307687959
 20
0.1544276893688163
 30
0.0
 41
1.0
 10
58.7536046791561
 20
0.080727487294439
 30
0.0
 41
1.0
 10
58.68675861261615
 20
0.0329910136290152
 30
0.0
 41
1.0
 10
58.62273907882091
 20
0.0058274484096046
 30
0.0
 41
1.0
 10
58.58700395859454
 20
0.0000344474988196
 30
0.0
 41
1.0
 10
58.56918683800738
 20
0.0000002109687358
 30
0.0
 41
1.0
  0
SPLINE
  5
85
330
1F
100
AcDbEntity
  8
Default
100
AcDbSpline
210
0.0
220
0.0
230
1.0
 70
    12
 71
     3
 72
    12
 73
     8
 74
     0
 42
0.0000000001
 43
0.0000000001
 40
0.0
 40
0.0
 40
0.0
 40
0.0
 40
0.0400000000460656
 40
0.1025000000460656
 40
0.2075000000460657
 40
0.3125000000460658
 40
0.4175000000460658
 40
0.4175000000460658
 40
0.4175000000460658
 40
0.4175000000460658
 10
58.56918683800738
 20
0.0000002109687358
 30
0.0
 41
1.0
 10
58.55556162156303
 20
0.0000263739010791
 30
0.0
 41
1.0
 10
58.521425636339
 20
0.0042223192227766
 30
0.0
 41
1.0
 10
58.45656714669576
 20
0.0296019056731041
 30
0.0
 41
1.0
 10
58.38194281268942
 20
0.0824186987409519
 30
0.0
 41
1.0
 10
58.30868308694244
 20
0.1584525849642944
 30
0.0
 41
1.0
 10
58.2718735668778
 20
0.2184482175429707
 30
0.0
 41
1.0
 10
58.25672470753393
 20
0.2499999537959923
 30
0.0
 41
1.0
  0
POLYLINE
  5
86
330
1F
100
AcDbEntity
  8
Default
100
AcDb2dPolyline
 66
     1
 10
0.0
 20
0.0
 30
0.0
  0
VERTEX
  5
87
330
86
100
AcDbEntity
  8
Default
100
AcDbVertex
100
AcDb2dVertex
 10
65.69354214033511
 20
14.81299995379598
 30
0.0
  0
VERTEX
  5
88
330
86
100
AcDbEntity
  8
Default
100
AcDbVertex
100
AcDb2dVertex
 10
63.77354215226161
 20
14.81299995379598
 30
0.0
  0
SEQEND
  5
89
330
86
100
AcDbEntity
  8
Default
  0
LINE
  5
8A
330
1F
100
AcDbEntity
  8
Default
100
AcDbLine
 10
63.77354215226161
 20
14.81299995379598
 30
0.0
 11
67.79811939719687
 21
0.3411434610924147
 31
0.0
  0
SPLINE
  5
8B
330
1F
100
AcDbEntity
  8
Default
100
AcDbSpline
210
0.0
220
0.0
230
1.0
 70
    12
 71
     2
 72
     6
 73
     3
 74
     0
 42
0.0000000001
 43
0.0000000001
 40
0.0
 40
0.0
 40
0.0
 40
0.1616850968361503
 40
0.1616850968361503
 40
0.1616850968361503
 10
67.79811939719687
 20
0.3411434610924147
 30
0.0
 41
1.0
 10
67.82406220994486
 20
0.2499999540756359
 30
0.0
 41
0.7980522358946985
 10
67.91844642482135
 20
0.2499999537959638
 30
0.0
 41
1.0
  0
SPLINE
  5
8C
330
1F
100
AcDbEntity
  8
Default
100
AcDbSpline
210
0.0
220
0.0
230
1.0
 70
    24
 71
     3
 72
     8
 73
     4
 74
     0
 42
0.0000000001
 43
0.0000000001
 40
0.0
 40
0.0
 40
0.0
 40
0.0
 40
0.7871765120049421
 40
0.7871765120049421
 40
0.7871765120049421
 40
0.7871765120049421
 10
67.91844642482135
 20
0.2499999537959638
 30
0.0
 10
68.18083859548967
 20
0.2499999537959638
 30
0.0
 10
68.443230766158
 20
0.2499999537959638
 30
0.0
 10
68.70697607627636
 20
0.2499999537959638
 30
0.0
  0
SPLINE
  5
8D
330
1F
100
AcDbEntity
  8
Default
100
AcDbSpline
210
0.0
220
0.0
230
1.0
 70
    12
 71
     2
 72
     8
 73
     5
 74
     0
 42
0.0000000001
 43
0.0000000001
 40
0.0
 40
0.0
 40
0.0
 40
0.1115701719591791
 40
0.1115701719591791
 40
0.2231403439183581
 40
0.2231403439183581
 40
0.2231403439183581
 10
68.70697607627636
 20
0.2499999537959638
 30
0.0
 41
1.0
 10
68.76813872657473
 20
0.249999954169354
 30
0.0
 41
0.9020586426837911
 10
68.80566438503945
 20
0.2965725055778989
 30
0.0
 41
1.0
 10
68.84319004350417
 20
0.3431450569864506
 30
0.0
 41
0.9020586426837911
 10
68.83046919912876
 20
0.4015861188033796
 30
0.0
 41
1.0
  0
LINE
  5
8E
330
1F
100
AcDbEntity
  8
Default
100
AcDbLine
 10
68.83046919912876
 20
0.4015861188033796
 30
0.0
 11
65.69354214033511
 21
14.81299995379598
 31
0.0
  0
POLYLINE
  5
8F
330
1F
100
AcDbEntity
  8
Default
100
AcDb2dPolyline
 66
     1
 10
0.0
 20
0.0
 30
0.0
  0
VERTEX
  5
90
330
8F
100
AcDbEntity
  8
Default
100
AcDbVertex
100
AcDb2dVertex
 10
66.69390150516449
 20
15.00099995379597
 30
0.0
  0
VERTEX
  5
91
330
8F
100
AcDbEntity
  8
Default
100
AcDbVertex
100
AcDb2dVertex
 10
62.69390150516448
 20
15.00099995379597
 30
0.0
  0
SEQEND
  5
92
330
8F
100
AcDbEntity
  8
Default
  0
SPLINE
  5
93
330
1F
100
AcDbEntity
  8
Default
100
AcDbSpline
210
0.0
220
0.0
230
1.0
 70
    24
 71
     2
 72
     6
 73
     3
 74
     0
 42
0.0000000001
 43
0.0000000001
 40
0.0
 40
0.0
 40
0.0
 40
0.1879999999999988
 40
0.1879999999999988
 40
0.1879999999999988
 10
62.69390150516448
 20
15.00099995379597
 30
0.0
 10
62.69390150516448
 20
14.90699995379597
 30
0.0
 10
62.69390150516448
 20
14.81299995379598
 30
0.0
  0
POLYLINE
  5
94
330
1F
100
AcDbEntity
  8
Default
100
AcDb2dPolyline
 66
     1
 10
0.0
 20
0.0
 30
0.0
  0
VERTEX
  5
95
330
94
100
AcDbEntity
  8
Default
100
AcDbVertex
100
AcDb2dVertex
 10
62.69390150516448
 20
14.81299995379598
 30
0.0
  0
VERTEX
  5
96
330
94
100
AcDbEntity
  8
Default
100
AcDbVertex
100
AcDb2dVertex
 10
66.69390150516449
 20
14.81299995379598
 30
0.0
  0
SEQEND
  5
97
330
94
100
AcDbEntity
  8
Default
  0
SPLINE
  5
98
330
1F
100
AcDbEntity
  8
Default
100
AcDbSpline
210
0.0
220
0.0
230
1.0
 70
    24
 71
     2
 72
     6
 73
     3
 74
     0
 42
0.0000000001
 43
0.0000000001
 40
0.0
 40
0.0
 40
0.0
 40
0.1879999999999988
 40
0.1879999999999988
 40
0.1879999999999988
 10
66.69390150516449
 20
14.81299995379598
 30
0.0
 10
66.69390150516449
 20
14.90699995379597
 30
0.0
 10
66.69390150516449
 20
15.00099995379597
 30
0.0
  0
POLYLINE
  5
99
330
1F
100
AcDbEntity
  8
Default
100
AcDb2dPolyline
 66
     1
 10
0.0
 20
0.0
 30
0.0
  0
VERTEX
  5
9A
330
99
100
AcDbEntity
  8
Default
100
AcDbVertex
100
AcDb2dVertex
 10
68.62575134561081
 20
0.2495555575554533
 30
0.0
  0
VERTEX
  5
9B
330
99
100
AcDbEntity
  8
Default
100
AcDbVertex
100
AcDb2dVertex
 10
68.00096497728109
 20
0.2499999537959923
 30
0.0
  0
SEQEND
  5
9C
330
99
100
AcDbEntity
  8
Default
  0
SPLINE
  5
9D
330
1F
100
AcDbEntity
  8
Default
100
AcDbSpline
210
0.0
220
0.0
230
1.0
 70
    12
 71
     3
 72
    12
 73
     8
 74
     0
 42
0.0000000001
 43
0.0000000001
 40
0.0
 40
0.0
 40
0.0
 40
0.0
 40
0.12
 40
0.2100000000000001
 40
0.3100000000000002
 40
0.3650000000000002
 40
0.417705002618688
 40
0.417705002618688
 40
0.417705002618688
 40
0.417705002618688
 10
68.00096497728109
 20
0.2499999537959923
 30
0.0
 41
1.0
 10
68.0182779593884
 20
0.2139408266496901
 30
0.0
 41
1.0
 10
68.05613660793537
 20
0.1544276893688163
 30
0.0
 41
1.0
 10
68.12908500565888
 20
0.080727487294439
 30
0.0
 41
1.0
 10
68.19593177009949
 20
0.0329931727003725
 30
0.0
 41
1.0
 10
68.25998795023747
 20
0.0058027260483016
 30
0.0
 41
1.0
 10
68.29577192014396
 20
0.0000343864811896
 30
0.0
 41
1.0
 10
68.31348504914138
 20
0.0000000172578751
 30
0.0
 41
1.0
  0
SPLINE
  5
9E
330
1F
100
AcDbEntity
  8
Default
100
AcDbSpline
210
0.0
220
0.0
230
1.0
 70
    12
 71
     3
 72
    12
 73
     8
 74
     0
 42
0.0000000001
 43
0.0000000001
 40
0.0
 40
0.0
 40
0.0
 40
0.0
 40
0.0401648656689836
 40
0.1026648656689837
 40
0.2076648656689838
 40
0.3126648656689838
 40
0.4171717875963918
 40
0.4171717875963918
 40
0.4171717875963918
 40
0.4171717875963918
 10
68.31348504914138
 20
0.0000000172578751
 30
0.0
 41
1.0
 10
68.32701814049514
 20
0.0000262393981814
 30
0.0
 41
1.0
 10
68.36121239930202
 20
0.0041965687688048
 30
0.0
 41
1.0
 10
68.42612258564131
 20
0.0296041752171163
 30
0.0
 41
1.0
 10
68.50074687212573
 20
0.0824186987409519
 30
0.0
 41
1.0
 10
68.57389192243022
 20
0.1583335670529493
 30
0.0
 41
1.0
 10
68.61064319478285
 20
0.2181665304602802
 30
0.0
 41
1.0
 10
68.62575134561081
 20
0.2495555575554533
 30
0.0
 41
1.0
  0
SPLINE
  5
9F
330
1F
100
AcDbEntity
  8
Default
100
AcDbSpline
210
0.0
220
0.0
230
1.0
 70
    24
 71
     2
 72
     6
 73
     3
 74
     0
 42
0.0000000001
 43
0.0000000001
 40
-0.3130000000157516
 40
-0.3130000000157516
 40
-0.3130000000157516
 40
-0.0000000000156035
 40
-0.0000000000156035
 40
-0.0000000000156035
 10
-29.49996213047346
 20
16.00099995379597
 30
0.0
 10
-29.49996213047346
 20
15.84449995379591
 30
0.0
 10
-29.49996213047346
 20
15.68799995379585
 30
0.0
  0
LINE
  5
A0
330
1F
100
AcDbEntity
  8
Default
100
AcDbLine
 10
-29.49996213047346
 20
15.68799995379585
 30
0.0
 11
-28.02668587605074
 21
15.00099995378041
 31
0.0
  0
LINE
  5
A1
330
1F
100
AcDbEntity
  8
Default
100
AcDbLine
 10
-28.02668587605074
 20
15.00099995378041
 30
0.0
 11
28.02668587612985
 21
15.00099995381751
 31
0.0
  0
LINE
  5
A2
330
1F
100
AcDbEntity
  8
Default
100
AcDbLine
 10
28.02668587605073
 20
15.00099995378062
 30
0.0
 11
29.49996213047346
 21
15.68799995379586
 31
0.0
  0
SPLINE
  5
A3
330
1F
100
AcDbEntity
  8
Default
100
AcDbSpline
210
0.0
220
0.0
230
1.0
 70
    24
 71
     2
 72
     6
 73
     3
 74
     0
 42
0.0000000001
 43
0.0000000001
 40
0.0000000000156319
 40
0.0000000000156319
 40
0.0000000000156319
 40
0.3130000000157516
 40
0.3130000000157516
 40
0.3130000000157516
 10
29.49996213047346
 20
15.68799995379586
 30
0.0
 10
29.49996213047346
 20
15.84449995379591
 30
0.0
 10
29.49996213047346
 20
16.00099995379597
 30
0.0
  0
LINE
  5
A4
330
1F
100
AcDbEntity
  8
Default
100
AcDbLine
 10
29.49996213047346
 20
16.00099995379597
 30
0.0
 11
-29.49996213047346
 21
16.00099995379597
 31
0.0
  0
LINE
  5
A5
330
1F
100
AcDbEntity
  8
Default
100
AcDbLine
 10
-29.49996213042094
 20
15.68799995377135
 30
0.0
 11
29.49996213047347
 21
15.68799995382947
 31
0.0
  0
POLYLINE
  5
A6
330
1F
100
AcDbEntity
  8
Default
100
AcDb2dPolyline
 66
     1
 10
0.0
 20
0.0
 30
0.0
  0
VERTEX
  5
A7
330
A6
100
AcDbEntity
  8
Default
100
AcDbVertex
100
AcDb2dVertex
 10
20.74960276564408
 20
14.81299995379598
 30
0.0
  0
VERTEX
  5
A8
330
A6
100
AcDbEntity
  8
Default
100
AcDbVertex
100
AcDb2dVertex
 10
18.82960277757058
 20
14.81299995379598
 30
0.0
  0
SEQEND
  5
A9
330
A6
100
AcDbEntity
  8
Default
  0
LINE
  5
AA
330
1F
100
AcDbEntity
  8
Default
100
AcDbLine
 10
18.82960277757058
 20
14.81299995379598
 30
0.0
 11
22.85418002250584
 21
0.3411434610924147
 31
0.0
  0
SPLINE
  5
AB
330
1F
100
AcDbEntity
  8
Default
100
AcDbSpline
210
0.0
220
0.0
230
1.0
 70
    12
 71
     2
 72
     6
 73
     3
 74
     0
 42
0.0000000001
 43
0.0000000001
 40
0.0
 40
0.0
 40
0.0
 40
0.1616850968361503
 40
0.1616850968361503
 40
0.1616850968361503
 10
22.85418002250584
 20
0.3411434610924147
 30
0.0
 41
1.0
 10
22.88012283525383
 20
0.2499999540756359
 30
0.0
 41
0.7980522358946985
 10
22.97450705013032
 20
0.2499999537959638
 30
0.0
 41
1.0
  0
SPLINE
  5
AC
330
1F
100
AcDbEntity
  8
Default
100
AcDbSpline
210
0.0
220
0.0
230
1.0
 70
    24
 71
     3
 72
     8
 73
     4
 74
     0
 42
0.0000000001
 43
0.0000000001
 40
0.0
 40
0.0
 40
0.0
 40
0.0
 40
0.7871765120049421
 40
0.7871765120049421
 40
0.7871765120049421
 40
0.7871765120049421
 10
22.97450705013032
 20
0.2499999537959638
 30
0.0
 10
23.23689922079865
 20
0.2499999537959638
 30
0.0
 10
23.49929139146697
 20
0.2499999537959638
 30
0.0
 10
23.76303670158534
 20
0.2499999537959638
 30
0.0
  0
SPLINE
  5
AD
330
1F
100
AcDbEntity
  8
Default
100
AcDbSpline
210
0.0
220
0.0
230
1.0
 70
    12
 71
     2
 72
     8
 73
     5
 74
     0
 42
0.0000000001
 43
0.0000000001
 40
0.0
 40
0.0
 40
0.0
 40
0.1115701719591791
 40
0.1115701719591791
 40
0.2231403439183581
 40
0.2231403439183581
 40
0.2231403439183581
 10
23.76303670158534
 20
0.2499999537959638
 30
0.0
 41
1.0
 10
23.8241993518837
 20
0.249999954169354
 30
0.0
 41
0.9020586426837911
 10
23.86172501034842
 20
0.2965725055778989
 30
0.0
 41
1.0
 10
23.89925066881314
 20
0.3431450569864506
 30
0.0
 41
0.9020586426837911
 10
23.88652982443773
 20
0.4015861188033796
 30
0.0
 41
1.0
  0
LINE
  5
AE
330
1F
100
AcDbEntity
  8
Default
100
AcDbLine
 10
23.88652982443773
 20
0.4015861188033796
 30
0.0
 11
20.74960276564408
 21
14.81299995379598
 31
0.0
  0
POLYLINE
  5
AF
330
1F
100
AcDbEntity
  8
Default
100
AcDb2dPolyline
 66
     1
 10
0.0
 20
0.0
 30
0.0
  0
VERTEX
  5
B0
330
AF
100
AcDbEntity
  8
Default
100
AcDbVertex
100
AcDb2dVertex
 10
21.74996213047346
 20
15.00099995379597
 30
0.0
  0
VERTEX
  5
B1
330
AF
100
AcDbEntity
  8
Default
100
AcDbVertex
100
AcDb2dVertex
 10
17.74996213047346
 20
15.00099995379597
 30
0.0
  0
SEQEND
  5
B2
330
AF
100
AcDbEntity
  8
Default
  0
SPLINE
  5
B3
330
1F
100
AcDbEntity
  8
Default
100
AcDbSpline
210
0.0
220
0.0
230
1.0
 70
    24
 71
     2
 72
     6
 73
     3
 74
     0
 42
0.0000000001
 43
0.0000000001
 40
0.0
 40
0.0
 40
0.0
 40
0.1879999999999988
 40
0.1879999999999988
 40
0.1879999999999988
 10
17.74996213047346
 20
15.00099995379597
 30
0.0
 10
17.74996213047346
 20
14.90699995379597
 30
0.0
 10
17.74996213047346
 20
14.81299995379598
 30
0.0
  0
POLYLINE
  5
B4
330
1F
100
AcDbEntity
  8
Default
100
AcDb2dPolyline
 66
     1
 10
0.0
 20
0.0
 30
0.0
  0
VERTEX
  5
B5
330
B4
100
AcDbEntity
  8
Default
100
AcDbVertex
100
AcDb2dVertex
 10
17.74996213047346
 20
14.81299995379598
 30
0.0
  0
VERTEX
  5
B6
330
B4
100
AcDbEntity
  8
Default
100
AcDbVertex
100
AcDb2dVertex
 10
21.74996213047346
 20
14.81299995379598
 30
0.0
  0
SEQEND
  5
B7
330
B4
100
AcDbEntity
  8
Default
  0
SPLINE
  5
B8
330
1F
100
AcDbEntity
  8
Default
100
AcDbSpline
210
0.0
220
0.0
230
1.0
 70
    24
 71
     2
 72
     6
 73
     3
 74
     0
 42
0.0000000001
 43
0.0000000001
 40
0.0
 40
0.0
 40
0.0
 40
0.1879999999999988
 40
0.1879999999999988
 40
0.1879999999999988
 10
21.74996213047346
 20
14.81299995379598
 30
0.0
 10
21.74996213047346
 20
14.90699995379597
 30
0.0
 10
21.74996213047346
 20
15.00099995379597
 30
0.0
  0
POLYLINE
  5
B9
330
1F
100
AcDbEntity
  8
Default
100
AcDb2dPolyline
 66
     1
 10
0.0
 20
0.0
 30
0.0
  0
VERTEX
  5
BA
330
B9
100
AcDbEntity
  8
Default
100
AcDbVertex
100
AcDb2dVertex
 10
23.68181197091977
 20
0.2495555575554533
 30
0.0
  0
VERTEX
  5
BB
330
B9
100
AcDbEntity
  8
Default
100
AcDbVertex
100
AcDb2dVertex
 10
23.05702560259006
 20
0.2499999537959923
 30
0.0
  0
SEQEND
  5
BC
330
B9
100
AcDbEntity
  8
Default
  0
SPLINE
  5
BD
330
1F
100
AcDbEntity
  8
Default
100
AcDbSpline
210
0.0
220
0.0
230
1.0
 70
    12
 71
     3
 72
    12
 73
     8
 74
     0
 42
0.0000000001
 43
0.0000000001
 40
0.0
 40
0.0
 40
0.0
 40
0.0
 40
0.12
 40
0.2100000000000001
 40
0.3100000000000002
 40
0.3650000000000002
 40
0.417705002618688
 40
0.417705002618688
 40
0.417705002618688
 40
0.417705002618688
 10
23.05702560259006
 20
0.2499999537959923
 30
0.0
 41
1.0
 10
23.07433858469737
 20
0.2139408266496901
 30
0.0
 41
1.0
 10
23.11219723324434
 20
0.1544276893688163
 30
0.0
 41
1.0
 10
23.18514563096786
 20
0.080727487294439
 30
0.0
 41
1.0
 10
23.25199239540846
 20
0.0329931727003725
 30
0.0
 41
1.0
 10
23.31604857554645
 20
0.0058027260483016
 30
0.0
 41
1.0
 10
23.35183254545294
 20
0.0000343864811896
 30
0.0
 41
1.0
 10
23.36954567445035
 20
0.0000000172578751
 30
0.0
 41
1.0
  0
SPLINE
  5
BE
330
1F
100
AcDbEntity
  8
Default
100
AcDbSpline
210
0.0
220
0.0
230
1.0
 70
    12
 71
     3
 72
    12
 73
     8
 74
     0
 42
0.0000000001
 43
0.0000000001
 40
0.0
 40
0.0
 40
0.0
 40
0.0
 40
0.0401648656689836
 40
0.1026648656689837
 40
0.2076648656689838
 40
0.3126648656689838
 40
0.4171717875963918
 40
0.4171717875963918
 40
0.4171717875963918
 40
0.4171717875963918
 10
23.36954567445035
 20
0.0000000172578751
 30
0.0
 41
1.0
 10
23.38307876580411
 20
0.0000262393981814
 30
0.0
 41
1.0
 10
23.41727302461099
 20
0.0041965687688048
 30
0.0
 41
1.0
 10
23.48218321095028
 20
0.0296041752171163
 30
0.0
 41
1.0
 10
23.5568074974347
 20
0.0824186987409519
 30
0.0
 41
1.0
 10
23.6299525477392
 20
0.1583335670529493
 30
0.0
 41
1.0
 10
23.66670382009182
 20
0.2181665304602802
 30
0.0
 41
1.0
 10
23.68181197091977
 20
0.2495555575554533
 30
0.0
 41
1.0
  0
POLYLINE
  5
BF
330
1F
100
AcDbEntity
  8
Default
100
AcDb2dPolyline
 66
     1
 10
0.0
 20
0.0
 30
0.0
  0
VERTEX
  5
C0
330
BF
100
AcDbEntity
  8
Default
100
AcDbVertex
100
AcDb2dVertex
 10
-20.74960276564408
 20
14.81299995379598
 30
0.0
  0
VERTEX
  5
C1
330
BF
100
AcDbEntity
  8
Default
100
AcDbVertex
100
AcDb2dVertex
 10
-18.82960277757058
 20
14.81299995379598
 30
0.0
  0
SEQEND
  5
C2
330
BF
100
AcDbEntity
  8
Default
  0
LINE
  5
C3
330
1F
100
AcDbEntity
  8
Default
100
AcDbLine
 10
-18.82960277757058
 20
14.81299995379598
 30
0.0
 11
-22.85418002250584
 21
0.3411434610924147
 31
0.0
  0
SPLINE
  5
C4
330
1F
100
AcDbEntity
  8
Default
100
AcDbSpline
210
0.0
220
0.0
230
1.0
 70
    12
 71
     2
 72
     6
 73
     3
 74
     0
 42
0.0000000001
 43
0.0000000001
 40
0.0
 40
0.0
 40
0.0
 40
0.1616850968361503
 40
0.1616850968361503
 40
0.1616850968361503
 10
-22.85418002250584
 20
0.3411434610924147
 30
0.0
 41
1.0
 10
-22.88012283525383
 20
0.2499999540756359
 30
0.0
 41
0.7980522358946985
 10
-22.97450705013032
 20
0.2499999537959638
 30
0.0
 41
1.0
  0
SPLINE
  5
C5
330
1F
100
AcDbEntity
  8
Default
100
AcDbSpline
210
0.0
220
0.0
230
1.0
 70
    24
 71
     3
 72
     8
 73
     4
 74
     0
 42
0.0000000001
 43
0.0000000001
 40
0.0
 40
0.0
 40
0.0
 40
0.0
 40
0.7871765120049421
 40
0.7871765120049421
 40
0.7871765120049421
 40
0.7871765120049421
 10
-22.97450705013032
 20
0.2499999537959638
 30
0.0
 10
-23.23689922079864
 20
0.2499999537959638
 30
0.0
 10
-23.49929139146697
 20
0.2499999537959638
 30
0.0
 10
-23.76303670158534
 20
0.2499999537959638
 30
0.0
  0
SPLINE
  5
C6
330
1F
100
AcDbEntity
  8
Default
100
AcDbSpline
210
0.0
220
0.0
230
1.0
 70
    12
 71
     2
 72
     8
 73
     5
 74
     0
 42
0.0000000001
 43
0.0000000001
 40
0.0
 40
0.0
 40
0.0
 40
0.1115701719591791
 40
0.1115701719591791
 40
0.2231403439183581
 40
0.2231403439183581
 40
0.2231403439183581
 10
-23.76303670158534
 20
0.2499999537959638
 30
0.0
 41
1.0
 10
-23.82419935188371
 20
0.249999954169354
 30
0.0
 41
0.9020586426837911
 10
-23.86172501034842
 20
0.2965725055778989
 30
0.0
 41
1.0
 10
-23.89925066881314
 20
0.3431450569864506
 30
0.0
 41
0.9020586426837911
 10
-23.88652982443773
 20
0.4015861188033796
 30
0.0
 41
1.0
  0
LINE
  5
C7
330
1F
100
AcDbEntity
  8
Default
100
AcDbLine
 10
-23.88652982443773
 20
0.4015861188033796
 30
0.0
 11
-20.74960276564408
 21
14.81299995379598
 31
0.0
  0
POLYLINE
  5
C8
330
1F
100
AcDbEntity
  8
Default
100
AcDb2dPolyline
 66
     1
 10
0.0
 20
0.0
 30
0.0
  0
VERTEX
  5
C9
330
C8
100
AcDbEntity
  8
Default
100
AcDbVertex
100
AcDb2dVertex
 10
-21.74996213047346
 20
15.00099995379597
 30
0.0
  0
VERTEX
  5
CA
330
C8
100
AcDbEntity
  8
Default
100
AcDbVertex
100
AcDb2dVertex
 10
-17.74996213047346
 20
15.00099995379597
 30
0.0
  0
SEQEND
  5
CB
330
C8
100
AcDbEntity
  8
Default
  0
SPLINE
  5
CC
330
1F
100
AcDbEntity
  8
Default
100
AcDbSpline
210
0.0
220
0.0
230
1.0
 70
    24
 71
     2
 72
     6
 73
     3
 74
     0
 42
0.0000000001
 43
0.0000000001
 40
0.0
 40
0.0
 40
0.0
 40
0.1879999999999988
 40
0.1879999999999988
 40
0.1879999999999988
 10
-17.74996213047346
 20
15.00099995379597
 30
0.0
 10
-17.74996213047346
 20
14.90699995379597
 30
0.0
 10
-17.74996213047346
 20
14.81299995379598
 30
0.0
  0
POLYLINE
  5
CD
330
1F
100
AcDbEntity
  8
Default
100
AcDb2dPolyline
 66
     1
 10
0.0
 20
0.0
 30
0.0
  0
VERTEX
  5
CE
330
CD
100
AcDbEntity
  8
Default
100
AcDbVertex
100
AcDb2dVertex
 10
-17.74996213047346
 20
14.81299995379598
 30
0.0
  0
VERTEX
  5
CF
330
CD
100
AcDbEntity
  8
Default
100
AcDbVertex
100
AcDb2dVertex
 10
-21.74996213047346
 20
14.81299995379598
 30
0.0
  0
SEQEND
  5
D0
330
CD
100
AcDbEntity
  8
Default
  0
SPLINE
  5
D1
330
1F
100
AcDbEntity
  8
Default
100
AcDbSpline
210
0.0
220
0.0
230
1.0
 70
    24
 71
     2
 72
     6
 73
     3
 74
     0
 42
0.0000000001
 43
0.0000000001
 40
0.0
 40
0.0
 40
0.0
 40
0.1879999999999988
 40
0.1879999999999988
 40
0.1879999999999988
 10
-21.74996213047346
 20
14.81299995379598
 30
0.0
 10
-21.74996213047346
 20
14.90699995379597
 30
0.0
 10
-21.74996213047346
 20
15.00099995379597
 30
0.0
  0
POLYLINE
  5
D2
330
1F
100
AcDbEntity
  8
Default
100
AcDb2dPolyline
 66
     1
 10
0.0
 20
0.0
 30
0.0
  0
VERTEX
  5
D3
330
D2
100
AcDbEntity
  8
Default
100
AcDbVertex
100
AcDb2dVertex
 10
-1.031220736210198
 20
14.81299995379598
 30
0.0
  0
VERTEX
  5
D4
330
D2
100
AcDbEntity
  8
Default
100
AcDbVertex
100
AcDb2dVertex
 10
1.031284566468013
 20
14.81299995379598
 30
0.0
  0
SEQEND
  5
D5
330
D2
100
AcDbEntity
  8
Default
  0
LINE
  5
D6
330
1F
100
AcDbEntity
  8
Default
100
AcDbLine
 10
1.031284566468013
 20
14.81299995379598
 30
0.0
 11
0.7012710151206178
 21
0.3738232789182376
 31
0.0
  0
SPLINE
  5
D7
330
1F
100
AcDbEntity
  8
Default
100
AcDbSpline
210
0.0
220
0.0
230
1.0
 70
    12
 71
     2
 72
     6
 73
     3
 74
     0
 42
0.0000000001
 43
0.0000000001
 40
0.0
 40
0.0
 40
0.0
 40
0.1931291024889738
 40
0.1931291024889738
 40
0.1931291024889738
 10
0.7012710151206178
 20
0.3738232789182376
 30
0.0
 41
1.0
 10
0.6980672349018806
 20
0.2500583262085875
 30
0.0
 41
0.7164009657824958
 10
0.5762770097701662
 20
0.2499999552059364
 30
0.0
 41
1.0
  0
POLYLINE
  5
D8
330
1F
100
AcDbEntity
  8
Default
100
AcDb2dPolyline
 66
     1
 10
0.0
 20
0.0
 30
0.0
  0
VERTEX
  5
D9
330
D8
100
AcDbEntity
  8
Default
100
AcDbVertex
100
AcDb2dVertex
 10
0.5762770097701662
 20
0.2499999552059364
 30
0.0
  0
VERTEX
  5
DA
330
D8
100
AcDbEntity
  8
Default
100
AcDbVertex
100
AcDb2dVertex
 10
-0.5752077075491719
 20
0.2499999538052862
 30
0.0
  0
SEQEND
  5
DB
330
D8
100
AcDbEntity
  8
Default
  0
SPLINE
  5
DC
330
1F
100
AcDbEntity
  8
Default
100
AcDbSpline
210
0.0
220
0.0
230
1.0
 70
    12
 71
     2
 72
     6
 73
     3
 74
     0
 42
0.0000000001
 43
0.0000000001
 40
0.0
 40
0.0
 40
0.0
 40
0.1931036858539009
 40
0.1931036858539009
 40
0.1931036858539009
 10
-0.5752077075491719
 20
0.2499999538052862
 30
0.0
 41
1.0
 10
-0.6970037849521212
 20
0.2500427680478189
 30
0.0
 41
0.7162234065659479
 10
-0.7001933376995382
 20
0.3738106462821662
 30
0.0
 41
1.0
  0
LINE
  5
DD
330
1F
100
AcDbEntity
  8
Default
100
AcDbLine
 10
-0.7001933376995382
 20
0.3738106462821662
 30
0.0
 11
-1.031220736210198
 21
14.81299995379598
 31
0.0
  0
POLYLINE
  5
DE
330
1F
100
AcDbEntity
  8
Default
100
AcDb2dPolyline
 66
     1
 10
0.0
 20
0.0
 30
0.0
  0
VERTEX
  5
DF
330
DE
100
AcDbEntity
  8
Default
100
AcDbVertex
100
AcDb2dVertex
 10
-1.999962111391302
 20
15.00099995379597
 30
0.0
  0
VERTEX
  5
E0
330
DE
100
AcDbEntity
  8
Default
100
AcDbVertex
100
AcDb2dVertex
 10
2.00003786952654
 20
15.00099995379597
 30
0.0
  0
SEQEND
  5
E1
330
DE
100
AcDbEntity
  8
Default
  0
SPLINE
  5
E2
330
1F
100
AcDbEntity
  8
Default
100
AcDbSpline
210
0.0
220
0.0
230
1.0
 70
    24
 71
     2
 72
     6
 73
     3
 74
     0
 42
0.0000000001
 43
0.0000000001
 40
0.0
 40
0.0
 40
0.0
 40
0.1879999999999988
 40
0.1879999999999988
 40
0.1879999999999988
 10
2.00003786952654
 20
15.00099995379597
 30
0.0
 10
1.999543847231024
 20
14.90699995379597
 30
0.0
 10
1.999049824935508
 20
14.81299995379598
 30
0.0
  0
SPLINE
  5
E3
330
1F
100
AcDbEntity
  8
Default
100
AcDbSpline
210
0.0
220
0.0
230
1.0
 70
    24
 71
     2
 72
     6
 73
     3
 74
     0
 42
0.0000000001
 43
0.0000000001
 40
0.0
 40
0.0
 40
0.0
 40
3.998023891735777
 40
3.998023891735777
 40
3.998023891735777
 10
1.999049824935508
 20
14.81299995379598
 30
0.0
 10
-0.0004561432278969
 20
14.81299995379598
 30
0.0
 10
-1.999962111391302
 20
14.81299995379598
 30
0.0
  0
SPLINE
  5
E4
330
1F
100
AcDbEntity
  8
Default
100
AcDbSpline
210
0.0
220
0.0
230
1.0
 70
    24
 71
     2
 72
     6
 73
     3
 74
     0
 42
0.0000000001
 43
0.0000000001
 40
-0.1879999999999988
 40
-0.1879999999999988
 40
-0.1879999999999988
 40
0.0
 40
0.0
 40
0.0
 10
-1.999962111391302
 20
14.81299995379598
 30
0.0
 10
-1.999962111391302
 20
14.90699995379597
 30
0.0
 10
-1.999962111391302
 20
15.00099995379597
 30
0.0
  0
POLYLINE
  5
E5
330
1F
100
AcDbEntity
  8
Default
100
AcDb2dPolyline
 66
     1
 10
0.0
 20
0.0
 30
0.0
  0
VERTEX
  5
E6
330
E5
100
AcDbEntity
  8
Default
100
AcDbVertex
100
AcDb2dVertex
 10
-0.3124621304734383
 20
0.2499999537959923
 30
0.0
  0
VERTEX
  5
E7
330
E5
100
AcDbEntity
  8
Default
100
AcDbVertex
100
AcDb2dVertex
 10
0.3125378695265155
 20
0.2499999537959923
 30
0.0
  0
SEQEND
  5
E8
330
E5
100
AcDbEntity
  8
Default
  0
SPLINE
  5
E9
330
1F
100
AcDbEntity
  8
Default
100
AcDbSpline
210
0.0
220
0.0
230
1.0
 70
    12
 71
     3
 72
    12
 73
     8
 74
     0
 42
0.0000000001
 43
0.0000000001
 40
0.0
 40
0.0
 40
0.0
 40
0.0
 40
0.12
 40
0.2100000000000001
 40
0.3100000000000002
 40
0.3650000000000002
 40
0.4175757365975664
 40
0.4175757365975664
 40
0.4175757365975664
 40
0.4175757365975664
 10
0.3125378695265155
 20
0.2499999537959923
 30
0.0
 41
1.0
 10
0.2952248874192378
 20
0.2139408266496901
 30
0.0
 41
1.0
 10
0.2573662388722155
 20
0.1544276893688163
 30
0.0
 41
1.0
 10
0.1844178411487292
 20
0.080727487294439
 30
0.0
 41
1.0
 10
0.1175717746087734
 20
0.0329910136290152
 30
0.0
 41
1.0
 10
0.0535522408135343
 20
0.0058274484096046
 30
0.0
 41
1.0
 10
0.0178171205871678
 20
0.0000344474988196
 30
0.0
 41
1.0
 10
0.0
 20
0.0000002109687358
 30
0.0
 41
1.0
  0
SPLINE
  5
EA
330
1F
100
AcDbEntity
  8
Default
100
AcDbSpline
210
0.0
220
0.0
230
1.0
 70
    12
 71
     3
 72
    12
 73
     8
 74
     0
 42
0.0000000001
 43
0.0000000001
 40
0.0
 40
0.0
 40
0.0
 40
0.0
 40
0.0400000000460656
 40
0.1025000000460656
 40
0.2075000000460657
 40
0.3125000000460658
 40
0.4175000000460658
 40
0.4175000000460658
 40
0.4175000000460658
 40
0.4175000000460658
 10
0.0
 20
0.0000002109687358
 30
0.0
 41
1.0
 10
-0.0136252164443462
 20
0.0000263739010791
 30
0.0
 41
1.0
 10
-0.0477612016683722
 20
0.0042223192227766
 30
0.0
 41
1.0
 10
-0.1126196913116182
 20
0.0296019056731041
 30
0.0
 41
1.0
 10
-0.1872440253179626
 20
0.0824186987409519
 30
0.0
 41
1.0
 10
-0.2605037510649346
 20
0.1584525849642944
 30
0.0
 41
1.0
 10
-0.2973132711295712
 20
0.2184482175429707
 30
0.0
 41
1.0
 10
-0.3124621304734383
 20
0.2499999537959923
 30
0.0
 41
1.0
  0
POLYLINE
  5
EB
330
1F
100
AcDbEntity
  8
Default
100
AcDb2dPolyline
 66
     1
 10
0.0
 20
0.0
 30
0.0
  0
VERTEX
  5
EC
330
EB
100
AcDbEntity
  8
Default
100
AcDbVertex
100
AcDb2dVertex
 10
-23.68181197091977
 20
0.2495555575554533
 30
0.0
  0
VERTEX
  5
ED
330
EB
100
AcDbEntity
  8
Default
100
AcDbVertex
100
AcDb2dVertex
 10
-23.05702560259006
 20
0.2499999537959923
 30
0.0
  0
SEQEND
  5
EE
330
EB
100
AcDbEntity
  8
Default
  0
SPLINE
  5
EF
330
1F
100
AcDbEntity
  8
Default
100
AcDbSpline
210
0.0
220
0.0
230
1.0
 70
    12
 71
     3
 72
    12
 73
     8
 74
     0
 42
0.0000000001
 43
0.0000000001
 40
0.0
 40
0.0
 40
0.0
 40
0.0
 40
0.12
 40
0.2100000000000001
 40
0.3100000000000002
 40
0.3650000000000002
 40
0.417705002618688
 40
0.417705002618688
 40
0.417705002618688
 40
0.417705002618688
 10
-23.05702560259006
 20
0.2499999537959923
 30
0.0
 41
1.0
 10
-23.07433858469738
 20
0.2139408266496901
 30
0.0
 41
1.0
 10
-23.11219723324434
 20
0.1544276893688163
 30
0.0
 41
1.0
 10
-23.18514563096786
 20
0.080727487294439
 30
0.0
 41
1.0
 10
-23.25199239540846
 20
0.0329931727003725
 30
0.0
 41
1.0
 10
-23.31604857554645
 20
0.0058027260483016
 30
0.0
 41
1.0
 10
-23.35183254545294
 20
0.0000343864811896
 30
0.0
 41
1.0
 10
-23.36954567445035
 20
0.0000000172578751
 30
0.0
 41
1.0
  0
SPLINE
  5
F0
330
1F
100
AcDbEntity
  8
Default
100
AcDbSpline
210
0.0
220
0.0
230
1.0
 70
    12
 71
     3
 72
    12
 73
     8
 74
     0
 42
0.0000000001
 43
0.0000000001
 40
0.0
 40
0.0
 40
0.0
 40
0.0
 40
0.0401648656689836
 40
0.1026648656689837
 40
0.2076648656689838
 40
0.3126648656689838
 40
0.4171717875963918
 40
0.4171717875963918
 40
0.4171717875963918
 40
0.4171717875963918
 10
-23.36954567445035
 20
0.0000000172578751
 30
0.0
 41
1.0
 10
-23.38307876580411
 20
0.0000262393981814
 30
0.0
 41
1.0
 10
-23.41727302461099
 20
0.0041965687688048
 30
0.0
 41
1.0
 10
-23.48218321095028
 20
0.0296041752171163
 30
0.0
 41
1.0
 10
-23.55680749743471
 20
0.0824186987409519
 30
0.0
 41
1.0
 10
-23.6299525477392
 20
0.1583335670529493
 30
0.0
 41
1.0
 10
-23.66670382009181
 20
0.2181665304602802
 30
0.0
 41
1.0
 10
-23.68181197091977
 20
0.2495555575554533
 30
0.0
 41
1.0
  0
ENDSEC
  0
SECTION
  2
OBJECTS
  0
DICTIONARY
  5
C
330
0
100
AcDbDictionary
281
     1
  3
ACAD_GROUP
350
D
  3
ACAD_LAYOUT
350
1A
  3
ACAD_MLEADERSTYLE
350
F2
  3
ACAD_MLINESTYLE
350
17
  3
ACAD_PLOTSETTINGS
350
19
  3
ACAD_PLOTSTYLENAME
350
E
  3
ACAD_TABLESTYLE
350
F1
  3
ACAD_VISUALSTYLE
350
2A
  0
DICTIONARY
  5
D
102
{ACAD_REACTORS
330
C
102
}
330
C
100
AcDbDictionary
281
     1
  0
DICTIONARY
  5
1A
102
{ACAD_REACTORS
330
C
102
}
330
C
100
AcDbDictionary
281
     1
  3
Layout1
350
1E
  3
Layout2
350
26
  3
Model
350
22
  0
DICTIONARY
  5
F2
102
{ACAD_REACTORS
330
C
102
}
330
C
100
AcDbDictionary
281
     1
  0
DICTIONARY
  5
17
102
{ACAD_REACTORS
330
C
102
}
330
C
100
AcDbDictionary
281
     1
  3
Standard
350
18
  0
DICTIONARY
  5
19
102
{ACAD_REACTORS
330
C
102
}
330
C
100
AcDbDictionary
281
     1
  0
ACDBDICTIONARYWDFLT
  5
E
102
{ACAD_REACTORS
330
C
102
}
330
C
100
AcDbDictionary
281
     1
  3
Normal
350
F
100
AcDbDictionaryWithDefault
340
F
  0
DICTIONARY
  5
F1
102
{ACAD_REACTORS
330
C
102
}
330
C
100
AcDbDictionary
281
     1
  0
DICTIONARY
  5
2A
102
{ACAD_REACTORS
330
C
102
}
330
C
100
AcDbDictionary
281
     1
  3
2dWireframe
350
2F
  3
3D Hidden
350
31
  3
3dWireframe
350
30
  3
Basic
350
32
  3
Brighten
350
36
  3
ColorChange
350
3A
  3
Conceptual
350
34
  3
Dim
350
35
  3
Facepattern
350
39
  3
Flat
350
2B
  3
FlatWithEdges
350
2C
  3
Gouraud
350
2D
  3
GouraudWithEdges
350
2E
  3
Linepattern
350
38
  3
Realistic
350
33
  3
Thicken
350
37
  0
LAYOUT
  5
1E
102
{ACAD_REACTORS
330
1A
102
}
330
1A
100
AcDbPlotSettings
  1

  2
none_device
  4

  6

 40
0.0
 41
0.0
 42
0.0
 43
0.0
 44
0.0
 45
0.0
 46
0.0
 47
0.0
 48
0.0
 49
0.0
140
0.0
141
0.0
142
1.0
143
1.0
 70
   688
 72
     0
 73
     0
 74
     5
  7

 75
    16
 76
     0
 77
     2
 78
   300
147
1.0
148
0.0
149
0.0
100
AcDbLayout
  1
Layout1
 70
     1
 71
     1
 10
0.0
 20
0.0
 11
12.0
 21
9.0
 12
0.0
 22
0.0
 32
0.0
 14
1.000000000000000E+20
 24
1.000000000000000E+20
 34
1.000000000000000E+20
 15
-1.000000000000000E+20
 25
-1.000000000000000E+20
 35
-1.000000000000000E+20
146
0.0
 13
0.0
 23
0.0
 33
0.0
 16
1.0
 26
0.0
 36
0.0
 17
0.0
 27
1.0
 37
0.0
 76
     0
330
1B
  0
LAYOUT
  5
26
102
{ACAD_REACTORS
330
1A
102
}
330
1A
100
AcDbPlotSettings
  1

  2
none_device
  4

  6

 40
0.0
 41
0.0
 42
0.0
 43
0.0
 44
0.0
 45
0.0
 46
0.0
 47
0.0
 48
0.0
 49
0.0
140
0.0
141
0.0
142
1.0
143
1.0
 70
   688
 72
     0
 73
     0
 74
     5
  7

 75
    16
 76
     0
 77
     2
 78
   300
147
1.0
148
0.0
149
0.0
100
AcDbLayout
  1
Layout2
 70
     1
 71
     2
 10
0.0
 20
0.0
 11
0.0
 21
0.0
 12
0.0
 22
0.0
 32
0.0
 14
0.0
 24
0.0
 34
0.0
 15
0.0
 25
0.0
 35
0.0
146
0.0
 13
0.0
 23
0.0
 33
0.0
 16
1.0
 26
0.0
 36
0.0
 17
0.0
 27
1.0
 37
0.0
 76
     0
330
23
  0
LAYOUT
  5
22
102
{ACAD_REACTORS
330
1A
102
}
330
1A
100
AcDbPlotSettings
  1

  2
none_device
  4

  6

 40
0.0
 41
0.0
 42
0.0
 43
0.0
 44
0.0
 45
0.0
 46
0.0
 47
0.0
 48
0.0
 49
0.0
140
0.0
141
0.0
142
1.0
143
1.0
 70
  1712
 72
     0
 73
     0
 74
     0
  7

 75
     0
 76
     0
 77
     2
 78
   300
147
1.0
148
0.0
149
0.0
100
AcDbLayout
  1
Model
 70
     1
 71
     0
 10
0.0
 20
0.0
 11
12.0
 21
9.0
 12
0.0
 22
0.0
 32
0.0
 14
-29.49996213047346
 24
0.0000000172578751
 34
0.0
 15
71.56892157702481
 25
58.55260101055394
 35
0.0
146
0.0
 13
0.0
 23
0.0
 33
0.0
 16
1.0
 26
0.0
 36
0.0
 17
0.0
 27
1.0
 37
0.0
 76
     0
330
1F
331
29
  0
MLINESTYLE
  5
18
102
{ACAD_REACTORS
330
17
102
}
330
17
100
AcDbMlineStyle
  2
Standard
 70
     0
  3

 62
   256
 51
90.0
 52
90.0
 71
     2
 49
0.5
 62
   256
  6
BYLAYER
 49
-0.5
 62
   256
  6
BYLAYER
  0
ACDBPLACEHOLDER
  5
F
102
{ACAD_REACTORS
330
E
102
}
330
E
  0
VISUALSTYLE
  5
2F
102
{ACAD_REACTORS
330
2A
102
}
330
2A
100
AcDbVisualStyle
  2
2dWireframe
 70
     4
 71
     0
 72
     2
 73
     0
 90
        0
 40
-0.6
 41
-30.0
 62
     5
 63
     7
421
 16777215
 74
     1
 91
        4
 64
     7
 65
   257
 75
     1
175
     1
 42
1.0
 92
        0
 66
   257
 43
1.0
 76
     1
 77
     6
 78
     2
 67
     7
 79
     5
170
     0
171
     0
290
     0
174
     0
 93
        1
 44
0.0
173
     0
291
     0
 45
0.0
1001
ACAD
1000
AcDbSavedByObjectVersion
1070
     0
  0
VISUALSTYLE
  5
31
102
{ACAD_REACTORS
330
2A
102
}
330
2A
100
AcDbVisualStyle
  2
3D Hidden
 70
     6
 71
     1
 72
     2
 73
     2
 90
        0
 40
-0.6
 41
-30.0
 62
     5
 63
     7
421
 16777215
 74
     2
 91
        2
 64
     7
 65
   257
 75
     2
175
     1
 42
40.0
 92
        0
 66
   257
 43
1.0
 76
     1
 77
     6
 78
     2
 67
     7
 79
     3
170
     0
171
     0
290
     0
174
     0
 93
        1
 44
0.0
173
     0
291
     0
 45
0.0
1001
ACAD
1000
AcDbSavedByObjectVersion
1070
     0
  0
VISUALSTYLE
  5
30
102
{ACAD_REACTORS
330
2A
102
}
330
2A
100
AcDbVisualStyle
  2
3dWireframe
 70
     5
 71
     0
 72
     2
 73
     0
 90
        0
 40
-0.6
 41
-30.0
 62
     5
 63
     7
421
 16777215
 74
     1
 91
        4
 64
     7
 65
   257
 75
     1
175
     1
 42
1.0
 92
        0
 66
   257
 43
1.0
 76
     1
 77
     6
 78
     2
 67
     7
 79
     5
170
     0
171
     0
290
     0
174
     0
 93
        1
 44
0.0
173
     0
291
     0
 45
0.0
1001
ACAD
1000
AcDbSavedByObjectVersion
1070
     0
  0
VISUALSTYLE
  5
32
102
{ACAD_REACTORS
330
2A
102
}
330
2A
100
AcDbVisualStyle
  2
Basic
 70
     7
 71
     1
 72
     0
 73
     1
 90
        0
 40
-0.6
 41
-30.0
 62
     5
 63
     7
421
 16777215
 74
     0
 91
        4
 64
     7
 65
   257
 75
     1
175
     1
 42
1.0
 92
        8
 66
     7
 43
1.0
 76
     1
 77
     6
 78
     2
 67
     7
 79
     5
170
     0
171
     0
290
     0
174
     0
 93
        1
 44
0.0
173
     0
291
     1
 45
0.0
1001
ACAD
1000
AcDbSavedByObjectVersion
1070
     0
  0
VISUALSTYLE
  5
36
102
{ACAD_REACTORS
330
2A
102
}
330
2A
100
AcDbVisualStyle
  2
Brighten
 70
    12
 71
     2
 72
     2
 73
     0
 90
        0
 40
-0.6
 41
-30.0
 62
     5
 63
     7
421
 16777215
 74
     1
 91
        4
 64
     7
 65
   257
 75
     1
175
     1
 42
1.0
 92
        8
 66
     7
 43
1.0
 76
     1
 77
     6
 78
     2
 67
     7
 79
     5
170
     0
171
     0
290
     0
174
     0
 93
        1
 44
50.0
173
     0
291
     1
 45
0.0
1001
ACAD
1000
AcDbSavedByObjectVersion
1070
     0
  0
VISUALSTYLE
  5
3A
102
{ACAD_REACTORS
330
2A
102
}
330
2A
100
AcDbVisualStyle
  2
ColorChange
 70
    16
 71
     2
 72
     2
 73
     3
 90
        0
 40
-0.6
 41
-30.0
 62
     5
 63
     8
421
  8421504
 74
     1
 91
        4
 64
     7
 65
   257
 75
     1
175
     1
 42
1.0
 92
        8
 66
     8
424
  8421504
 43
1.0
 76
     1
 77
     6
 78
     2
 67
     7
 79
     5
170
     0
171
     0
290
     0
174
     0
 93
        1
 44
0.0
173
     0
291
     1
 45
0.0
1001
ACAD
1000
AcDbSavedByObjectVersion
1070
     0
  0
VISUALSTYLE
  5
34
102
{ACAD_REACTORS
330
2A
102
}
330
2A
100
AcDbVisualStyle
  2
Conceptual
 70
     9
 71
     3
 72
     2
 73
     0
 90
        0
 40
-0.6
 41
-30.0
 62
     5
 63
     7
421
 16777215
 74
     2
 91
        2
 64
     7
 65
   257
 75
     1
175
     1
 42
40.0
 92
        8
 66
     7
 43
1.0
 76
     1
 77
     6
 78
     2
 67
     7
 79
     3
170
     0
171
     0
290
     0
174
     0
 93
        1
 44
0.0
173
     0
291
     0
 45
0.0
1001
ACAD
1000
AcDbSavedByObjectVersion
1070
     0
  0
VISUALSTYLE
  5
35
102
{ACAD_REACTORS
330
2A
102
}
330
2A
100
AcDbVisualStyle
  2
Dim
 70
    11
 71
     2
 72
     2
 73
     0
 90
        0
 40
-0.6
 41
-30.0
 62
     5
 63
     7
421
 16777215
 74
     1
 91
        4
 64
     7
 65
   257
 75
     1
175
     1
 42
1.0
 92
        8
 66
     7
 43
1.0
 76
     1
 77
     6
 78
     2
 67
     7
 79
     5
170
     0
171
     0
290
     0
174
     0
 93
        1
 44
-50.0
173
     0
291
     1
 45
0.0
1001
ACAD
1000
AcDbSavedByObjectVersion
1070
     0
  0
VISUALSTYLE
  5
39
102
{ACAD_REACTORS
330
2A
102
}
330
2A
100
AcDbVisualStyle
  2
Facepattern
 70
    15
 71
     2
 72
     2
 73
     0
 90
        0
 40
-0.6
 41
-30.0
 62
     5
 63
     7
421
 16777215
 74
     1
 91
        4
 64
     7
 65
   257
 75
     1
175
     1
 42
1.0
 92
        8
 66
     7
 43
1.0
 76
     1
 77
     6
 78
     2
 67
     7
 79
     5
170
     0
171
     0
290
     0
174
     0
 93
        1
 44
0.0
173
     0
291
     1
 45
0.0
1001
ACAD
1000
AcDbSavedByObjectVersion
1070
     0
  0
VISUALSTYLE
  5
2B
102
{ACAD_REACTORS
330
2A
102
}
330
2A
100
AcDbVisualStyle
  2
Flat
 70
     0
 71
     2
 72
     1
 73
     1
 90
        2
 40
-0.6
 41
30.0
 62
     5
 63
     7
421
 16777215
 74
     0
 91
        4
 64
     7
 65
   257
 75
     1
175
     1
 42
1.0
 92
        8
 66
     7
 43
1.0
 76
     1
 77
     6
 78
     2
 67
     7
 79
     5
170
     0
171
     0
290
     0
174
     0
 93
       13
 44
0.0
173
     0
291
     1
 45
0.0
1001
ACAD
1000
AcDbSavedByObjectVersion
1070
     0
  0
VISUALSTYLE
  5
2C
102
{ACAD_REACTORS
330
2A
102
}
330
2A
100
AcDbVisualStyle
  2
FlatWithEdges
 70
     1
 71
     2
 72
     1
 73
     1
 90
        2
 40
-0.6
 41
30.0
 62
     5
 63
     7
421
 16777215
 74
     1
 91
        4
 64
     7
 65
   257
 75
     1
175
     1
 42
1.0
 92
        0
 66
   257
 43
1.0
 76
     1
 77
     6
 78
     2
 67
     7
 79
     5
170
     0
171
     0
290
     0
174
     0
 93
       13
 44
0.0
173
     0
291
     1
 45
0.0
1001
ACAD
1000
AcDbSavedByObjectVersion
1070
     0
  0
VISUALSTYLE
  5
2D
102
{ACAD_REACTORS
330
2A
102
}
330
2A
100
AcDbVisualStyle
  2
Gouraud
 70
     2
 71
     2
 72
     2
 73
     1
 90
        2
 40
-0.6
 41
30.0
 62
     5
 63
     7
421
 16777215
 74
     0
 91
        4
 64
     7
 65
   257
 75
     1
175
     1
 42
1.0
 92
        0
 66
     7
 43
1.0
 76
     1
 77
     6
 78
     2
 67
     7
 79
     5
170
     0
171
     0
290
     0
174
     0
 93
       13
 44
0.0
173
     0
291
     1
 45
0.0
1001
ACAD
1000
AcDbSavedByObjectVersion
1070
     0
  0
VISUALSTYLE
  5
2E
102
{ACAD_REACTORS
330
2A
102
}
330
2A
100
AcDbVisualStyle
  2
GouraudWithEdges
 70
     3
 71
     2
 72
     2
 73
     1
 90
        2
 40
-0.6
 41
30.0
 62
     5
 63
     7
421
 16777215
 74
     1
 91
        4
 64
     7
 65
   257
 75
     1
175
     1
 42
1.0
 92
        0
 66
   257
 43
1.0
 76
     1
 77
     6
 78
     2
 67
     7
 79
     5
170
     0
171
     0
290
     0
174
     0
 93
       13
 44
0.0
173
     0
291
     1
 45
0.0
1001
ACAD
1000
AcDbSavedByObjectVersion
1070
     0
  0
VISUALSTYLE
  5
38
102
{ACAD_REACTORS
330
2A
102
}
330
2A
100
AcDbVisualStyle
  2
Linepattern
 70
    14
 71
     2
 72
     2
 73
     0
 90
        0
 40
-0.6
 41
-30.0
 62
     5
 63
     7
421
 16777215
 74
     1
 91
        4
 64
     7
 65
   257
 75
     7
175
     7
 42
1.0
 92
        8
 66
     7
 43
1.0
 76
     1
 77
     6
 78
     2
 67
     7
 79
     5
170
     0
171
     0
290
     0
174
     0
 93
        1
 44
0.0
173
     0
291
     1
 45
0.0
1001
ACAD
1000
AcDbSavedByObjectVersion
1070
     0
  0
VISUALSTYLE
  5
33
102
{ACAD_REACTORS
330
2A
102
}
330
2A
100
AcDbVisualStyle
  2
Realistic
 70
     8
 71
     2
 72
     2
 73
     0
 90
        0
 40
-0.6
 41
-30.0
 62
     5
 63
     7
421
 16777215
 74
     1
 91
        0
 64
     7
 65
   257
 75
     1
175
     1
 42
1.0
 92
        8
 66
     8
424
  7895160
 43
1.0
 76
     1
 77
     6
 78
     2
 67
     7
 79
     5
170
     0
171
     0
290
     0
174
     0
 93
       13
 44
0.0
173
     0
291
     0
 45
0.0
1001
ACAD
1000
AcDbSavedByObjectVersion
1070
     0
  0
VISUALSTYLE
  5
37
102
{ACAD_REACTORS
330
2A
102
}
330
2A
100
AcDbVisualStyle
  2
Thicken
 70
    13
 71
     2
 72
     2
 73
     0
 90
        0
 40
-0.6
 41
-30.0
 62
     5
 63
     7
421
 16777215
 74
     1
 91
        4
 64
     7
 65
   257
 75
     1
175
     1
 42
1.0
 92
       12
 66
     7
 43
1.0
 76
     1
 77
     6
 78
     2
 67
     7
 79
     5
170
     0
171
     0
290
     0
174
     0
 93
        1
 44
0.0
173
     0
291
     1
 45
0.0
1001
ACAD
1000
AcDbSavedByObjectVersion
1070
     0
  0
ENDSEC
  0
EOF
