  0
SECTION
  2
HEADER
  9
$ACADVER
  1
AC1018
  9
$ACADMAINTVER
 70
     0
  9
$DWGCODEPAGE
  3
ANSI_1252
  9
$INSBASE
 10
0.0
 20
0.0
 30
0.0
  9
$EXTMIN
 10
-27.27148124479584
 20
-0.0000000403608169
 30
0.0
  9
$EXTMAX
 10
66.98282668741419
 20
55.94659510724823
 30
0.0
  9
$LIMMIN
 10
0.0
 20
0.0
  9
$LIMMAX
 10
12.0
 20
9.0
  9
$ORTHOMODE
 70
     0
  9
$REGENMODE
 70
     1
  9
$FILLMODE
 70
     1
  9
$QTEXTMODE
 70
     0
  9
$MIRRTEXT
 70
     1
  9
$LTSCALE
 40
0.0393700787401575
  9
$ATTMODE
 70
     1
  9
$TEXTSIZE
 40
0.2
  9
$TRACEWID
 40
0.05
  9
$TEXTSTYLE
  7
Standard
  9
$CLAYER
  8
Default
  9
$CELTYPE
  6
ByLayer
  9
$CECOLOR
 62
   256
  9
$CELTSCALE
 40
1.0
  9
$DISPSILH
 70
     0
  9
$DIMSCALE
 40
1.0
  9
$DIMASZ
 40
0.18
  9
$DIMEXO
 40
0.0625
  9
$DIMDLI
 40
0.38
  9
$DIMRND
 40
0.0
  9
$DIMDLE
 40
0.0
  9
$DIMEXE
 40
0.18
  9
$DIMTP
 40
0.0
  9
$DIMTM
 40
0.0
  9
$DIMTXT
 40
0.18
  9
$DIMCEN
 40
0.09
  9
$DIMTSZ
 40
0.0
  9
$DIMTOL
 70
     0
  9
$DIMLIM
 70
     0
  9
$DIMTIH
 70
     1
  9
$DIMTOH
 70
     1
  9
$DIMSE1
 70
     0
  9
$DIMSE2
 70
     0
  9
$DIMTAD
 70
     0
  9
$DIMZIN
 70
     0
  9
$DIMBLK
  1

  9
$DIMASO
 70
     1
  9
$DIMSHO
 70
     1
  9
$DIMPOST
  1

  9
$DIMAPOST
  1

  9
$DIMALT
 70
     0
  9
$DIMALTD
 70
     2
  9
$DIMALTF
 40
25.4
  9
$DIMLFAC
 40
1.0
  9
$DIMTOFL
 70
     0
  9
$DIMTVP
 40
0.0
  9
$DIMTIX
 70
     0
  9
$DIMSOXD
 70
     0
  9
$DIMSAH
 70
     0
  9
$DIMBLK1
  1

  9
$DIMBLK2
  1

  9
$DIMSTYLE
  2
Standard
  9
$DIMCLRD
 70
     0
  9
$DIMCLRE
 70
     0
  9
$DIMCLRT
 70
     0
  9
$DIMTFAC
 40
1.0
  9
$DIMGAP
 40
0.09
  9
$DIMJUST
 70
     0
  9
$DIMSD1
 70
     0
  9
$DIMSD2
 70
     0
  9
$DIMTOLJ
 70
     1
  9
$DIMTZIN
 70
     0
  9
$DIMALTZ
 70
     0
  9
$DIMALTTZ
 70
     0
  9
$DIMUPT
 70
     0
  9
$DIMDEC
 70
     4
  9
$DIMTDEC
 70
     4
  9
$DIMALTU
 70
     2
  9
$DIMALTTD
 70
     2
  9
$DIMTXSTY
  7
Standard
  9
$DIMAUNIT
 70
     0
  9
$DIMADEC
 70
     0
  9
$DIMALTRND
 40
0.0
  9
$DIMAZIN
 70
     0
  9
$DIMDSEP
 70
    46
  9
$DIMATFIT
 70
     3
  9
$DIMFRAC
 70
     0
  9
$DIMLDRBLK
  1

  9
$DIMLUNIT
 70
     2
  9
$DIMLWD
 70
    -2
  9
$DIMLWE
 70
    -2
  9
$DIMTMOVE
 70
     2
  9
$LUNITS
 70
     2
  9
$LUPREC
 70
     3
  9
$SKETCHINC
 40
0.1
  9
$FILLETRAD
 40
0.5
  9
$AUNITS
 70
     0
  9
$AUPREC
 70
     0
  9
$MENU
  1
.
  9
$ELEVATION
 40
0.0
  9
$PELEVATION
 40
0.0
  9
$THICKNESS
 40
0.0
  9
$LIMCHECK
 70
     0
  9
$CHAMFERA
 40
0.5
  9
$CHAMFERB
 40
0.5
  9
$CHAMFERC
 40
1.0
  9
$CHAMFERD
 40
0.0
  9
$SKPOLY
 70
     0
  9
$TDCREATE
 40
2458155.49011243
  9
$TDUCREATE
 40
2458155.698445764
  9
$TDUPDATE
 40
2458155.490112442
  9
$TDUUPDATE
 40
2458155.698445776
  9
$TDINDWG
 40
0.0000000116
  9
$TDUSRTIMER
 40
0.0000000116
  9
$USRTIMER
 70
     1
  9
$ANGBASE
 50
0.0
  9
$ANGDIR
 70
     0
  9
$PDMODE
 70
     0
  9
$PDSIZE
 40
0.0
  9
$PLINEWID
 40
0.0
  9
$SPLFRAME
 70
     0
  9
$SPLINETYPE
 70
     6
  9
$SPLINESEGS
 70
     8
  9
$HANDSEED
  5
AE
  9
$SURFTAB1
 70
     6
  9
$SURFTAB2
 70
     6
  9
$SURFTYPE
 70
     6
  9
$SURFU
 70
     6
  9
$SURFV
 70
     6
  9
$UCSBASE
  2

  9
$UCSNAME
  2

  9
$UCSORG
 10
0.0
 20
0.0
 30
0.0
  9
$UCSXDIR
 10
1.0
 20
0.0
 30
0.0
  9
$UCSYDIR
 10
0.0
 20
1.0
 30
0.0
  9
$UCSORTHOREF
  2

  9
$UCSORTHOVIEW
 70
     0
  9
$UCSORGTOP
 10
0.0
 20
0.0
 30
0.0
  9
$UCSORGBOTTOM
 10
0.0
 20
0.0
 30
0.0
  9
$UCSORGLEFT
 10
0.0
 20
0.0
 30
0.0
  9
$UCSORGRIGHT
 10
0.0
 20
0.0
 30
0.0
  9
$UCSORGFRONT
 10
0.0
 20
0.0
 30
0.0
  9
$UCSORGBACK
 10
0.0
 20
0.0
 30
0.0
  9
$PUCSBASE
  2

  9
$PUCSNAME
  2

  9
$PUCSORG
 10
0.0
 20
0.0
 30
0.0
  9
$PUCSXDIR
 10
1.0
 20
0.0
 30
0.0
  9
$PUCSYDIR
 10
0.0
 20
1.0
 30
0.0
  9
$PUCSORTHOREF
  2

  9
$PUCSORTHOVIEW
 70
     0
  9
$PUCSORGTOP
 10
0.0
 20
0.0
 30
0.0
  9
$PUCSORGBOTTOM
 10
0.0
 20
0.0
 30
0.0
  9
$PUCSORGLEFT
 10
0.0
 20
0.0
 30
0.0
  9
$PUCSORGRIGHT
 10
0.0
 20
0.0
 30
0.0
  9
$PUCSORGFRONT
 10
0.0
 20
0.0
 30
0.0
  9
$PUCSORGBACK
 10
0.0
 20
0.0
 30
0.0
  9
$USERI1
 70
     0
  9
$USERI2
 70
     0
  9
$USERI3
 70
     0
  9
$USERI4
 70
     0
  9
$USERI5
 70
     0
  9
$USERR1
 40
0.0
  9
$USERR2
 40
0.0
  9
$USERR3
 40
0.0
  9
$USERR4
 40
0.0
  9
$USERR5
 40
0.0
  9
$WORLDVIEW
 70
     1
  9
$SHADEDGE
 70
     3
  9
$SHADEDIF
 70
    70
  9
$TILEMODE
 70
     1
  9
$MAXACTVP
 70
    64
  9
$PINSBASE
 10
0.0
 20
0.0
 30
0.0
  9
$PLIMCHECK
 70
     0
  9
$PEXTMIN
 10
1.000000000000000E+20
 20
1.000000000000000E+20
 30
1.000000000000000E+20
  9
$PEXTMAX
 10
-1.000000000000000E+20
 20
-1.000000000000000E+20
 30
-1.000000000000000E+20
  9
$PLIMMIN
 10
0.0
 20
0.0
  9
$PLIMMAX
 10
12.0
 20
9.0
  9
$UNITMODE
 70
     0
  9
$VISRETAIN
 70
     1
  9
$PLINEGEN
 70
     0
  9
$PSLTSCALE
 70
     1
  9
$TREEDEPTH
 70
  3020
  9
$CMLSTYLE
  2
Standard
  9
$CMLJUST
 70
     0
  9
$CMLSCALE
 40
1.0
  9
$PROXYGRAPHICS
 70
     1
  9
$MEASUREMENT
 70
     0
  9
$CELWEIGHT
370
    -1
  9
$ENDCAPS
280
     0
  9
$JOINSTYLE
280
     0
  9
$LWDISPLAY
290
     0
  9
$INSUNITS
 70
     1
  9
$HYPERLINKBASE
  1

  9
$STYLESHEET
  1

  9
$XEDIT
290
     1
  9
$CEPSNTYPE
380
     0
  9
$PSTYLEMODE
290
     1
  9
$FINGERPRINTGUID
  2
{4DC63D5D-E55F-427C-AEAE-8DD7911D86A0}
  9
$VERSIONGUID
  2
{FAEB1C32-E019-11D5-929B-00C0DF256EC4}
  9
$EXTNAMES
290
     1
  9
$PSVPSCALE
 40
0.0
  9
$OLESTARTUP
290
     0
  9
$SORTENTS
280
   127
  9
$INDEXCTL
280
     0
  9
$HIDETEXT
280
     1
  9
$XCLIPFRAME
290
     0
  9
$HALOGAP
280
     0
  9
$OBSCOLOR
 70
   257
  9
$OBSLTYPE
280
     0
  9
$INTERSECTIONDISPLAY
280
     0
  9
$INTERSECTIONCOLOR
 70
   257
  9
$DIMASSOC
280
     2
  9
$PROJECTNAME
  1

  0
ENDSEC
  0
SECTION
  2
CLASSES
  0
CLASS
  1
ACDBDICTIONARYWDFLT
  2
AcDbDictionaryWithDefault
  3
ObjectDBX Classes
 90
        0
 91
        4
280
     0
281
     0
  0
CLASS
  1
VISUALSTYLE
  2
AcDbVisualStyle
  3
ObjectDBX Classes
 90
     4095
 91
        4
280
     0
281
     0
  0
ENDSEC
  0
SECTION
  2
TABLES
  0
TABLE
  2
VPORT
  5
8
330
0
100
AcDbSymbolTable
 70
     1
  0
VPORT
  5
29
330
8
100
AcDbSymbolTableRecord
100
AcDbViewportTableRecord
  2
*Active
 70
     0
 10
0.0
 20
0.0
 11
1.0
 21
1.0
 12
19.85567272130918
 22
27.97329753344371
 13
0.0
 23
0.0
 14
0.5
 24
0.5
 15
0.5
 25
0.5
 16
0.0
 26
0.0
 36
1.0
 17
0.0
 27
0.0
 37
0.0
 40
57.06552705056123
 41
1.684719287805276
 42
50.0
 43
0.0
 44
0.0
 50
0.0
 51
0.0
 71
     0
 72
   100
 73
     1
 74
     3
 75
     0
 76
     0
 77
     0
 78
     0
281
     0
 65
     1
110
0.0
120
0.0
130
0.0
111
1.0
121
0.0
131
0.0
112
0.0
122
1.0
132
0.0
 79
     0
146
0.0
  0
ENDTAB
  0
TABLE
  2
LTYPE
  5
5
330
0
100
AcDbSymbolTable
 70
     1
  0
LTYPE
  5
14
330
5
100
AcDbSymbolTableRecord
100
AcDbLinetypeTableRecord
  2
ByBlock
 70
     0
  3

 72
    65
 73
     0
 40
0.0
  0
LTYPE
  5
15
330
5
100
AcDbSymbolTableRecord
100
AcDbLinetypeTableRecord
  2
ByLayer
 70
     0
  3

 72
    65
 73
     0
 40
0.0
  0
LTYPE
  5
16
330
5
100
AcDbSymbolTableRecord
100
AcDbLinetypeTableRecord
  2
Continuous
 70
     0
  3
Solid line
 72
    65
 73
     0
 40
0.0
  0
ENDTAB
  0
TABLE
  2
LAYER
  5
2
330
0
100
AcDbSymbolTable
 70
     2
  0
LAYER
  5
10
330
2
100
AcDbSymbolTableRecord
100
AcDbLayerTableRecord
  2
0
 70
     0
 62
     7
  6
Continuous
370
    -3
390
F
  0
LAYER
  5
3B
330
2
100
AcDbSymbolTableRecord
100
AcDbLayerTableRecord
  2
Default
 70
     0
 62
     7
  6
Continuous
370
    -3
390
F
  0
ENDTAB
  0
TABLE
  2
STYLE
  5
3
330
0
100
AcDbSymbolTable
 70
     1
  0
STYLE
  5
11
330
3
100
AcDbSymbolTableRecord
100
AcDbTextStyleTableRecord
  2
Standard
 70
     0
 40
0.0
 41
1.0
 50
0.0
 71
     0
 42
0.2
  3
txt
  4

  0
ENDTAB
  0
TABLE
  2
VIEW
  5
6
330
0
100
AcDbSymbolTable
 70
     0
  0
ENDTAB
  0
TABLE
  2
UCS
  5
7
330
0
100
AcDbSymbolTable
 70
     0
  0
ENDTAB
  0
TABLE
  2
APPID
  5
9
330
0
100
AcDbSymbolTable
 70
     1
  0
APPID
  5
12
330
9
100
AcDbSymbolTableRecord
100
AcDbRegAppTableRecord
  2
ACAD
 70
     0
  0
ENDTAB
  0
TABLE
  2
DIMSTYLE
  5
A
330
0
100
AcDbSymbolTable
 70
     1
100
AcDbDimStyleTable
  0
DIMSTYLE
105
27
330
A
100
AcDbSymbolTableRecord
100
AcDbDimStyleTableRecord
  2
Standard
 70
     0
340
11
  0
ENDTAB
  0
TABLE
  2
BLOCK_RECORD
  5
1
330
0
100
AcDbSymbolTable
 70
     1
  0
BLOCK_RECORD
  5
1F
330
1
100
AcDbSymbolTableRecord
100
AcDbBlockTableRecord
  2
*Model_Space
340
22
  0
BLOCK_RECORD
  5
1B
330
1
100
AcDbSymbolTableRecord
100
AcDbBlockTableRecord
  2
*Paper_Space
340
1E
  0
BLOCK_RECORD
  5
23
330
1
100
AcDbSymbolTableRecord
100
AcDbBlockTableRecord
  2
*Paper_Space0
340
26
  0
ENDTAB
  0
ENDSEC
  0
SECTION
  2
BLOCKS
  0
BLOCK
  5
20
330
1F
100
AcDbEntity
  8
0
100
AcDbBlockBegin
  2
*Model_Space
 70
     0
 10
0.0
 20
0.0
 30
0.0
  3
*Model_Space
  1

  0
ENDBLK
  5
21
330
1F
100
AcDbEntity
  8
0
100
AcDbBlockEnd
  0
BLOCK
  5
1C
330
1B
100
AcDbEntity
 67
     1
  8
0
100
AcDbBlockBegin
  2
*Paper_Space
 70
     0
 10
0.0
 20
0.0
 30
0.0
  3
*Paper_Space
  1

  0
ENDBLK
  5
1D
330
1B
100
AcDbEntity
 67
     1
  8
0
100
AcDbBlockEnd
  0
BLOCK
  5
24
330
23
100
AcDbEntity
  8
0
100
AcDbBlockBegin
  2
*Paper_Space0
 70
     0
 10
0.0
 20
0.0
 30
0.0
  3
*Paper_Space0
  1

  0
ENDBLK
  5
25
330
23
100
AcDbEntity
  8
0
100
AcDbBlockEnd
  0
ENDSEC
  0
SECTION
  2
ENTITIES
  0
POLYLINE
  5
3C
330
1F
100
AcDbEntity
  8
Default
100
AcDb2dPolyline
 66
     1
 10
0.0
 20
0.0
 30
0.0
  0
VERTEX
  5
3D
330
3C
100
AcDbEntity
  8
Default
100
AcDbVertex
100
AcDb2dVertex
 10
-21.37499999999611
 20
55.94659510724823
 30
0.0
  0
VERTEX
  5
3E
330
3C
100
AcDbEntity
  8
Default
100
AcDbVertex
100
AcDb2dVertex
 10
21.3750000000039
 20
55.94659510724823
 30
0.0
  0
SEQEND
  5
3F
330
3C
100
AcDbEntity
  8
Default
  0
SPLINE
  5
40
330
1F
100
AcDbEntity
  8
Default
100
AcDbSpline
210
0.0
220
0.0
230
1.0
 70
    12
 71
     2
 72
     6
 73
     3
 74
     0
 42
0.0000000001
 43
0.0000000001
 40
0.0
 40
0.0
 40
0.0
 40
9.262169711996068
 40
9.262169711996068
 40
9.262169711996068
 10
21.3750000000039
 20
55.94659510724823
 30
0.0
 41
1.0
 10
27.27147805668965
 20
55.94659191913427
 30
0.0
 41
0.7071071635056856
 10
27.27148124480363
 20
50.05011386244853
 30
0.0
 41
1.0
  0
POLYLINE
  5
41
330
1F
100
AcDbEntity
  8
Default
100
AcDb2dPolyline
 66
     1
 10
0.0
 20
0.0
 30
0.0
  0
VERTEX
  5
42
330
41
100
AcDbEntity
  8
Default
100
AcDbVertex
100
AcDb2dVertex
 10
27.27148124480363
 20
50.05011386244853
 30
0.0
  0
VERTEX
  5
43
330
41
100
AcDbEntity
  8
Default
100
AcDbVertex
100
AcDb2dVertex
 10
27.27148124480363
 20
37.30011386244853
 30
0.0
  0
SEQEND
  5
44
330
41
100
AcDbEntity
  8
Default
  0
SPLINE
  5
45
330
1F
100
AcDbEntity
  8
Default
100
AcDbSpline
210
0.0
220
0.0
230
1.0
 70
    12
 71
     2
 72
     6
 73
     3
 74
     0
 42
0.0000000001
 43
0.0000000001
 40
0.0
 40
0.0
 40
0.0
 40
9.262169711996073
 40
9.262169711996073
 40
9.262169711996073
 10
27.27148124480363
 20
37.30011386244853
 30
0.0
 41
1.0
 10
27.27147805668966
 20
31.40363580576272
 30
0.0
 41
0.7071071635056826
 10
21.3750000000039
 20
31.40363261764877
 30
0.0
 41
1.0
  0
POLYLINE
  5
46
330
1F
100
AcDbEntity
  8
Default
100
AcDb2dPolyline
 66
     1
 10
0.0
 20
0.0
 30
0.0
  0
VERTEX
  5
47
330
46
100
AcDbEntity
  8
Default
100
AcDbVertex
100
AcDb2dVertex
 10
21.3750000000039
 20
31.40363261764877
 30
0.0
  0
VERTEX
  5
48
330
46
100
AcDbEntity
  8
Default
100
AcDbVertex
100
AcDb2dVertex
 10
-21.37499999999611
 20
31.40363261764877
 30
0.0
  0
SEQEND
  5
49
330
46
100
AcDbEntity
  8
Default
  0
SPLINE
  5
4A
330
1F
100
AcDbEntity
  8
Default
100
AcDbSpline
210
0.0
220
0.0
230
1.0
 70
    12
 71
     2
 72
     6
 73
     3
 74
     0
 42
0.0000000001
 43
0.0000000001
 40
0.0
 40
0.0
 40
0.0
 40
9.262169711996066
 40
9.262169711996066
 40
9.262169711996066
 10
-21.37499999999611
 20
31.40363261764877
 30
0.0
 41
1.0
 10
-27.27147805668186
 20
31.40363580576272
 30
0.0
 41
0.707107163505685
 10
-27.27148124479584
 20
37.30011386244853
 30
0.0
 41
1.0
  0
POLYLINE
  5
4B
330
1F
100
AcDbEntity
  8
Default
100
AcDb2dPolyline
 66
     1
 10
0.0
 20
0.0
 30
0.0
  0
VERTEX
  5
4C
330
4B
100
AcDbEntity
  8
Default
100
AcDbVertex
100
AcDb2dVertex
 10
-27.27148124479584
 20
37.30011386244853
 30
0.0
  0
VERTEX
  5
4D
330
4B
100
AcDbEntity
  8
Default
100
AcDbVertex
100
AcDb2dVertex
 10
-27.27148124479584
 20
50.05011386244853
 30
0.0
  0
SEQEND
  5
4E
330
4B
100
AcDbEntity
  8
Default
  0
SPLINE
  5
4F
330
1F
100
AcDbEntity
  8
Default
100
AcDbSpline
210
0.0
220
0.0
230
1.0
 70
    12
 71
     2
 72
     6
 73
     3
 74
     0
 42
0.0000000001
 43
0.0000000001
 40
0.0
 40
0.0
 40
0.0
 40
9.262169711996089
 40
9.262169711996089
 40
9.262169711996089
 10
-27.27148124479584
 20
50.05011386244853
 30
0.0
 41
1.0
 10
-27.2714780566819
 20
55.94659191913429
 30
0.0
 41
0.707107163505682
 10
-21.37499999999611
 20
55.94659510724823
 30
0.0
 41
1.0
  0
POLYLINE
  5
50
330
1F
100
AcDbEntity
  8
Default
100
AcDb2dPolyline
 66
     1
 10
0.0
 20
0.0
 30
0.0
  0
VERTEX
  5
51
330
50
100
AcDbEntity
  8
Default
100
AcDbVertex
100
AcDb2dVertex
 10
61.47074105586142
 20
14.8129999192777
 30
0.0
  0
VERTEX
  5
52
330
50
100
AcDbEntity
  8
Default
100
AcDbVertex
100
AcDb2dVertex
 10
59.45184451322861
 20
14.812999919282
 30
0.0
  0
SEQEND
  5
53
330
50
100
AcDbEntity
  8
Default
  0
SPLINE
  5
54
330
1F
100
AcDbEntity
  8
Default
100
AcDbSpline
210
0.0
220
0.0
230
1.0
 70
    12
 71
     2
 72
    16
 73
    13
 74
     0
 42
0.0000000001
 43
0.0000000001
 40
0.0
 40
0.0
 40
0.0
 40
14.6733510749705
 40
14.6733510749705
 40
14.84345788105449
 40
14.84345788105449
 40
15.85052371762282
 40
15.85052371762282
 40
15.95787018865748
 40
15.95787018865748
 40
16.06521665969213
 40
16.06521665969213
 40
30.58670883596351
 40
30.58670883596351
 40
30.58670883596351
 10
59.45184451322861
 20
14.812999919282
 30
0.0
 41
1.0
 10
60.91062541708334
 20
7.547152613016356
 30
0.0
 41
0.9999996726897782
 10
62.34334645998915
 20
0.3507825925370263
 30
0.0
 41
1.0
 10
62.36480552270902
 20
0.2500273503509816
 30
0.0
 41
0.777405872740653
 10
62.46596712508469
 20
0.2499999192837663
 30
0.0
 41
1.0
 10
62.96950004336885
 20
0.2499999192810662
 30
0.0
 41
1.0
 10
63.47303296165302
 20
0.2499999192783662
 30
0.0
 41
1.0
 10
63.53026798095868
 20
0.2499991086325327
 30
0.0
 41
0.9092151743920063
 10
63.56766277783107
 20
0.2933289667265626
 30
0.0
 41
1.0
 10
63.60505757470347
 20
0.3366588248205729
 30
0.0
 41
0.9092151743920063
 10
63.59652007095473
 20
0.3944097911438291
 30
0.0
 41
1.0
 10
62.53740161586852
 20
7.578072081221663
 30
0.0
 41
1.0
 10
61.47074105586142
 20
14.8129999192777
 30
0.0
 41
1.0
  0
POLYLINE
  5
55
330
1F
100
AcDbEntity
  8
Default
100
AcDb2dPolyline
 66
     1
 10
0.0
 20
0.0
 30
0.0
  0
VERTEX
  5
56
330
55
100
AcDbEntity
  8
Default
100
AcDbVertex
100
AcDb2dVertex
 10
62.46134749279605
 20
14.81299991927835
 30
0.0
  0
VERTEX
  5
57
330
55
100
AcDbEntity
  8
Default
100
AcDbVertex
100
AcDb2dVertex
 10
58.46134749279605
 20
14.81299991927835
 30
0.0
  0
VERTEX
  5
58
330
55
100
AcDbEntity
  8
Default
100
AcDbVertex
100
AcDb2dVertex
 10
58.46134749279605
 20
15.00099991927837
 30
0.0
  0
VERTEX
  5
59
330
55
100
AcDbEntity
  8
Default
100
AcDbVertex
100
AcDb2dVertex
 10
62.46134749279605
 20
15.00099991927837
 30
0.0
  0
VERTEX
  5
5A
330
55
100
AcDbEntity
  8
Default
100
AcDbVertex
100
AcDb2dVertex
 10
62.46134749279605
 20
14.81299991927835
 30
0.0
  0
SEQEND
  5
5B
330
55
100
AcDbEntity
  8
Default
  0
POLYLINE
  5
5C
330
1F
100
AcDbEntity
  8
Default
100
AcDb2dPolyline
 66
     1
 10
0.0
 20
0.0
 30
0.0
  0
VERTEX
  5
5D
330
5C
100
AcDbEntity
  8
Default
100
AcDbVertex
100
AcDb2dVertex
 10
63.33291179105457
 20
0.2499999192783662
 30
0.0
  0
VERTEX
  5
5E
330
5C
100
AcDbEntity
  8
Default
100
AcDbVertex
100
AcDb2dVertex
 10
62.70791179105462
 20
0.2499999192783662
 30
0.0
  0
SEQEND
  5
5F
330
5C
100
AcDbEntity
  8
Default
  0
SPLINE
  5
60
330
1F
100
AcDbEntity
  8
Default
100
AcDbSpline
210
0.0
220
0.0
230
1.0
 70
    12
 71
     3
 72
    12
 73
     8
 74
     0
 42
0.0000000001
 43
0.0000000001
 40
0.0
 40
0.0
 40
0.0
 40
0.0
 40
0.12
 40
0.2100000000000001
 40
0.3100000000000002
 40
0.3650000000000002
 40
0.4176648637828754
 40
0.4176648637828754
 40
0.4176648637828754
 40
0.4176648637828754
 10
62.70791179105462
 20
0.2499999192783662
 30
0.0
 41
1.0
 10
62.72522477316194
 20
0.213940792132064
 30
0.0
 41
1.0
 10
62.76308342170893
 20
0.1544276548511903
 30
0.0
 41
1.0
 10
62.83603181943239
 20
0.0807274527768413
 30
0.0
 41
1.0
 10
62.9028785611508
 20
0.0329933822788178
 30
0.0
 41
1.0
 10
62.96692246733761
 20
0.0058070637119272
 30
0.0
 41
1.0
 10
63.00269196789611
 20
0.000034360293256
 30
0.0
 41
1.0
 10
63.02032933995936
 20
-0.0000000403608169
 30
0.0
 41
1.0
  0
SPLINE
  5
61
330
1F
100
AcDbEntity
  8
Default
100
AcDbSpline
210
0.0
220
0.0
230
1.0
 70
    12
 71
     3
 72
    11
 73
     7
 74
     0
 42
0.0000000001
 43
0.0000000001
 40
-4.0
 40
-4.0
 40
-4.0
 40
-4.0
 40
-3.0
 40
-2.0
 40
-1.0
 40
0.0
 40
0.0
 40
0.0
 40
0.0
 10
63.02032933995936
 20
-0.0000000403608169
 30
0.0
 41
1.0
 10
63.05567849604181
 20
-0.0000000807216338
 30
0.0
 41
1.0
 10
63.12277519681493
 20
0.0221555191751293
 30
0.0
 41
1.0
 10
63.20848464314859
 20
0.0831392410867977
 30
0.0
 41
1.0
 10
63.28119495693142
 20
0.1588233133870176
 30
0.0
 41
1.0
 10
63.3178392615859
 20
0.2186071613375589
 30
0.0
 41
1.0
 10
63.33291179105457
 20
0.2499999192783662
 30
0.0
 41
1.0
  0
POLYLINE
  5
62
330
1F
100
AcDbEntity
  8
Default
100
AcDb2dPolyline
 66
     1
 10
0.0
 20
0.0
 30
0.0
  0
VERTEX
  5
63
330
62
100
AcDbEntity
  8
Default
100
AcDbVertex
100
AcDb2dVertex
 10
65.21134749279605
 20
15.00099983855779
 30
0.0
  0
VERTEX
  5
64
330
62
100
AcDbEntity
  8
Default
100
AcDbVertex
100
AcDb2dVertex
 10
44.21134749279605
 20
15.00099983855779
 30
0.0
  0
SEQEND
  5
65
330
62
100
AcDbEntity
  8
Default
  0
SPLINE
  5
66
330
1F
100
AcDbEntity
  8
Default
100
AcDbSpline
210
0.0
220
0.0
230
1.0
 70
    12
 71
     3
 72
    10
 73
     6
 74
     0
 42
0.0000000001
 43
0.0000000001
 40
-1.0
 40
-1.0
 40
-1.0
 40
-1.0
 40
-0.6017249409064267
 40
-0.1395945280002112
 40
0.0
 40
0.0
 40
0.0
 40
0.0
 10
44.21134749279605
 20
15.00099983855779
 30
0.0
 41
1.0
 10
43.9817746042701
 20
15.00109878018014
 30
0.0
 41
1.0
 10
43.27748526925603
 20
15.06689488297658
 30
0.0
 41
1.0
 10
42.43697367008582
 20
15.43587965075287
 30
0.0
 41
1.0
 10
42.43214891809184
 20
15.88344730978571
 30
0.0
 41
1.0
 10
42.46134749279686
 20
16.0009998385577
 30
0.0
 41
1.0
  0
POLYLINE
  5
67
330
1F
100
AcDbEntity
  8
Default
100
AcDb2dPolyline
 66
     1
 10
0.0
 20
0.0
 30
0.0
  0
VERTEX
  5
68
330
67
100
AcDbEntity
  8
Default
100
AcDbVertex
100
AcDb2dVertex
 10
42.46134749279686
 20
16.0009998385577
 30
0.0
  0
VERTEX
  5
69
330
67
100
AcDbEntity
  8
Default
100
AcDbVertex
100
AcDb2dVertex
 10
66.96134749279523
 20
16.0009998385577
 30
0.0
  0
SEQEND
  5
6A
330
67
100
AcDbEntity
  8
Default
  0
SPLINE
  5
6B
330
1F
100
AcDbEntity
  8
Default
100
AcDbSpline
210
0.0
220
0.0
230
1.0
 70
    12
 71
     3
 72
    10
 73
     6
 74
     0
 42
0.0000000001
 43
0.0000000001
 40
0.0
 40
0.0
 40
0.0
 40
0.0
 40
0.1395945280002114
 40
0.6017249409064276
 40
1.0
 40
1.0
 40
1.0
 40
1.0
 10
66.96134749279523
 20
16.0009998385577
 30
0.0
 41
1.0
 10
66.99054606750025
 20
15.88344730978571
 30
0.0
 41
1.0
 10
66.98572131550628
 20
15.43587965075287
 30
0.0
 41
1.0
 10
66.14520971633604
 20
15.06689488297658
 30
0.0
 41
1.0
 10
65.44092038132197
 20
15.00109878018014
 30
0.0
 41
1.0
 10
65.21134749279605
 20
15.00099983855779
 30
0.0
 41
1.0
  0
POLYLINE
  5
6C
330
1F
100
AcDbEntity
  8
Default
100
AcDb2dPolyline
 66
     1
 10
0.0
 20
0.0
 30
0.0
  0
VERTEX
  5
6D
330
6C
100
AcDbEntity
  8
Default
100
AcDbVertex
100
AcDb2dVertex
 10
47.95195392973068
 20
14.8129999192777
 30
0.0
  0
VERTEX
  5
6E
330
6C
100
AcDbEntity
  8
Default
100
AcDbVertex
100
AcDb2dVertex
 10
49.97085047236349
 20
14.812999919282
 30
0.0
  0
SEQEND
  5
6F
330
6C
100
AcDbEntity
  8
Default
  0
SPLINE
  5
70
330
1F
100
AcDbEntity
  8
Default
100
AcDbSpline
210
0.0
220
0.0
230
1.0
 70
    12
 71
     2
 72
    16
 73
    13
 74
     0
 42
0.0000000001
 43
0.0000000001
 40
0.0
 40
0.0
 40
0.0
 40
14.6733510749705
 40
14.6733510749705
 40
14.84345788105449
 40
14.84345788105449
 40
15.85052371762282
 40
15.85052371762282
 40
15.95787018865748
 40
15.95787018865748
 40
16.06521665969213
 40
16.06521665969213
 40
30.58670883596351
 40
30.58670883596351
 40
30.58670883596351
 10
49.97085047236349
 20
14.812999919282
 30
0.0
 41
1.0
 10
48.51206956850876
 20
7.547152613016356
 30
0.0
 41
0.9999996726897782
 10
47.07934852560295
 20
0.3507825925370263
 30
0.0
 41
1.0
 10
47.0578894628831
 20
0.2500273503509816
 30
0.0
 41
0.777405872740653
 10
46.95672786050741
 20
0.2499999192837663
 30
0.0
 41
1.0
 10
46.45319494222325
 20
0.2499999192810662
 30
0.0
 41
1.0
 10
45.94966202393908
 20
0.2499999192783662
 30
0.0
 41
1.0
 10
45.89242700463343
 20
0.2499991086325327
 30
0.0
 41
0.9092151743920063
 10
45.85503220776103
 20
0.2933289667265626
 30
0.0
 41
1.0
 10
45.81763741088863
 20
0.3366588248205729
 30
0.0
 41
0.9092151743920063
 10
45.82617491463737
 20
0.3944097911438291
 30
0.0
 41
1.0
 10
46.88529336972358
 20
7.578072081221663
 30
0.0
 41
1.0
 10
47.95195392973068
 20
14.8129999192777
 30
0.0
 41
1.0
  0
POLYLINE
  5
71
330
1F
100
AcDbEntity
  8
Default
100
AcDb2dPolyline
 66
     1
 10
0.0
 20
0.0
 30
0.0
  0
VERTEX
  5
72
330
71
100
AcDbEntity
  8
Default
100
AcDbVertex
100
AcDb2dVertex
 10
46.96134749279605
 20
14.81299991927835
 30
0.0
  0
VERTEX
  5
73
330
71
100
AcDbEntity
  8
Default
100
AcDbVertex
100
AcDb2dVertex
 10
50.96134749279605
 20
14.81299991927835
 30
0.0
  0
VERTEX
  5
74
330
71
100
AcDbEntity
  8
Default
100
AcDbVertex
100
AcDb2dVertex
 10
50.96134749279605
 20
15.00099991927837
 30
0.0
  0
VERTEX
  5
75
330
71
100
AcDbEntity
  8
Default
100
AcDbVertex
100
AcDb2dVertex
 10
46.96134749279605
 20
15.00099991927837
 30
0.0
  0
VERTEX
  5
76
330
71
100
AcDbEntity
  8
Default
100
AcDbVertex
100
AcDb2dVertex
 10
46.96134749279605
 20
14.81299991927835
 30
0.0
  0
SEQEND
  5
77
330
71
100
AcDbEntity
  8
Default
  0
POLYLINE
  5
78
330
1F
100
AcDbEntity
  8
Default
100
AcDb2dPolyline
 66
     1
 10
0.0
 20
0.0
 30
0.0
  0
VERTEX
  5
79
330
78
100
AcDbEntity
  8
Default
100
AcDbVertex
100
AcDb2dVertex
 10
46.08978319453753
 20
0.2499999192783662
 30
0.0
  0
VERTEX
  5
7A
330
78
100
AcDbEntity
  8
Default
100
AcDbVertex
100
AcDb2dVertex
 10
46.71478319453748
 20
0.2499999192783662
 30
0.0
  0
SEQEND
  5
7B
330
78
100
AcDbEntity
  8
Default
  0
SPLINE
  5
7C
330
1F
100
AcDbEntity
  8
Default
100
AcDbSpline
210
0.0
220
0.0
230
1.0
 70
    12
 71
     3
 72
    12
 73
     8
 74
     0
 42
0.0000000001
 43
0.0000000001
 40
0.0
 40
0.0
 40
0.0
 40
0.0
 40
0.12
 40
0.2100000000000001
 40
0.3100000000000002
 40
0.3650000000000002
 40
0.4176648637828754
 40
0.4176648637828754
 40
0.4176648637828754
 40
0.4176648637828754
 10
46.71478319453748
 20
0.2499999192783662
 30
0.0
 41
1.0
 10
46.69747021243016
 20
0.213940792132064
 30
0.0
 41
1.0
 10
46.65961156388317
 20
0.1544276548511903
 30
0.0
 41
1.0
 10
46.58666316615972
 20
0.0807274527768413
 30
0.0
 41
1.0
 10
46.5198164244413
 20
0.0329933822788178
 30
0.0
 41
1.0
 10
46.45577251825449
 20
0.0058070637119272
 30
0.0
 41
1.0
 10
46.42000301769599
 20
0.000034360293256
 30
0.0
 41
1.0
 10
46.40236564563274
 20
-0.0000000403608169
 30
0.0
 41
1.0
  0
SPLINE
  5
7D
330
1F
100
AcDbEntity
  8
Default
100
AcDbSpline
210
0.0
220
0.0
230
1.0
 70
    12
 71
     3
 72
    11
 73
     7
 74
     0
 42
0.0000000001
 43
0.0000000001
 40
-4.0
 40
-4.0
 40
-4.0
 40
-4.0
 40
-3.0
 40
-2.0
 40
-1.0
 40
0.0
 40
0.0
 40
0.0
 40
0.0
 10
46.40236564563274
 20
-0.0000000403608169
 30
0.0
 41
1.0
 10
46.36701648955029
 20
-0.0000000807216338
 30
0.0
 41
1.0
 10
46.29991978877717
 20
0.0221555191751293
 30
0.0
 41
1.0
 10
46.21421034244351
 20
0.0831392410867977
 30
0.0
 41
1.0
 10
46.14150002866068
 20
0.1588233133870176
 30
0.0
 41
1.0
 10
46.1048557240062
 20
0.2186071613375589
 30
0.0
 41
1.0
 10
46.08978319453753
 20
0.2499999192783662
 30
0.0
 41
1.0
  0
POLYLINE
  5
7E
330
1F
100
AcDbEntity
  8
Default
100
AcDb2dPolyline
 66
     1
 10
0.0
 20
0.0
 30
0.0
  0
VERTEX
  5
7F
330
7E
100
AcDbEntity
  8
Default
100
AcDbVertex
100
AcDb2dVertex
 10
27.24999999999919
 20
16.00099991927829
 30
0.0
  0
VERTEX
  5
80
330
7E
100
AcDbEntity
  8
Default
100
AcDbVertex
100
AcDb2dVertex
 10
-27.24999999999919
 20
16.00099991927829
 30
0.0
  0
SEQEND
  5
81
330
7E
100
AcDbEntity
  8
Default
  0
SPLINE
  5
82
330
1F
100
AcDbEntity
  8
Default
100
AcDbSpline
210
0.0
220
0.0
230
1.0
 70
    12
 71
     3
 72
    10
 73
     6
 74
     0
 42
0.0000000001
 43
0.0000000001
 40
0.0
 40
0.0
 40
0.0
 40
0.0
 40
0.1395945280003063
 40
0.6017249409064693
 40
1.0
 40
1.0
 40
1.0
 40
1.0
 10
-27.24999999999919
 20
16.00099991927829
 30
0.0
 41
1.0
 10
-27.27919857470427
 20
15.88344739050615
 30
0.0
 41
1.0
 10
-27.27437382271038
 20
15.43587973147322
 30
0.0
 41
1.0
 10
-26.43386222354003
 20
15.06689496369702
 30
0.0
 41
1.0
 10
-25.72957288852594
 20
15.0010988609007
 30
0.0
 41
1.0
 10
-25.5
 20
15.00099991927837
 30
0.0
 41
1.0
  0
POLYLINE
  5
83
330
1F
100
AcDbEntity
  8
Default
100
AcDb2dPolyline
 66
     1
 10
0.0
 20
0.0
 30
0.0
  0
VERTEX
  5
84
330
83
100
AcDbEntity
  8
Default
100
AcDbVertex
100
AcDb2dVertex
 10
-25.5
 20
15.00099991927837
 30
0.0
  0
VERTEX
  5
85
330
83
100
AcDbEntity
  8
Default
100
AcDbVertex
100
AcDb2dVertex
 10
25.5
 20
15.00099991927837
 30
0.0
  0
SEQEND
  5
86
330
83
100
AcDbEntity
  8
Default
  0
SPLINE
  5
87
330
1F
100
AcDbEntity
  8
Default
100
AcDbSpline
210
0.0
220
0.0
230
1.0
 70
    12
 71
     3
 72
    10
 73
     6
 74
     0
 42
0.0000000001
 43
0.0000000001
 40
-1.0
 40
-1.0
 40
-1.0
 40
-1.0
 40
-0.6017249409064693
 40
-0.1395945280003063
 40
0.0
 40
0.0
 40
0.0
 40
0.0
 10
25.5
 20
15.00099991927837
 30
0.0
 41
1.0
 10
25.72957288852594
 20
15.0010988609007
 30
0.0
 41
1.0
 10
26.43386222354003
 20
15.06689496369702
 30
0.0
 41
1.0
 10
27.27437382271038
 20
15.43587973147322
 30
0.0
 41
1.0
 10
27.27919857470427
 20
15.88344739050615
 30
0.0
 41
1.0
 10
27.24999999999919
 20
16.00099991927829
 30
0.0
 41
1.0
  0
POLYLINE
  5
88
330
1F
100
AcDbEntity
  8
Default
100
AcDb2dPolyline
 66
     1
 10
0.0
 20
0.0
 30
0.0
  0
VERTEX
  5
89
330
88
100
AcDbEntity
  8
Default
100
AcDbVertex
100
AcDb2dVertex
 10
21.75939356306537
 20
14.8129999192777
 30
0.0
  0
VERTEX
  5
8A
330
88
100
AcDbEntity
  8
Default
100
AcDbVertex
100
AcDb2dVertex
 10
19.74049702043256
 20
14.812999919282
 30
0.0
  0
SEQEND
  5
8B
330
88
100
AcDbEntity
  8
Default
  0
SPLINE
  5
8C
330
1F
100
AcDbEntity
  8
Default
100
AcDbSpline
210
0.0
220
0.0
230
1.0
 70
    12
 71
     2
 72
    16
 73
    13
 74
     0
 42
0.0000000001
 43
0.0000000001
 40
0.0
 40
0.0
 40
0.0
 40
14.6733510749705
 40
14.6733510749705
 40
14.84345788105449
 40
14.84345788105449
 40
15.85052371762282
 40
15.85052371762282
 40
15.95787018865748
 40
15.95787018865748
 40
16.06521665969213
 40
16.06521665969213
 40
30.58670883596351
 40
30.58670883596351
 40
30.58670883596351
 10
19.74049702043256
 20
14.812999919282
 30
0.0
 41
1.0
 10
21.19927792428729
 20
7.547152613016356
 30
0.0
 41
0.9999996726897782
 10
22.63199896719309
 20
0.3507825925370263
 30
0.0
 41
1.0
 10
22.65345802991297
 20
0.2500273503509816
 30
0.0
 41
0.777405872740653
 10
22.75461963228863
 20
0.2499999192837663
 30
0.0
 41
1.0
 10
23.2581525505728
 20
0.2499999192810662
 30
0.0
 41
1.0
 10
23.76168546885697
 20
0.2499999192783662
 30
0.0
 41
1.0
 10
23.81892048816263
 20
0.2499991086325327
 30
0.0
 41
0.9092151743920063
 10
23.85631528503502
 20
0.2933289667265626
 30
0.0
 41
1.0
 10
23.89371008190741
 20
0.3366588248205729
 30
0.0
 41
0.9092151743920063
 10
23.88517257815868
 20
0.3944097911438291
 30
0.0
 41
1.0
 10
22.82605412307247
 20
7.578072081221663
 30
0.0
 41
1.0
 10
21.75939356306537
 20
14.8129999192777
 30
0.0
 41
1.0
  0
POLYLINE
  5
8D
330
1F
100
AcDbEntity
  8
Default
100
AcDb2dPolyline
 66
     1
 10
0.0
 20
0.0
 30
0.0
  0
VERTEX
  5
8E
330
8D
100
AcDbEntity
  8
Default
100
AcDbVertex
100
AcDb2dVertex
 10
22.75
 20
14.81299991927835
 30
0.0
  0
VERTEX
  5
8F
330
8D
100
AcDbEntity
  8
Default
100
AcDbVertex
100
AcDb2dVertex
 10
18.75
 20
14.81299991927835
 30
0.0
  0
VERTEX
  5
90
330
8D
100
AcDbEntity
  8
Default
100
AcDbVertex
100
AcDb2dVertex
 10
18.75
 20
15.00099991927837
 30
0.0
  0
VERTEX
  5
91
330
8D
100
AcDbEntity
  8
Default
100
AcDbVertex
100
AcDb2dVertex
 10
22.75
 20
15.00099991927837
 30
0.0
  0
VERTEX
  5
92
330
8D
100
AcDbEntity
  8
Default
100
AcDbVertex
100
AcDb2dVertex
 10
22.75
 20
14.81299991927835
 30
0.0
  0
SEQEND
  5
93
330
8D
100
AcDbEntity
  8
Default
  0
POLYLINE
  5
94
330
1F
100
AcDbEntity
  8
Default
100
AcDb2dPolyline
 66
     1
 10
0.0
 20
0.0
 30
0.0
  0
VERTEX
  5
95
330
94
100
AcDbEntity
  8
Default
100
AcDbVertex
100
AcDb2dVertex
 10
23.62156429825852
 20
0.2499999192783662
 30
0.0
  0
VERTEX
  5
96
330
94
100
AcDbEntity
  8
Default
100
AcDbVertex
100
AcDb2dVertex
 10
22.99656429825857
 20
0.2499999192783662
 30
0.0
  0
SEQEND
  5
97
330
94
100
AcDbEntity
  8
Default
  0
SPLINE
  5
98
330
1F
100
AcDbEntity
  8
Default
100
AcDbSpline
210
0.0
220
0.0
230
1.0
 70
    12
 71
     3
 72
    12
 73
     8
 74
     0
 42
0.0000000001
 43
0.0000000001
 40
0.0
 40
0.0
 40
0.0
 40
0.0
 40
0.12
 40
0.2100000000000001
 40
0.3100000000000002
 40
0.3650000000000002
 40
0.4176648637828754
 40
0.4176648637828754
 40
0.4176648637828754
 40
0.4176648637828754
 10
22.99656429825857
 20
0.2499999192783662
 30
0.0
 41
1.0
 10
23.01387728036589
 20
0.213940792132064
 30
0.0
 41
1.0
 10
23.05173592891287
 20
0.1544276548511903
 30
0.0
 41
1.0
 10
23.12468432663633
 20
0.0807274527768413
 30
0.0
 41
1.0
 10
23.19153106835475
 20
0.0329933822788178
 30
0.0
 41
1.0
 10
23.25557497454156
 20
0.0058070637119272
 30
0.0
 41
1.0
 10
23.29134447510006
 20
0.000034360293256
 30
0.0
 41
1.0
 10
23.30898184716331
 20
-0.0000000403608169
 30
0.0
 41
1.0
  0
SPLINE
  5
99
330
1F
100
AcDbEntity
  8
Default
100
AcDbSpline
210
0.0
220
0.0
230
1.0
 70
    12
 71
     3
 72
    11
 73
     7
 74
     0
 42
0.0000000001
 43
0.0000000001
 40
-4.0
 40
-4.0
 40
-4.0
 40
-4.0
 40
-3.0
 40
-2.0
 40
-1.0
 40
0.0
 40
0.0
 40
0.0
 40
0.0
 10
23.30898184716331
 20
-0.0000000403608169
 30
0.0
 41
1.0
 10
23.34433100324576
 20
-0.0000000807216338
 30
0.0
 41
1.0
 10
23.41142770401888
 20
0.0221555191751293
 30
0.0
 41
1.0
 10
23.49713715035254
 20
0.0831392410867977
 30
0.0
 41
1.0
 10
23.56984746413537
 20
0.1588233133870176
 30
0.0
 41
1.0
 10
23.60649176878985
 20
0.2186071613375589
 30
0.0
 41
1.0
 10
23.62156429825852
 20
0.2499999192783662
 30
0.0
 41
1.0
  0
POLYLINE
  5
9A
330
1F
100
AcDbEntity
  8
Default
100
AcDb2dPolyline
 66
     1
 10
0.0
 20
0.0
 30
0.0
  0
VERTEX
  5
9B
330
9A
100
AcDbEntity
  8
Default
100
AcDbVertex
100
AcDb2dVertex
 10
-21.75939356306537
 20
14.8129999192777
 30
0.0
  0
VERTEX
  5
9C
330
9A
100
AcDbEntity
  8
Default
100
AcDbVertex
100
AcDb2dVertex
 10
-19.74049702043256
 20
14.812999919282
 30
0.0
  0
SEQEND
  5
9D
330
9A
100
AcDbEntity
  8
Default
  0
SPLINE
  5
9E
330
1F
100
AcDbEntity
  8
Default
100
AcDbSpline
210
0.0
220
0.0
230
1.0
 70
    12
 71
     2
 72
    16
 73
    13
 74
     0
 42
0.0000000001
 43
0.0000000001
 40
0.0
 40
0.0
 40
0.0
 40
14.6733510749705
 40
14.6733510749705
 40
14.84345788105449
 40
14.84345788105449
 40
15.85052371762282
 40
15.85052371762282
 40
15.95787018865748
 40
15.95787018865748
 40
16.06521665969213
 40
16.06521665969213
 40
30.58670883596351
 40
30.58670883596351
 40
30.58670883596351
 10
-19.74049702043256
 20
14.812999919282
 30
0.0
 41
1.0
 10
-21.19927792428729
 20
7.547152613016356
 30
0.0
 41
0.9999996726897782
 10
-22.63199896719309
 20
0.3507825925370263
 30
0.0
 41
1.0
 10
-22.65345802991297
 20
0.2500273503509816
 30
0.0
 41
0.777405872740653
 10
-22.75461963228863
 20
0.2499999192837663
 30
0.0
 41
1.0
 10
-23.2581525505728
 20
0.2499999192810662
 30
0.0
 41
1.0
 10
-23.76168546885697
 20
0.2499999192783662
 30
0.0
 41
1.0
 10
-23.81892048816263
 20
0.2499991086325327
 30
0.0
 41
0.9092151743920063
 10
-23.85631528503502
 20
0.2933289667265626
 30
0.0
 41
1.0
 10
-23.89371008190741
 20
0.3366588248205729
 30
0.0
 41
0.9092151743920063
 10
-23.88517257815868
 20
0.3944097911438291
 30
0.0
 41
1.0
 10
-22.82605412307247
 20
7.578072081221663
 30
0.0
 41
1.0
 10
-21.75939356306537
 20
14.8129999192777
 30
0.0
 41
1.0
  0
POLYLINE
  5
9F
330
1F
100
AcDbEntity
  8
Default
100
AcDb2dPolyline
 66
     1
 10
0.0
 20
0.0
 30
0.0
  0
VERTEX
  5
A0
330
9F
100
AcDbEntity
  8
Default
100
AcDbVertex
100
AcDb2dVertex
 10
-22.75
 20
14.81299991927835
 30
0.0
  0
VERTEX
  5
A1
330
9F
100
AcDbEntity
  8
Default
100
AcDbVertex
100
AcDb2dVertex
 10
-18.75
 20
14.81299991927835
 30
0.0
  0
VERTEX
  5
A2
330
9F
100
AcDbEntity
  8
Default
100
AcDbVertex
100
AcDb2dVertex
 10
-18.75
 20
15.00099991927837
 30
0.0
  0
VERTEX
  5
A3
330
9F
100
AcDbEntity
  8
Default
100
AcDbVertex
100
AcDb2dVertex
 10
-22.75
 20
15.00099991927837
 30
0.0
  0
VERTEX
  5
A4
330
9F
100
AcDbEntity
  8
Default
100
AcDbVertex
100
AcDb2dVertex
 10
-22.75
 20
14.81299991927835
 30
0.0
  0
SEQEND
  5
A5
330
9F
100
AcDbEntity
  8
Default
  0
POLYLINE
  5
A6
330
1F
100
AcDbEntity
  8
Default
100
AcDb2dPolyline
 66
     1
 10
0.0
 20
0.0
 30
0.0
  0
VERTEX
  5
A7
330
A6
100
AcDbEntity
  8
Default
100
AcDbVertex
100
AcDb2dVertex
 10
-23.62156429825852
 20
0.2499999192783662
 30
0.0
  0
VERTEX
  5
A8
330
A6
100
AcDbEntity
  8
Default
100
AcDbVertex
100
AcDb2dVertex
 10
-22.99656429825857
 20
0.2499999192783662
 30
0.0
  0
SEQEND
  5
A9
330
A6
100
AcDbEntity
  8
Default
  0
SPLINE
  5
AA
330
1F
100
AcDbEntity
  8
Default
100
AcDbSpline
210
0.0
220
0.0
230
1.0
 70
    12
 71
     3
 72
    12
 73
     8
 74
     0
 42
0.0000000001
 43
0.0000000001
 40
0.0
 40
0.0
 40
0.0
 40
0.0
 40
0.12
 40
0.2100000000000001
 40
0.3100000000000002
 40
0.3650000000000002
 40
0.4176648637828754
 40
0.4176648637828754
 40
0.4176648637828754
 40
0.4176648637828754
 10
-22.99656429825857
 20
0.2499999192783662
 30
0.0
 41
1.0
 10
-23.01387728036589
 20
0.213940792132064
 30
0.0
 41
1.0
 10
-23.05173592891287
 20
0.1544276548511903
 30
0.0
 41
1.0
 10
-23.12468432663633
 20
0.0807274527768413
 30
0.0
 41
1.0
 10
-23.19153106835475
 20
0.0329933822788178
 30
0.0
 41
1.0
 10
-23.25557497454156
 20
0.0058070637119272
 30
0.0
 41
1.0
 10
-23.29134447510006
 20
0.000034360293256
 30
0.0
 41
1.0
 10
-23.30898184716331
 20
-0.0000000403608169
 30
0.0
 41
1.0
  0
SPLINE
  5
AB
330
1F
100
AcDbEntity
  8
Default
100
AcDbSpline
210
0.0
220
0.0
230
1.0
 70
    12
 71
     3
 72
    11
 73
     7
 74
     0
 42
0.0000000001
 43
0.0000000001
 40
-4.0
 40
-4.0
 40
-4.0
 40
-4.0
 40
-3.0
 40
-2.0
 40
-1.0
 40
0.0
 40
0.0
 40
0.0
 40
0.0
 10
-23.30898184716331
 20
-0.0000000403608169
 30
0.0
 41
1.0
 10
-23.34433100324576
 20
-0.0000000807216338
 30
0.0
 41
1.0
 10
-23.41142770401888
 20
0.0221555191751293
 30
0.0
 41
1.0
 10
-23.49713715035254
 20
0.0831392410867977
 30
0.0
 41
1.0
 10
-23.56984746413537
 20
0.1588233133870176
 30
0.0
 41
1.0
 10
-23.60649176878985
 20
0.2186071613375589
 30
0.0
 41
1.0
 10
-23.62156429825852
 20
0.2499999192783662
 30
0.0
 41
1.0
  0
ENDSEC
  0
SECTION
  2
OBJECTS
  0
DICTIONARY
  5
C
330
0
100
AcDbDictionary
281
     1
  3
ACAD_GROUP
350
D
  3
ACAD_LAYOUT
350
1A
  3
ACAD_MLEADERSTYLE
350
AD
  3
ACAD_MLINESTYLE
350
17
  3
ACAD_PLOTSETTINGS
350
19
  3
ACAD_PLOTSTYLENAME
350
E
  3
ACAD_TABLESTYLE
350
AC
  3
ACAD_VISUALSTYLE
350
2A
  0
DICTIONARY
  5
D
102
{ACAD_REACTORS
330
C
102
}
330
C
100
AcDbDictionary
281
     1
  0
DICTIONARY
  5
1A
102
{ACAD_REACTORS
330
C
102
}
330
C
100
AcDbDictionary
281
     1
  3
Layout1
350
1E
  3
Layout2
350
26
  3
Model
350
22
  0
DICTIONARY
  5
AD
102
{ACAD_REACTORS
330
C
102
}
330
C
100
AcDbDictionary
281
     1
  0
DICTIONARY
  5
17
102
{ACAD_REACTORS
330
C
102
}
330
C
100
AcDbDictionary
281
     1
  3
Standard
350
18
  0
DICTIONARY
  5
19
102
{ACAD_REACTORS
330
C
102
}
330
C
100
AcDbDictionary
281
     1
  0
ACDBDICTIONARYWDFLT
  5
E
102
{ACAD_REACTORS
330
C
102
}
330
C
100
AcDbDictionary
281
     1
  3
Normal
350
F
100
AcDbDictionaryWithDefault
340
F
  0
DICTIONARY
  5
AC
102
{ACAD_REACTORS
330
C
102
}
330
C
100
AcDbDictionary
281
     1
  0
DICTIONARY
  5
2A
102
{ACAD_REACTORS
330
C
102
}
330
C
100
AcDbDictionary
281
     1
  3
2dWireframe
350
2F
  3
3D Hidden
350
31
  3
3dWireframe
350
30
  3
Basic
350
32
  3
Brighten
350
36
  3
ColorChange
350
3A
  3
Conceptual
350
34
  3
Dim
350
35
  3
Facepattern
350
39
  3
Flat
350
2B
  3
FlatWithEdges
350
2C
  3
Gouraud
350
2D
  3
GouraudWithEdges
350
2E
  3
Linepattern
350
38
  3
Realistic
350
33
  3
Thicken
350
37
  0
LAYOUT
  5
1E
102
{ACAD_REACTORS
330
1A
102
}
330
1A
100
AcDbPlotSettings
  1

  2
none_device
  4

  6

 40
0.0
 41
0.0
 42
0.0
 43
0.0
 44
0.0
 45
0.0
 46
0.0
 47
0.0
 48
0.0
 49
0.0
140
0.0
141
0.0
142
1.0
143
1.0
 70
   688
 72
     0
 73
     0
 74
     5
  7

 75
    16
 76
     0
 77
     2
 78
   300
147
1.0
148
0.0
149
0.0
100
AcDbLayout
  1
Layout1
 70
     1
 71
     1
 10
0.0
 20
0.0
 11
12.0
 21
9.0
 12
0.0
 22
0.0
 32
0.0
 14
1.000000000000000E+20
 24
1.000000000000000E+20
 34
1.000000000000000E+20
 15
-1.000000000000000E+20
 25
-1.000000000000000E+20
 35
-1.000000000000000E+20
146
0.0
 13
0.0
 23
0.0
 33
0.0
 16
1.0
 26
0.0
 36
0.0
 17
0.0
 27
1.0
 37
0.0
 76
     0
330
1B
  0
LAYOUT
  5
26
102
{ACAD_REACTORS
330
1A
102
}
330
1A
100
AcDbPlotSettings
  1

  2
none_device
  4

  6

 40
0.0
 41
0.0
 42
0.0
 43
0.0
 44
0.0
 45
0.0
 46
0.0
 47
0.0
 48
0.0
 49
0.0
140
0.0
141
0.0
142
1.0
143
1.0
 70
   688
 72
     0
 73
     0
 74
     5
  7

 75
    16
 76
     0
 77
     2
 78
   300
147
1.0
148
0.0
149
0.0
100
AcDbLayout
  1
Layout2
 70
     1
 71
     2
 10
0.0
 20
0.0
 11
0.0
 21
0.0
 12
0.0
 22
0.0
 32
0.0
 14
0.0
 24
0.0
 34
0.0
 15
0.0
 25
0.0
 35
0.0
146
0.0
 13
0.0
 23
0.0
 33
0.0
 16
1.0
 26
0.0
 36
0.0
 17
0.0
 27
1.0
 37
0.0
 76
     0
330
23
  0
LAYOUT
  5
22
102
{ACAD_REACTORS
330
1A
102
}
330
1A
100
AcDbPlotSettings
  1

  2
none_device
  4

  6

 40
0.0
 41
0.0
 42
0.0
 43
0.0
 44
0.0
 45
0.0
 46
0.0
 47
0.0
 48
0.0
 49
0.0
140
0.0
141
0.0
142
1.0
143
1.0
 70
  1712
 72
     0
 73
     0
 74
     0
  7

 75
     0
 76
     0
 77
     2
 78
   300
147
1.0
148
0.0
149
0.0
100
AcDbLayout
  1
Model
 70
     1
 71
     0
 10
0.0
 20
0.0
 11
12.0
 21
9.0
 12
0.0
 22
0.0
 32
0.0
 14
-27.27148124479584
 24
-0.0000000403608169
 34
0.0
 15
66.98282668741419
 25
55.94659510724823
 35
0.0
146
0.0
 13
0.0
 23
0.0
 33
0.0
 16
1.0
 26
0.0
 36
0.0
 17
0.0
 27
1.0
 37
0.0
 76
     0
330
1F
331
29
  0
MLINESTYLE
  5
18
102
{ACAD_REACTORS
330
17
102
}
330
17
100
AcDbMlineStyle
  2
Standard
 70
     0
  3

 62
   256
 51
90.0
 52
90.0
 71
     2
 49
0.5
 62
   256
  6
BYLAYER
 49
-0.5
 62
   256
  6
BYLAYER
  0
ACDBPLACEHOLDER
  5
F
102
{ACAD_REACTORS
330
E
102
}
330
E
  0
VISUALSTYLE
  5
2F
102
{ACAD_REACTORS
330
2A
102
}
330
2A
100
AcDbVisualStyle
  2
2dWireframe
 70
     4
 71
     0
 72
     2
 73
     0
 90
        0
 40
-0.6
 41
-30.0
 62
     5
 63
     7
421
 16777215
 74
     1
 91
        4
 64
     7
 65
   257
 75
     1
175
     1
 42
1.0
 92
        0
 66
   257
 43
1.0
 76
     1
 77
     6
 78
     2
 67
     7
 79
     5
170
     0
171
     0
290
     0
174
     0
 93
        1
 44
0.0
173
     0
291
     0
 45
0.0
1001
ACAD
1000
AcDbSavedByObjectVersion
1070
     0
  0
VISUALSTYLE
  5
31
102
{ACAD_REACTORS
330
2A
102
}
330
2A
100
AcDbVisualStyle
  2
3D Hidden
 70
     6
 71
     1
 72
     2
 73
     2
 90
        0
 40
-0.6
 41
-30.0
 62
     5
 63
     7
421
 16777215
 74
     2
 91
        2
 64
     7
 65
   257
 75
     2
175
     1
 42
40.0
 92
        0
 66
   257
 43
1.0
 76
     1
 77
     6
 78
     2
 67
     7
 79
     3
170
     0
171
     0
290
     0
174
     0
 93
        1
 44
0.0
173
     0
291
     0
 45
0.0
1001
ACAD
1000
AcDbSavedByObjectVersion
1070
     0
  0
VISUALSTYLE
  5
30
102
{ACAD_REACTORS
330
2A
102
}
330
2A
100
AcDbVisualStyle
  2
3dWireframe
 70
     5
 71
     0
 72
     2
 73
     0
 90
        0
 40
-0.6
 41
-30.0
 62
     5
 63
     7
421
 16777215
 74
     1
 91
        4
 64
     7
 65
   257
 75
     1
175
     1
 42
1.0
 92
        0
 66
   257
 43
1.0
 76
     1
 77
     6
 78
     2
 67
     7
 79
     5
170
     0
171
     0
290
     0
174
     0
 93
        1
 44
0.0
173
     0
291
     0
 45
0.0
1001
ACAD
1000
AcDbSavedByObjectVersion
1070
     0
  0
VISUALSTYLE
  5
32
102
{ACAD_REACTORS
330
2A
102
}
330
2A
100
AcDbVisualStyle
  2
Basic
 70
     7
 71
     1
 72
     0
 73
     1
 90
        0
 40
-0.6
 41
-30.0
 62
     5
 63
     7
421
 16777215
 74
     0
 91
        4
 64
     7
 65
   257
 75
     1
175
     1
 42
1.0
 92
        8
 66
     7
 43
1.0
 76
     1
 77
     6
 78
     2
 67
     7
 79
     5
170
     0
171
     0
290
     0
174
     0
 93
        1
 44
0.0
173
     0
291
     1
 45
0.0
1001
ACAD
1000
AcDbSavedByObjectVersion
1070
     0
  0
VISUALSTYLE
  5
36
102
{ACAD_REACTORS
330
2A
102
}
330
2A
100
AcDbVisualStyle
  2
Brighten
 70
    12
 71
     2
 72
     2
 73
     0
 90
        0
 40
-0.6
 41
-30.0
 62
     5
 63
     7
421
 16777215
 74
     1
 91
        4
 64
     7
 65
   257
 75
     1
175
     1
 42
1.0
 92
        8
 66
     7
 43
1.0
 76
     1
 77
     6
 78
     2
 67
     7
 79
     5
170
     0
171
     0
290
     0
174
     0
 93
        1
 44
50.0
173
     0
291
     1
 45
0.0
1001
ACAD
1000
AcDbSavedByObjectVersion
1070
     0
  0
VISUALSTYLE
  5
3A
102
{ACAD_REACTORS
330
2A
102
}
330
2A
100
AcDbVisualStyle
  2
ColorChange
 70
    16
 71
     2
 72
     2
 73
     3
 90
        0
 40
-0.6
 41
-30.0
 62
     5
 63
     8
421
  8421504
 74
     1
 91
        4
 64
     7
 65
   257
 75
     1
175
     1
 42
1.0
 92
        8
 66
     8
424
  8421504
 43
1.0
 76
     1
 77
     6
 78
     2
 67
     7
 79
     5
170
     0
171
     0
290
     0
174
     0
 93
        1
 44
0.0
173
     0
291
     1
 45
0.0
1001
ACAD
1000
AcDbSavedByObjectVersion
1070
     0
  0
VISUALSTYLE
  5
34
102
{ACAD_REACTORS
330
2A
102
}
330
2A
100
AcDbVisualStyle
  2
Conceptual
 70
     9
 71
     3
 72
     2
 73
     0
 90
        0
 40
-0.6
 41
-30.0
 62
     5
 63
     7
421
 16777215
 74
     2
 91
        2
 64
     7
 65
   257
 75
     1
175
     1
 42
40.0
 92
        8
 66
     7
 43
1.0
 76
     1
 77
     6
 78
     2
 67
     7
 79
     3
170
     0
171
     0
290
     0
174
     0
 93
        1
 44
0.0
173
     0
291
     0
 45
0.0
1001
ACAD
1000
AcDbSavedByObjectVersion
1070
     0
  0
VISUALSTYLE
  5
35
102
{ACAD_REACTORS
330
2A
102
}
330
2A
100
AcDbVisualStyle
  2
Dim
 70
    11
 71
     2
 72
     2
 73
     0
 90
        0
 40
-0.6
 41
-30.0
 62
     5
 63
     7
421
 16777215
 74
     1
 91
        4
 64
     7
 65
   257
 75
     1
175
     1
 42
1.0
 92
        8
 66
     7
 43
1.0
 76
     1
 77
     6
 78
     2
 67
     7
 79
     5
170
     0
171
     0
290
     0
174
     0
 93
        1
 44
-50.0
173
     0
291
     1
 45
0.0
1001
ACAD
1000
AcDbSavedByObjectVersion
1070
     0
  0
VISUALSTYLE
  5
39
102
{ACAD_REACTORS
330
2A
102
}
330
2A
100
AcDbVisualStyle
  2
Facepattern
 70
    15
 71
     2
 72
     2
 73
     0
 90
        0
 40
-0.6
 41
-30.0
 62
     5
 63
     7
421
 16777215
 74
     1
 91
        4
 64
     7
 65
   257
 75
     1
175
     1
 42
1.0
 92
        8
 66
     7
 43
1.0
 76
     1
 77
     6
 78
     2
 67
     7
 79
     5
170
     0
171
     0
290
     0
174
     0
 93
        1
 44
0.0
173
     0
291
     1
 45
0.0
1001
ACAD
1000
AcDbSavedByObjectVersion
1070
     0
  0
VISUALSTYLE
  5
2B
102
{ACAD_REACTORS
330
2A
102
}
330
2A
100
AcDbVisualStyle
  2
Flat
 70
     0
 71
     2
 72
     1
 73
     1
 90
        2
 40
-0.6
 41
30.0
 62
     5
 63
     7
421
 16777215
 74
     0
 91
        4
 64
     7
 65
   257
 75
     1
175
     1
 42
1.0
 92
        8
 66
     7
 43
1.0
 76
     1
 77
     6
 78
     2
 67
     7
 79
     5
170
     0
171
     0
290
     0
174
     0
 93
       13
 44
0.0
173
     0
291
     1
 45
0.0
1001
ACAD
1000
AcDbSavedByObjectVersion
1070
     0
  0
VISUALSTYLE
  5
2C
102
{ACAD_REACTORS
330
2A
102
}
330
2A
100
AcDbVisualStyle
  2
FlatWithEdges
 70
     1
 71
     2
 72
     1
 73
     1
 90
        2
 40
-0.6
 41
30.0
 62
     5
 63
     7
421
 16777215
 74
     1
 91
        4
 64
     7
 65
   257
 75
     1
175
     1
 42
1.0
 92
        0
 66
   257
 43
1.0
 76
     1
 77
     6
 78
     2
 67
     7
 79
     5
170
     0
171
     0
290
     0
174
     0
 93
       13
 44
0.0
173
     0
291
     1
 45
0.0
1001
ACAD
1000
AcDbSavedByObjectVersion
1070
     0
  0
VISUALSTYLE
  5
2D
102
{ACAD_REACTORS
330
2A
102
}
330
2A
100
AcDbVisualStyle
  2
Gouraud
 70
     2
 71
     2
 72
     2
 73
     1
 90
        2
 40
-0.6
 41
30.0
 62
     5
 63
     7
421
 16777215
 74
     0
 91
        4
 64
     7
 65
   257
 75
     1
175
     1
 42
1.0
 92
        0
 66
     7
 43
1.0
 76
     1
 77
     6
 78
     2
 67
     7
 79
     5
170
     0
171
     0
290
     0
174
     0
 93
       13
 44
0.0
173
     0
291
     1
 45
0.0
1001
ACAD
1000
AcDbSavedByObjectVersion
1070
     0
  0
VISUALSTYLE
  5
2E
102
{ACAD_REACTORS
330
2A
102
}
330
2A
100
AcDbVisualStyle
  2
GouraudWithEdges
 70
     3
 71
     2
 72
     2
 73
     1
 90
        2
 40
-0.6
 41
30.0
 62
     5
 63
     7
421
 16777215
 74
     1
 91
        4
 64
     7
 65
   257
 75
     1
175
     1
 42
1.0
 92
        0
 66
   257
 43
1.0
 76
     1
 77
     6
 78
     2
 67
     7
 79
     5
170
     0
171
     0
290
     0
174
     0
 93
       13
 44
0.0
173
     0
291
     1
 45
0.0
1001
ACAD
1000
AcDbSavedByObjectVersion
1070
     0
  0
VISUALSTYLE
  5
38
102
{ACAD_REACTORS
330
2A
102
}
330
2A
100
AcDbVisualStyle
  2
Linepattern
 70
    14
 71
     2
 72
     2
 73
     0
 90
        0
 40
-0.6
 41
-30.0
 62
     5
 63
     7
421
 16777215
 74
     1
 91
        4
 64
     7
 65
   257
 75
     7
175
     7
 42
1.0
 92
        8
 66
     7
 43
1.0
 76
     1
 77
     6
 78
     2
 67
     7
 79
     5
170
     0
171
     0
290
     0
174
     0
 93
        1
 44
0.0
173
     0
291
     1
 45
0.0
1001
ACAD
1000
AcDbSavedByObjectVersion
1070
     0
  0
VISUALSTYLE
  5
33
102
{ACAD_REACTORS
330
2A
102
}
330
2A
100
AcDbVisualStyle
  2
Realistic
 70
     8
 71
     2
 72
     2
 73
     0
 90
        0
 40
-0.6
 41
-30.0
 62
     5
 63
     7
421
 16777215
 74
     1
 91
        0
 64
     7
 65
   257
 75
     1
175
     1
 42
1.0
 92
        8
 66
     8
424
  7895160
 43
1.0
 76
     1
 77
     6
 78
     2
 67
     7
 79
     5
170
     0
171
     0
290
     0
174
     0
 93
       13
 44
0.0
173
     0
291
     0
 45
0.0
1001
ACAD
1000
AcDbSavedByObjectVersion
1070
     0
  0
VISUALSTYLE
  5
37
102
{ACAD_REACTORS
330
2A
102
}
330
2A
100
AcDbVisualStyle
  2
Thicken
 70
    13
 71
     2
 72
     2
 73
     0
 90
        0
 40
-0.6
 41
-30.0
 62
     5
 63
     7
421
 16777215
 74
     1
 91
        4
 64
     7
 65
   257
 75
     1
175
     1
 42
1.0
 92
       12
 66
     7
 43
1.0
 76
     1
 77
     6
 78
     2
 67
     7
 79
     5
170
     0
171
     0
290
     0
174
     0
 93
        1
 44
0.0
173
     0
291
     1
 45
0.0
1001
ACAD
1000
AcDbSavedByObjectVersion
1070
     0
  0
ENDSEC
  0
EOF
