  0
SECTION
  2
HEADER
  9
$ACADVER
  1
AC1014
  9
$ACADMAINTVER
 70
     9
  9
$DWGCODEPAGE
  3
ANSI_1252
  9
$INSBASE
 10
0.0
 20
0.0
 30
0.0
  9
$EXTMIN
 10
1.000000000000000E+20
 20
1.000000000000000E+20
 30
1.000000000000000E+20
  9
$EXTMAX
 10
-1.000000000000000E+20
 20
-1.000000000000000E+20
 30
-1.000000000000000E+20
  9
$LIMMIN
 10
0.0
 20
0.0
  9
$LIMMAX
 10
12.0
 20
9.0
  9
$ORTHOMODE
 70
     0
  9
$REGENMODE
 70
     1
  9
$FILLMODE
 70
     1
  9
$QTEXTMODE
 70
     0
  9
$MIRRTEXT
 70
     1
  9
$DRAGMODE
 70
     2
  9
$LTSCALE
 40
1.0
  9
$OSMODE
 70
    37
  9
$ATTMODE
 70
     1
  9
$TEXTSIZE
 40
0.2
  9
$TRACEWID
 40
0.05
  9
$TEXTSTYLE
  7
STANDARD
  9
$CLAYER
  8
0
  9
$CELTYPE
  6
BYLAYER
  9
$CECOLOR
 62
   256
  9
$CELTSCALE
 40
1.0
  9
$DELOBJ
 70
     1
  9
$DISPSILH
 70
     0
  9
$DIMSCALE
 40
1.0
  9
$DIMASZ
 40
0.18
  9
$DIMEXO
 40
0.0625
  9
$DIMDLI
 40
0.38
  9
$DIMRND
 40
0.0
  9
$DIMDLE
 40
0.0
  9
$DIMEXE
 40
0.18
  9
$DIMTP
 40
0.0
  9
$DIMTM
 40
0.0
  9
$DIMTXT
 40
0.18
  9
$DIMCEN
 40
0.09
  9
$DIMTSZ
 40
0.0
  9
$DIMTOL
 70
     0
  9
$DIMLIM
 70
     0
  9
$DIMTIH
 70
     1
  9
$DIMTOH
 70
     1
  9
$DIMSE1
 70
     0
  9
$DIMSE2
 70
     0
  9
$DIMTAD
 70
     0
  9
$DIMZIN
 70
     0
  9
$DIMBLK
  1

  9
$DIMASO
 70
     1
  9
$DIMSHO
 70
     1
  9
$DIMPOST
  1

  9
$DIMAPOST
  1

  9
$DIMALT
 70
     0
  9
$DIMALTD
 70
     2
  9
$DIMALTF
 40
25.4
  9
$DIMLFAC
 40
1.0
  9
$DIMTOFL
 70
     0
  9
$DIMTVP
 40
0.0
  9
$DIMTIX
 70
     0
  9
$DIMSOXD
 70
     0
  9
$DIMSAH
 70
     0
  9
$DIMBLK1
  1

  9
$DIMBLK2
  1

  9
$DIMSTYLE
  2
STANDARD
  9
$DIMCLRD
 70
     0
  9
$DIMCLRE
 70
     0
  9
$DIMCLRT
 70
     0
  9
$DIMTFAC
 40
1.0
  9
$DIMGAP
 40
0.09
  9
$DIMJUST
 70
     0
  9
$DIMSD1
 70
     0
  9
$DIMSD2
 70
     0
  9
$DIMTOLJ
 70
     1
  9
$DIMTZIN
 70
     0
  9
$DIMALTZ
 70
     0
  9
$DIMALTTZ
 70
     0
  9
$DIMFIT
 70
     3
  9
$DIMUPT
 70
     0
  9
$DIMUNIT
 70
     2
  9
$DIMDEC
 70
     4
  9
$DIMTDEC
 70
     4
  9
$DIMALTU
 70
     2
  9
$DIMALTTD
 70
     2
  9
$DIMTXSTY
  7
STANDARD
  9
$DIMAUNIT
 70
     0
  9
$LUNITS
 70
     2
  9
$LUPREC
 70
     0
  9
$SKETCHINC
 40
0.1
  9
$FILLETRAD
 40
0.5
  9
$AUNITS
 70
     0
  9
$AUPREC
 70
     0
  9
$MENU
  1
.
  9
$ELEVATION
 40
0.0
  9
$PELEVATION
 40
0.0
  9
$THICKNESS
 40
0.0
  9
$LIMCHECK
 70
     0
  9
$CHAMFERA
 40
0.5
  9
$CHAMFERB
 40
0.5
  9
$CHAMFERC
 40
1.0
  9
$CHAMFERD
 40
0.0
  9
$SKPOLY
 70
     0
  9
$TDCREATE
 40
2453769.504168577
  9
$TDUPDATE
 40
2453769.504168588
  9
$TDINDWG
 40
0.0000000116
  9
$TDUSRTIMER
 40
0.0000000116
  9
$USRTIMER
 70
     1
  9
$ANGBASE
 50
0.0
  9
$ANGDIR
 70
     0
  9
$PDMODE
 70
     0
  9
$PDSIZE
 40
0.0
  9
$PLINEWID
 40
0.0
  9
$COORDS
 70
     1
  9
$SPLFRAME
 70
     0
  9
$SPLINETYPE
 70
     6
  9
$SPLINESEGS
 70
     8
  9
$ATTDIA
 70
     0
  9
$ATTREQ
 70
     1
  9
$HANDLING
 70
     1
  9
$HANDSEED
  5
A3
  9
$SURFTAB1
 70
     6
  9
$SURFTAB2
 70
     6
  9
$SURFTYPE
 70
     6
  9
$SURFU
 70
     6
  9
$SURFV
 70
     6
  9
$UCSNAME
  2

  9
$UCSORG
 10
0.0
 20
0.0
 30
0.0
  9
$UCSXDIR
 10
1.0
 20
0.0
 30
0.0
  9
$UCSYDIR
 10
0.0
 20
1.0
 30
0.0
  9
$PUCSNAME
  2

  9
$PUCSORG
 10
0.0
 20
0.0
 30
0.0
  9
$PUCSXDIR
 10
1.0
 20
0.0
 30
0.0
  9
$PUCSYDIR
 10
0.0
 20
1.0
 30
0.0
  9
$USERI1
 70
     0
  9
$USERI2
 70
     0
  9
$USERI3
 70
     0
  9
$USERI4
 70
     0
  9
$USERI5
 70
     0
  9
$USERR1
 40
0.0
  9
$USERR2
 40
0.0
  9
$USERR3
 40
0.0
  9
$USERR4
 40
0.0
  9
$USERR5
 40
0.0
  9
$WORLDVIEW
 70
     1
  9
$SHADEDGE
 70
     3
  9
$SHADEDIF
 70
    70
  9
$TILEMODE
 70
     1
  9
$MAXACTVP
 70
    64
  9
$PINSBASE
 10
0.0
 20
0.0
 30
0.0
  9
$PLIMCHECK
 70
     0
  9
$PEXTMIN
 10
1.000000000000000E+20
 20
1.000000000000000E+20
 30
1.000000000000000E+20
  9
$PEXTMAX
 10
-1.000000000000000E+20
 20
-1.000000000000000E+20
 30
-1.000000000000000E+20
  9
$PLIMMIN
 10
0.0
 20
0.0
  9
$PLIMMAX
 10
12.0
 20
9.0
  9
$UNITMODE
 70
     0
  9
$VISRETAIN
 70
     1
  9
$PLINEGEN
 70
     0
  9
$PSLTSCALE
 70
     1
  9
$TREEDEPTH
 70
  3020
  9
$PICKSTYLE
 70
     1
  9
$CMLSTYLE
  2
STANDARD
  9
$CMLJUST
 70
     0
  9
$CMLSCALE
 40
1.0
  9
$PROXYGRAPHICS
 70
     1
  9
$MEASUREMENT
 70
     0
  0
ENDSEC
  0
SECTION
  2
CLASSES
  0
CLASS
  1
ACDBDICTIONARYWDFLT
  2
AcDbDictionaryWithDefault
  3
ObjectDBX Classes
 90
        0
280
     0
281
     0
  0
CLASS
  1
XRECORD
  2
AcDbXrecord
  3
AutoCAD 2000
 90
        0
280
     0
281
     0
  0
CLASS
  1
LWPOLYLINE
  2
AcDbPolyline
  3
AutoCAD 2000
 90
        0
280
     0
281
     1
  0
CLASS
  1
HATCH
  2
AcDbHatch
  3
AutoCAD 2000
 90
        0
280
     0
281
     1
  0
CLASS
  1
ACDBPLACEHOLDER
  2
AcDbPlaceHolder
  3
ObjectDBX Classes
 90
        0
280
     0
281
     0
  0
CLASS
  1
LAYOUT
  2
AcDbLayout
  3
ObjectDBX Classes
 90
        0
280
     0
281
     0
  0
ENDSEC
  0
SECTION
  2
TABLES
  0
TABLE
  2
VPORT
  5
8
330
0
100
AcDbSymbolTable
 70
     2
  0
VPORT
  5
29
102
{ACAD_XDICTIONARY
360
A1
102
}
330
8
100
AcDbSymbolTableRecord
100
AcDbViewportTableRecord
  2
*ACTIVE
 70
     0
 10
0.0
 20
0.0
 11
1.0
 21
1.0
 12
46.11292245605277
 22
41.11714781652326
 13
0.0
 23
0.0
 14
0.5
 24
0.5
 15
0.5
 25
0.5
 16
0.0
 26
0.0
 36
80.21230066091221
 17
0.0
 27
0.0
 37
0.0
 40
82.18888734032373
 41
1.972972972850329
 42
50.0
 43
0.0
 44
0.0
 50
0.0
 51
0.0
 71
     0
 72
   100
 73
     1
 74
     3
 75
     0
 76
     0
 77
     0
 78
     0
  0
ENDTAB
  0
TABLE
  2
LTYPE
  5
5
330
0
100
AcDbSymbolTable
 70
     1
  0
LTYPE
  5
14
330
5
100
AcDbSymbolTableRecord
100
AcDbLinetypeTableRecord
  2
BYBLOCK
 70
     0
  3

 72
    65
 73
     0
 40
0.0
  0
LTYPE
  5
15
330
5
100
AcDbSymbolTableRecord
100
AcDbLinetypeTableRecord
  2
BYLAYER
 70
     0
  3

 72
    65
 73
     0
 40
0.0
  0
LTYPE
  5
16
330
5
100
AcDbSymbolTableRecord
100
AcDbLinetypeTableRecord
  2
CONTINUOUS
 70
     0
  3
Solid line
 72
    65
 73
     0
 40
0.0
  0
ENDTAB
  0
TABLE
  2
LAYER
  5
2
330
0
100
AcDbSymbolTable
 70
     1
  0
LAYER
  5
10
330
2
100
AcDbSymbolTableRecord
100
AcDbLayerTableRecord
  2
0
 70
     0
 62
     7
  6
CONTINUOUS
  0
ENDTAB
  0
TABLE
  2
STYLE
  5
3
330
0
100
AcDbSymbolTable
 70
     1
  0
STYLE
  5
11
330
3
100
AcDbSymbolTableRecord
100
AcDbTextStyleTableRecord
  2
STANDARD
 70
     0
 40
0.0
 41
1.0
 50
0.0
 71
     0
 42
0.2
  3
txt
  4

  0
ENDTAB
  0
TABLE
  2
VIEW
  5
6
330
0
100
AcDbSymbolTable
 70
     0
  0
ENDTAB
  0
TABLE
  2
UCS
  5
7
330
0
100
AcDbSymbolTable
 70
     0
  0
ENDTAB
  0
TABLE
  2
APPID
  5
9
330
0
100
AcDbSymbolTable
 70
     1
  0
APPID
  5
12
330
9
100
AcDbSymbolTableRecord
100
AcDbRegAppTableRecord
  2
ACAD
 70
     0
  0
ENDTAB
  0
TABLE
  2
DIMSTYLE
  5
A
330
0
100
AcDbSymbolTable
 70
     1
  0
DIMSTYLE
105
27
330
A
100
AcDbSymbolTableRecord
100
AcDbDimStyleTableRecord
  2
STANDARD
 70
     0
  3

  4

  5

  6

  7

 40
1.0
 41
0.18
 42
0.0625
 43
0.38
 44
0.18
 45
0.0
 46
0.0
 47
0.0
 48
0.0
140
0.18
141
0.09
142
0.0
143
25.4
144
1.0
145
0.0
146
1.0
147
0.09
 71
     0
 72
     0
 73
     1
 74
     1
 75
     0
 76
     0
 77
     0
 78
     0
170
     0
171
     2
172
     0
173
     0
174
     0
175
     0
176
     0
177
     0
178
     0
270
     2
271
     4
272
     4
273
     2
274
     2
340
11
275
     0
280
     0
281
     0
282
     0
283
     1
284
     0
285
     0
286
     0
287
     3
288
     0
  0
ENDTAB
  0
TABLE
  2
BLOCK_RECORD
  5
1
330
0
100
AcDbSymbolTable
 70
     1
  0
BLOCK_RECORD
  5
1F
330
1
100
AcDbSymbolTableRecord
100
AcDbBlockTableRecord
  2
*MODEL_SPACE
  0
BLOCK_RECORD
  5
1B
330
1
100
AcDbSymbolTableRecord
100
AcDbBlockTableRecord
  2
*PAPER_SPACE
  0
ENDTAB
  0
ENDSEC
  0
SECTION
  2
BLOCKS
  0
BLOCK
  5
20
330
1F
100
AcDbEntity
  8
0
100
AcDbBlockBegin
  2
*MODEL_SPACE
 70
     0
 71
     0
 10
0.0
 20
0.0
 30
0.0
  3
*MODEL_SPACE
  1

  0
ENDBLK
  5
21
330
1F
100
AcDbEntity
  8
0
100
AcDbBlockEnd
  0
BLOCK
  5
1C
330
1B
100
AcDbEntity
 67
     1
  8
0
100
AcDbBlockBegin
  2
*PAPER_SPACE
 70
     0
 71
     0
 10
0.0
 20
0.0
 30
0.0
  3
*PAPER_SPACE
  1

  0
ENDBLK
  5
1D
330
1B
100
AcDbEntity
 67
     1
  8
0
100
AcDbBlockEnd
  0
ENDSEC
  0
SECTION
  2
ENTITIES
  0
ARC
  5
2A
330
1F
100
AcDbEntity
  8
0
 62
     7
100
AcDbCircle
 10
1.01092788088786
 20
81.21118054635771
 30
0.0
 40
1.000000000000096
100
AcDbArc
 50
89.9999999999925
 51
180.0000000000065
  0
ARC
  5
2B
330
1F
100
AcDbEntity
  8
0
 62
     7
100
AcDbCircle
 10
39.01092788088766
 20
81.21118054635771
 30
0.0
 40
1.000000000000103
100
AcDbArc
 50
359.9999999999919
 51
90.00000000000692
  0
LINE
  5
2C
330
1F
100
AcDbEntity
  8
0
 62
     7
100
AcDbLine
 10
1.010927880887991
 20
82.21118054635782
 30
0.0
 11
39.01092788088754
 21
82.21118054635782
 31
0.0
  0
ARC
  5
2D
330
1F
100
AcDbEntity
  8
0
 62
     7
100
AcDbCircle
 10
39.01092788088766
 20
46.20050666272773
 30
0.0
 40
1.000000000000112
100
AcDbArc
 50
269.9999999999915
 51
0.000000000007328
  0
LINE
  5
2E
330
1F
100
AcDbEntity
  8
0
 62
     7
100
AcDbLine
 10
40.01092788088777
 20
81.21118054635757
 30
0.0
 11
40.01092788088777
 21
46.20050666272787
 31
0.0
  0
ARC
  5
2F
330
1F
100
AcDbEntity
  8
0
 62
     7
100
AcDbCircle
 10
34.51092788088784
 20
46.20050666272771
 30
0.0
 40
1.000000000000076
100
AcDbArc
 50
179.9999999999915
 51
270.0000000000045
  0
LINE
  5
30
330
1F
100
AcDbEntity
  8
0
 62
     7
100
AcDbLine
 10
39.0109278808875
 20
45.20050666272763
 30
0.0
 11
34.51092788088792
 21
45.20050666272763
 31
0.0
  0
LINE
  5
31
330
1F
100
AcDbEntity
  8
0
 62
     7
100
AcDbLine
 10
33.51092788088776
 20
46.20050666272786
 30
0.0
 11
33.51092788088776
 21
70.62756434001824
 31
0.0
  0
ARC
  5
32
330
1F
100
AcDbEntity
  8
0
 62
     7
100
AcDbCircle
 10
1.010927880887924
 20
46.2005066627278
 30
0.0
 40
1.000000000000165
100
AcDbArc
 50
179.9999999999959
 51
270.0000000000057
  0
LINE
  5
33
330
1F
100
AcDbEntity
  8
0
 62
     7
100
AcDbLine
 10
0.0109278808877622
 20
46.20050666272786
 30
0.0
 11
0.0109278808877633
 21
81.21118054635761
 31
0.0
  0
ARC
  5
34
330
1F
100
AcDbEntity
  8
0
 62
     7
100
AcDbCircle
 10
5.510927880887659
 20
46.20050666272773
 30
0.0
 40
1.000000000000097
100
AcDbArc
 50
269.9999999999906
 51
0.0000000000077351
  0
LINE
  5
35
330
1F
100
AcDbEntity
  8
0
 62
     7
100
AcDbLine
 10
5.510927880887497
 20
45.20050666272763
 30
0.0
 11
1.010927880888025
 21
45.20050666272763
 31
0.0
  0
LINE
  5
36
330
1F
100
AcDbEntity
  8
0
 62
     7
100
AcDbLine
 10
6.510927880887756
 20
70.62756434001825
 30
0.0
 11
6.510927880887756
 21
46.20050666272786
 31
0.0
  0
ARC
  5
37
330
1F
100
AcDbEntity
  8
0
 62
     7
100
AcDbCircle
 10
3.510927880887824
 20
77.80044758808384
 30
0.0
 40
1.000000000000062
100
AcDbArc
 50
89.99999999999048
 51
180.0000000000065
  0
ARC
  5
38
330
1F
100
AcDbEntity
  8
0
 62
     7
100
AcDbCircle
 10
36.51092788088766
 20
77.80044758808381
 30
0.0
 40
1.000000000000103
100
AcDbArc
 50
359.9999999999919
 51
90.00000000000692
  0
LINE
  5
39
330
1F
100
AcDbEntity
  8
0
 62
     7
100
AcDbLine
 10
3.510927880887989
 20
78.8004475880839
 30
0.0
 11
36.51092788088754
 21
78.80044758808391
 31
0.0
  0
ARC
  5
3A
330
1F
100
AcDbEntity
  8
0
 62
     7
100
AcDbCircle
 10
32.51092788088765
 20
46.20050666272775
 30
0.0
 40
1.000000000000112
100
AcDbArc
 50
269.9999999999931
 51
0.0000000000069209
  0
ARC
  5
3B
330
1F
100
AcDbEntity
  8
0
 62
     7
100
AcDbCircle
 10
7.510927880887881
 20
46.20050666272776
 30
0.0
 40
1.000000000000123
100
AcDbArc
 50
179.9999999999939
 51
270.0000000000061
  0
LINE
  5
3C
330
1F
100
AcDbEntity
  8
0
 62
     7
100
AcDbLine
 10
33.51092788088776
 20
46.20050666272788
 30
0.0
 11
33.51092788088776
 21
67.46068195579093
 31
0.0
  0
LINE
  5
3D
330
1F
100
AcDbEntity
  8
0
 62
     7
100
AcDbLine
 10
33.51092788088776
 20
67.46068195579093
 30
0.0
 11
6.510927880887756
 21
67.46068195579093
 31
0.0
  0
LINE
  5
3E
330
1F
100
AcDbEntity
  8
0
 62
     7
100
AcDbLine
 10
6.510927880887756
 20
67.46068195579093
 30
0.0
 11
6.510927880887756
 21
46.20050666272786
 31
0.0
  0
LINE
  5
3F
330
1F
100
AcDbEntity
  8
0
 62
     7
100
AcDbLine
 10
7.510927880887985
 20
45.20050666272763
 30
0.0
 11
32.51092788088754
 21
45.20050666272763
 31
0.0
  0
ARC
  5
40
330
1F
100
AcDbEntity
  8
0
 62
     7
100
AcDbCircle
 10
36.51092788088801
 20
72.427860688775
 30
0.0
 40
0.9999999999997653
100
AcDbArc
 50
359.9999999999959
 51
90.00000000002687
  0
ARC
  5
41
330
1F
100
AcDbEntity
  8
0
 62
     7
100
AcDbCircle
 10
3.51092788088798
 20
72.42786068877454
 30
0.0
 40
1.000000000000218
100
AcDbArc
 50
89.99999999999942
 51
179.9999999999853
  0
LINE
  5
42
330
1F
100
AcDbEntity
  8
0
 62
     7
100
AcDbLine
 10
3.510927880887989
 20
73.42786068877476
 30
0.0
 11
36.51092788088754
 21
73.42786068877476
 31
0.0
  0
LINE
  5
43
330
1F
100
AcDbEntity
  8
0
 62
     7
100
AcDbLine
 10
37.51092788088778
 20
72.42786068877493
 30
0.0
 11
37.51092788088778
 21
70.62756434001824
 31
0.0
  0
LINE
  5
44
330
1F
100
AcDbEntity
  8
0
 62
     7
100
AcDbLine
 10
37.51092788088778
 20
70.62756434001824
 30
0.0
 11
33.51092788088776
 21
70.62756434001824
 31
0.0
  0
LINE
  5
45
330
1F
100
AcDbEntity
  8
0
 62
     7
100
AcDbLine
 10
33.51092788088776
 20
70.62756434001824
 30
0.0
 11
33.51092788088776
 21
67.46068195579093
 31
0.0
  0
LINE
  5
46
330
1F
100
AcDbEntity
  8
0
 62
     7
100
AcDbLine
 10
33.51092788088776
 20
67.46068195579093
 30
0.0
 11
6.510927880887756
 21
67.46068195579093
 31
0.0
  0
LINE
  5
47
330
1F
100
AcDbEntity
  8
0
 62
     7
100
AcDbLine
 10
6.510927880887756
 20
67.46068195579093
 30
0.0
 11
6.510927880887756
 21
70.62756434001825
 31
0.0
  0
LINE
  5
48
330
1F
100
AcDbEntity
  8
0
 62
     7
100
AcDbLine
 10
6.510927880887756
 20
70.62756434001825
 30
0.0
 11
2.510927880887762
 21
70.62756434001824
 31
0.0
  0
LINE
  5
49
330
1F
100
AcDbEntity
  8
0
 62
     7
100
AcDbLine
 10
2.510927880887762
 20
70.62756434001824
 30
0.0
 11
2.510927880887762
 21
72.4278606887748
 31
0.0
  0
LINE
  5
4A
330
1F
100
AcDbEntity
  8
0
 62
     7
100
AcDbLine
 10
37.51092788088778
 20
77.80044758808377
 30
0.0
 11
37.51092788088778
 21
72.42786068877493
 31
0.0
  0
LINE
  5
4B
330
1F
100
AcDbEntity
  8
0
 62
     7
100
AcDbLine
 10
2.510927880887762
 20
77.80044758808373
 30
0.0
 11
2.510927880887762
 21
72.4278606887748
 31
0.0
  0
LINE
  5
4C
330
1F
100
AcDbEntity
  8
0
 62
     7
100
AcDbLine
 10
59.87451703121776
 20
0.0231150866886853
 30
0.0
 11
59.68751703121776
 21
0.2101150866886865
 31
0.0
  0
LINE
  5
4D
330
1F
100
AcDbEntity
  8
0
 62
     7
100
AcDbLine
 10
91.78491703121775
 20
0.0231150866886853
 30
0.0
 11
88.14491703121776
 21
0.0231150866886853
 31
0.0
  0
LINE
  5
4E
330
1F
100
AcDbEntity
  8
0
 62
     7
100
AcDbLine
 10
59.87451703121776
 20
0.0231150866886853
 30
0.0
 11
63.27791703121776
 21
0.0231150866886853
 31
0.0
  0
LINE
  5
4F
330
1F
100
AcDbEntity
  8
0
 62
     7
100
AcDbLine
 10
91.96491703121775
 20
0.2031150866886851
 30
0.0
 11
87.96491703121775
 21
0.2031150866886851
 31
0.0
  0
LINE
  5
50
330
1F
100
AcDbEntity
  8
0
 62
     7
100
AcDbLine
 10
59.68751703121776
 20
0.2101150866886865
 30
0.0
 11
63.46491703121777
 21
0.2101150866886865
 31
0.0
  0
LINE
  5
51
330
1F
100
AcDbEntity
  8
0
 62
     7
100
AcDbLine
 10
59.46491703121776
 20
2.023115086688689
 30
0.0
 11
59.68751703121776
 21
0.2101150866886865
 31
0.0
  0
LINE
  5
52
330
1F
100
AcDbEntity
  8
0
 62
     7
100
AcDbLine
 10
59.21491703121776
 20
2.023115086688689
 30
0.0
 11
92.21491703121777
 21
2.023115086688689
 31
0.0
  0
LINE
  5
53
330
1F
100
AcDbEntity
  8
0
 62
     7
100
AcDbLine
 10
63.46491703121777
 20
0.2101150866886865
 30
0.0
 11
63.46491703121777
 21
2.023115086688689
 31
0.0
  0
LINE
  5
54
330
1F
100
AcDbEntity
  8
0
 62
     7
100
AcDbLine
 10
87.96491703121775
 20
0.2031150866886851
 30
0.0
 11
88.14491703121776
 21
0.0231150866886853
 31
0.0
  0
LINE
  5
55
330
1F
100
AcDbEntity
  8
0
 62
     7
100
AcDbLine
 10
63.27791703121776
 20
0.0231150866886853
 30
0.0
 11
63.46491703121777
 21
0.2101150866886865
 31
0.0
  0
LINE
  5
56
330
1F
100
AcDbEntity
  8
0
 62
     7
100
AcDbLine
 10
87.96491703121775
 20
0.2031150866886851
 30
0.0
 11
87.96491703121775
 21
2.023115086688689
 31
0.0
  0
LINE
  5
57
330
1F
100
AcDbEntity
  8
0
 62
     7
100
AcDbLine
 10
91.96491703121775
 20
2.023115086688689
 30
0.0
 11
91.96491703121775
 21
0.2031150866886851
 31
0.0
  0
LINE
  5
58
330
1F
100
AcDbEntity
  8
0
 62
     7
100
AcDbLine
 10
91.96491703121775
 20
0.2031150866886851
 30
0.0
 11
91.78491703121775
 21
0.0231150866886853
 31
0.0
  0
ARC
  5
59
330
1F
100
AcDbEntity
  8
0
 62
     7
100
AcDbCircle
 10
91.21491703121778
 20
22.27311508668868
 30
0.0
 40
0.9999999999999785
100
AcDbArc
 50
0.0
 51
90.00000000000163
  0
LINE
  5
5A
330
1F
100
AcDbEntity
  8
0
 62
     7
100
AcDbLine
 10
92.21491703121777
 20
2.023115086688689
 30
0.0
 11
92.21491703121777
 21
22.27311508668868
 31
0.0
  0
ARC
  5
5B
330
1F
100
AcDbEntity
  8
0
 62
     7
100
AcDbCircle
 10
59.62276703121781
 20
27.98667508668868
 30
0.0
 40
1.000000000000027
100
AcDbArc
 50
111.0000000000031
 51
200.9999999999993
  0
LINE
  5
5C
330
1F
100
AcDbEntity
  8
0
 62
     7
100
AcDbLine
 10
60.36099703121776
 20
23.27309508668869
 30
0.0
 11
58.68918703121777
 21
27.62830508668869
 31
0.0
  0
ARC
  5
5D
330
1F
100
AcDbEntity
  8
0
 62
     7
100
AcDbCircle
 10
63.35708703121777
 20
29.42014508668868
 30
0.0
 40
1.000000000000007
100
AcDbArc
 50
21.00000000000064
 51
111.0000000000005
  0
LINE
  5
5E
330
1F
100
AcDbEntity
  8
0
 62
     7
100
AcDbLine
 10
59.26439703121776
 20
28.92025508668868
 30
0.0
 11
62.99871703121776
 21
30.35372508668868
 31
0.0
  0
LINE
  5
5F
330
1F
100
AcDbEntity
  8
0
 62
     7
100
AcDbLine
 10
64.29066703121777
 20
29.77851508668867
 30
0.0
 11
66.78786703121776
 21
23.27309508668869
 31
0.0
  0
ARC
  5
60
330
1F
100
AcDbEntity
  8
0
 62
     7
100
AcDbCircle
 10
56.21302703121776
 20
22.27311508668869
 30
0.0
 40
0.9999999999999918
100
AcDbArc
 50
89.99999999999959
 51
191.2321380000011
  0
LINE
  5
61
330
1F
100
AcDbEntity
  8
0
 62
     7
100
AcDbLine
 10
56.21302703121776
 20
23.27311508668868
 30
0.0
 11
91.21491703121777
 21
23.27311508668868
 31
0.0
  0
LINE
  5
62
330
1F
100
AcDbEntity
  8
0
 62
     7
100
AcDbLine
 10
55.23218703121776
 20
22.07832508668868
 30
0.0
 11
59.21491703121776
 21
2.023115086688691
 31
0.0
  0
LINE
  5
63
330
1F
100
AcDbEntity
  8
0
 62
     7
100
AcDbLine
 10
37.51092788088776
 20
29.71209508668868
 30
0.0
 11
37.51092788088776
 21
23.27309508668869
 31
0.0
  0
LINE
  5
64
330
1F
100
AcDbEntity
  8
0
 62
     7
100
AcDbLine
 10
3.510927880887758
 20
30.71209508668869
 30
0.0
 11
36.51092788088776
 21
30.71209508668869
 31
0.0
  0
ARC
  5
65
330
1F
100
AcDbEntity
  8
0
 62
     7
100
AcDbCircle
 10
36.51092788088776
 20
29.71209508668868
 30
0.0
 40
1.00000000000001
100
AcDbArc
 50
0.0000000000008142
 51
89.99999999999919
  0
LINE
  5
66
330
1F
100
AcDbEntity
  8
0
 62
     7
100
AcDbLine
 10
2.510927880887762
 20
29.71209508668868
 30
0.0
 11
2.510927880887762
 21
23.27309508668869
 31
0.0
  0
ARC
  5
67
330
1F
100
AcDbEntity
  8
0
 62
     7
100
AcDbCircle
 10
3.510927880887771
 20
29.71209508668869
 30
0.0
 40
1.000000000000005
100
AcDbArc
 50
90.00000000000068
 51
180.0000000000004
  0
LINE
  5
68
330
1F
100
AcDbEntity
  8
0
 62
     7
100
AcDbLine
 10
0.0109278808877622
 20
2.023115086688689
 30
0.0
 11
0.0109278808877622
 21
22.27311508668868
 31
0.0
  0
LINE
  5
69
330
1F
100
AcDbEntity
  8
0
 62
     7
100
AcDbLine
 10
1.010927880887759
 20
23.27311508668868
 30
0.0
 11
5.51092788088776
 21
23.27311508668868
 31
0.0
  0
ARC
  5
6A
330
1F
100
AcDbEntity
  8
0
 62
     7
100
AcDbCircle
 10
1.010927880887749
 20
22.27311508668869
 30
0.0
 40
0.9999999999999873
100
AcDbArc
 50
89.99999999999943
 51
180.0000000000014
  0
LINE
  5
6B
330
1F
100
AcDbEntity
  8
0
 62
     7
100
AcDbLine
 10
6.510927880887756
 20
22.27311508668868
 30
0.0
 11
6.510927880887756
 21
2.023115086688691
 31
0.0
  0
ARC
  5
6C
330
1F
100
AcDbEntity
  8
0
 62
     7
100
AcDbCircle
 10
5.510927880887769
 20
22.27311508668869
 30
0.0
 40
0.9999999999999885
100
AcDbArc
 50
359.9999999999996
 51
90.0000000000003
  0
LINE
  5
6D
330
1F
100
AcDbEntity
  8
0
 62
     7
100
AcDbLine
 10
33.51092788088776
 20
22.27311508668868
 30
0.0
 11
33.51092788088776
 21
2.023115086688691
 31
0.0
  0
LINE
  5
6E
330
1F
100
AcDbEntity
  8
0
 62
     7
100
AcDbLine
 10
34.51092788088776
 20
23.27311508668868
 30
0.0
 11
39.01092788088776
 21
23.27311508668868
 31
0.0
  0
ARC
  5
6F
330
1F
100
AcDbEntity
  8
0
 62
     7
100
AcDbCircle
 10
34.51092788088775
 20
22.27311508668868
 30
0.0
 40
1.000000000000001
100
AcDbArc
 50
89.99999999999959
 51
180.0000000000006
  0
LINE
  5
70
330
1F
100
AcDbEntity
  8
0
 62
     7
100
AcDbLine
 10
40.01092788088777
 20
2.023115086688689
 30
0.0
 11
40.01092788088777
 21
22.27311508668868
 31
0.0
  0
ARC
  5
71
330
1F
100
AcDbEntity
  8
0
 62
     7
100
AcDbCircle
 10
39.01092788088776
 20
22.27311508668868
 30
0.0
 40
1.000000000000005
100
AcDbArc
 50
0.0000000000012213
 51
89.99999999999959
  0
LINE
  5
72
330
1F
100
AcDbEntity
  8
0
 62
     7
100
AcDbLine
 10
39.76092788088776
 20
0.2031150866886851
 30
0.0
 11
39.58092788088775
 21
0.0231150866886853
 31
0.0
  0
LINE
  5
73
330
1F
100
AcDbEntity
  8
0
 62
     7
100
AcDbLine
 10
39.76092788088776
 20
2.023115086688689
 30
0.0
 11
39.76092788088776
 21
0.2031150866886851
 31
0.0
  0
LINE
  5
74
330
1F
100
AcDbEntity
  8
0
 62
     7
100
AcDbLine
 10
33.76092788088776
 20
2.023115086688689
 30
0.0
 11
33.76092788088776
 21
0.2031150866886851
 31
0.0
  0
LINE
  5
75
330
1F
100
AcDbEntity
  8
0
 62
     7
100
AcDbLine
 10
6.260927880887762
 20
0.2031150866886851
 30
0.0
 11
6.080927880887755
 21
0.0231150866886853
 31
0.0
  0
LINE
  5
76
330
1F
100
AcDbEntity
  8
0
 62
     7
100
AcDbLine
 10
33.76092788088776
 20
0.2031150866886851
 30
0.0
 11
33.94092788088776
 21
0.0231150866886853
 31
0.0
  0
LINE
  5
77
330
1F
100
AcDbEntity
  8
0
 62
     7
100
AcDbLine
 10
6.510927880887756
 20
15.02311508668869
 30
0.0
 11
33.51092788088776
 21
15.02311508668869
 31
0.0
  0
LINE
  5
78
330
1F
100
AcDbEntity
  8
0
 62
     7
100
AcDbLine
 10
6.510927880887756
 20
8.023115086688685
 30
0.0
 11
33.51092788088776
 21
8.023115086688685
 31
0.0
  0
LINE
  5
79
330
1F
100
AcDbEntity
  8
0
 62
     7
100
AcDbLine
 10
0.0109278808877622
 20
2.023115086688689
 30
0.0
 11
40.01092788088777
 21
2.023115086688689
 31
0.0
  0
LINE
  5
7A
330
1F
100
AcDbEntity
  8
0
 62
     7
100
AcDbLine
 10
6.260927880887762
 20
2.023115086688689
 30
0.0
 11
6.260927880887762
 21
0.2031150866886851
 31
0.0
  0
LINE
  5
7B
330
1F
100
AcDbEntity
  8
0
 62
     7
100
AcDbLine
 10
33.76092788088776
 20
0.2031150866886851
 30
0.0
 11
39.76092788088776
 21
0.2031150866886851
 31
0.0
  0
LINE
  5
7C
330
1F
100
AcDbEntity
  8
0
 62
     7
100
AcDbLine
 10
0.2609278808877569
 20
0.2031150866886851
 30
0.0
 11
6.260927880887762
 21
0.2031150866886851
 31
0.0
  0
LINE
  5
7D
330
1F
100
AcDbEntity
  8
0
 62
     7
100
AcDbLine
 10
33.94092788088776
 20
0.0231150866886853
 30
0.0
 11
39.58092788088775
 21
0.0231150866886853
 31
0.0
  0
LINE
  5
7E
330
1F
100
AcDbEntity
  8
0
 62
     7
100
AcDbLine
 10
0.4409278808877548
 20
0.0231150866886853
 30
0.0
 11
6.080927880887755
 21
0.0231150866886853
 31
0.0
  0
LINE
  5
7F
330
1F
100
AcDbEntity
  8
0
 62
     7
100
AcDbLine
 10
0.2609278808877569
 20
2.023115086688689
 30
0.0
 11
0.2609278808877569
 21
0.2031150866886851
 31
0.0
  0
LINE
  5
80
330
1F
100
AcDbEntity
  8
0
 62
     7
100
AcDbLine
 10
0.2609278808877569
 20
0.2031150866886851
 30
0.0
 11
0.4409278808877548
 21
0.0231150866886853
 31
0.0
  0
ENDSEC
  0
SECTION
  2
OBJECTS
  0
DICTIONARY
  5
C
330
0
100
AcDbDictionary
  3
ACAD_GROUP
350
D
  3
ACAD_LAYOUT
350
1A
  3
ACAD_MLINESTYLE
350
17
  3
ACAD_PLOTSETTINGS
350
19
  3
ACDBHEADERROUNDTRIPXREC
350
81
  0
DICTIONARY
  5
A1
330
29
100
AcDbDictionary
280
     1
  3
ACAD_XREC_ROUNDTRIP
360
A2
  0
DICTIONARY
  5
D
102
{ACAD_REACTORS
330
C
102
}
330
C
100
AcDbDictionary
  0
DICTIONARY
  5
1A
102
{ACAD_REACTORS
330
C
102
}
330
C
100
AcDbDictionary
  0
DICTIONARY
  5
17
102
{ACAD_REACTORS
330
C
102
}
330
C
100
AcDbDictionary
  3
STANDARD
350
18
  0
DICTIONARY
  5
19
102
{ACAD_REACTORS
330
C
102
}
330
C
100
AcDbDictionary
  0
DICTIONARY
  5
81
102
{ACAD_REACTORS
330
C
102
}
330
C
100
AcDbDictionary
  3
CEPSNTYPE
350
8A
  3
DIMSTYLEDATA
350
A0
  3
FINGERPRINTGUID
350
8B
  3
HYPERLINKBASE
350
84
  3
INSUNITS
350
89
  3
LAYOUTDICT
350
86
  3
LWETCUNION
350
88
  3
PLOTSETDICT
350
87
  3
PSVPSCALE
350
8D
  3
PUCSBASE
350
90
  3
PUCSORGBACK
350
96
  3
PUCSORGBOTTOM
350
92
  3
PUCSORGFRONT
350
95
  3
PUCSORGLEFT
350
93
  3
PUCSORGRIGHT
350
94
  3
PUCSORGTOP
350
91
  3
PUCSORTHOREF
350
8E
  3
PUCSORTHOVIEW
350
8F
  3
STYLESHEET
350
85
  3
TSTACKALIGN
350
82
  3
TSTACKSIZE
350
83
  3
UCSBASE
350
99
  3
UCSORGBACK
350
9F
  3
UCSORGBOTTOM
350
9B
  3
UCSORGFRONT
350
9E
  3
UCSORGLEFT
350
9C
  3
UCSORGRIGHT
350
9D
  3
UCSORGTOP
350
9A
  3
UCSORTHOREF
350
97
  3
UCSORTHOVIEW
350
98
  3
VERSIONGUID
350
8C
  0
XRECORD
  5
A2
102
{ACAD_REACTORS
330
A1
102
}
330
A1
100
AcDbXrecord
102
UCS
 74
     0
 71
     1
 10
0.0
 20
0.0
 30
0.0
 10
1.0
 20
0.0
 30
0.0
 10
0.0
 20
1.0
 30
0.0
146
0.0
 79
     0
102
VIEW
281
     0
  0
MLINESTYLE
  5
18
102
{ACAD_REACTORS
330
17
102
}
330
17
100
AcDbMlineStyle
  2
Standard
 70
     0
  3

 62
   256
 51
90.0
 52
90.0
 71
     2
 49
0.5
 62
   256
  6
BYLAYER
 49
-0.5
 62
   256
  6
BYLAYER
  0
XRECORD
  5
8A
102
{ACAD_REACTORS
330
81
102
}
330
81
100
AcDbXrecord
 90
        0
  0
XRECORD
  5
A0
102
{ACAD_REACTORS
330
81
102
}
330
81
100
AcDbXrecord
1000
DSTYLE
1002
{
1070
   340
340
11
1002
}
  0
XRECORD
  5
8B
102
{ACAD_REACTORS
330
81
102
}
330
81
100
AcDbXrecord
  1
{FAEB1C30-E019-11D5-929B-00C0DF256EC4}
  0
XRECORD
  5
84
102
{ACAD_REACTORS
330
81
102
}
330
81
100
AcDbXrecord
  1

  0
XRECORD
  5
89
102
{ACAD_REACTORS
330
81
102
}
330
81
100
AcDbXrecord
 90
        4
  0
XRECORD
  5
86
102
{ACAD_REACTORS
330
81
102
}
330
81
100
AcDbXrecord
340
1A
  0
XRECORD
  5
88
102
{ACAD_REACTORS
330
81
102
}
330
81
100
AcDbXrecord
 90
     2560
  0
XRECORD
  5
87
102
{ACAD_REACTORS
330
81
102
}
330
81
100
AcDbXrecord
340
19
  0
XRECORD
  5
8D
102
{ACAD_REACTORS
330
81
102
}
330
81
100
AcDbXrecord
 40
0.0
  0
XRECORD
  5
90
102
{ACAD_REACTORS
330
81
102
}
330
81
100
AcDbXrecord
340
0
  0
XRECORD
  5
96
102
{ACAD_REACTORS
330
81
102
}
330
81
100
AcDbXrecord
 10
0.0
 20
0.0
 30
0.0
  0
XRECORD
  5
92
102
{ACAD_REACTORS
330
81
102
}
330
81
100
AcDbXrecord
 10
0.0
 20
0.0
 30
0.0
  0
XRECORD
  5
95
102
{ACAD_REACTORS
330
81
102
}
330
81
100
AcDbXrecord
 10
0.0
 20
0.0
 30
0.0
  0
XRECORD
  5
93
102
{ACAD_REACTORS
330
81
102
}
330
81
100
AcDbXrecord
 10
0.0
 20
0.0
 30
0.0
  0
XRECORD
  5
94
102
{ACAD_REACTORS
330
81
102
}
330
81
100
AcDbXrecord
 10
0.0
 20
0.0
 30
0.0
  0
XRECORD
  5
91
102
{ACAD_REACTORS
330
81
102
}
330
81
100
AcDbXrecord
 10
0.0
 20
0.0
 30
0.0
  0
XRECORD
  5
8E
102
{ACAD_REACTORS
330
81
102
}
330
81
100
AcDbXrecord
340
0
  0
XRECORD
  5
8F
102
{ACAD_REACTORS
330
81
102
}
330
81
100
AcDbXrecord
 70
     0
  0
XRECORD
  5
85
102
{ACAD_REACTORS
330
81
102
}
330
81
100
AcDbXrecord
  1

  0
XRECORD
  5
82
102
{ACAD_REACTORS
330
81
102
}
330
81
100
AcDbXrecord
 90
        1
  0
XRECORD
  5
83
102
{ACAD_REACTORS
330
81
102
}
330
81
100
AcDbXrecord
 90
       70
  0
XRECORD
  5
99
102
{ACAD_REACTORS
330
81
102
}
330
81
100
AcDbXrecord
340
0
  0
XRECORD
  5
9F
102
{ACAD_REACTORS
330
81
102
}
330
81
100
AcDbXrecord
 10
0.0
 20
0.0
 30
0.0
  0
XRECORD
  5
9B
102
{ACAD_REACTORS
330
81
102
}
330
81
100
AcDbXrecord
 10
0.0
 20
0.0
 30
0.0
  0
XRECORD
  5
9E
102
{ACAD_REACTORS
330
81
102
}
330
81
100
AcDbXrecord
 10
0.0
 20
0.0
 30
0.0
  0
XRECORD
  5
9C
102
{ACAD_REACTORS
330
81
102
}
330
81
100
AcDbXrecord
 10
0.0
 20
0.0
 30
0.0
  0
XRECORD
  5
9D
102
{ACAD_REACTORS
330
81
102
}
330
81
100
AcDbXrecord
 10
0.0
 20
0.0
 30
0.0
  0
XRECORD
  5
9A
102
{ACAD_REACTORS
330
81
102
}
330
81
100
AcDbXrecord
 10
0.0
 20
0.0
 30
0.0
  0
XRECORD
  5
97
102
{ACAD_REACTORS
330
81
102
}
330
81
100
AcDbXrecord
340
0
  0
XRECORD
  5
98
102
{ACAD_REACTORS
330
81
102
}
330
81
100
AcDbXrecord
 70
     0
  0
XRECORD
  5
8C
102
{ACAD_REACTORS
330
81
102
}
330
81
100
AcDbXrecord
  1
{FAEB1C32-E019-11D5-929B-00C0DF256EC4}
  0
ENDSEC
  0
EOF
