  0
SECTION
  2
HEADER
  9
$ACADVER
  1
AC1014
  9
$ACADMAINTVER
 70
     9
  9
$DWGCODEPAGE
  3
ANSI_1252
  9
$INSBASE
 10
0.0
 20
0.0
 30
0.0
  9
$EXTMIN
 10
1.000000000000000E+20
 20
1.000000000000000E+20
 30
1.000000000000000E+20
  9
$EXTMAX
 10
-1.000000000000000E+20
 20
-1.000000000000000E+20
 30
-1.000000000000000E+20
  9
$LIMMIN
 10
0.0
 20
0.0
  9
$LIMMAX
 10
12.0
 20
9.0
  9
$ORTHOMODE
 70
     0
  9
$REGENMODE
 70
     1
  9
$FILLMODE
 70
     1
  9
$QTEXTMODE
 70
     0
  9
$MIRRTEXT
 70
     1
  9
$DRAGMODE
 70
     2
  9
$LTSCALE
 40
1.0
  9
$OSMODE
 70
    37
  9
$ATTMODE
 70
     1
  9
$TEXTSIZE
 40
0.2
  9
$TRACEWID
 40
0.05
  9
$TEXTSTYLE
  7
STANDARD
  9
$CLAYER
  8
0
  9
$CELTYPE
  6
BYLAYER
  9
$CECOLOR
 62
   256
  9
$CELTSCALE
 40
1.0
  9
$DELOBJ
 70
     1
  9
$DISPSILH
 70
     0
  9
$DIMSCALE
 40
1.0
  9
$DIMASZ
 40
0.18
  9
$DIMEXO
 40
0.0625
  9
$DIMDLI
 40
0.38
  9
$DIMRND
 40
0.0
  9
$DIMDLE
 40
0.0
  9
$DIMEXE
 40
0.18
  9
$DIMTP
 40
0.0
  9
$DIMTM
 40
0.0
  9
$DIMTXT
 40
0.18
  9
$DIMCEN
 40
0.09
  9
$DIMTSZ
 40
0.0
  9
$DIMTOL
 70
     0
  9
$DIMLIM
 70
     0
  9
$DIMTIH
 70
     1
  9
$DIMTOH
 70
     1
  9
$DIMSE1
 70
     0
  9
$DIMSE2
 70
     0
  9
$DIMTAD
 70
     0
  9
$DIMZIN
 70
     0
  9
$DIMBLK
  1

  9
$DIMASO
 70
     1
  9
$DIMSHO
 70
     1
  9
$DIMPOST
  1

  9
$DIMAPOST
  1

  9
$DIMALT
 70
     0
  9
$DIMALTD
 70
     2
  9
$DIMALTF
 40
25.4
  9
$DIMLFAC
 40
1.0
  9
$DIMTOFL
 70
     0
  9
$DIMTVP
 40
0.0
  9
$DIMTIX
 70
     0
  9
$DIMSOXD
 70
     0
  9
$DIMSAH
 70
     0
  9
$DIMBLK1
  1

  9
$DIMBLK2
  1

  9
$DIMSTYLE
  2
STANDARD
  9
$DIMCLRD
 70
     0
  9
$DIMCLRE
 70
     0
  9
$DIMCLRT
 70
     0
  9
$DIMTFAC
 40
1.0
  9
$DIMGAP
 40
0.09
  9
$DIMJUST
 70
     0
  9
$DIMSD1
 70
     0
  9
$DIMSD2
 70
     0
  9
$DIMTOLJ
 70
     1
  9
$DIMTZIN
 70
     0
  9
$DIMALTZ
 70
     0
  9
$DIMALTTZ
 70
     0
  9
$DIMFIT
 70
     3
  9
$DIMUPT
 70
     0
  9
$DIMUNIT
 70
     2
  9
$DIMDEC
 70
     4
  9
$DIMTDEC
 70
     4
  9
$DIMALTU
 70
     2
  9
$DIMALTTD
 70
     2
  9
$DIMTXSTY
  7
STANDARD
  9
$DIMAUNIT
 70
     0
  9
$LUNITS
 70
     2
  9
$LUPREC
 70
     0
  9
$SKETCHINC
 40
0.1
  9
$FILLETRAD
 40
0.5
  9
$AUNITS
 70
     0
  9
$AUPREC
 70
     0
  9
$MENU
  1
.
  9
$ELEVATION
 40
0.0
  9
$PELEVATION
 40
0.0
  9
$THICKNESS
 40
0.0
  9
$LIMCHECK
 70
     0
  9
$CHAMFERA
 40
0.5
  9
$CHAMFERB
 40
0.5
  9
$CHAMFERC
 40
1.0
  9
$CHAMFERD
 40
0.0
  9
$SKPOLY
 70
     0
  9
$TDCREATE
 40
2453769.505492697
  9
$TDUPDATE
 40
2453769.505492708
  9
$TDINDWG
 40
0.0000000116
  9
$TDUSRTIMER
 40
0.0000000116
  9
$USRTIMER
 70
     1
  9
$ANGBASE
 50
0.0
  9
$ANGDIR
 70
     0
  9
$PDMODE
 70
     0
  9
$PDSIZE
 40
0.0
  9
$PLINEWID
 40
0.0
  9
$COORDS
 70
     1
  9
$SPLFRAME
 70
     0
  9
$SPLINETYPE
 70
     6
  9
$SPLINESEGS
 70
     8
  9
$ATTDIA
 70
     0
  9
$ATTREQ
 70
     1
  9
$HANDLING
 70
     1
  9
$HANDSEED
  5
AC
  9
$SURFTAB1
 70
     6
  9
$SURFTAB2
 70
     6
  9
$SURFTYPE
 70
     6
  9
$SURFU
 70
     6
  9
$SURFV
 70
     6
  9
$UCSNAME
  2

  9
$UCSORG
 10
0.0
 20
0.0
 30
0.0
  9
$UCSXDIR
 10
1.0
 20
0.0
 30
0.0
  9
$UCSYDIR
 10
0.0
 20
1.0
 30
0.0
  9
$PUCSNAME
  2

  9
$PUCSORG
 10
0.0
 20
0.0
 30
0.0
  9
$PUCSXDIR
 10
1.0
 20
0.0
 30
0.0
  9
$PUCSYDIR
 10
0.0
 20
1.0
 30
0.0
  9
$USERI1
 70
     0
  9
$USERI2
 70
     0
  9
$USERI3
 70
     0
  9
$USERI4
 70
     0
  9
$USERI5
 70
     0
  9
$USERR1
 40
0.0
  9
$USERR2
 40
0.0
  9
$USERR3
 40
0.0
  9
$USERR4
 40
0.0
  9
$USERR5
 40
0.0
  9
$WORLDVIEW
 70
     1
  9
$SHADEDGE
 70
     3
  9
$SHADEDIF
 70
    70
  9
$TILEMODE
 70
     1
  9
$MAXACTVP
 70
    64
  9
$PINSBASE
 10
0.0
 20
0.0
 30
0.0
  9
$PLIMCHECK
 70
     0
  9
$PEXTMIN
 10
1.000000000000000E+20
 20
1.000000000000000E+20
 30
1.000000000000000E+20
  9
$PEXTMAX
 10
-1.000000000000000E+20
 20
-1.000000000000000E+20
 30
-1.000000000000000E+20
  9
$PLIMMIN
 10
0.0
 20
0.0
  9
$PLIMMAX
 10
12.0
 20
9.0
  9
$UNITMODE
 70
     0
  9
$VISRETAIN
 70
     1
  9
$PLINEGEN
 70
     0
  9
$PSLTSCALE
 70
     1
  9
$TREEDEPTH
 70
  3020
  9
$PICKSTYLE
 70
     1
  9
$CMLSTYLE
  2
STANDARD
  9
$CMLJUST
 70
     0
  9
$CMLSCALE
 40
1.0
  9
$PROXYGRAPHICS
 70
     1
  9
$MEASUREMENT
 70
     0
  0
ENDSEC
  0
SECTION
  2
CLASSES
  0
CLASS
  1
ACDBDICTIONARYWDFLT
  2
AcDbDictionaryWithDefault
  3
ObjectDBX Classes
 90
        0
280
     0
281
     0
  0
CLASS
  1
XRECORD
  2
AcDbXrecord
  3
AutoCAD 2000
 90
        0
280
     0
281
     0
  0
CLASS
  1
LWPOLYLINE
  2
AcDbPolyline
  3
AutoCAD 2000
 90
        0
280
     0
281
     1
  0
CLASS
  1
HATCH
  2
AcDbHatch
  3
AutoCAD 2000
 90
        0
280
     0
281
     1
  0
CLASS
  1
ACDBPLACEHOLDER
  2
AcDbPlaceHolder
  3
ObjectDBX Classes
 90
        0
280
     0
281
     0
  0
CLASS
  1
LAYOUT
  2
AcDbLayout
  3
ObjectDBX Classes
 90
        0
280
     0
281
     0
  0
ENDSEC
  0
SECTION
  2
TABLES
  0
TABLE
  2
VPORT
  5
8
330
0
100
AcDbSymbolTable
 70
     2
  0
VPORT
  5
29
102
{ACAD_XDICTIONARY
360
AA
102
}
330
8
100
AcDbSymbolTableRecord
100
AcDbViewportTableRecord
  2
*ACTIVE
 70
     0
 10
0.0
 20
0.0
 11
1.0
 21
1.0
 12
73.78636315875825
 22
41.09798842195186
 13
0.0
 23
0.0
 14
0.5
 24
0.5
 15
0.5
 25
0.5
 16
0.0
 26
0.0
 36
80.21230066091221
 17
0.0
 27
0.0
 37
0.0
 40
82.18888734032375
 41
1.972972972850329
 42
50.0
 43
0.0
 44
0.0
 50
0.0
 51
0.0
 71
     0
 72
   100
 73
     1
 74
     3
 75
     0
 76
     0
 77
     0
 78
     0
  0
ENDTAB
  0
TABLE
  2
LTYPE
  5
5
330
0
100
AcDbSymbolTable
 70
     1
  0
LTYPE
  5
14
330
5
100
AcDbSymbolTableRecord
100
AcDbLinetypeTableRecord
  2
BYBLOCK
 70
     0
  3

 72
    65
 73
     0
 40
0.0
  0
LTYPE
  5
15
330
5
100
AcDbSymbolTableRecord
100
AcDbLinetypeTableRecord
  2
BYLAYER
 70
     0
  3

 72
    65
 73
     0
 40
0.0
  0
LTYPE
  5
16
330
5
100
AcDbSymbolTableRecord
100
AcDbLinetypeTableRecord
  2
CONTINUOUS
 70
     0
  3
Solid line
 72
    65
 73
     0
 40
0.0
  0
ENDTAB
  0
TABLE
  2
LAYER
  5
2
330
0
100
AcDbSymbolTable
 70
     1
  0
LAYER
  5
10
330
2
100
AcDbSymbolTableRecord
100
AcDbLayerTableRecord
  2
0
 70
     0
 62
     7
  6
CONTINUOUS
  0
ENDTAB
  0
TABLE
  2
STYLE
  5
3
330
0
100
AcDbSymbolTable
 70
     1
  0
STYLE
  5
11
330
3
100
AcDbSymbolTableRecord
100
AcDbTextStyleTableRecord
  2
STANDARD
 70
     0
 40
0.0
 41
1.0
 50
0.0
 71
     0
 42
0.2
  3
txt
  4

  0
ENDTAB
  0
TABLE
  2
VIEW
  5
6
330
0
100
AcDbSymbolTable
 70
     0
  0
ENDTAB
  0
TABLE
  2
UCS
  5
7
330
0
100
AcDbSymbolTable
 70
     0
  0
ENDTAB
  0
TABLE
  2
APPID
  5
9
330
0
100
AcDbSymbolTable
 70
     1
  0
APPID
  5
12
330
9
100
AcDbSymbolTableRecord
100
AcDbRegAppTableRecord
  2
ACAD
 70
     0
  0
ENDTAB
  0
TABLE
  2
DIMSTYLE
  5
A
330
0
100
AcDbSymbolTable
 70
     1
  0
DIMSTYLE
105
27
330
A
100
AcDbSymbolTableRecord
100
AcDbDimStyleTableRecord
  2
STANDARD
 70
     0
  3

  4

  5

  6

  7

 40
1.0
 41
0.18
 42
0.0625
 43
0.38
 44
0.18
 45
0.0
 46
0.0
 47
0.0
 48
0.0
140
0.18
141
0.09
142
0.0
143
25.4
144
1.0
145
0.0
146
1.0
147
0.09
 71
     0
 72
     0
 73
     1
 74
     1
 75
     0
 76
     0
 77
     0
 78
     0
170
     0
171
     2
172
     0
173
     0
174
     0
175
     0
176
     0
177
     0
178
     0
270
     2
271
     4
272
     4
273
     2
274
     2
340
11
275
     0
280
     0
281
     0
282
     0
283
     1
284
     0
285
     0
286
     0
287
     3
288
     0
  0
ENDTAB
  0
TABLE
  2
BLOCK_RECORD
  5
1
330
0
100
AcDbSymbolTable
 70
     1
  0
BLOCK_RECORD
  5
1F
330
1
100
AcDbSymbolTableRecord
100
AcDbBlockTableRecord
  2
*MODEL_SPACE
  0
BLOCK_RECORD
  5
1B
330
1
100
AcDbSymbolTableRecord
100
AcDbBlockTableRecord
  2
*PAPER_SPACE
  0
ENDTAB
  0
ENDSEC
  0
SECTION
  2
BLOCKS
  0
BLOCK
  5
20
330
1F
100
AcDbEntity
  8
0
100
AcDbBlockBegin
  2
*MODEL_SPACE
 70
     0
 71
     0
 10
0.0
 20
0.0
 30
0.0
  3
*MODEL_SPACE
  1

  0
ENDBLK
  5
21
330
1F
100
AcDbEntity
  8
0
100
AcDbBlockEnd
  0
BLOCK
  5
1C
330
1B
100
AcDbEntity
 67
     1
  8
0
100
AcDbBlockBegin
  2
*PAPER_SPACE
 70
     0
 71
     0
 10
0.0
 20
0.0
 30
0.0
  3
*PAPER_SPACE
  1

  0
ENDBLK
  5
1D
330
1B
100
AcDbEntity
 67
     1
  8
0
100
AcDbBlockEnd
  0
ENDSEC
  0
SECTION
  2
ENTITIES
  0
LINE
  5
2A
330
1F
100
AcDbEntity
  8
0
 62
     7
100
AcDbLine
 10
110.5706515565971
 20
22.05916569211727
 30
0.0
 11
114.5533815565971
 21
2.00395569211728
 31
0.0
  0
LINE
  5
2B
330
1F
100
AcDbEntity
  8
0
 62
     7
100
AcDbLine
 10
111.5514915565971
 20
23.25395569211727
 30
0.0
 11
146.5533815565972
 21
23.25395569211727
 31
0.0
  0
ARC
  5
2C
330
1F
100
AcDbEntity
  8
0
 62
     7
100
AcDbCircle
 10
111.5514915565971
 20
22.25395569211729
 30
0.0
 40
0.9999999999999829
100
AcDbArc
 50
90.0
 51
191.2321380000015
  0
LINE
  5
2D
330
1F
100
AcDbEntity
  8
0
 62
     7
100
AcDbLine
 10
119.6291315565971
 20
29.75935569211726
 30
0.0
 11
122.1263315565971
 21
23.25393569211729
 31
0.0
  0
LINE
  5
2E
330
1F
100
AcDbEntity
  8
0
 62
     7
100
AcDbLine
 10
114.6028615565971
 20
28.90109569211727
 30
0.0
 11
118.3371815565971
 21
30.33456569211728
 31
0.0
  0
ARC
  5
2F
330
1F
100
AcDbEntity
  8
0
 62
     7
100
AcDbCircle
 10
118.6955515565972
 20
29.40098569211732
 30
0.0
 40
0.9999999999999534
100
AcDbArc
 50
20.99999999999814
 51
111.0
  0
LINE
  5
30
330
1F
100
AcDbEntity
  8
0
 62
     7
100
AcDbLine
 10
115.6994615565972
 20
23.25393569211729
 30
0.0
 11
114.0276515565971
 21
27.60914569211728
 31
0.0
  0
ARC
  5
31
330
1F
100
AcDbEntity
  8
0
 62
     7
100
AcDbCircle
 10
114.9612315565972
 20
27.96751569211726
 30
0.0
 40
1.000000000000012
100
AcDbArc
 50
110.9999999999996
 51
200.9999999999992
  0
LINE
  5
32
330
1F
100
AcDbEntity
  8
0
 62
     7
100
AcDbLine
 10
147.5533815565972
 20
2.00395569211728
 30
0.0
 11
147.5533815565972
 21
22.25395569211727
 31
0.0
  0
ARC
  5
33
330
1F
100
AcDbEntity
  8
0
 62
     7
100
AcDbCircle
 10
146.5533815565972
 20
22.25395569211729
 30
0.0
 40
0.9999999999999607
100
AcDbArc
 50
359.999999999999
 51
90.00000000000163
  0
LINE
  5
34
330
1F
100
AcDbEntity
  8
0
 62
     7
100
AcDbLine
 10
147.3033815565971
 20
0.1839556921172733
 30
0.0
 11
147.1233815565971
 21
0.0039556921172806
 31
0.0
  0
LINE
  5
35
330
1F
100
AcDbEntity
  8
0
 62
     7
100
AcDbLine
 10
147.3033815565971
 20
2.00395569211728
 30
0.0
 11
147.3033815565971
 21
0.1839556921172734
 31
0.0
  0
LINE
  5
36
330
1F
100
AcDbEntity
  8
0
 62
     7
100
AcDbLine
 10
143.3033815565971
 20
0.1839556921172733
 30
0.0
 11
143.3033815565971
 21
2.00395569211728
 31
0.0
  0
LINE
  5
37
330
1F
100
AcDbEntity
  8
0
 62
     7
100
AcDbLine
 10
118.6163815565971
 20
0.0039556921172806
 30
0.0
 11
118.8033815565972
 21
0.1909556921172783
 31
0.0
  0
LINE
  5
38
330
1F
100
AcDbEntity
  8
0
 62
     7
100
AcDbLine
 10
143.3033815565971
 20
0.1839556921172733
 30
0.0
 11
143.4833815565971
 21
0.0039556921172806
 31
0.0
  0
LINE
  5
39
330
1F
100
AcDbEntity
  8
0
 62
     7
100
AcDbLine
 10
118.8033815565972
 20
0.1909556921172783
 30
0.0
 11
118.8033815565972
 21
2.00395569211728
 31
0.0
  0
LINE
  5
3A
330
1F
100
AcDbEntity
  8
0
 62
     7
100
AcDbLine
 10
114.5533815565971
 20
2.00395569211728
 30
0.0
 11
147.5533815565972
 21
2.00395569211728
 31
0.0
  0
LINE
  5
3B
330
1F
100
AcDbEntity
  8
0
 62
     7
100
AcDbLine
 10
114.8033815565971
 20
2.00395569211728
 30
0.0
 11
115.0259815565972
 21
0.1909556921172784
 31
0.0
  0
LINE
  5
3C
330
1F
100
AcDbEntity
  8
0
 62
     7
100
AcDbLine
 10
115.0259815565972
 20
0.1909556921172783
 30
0.0
 11
118.8033815565972
 21
0.1909556921172783
 31
0.0
  0
LINE
  5
3D
330
1F
100
AcDbEntity
  8
0
 62
     7
100
AcDbLine
 10
147.3033815565971
 20
0.1839556921172733
 30
0.0
 11
143.3033815565971
 21
0.1839556921172733
 31
0.0
  0
LINE
  5
3E
330
1F
100
AcDbEntity
  8
0
 62
     7
100
AcDbLine
 10
115.2129815565972
 20
0.0039556921172806
 30
0.0
 11
118.6163815565971
 21
0.0039556921172806
 31
0.0
  0
LINE
  5
3F
330
1F
100
AcDbEntity
  8
0
 62
     7
100
AcDbLine
 10
147.1233815565971
 20
0.0039556921172806
 30
0.0
 11
143.4833815565971
 21
0.0039556921172806
 31
0.0
  0
LINE
  5
40
330
1F
100
AcDbEntity
  8
0
 62
     7
100
AcDbLine
 10
115.2129815565972
 20
0.0039556921172806
 30
0.0
 11
115.0259815565972
 21
0.1909556921172783
 31
0.0
  0
LINE
  5
41
330
1F
100
AcDbEntity
  8
0
 62
     7
100
AcDbLine
 10
6.519344760919331
 20
67.44152256121953
 30
0.0
 11
6.519344760919331
 21
46.18134726815645
 31
0.0
  0
LINE
  5
42
330
1F
100
AcDbEntity
  8
0
 62
     7
100
AcDbLine
 10
2.519344760919337
 20
70.60840494544684
 30
0.0
 11
2.519344760919337
 21
72.40870129420341
 31
0.0
  0
LINE
  5
43
330
1F
100
AcDbEntity
  8
0
 62
     7
100
AcDbLine
 10
6.51934476091933
 20
70.60840494544686
 30
0.0
 11
2.519344760919337
 21
70.60840494544684
 31
0.0
  0
LINE
  5
44
330
1F
100
AcDbEntity
  8
0
 62
     7
100
AcDbLine
 10
6.519344760919331
 20
67.44152256121953
 30
0.0
 11
6.51934476091933
 21
70.60840494544686
 31
0.0
  0
ARC
  5
45
330
1F
100
AcDbEntity
  8
0
 62
     7
100
AcDbCircle
 10
1.019344760919433
 20
81.19202115178632
 30
0.0
 40
1.000000000000095
100
AcDbArc
 50
89.99999999999243
 51
180.0000000000065
  0
ARC
  5
46
330
1F
100
AcDbEntity
  8
0
 62
     7
100
AcDbCircle
 10
1.019344760919493
 20
46.18134726815638
 30
0.0
 40
1.000000000000156
100
AcDbArc
 50
179.9999999999955
 51
270.0000000000061
  0
LINE
  5
47
330
1F
100
AcDbEntity
  8
0
 62
     7
100
AcDbLine
 10
0.0193447609193365
 20
46.18134726815645
 30
0.0
 11
0.0193447609193375
 21
81.19202115178621
 31
0.0
  0
ARC
  5
48
330
1F
100
AcDbEntity
  8
0
 62
     7
100
AcDbCircle
 10
5.51934476091923
 20
46.18134726815632
 30
0.0
 40
1.000000000000101
100
AcDbArc
 50
269.9999999999909
 51
0.000000000007328
  0
LINE
  5
49
330
1F
100
AcDbEntity
  8
0
 62
     7
100
AcDbLine
 10
5.51934476091907
 20
45.18134726815622
 30
0.0
 11
1.0193447609196
 21
45.18134726815622
 31
0.0
  0
LINE
  5
4A
330
1F
100
AcDbEntity
  8
0
 62
     7
100
AcDbLine
 10
6.51934476091933
 20
70.60840494544686
 30
0.0
 11
6.519344760919331
 21
46.18134726815645
 31
0.0
  0
ARC
  5
4B
330
1F
100
AcDbEntity
  8
0
 62
     7
100
AcDbCircle
 10
3.519344760919402
 20
77.78128819351244
 30
0.0
 40
1.000000000000065
100
AcDbArc
 50
89.99999999999069
 51
180.0000000000057
  0
ARC
  5
4C
330
1F
100
AcDbEntity
  8
0
 62
     7
100
AcDbCircle
 10
7.519344760919456
 20
46.18134726815637
 30
0.0
 40
1.000000000000124
100
AcDbArc
 50
179.9999999999943
 51
270.000000000006
  0
ARC
  5
4D
330
1F
100
AcDbEntity
  8
0
 62
     7
100
AcDbCircle
 10
3.519344760919557
 20
72.40870129420316
 30
0.0
 40
1.000000000000218
100
AcDbArc
 50
89.99999999999962
 51
179.9999999999853
  0
LINE
  5
4E
330
1F
100
AcDbEntity
  8
0
 62
     7
100
AcDbLine
 10
2.519344760919337
 20
77.78128819351232
 30
0.0
 11
2.519344760919337
 21
72.40870129420341
 31
0.0
  0
LINE
  5
4F
330
1F
100
AcDbEntity
  8
0
 62
     7
100
AcDbLine
 10
94.01934476091934
 20
2.00395569211728
 30
0.0
 11
94.01934476091934
 21
22.45395569211728
 31
0.0
  0
LINE
  5
50
330
1F
100
AcDbEntity
  8
0
 62
     7
100
AcDbLine
 10
88.31934476091932
 20
23.25395569211728
 30
0.0
 11
93.21934476091934
 21
23.25395569211728
 31
0.0
  0
ARC
  5
51
330
1F
100
AcDbEntity
  8
0
 62
     7
100
AcDbCircle
 10
93.21934476091931
 20
22.45395569211725
 30
0.0
 40
0.8000000000000184
100
AcDbArc
 50
0.0000000000027989
 51
89.99999999999898
  0
LINE
  5
52
330
1F
100
AcDbEntity
  8
0
 62
     7
100
AcDbLine
 10
87.51934476091934
 20
22.45395569211728
 30
0.0
 11
87.51934476091934
 21
2.00395569211728
 31
0.0
  0
ARC
  5
53
330
1F
100
AcDbEntity
  8
0
 62
     7
100
AcDbCircle
 10
88.31934476091932
 20
22.45395569211728
 30
0.0
 40
0.7999999999999962
100
AcDbArc
 50
90.0
 51
180.000000000001
  0
LINE
  5
54
330
1F
100
AcDbEntity
  8
0
 62
     7
100
AcDbLine
 10
91.51934476091934
 20
29.89293169211728
 30
0.0
 11
91.51934476091934
 21
23.26425969211728
 31
0.0
  0
LINE
  5
55
330
1F
100
AcDbEntity
  8
0
 62
     7
100
AcDbLine
 10
3.319344760919336
 20
30.69293169211728
 30
0.0
 11
90.71934476091934
 21
30.69293169211728
 31
0.0
  0
ARC
  5
56
330
1F
100
AcDbEntity
  8
0
 62
     7
100
AcDbCircle
 10
90.71934476091936
 20
29.89293169211729
 30
0.0
 40
0.7999999999999828
100
AcDbArc
 50
359.9999999999995
 51
90.00000000000102
  0
LINE
  5
57
330
1F
100
AcDbEntity
  8
0
 62
     7
100
AcDbLine
 10
2.519344760919339
 20
29.89293169211728
 30
0.0
 11
2.519344760919339
 21
23.26425969211728
 31
0.0
  0
ARC
  5
58
330
1F
100
AcDbEntity
  8
0
 62
     7
100
AcDbCircle
 10
3.319344760919334
 20
29.89293169211729
 30
0.0
 40
0.7999999999999917
100
AcDbArc
 50
89.99999999999987
 51
180.0000000000013
  0
LINE
  5
59
330
1F
100
AcDbEntity
  8
0
 62
     7
100
AcDbLine
 10
0.8193447609193358
 20
23.25395569211728
 30
0.0
 11
5.719344760919341
 21
23.25395569211728
 31
0.0
  0
LINE
  5
5A
330
1F
100
AcDbEntity
  8
0
 62
     7
100
AcDbLine
 10
6.519344760919338
 20
22.45395569211728
 30
0.0
 11
6.519344760919338
 21
2.00395569211728
 31
0.0
  0
ARC
  5
5B
330
1F
100
AcDbEntity
  8
0
 62
     7
100
AcDbCircle
 10
5.719344760919324
 20
22.45395569211727
 30
0.0
 40
0.8000000000000128
100
AcDbArc
 50
0.0000000000015267
 51
89.99999999999993
  0
LINE
  5
5C
330
1F
100
AcDbEntity
  8
0
 62
     7
100
AcDbLine
 10
0.0193447609193387
 20
2.00395569211728
 30
0.0
 11
0.0193447609193387
 21
22.45395569211728
 31
0.0
  0
ARC
  5
5D
330
1F
100
AcDbEntity
  8
0
 62
     7
100
AcDbCircle
 10
0.8193447609193409
 20
22.45395569211728
 30
0.0
 40
0.800000000000005
100
AcDbArc
 50
90.00000000000037
 51
180.0000000000003
  0
LINE
  5
5E
330
1F
100
AcDbEntity
  8
0
 62
     7
100
AcDbLine
 10
93.76934476091934
 20
0.1839556921172804
 30
0.0
 11
93.58934476091933
 21
0.0039556921172806
 31
0.0
  0
LINE
  5
5F
330
1F
100
AcDbEntity
  8
0
 62
     7
100
AcDbLine
 10
93.76934476091934
 20
2.00395569211728
 30
0.0
 11
93.76934476091934
 21
0.1839556921172805
 31
0.0
  0
LINE
  5
60
330
1F
100
AcDbEntity
  8
0
 62
     7
100
AcDbLine
 10
87.76934476091934
 20
2.00395569211728
 30
0.0
 11
87.76934476091934
 21
0.1839556921172805
 31
0.0
  0
LINE
  5
61
330
1F
100
AcDbEntity
  8
0
 62
     7
100
AcDbLine
 10
87.76934476091934
 20
0.1839556921172804
 30
0.0
 11
87.94934476091933
 21
0.0039556921172806
 31
0.0
  0
LINE
  5
62
330
1F
100
AcDbEntity
  8
0
 62
     7
100
AcDbLine
 10
60.51934476091932
 20
30.69293169211728
 30
0.0
 11
60.51934476091932
 21
8.00395569211728
 31
0.0
  0
LINE
  5
63
330
1F
100
AcDbEntity
  8
0
 62
     7
100
AcDbLine
 10
6.519344760919338
 20
15.12895569211728
 30
0.0
 11
87.51934476091934
 21
15.12895569211728
 31
0.0
  0
LINE
  5
64
330
1F
100
AcDbEntity
  8
0
 62
     7
100
AcDbLine
 10
6.519344760919338
 20
8.003955692117282
 30
0.0
 11
87.51934476091934
 21
8.003955692117282
 31
0.0
  0
LINE
  5
65
330
1F
100
AcDbEntity
  8
0
 62
     7
100
AcDbLine
 10
0.0193447609193387
 20
2.00395569211728
 30
0.0
 11
94.01934476091934
 21
2.00395569211728
 31
0.0
  0
LINE
  5
66
330
1F
100
AcDbEntity
  8
0
 62
     7
100
AcDbLine
 10
87.76934476091934
 20
0.1839556921172804
 30
0.0
 11
93.76934476091934
 21
0.1839556921172804
 31
0.0
  0
LINE
  5
67
330
1F
100
AcDbEntity
  8
0
 62
     7
100
AcDbLine
 10
0.2693447609193386
 20
0.1839556921172804
 30
0.0
 11
6.269344760919339
 21
0.1839556921172804
 31
0.0
  0
LINE
  5
68
330
1F
100
AcDbEntity
  8
0
 62
     7
100
AcDbLine
 10
87.94934476091933
 20
0.0039556921172806
 30
0.0
 11
93.58934476091933
 21
0.0039556921172806
 31
0.0
  0
LINE
  5
69
330
1F
100
AcDbEntity
  8
0
 62
     7
100
AcDbLine
 10
0.4493447609193312
 20
0.0039556921172806
 30
0.0
 11
6.089344760919332
 21
0.0039556921172806
 31
0.0
  0
LINE
  5
6A
330
1F
100
AcDbEntity
  8
0
 62
     7
100
AcDbLine
 10
33.51934476091932
 20
30.69293169211728
 30
0.0
 11
33.51934476091932
 21
8.00395569211728
 31
0.0
  0
LINE
  5
6B
330
1F
100
AcDbEntity
  8
0
 62
     7
100
AcDbLine
 10
6.269344760919339
 20
0.1839556921172804
 30
0.0
 11
6.089344760919332
 21
0.0039556921172806
 31
0.0
  0
LINE
  5
6C
330
1F
100
AcDbEntity
  8
0
 62
     7
100
AcDbLine
 10
6.269344760919339
 20
2.00395569211728
 30
0.0
 11
6.269344760919339
 21
0.1839556921172805
 31
0.0
  0
LINE
  5
6D
330
1F
100
AcDbEntity
  8
0
 62
     7
100
AcDbLine
 10
0.2693447609193386
 20
0.1839556921172804
 30
0.0
 11
0.4493447609193312
 21
0.0039556921172806
 31
0.0
  0
LINE
  5
6E
330
1F
100
AcDbEntity
  8
0
 62
     7
100
AcDbLine
 10
0.2693447609193386
 20
2.00395569211728
 30
0.0
 11
0.2693447609193386
 21
0.1839556921172805
 31
0.0
  0
LINE
  5
6F
330
1F
100
AcDbEntity
  8
0
 62
     7
100
AcDbLine
 10
87.51934476091935
 20
67.44152256121953
 30
0.0
 11
87.51934476091935
 21
46.18134726815645
 31
0.0
  0
LINE
  5
70
330
1F
100
AcDbEntity
  8
0
 62
     7
100
AcDbLine
 10
91.51934476091934
 20
70.60840494544684
 30
0.0
 11
91.51934476091934
 21
72.40870129420341
 31
0.0
  0
LINE
  5
71
330
1F
100
AcDbEntity
  8
0
 62
     7
100
AcDbLine
 10
87.51934476091935
 20
70.60840494544686
 30
0.0
 11
91.51934476091934
 21
70.60840494544684
 31
0.0
  0
LINE
  5
72
330
1F
100
AcDbEntity
  8
0
 62
     7
100
AcDbLine
 10
87.51934476091935
 20
67.44152256121953
 30
0.0
 11
87.51934476091935
 21
70.60840494544686
 31
0.0
  0
ARC
  5
73
330
1F
100
AcDbEntity
  8
0
 62
     7
100
AcDbCircle
 10
93.01934476091918
 20
81.19202115178626
 30
0.0
 40
1.000000000000156
100
AcDbArc
 50
359.9999999999968
 51
90.00000000000406
  0
ARC
  5
74
330
1F
100
AcDbEntity
  8
0
 62
     7
100
AcDbCircle
 10
93.01934476091918
 20
46.18134726815638
 30
0.0
 40
1.000000000000156
100
AcDbArc
 50
269.9999999999935
 51
0.0000000000040711
  0
LINE
  5
75
330
1F
100
AcDbEntity
  8
0
 62
     7
100
AcDbLine
 10
94.01934476091934
 20
46.18134726815645
 30
0.0
 11
94.01934476091934
 21
81.19202115178621
 31
0.0
  0
ARC
  5
76
330
1F
100
AcDbEntity
  8
0
 62
     7
100
AcDbCircle
 10
88.51934476091941
 20
46.18134726815627
 30
0.0
 40
1.00000000000005
100
AcDbArc
 50
179.9999999999898
 51
270.0000000000114
  0
LINE
  5
77
330
1F
100
AcDbEntity
  8
0
 62
     7
100
AcDbLine
 10
88.51934476091961
 20
45.18134726815622
 30
0.0
 11
93.01934476091907
 21
45.18134726815622
 31
0.0
  0
LINE
  5
78
330
1F
100
AcDbEntity
  8
0
 62
     7
100
AcDbLine
 10
87.51934476091935
 20
70.60840494544686
 30
0.0
 11
87.51934476091935
 21
46.18134726815645
 31
0.0
  0
ARC
  5
79
330
1F
100
AcDbEntity
  8
0
 62
     7
100
AcDbCircle
 10
90.51934476091927
 20
77.78128819351244
 30
0.0
 40
1.000000000000067
100
AcDbArc
 50
359.9999999999935
 51
90.00000000000895
  0
ARC
  5
7A
330
1F
100
AcDbEntity
  8
0
 62
     7
100
AcDbCircle
 10
86.51934476091924
 20
46.18134726815635
 30
0.0
 40
1.000000000000121
100
AcDbArc
 50
269.9999999999935
 51
0.0000000000056996
  0
ARC
  5
7B
330
1F
100
AcDbEntity
  8
0
 62
     7
100
AcDbCircle
 10
90.5193447609191
 20
72.40870129420313
 30
0.0
 40
1.000000000000236
100
AcDbArc
 50
0.0000000000154702
 51
89.99999999999837
  0
LINE
  5
7C
330
1F
100
AcDbEntity
  8
0
 62
     7
100
AcDbLine
 10
91.51934476091934
 20
77.78128819351232
 30
0.0
 11
91.51934476091934
 21
72.40870129420341
 31
0.0
  0
ARC
  5
7D
330
1F
100
AcDbEntity
  8
0
 62
     7
100
AcDbCircle
 10
34.51934476091943
 20
46.18134726815634
 30
0.0
 40
1.000000000000103
100
AcDbArc
 50
179.9999999999923
 51
270.0000000000069
  0
ARC
  5
7E
330
1F
100
AcDbEntity
  8
0
 62
     7
100
AcDbCircle
 10
32.51934476091921
 20
46.18134726815634
 30
0.0
 40
1.000000000000112
100
AcDbArc
 50
269.9999999999935
 51
0.000000000007328
  0
ARC
  5
7F
330
1F
100
AcDbEntity
  8
0
 62
     7
100
AcDbCircle
 10
61.51934476091942
 20
46.18134726815634
 30
0.0
 40
1.000000000000112
100
AcDbArc
 50
179.9999999999927
 51
270.0000000000065
  0
LINE
  5
80
330
1F
100
AcDbEntity
  8
0
 62
     7
100
AcDbLine
 10
3.519344760919563
 20
73.40870129420335
 30
0.0
 11
90.51934476091911
 21
73.40870129420335
 31
0.0
  0
LINE
  5
81
330
1F
100
AcDbEntity
  8
0
 62
     7
100
AcDbLine
 10
3.519344760919564
 20
78.7812881935125
 30
0.0
 11
90.51934476091911
 21
78.7812881935125
 31
0.0
  0
LINE
  5
82
330
1F
100
AcDbEntity
  8
0
 62
     7
100
AcDbLine
 10
1.019344760919565
 20
82.19202115178644
 30
0.0
 11
93.01934476091911
 21
82.19202115178644
 31
0.0
  0
LINE
  5
83
330
1F
100
AcDbEntity
  8
0
 62
     7
100
AcDbLine
 10
87.51934476091935
 20
67.44152256121953
 30
0.0
 11
6.519344760919324
 21
67.44152256121953
 31
0.0
  0
ARC
  5
84
330
1F
100
AcDbEntity
  8
0
 62
     7
100
AcDbCircle
 10
59.51934476091922
 20
46.18134726815632
 30
0.0
 40
1.000000000000094
100
AcDbArc
 50
269.9999999999923
 51
0.0000000000081422
  0
LINE
  5
85
330
1F
100
AcDbEntity
  8
0
 62
     7
100
AcDbLine
 10
61.51934476091955
 20
45.18134726815622
 30
0.0
 11
86.51934476091913
 21
45.18134726815622
 31
0.0
  0
LINE
  5
86
330
1F
100
AcDbEntity
  8
0
 62
     7
100
AcDbLine
 10
60.51934476091932
 20
46.18134726815637
 30
0.0
 11
60.51934476091932
 21
82.19202115178644
 31
0.0
  0
LINE
  5
87
330
1F
100
AcDbEntity
  8
0
 62
     7
100
AcDbLine
 10
7.51934476091956
 20
45.18134726815622
 30
0.0
 11
32.5193447609191
 21
45.18134726815622
 31
0.0
  0
LINE
  5
88
330
1F
100
AcDbEntity
  8
0
 62
     7
100
AcDbLine
 10
34.51934476091955
 20
45.18134726815622
 30
0.0
 11
59.51934476091909
 21
45.18134726815622
 31
0.0
  0
LINE
  5
89
330
1F
100
AcDbEntity
  8
0
 62
     7
100
AcDbLine
 10
33.51934476091933
 20
46.18134726815635
 30
0.0
 11
33.51934476091932
 21
82.19202115178644
 31
0.0
  0
ENDSEC
  0
SECTION
  2
OBJECTS
  0
DICTIONARY
  5
C
330
0
100
AcDbDictionary
  3
ACAD_GROUP
350
D
  3
ACAD_LAYOUT
350
1A
  3
ACAD_MLINESTYLE
350
17
  3
ACAD_PLOTSETTINGS
350
19
  3
ACDBHEADERROUNDTRIPXREC
350
8A
  0
DICTIONARY
  5
AA
330
29
100
AcDbDictionary
280
     1
  3
ACAD_XREC_ROUNDTRIP
360
AB
  0
DICTIONARY
  5
D
102
{ACAD_REACTORS
330
C
102
}
330
C
100
AcDbDictionary
  0
DICTIONARY
  5
1A
102
{ACAD_REACTORS
330
C
102
}
330
C
100
AcDbDictionary
  0
DICTIONARY
  5
17
102
{ACAD_REACTORS
330
C
102
}
330
C
100
AcDbDictionary
  3
STANDARD
350
18
  0
DICTIONARY
  5
19
102
{ACAD_REACTORS
330
C
102
}
330
C
100
AcDbDictionary
  0
DICTIONARY
  5
8A
102
{ACAD_REACTORS
330
C
102
}
330
C
100
AcDbDictionary
  3
CEPSNTYPE
350
93
  3
DIMSTYLEDATA
350
A9
  3
FINGERPRINTGUID
350
94
  3
HYPERLINKBASE
350
8D
  3
INSUNITS
350
92
  3
LAYOUTDICT
350
8F
  3
LWETCUNION
350
91
  3
PLOTSETDICT
350
90
  3
PSVPSCALE
350
96
  3
PUCSBASE
350
99
  3
PUCSORGBACK
350
9F
  3
PUCSORGBOTTOM
350
9B
  3
PUCSORGFRONT
350
9E
  3
PUCSORGLEFT
350
9C
  3
PUCSORGRIGHT
350
9D
  3
PUCSORGTOP
350
9A
  3
PUCSORTHOREF
350
97
  3
PUCSORTHOVIEW
350
98
  3
STYLESHEET
350
8E
  3
TSTACKALIGN
350
8B
  3
TSTACKSIZE
350
8C
  3
UCSBASE
350
A2
  3
UCSORGBACK
350
A8
  3
UCSORGBOTTOM
350
A4
  3
UCSORGFRONT
350
A7
  3
UCSORGLEFT
350
A5
  3
UCSORGRIGHT
350
A6
  3
UCSORGTOP
350
A3
  3
UCSORTHOREF
350
A0
  3
UCSORTHOVIEW
350
A1
  3
VERSIONGUID
350
95
  0
XRECORD
  5
AB
102
{ACAD_REACTORS
330
AA
102
}
330
AA
100
AcDbXrecord
102
UCS
 74
     0
 71
     1
 10
0.0
 20
0.0
 30
0.0
 10
1.0
 20
0.0
 30
0.0
 10
0.0
 20
1.0
 30
0.0
146
0.0
 79
     0
102
VIEW
281
     0
  0
MLINESTYLE
  5
18
102
{ACAD_REACTORS
330
17
102
}
330
17
100
AcDbMlineStyle
  2
Standard
 70
     0
  3

 62
   256
 51
90.0
 52
90.0
 71
     2
 49
0.5
 62
   256
  6
BYLAYER
 49
-0.5
 62
   256
  6
BYLAYER
  0
XRECORD
  5
93
102
{ACAD_REACTORS
330
8A
102
}
330
8A
100
AcDbXrecord
 90
        0
  0
XRECORD
  5
A9
102
{ACAD_REACTORS
330
8A
102
}
330
8A
100
AcDbXrecord
1000
DSTYLE
1002
{
1070
   340
340
11
1002
}
  0
XRECORD
  5
94
102
{ACAD_REACTORS
330
8A
102
}
330
8A
100
AcDbXrecord
  1
{FAEB1C30-E019-11D5-929B-00C0DF256EC4}
  0
XRECORD
  5
8D
102
{ACAD_REACTORS
330
8A
102
}
330
8A
100
AcDbXrecord
  1

  0
XRECORD
  5
92
102
{ACAD_REACTORS
330
8A
102
}
330
8A
100
AcDbXrecord
 90
        4
  0
XRECORD
  5
8F
102
{ACAD_REACTORS
330
8A
102
}
330
8A
100
AcDbXrecord
340
1A
  0
XRECORD
  5
91
102
{ACAD_REACTORS
330
8A
102
}
330
8A
100
AcDbXrecord
 90
     2560
  0
XRECORD
  5
90
102
{ACAD_REACTORS
330
8A
102
}
330
8A
100
AcDbXrecord
340
19
  0
XRECORD
  5
96
102
{ACAD_REACTORS
330
8A
102
}
330
8A
100
AcDbXrecord
 40
0.0
  0
XRECORD
  5
99
102
{ACAD_REACTORS
330
8A
102
}
330
8A
100
AcDbXrecord
340
0
  0
XRECORD
  5
9F
102
{ACAD_REACTORS
330
8A
102
}
330
8A
100
AcDbXrecord
 10
0.0
 20
0.0
 30
0.0
  0
XRECORD
  5
9B
102
{ACAD_REACTORS
330
8A
102
}
330
8A
100
AcDbXrecord
 10
0.0
 20
0.0
 30
0.0
  0
XRECORD
  5
9E
102
{ACAD_REACTORS
330
8A
102
}
330
8A
100
AcDbXrecord
 10
0.0
 20
0.0
 30
0.0
  0
XRECORD
  5
9C
102
{ACAD_REACTORS
330
8A
102
}
330
8A
100
AcDbXrecord
 10
0.0
 20
0.0
 30
0.0
  0
XRECORD
  5
9D
102
{ACAD_REACTORS
330
8A
102
}
330
8A
100
AcDbXrecord
 10
0.0
 20
0.0
 30
0.0
  0
XRECORD
  5
9A
102
{ACAD_REACTORS
330
8A
102
}
330
8A
100
AcDbXrecord
 10
0.0
 20
0.0
 30
0.0
  0
XRECORD
  5
97
102
{ACAD_REACTORS
330
8A
102
}
330
8A
100
AcDbXrecord
340
0
  0
XRECORD
  5
98
102
{ACAD_REACTORS
330
8A
102
}
330
8A
100
AcDbXrecord
 70
     0
  0
XRECORD
  5
8E
102
{ACAD_REACTORS
330
8A
102
}
330
8A
100
AcDbXrecord
  1

  0
XRECORD
  5
8B
102
{ACAD_REACTORS
330
8A
102
}
330
8A
100
AcDbXrecord
 90
        1
  0
XRECORD
  5
8C
102
{ACAD_REACTORS
330
8A
102
}
330
8A
100
AcDbXrecord
 90
       70
  0
XRECORD
  5
A2
102
{ACAD_REACTORS
330
8A
102
}
330
8A
100
AcDbXrecord
340
0
  0
XRECORD
  5
A8
102
{ACAD_REACTORS
330
8A
102
}
330
8A
100
AcDbXrecord
 10
0.0
 20
0.0
 30
0.0
  0
XRECORD
  5
A4
102
{ACAD_REACTORS
330
8A
102
}
330
8A
100
AcDbXrecord
 10
0.0
 20
0.0
 30
0.0
  0
XRECORD
  5
A7
102
{ACAD_REACTORS
330
8A
102
}
330
8A
100
AcDbXrecord
 10
0.0
 20
0.0
 30
0.0
  0
XRECORD
  5
A5
102
{ACAD_REACTORS
330
8A
102
}
330
8A
100
AcDbXrecord
 10
0.0
 20
0.0
 30
0.0
  0
XRECORD
  5
A6
102
{ACAD_REACTORS
330
8A
102
}
330
8A
100
AcDbXrecord
 10
0.0
 20
0.0
 30
0.0
  0
XRECORD
  5
A3
102
{ACAD_REACTORS
330
8A
102
}
330
8A
100
AcDbXrecord
 10
0.0
 20
0.0
 30
0.0
  0
XRECORD
  5
A0
102
{ACAD_REACTORS
330
8A
102
}
330
8A
100
AcDbXrecord
340
0
  0
XRECORD
  5
A1
102
{ACAD_REACTORS
330
8A
102
}
330
8A
100
AcDbXrecord
 70
     0
  0
XRECORD
  5
95
102
{ACAD_REACTORS
330
8A
102
}
330
8A
100
AcDbXrecord
  1
{FAEB1C32-E019-11D5-929B-00C0DF256EC4}
  0
ENDSEC
  0
EOF
