  0
SECTION
  2
HEADER
  9
$ACADVER
  1
AC1014
  9
$ACADMAINTVER
 70
     9
  9
$DWGCODEPAGE
  3
ANSI_1252
  9
$INSBASE
 10
0.0
 20
0.0
 30
0.0
  9
$EXTMIN
 10
1.000000000000000E+20
 20
1.000000000000000E+20
 30
1.000000000000000E+20
  9
$EXTMAX
 10
-1.000000000000000E+20
 20
-1.000000000000000E+20
 30
-1.000000000000000E+20
  9
$LIMMIN
 10
0.0
 20
0.0
  9
$LIMMAX
 10
12.0
 20
9.0
  9
$ORTHOMODE
 70
     0
  9
$REGENMODE
 70
     1
  9
$FILLMODE
 70
     1
  9
$QTEXTMODE
 70
     0
  9
$MIRRTEXT
 70
     1
  9
$DRAGMODE
 70
     2
  9
$LTSCALE
 40
1.0
  9
$OSMODE
 70
    37
  9
$ATTMODE
 70
     1
  9
$TEXTSIZE
 40
0.2
  9
$TRACEWID
 40
0.05
  9
$TEXTSTYLE
  7
STANDARD
  9
$CLAYER
  8
0
  9
$CELTYPE
  6
BYLAYER
  9
$CECOLOR
 62
   256
  9
$CELTSCALE
 40
1.0
  9
$DELOBJ
 70
     1
  9
$DISPSILH
 70
     0
  9
$DIMSCALE
 40
1.0
  9
$DIMASZ
 40
0.18
  9
$DIMEXO
 40
0.0625
  9
$DIMDLI
 40
0.38
  9
$DIMRND
 40
0.0
  9
$DIMDLE
 40
0.0
  9
$DIMEXE
 40
0.18
  9
$DIMTP
 40
0.0
  9
$DIMTM
 40
0.0
  9
$DIMTXT
 40
0.18
  9
$DIMCEN
 40
0.09
  9
$DIMTSZ
 40
0.0
  9
$DIMTOL
 70
     0
  9
$DIMLIM
 70
     0
  9
$DIMTIH
 70
     1
  9
$DIMTOH
 70
     1
  9
$DIMSE1
 70
     0
  9
$DIMSE2
 70
     0
  9
$DIMTAD
 70
     0
  9
$DIMZIN
 70
     0
  9
$DIMBLK
  1

  9
$DIMASO
 70
     1
  9
$DIMSHO
 70
     1
  9
$DIMPOST
  1

  9
$DIMAPOST
  1

  9
$DIMALT
 70
     0
  9
$DIMALTD
 70
     2
  9
$DIMALTF
 40
25.4
  9
$DIMLFAC
 40
1.0
  9
$DIMTOFL
 70
     0
  9
$DIMTVP
 40
0.0
  9
$DIMTIX
 70
     0
  9
$DIMSOXD
 70
     0
  9
$DIMSAH
 70
     0
  9
$DIMBLK1
  1

  9
$DIMBLK2
  1

  9
$DIMSTYLE
  2
STANDARD
  9
$DIMCLRD
 70
     0
  9
$DIMCLRE
 70
     0
  9
$DIMCLRT
 70
     0
  9
$DIMTFAC
 40
1.0
  9
$DIMGAP
 40
0.09
  9
$DIMJUST
 70
     0
  9
$DIMSD1
 70
     0
  9
$DIMSD2
 70
     0
  9
$DIMTOLJ
 70
     1
  9
$DIMTZIN
 70
     0
  9
$DIMALTZ
 70
     0
  9
$DIMALTTZ
 70
     0
  9
$DIMFIT
 70
     3
  9
$DIMUPT
 70
     0
  9
$DIMUNIT
 70
     2
  9
$DIMDEC
 70
     4
  9
$DIMTDEC
 70
     4
  9
$DIMALTU
 70
     2
  9
$DIMALTTD
 70
     2
  9
$DIMTXSTY
  7
STANDARD
  9
$DIMAUNIT
 70
     0
  9
$LUNITS
 70
     2
  9
$LUPREC
 70
     0
  9
$SKETCHINC
 40
0.1
  9
$FILLETRAD
 40
0.5
  9
$AUNITS
 70
     0
  9
$AUPREC
 70
     0
  9
$MENU
  1
.
  9
$ELEVATION
 40
0.0
  9
$PELEVATION
 40
0.0
  9
$THICKNESS
 40
0.0
  9
$LIMCHECK
 70
     0
  9
$CHAMFERA
 40
0.5
  9
$CHAMFERB
 40
0.5
  9
$CHAMFERC
 40
1.0
  9
$CHAMFERD
 40
0.0
  9
$SKPOLY
 70
     0
  9
$TDCREATE
 40
2453769.505946979
  9
$TDUPDATE
 40
2453769.505946991
  9
$TDINDWG
 40
0.0000000116
  9
$TDUSRTIMER
 40
0.0000000116
  9
$USRTIMER
 70
     1
  9
$ANGBASE
 50
0.0
  9
$ANGDIR
 70
     0
  9
$PDMODE
 70
     0
  9
$PDSIZE
 40
0.0
  9
$PLINEWID
 40
0.0
  9
$COORDS
 70
     1
  9
$SPLFRAME
 70
     0
  9
$SPLINETYPE
 70
     6
  9
$SPLINESEGS
 70
     8
  9
$ATTDIA
 70
     0
  9
$ATTREQ
 70
     1
  9
$HANDLING
 70
     1
  9
$HANDSEED
  5
AB
  9
$SURFTAB1
 70
     6
  9
$SURFTAB2
 70
     6
  9
$SURFTYPE
 70
     6
  9
$SURFU
 70
     6
  9
$SURFV
 70
     6
  9
$UCSNAME
  2

  9
$UCSORG
 10
0.0
 20
0.0
 30
0.0
  9
$UCSXDIR
 10
1.0
 20
0.0
 30
0.0
  9
$UCSYDIR
 10
0.0
 20
1.0
 30
0.0
  9
$PUCSNAME
  2

  9
$PUCSORG
 10
0.0
 20
0.0
 30
0.0
  9
$PUCSXDIR
 10
1.0
 20
0.0
 30
0.0
  9
$PUCSYDIR
 10
0.0
 20
1.0
 30
0.0
  9
$USERI1
 70
     0
  9
$USERI2
 70
     0
  9
$USERI3
 70
     0
  9
$USERI4
 70
     0
  9
$USERI5
 70
     0
  9
$USERR1
 40
0.0
  9
$USERR2
 40
0.0
  9
$USERR3
 40
0.0
  9
$USERR4
 40
0.0
  9
$USERR5
 40
0.0
  9
$WORLDVIEW
 70
     1
  9
$SHADEDGE
 70
     3
  9
$SHADEDIF
 70
    70
  9
$TILEMODE
 70
     1
  9
$MAXACTVP
 70
    64
  9
$PINSBASE
 10
0.0
 20
0.0
 30
0.0
  9
$PLIMCHECK
 70
     0
  9
$PEXTMIN
 10
1.000000000000000E+20
 20
1.000000000000000E+20
 30
1.000000000000000E+20
  9
$PEXTMAX
 10
-1.000000000000000E+20
 20
-1.000000000000000E+20
 30
-1.000000000000000E+20
  9
$PLIMMIN
 10
0.0
 20
0.0
  9
$PLIMMAX
 10
12.0
 20
9.0
  9
$UNITMODE
 70
     0
  9
$VISRETAIN
 70
     1
  9
$PLINEGEN
 70
     0
  9
$PSLTSCALE
 70
     1
  9
$TREEDEPTH
 70
  3020
  9
$PICKSTYLE
 70
     1
  9
$CMLSTYLE
  2
STANDARD
  9
$CMLJUST
 70
     0
  9
$CMLSCALE
 40
1.0
  9
$PROXYGRAPHICS
 70
     1
  9
$MEASUREMENT
 70
     0
  0
ENDSEC
  0
SECTION
  2
CLASSES
  0
CLASS
  1
ACDBDICTIONARYWDFLT
  2
AcDbDictionaryWithDefault
  3
ObjectDBX Classes
 90
        0
280
     0
281
     0
  0
CLASS
  1
XRECORD
  2
AcDbXrecord
  3
AutoCAD 2000
 90
        0
280
     0
281
     0
  0
CLASS
  1
LWPOLYLINE
  2
AcDbPolyline
  3
AutoCAD 2000
 90
        0
280
     0
281
     1
  0
CLASS
  1
HATCH
  2
AcDbHatch
  3
AutoCAD 2000
 90
        0
280
     0
281
     1
  0
CLASS
  1
ACDBPLACEHOLDER
  2
AcDbPlaceHolder
  3
ObjectDBX Classes
 90
        0
280
     0
281
     0
  0
CLASS
  1
LAYOUT
  2
AcDbLayout
  3
ObjectDBX Classes
 90
        0
280
     0
281
     0
  0
ENDSEC
  0
SECTION
  2
TABLES
  0
TABLE
  2
VPORT
  5
8
330
0
100
AcDbSymbolTable
 70
     2
  0
VPORT
  5
29
102
{ACAD_XDICTIONARY
360
A9
102
}
330
8
100
AcDbSymbolTableRecord
100
AcDbViewportTableRecord
  2
*ACTIVE
 70
     0
 10
0.0
 20
0.0
 11
1.0
 21
1.0
 12
66.5953725476064
 22
41.14173779298032
 13
0.0
 23
0.0
 14
0.5
 24
0.5
 15
0.5
 25
0.5
 16
0.0
 26
0.0
 36
80.21230066091221
 17
0.0
 27
0.0
 37
0.0
 40
82.18888734032365
 41
1.972972972850329
 42
50.0
 43
0.0
 44
0.0
 50
0.0
 51
0.0
 71
     0
 72
   100
 73
     1
 74
     3
 75
     0
 76
     0
 77
     0
 78
     0
  0
ENDTAB
  0
TABLE
  2
LTYPE
  5
5
330
0
100
AcDbSymbolTable
 70
     1
  0
LTYPE
  5
14
330
5
100
AcDbSymbolTableRecord
100
AcDbLinetypeTableRecord
  2
BYBLOCK
 70
     0
  3

 72
    65
 73
     0
 40
0.0
  0
LTYPE
  5
15
330
5
100
AcDbSymbolTableRecord
100
AcDbLinetypeTableRecord
  2
BYLAYER
 70
     0
  3

 72
    65
 73
     0
 40
0.0
  0
LTYPE
  5
16
330
5
100
AcDbSymbolTableRecord
100
AcDbLinetypeTableRecord
  2
CONTINUOUS
 70
     0
  3
Solid line
 72
    65
 73
     0
 40
0.0
  0
ENDTAB
  0
TABLE
  2
LAYER
  5
2
330
0
100
AcDbSymbolTable
 70
     1
  0
LAYER
  5
10
330
2
100
AcDbSymbolTableRecord
100
AcDbLayerTableRecord
  2
0
 70
     0
 62
     7
  6
CONTINUOUS
  0
ENDTAB
  0
TABLE
  2
STYLE
  5
3
330
0
100
AcDbSymbolTable
 70
     1
  0
STYLE
  5
11
330
3
100
AcDbSymbolTableRecord
100
AcDbTextStyleTableRecord
  2
STANDARD
 70
     0
 40
0.0
 41
1.0
 50
0.0
 71
     0
 42
0.2
  3
txt
  4

  0
ENDTAB
  0
TABLE
  2
VIEW
  5
6
330
0
100
AcDbSymbolTable
 70
     0
  0
ENDTAB
  0
TABLE
  2
UCS
  5
7
330
0
100
AcDbSymbolTable
 70
     0
  0
ENDTAB
  0
TABLE
  2
APPID
  5
9
330
0
100
AcDbSymbolTable
 70
     1
  0
APPID
  5
12
330
9
100
AcDbSymbolTableRecord
100
AcDbRegAppTableRecord
  2
ACAD
 70
     0
  0
ENDTAB
  0
TABLE
  2
DIMSTYLE
  5
A
330
0
100
AcDbSymbolTable
 70
     1
  0
DIMSTYLE
105
27
330
A
100
AcDbSymbolTableRecord
100
AcDbDimStyleTableRecord
  2
STANDARD
 70
     0
  3

  4

  5

  6

  7

 40
1.0
 41
0.18
 42
0.0625
 43
0.38
 44
0.18
 45
0.0
 46
0.0
 47
0.0
 48
0.0
140
0.18
141
0.09
142
0.0
143
25.4
144
1.0
145
0.0
146
1.0
147
0.09
 71
     0
 72
     0
 73
     1
 74
     1
 75
     0
 76
     0
 77
     0
 78
     0
170
     0
171
     2
172
     0
173
     0
174
     0
175
     0
176
     0
177
     0
178
     0
270
     2
271
     4
272
     4
273
     2
274
     2
340
11
275
     0
280
     0
281
     0
282
     0
283
     1
284
     0
285
     0
286
     0
287
     3
288
     0
  0
ENDTAB
  0
TABLE
  2
BLOCK_RECORD
  5
1
330
0
100
AcDbSymbolTable
 70
     1
  0
BLOCK_RECORD
  5
1F
330
1
100
AcDbSymbolTableRecord
100
AcDbBlockTableRecord
  2
*MODEL_SPACE
  0
BLOCK_RECORD
  5
1B
330
1
100
AcDbSymbolTableRecord
100
AcDbBlockTableRecord
  2
*PAPER_SPACE
  0
ENDTAB
  0
ENDSEC
  0
SECTION
  2
BLOCKS
  0
BLOCK
  5
20
330
1F
100
AcDbEntity
  8
0
100
AcDbBlockBegin
  2
*MODEL_SPACE
 70
     0
 71
     0
 10
0.0
 20
0.0
 30
0.0
  3
*MODEL_SPACE
  1

  0
ENDBLK
  5
21
330
1F
100
AcDbEntity
  8
0
100
AcDbBlockEnd
  0
BLOCK
  5
1C
330
1B
100
AcDbEntity
 67
     1
  8
0
100
AcDbBlockBegin
  2
*PAPER_SPACE
 70
     0
 71
     0
 10
0.0
 20
0.0
 30
0.0
  3
*PAPER_SPACE
  1

  0
ENDBLK
  5
1D
330
1B
100
AcDbEntity
 67
     1
  8
0
100
AcDbBlockEnd
  0
ENDSEC
  0
SECTION
  2
ENTITIES
  0
LINE
  5
2A
330
1F
100
AcDbEntity
  8
0
 62
     7
100
AcDbLine
 10
100.8310003342935
 20
0.0477050631457914
 30
0.0
 11
100.6440003342935
 21
0.2347050631457925
 31
0.0
  0
LINE
  5
2B
330
1F
100
AcDbEntity
  8
0
 62
     7
100
AcDbLine
 10
132.7414003342934
 20
0.0477050631457914
 30
0.0
 11
129.1014003342934
 21
0.0477050631457914
 31
0.0
  0
LINE
  5
2C
330
1F
100
AcDbEntity
  8
0
 62
     7
100
AcDbLine
 10
100.8310003342935
 20
0.0477050631457914
 30
0.0
 11
104.2344003342935
 21
0.0477050631457914
 31
0.0
  0
LINE
  5
2D
330
1F
100
AcDbEntity
  8
0
 62
     7
100
AcDbLine
 10
132.9214003342934
 20
0.2277050631457911
 30
0.0
 11
128.9214003342934
 21
0.2277050631457911
 31
0.0
  0
LINE
  5
2E
330
1F
100
AcDbEntity
  8
0
 62
     7
100
AcDbLine
 10
100.6440003342935
 20
0.2347050631457925
 30
0.0
 11
104.4214003342935
 21
0.2347050631457925
 31
0.0
  0
LINE
  5
2F
330
1F
100
AcDbEntity
  8
0
 62
     7
100
AcDbLine
 10
100.4214003342935
 20
2.047705063145791
 30
0.0
 11
100.6440003342935
 21
0.2347050631457925
 31
0.0
  0
LINE
  5
30
330
1F
100
AcDbEntity
  8
0
 62
     7
100
AcDbLine
 10
100.1714003342935
 20
2.047705063145791
 30
0.0
 11
133.1714003342935
 21
2.047705063145791
 31
0.0
  0
LINE
  5
31
330
1F
100
AcDbEntity
  8
0
 62
     7
100
AcDbLine
 10
104.4214003342935
 20
0.2347050631457925
 30
0.0
 11
104.4214003342935
 21
2.047705063145791
 31
0.0
  0
LINE
  5
32
330
1F
100
AcDbEntity
  8
0
 62
     7
100
AcDbLine
 10
128.9214003342934
 20
0.2277050631457911
 30
0.0
 11
129.1014003342934
 21
0.0477050631457914
 31
0.0
  0
LINE
  5
33
330
1F
100
AcDbEntity
  8
0
 62
     7
100
AcDbLine
 10
104.2344003342935
 20
0.0477050631457914
 30
0.0
 11
104.4214003342935
 21
0.2347050631457925
 31
0.0
  0
LINE
  5
34
330
1F
100
AcDbEntity
  8
0
 62
     7
100
AcDbLine
 10
128.9214003342934
 20
0.2277050631457911
 30
0.0
 11
128.9214003342934
 21
2.047705063145791
 31
0.0
  0
LINE
  5
35
330
1F
100
AcDbEntity
  8
0
 62
     7
100
AcDbLine
 10
132.9214003342934
 20
2.047705063145791
 30
0.0
 11
132.9214003342934
 21
0.2277050631457911
 31
0.0
  0
LINE
  5
36
330
1F
100
AcDbEntity
  8
0
 62
     7
100
AcDbLine
 10
132.9214003342934
 20
0.2277050631457911
 30
0.0
 11
132.7414003342934
 21
0.0477050631457914
 31
0.0
  0
ARC
  5
37
330
1F
100
AcDbEntity
  8
0
 62
     7
100
AcDbCircle
 10
132.1714003342935
 20
22.29770506314577
 30
0.0
 40
0.9999999999999594
100
AcDbArc
 50
359.9999999999994
 51
90.00000000000325
  0
LINE
  5
38
330
1F
100
AcDbEntity
  8
0
 62
     7
100
AcDbLine
 10
133.1714003342935
 20
2.047705063145791
 30
0.0
 11
133.1714003342935
 21
22.29770506314576
 31
0.0
  0
ARC
  5
39
330
1F
100
AcDbEntity
  8
0
 62
     7
100
AcDbCircle
 10
100.5792503342935
 20
28.01126506314574
 30
0.0
 40
1.000000000000007
100
AcDbArc
 50
110.9999999999997
 51
200.9999999999994
  0
LINE
  5
3A
330
1F
100
AcDbEntity
  8
0
 62
     7
100
AcDbLine
 10
101.3174803342935
 20
23.29768506314577
 30
0.0
 11
99.64567033429347
 21
27.65289506314576
 31
0.0
  0
ARC
  5
3B
330
1F
100
AcDbEntity
  8
0
 62
     7
100
AcDbCircle
 10
104.3135703342935
 20
29.4447350631458
 30
0.0
 40
0.9999999999999519
100
AcDbArc
 50
20.99999999999814
 51
111.0
  0
LINE
  5
3C
330
1F
100
AcDbEntity
  8
0
 62
     7
100
AcDbLine
 10
100.2208803342935
 20
28.94484506314575
 30
0.0
 11
103.9552003342935
 21
30.37831506314575
 31
0.0
  0
LINE
  5
3D
330
1F
100
AcDbEntity
  8
0
 62
     7
100
AcDbLine
 10
105.2471503342935
 20
29.80310506314574
 30
0.0
 11
107.7443503342934
 21
23.29768506314577
 31
0.0
  0
ARC
  5
3E
330
1F
100
AcDbEntity
  8
0
 62
     7
100
AcDbCircle
 10
97.16951033429346
 20
22.29770506314577
 30
0.0
 40
0.999999999999986
100
AcDbArc
 50
90.0
 51
191.2321380000011
  0
LINE
  5
3F
330
1F
100
AcDbEntity
  8
0
 62
     7
100
AcDbLine
 10
97.16951033429346
 20
23.29770506314575
 30
0.0
 11
132.1714003342935
 21
23.29770506314575
 31
0.0
  0
LINE
  5
40
330
1F
100
AcDbEntity
  8
0
 62
     7
100
AcDbLine
 10
96.18867033429348
 20
22.10291506314575
 30
0.0
 11
100.1714003342935
 21
2.047705063145791
 31
0.0
  0
LINE
  5
41
330
1F
100
AcDbEntity
  8
0
 62
     7
100
AcDbLine
 10
82.01934476091934
 20
2.047705063145791
 30
0.0
 11
82.01934476091934
 21
22.49770506314579
 31
0.0
  0
LINE
  5
42
330
1F
100
AcDbEntity
  8
0
 62
     7
100
AcDbLine
 10
76.31934476091931
 20
23.29770506314579
 30
0.0
 11
81.21934476091931
 21
23.29770506314579
 31
0.0
  0
ARC
  5
43
330
1F
100
AcDbEntity
  8
0
 62
     7
100
AcDbCircle
 10
81.2193447609193
 20
22.49770506314575
 30
0.0
 40
0.8000000000000349
100
AcDbArc
 50
0.0000000000033078
 51
89.99999999999898
  0
LINE
  5
44
330
1F
100
AcDbEntity
  8
0
 62
     7
100
AcDbLine
 10
75.51934476091932
 20
22.49770506314579
 30
0.0
 11
75.51934476091932
 21
2.047705063145791
 31
0.0
  0
ARC
  5
45
330
1F
100
AcDbEntity
  8
0
 62
     7
100
AcDbCircle
 10
76.31934476091932
 20
22.49770506314579
 30
0.0
 40
0.7999999999999994
100
AcDbArc
 50
90.00000000000203
 51
180.0000000000008
  0
LINE
  5
46
330
1F
100
AcDbEntity
  8
0
 62
     7
100
AcDbLine
 10
79.51934476091934
 20
29.93668106314578
 30
0.0
 11
79.51934476091934
 21
23.30800906314579
 31
0.0
  0
LINE
  5
47
330
1F
100
AcDbEntity
  8
0
 62
     7
100
AcDbLine
 10
3.319344760919333
 20
30.73668106314579
 30
0.0
 11
78.71934476091933
 21
30.73668106314579
 31
0.0
  0
ARC
  5
48
330
1F
100
AcDbEntity
  8
0
 62
     7
100
AcDbCircle
 10
78.7193447609193
 20
29.93668106314576
 30
0.0
 40
0.8000000000000349
100
AcDbArc
 50
0.0000000000027989
 51
89.99999999999898
  0
LINE
  5
49
330
1F
100
AcDbEntity
  8
0
 62
     7
100
AcDbLine
 10
2.519344760919333
 20
29.93668106314578
 30
0.0
 11
2.519344760919333
 21
23.30800906314579
 31
0.0
  0
ARC
  5
4A
330
1F
100
AcDbEntity
  8
0
 62
     7
100
AcDbCircle
 10
3.319344760919347
 20
29.93668106314578
 30
0.0
 40
0.8000000000000083
100
AcDbArc
 50
90.00000000000105
 51
180.0
  0
LINE
  5
4B
330
1F
100
AcDbEntity
  8
0
 62
     7
100
AcDbLine
 10
6.519344760919331
 20
22.49770506314579
 30
0.0
 11
6.519344760919331
 21
2.047705063145791
 31
0.0
  0
LINE
  5
4C
330
1F
100
AcDbEntity
  8
0
 62
     7
100
AcDbLine
 10
0.8193447609193361
 20
23.29770506314579
 30
0.0
 11
5.719344760919331
 21
23.29770506314579
 31
0.0
  0
ARC
  5
4D
330
1F
100
AcDbEntity
  8
0
 62
     7
100
AcDbCircle
 10
5.719344760919336
 20
22.49770506314579
 30
0.0
 40
0.7999999999999949
100
AcDbArc
 50
0.0000000000005089
 51
90.00000000000038
  0
LINE
  5
4E
330
1F
100
AcDbEntity
  8
0
 62
     7
100
AcDbLine
 10
0.0193447609193365
 20
2.047705063145791
 30
0.0
 11
0.0193447609193365
 21
22.49770506314579
 31
0.0
  0
ARC
  5
4F
330
1F
100
AcDbEntity
  8
0
 62
     7
100
AcDbCircle
 10
0.8193447609193241
 20
22.4977050631458
 30
0.0
 40
0.7999999999999861
100
AcDbArc
 50
89.99999999999915
 51
180.0000000000018
  0
LINE
  5
50
330
1F
100
AcDbEntity
  8
0
 62
     7
100
AcDbLine
 10
81.76934476091931
 20
0.2277050631457911
 30
0.0
 11
81.5893447609193
 21
0.0477050631457914
 31
0.0
  0
LINE
  5
51
330
1F
100
AcDbEntity
  8
0
 62
     7
100
AcDbLine
 10
81.76934476091931
 20
2.047705063145791
 30
0.0
 11
81.76934476091931
 21
0.2277050631457911
 31
0.0
  0
LINE
  5
52
330
1F
100
AcDbEntity
  8
0
 62
     7
100
AcDbLine
 10
75.76934476091934
 20
2.047705063145791
 30
0.0
 11
75.76934476091934
 21
0.2277050631457911
 31
0.0
  0
LINE
  5
53
330
1F
100
AcDbEntity
  8
0
 62
     7
100
AcDbLine
 10
75.76934476091934
 20
0.2277050631457911
 30
0.0
 11
75.94934476091932
 21
0.0477050631457914
 31
0.0
  0
LINE
  5
54
330
1F
100
AcDbEntity
  8
0
 62
     7
100
AcDbLine
 10
6.519344760919331
 20
15.17270506314579
 30
0.0
 11
75.51934476091932
 21
15.17270506314579
 31
0.0
  0
LINE
  5
55
330
1F
100
AcDbEntity
  8
0
 62
     7
100
AcDbLine
 10
41.01934476091935
 20
30.73668106314579
 30
0.0
 11
41.01934476091935
 21
8.047705063145791
 31
0.0
  0
LINE
  5
56
330
1F
100
AcDbEntity
  8
0
 62
     7
100
AcDbLine
 10
6.519344760919331
 20
8.047705063145791
 30
0.0
 11
75.51934476091932
 21
8.047705063145791
 31
0.0
  0
LINE
  5
57
330
1F
100
AcDbEntity
  8
0
 62
     7
100
AcDbLine
 10
0.0193447609193365
 20
2.047705063145791
 30
0.0
 11
82.01934476091934
 21
2.047705063145791
 31
0.0
  0
LINE
  5
58
330
1F
100
AcDbEntity
  8
0
 62
     7
100
AcDbLine
 10
6.269344760919328
 20
0.2277050631457911
 30
0.0
 11
6.089344760919321
 21
0.0477050631457914
 31
0.0
  0
LINE
  5
59
330
1F
100
AcDbEntity
  8
0
 62
     7
100
AcDbLine
 10
75.76934476091934
 20
0.2277050631457911
 30
0.0
 11
81.76934476091931
 21
0.2277050631457911
 31
0.0
  0
LINE
  5
5A
330
1F
100
AcDbEntity
  8
0
 62
     7
100
AcDbLine
 10
0.2693447609193397
 20
0.2277050631457911
 30
0.0
 11
6.269344760919328
 21
0.2277050631457911
 31
0.0
  0
LINE
  5
5B
330
1F
100
AcDbEntity
  8
0
 62
     7
100
AcDbLine
 10
75.94934476091932
 20
0.0477050631457914
 30
0.0
 11
81.5893447609193
 21
0.0477050631457914
 31
0.0
  0
LINE
  5
5C
330
1F
100
AcDbEntity
  8
0
 62
     7
100
AcDbLine
 10
0.4493447609193285
 20
0.0477050631457914
 30
0.0
 11
6.089344760919321
 21
0.0477050631457914
 31
0.0
  0
LINE
  5
5D
330
1F
100
AcDbEntity
  8
0
 62
     7
100
AcDbLine
 10
6.269344760919328
 20
2.047705063145791
 30
0.0
 11
6.269344760919328
 21
0.2277050631457911
 31
0.0
  0
LINE
  5
5E
330
1F
100
AcDbEntity
  8
0
 62
     7
100
AcDbLine
 10
0.2693447609193397
 20
0.2277050631457911
 30
0.0
 11
0.4493447609193285
 21
0.0477050631457914
 31
0.0
  0
LINE
  5
5F
330
1F
100
AcDbEntity
  8
0
 62
     7
100
AcDbLine
 10
0.2693447609193397
 20
2.047705063145791
 30
0.0
 11
0.2693447609193397
 21
0.2277050631457911
 31
0.0
  0
LINE
  5
60
330
1F
100
AcDbEntity
  8
0
 62
     7
100
AcDbLine
 10
6.519344760919323
 20
67.48527193224797
 30
0.0
 11
6.519344760919323
 21
46.2250966391849
 31
0.0
  0
LINE
  5
61
330
1F
100
AcDbEntity
  8
0
 62
     7
100
AcDbLine
 10
2.519344760919333
 20
70.65215431647526
 30
0.0
 11
2.519344760919333
 21
72.45245066523181
 31
0.0
  0
LINE
  5
62
330
1F
100
AcDbEntity
  8
0
 62
     7
100
AcDbLine
 10
6.519344760919322
 20
70.65215431647528
 30
0.0
 11
2.519344760919333
 21
70.65215431647526
 31
0.0
  0
LINE
  5
63
330
1F
100
AcDbEntity
  8
0
 62
     7
100
AcDbLine
 10
6.519344760919323
 20
67.48527193224797
 30
0.0
 11
6.519344760919322
 21
70.65215431647528
 31
0.0
  0
ARC
  5
64
330
1F
100
AcDbEntity
  8
0
 62
     7
100
AcDbCircle
 10
1.019344760919431
 20
81.23577052281472
 30
0.0
 40
1.000000000000094
100
AcDbArc
 50
89.99999999999243
 51
180.0000000000065
  0
ARC
  5
65
330
1F
100
AcDbEntity
  8
0
 62
     7
100
AcDbCircle
 10
1.019344760919491
 20
46.22509663918483
 30
0.0
 40
1.000000000000155
100
AcDbArc
 50
179.9999999999951
 51
270.0000000000057
  0
LINE
  5
66
330
1F
100
AcDbEntity
  8
0
 62
     7
100
AcDbLine
 10
0.0193447609193365
 20
46.2250966391849
 30
0.0
 11
0.0193447609193375
 21
81.23577052281462
 31
0.0
  0
ARC
  5
67
330
1F
100
AcDbEntity
  8
0
 62
     7
100
AcDbCircle
 10
5.519344760919223
 20
46.22509663918477
 30
0.0
 40
1.000000000000099
100
AcDbArc
 50
269.9999999999909
 51
0.000000000007328
  0
LINE
  5
68
330
1F
100
AcDbEntity
  8
0
 62
     7
100
AcDbLine
 10
5.519344760919063
 20
45.22509663918467
 30
0.0
 11
1.019344760919598
 21
45.22509663918467
 31
0.0
  0
LINE
  5
69
330
1F
100
AcDbEntity
  8
0
 62
     7
100
AcDbLine
 10
6.519344760919322
 20
70.65215431647528
 30
0.0
 11
6.519344760919323
 21
46.2250966391849
 31
0.0
  0
ARC
  5
6A
330
1F
100
AcDbEntity
  8
0
 62
     7
100
AcDbCircle
 10
3.519344760919397
 20
77.82503756454084
 30
0.0
 40
1.000000000000064
100
AcDbArc
 50
89.99999999999069
 51
180.0000000000057
  0
ARC
  5
6B
330
1F
100
AcDbEntity
  8
0
 62
     7
100
AcDbCircle
 10
7.519344760919446
 20
46.22509663918481
 30
0.0
 40
1.000000000000123
100
AcDbArc
 50
179.9999999999943
 51
270.000000000006
  0
ARC
  5
6C
330
1F
100
AcDbEntity
  8
0
 62
     7
100
AcDbCircle
 10
3.519344760919552
 20
72.45245066523155
 30
0.0
 40
1.000000000000217
100
AcDbArc
 50
89.99999999999962
 51
179.9999999999853
  0
LINE
  5
6D
330
1F
100
AcDbEntity
  8
0
 62
     7
100
AcDbLine
 10
2.519344760919333
 20
77.82503756454074
 30
0.0
 11
2.519344760919333
 21
72.45245066523181
 31
0.0
  0
ARC
  5
6E
330
1F
100
AcDbEntity
  8
0
 62
     7
100
AcDbCircle
 10
40.01934476091925
 20
46.22509663918478
 30
0.0
 40
1.000000000000102
100
AcDbArc
 50
269.9999999999927
 51
0.000000000007328
  0
LINE
  5
6F
330
1F
100
AcDbEntity
  8
0
 62
     7
100
AcDbLine
 10
41.01934476091935
 20
67.48527193224797
 30
0.0
 11
6.519344760919324
 21
67.48527193224797
 31
0.0
  0
LINE
  5
70
330
1F
100
AcDbEntity
  8
0
 62
     7
100
AcDbLine
 10
3.519344760919558
 20
73.45245066523178
 30
0.0
 11
41.01934476091935
 21
73.45245066523178
 31
0.0
  0
LINE
  5
71
330
1F
100
AcDbEntity
  8
0
 62
     7
100
AcDbLine
 10
3.519344760919559
 20
78.82503756454091
 30
0.0
 11
41.01934476091935
 21
78.82503756454094
 31
0.0
  0
LINE
  5
72
330
1F
100
AcDbEntity
  8
0
 62
     7
100
AcDbLine
 10
1.019344760919563
 20
82.23577052281483
 30
0.0
 11
41.01934476091935
 21
82.23577052281483
 31
0.0
  0
LINE
  5
73
330
1F
100
AcDbEntity
  8
0
 62
     7
100
AcDbLine
 10
7.519344760919549
 20
45.22509663918467
 30
0.0
 11
40.01934476091913
 21
45.22509663918467
 31
0.0
  0
LINE
  5
74
330
1F
100
AcDbEntity
  8
0
 62
     7
100
AcDbLine
 10
74.51934476091914
 20
45.22509663918467
 30
0.0
 11
42.01934476091958
 21
45.22509663918467
 31
0.0
  0
LINE
  5
75
330
1F
100
AcDbEntity
  8
0
 62
     7
100
AcDbLine
 10
81.01934476091913
 20
82.23577052281483
 30
0.0
 11
41.01934476091935
 21
82.23577052281483
 31
0.0
  0
LINE
  5
76
330
1F
100
AcDbEntity
  8
0
 62
     7
100
AcDbLine
 10
78.51934476091913
 20
78.82503756454091
 30
0.0
 11
41.01934476091935
 21
78.82503756454094
 31
0.0
  0
LINE
  5
77
330
1F
100
AcDbEntity
  8
0
 62
     7
100
AcDbLine
 10
78.51934476091914
 20
73.45245066523178
 30
0.0
 11
41.01934476091935
 21
73.45245066523178
 31
0.0
  0
LINE
  5
78
330
1F
100
AcDbEntity
  8
0
 62
     7
100
AcDbLine
 10
41.01934476091935
 20
67.48527193224797
 30
0.0
 11
75.51934476091937
 21
67.48527193224797
 31
0.0
  0
ARC
  5
79
330
1F
100
AcDbEntity
  8
0
 62
     7
100
AcDbCircle
 10
42.01934476091947
 20
46.2250966391848
 30
0.0
 40
1.00000000000011
100
AcDbArc
 50
179.9999999999931
 51
270.0000000000061
  0
LINE
  5
7A
330
1F
100
AcDbEntity
  8
0
 62
     7
100
AcDbLine
 10
79.51934476091935
 20
77.82503756454074
 30
0.0
 11
79.51934476091935
 21
72.45245066523181
 31
0.0
  0
ARC
  5
7B
330
1F
100
AcDbEntity
  8
0
 62
     7
100
AcDbCircle
 10
78.51934476091913
 20
72.45245066523152
 30
0.0
 40
1.000000000000244
100
AcDbArc
 50
0.0000000000162844
 51
90.0
  0
ARC
  5
7C
330
1F
100
AcDbEntity
  8
0
 62
     7
100
AcDbCircle
 10
74.51934476091924
 20
46.22509663918481
 30
0.0
 40
1.000000000000128
100
AcDbArc
 50
269.9999999999943
 51
0.0000000000052924
  0
ARC
  5
7D
330
1F
100
AcDbEntity
  8
0
 62
     7
100
AcDbCircle
 10
78.51934476091931
 20
77.82503756454085
 30
0.0
 40
1.000000000000048
100
AcDbArc
 50
359.9999999999935
 51
90.00000000001059
  0
LINE
  5
7E
330
1F
100
AcDbEntity
  8
0
 62
     7
100
AcDbLine
 10
75.51934476091938
 20
70.65215431647528
 30
0.0
 11
75.51934476091937
 21
46.2250966391849
 31
0.0
  0
LINE
  5
7F
330
1F
100
AcDbEntity
  8
0
 62
     7
100
AcDbLine
 10
76.51934476091962
 20
45.22509663918467
 30
0.0
 11
81.0193447609191
 21
45.22509663918467
 31
0.0
  0
ARC
  5
80
330
1F
100
AcDbEntity
  8
0
 62
     7
100
AcDbCircle
 10
76.51934476091947
 20
46.22509663918477
 30
0.0
 40
1.000000000000093
100
AcDbArc
 50
179.9999999999927
 51
270.0000000000098
  0
LINE
  5
81
330
1F
100
AcDbEntity
  8
0
 62
     7
100
AcDbLine
 10
82.01934476091935
 20
46.2250966391849
 30
0.0
 11
82.01934476091935
 21
81.23577052281462
 31
0.0
  0
ARC
  5
82
330
1F
100
AcDbEntity
  8
0
 62
     7
100
AcDbCircle
 10
81.0193447609192
 20
46.22509663918484
 30
0.0
 40
1.000000000000164
100
AcDbArc
 50
269.9999999999935
 51
0.000000000003664
  0
ARC
  5
83
330
1F
100
AcDbEntity
  8
0
 62
     7
100
AcDbCircle
 10
81.01934476091927
 20
81.23577052281472
 30
0.0
 40
1.000000000000084
100
AcDbArc
 50
359.9999999999935
 51
90.00000000000733
  0
LINE
  5
84
330
1F
100
AcDbEntity
  8
0
 62
     7
100
AcDbLine
 10
75.51934476091937
 20
67.48527193224797
 30
0.0
 11
75.51934476091938
 21
70.65215431647528
 31
0.0
  0
LINE
  5
85
330
1F
100
AcDbEntity
  8
0
 62
     7
100
AcDbLine
 10
75.51934476091938
 20
70.65215431647528
 30
0.0
 11
79.51934476091935
 21
70.65215431647526
 31
0.0
  0
LINE
  5
86
330
1F
100
AcDbEntity
  8
0
 62
     7
100
AcDbLine
 10
79.51934476091935
 20
70.65215431647526
 30
0.0
 11
79.51934476091935
 21
72.45245066523181
 31
0.0
  0
LINE
  5
87
330
1F
100
AcDbEntity
  8
0
 62
     7
100
AcDbLine
 10
75.51934476091937
 20
67.48527193224797
 30
0.0
 11
75.51934476091937
 21
46.2250966391849
 31
0.0
  0
LINE
  5
88
330
1F
100
AcDbEntity
  8
0
 62
     7
100
AcDbLine
 10
41.01934476091935
 20
46.22509663918491
 30
0.0
 11
41.01934476091935
 21
82.23577052281483
 31
0.0
  0
ENDSEC
  0
SECTION
  2
OBJECTS
  0
DICTIONARY
  5
C
330
0
100
AcDbDictionary
  3
ACAD_GROUP
350
D
  3
ACAD_LAYOUT
350
1A
  3
ACAD_MLINESTYLE
350
17
  3
ACAD_PLOTSETTINGS
350
19
  3
ACDBHEADERROUNDTRIPXREC
350
89
  0
DICTIONARY
  5
A9
330
29
100
AcDbDictionary
280
     1
  3
ACAD_XREC_ROUNDTRIP
360
AA
  0
DICTIONARY
  5
D
102
{ACAD_REACTORS
330
C
102
}
330
C
100
AcDbDictionary
  0
DICTIONARY
  5
1A
102
{ACAD_REACTORS
330
C
102
}
330
C
100
AcDbDictionary
  0
DICTIONARY
  5
17
102
{ACAD_REACTORS
330
C
102
}
330
C
100
AcDbDictionary
  3
STANDARD
350
18
  0
DICTIONARY
  5
19
102
{ACAD_REACTORS
330
C
102
}
330
C
100
AcDbDictionary
  0
DICTIONARY
  5
89
102
{ACAD_REACTORS
330
C
102
}
330
C
100
AcDbDictionary
  3
CEPSNTYPE
350
92
  3
DIMSTYLEDATA
350
A8
  3
FINGERPRINTGUID
350
93
  3
HYPERLINKBASE
350
8C
  3
INSUNITS
350
91
  3
LAYOUTDICT
350
8E
  3
LWETCUNION
350
90
  3
PLOTSETDICT
350
8F
  3
PSVPSCALE
350
95
  3
PUCSBASE
350
98
  3
PUCSORGBACK
350
9E
  3
PUCSORGBOTTOM
350
9A
  3
PUCSORGFRONT
350
9D
  3
PUCSORGLEFT
350
9B
  3
PUCSORGRIGHT
350
9C
  3
PUCSORGTOP
350
99
  3
PUCSORTHOREF
350
96
  3
PUCSORTHOVIEW
350
97
  3
STYLESHEET
350
8D
  3
TSTACKALIGN
350
8A
  3
TSTACKSIZE
350
8B
  3
UCSBASE
350
A1
  3
UCSORGBACK
350
A7
  3
UCSORGBOTTOM
350
A3
  3
UCSORGFRONT
350
A6
  3
UCSORGLEFT
350
A4
  3
UCSORGRIGHT
350
A5
  3
UCSORGTOP
350
A2
  3
UCSORTHOREF
350
9F
  3
UCSORTHOVIEW
350
A0
  3
VERSIONGUID
350
94
  0
XRECORD
  5
AA
102
{ACAD_REACTORS
330
A9
102
}
330
A9
100
AcDbXrecord
102
UCS
 74
     0
 71
     1
 10
0.0
 20
0.0
 30
0.0
 10
1.0
 20
0.0
 30
0.0
 10
0.0
 20
1.0
 30
0.0
146
0.0
 79
     0
102
VIEW
281
     0
  0
MLINESTYLE
  5
18
102
{ACAD_REACTORS
330
17
102
}
330
17
100
AcDbMlineStyle
  2
Standard
 70
     0
  3

 62
   256
 51
90.0
 52
90.0
 71
     2
 49
0.5
 62
   256
  6
BYLAYER
 49
-0.5
 62
   256
  6
BYLAYER
  0
XRECORD
  5
92
102
{ACAD_REACTORS
330
89
102
}
330
89
100
AcDbXrecord
 90
        0
  0
XRECORD
  5
A8
102
{ACAD_REACTORS
330
89
102
}
330
89
100
AcDbXrecord
1000
DSTYLE
1002
{
1070
   340
340
11
1002
}
  0
XRECORD
  5
93
102
{ACAD_REACTORS
330
89
102
}
330
89
100
AcDbXrecord
  1
{FAEB1C30-E019-11D5-929B-00C0DF256EC4}
  0
XRECORD
  5
8C
102
{ACAD_REACTORS
330
89
102
}
330
89
100
AcDbXrecord
  1

  0
XRECORD
  5
91
102
{ACAD_REACTORS
330
89
102
}
330
89
100
AcDbXrecord
 90
        4
  0
XRECORD
  5
8E
102
{ACAD_REACTORS
330
89
102
}
330
89
100
AcDbXrecord
340
1A
  0
XRECORD
  5
90
102
{ACAD_REACTORS
330
89
102
}
330
89
100
AcDbXrecord
 90
     2560
  0
XRECORD
  5
8F
102
{ACAD_REACTORS
330
89
102
}
330
89
100
AcDbXrecord
340
19
  0
XRECORD
  5
95
102
{ACAD_REACTORS
330
89
102
}
330
89
100
AcDbXrecord
 40
0.0
  0
XRECORD
  5
98
102
{ACAD_REACTORS
330
89
102
}
330
89
100
AcDbXrecord
340
0
  0
XRECORD
  5
9E
102
{ACAD_REACTORS
330
89
102
}
330
89
100
AcDbXrecord
 10
0.0
 20
0.0
 30
0.0
  0
XRECORD
  5
9A
102
{ACAD_REACTORS
330
89
102
}
330
89
100
AcDbXrecord
 10
0.0
 20
0.0
 30
0.0
  0
XRECORD
  5
9D
102
{ACAD_REACTORS
330
89
102
}
330
89
100
AcDbXrecord
 10
0.0
 20
0.0
 30
0.0
  0
XRECORD
  5
9B
102
{ACAD_REACTORS
330
89
102
}
330
89
100
AcDbXrecord
 10
0.0
 20
0.0
 30
0.0
  0
XRECORD
  5
9C
102
{ACAD_REACTORS
330
89
102
}
330
89
100
AcDbXrecord
 10
0.0
 20
0.0
 30
0.0
  0
XRECORD
  5
99
102
{ACAD_REACTORS
330
89
102
}
330
89
100
AcDbXrecord
 10
0.0
 20
0.0
 30
0.0
  0
XRECORD
  5
96
102
{ACAD_REACTORS
330
89
102
}
330
89
100
AcDbXrecord
340
0
  0
XRECORD
  5
97
102
{ACAD_REACTORS
330
89
102
}
330
89
100
AcDbXrecord
 70
     0
  0
XRECORD
  5
8D
102
{ACAD_REACTORS
330
89
102
}
330
89
100
AcDbXrecord
  1

  0
XRECORD
  5
8A
102
{ACAD_REACTORS
330
89
102
}
330
89
100
AcDbXrecord
 90
        1
  0
XRECORD
  5
8B
102
{ACAD_REACTORS
330
89
102
}
330
89
100
AcDbXrecord
 90
       70
  0
XRECORD
  5
A1
102
{ACAD_REACTORS
330
89
102
}
330
89
100
AcDbXrecord
340
0
  0
XRECORD
  5
A7
102
{ACAD_REACTORS
330
89
102
}
330
89
100
AcDbXrecord
 10
0.0
 20
0.0
 30
0.0
  0
XRECORD
  5
A3
102
{ACAD_REACTORS
330
89
102
}
330
89
100
AcDbXrecord
 10
0.0
 20
0.0
 30
0.0
  0
XRECORD
  5
A6
102
{ACAD_REACTORS
330
89
102
}
330
89
100
AcDbXrecord
 10
0.0
 20
0.0
 30
0.0
  0
XRECORD
  5
A4
102
{ACAD_REACTORS
330
89
102
}
330
89
100
AcDbXrecord
 10
0.0
 20
0.0
 30
0.0
  0
XRECORD
  5
A5
102
{ACAD_REACTORS
330
89
102
}
330
89
100
AcDbXrecord
 10
0.0
 20
0.0
 30
0.0
  0
XRECORD
  5
A2
102
{ACAD_REACTORS
330
89
102
}
330
89
100
AcDbXrecord
 10
0.0
 20
0.0
 30
0.0
  0
XRECORD
  5
9F
102
{ACAD_REACTORS
330
89
102
}
330
89
100
AcDbXrecord
340
0
  0
XRECORD
  5
A0
102
{ACAD_REACTORS
330
89
102
}
330
89
100
AcDbXrecord
 70
     0
  0
XRECORD
  5
94
102
{ACAD_REACTORS
330
89
102
}
330
89
100
AcDbXrecord
  1
{FAEB1C32-E019-11D5-929B-00C0DF256EC4}
  0
ENDSEC
  0
EOF
