  0
SECTION
  2
HEADER
  9
$ACADVER
  1
AC1014
  9
$ACADMAINTVER
 70
     9
  9
$DWGCODEPAGE
  3
ANSI_1252
  9
$INSBASE
 10
0.0
 20
0.0
 30
0.0
  9
$EXTMIN
 10
1.000000000000000E+20
 20
1.000000000000000E+20
 30
1.000000000000000E+20
  9
$EXTMAX
 10
-1.000000000000000E+20
 20
-1.000000000000000E+20
 30
-1.000000000000000E+20
  9
$LIMMIN
 10
0.0
 20
0.0
  9
$LIMMAX
 10
12.0
 20
9.0
  9
$ORTHOMODE
 70
     0
  9
$REGENMODE
 70
     1
  9
$FILLMODE
 70
     1
  9
$QTEXTMODE
 70
     0
  9
$MIRRTEXT
 70
     1
  9
$DRAGMODE
 70
     2
  9
$LTSCALE
 40
1.0
  9
$OSMODE
 70
    37
  9
$ATTMODE
 70
     1
  9
$TEXTSIZE
 40
0.2
  9
$TRACEWID
 40
0.05
  9
$TEXTSTYLE
  7
STANDARD
  9
$CLAYER
  8
0
  9
$CELTYPE
  6
BYLAYER
  9
$CECOLOR
 62
   256
  9
$CELTSCALE
 40
1.0
  9
$DELOBJ
 70
     1
  9
$DISPSILH
 70
     0
  9
$DIMSCALE
 40
1.0
  9
$DIMASZ
 40
0.18
  9
$DIMEXO
 40
0.0625
  9
$DIMDLI
 40
0.38
  9
$DIMRND
 40
0.0
  9
$DIMDLE
 40
0.0
  9
$DIMEXE
 40
0.18
  9
$DIMTP
 40
0.0
  9
$DIMTM
 40
0.0
  9
$DIMTXT
 40
0.18
  9
$DIMCEN
 40
0.09
  9
$DIMTSZ
 40
0.0
  9
$DIMTOL
 70
     0
  9
$DIMLIM
 70
     0
  9
$DIMTIH
 70
     1
  9
$DIMTOH
 70
     1
  9
$DIMSE1
 70
     0
  9
$DIMSE2
 70
     0
  9
$DIMTAD
 70
     0
  9
$DIMZIN
 70
     0
  9
$DIMBLK
  1

  9
$DIMASO
 70
     1
  9
$DIMSHO
 70
     1
  9
$DIMPOST
  1

  9
$DIMAPOST
  1

  9
$DIMALT
 70
     0
  9
$DIMALTD
 70
     2
  9
$DIMALTF
 40
25.4
  9
$DIMLFAC
 40
1.0
  9
$DIMTOFL
 70
     0
  9
$DIMTVP
 40
0.0
  9
$DIMTIX
 70
     0
  9
$DIMSOXD
 70
     0
  9
$DIMSAH
 70
     0
  9
$DIMBLK1
  1

  9
$DIMBLK2
  1

  9
$DIMSTYLE
  2
STANDARD
  9
$DIMCLRD
 70
     0
  9
$DIMCLRE
 70
     0
  9
$DIMCLRT
 70
     0
  9
$DIMTFAC
 40
1.0
  9
$DIMGAP
 40
0.09
  9
$DIMJUST
 70
     0
  9
$DIMSD1
 70
     0
  9
$DIMSD2
 70
     0
  9
$DIMTOLJ
 70
     1
  9
$DIMTZIN
 70
     0
  9
$DIMALTZ
 70
     0
  9
$DIMALTTZ
 70
     0
  9
$DIMFIT
 70
     3
  9
$DIMUPT
 70
     0
  9
$DIMUNIT
 70
     2
  9
$DIMDEC
 70
     4
  9
$DIMTDEC
 70
     4
  9
$DIMALTU
 70
     2
  9
$DIMALTTD
 70
     2
  9
$DIMTXSTY
  7
STANDARD
  9
$DIMAUNIT
 70
     0
  9
$LUNITS
 70
     2
  9
$LUPREC
 70
     0
  9
$SKETCHINC
 40
0.1
  9
$FILLETRAD
 40
0.5
  9
$AUNITS
 70
     0
  9
$AUPREC
 70
     0
  9
$MENU
  1
.
  9
$ELEVATION
 40
0.0
  9
$PELEVATION
 40
0.0
  9
$THICKNESS
 40
0.0
  9
$LIMCHECK
 70
     0
  9
$CHAMFERA
 40
0.5
  9
$CHAMFERB
 40
0.5
  9
$CHAMFERC
 40
1.0
  9
$CHAMFERD
 40
0.0
  9
$SKPOLY
 70
     0
  9
$TDCREATE
 40
2453769.507350845
  9
$TDUPDATE
 40
2453769.507350856
  9
$TDINDWG
 40
0.0000000116
  9
$TDUSRTIMER
 40
0.0000000116
  9
$USRTIMER
 70
     1
  9
$ANGBASE
 50
0.0
  9
$ANGDIR
 70
     0
  9
$PDMODE
 70
     0
  9
$PDSIZE
 40
0.0
  9
$PLINEWID
 40
0.0
  9
$COORDS
 70
     1
  9
$SPLFRAME
 70
     0
  9
$SPLINETYPE
 70
     6
  9
$SPLINESEGS
 70
     8
  9
$ATTDIA
 70
     0
  9
$ATTREQ
 70
     1
  9
$HANDLING
 70
     1
  9
$HANDSEED
  5
9E
  9
$SURFTAB1
 70
     6
  9
$SURFTAB2
 70
     6
  9
$SURFTYPE
 70
     6
  9
$SURFU
 70
     6
  9
$SURFV
 70
     6
  9
$UCSNAME
  2

  9
$UCSORG
 10
0.0
 20
0.0
 30
0.0
  9
$UCSXDIR
 10
1.0
 20
0.0
 30
0.0
  9
$UCSYDIR
 10
0.0
 20
1.0
 30
0.0
  9
$PUCSNAME
  2

  9
$PUCSORG
 10
0.0
 20
0.0
 30
0.0
  9
$PUCSXDIR
 10
1.0
 20
0.0
 30
0.0
  9
$PUCSYDIR
 10
0.0
 20
1.0
 30
0.0
  9
$USERI1
 70
     0
  9
$USERI2
 70
     0
  9
$USERI3
 70
     0
  9
$USERI4
 70
     0
  9
$USERI5
 70
     0
  9
$USERR1
 40
0.0
  9
$USERR2
 40
0.0
  9
$USERR3
 40
0.0
  9
$USERR4
 40
0.0
  9
$USERR5
 40
0.0
  9
$WORLDVIEW
 70
     1
  9
$SHADEDGE
 70
     3
  9
$SHADEDIF
 70
    70
  9
$TILEMODE
 70
     1
  9
$MAXACTVP
 70
    64
  9
$PINSBASE
 10
0.0
 20
0.0
 30
0.0
  9
$PLIMCHECK
 70
     0
  9
$PEXTMIN
 10
1.000000000000000E+20
 20
1.000000000000000E+20
 30
1.000000000000000E+20
  9
$PEXTMAX
 10
-1.000000000000000E+20
 20
-1.000000000000000E+20
 30
-1.000000000000000E+20
  9
$PLIMMIN
 10
0.0
 20
0.0
  9
$PLIMMAX
 10
12.0
 20
9.0
  9
$UNITMODE
 70
     0
  9
$VISRETAIN
 70
     1
  9
$PLINEGEN
 70
     0
  9
$PSLTSCALE
 70
     1
  9
$TREEDEPTH
 70
  3020
  9
$PICKSTYLE
 70
     1
  9
$CMLSTYLE
  2
STANDARD
  9
$CMLJUST
 70
     0
  9
$CMLSCALE
 40
1.0
  9
$PROXYGRAPHICS
 70
     1
  9
$MEASUREMENT
 70
     0
  0
ENDSEC
  0
SECTION
  2
CLASSES
  0
CLASS
  1
ACDBDICTIONARYWDFLT
  2
AcDbDictionaryWithDefault
  3
ObjectDBX Classes
 90
        0
280
     0
281
     0
  0
CLASS
  1
XRECORD
  2
AcDbXrecord
  3
AutoCAD 2000
 90
        0
280
     0
281
     0
  0
CLASS
  1
LWPOLYLINE
  2
AcDbPolyline
  3
AutoCAD 2000
 90
        0
280
     0
281
     1
  0
CLASS
  1
HATCH
  2
AcDbHatch
  3
AutoCAD 2000
 90
        0
280
     0
281
     1
  0
CLASS
  1
ACDBPLACEHOLDER
  2
AcDbPlaceHolder
  3
ObjectDBX Classes
 90
        0
280
     0
281
     0
  0
CLASS
  1
LAYOUT
  2
AcDbLayout
  3
ObjectDBX Classes
 90
        0
280
     0
281
     0
  0
ENDSEC
  0
SECTION
  2
TABLES
  0
TABLE
  2
VPORT
  5
8
330
0
100
AcDbSymbolTable
 70
     2
  0
VPORT
  5
29
102
{ACAD_XDICTIONARY
360
9C
102
}
330
8
100
AcDbSymbolTableRecord
100
AcDbViewportTableRecord
  2
*ACTIVE
 70
     0
 10
0.0
 20
0.0
 11
1.0
 21
1.0
 12
55.36144775647146
 22
54.44106646431619
 13
0.0
 23
0.0
 14
0.5
 24
0.5
 15
0.5
 25
0.5
 16
0.0
 26
0.0
 36
80.21230066091221
 17
0.0
 27
0.0
 37
0.0
 40
108.8369911142826
 41
1.972972972850329
 42
50.0
 43
0.0
 44
0.0
 50
0.0
 51
0.0
 71
     0
 72
   100
 73
     1
 74
     3
 75
     0
 76
     0
 77
     0
 78
     0
  0
ENDTAB
  0
TABLE
  2
LTYPE
  5
5
330
0
100
AcDbSymbolTable
 70
     1
  0
LTYPE
  5
14
330
5
100
AcDbSymbolTableRecord
100
AcDbLinetypeTableRecord
  2
BYBLOCK
 70
     0
  3

 72
    65
 73
     0
 40
0.0
  0
LTYPE
  5
15
330
5
100
AcDbSymbolTableRecord
100
AcDbLinetypeTableRecord
  2
BYLAYER
 70
     0
  3

 72
    65
 73
     0
 40
0.0
  0
LTYPE
  5
16
330
5
100
AcDbSymbolTableRecord
100
AcDbLinetypeTableRecord
  2
CONTINUOUS
 70
     0
  3
Solid line
 72
    65
 73
     0
 40
0.0
  0
ENDTAB
  0
TABLE
  2
LAYER
  5
2
330
0
100
AcDbSymbolTable
 70
     1
  0
LAYER
  5
10
330
2
100
AcDbSymbolTableRecord
100
AcDbLayerTableRecord
  2
0
 70
     0
 62
     7
  6
CONTINUOUS
  0
ENDTAB
  0
TABLE
  2
STYLE
  5
3
330
0
100
AcDbSymbolTable
 70
     1
  0
STYLE
  5
11
330
3
100
AcDbSymbolTableRecord
100
AcDbTextStyleTableRecord
  2
STANDARD
 70
     0
 40
0.0
 41
1.0
 50
0.0
 71
     0
 42
0.2
  3
txt
  4

  0
ENDTAB
  0
TABLE
  2
VIEW
  5
6
330
0
100
AcDbSymbolTable
 70
     0
  0
ENDTAB
  0
TABLE
  2
UCS
  5
7
330
0
100
AcDbSymbolTable
 70
     0
  0
ENDTAB
  0
TABLE
  2
APPID
  5
9
330
0
100
AcDbSymbolTable
 70
     1
  0
APPID
  5
12
330
9
100
AcDbSymbolTableRecord
100
AcDbRegAppTableRecord
  2
ACAD
 70
     0
  0
ENDTAB
  0
TABLE
  2
DIMSTYLE
  5
A
330
0
100
AcDbSymbolTable
 70
     1
  0
DIMSTYLE
105
27
330
A
100
AcDbSymbolTableRecord
100
AcDbDimStyleTableRecord
  2
STANDARD
 70
     0
  3

  4

  5

  6

  7

 40
1.0
 41
0.18
 42
0.0625
 43
0.38
 44
0.18
 45
0.0
 46
0.0
 47
0.0
 48
0.0
140
0.18
141
0.09
142
0.0
143
25.4
144
1.0
145
0.0
146
1.0
147
0.09
 71
     0
 72
     0
 73
     1
 74
     1
 75
     0
 76
     0
 77
     0
 78
     0
170
     0
171
     2
172
     0
173
     0
174
     0
175
     0
176
     0
177
     0
178
     0
270
     2
271
     4
272
     4
273
     2
274
     2
340
11
275
     0
280
     0
281
     0
282
     0
283
     1
284
     0
285
     0
286
     0
287
     3
288
     0
  0
ENDTAB
  0
TABLE
  2
BLOCK_RECORD
  5
1
330
0
100
AcDbSymbolTable
 70
     1
  0
BLOCK_RECORD
  5
1F
330
1
100
AcDbSymbolTableRecord
100
AcDbBlockTableRecord
  2
*MODEL_SPACE
  0
BLOCK_RECORD
  5
1B
330
1
100
AcDbSymbolTableRecord
100
AcDbBlockTableRecord
  2
*PAPER_SPACE
  0
ENDTAB
  0
ENDSEC
  0
SECTION
  2
BLOCKS
  0
BLOCK
  5
20
330
1F
100
AcDbEntity
  8
0
100
AcDbBlockBegin
  2
*MODEL_SPACE
 70
     0
 71
     0
 10
0.0
 20
0.0
 30
0.0
  3
*MODEL_SPACE
  1

  0
ENDBLK
  5
21
330
1F
100
AcDbEntity
  8
0
100
AcDbBlockEnd
  0
BLOCK
  5
1C
330
1B
100
AcDbEntity
 67
     1
  8
0
100
AcDbBlockBegin
  2
*PAPER_SPACE
 70
     0
 71
     0
 10
0.0
 20
0.0
 30
0.0
  3
*PAPER_SPACE
  1

  0
ENDBLK
  5
1D
330
1B
100
AcDbEntity
 67
     1
  8
0
100
AcDbBlockEnd
  0
ENDSEC
  0
SECTION
  2
ENTITIES
  0
LINE
  5
2A
330
1F
100
AcDbEntity
  8
0
 62
     7
100
AcDbLine
 10
60.59387163205506
 20
23.28342708668874
 30
0.0
 11
66.44830029978097
 21
8.03212248234389
 31
0.0
  0
LINE
  5
2B
330
1F
100
AcDbEntity
  8
0
 62
     7
100
AcDbLine
 10
53.68449563205506
 20
0.023115086688684
 30
0.0
 11
53.49749563205506
 21
0.2101150866886821
 31
0.0
  0
LINE
  5
2C
330
1F
100
AcDbEntity
  8
0
 62
     7
100
AcDbLine
 10
53.68449563205506
 20
0.023115086688684
 30
0.0
 11
57.08788763205507
 21
0.023115086688684
 31
0.0
  0
LINE
  5
2D
330
1F
100
AcDbEntity
  8
0
 62
     7
100
AcDbLine
 10
53.49749563205506
 20
0.2101150866886821
 30
0.0
 11
57.27488763205507
 21
0.2101150866886821
 31
0.0
  0
LINE
  5
2E
330
1F
100
AcDbEntity
  8
0
 62
     7
100
AcDbLine
 10
53.27488763205506
 20
2.023115086688688
 30
0.0
 11
53.49749563205506
 21
0.2101150866886821
 31
0.0
  0
LINE
  5
2F
330
1F
100
AcDbEntity
  8
0
 62
     7
100
AcDbLine
 10
53.02488763205506
 20
2.023115086688688
 30
0.0
 11
86.02488763205513
 21
2.023115086688688
 31
0.0
  0
LINE
  5
30
330
1F
100
AcDbEntity
  8
0
 62
     7
100
AcDbLine
 10
57.27488763205507
 20
0.2101150866886821
 30
0.0
 11
57.27488763205507
 21
2.023115086688688
 31
0.0
  0
LINE
  5
31
330
1F
100
AcDbEntity
  8
0
 62
     7
100
AcDbLine
 10
57.08788763205507
 20
0.023115086688684
 30
0.0
 11
57.27488763205507
 21
0.2101150866886821
 31
0.0
  0
LINE
  5
32
330
1F
100
AcDbEntity
  8
0
 62
     7
100
AcDbLine
 10
86.02488763205513
 20
2.023115086688688
 30
0.0
 11
110.8248876320552
 21
2.023115086688688
 31
0.0
  0
LINE
  5
33
330
1F
100
AcDbEntity
  8
0
 62
     7
100
AcDbLine
 10
110.4379036320552
 20
0.2031150866886913
 30
0.0
 11
110.2579036320552
 21
0.023115086688684
 31
0.0
  0
LINE
  5
34
330
1F
100
AcDbEntity
  8
0
 62
     7
100
AcDbLine
 10
110.4379036320552
 20
2.023115086688688
 30
0.0
 11
110.4379036320552
 21
0.2031150866886913
 31
0.0
  0
LINE
  5
35
330
1F
100
AcDbEntity
  8
0
 62
     7
100
AcDbLine
 10
106.4379036320552
 20
0.2031150866886913
 30
0.0
 11
106.4379036320552
 21
2.023115086688688
 31
0.0
  0
LINE
  5
36
330
1F
100
AcDbEntity
  8
0
 62
     7
100
AcDbLine
 10
106.4379036320552
 20
0.2031150866886913
 30
0.0
 11
106.6179036320552
 21
0.023115086688684
 31
0.0
  0
LINE
  5
37
330
1F
100
AcDbEntity
  8
0
 62
     7
100
AcDbLine
 10
110.4379036320552
 20
0.2031150866886913
 30
0.0
 11
106.4379036320552
 21
0.2031150866886913
 31
0.0
  0
LINE
  5
38
330
1F
100
AcDbEntity
  8
0
 62
     7
100
AcDbLine
 10
110.2579036320552
 20
0.023115086688684
 30
0.0
 11
106.6179036320552
 21
0.023115086688684
 31
0.0
  0
LINE
  5
39
330
1F
100
AcDbEntity
  8
0
 62
     7
100
AcDbLine
 10
60.02092763205506
 20
8.0334270866887
 30
0.0
 11
54.16699963205505
 21
23.28342708668874
 31
0.0
  0
LINE
  5
3A
330
1F
100
AcDbEntity
  8
0
 62
     7
100
AcDbLine
 10
60.02092763205506
 20
8.0334270866887
 30
0.0
 11
110.8248876320552
 21
8.023115086688701
 31
0.0
  0
LINE
  5
3B
330
1F
100
AcDbEntity
  8
0
 62
     7
100
AcDbLine
 10
63.71276763205508
 20
15.15842708668872
 30
0.0
 11
98.42488763205516
 21
15.14811508668872
 31
0.0
  0
ARC
  5
3C
330
1F
100
AcDbEntity
  8
0
 62
     7
100
AcDbCircle
 10
49.79847963205505
 20
22.47311508668873
 30
0.0
 40
0.8000000000000017
100
AcDbArc
 50
90.0
 51
191.1802460000004
  0
LINE
  5
3D
330
1F
100
AcDbEntity
  8
0
 62
     7
100
AcDbLine
 10
49.79847963205505
 20
23.27311508668874
 30
0.0
 11
54.16699963205505
 21
23.27311508668874
 31
0.0
  0
LINE
  5
3E
330
1F
100
AcDbEntity
  8
0
 62
     7
100
AcDbLine
 10
49.01366363205505
 20
22.31799508668874
 30
0.0
 11
53.02488763205506
 21
2.023115086688687
 31
0.0
  0
ARC
  5
3F
330
1F
100
AcDbEntity
  8
0
 62
     7
100
AcDbCircle
 10
53.17435163205503
 20
28.10172308668876
 30
0.0
 40
0.7999999999999786
100
AcDbArc
 50
111.000010999998
 51
200.9999580000019
  0
LINE
  5
40
330
1F
100
AcDbEntity
  8
0
 62
     7
100
AcDbLine
 10
52.42748763205506
 20
27.81502708668874
 30
0.0
 11
54.16699963205505
 21
23.28342708668874
 31
0.0
  0
ARC
  5
41
330
1F
100
AcDbEntity
  8
0
 62
     7
100
AcDbCircle
 10
57.28210363205508
 20
29.67853908668876
 30
0.0
 40
0.7999999999999905
100
AcDbArc
 50
20.99999999999938
 51
111.0000110000014
  0
LINE
  5
42
330
1F
100
AcDbEntity
  8
0
 62
     7
100
AcDbLine
 10
52.88765563205505
 20
28.84858708668875
 30
0.0
 11
56.99540763205506
 21
30.42540308668875
 31
0.0
  0
LINE
  5
43
330
1F
100
AcDbEntity
  8
0
 62
     7
100
AcDbLine
 10
58.02896763205506
 20
29.96523508668875
 30
0.0
 11
60.59387163205506
 21
23.28342708668874
 31
0.0
  0
ARC
  5
44
330
1F
100
AcDbEntity
  8
0
 62
     7
100
AcDbCircle
 10
97.62488763205512
 20
22.47311508668872
 30
0.0
 40
0.8000000000000372
100
AcDbArc
 50
0.0000000000017811
 51
89.99999999999797
  0
LINE
  5
45
330
1F
100
AcDbEntity
  8
0
 62
     7
100
AcDbLine
 10
60.59782363205508
 20
23.27311508668874
 30
0.0
 11
97.62488763205515
 21
23.27311508668874
 31
0.0
  0
LINE
  5
46
330
1F
100
AcDbEntity
  8
0
 62
     7
100
AcDbLine
 10
98.42488763205516
 20
22.47311508668873
 30
0.0
 11
98.42488763205516
 21
15.14811508668872
 31
0.0
  0
ARC
  5
47
330
1F
100
AcDbEntity
  8
0
 62
     7
100
AcDbCircle
 10
110.0248876320552
 20
14.34811508668875
 30
0.0
 40
0.7999999999999662
100
AcDbArc
 50
359.9999999999983
 51
90.00000000000203
  0
LINE
  5
48
330
1F
100
AcDbEntity
  8
0
 62
     7
100
AcDbLine
 10
98.42488763205516
 20
15.14811508668872
 30
0.0
 11
110.0248876320552
 21
15.14811508668872
 31
0.0
  0
LINE
  5
49
330
1F
100
AcDbEntity
  8
0
 62
     7
100
AcDbLine
 10
110.8248876320552
 20
14.34811508668872
 30
0.0
 11
110.8248876320552
 21
2.023115086688689
 31
0.0
  0
LINE
  5
4A
330
1F
100
AcDbEntity
  8
0
 62
     7
100
AcDbLine
 10
33.39800788088781
 20
8.023115086688698
 30
0.0
 11
-0.1019921191122464
 21
8.023115086688698
 31
0.0
  0
LINE
  5
4B
330
1F
100
AcDbEntity
  8
0
 62
     7
100
AcDbLine
 10
33.1480078808878
 20
2.023115086688688
 30
0.0
 11
33.1480078808878
 21
0.2031150866886851
 31
0.0
  0
LINE
  5
4C
330
1F
100
AcDbEntity
  8
0
 62
     7
100
AcDbLine
 10
33.1480078808878
 20
0.2031150866886851
 30
0.0
 11
32.96800788088781
 21
0.0231150866886853
 31
0.0
  0
LINE
  5
4D
330
1F
100
AcDbEntity
  8
0
 62
     7
100
AcDbLine
 10
27.1480078808878
 20
2.023115086688688
 30
0.0
 11
27.1480078808878
 21
0.2031150866886851
 31
0.0
  0
LINE
  5
4E
330
1F
100
AcDbEntity
  8
0
 62
     7
100
AcDbLine
 10
27.1480078808878
 20
0.2031150866886851
 30
0.0
 11
27.3280078808878
 21
0.0231150866886853
 31
0.0
  0
LINE
  5
4F
330
1F
100
AcDbEntity
  8
0
 62
     7
100
AcDbLine
 10
32.96800788088781
 20
0.0231150866886853
 30
0.0
 11
27.3280078808878
 21
0.0231150866886853
 31
0.0
  0
LINE
  5
50
330
1F
100
AcDbEntity
  8
0
 62
     7
100
AcDbLine
 10
33.1480078808878
 20
0.2031150866886851
 30
0.0
 11
27.1480078808878
 21
0.2031150866886851
 31
0.0
  0
LINE
  5
51
330
1F
100
AcDbEntity
  8
0
 62
     7
100
AcDbLine
 10
33.39800788088781
 20
2.023115086688688
 30
0.0
 11
-0.1019921191122464
 21
2.023115086688688
 31
0.0
  0
LINE
  5
52
330
1F
100
AcDbEntity
  8
0
 62
     7
100
AcDbLine
 10
6.080927880887763
 20
0.0231150866886853
 30
0.0
 11
0.4409278808877595
 21
0.0231150866886853
 31
0.0
  0
LINE
  5
53
330
1F
100
AcDbEntity
  8
0
 62
     7
100
AcDbLine
 10
6.260927880887762
 20
0.2031150866886851
 30
0.0
 11
0.2609278808877571
 21
0.2031150866886851
 31
0.0
  0
LINE
  5
54
330
1F
100
AcDbEntity
  8
0
 62
     7
100
AcDbLine
 10
6.260927880887762
 20
0.2031150866886851
 30
0.0
 11
6.080927880887763
 21
0.0231150866886853
 31
0.0
  0
LINE
  5
55
330
1F
100
AcDbEntity
  8
0
 62
     7
100
AcDbLine
 10
6.260927880887762
 20
2.023115086688688
 30
0.0
 11
6.260927880887762
 21
0.2031150866886851
 31
0.0
  0
LINE
  5
56
330
1F
100
AcDbEntity
  8
0
 62
     7
100
AcDbLine
 10
0.2609278808877567
 20
2.023115086688688
 30
0.0
 11
0.2609278808877567
 21
0.2031150866886851
 31
0.0
  0
LINE
  5
57
330
1F
100
AcDbEntity
  8
0
 62
     7
100
AcDbLine
 10
0.2609278808877567
 20
0.2031150866886851
 30
0.0
 11
0.4409278808877595
 21
0.0231150866886853
 31
0.0
  0
ARC
  5
58
330
1F
100
AcDbEntity
  8
0
 62
     7
100
AcDbCircle
 10
30.0980078808878
 20
29.91209908668873
 30
0.0
 40
0.7999999999999973
100
AcDbArc
 50
359.999999999999
 51
90.00000000000026
  0
LINE
  5
59
330
1F
100
AcDbEntity
  8
0
 62
     7
100
AcDbLine
 10
30.8980078808878
 20
29.91209908668873
 30
0.0
 11
30.8980078808878
 21
23.28342708668872
 31
0.0
  0
ARC
  5
5A
330
1F
100
AcDbEntity
  8
0
 62
     7
100
AcDbCircle
 10
0.698007880887765
 20
29.91209908668872
 30
0.0
 40
0.8000000000000084
100
AcDbArc
 50
90.0000000000008
 51
179.9999999999987
  0
LINE
  5
5B
330
1F
100
AcDbEntity
  8
0
 62
     7
100
AcDbLine
 10
30.0980078808878
 20
30.71209908668874
 30
0.0
 11
0.6980078808877543
 21
30.71209908668874
 31
0.0
  0
ARC
  5
5C
330
1F
100
AcDbEntity
  8
0
 62
     7
100
AcDbCircle
 10
27.6980078808878
 20
22.47311508668871
 30
0.0
 40
0.8000000000000062
100
AcDbArc
 50
89.99999999999974
 51
179.9999999999995
  0
LINE
  5
5D
330
1F
100
AcDbEntity
  8
0
 62
     7
100
AcDbLine
 10
26.89800788088779
 20
22.47311508668872
 30
0.0
 11
26.89800788088779
 21
15.14811508668871
 31
0.0
  0
ARC
  5
5E
330
1F
100
AcDbEntity
  8
0
 62
     7
100
AcDbCircle
 10
32.59800788088781
 20
22.47311508668872
 30
0.0
 40
0.8000000000000017
100
AcDbArc
 50
359.9999999999997
 51
90.0
  0
LINE
  5
5F
330
1F
100
AcDbEntity
  8
0
 62
     7
100
AcDbLine
 10
32.59800788088781
 20
23.27311508668872
 30
0.0
 11
27.6980078808878
 21
23.27311508668872
 31
0.0
  0
ARC
  5
60
330
1F
100
AcDbEntity
  8
0
 62
     7
100
AcDbCircle
 10
32.59800788088783
 20
14.34811508668872
 30
0.0
 40
0.7999999999999862
100
AcDbArc
 50
359.9999999999988
 51
90.00000000000102
  0
LINE
  5
61
330
1F
100
AcDbEntity
  8
0
 62
     7
100
AcDbLine
 10
33.39800788088781
 20
2.023115086688688
 30
0.0
 11
33.39800788088781
 21
14.34811508668871
 31
0.0
  0
LINE
  5
62
330
1F
100
AcDbEntity
  8
0
 62
     7
100
AcDbLine
 10
33.39800788088781
 20
22.47311508668872
 30
0.0
 11
33.39800788088781
 21
14.34811508668871
 31
0.0
  0
ARC
  5
63
330
1F
100
AcDbEntity
  8
0
 62
     7
100
AcDbCircle
 10
0.6980078808877561
 20
14.34811508668871
 30
0.0
 40
0.7999999999999995
100
AcDbArc
 50
90.00000000000017
 51
179.9999999999994
  0
LINE
  5
64
330
1F
100
AcDbEntity
  8
0
 62
     7
100
AcDbLine
 10
32.59800788088781
 20
15.14811508668871
 30
0.0
 11
0.6980078808877543
 21
15.14811508668871
 31
0.0
  0
LINE
  5
65
330
1F
100
AcDbEntity
  8
0
 62
     7
100
AcDbLine
 10
-0.1019921191122437
 20
14.34811508668871
 30
0.0
 11
-0.1019921191122437
 21
2.023115086688689
 31
0.0
  0
LINE
  5
66
330
1F
100
AcDbEntity
  8
0
 62
     7
100
AcDbLine
 10
-0.1019921191122437
 20
29.91209908668873
 30
0.0
 11
-0.1019921191122437
 21
14.34811508668871
 31
0.0
  0
LINE
  5
67
330
1F
100
AcDbEntity
  8
0
 62
     7
100
AcDbLine
 10
30.8980078808878
 20
97.2754016356041
 30
0.0
 11
30.8980078808878
 21
99.07569798436064
 31
0.0
  0
LINE
  5
68
330
1F
100
AcDbEntity
  8
0
 62
     7
100
AcDbLine
 10
26.8980078808878
 20
97.2754016356041
 30
0.0
 11
30.8980078808878
 21
97.2754016356041
 31
0.0
  0
LINE
  5
69
330
1F
100
AcDbEntity
  8
0
 62
     7
100
AcDbLine
 10
26.8980078808878
 20
94.10851925137678
 30
0.0
 11
26.8980078808878
 21
97.2754016356041
 31
0.0
  0
ARC
  5
6A
330
1F
100
AcDbEntity
  8
0
 62
     7
100
AcDbCircle
 10
32.3980078808877
 20
107.8590178419436
 30
0.0
 40
1.000000000000109
100
AcDbArc
 50
359.9999999999935
 51
90.00000000000692
  0
LINE
  5
6B
330
1F
100
AcDbEntity
  8
0
 62
     7
100
AcDbLine
 10
26.8980078808878
 20
97.2754016356041
 30
0.0
 11
26.8980078808878
 21
72.84834395831365
 31
0.0
  0
ARC
  5
6C
330
1F
100
AcDbEntity
  8
0
 62
     7
100
AcDbCircle
 10
29.89800788088774
 20
104.4482848836697
 30
0.0
 40
1.000000000000069
100
AcDbArc
 50
359.9999999999951
 51
90.00000000000917
  0
ARC
  5
6D
330
1F
100
AcDbEntity
  8
0
 62
     7
100
AcDbCircle
 10
29.89800788088759
 20
99.07569798436039
 30
0.0
 40
1.000000000000211
100
AcDbArc
 50
0.0000000000154702
 51
90.00000000000102
  0
LINE
  5
6E
330
1F
100
AcDbEntity
  8
0
 62
     7
100
AcDbLine
 10
30.8980078808878
 20
104.4482848836696
 30
0.0
 11
30.8980078808878
 21
99.07569798436064
 31
0.0
  0
LINE
  5
6F
330
1F
100
AcDbEntity
  8
0
 62
     7
100
AcDbLine
 10
27.89800788088806
 20
59.44438563560402
 30
0.0
 11
32.39800788088755
 21
59.44438563560402
 31
0.0
  0
ARC
  5
70
330
1F
100
AcDbEntity
  8
0
 62
     7
100
AcDbCircle
 10
27.89800788088789
 20
60.44438563560411
 30
0.0
 40
1.000000000000091
100
AcDbArc
 50
179.9999999999918
 51
270.0000000000096
  0
ARC
  5
71
330
1F
100
AcDbEntity
  8
0
 62
     7
100
AcDbCircle
 10
32.39800788088766
 20
60.44438563560416
 30
0.0
 40
1.00000000000014
100
AcDbArc
 50
269.9999999999935
 51
0.0000000000061067
  0
ARC
  5
72
330
1F
100
AcDbEntity
  8
0
 62
     7
100
AcDbCircle
 10
0.898007880887874
 20
48.04438563560412
 30
0.0
 40
1.000000000000096
100
AcDbArc
 50
179.9999999999923
 51
270.0000000000073
  0
ARC
  5
73
330
1F
100
AcDbEntity
  8
0
 62
     7
100
AcDbCircle
 10
32.39800788088767
 20
48.04438563560416
 30
0.0
 40
1.00000000000014
100
AcDbArc
 50
269.9999999999947
 51
0.0000000000056996
  0
LINE
  5
74
330
1F
100
AcDbEntity
  8
0
 62
     7
100
AcDbLine
 10
-0.1019921191122393
 20
94.10851925137678
 30
0.0
 11
26.8980078808878
 21
94.10851925137678
 31
0.0
  0
LINE
  5
75
330
1F
100
AcDbEntity
  8
0
 62
     7
100
AcDbLine
 10
29.89800788088757
 20
100.0756979843606
 30
0.0
 11
-0.1019921191122286
 21
100.0756979843606
 31
0.0
  0
LINE
  5
76
330
1F
100
AcDbEntity
  8
0
 62
     7
100
AcDbLine
 10
29.89800788088757
 20
105.4482848836698
 30
0.0
 11
-0.1019921191122286
 21
105.4482848836698
 31
0.0
  0
LINE
  5
77
330
1F
100
AcDbEntity
  8
0
 62
     7
100
AcDbLine
 10
32.39800788088758
 20
108.8590178419437
 30
0.0
 11
-0.101992119112218
 21
108.8590178419437
 31
0.0
  0
LINE
  5
78
330
1F
100
AcDbEntity
  8
0
 62
     7
100
AcDbLine
 10
32.39800788088768
 20
47.04438563560401
 30
0.0
 11
0.8980078808879988
 21
47.04438563560401
 31
0.0
  0
LINE
  5
79
330
1F
100
AcDbEntity
  8
0
 62
     7
100
AcDbLine
 10
26.8980078808878
 20
94.10851925137678
 30
0.0
 11
26.8980078808878
 21
60.44438563560426
 31
0.0
  0
LINE
  5
7A
330
1F
100
AcDbEntity
  8
0
 62
     7
100
AcDbLine
 10
-0.1019921191122304
 20
48.04438563560425
 30
0.0
 11
-0.1019921191122259
 21
108.8590178419437
 31
0.0
  0
LINE
  5
7B
330
1F
100
AcDbEntity
  8
0
 62
     7
100
AcDbLine
 10
33.39800788088781
 20
48.04438563560426
 30
0.0
 11
33.39800788088781
 21
107.8590178419435
 31
0.0
  0
ENDSEC
  0
SECTION
  2
OBJECTS
  0
DICTIONARY
  5
C
330
0
100
AcDbDictionary
  3
ACAD_GROUP
350
D
  3
ACAD_LAYOUT
350
1A
  3
ACAD_MLINESTYLE
350
17
  3
ACAD_PLOTSETTINGS
350
19
  3
ACDBHEADERROUNDTRIPXREC
350
7C
  0
DICTIONARY
  5
9C
330
29
100
AcDbDictionary
280
     1
  3
ACAD_XREC_ROUNDTRIP
360
9D
  0
DICTIONARY
  5
D
102
{ACAD_REACTORS
330
C
102
}
330
C
100
AcDbDictionary
  0
DICTIONARY
  5
1A
102
{ACAD_REACTORS
330
C
102
}
330
C
100
AcDbDictionary
  0
DICTIONARY
  5
17
102
{ACAD_REACTORS
330
C
102
}
330
C
100
AcDbDictionary
  3
STANDARD
350
18
  0
DICTIONARY
  5
19
102
{ACAD_REACTORS
330
C
102
}
330
C
100
AcDbDictionary
  0
DICTIONARY
  5
7C
102
{ACAD_REACTORS
330
C
102
}
330
C
100
AcDbDictionary
  3
CEPSNTYPE
350
85
  3
DIMSTYLEDATA
350
9B
  3
FINGERPRINTGUID
350
86
  3
HYPERLINKBASE
350
7F
  3
INSUNITS
350
84
  3
LAYOUTDICT
350
81
  3
LWETCUNION
350
83
  3
PLOTSETDICT
350
82
  3
PSVPSCALE
350
88
  3
PUCSBASE
350
8B
  3
PUCSORGBACK
350
91
  3
PUCSORGBOTTOM
350
8D
  3
PUCSORGFRONT
350
90
  3
PUCSORGLEFT
350
8E
  3
PUCSORGRIGHT
350
8F
  3
PUCSORGTOP
350
8C
  3
PUCSORTHOREF
350
89
  3
PUCSORTHOVIEW
350
8A
  3
STYLESHEET
350
80
  3
TSTACKALIGN
350
7D
  3
TSTACKSIZE
350
7E
  3
UCSBASE
350
94
  3
UCSORGBACK
350
9A
  3
UCSORGBOTTOM
350
96
  3
UCSORGFRONT
350
99
  3
UCSORGLEFT
350
97
  3
UCSORGRIGHT
350
98
  3
UCSORGTOP
350
95
  3
UCSORTHOREF
350
92
  3
UCSORTHOVIEW
350
93
  3
VERSIONGUID
350
87
  0
XRECORD
  5
9D
102
{ACAD_REACTORS
330
9C
102
}
330
9C
100
AcDbXrecord
102
UCS
 74
     0
 71
     1
 10
0.0
 20
0.0
 30
0.0
 10
1.0
 20
0.0
 30
0.0
 10
0.0
 20
1.0
 30
0.0
146
0.0
 79
     0
102
VIEW
281
     0
  0
MLINESTYLE
  5
18
102
{ACAD_REACTORS
330
17
102
}
330
17
100
AcDbMlineStyle
  2
Standard
 70
     0
  3

 62
   256
 51
90.0
 52
90.0
 71
     2
 49
0.5
 62
   256
  6
BYLAYER
 49
-0.5
 62
   256
  6
BYLAYER
  0
XRECORD
  5
85
102
{ACAD_REACTORS
330
7C
102
}
330
7C
100
AcDbXrecord
 90
        0
  0
XRECORD
  5
9B
102
{ACAD_REACTORS
330
7C
102
}
330
7C
100
AcDbXrecord
1000
DSTYLE
1002
{
1070
   340
340
11
1002
}
  0
XRECORD
  5
86
102
{ACAD_REACTORS
330
7C
102
}
330
7C
100
AcDbXrecord
  1
{FAEB1C30-E019-11D5-929B-00C0DF256EC4}
  0
XRECORD
  5
7F
102
{ACAD_REACTORS
330
7C
102
}
330
7C
100
AcDbXrecord
  1

  0
XRECORD
  5
84
102
{ACAD_REACTORS
330
7C
102
}
330
7C
100
AcDbXrecord
 90
        4
  0
XRECORD
  5
81
102
{ACAD_REACTORS
330
7C
102
}
330
7C
100
AcDbXrecord
340
1A
  0
XRECORD
  5
83
102
{ACAD_REACTORS
330
7C
102
}
330
7C
100
AcDbXrecord
 90
     2560
  0
XRECORD
  5
82
102
{ACAD_REACTORS
330
7C
102
}
330
7C
100
AcDbXrecord
340
19
  0
XRECORD
  5
88
102
{ACAD_REACTORS
330
7C
102
}
330
7C
100
AcDbXrecord
 40
0.0
  0
XRECORD
  5
8B
102
{ACAD_REACTORS
330
7C
102
}
330
7C
100
AcDbXrecord
340
0
  0
XRECORD
  5
91
102
{ACAD_REACTORS
330
7C
102
}
330
7C
100
AcDbXrecord
 10
0.0
 20
0.0
 30
0.0
  0
XRECORD
  5
8D
102
{ACAD_REACTORS
330
7C
102
}
330
7C
100
AcDbXrecord
 10
0.0
 20
0.0
 30
0.0
  0
XRECORD
  5
90
102
{ACAD_REACTORS
330
7C
102
}
330
7C
100
AcDbXrecord
 10
0.0
 20
0.0
 30
0.0
  0
XRECORD
  5
8E
102
{ACAD_REACTORS
330
7C
102
}
330
7C
100
AcDbXrecord
 10
0.0
 20
0.0
 30
0.0
  0
XRECORD
  5
8F
102
{ACAD_REACTORS
330
7C
102
}
330
7C
100
AcDbXrecord
 10
0.0
 20
0.0
 30
0.0
  0
XRECORD
  5
8C
102
{ACAD_REACTORS
330
7C
102
}
330
7C
100
AcDbXrecord
 10
0.0
 20
0.0
 30
0.0
  0
XRECORD
  5
89
102
{ACAD_REACTORS
330
7C
102
}
330
7C
100
AcDbXrecord
340
0
  0
XRECORD
  5
8A
102
{ACAD_REACTORS
330
7C
102
}
330
7C
100
AcDbXrecord
 70
     0
  0
XRECORD
  5
80
102
{ACAD_REACTORS
330
7C
102
}
330
7C
100
AcDbXrecord
  1

  0
XRECORD
  5
7D
102
{ACAD_REACTORS
330
7C
102
}
330
7C
100
AcDbXrecord
 90
        1
  0
XRECORD
  5
7E
102
{ACAD_REACTORS
330
7C
102
}
330
7C
100
AcDbXrecord
 90
       70
  0
XRECORD
  5
94
102
{ACAD_REACTORS
330
7C
102
}
330
7C
100
AcDbXrecord
340
0
  0
XRECORD
  5
9A
102
{ACAD_REACTORS
330
7C
102
}
330
7C
100
AcDbXrecord
 10
0.0
 20
0.0
 30
0.0
  0
XRECORD
  5
96
102
{ACAD_REACTORS
330
7C
102
}
330
7C
100
AcDbXrecord
 10
0.0
 20
0.0
 30
0.0
  0
XRECORD
  5
99
102
{ACAD_REACTORS
330
7C
102
}
330
7C
100
AcDbXrecord
 10
0.0
 20
0.0
 30
0.0
  0
XRECORD
  5
97
102
{ACAD_REACTORS
330
7C
102
}
330
7C
100
AcDbXrecord
 10
0.0
 20
0.0
 30
0.0
  0
XRECORD
  5
98
102
{ACAD_REACTORS
330
7C
102
}
330
7C
100
AcDbXrecord
 10
0.0
 20
0.0
 30
0.0
  0
XRECORD
  5
95
102
{ACAD_REACTORS
330
7C
102
}
330
7C
100
AcDbXrecord
 10
0.0
 20
0.0
 30
0.0
  0
XRECORD
  5
92
102
{ACAD_REACTORS
330
7C
102
}
330
7C
100
AcDbXrecord
340
0
  0
XRECORD
  5
93
102
{ACAD_REACTORS
330
7C
102
}
330
7C
100
AcDbXrecord
 70
     0
  0
XRECORD
  5
87
102
{ACAD_REACTORS
330
7C
102
}
330
7C
100
AcDbXrecord
  1
{FAEB1C32-E019-11D5-929B-00C0DF256EC4}
  0
ENDSEC
  0
EOF
