  0
SECTION
  2
HEADER
  9
$ACADVER
  1
AC1014
  9
$ACADMAINTVER
 70
     9
  9
$DWGCODEPAGE
  3
ANSI_1252
  9
$INSBASE
 10
0.0
 20
0.0
 30
0.0
  9
$EXTMIN
 10
1.000000000000000E+20
 20
1.000000000000000E+20
 30
1.000000000000000E+20
  9
$EXTMAX
 10
-1.000000000000000E+20
 20
-1.000000000000000E+20
 30
-1.000000000000000E+20
  9
$LIMMIN
 10
0.0
 20
0.0
  9
$LIMMAX
 10
12.0
 20
9.0
  9
$ORTHOMODE
 70
     0
  9
$REGENMODE
 70
     1
  9
$FILLMODE
 70
     1
  9
$QTEXTMODE
 70
     0
  9
$MIRRTEXT
 70
     1
  9
$DRAGMODE
 70
     2
  9
$LTSCALE
 40
1.0
  9
$OSMODE
 70
    37
  9
$ATTMODE
 70
     1
  9
$TEXTSIZE
 40
0.2
  9
$TRACEWID
 40
0.05
  9
$TEXTSTYLE
  7
STANDARD
  9
$CLAYER
  8
0
  9
$CELTYPE
  6
BYLAYER
  9
$CECOLOR
 62
   256
  9
$CELTSCALE
 40
1.0
  9
$DELOBJ
 70
     1
  9
$DISPSILH
 70
     0
  9
$DIMSCALE
 40
1.0
  9
$DIMASZ
 40
0.18
  9
$DIMEXO
 40
0.0625
  9
$DIMDLI
 40
0.38
  9
$DIMRND
 40
0.0
  9
$DIMDLE
 40
0.0
  9
$DIMEXE
 40
0.18
  9
$DIMTP
 40
0.0
  9
$DIMTM
 40
0.0
  9
$DIMTXT
 40
0.18
  9
$DIMCEN
 40
0.09
  9
$DIMTSZ
 40
0.0
  9
$DIMTOL
 70
     0
  9
$DIMLIM
 70
     0
  9
$DIMTIH
 70
     1
  9
$DIMTOH
 70
     1
  9
$DIMSE1
 70
     0
  9
$DIMSE2
 70
     0
  9
$DIMTAD
 70
     0
  9
$DIMZIN
 70
     0
  9
$DIMBLK
  1

  9
$DIMASO
 70
     1
  9
$DIMSHO
 70
     1
  9
$DIMPOST
  1

  9
$DIMAPOST
  1

  9
$DIMALT
 70
     0
  9
$DIMALTD
 70
     2
  9
$DIMALTF
 40
25.4
  9
$DIMLFAC
 40
1.0
  9
$DIMTOFL
 70
     0
  9
$DIMTVP
 40
0.0
  9
$DIMTIX
 70
     0
  9
$DIMSOXD
 70
     0
  9
$DIMSAH
 70
     0
  9
$DIMBLK1
  1

  9
$DIMBLK2
  1

  9
$DIMSTYLE
  2
STANDARD
  9
$DIMCLRD
 70
     0
  9
$DIMCLRE
 70
     0
  9
$DIMCLRT
 70
     0
  9
$DIMTFAC
 40
1.0
  9
$DIMGAP
 40
0.09
  9
$DIMJUST
 70
     0
  9
$DIMSD1
 70
     0
  9
$DIMSD2
 70
     0
  9
$DIMTOLJ
 70
     1
  9
$DIMTZIN
 70
     0
  9
$DIMALTZ
 70
     0
  9
$DIMALTTZ
 70
     0
  9
$DIMFIT
 70
     3
  9
$DIMUPT
 70
     0
  9
$DIMUNIT
 70
     2
  9
$DIMDEC
 70
     4
  9
$DIMTDEC
 70
     4
  9
$DIMALTU
 70
     2
  9
$DIMALTTD
 70
     2
  9
$DIMTXSTY
  7
STANDARD
  9
$DIMAUNIT
 70
     0
  9
$LUNITS
 70
     2
  9
$LUPREC
 70
     0
  9
$SKETCHINC
 40
0.1
  9
$FILLETRAD
 40
0.5
  9
$AUNITS
 70
     0
  9
$AUPREC
 70
     0
  9
$MENU
  1
.
  9
$ELEVATION
 40
0.0
  9
$PELEVATION
 40
0.0
  9
$THICKNESS
 40
0.0
  9
$LIMCHECK
 70
     0
  9
$CHAMFERA
 40
0.5
  9
$CHAMFERB
 40
0.5
  9
$CHAMFERC
 40
1.0
  9
$CHAMFERD
 40
0.0
  9
$SKPOLY
 70
     0
  9
$TDCREATE
 40
2453769.508547662
  9
$TDUPDATE
 40
2453769.508547674
  9
$TDINDWG
 40
0.0000000116
  9
$TDUSRTIMER
 40
0.0000000116
  9
$USRTIMER
 70
     1
  9
$ANGBASE
 50
0.0
  9
$ANGDIR
 70
     0
  9
$PDMODE
 70
     0
  9
$PDSIZE
 40
0.0
  9
$PLINEWID
 40
0.0
  9
$COORDS
 70
     1
  9
$SPLFRAME
 70
     0
  9
$SPLINETYPE
 70
     6
  9
$SPLINESEGS
 70
     8
  9
$ATTDIA
 70
     0
  9
$ATTREQ
 70
     1
  9
$HANDLING
 70
     1
  9
$HANDSEED
  5
9F
  9
$SURFTAB1
 70
     6
  9
$SURFTAB2
 70
     6
  9
$SURFTYPE
 70
     6
  9
$SURFU
 70
     6
  9
$SURFV
 70
     6
  9
$UCSNAME
  2

  9
$UCSORG
 10
0.0
 20
0.0
 30
0.0
  9
$UCSXDIR
 10
1.0
 20
0.0
 30
0.0
  9
$UCSYDIR
 10
0.0
 20
1.0
 30
0.0
  9
$PUCSNAME
  2

  9
$PUCSORG
 10
0.0
 20
0.0
 30
0.0
  9
$PUCSXDIR
 10
1.0
 20
0.0
 30
0.0
  9
$PUCSYDIR
 10
0.0
 20
1.0
 30
0.0
  9
$USERI1
 70
     0
  9
$USERI2
 70
     0
  9
$USERI3
 70
     0
  9
$USERI4
 70
     0
  9
$USERI5
 70
     0
  9
$USERR1
 40
0.0
  9
$USERR2
 40
0.0
  9
$USERR3
 40
0.0
  9
$USERR4
 40
0.0
  9
$USERR5
 40
0.0
  9
$WORLDVIEW
 70
     1
  9
$SHADEDGE
 70
     3
  9
$SHADEDIF
 70
    70
  9
$TILEMODE
 70
     1
  9
$MAXACTVP
 70
    64
  9
$PINSBASE
 10
0.0
 20
0.0
 30
0.0
  9
$PLIMCHECK
 70
     0
  9
$PEXTMIN
 10
1.000000000000000E+20
 20
1.000000000000000E+20
 30
1.000000000000000E+20
  9
$PEXTMAX
 10
-1.000000000000000E+20
 20
-1.000000000000000E+20
 30
-1.000000000000000E+20
  9
$PLIMMIN
 10
0.0
 20
0.0
  9
$PLIMMAX
 10
12.0
 20
9.0
  9
$UNITMODE
 70
     0
  9
$VISRETAIN
 70
     1
  9
$PLINEGEN
 70
     0
  9
$PSLTSCALE
 70
     1
  9
$TREEDEPTH
 70
  3020
  9
$PICKSTYLE
 70
     1
  9
$CMLSTYLE
  2
STANDARD
  9
$CMLJUST
 70
     0
  9
$CMLSCALE
 40
1.0
  9
$PROXYGRAPHICS
 70
     1
  9
$MEASUREMENT
 70
     0
  0
ENDSEC
  0
SECTION
  2
CLASSES
  0
CLASS
  1
ACDBDICTIONARYWDFLT
  2
AcDbDictionaryWithDefault
  3
ObjectDBX Classes
 90
        0
280
     0
281
     0
  0
CLASS
  1
XRECORD
  2
AcDbXrecord
  3
AutoCAD 2000
 90
        0
280
     0
281
     0
  0
CLASS
  1
LWPOLYLINE
  2
AcDbPolyline
  3
AutoCAD 2000
 90
        0
280
     0
281
     1
  0
CLASS
  1
HATCH
  2
AcDbHatch
  3
AutoCAD 2000
 90
        0
280
     0
281
     1
  0
CLASS
  1
ACDBPLACEHOLDER
  2
AcDbPlaceHolder
  3
ObjectDBX Classes
 90
        0
280
     0
281
     0
  0
CLASS
  1
LAYOUT
  2
AcDbLayout
  3
ObjectDBX Classes
 90
        0
280
     0
281
     0
  0
ENDSEC
  0
SECTION
  2
TABLES
  0
TABLE
  2
VPORT
  5
8
330
0
100
AcDbSymbolTable
 70
     2
  0
VPORT
  5
29
102
{ACAD_XDICTIONARY
360
9D
102
}
330
8
100
AcDbSymbolTableRecord
100
AcDbViewportTableRecord
  2
*ACTIVE
 70
     0
 10
0.0
 20
0.0
 11
1.0
 21
1.0
 12
54.91775393568265
 22
43.11090512094437
 13
0.0
 23
0.0
 14
0.5
 24
0.5
 15
0.5
 25
0.5
 16
0.0
 26
0.0
 36
80.21230066091221
 17
0.0
 27
0.0
 37
0.0
 40
86.17644182431212
 41
1.972972972850329
 42
50.0
 43
0.0
 44
0.0
 50
0.0
 51
0.0
 71
     0
 72
   100
 73
     1
 74
     3
 75
     0
 76
     0
 77
     0
 78
     0
  0
ENDTAB
  0
TABLE
  2
LTYPE
  5
5
330
0
100
AcDbSymbolTable
 70
     1
  0
LTYPE
  5
14
330
5
100
AcDbSymbolTableRecord
100
AcDbLinetypeTableRecord
  2
BYBLOCK
 70
     0
  3

 72
    65
 73
     0
 40
0.0
  0
LTYPE
  5
15
330
5
100
AcDbSymbolTableRecord
100
AcDbLinetypeTableRecord
  2
BYLAYER
 70
     0
  3

 72
    65
 73
     0
 40
0.0
  0
LTYPE
  5
16
330
5
100
AcDbSymbolTableRecord
100
AcDbLinetypeTableRecord
  2
CONTINUOUS
 70
     0
  3
Solid line
 72
    65
 73
     0
 40
0.0
  0
ENDTAB
  0
TABLE
  2
LAYER
  5
2
330
0
100
AcDbSymbolTable
 70
     1
  0
LAYER
  5
10
330
2
100
AcDbSymbolTableRecord
100
AcDbLayerTableRecord
  2
0
 70
     0
 62
     7
  6
CONTINUOUS
  0
ENDTAB
  0
TABLE
  2
STYLE
  5
3
330
0
100
AcDbSymbolTable
 70
     1
  0
STYLE
  5
11
330
3
100
AcDbSymbolTableRecord
100
AcDbTextStyleTableRecord
  2
STANDARD
 70
     0
 40
0.0
 41
1.0
 50
0.0
 71
     0
 42
0.2
  3
txt
  4

  0
ENDTAB
  0
TABLE
  2
VIEW
  5
6
330
0
100
AcDbSymbolTable
 70
     0
  0
ENDTAB
  0
TABLE
  2
UCS
  5
7
330
0
100
AcDbSymbolTable
 70
     0
  0
ENDTAB
  0
TABLE
  2
APPID
  5
9
330
0
100
AcDbSymbolTable
 70
     1
  0
APPID
  5
12
330
9
100
AcDbSymbolTableRecord
100
AcDbRegAppTableRecord
  2
ACAD
 70
     0
  0
ENDTAB
  0
TABLE
  2
DIMSTYLE
  5
A
330
0
100
AcDbSymbolTable
 70
     1
  0
DIMSTYLE
105
27
330
A
100
AcDbSymbolTableRecord
100
AcDbDimStyleTableRecord
  2
STANDARD
 70
     0
  3

  4

  5

  6

  7

 40
1.0
 41
0.18
 42
0.0625
 43
0.38
 44
0.18
 45
0.0
 46
0.0
 47
0.0
 48
0.0
140
0.18
141
0.09
142
0.0
143
25.4
144
1.0
145
0.0
146
1.0
147
0.09
 71
     0
 72
     0
 73
     1
 74
     1
 75
     0
 76
     0
 77
     0
 78
     0
170
     0
171
     2
172
     0
173
     0
174
     0
175
     0
176
     0
177
     0
178
     0
270
     2
271
     4
272
     4
273
     2
274
     2
340
11
275
     0
280
     0
281
     0
282
     0
283
     1
284
     0
285
     0
286
     0
287
     3
288
     0
  0
ENDTAB
  0
TABLE
  2
BLOCK_RECORD
  5
1
330
0
100
AcDbSymbolTable
 70
     1
  0
BLOCK_RECORD
  5
1F
330
1
100
AcDbSymbolTableRecord
100
AcDbBlockTableRecord
  2
*MODEL_SPACE
  0
BLOCK_RECORD
  5
1B
330
1
100
AcDbSymbolTableRecord
100
AcDbBlockTableRecord
  2
*PAPER_SPACE
  0
ENDTAB
  0
ENDSEC
  0
SECTION
  2
BLOCKS
  0
BLOCK
  5
20
330
1F
100
AcDbEntity
  8
0
100
AcDbBlockBegin
  2
*MODEL_SPACE
 70
     0
 71
     0
 10
0.0
 20
0.0
 30
0.0
  3
*MODEL_SPACE
  1

  0
ENDBLK
  5
21
330
1F
100
AcDbEntity
  8
0
100
AcDbBlockEnd
  0
BLOCK
  5
1C
330
1B
100
AcDbEntity
 67
     1
  8
0
100
AcDbBlockBegin
  2
*PAPER_SPACE
 70
     0
 71
     0
 10
0.0
 20
0.0
 30
0.0
  3
*PAPER_SPACE
  1

  0
ENDBLK
  5
1D
330
1B
100
AcDbEntity
 67
     1
  8
0
100
AcDbBlockEnd
  0
ENDSEC
  0
SECTION
  2
ENTITIES
  0
LINE
  5
2A
330
1F
100
AcDbEntity
  8
0
 62
     7
100
AcDbLine
 10
77.33618799047714
 20
0.2101150866886723
 30
0.0
 11
81.11358799047716
 21
0.2101150866886723
 31
0.0
  0
LINE
  5
2B
330
1F
100
AcDbEntity
  8
0
 62
     7
100
AcDbLine
 10
83.85962799047719
 20
8.033427086688759
 30
0.0
 11
109.8596279904776
 21
8.033427086688759
 31
0.0
  0
LINE
  5
2C
330
1F
100
AcDbEntity
  8
0
 62
     7
100
AcDbLine
 10
83.85962799047719
 20
8.033427086688759
 30
0.0
 11
78.00570799047712
 21
23.28342708668896
 31
0.0
  0
LINE
  5
2D
330
1F
100
AcDbEntity
  8
0
 62
     7
100
AcDbLine
 10
109.6135879904775
 20
0.2031150866886611
 30
0.0
 11
109.4335879904776
 21
0.023115086688652
 31
0.0
  0
LINE
  5
2E
330
1F
100
AcDbEntity
  8
0
 62
     7
100
AcDbLine
 10
109.6135879904775
 20
2.023115086688679
 30
0.0
 11
109.6135879904775
 21
0.2031150866886611
 31
0.0
  0
LINE
  5
2F
330
1F
100
AcDbEntity
  8
0
 62
     7
100
AcDbLine
 10
105.6135879904775
 20
0.2031150866886611
 30
0.0
 11
105.6135879904775
 21
2.023115086688679
 31
0.0
  0
LINE
  5
30
330
1F
100
AcDbEntity
  8
0
 62
     7
100
AcDbLine
 10
80.92658799047716
 20
0.023115086688652
 30
0.0
 11
81.11358799047716
 21
0.2101150866886665
 31
0.0
  0
LINE
  5
31
330
1F
100
AcDbEntity
  8
0
 62
     7
100
AcDbLine
 10
105.6135879904775
 20
0.2031150866886611
 30
0.0
 11
105.7935879904775
 21
0.023115086688652
 31
0.0
  0
LINE
  5
32
330
1F
100
AcDbEntity
  8
0
 62
     7
100
AcDbLine
 10
81.11358799047716
 20
0.2101150866886665
 30
0.0
 11
81.11358799047716
 21
2.023115086688679
 31
0.0
  0
LINE
  5
33
330
1F
100
AcDbEntity
  8
0
 62
     7
100
AcDbLine
 10
76.86358799047711
 20
2.023115086688679
 30
0.0
 11
109.8635879904776
 21
2.023115086688679
 31
0.0
  0
LINE
  5
34
330
1F
100
AcDbEntity
  8
0
 62
     7
100
AcDbLine
 10
77.11358799047711
 20
2.023115086688679
 30
0.0
 11
77.33619599047714
 21
0.2101150866886665
 31
0.0
  0
LINE
  5
35
330
1F
100
AcDbEntity
  8
0
 62
     7
100
AcDbLine
 10
109.6135879904775
 20
0.2031150866886611
 30
0.0
 11
105.6135879904775
 21
0.2031150866886611
 31
0.0
  0
LINE
  5
36
330
1F
100
AcDbEntity
  8
0
 62
     7
100
AcDbLine
 10
77.52319599047712
 20
0.023115086688652
 30
0.0
 11
80.92658799047716
 21
0.023115086688652
 31
0.0
  0
LINE
  5
37
330
1F
100
AcDbEntity
  8
0
 62
     7
100
AcDbLine
 10
109.4335879904776
 20
0.023115086688652
 30
0.0
 11
105.7935879904775
 21
0.023115086688652
 31
0.0
  0
LINE
  5
38
330
1F
100
AcDbEntity
  8
0
 62
     7
100
AcDbLine
 10
77.52319599047712
 20
0.023115086688652
 30
0.0
 11
77.33619599047714
 21
0.2101150866886665
 31
0.0
  0
ARC
  5
39
330
1F
100
AcDbEntity
  8
0
 62
     7
100
AcDbCircle
 10
73.63717999047711
 20
22.47311508668892
 30
0.0
 40
0.8000000000000404
100
AcDbArc
 50
90.00000000000203
 51
191.1802459999977
  0
LINE
  5
3A
330
1F
100
AcDbEntity
  8
0
 62
     7
100
AcDbLine
 10
73.63717999047708
 20
23.27311508668896
 30
0.0
 11
78.00570799047712
 21
23.27311508668896
 31
0.0
  0
LINE
  5
3B
330
1F
100
AcDbEntity
  8
0
 62
     7
100
AcDbLine
 10
72.85236399047706
 20
22.31799508668896
 30
0.0
 11
76.86358799047711
 21
2.02311508668868
 31
0.0
  0
ARC
  5
3C
330
1F
100
AcDbEntity
  8
0
 62
     7
100
AcDbCircle
 10
77.01305199047714
 20
28.10172308668903
 30
0.0
 40
0.8000000000000181
100
AcDbArc
 50
111.0000110000006
 51
201.0000329999976
  0
LINE
  5
3D
330
1F
100
AcDbEntity
  8
0
 62
     7
100
AcDbLine
 10
76.26618799047712
 20
27.81502708668903
 30
0.0
 11
78.00570799047712
 21
23.28342708668896
 31
0.0
  0
ARC
  5
3E
330
1F
100
AcDbEntity
  8
0
 62
     7
100
AcDbCircle
 10
81.12080399047714
 20
29.67853908668901
 30
0.0
 40
0.8000000000000397
100
AcDbArc
 50
21.00000000000358
 51
111.0000109999978
  0
LINE
  5
3F
330
1F
100
AcDbEntity
  8
0
 62
     7
100
AcDbLine
 10
76.72635599047712
 20
28.84858708668903
 30
0.0
 11
80.83410799047717
 21
30.42540308668907
 31
0.0
  0
LINE
  5
40
330
1F
100
AcDbEntity
  8
0
 62
     7
100
AcDbLine
 10
81.86766799047717
 20
29.96523508668905
 30
0.0
 11
84.4325719904772
 21
23.28342708668896
 31
0.0
  0
ARC
  5
41
330
1F
100
AcDbEntity
  8
0
 62
     7
100
AcDbCircle
 10
109.0635879904775
 20
22.47311508668896
 30
0.0
 40
0.8000000000000181
100
AcDbArc
 50
359.999999999999
 51
90.0
  0
LINE
  5
42
330
1F
100
AcDbEntity
  8
0
 62
     7
100
AcDbLine
 10
84.43653199047722
 20
23.27311508668896
 30
0.0
 11
109.0635879904775
 21
23.27311508668896
 31
0.0
  0
ARC
  5
43
330
1F
100
AcDbEntity
  8
0
 62
     7
100
AcDbCircle
 10
109.0635879904775
 20
14.35842708668884
 30
0.0
 40
0.8000000000000181
100
AcDbArc
 50
359.9999999999995
 51
90.0
  0
LINE
  5
44
330
1F
100
AcDbEntity
  8
0
 62
     7
100
AcDbLine
 10
109.8635879904776
 20
2.023115086688679
 30
0.0
 11
109.8635879904776
 21
14.35842708668883
 31
0.0
  0
LINE
  5
45
330
1F
100
AcDbEntity
  8
0
 62
     7
100
AcDbLine
 10
109.8635879904776
 20
22.47311508668894
 30
0.0
 11
109.8635879904776
 21
14.35842708668883
 31
0.0
  0
LINE
  5
46
330
1F
100
AcDbEntity
  8
0
 62
     7
100
AcDbLine
 10
60.22191988088778
 20
0.2031150866886788
 30
0.0
 11
60.04191988088778
 21
0.0231150866886791
 31
0.0
  0
LINE
  5
47
330
1F
100
AcDbEntity
  8
0
 62
     7
100
AcDbLine
 10
-0.0280801191122491
 20
29.9120990866887
 30
0.0
 11
-0.0280801191122491
 21
14.34811508668869
 31
0.0
  0
LINE
  5
48
330
1F
100
AcDbEntity
  8
0
 62
     7
100
AcDbLine
 10
-0.0280801191122491
 20
14.34811508668869
 30
0.0
 11
-0.0280801191122491
 21
2.023115086688678
 31
0.0
  0
LINE
  5
49
330
1F
100
AcDbEntity
  8
0
 62
     7
100
AcDbLine
 10
53.97191988088778
 20
15.14811508668869
 30
0.0
 11
0.7719198808877579
 21
15.14811508668869
 31
0.0
  0
ARC
  5
4A
330
1F
100
AcDbEntity
  8
0
 62
     7
100
AcDbCircle
 10
0.7719198808877605
 20
14.34811508668869
 30
0.0
 40
0.8000000000000004
100
AcDbArc
 50
90.0
 51
179.9999999999987
  0
LINE
  5
4B
330
1F
100
AcDbEntity
  8
0
 62
     7
100
AcDbLine
 10
57.17191988088778
 20
30.7120990866887
 30
0.0
 11
0.7719198808877579
 21
30.7120990866887
 31
0.0
  0
ARC
  5
4C
330
1F
100
AcDbEntity
  8
0
 62
     7
100
AcDbCircle
 10
0.7719198808877716
 20
29.91209908668868
 30
0.0
 40
0.8000000000000115
100
AcDbArc
 50
90.0000000000008
 51
179.9999999999985
  0
LINE
  5
4D
330
1F
100
AcDbEntity
  8
0
 62
     7
100
AcDbLine
 10
57.97191988088778
 20
29.9120990866887
 30
0.0
 11
57.97191988088778
 21
23.28342708668869
 31
0.0
  0
ARC
  5
4E
330
1F
100
AcDbEntity
  8
0
 62
     7
100
AcDbCircle
 10
57.17191988088776
 20
29.91209908668869
 30
0.0
 40
0.8000000000000004
100
AcDbArc
 50
359.9999999999995
 51
89.99999999999898
  0
LINE
  5
4F
330
1F
100
AcDbEntity
  8
0
 62
     7
100
AcDbLine
 10
53.97191988088778
 20
22.47311508668869
 30
0.0
 11
53.97191988088778
 21
2.02311508668868
 31
0.0
  0
LINE
  5
50
330
1F
100
AcDbEntity
  8
0
 62
     7
100
AcDbLine
 10
59.67191988088777
 20
23.27311508668869
 30
0.0
 11
54.77191988088777
 21
23.27311508668869
 31
0.0
  0
ARC
  5
51
330
1F
100
AcDbEntity
  8
0
 62
     7
100
AcDbCircle
 10
54.77191988088778
 20
22.47311508668867
 30
0.0
 40
0.8000000000000093
100
AcDbArc
 50
90.0
 51
179.9999999999987
  0
LINE
  5
52
330
1F
100
AcDbEntity
  8
0
 62
     7
100
AcDbLine
 10
60.47191988088778
 20
2.023115086688679
 30
0.0
 11
60.47191988088778
 21
22.47311508668869
 31
0.0
  0
ARC
  5
53
330
1F
100
AcDbEntity
  8
0
 62
     7
100
AcDbCircle
 10
59.67191988088779
 20
22.47311508668869
 30
0.0
 40
0.8000000000000004
100
AcDbArc
 50
359.9999999999995
 51
90.0
  0
LINE
  5
54
330
1F
100
AcDbEntity
  8
0
 62
     7
100
AcDbLine
 10
60.47191988088778
 20
2.023115086688679
 30
0.0
 11
-0.0280801191122464
 21
2.023115086688679
 31
0.0
  0
LINE
  5
55
330
1F
100
AcDbEntity
  8
0
 62
     7
100
AcDbLine
 10
0.2609278808877571
 20
0.2031150866886851
 30
0.0
 11
0.440927880887755
 21
0.0231150866886785
 31
0.0
  0
LINE
  5
56
330
1F
100
AcDbEntity
  8
0
 62
     7
100
AcDbLine
 10
0.2609278808877571
 20
2.023115086688679
 30
0.0
 11
0.2609278808877571
 21
0.2031150866886851
 31
0.0
  0
LINE
  5
57
330
1F
100
AcDbEntity
  8
0
 62
     7
100
AcDbLine
 10
6.080927880887755
 20
0.0231150866886785
 30
0.0
 11
0.440927880887755
 21
0.0231150866886785
 31
0.0
  0
LINE
  5
58
330
1F
100
AcDbEntity
  8
0
 62
     7
100
AcDbLine
 10
6.260927880887762
 20
0.2031150866886851
 30
0.0
 11
0.2609278808877571
 21
0.2031150866886851
 31
0.0
  0
LINE
  5
59
330
1F
100
AcDbEntity
  8
0
 62
     7
100
AcDbLine
 10
6.260927880887762
 20
0.2031150866886851
 30
0.0
 11
6.080927880887755
 21
0.0231150866886785
 31
0.0
  0
LINE
  5
5A
330
1F
100
AcDbEntity
  8
0
 62
     7
100
AcDbLine
 10
6.260927880887762
 20
2.023115086688679
 30
0.0
 11
6.260927880887762
 21
0.2031150866886851
 31
0.0
  0
LINE
  5
5B
330
1F
100
AcDbEntity
  8
0
 62
     7
100
AcDbLine
 10
60.22191988088778
 20
2.023115086688679
 30
0.0
 11
60.22191988088778
 21
0.2031150866886851
 31
0.0
  0
LINE
  5
5C
330
1F
100
AcDbEntity
  8
0
 62
     7
100
AcDbLine
 10
54.22191988088777
 20
2.023115086688679
 30
0.0
 11
54.22191988088777
 21
0.2031150866886851
 31
0.0
  0
LINE
  5
5D
330
1F
100
AcDbEntity
  8
0
 62
     7
100
AcDbLine
 10
60.04191988088778
 20
0.0231150866886785
 30
0.0
 11
54.40191988088778
 21
0.0231150866886785
 31
0.0
  0
LINE
  5
5E
330
1F
100
AcDbEntity
  8
0
 62
     7
100
AcDbLine
 10
60.22191988088778
 20
0.2031150866886851
 30
0.0
 11
54.22191988088777
 21
0.2031150866886851
 31
0.0
  0
LINE
  5
5F
330
1F
100
AcDbEntity
  8
0
 62
     7
100
AcDbLine
 10
54.22191988088777
 20
0.2031150866886851
 30
0.0
 11
54.40191988088778
 21
0.0231150866886785
 31
0.0
  0
LINE
  5
60
330
1F
100
AcDbEntity
  8
0
 62
     7
100
AcDbLine
 10
53.97191988088778
 20
8.02311508668868
 30
0.0
 11
-0.0280801191122464
 21
8.02311508668868
 31
0.0
  0
LINE
  5
61
330
1F
100
AcDbEntity
  8
0
 62
     7
100
AcDbLine
 10
26.97191988088777
 20
30.7120990866887
 30
0.0
 11
26.97191988088777
 21
8.023115086688684
 31
0.0
  0
LINE
  5
62
330
1F
100
AcDbEntity
  8
0
 62
     7
100
AcDbLine
 10
53.97191988088779
 20
71.44819656463321
 30
0.0
 11
53.97191988088779
 21
50.18802127157012
 31
0.0
  0
LINE
  5
63
330
1F
100
AcDbEntity
  8
0
 62
     7
100
AcDbLine
 10
57.97191988088778
 20
74.61507894886049
 30
0.0
 11
57.97191988088778
 21
76.41537529761708
 31
0.0
  0
LINE
  5
64
330
1F
100
AcDbEntity
  8
0
 62
     7
100
AcDbLine
 10
53.97191988088779
 20
74.61507894886053
 30
0.0
 11
57.97191988088778
 21
74.61507894886049
 31
0.0
  0
LINE
  5
65
330
1F
100
AcDbEntity
  8
0
 62
     7
100
AcDbLine
 10
53.97191988088779
 20
71.44819656463321
 30
0.0
 11
53.97191988088779
 21
74.61507894886053
 31
0.0
  0
ARC
  5
66
330
1F
100
AcDbEntity
  8
0
 62
     7
100
AcDbCircle
 10
59.47191988088766
 20
85.19869515519997
 30
0.0
 40
1.000000000000112
100
AcDbArc
 50
359.9999999999935
 51
90.00000000000651
  0
ARC
  5
67
330
1F
100
AcDbEntity
  8
0
 62
     7
100
AcDbCircle
 10
59.47191988088763
 20
50.18802127157004
 30
0.0
 40
1.000000000000147
100
AcDbArc
 50
269.9999999999939
 51
0.0000000000044782
  0
LINE
  5
68
330
1F
100
AcDbEntity
  8
0
 62
     7
100
AcDbLine
 10
60.47191988088778
 20
50.18802127157012
 30
0.0
 11
60.47191988088778
 21
85.19869515519986
 31
0.0
  0
ARC
  5
69
330
1F
100
AcDbEntity
  8
0
 62
     7
100
AcDbCircle
 10
54.97191988088786
 20
50.18802127156995
 30
0.0
 40
1.000000000000067
100
AcDbArc
 50
179.9999999999907
 51
270.0000000000106
  0
LINE
  5
6A
330
1F
100
AcDbEntity
  8
0
 62
     7
100
AcDbLine
 10
54.97191988088805
 20
49.18802127156989
 30
0.0
 11
59.47191988088752
 21
49.18802127156989
 31
0.0
  0
LINE
  5
6B
330
1F
100
AcDbEntity
  8
0
 62
     7
100
AcDbLine
 10
53.97191988088779
 20
74.61507894886053
 30
0.0
 11
53.97191988088779
 21
50.18802127157012
 31
0.0
  0
ARC
  5
6C
330
1F
100
AcDbEntity
  8
0
 62
     7
100
AcDbCircle
 10
56.9719198808877
 20
81.78796219692607
 30
0.0
 40
1.000000000000085
100
AcDbArc
 50
359.9999999999935
 51
90.00000000000856
  0
ARC
  5
6D
330
1F
100
AcDbEntity
  8
0
 62
     7
100
AcDbCircle
 10
52.97191988088765
 20
50.18802127157002
 30
0.0
 40
1.000000000000129
100
AcDbArc
 50
269.9999999999943
 51
0.0000000000052924
  0
ARC
  5
6E
330
1F
100
AcDbEntity
  8
0
 62
     7
100
AcDbCircle
 10
56.97191988088757
 20
76.41537529761679
 30
0.0
 40
1.000000000000227
100
AcDbArc
 50
0.0000000000162844
 51
90.00000000000041
  0
LINE
  5
6F
330
1F
100
AcDbEntity
  8
0
 62
     7
100
AcDbLine
 10
57.97191988088778
 20
81.78796219692597
 30
0.0
 11
57.97191988088778
 21
76.41537529761708
 31
0.0
  0
ARC
  5
70
330
1F
100
AcDbEntity
  8
0
 62
     7
100
AcDbCircle
 10
25.97191988088768
 20
50.18802127157002
 30
0.0
 40
1.000000000000129
100
AcDbArc
 50
269.9999999999941
 51
0.0000000000069209
  0
ARC
  5
71
330
1F
100
AcDbEntity
  8
0
 62
     7
100
AcDbCircle
 10
27.97191988088794
 20
50.18802127157004
 30
0.0
 40
1.000000000000147
100
AcDbArc
 50
179.9999999999943
 51
270.0000000000047
  0
ARC
  5
72
330
1F
100
AcDbEntity
  8
0
 62
     7
100
AcDbCircle
 10
0.9719198808879606
 20
50.18802127157004
 30
0.0
 40
1.000000000000156
100
AcDbArc
 50
179.9999999999947
 51
270.0000000000046
  0
LINE
  5
73
330
1F
100
AcDbEntity
  8
0
 62
     7
100
AcDbLine
 10
-0.0280801191121869
 20
50.18802127157002
 30
0.0
 11
-0.0280801191121869
 21
86.19869515520009
 31
0.0
  0
LINE
  5
74
330
1F
100
AcDbEntity
  8
0
 62
     7
100
AcDbLine
 10
52.97191988088756
 20
49.18802127156989
 30
0.0
 11
27.97191988088802
 21
49.18802127156989
 31
0.0
  0
LINE
  5
75
330
1F
100
AcDbEntity
  8
0
 62
     7
100
AcDbLine
 10
25.97191988088757
 20
49.18802127156989
 30
0.0
 11
0.9719198808880414
 21
49.18802127156989
 31
0.0
  0
LINE
  5
76
330
1F
100
AcDbEntity
  8
0
 62
     7
100
AcDbLine
 10
26.9719198808878
 20
50.18802127157001
 30
0.0
 11
26.9719198808878
 21
86.19869515520009
 31
0.0
  0
LINE
  5
77
330
1F
100
AcDbEntity
  8
0
 62
     7
100
AcDbLine
 10
-0.0280801191121958
 20
71.44819656463321
 30
0.0
 11
53.97191988088779
 21
71.44819656463321
 31
0.0
  0
LINE
  5
78
330
1F
100
AcDbEntity
  8
0
 62
     7
100
AcDbLine
 10
56.97191988088756
 20
77.41537529761702
 30
0.0
 11
-0.0280801191121896
 21
77.41537529761702
 31
0.0
  0
LINE
  5
79
330
1F
100
AcDbEntity
  8
0
 62
     7
100
AcDbLine
 10
56.97191988088756
 20
82.78796219692616
 30
0.0
 11
-0.0280801191121896
 21
82.78796219692616
 31
0.0
  0
LINE
  5
7A
330
1F
100
AcDbEntity
  8
0
 62
     7
100
AcDbLine
 10
59.47191988088755
 20
86.19869515520009
 30
0.0
 11
-0.0280801191121753
 21
86.19869515520009
 31
0.0
  0
LINE
  5
7B
330
1F
100
AcDbEntity
  8
0
 62
     7
100
AcDbLine
 10
84.4325719904772
 20
23.28342708668896
 30
0.0
 11
90.28649986740039
 21
8.033427086688759
 31
0.0
  0
LINE
  5
7C
330
1F
100
AcDbEntity
  8
0
 62
     7
100
AcDbLine
 10
87.55146799047726
 20
15.15842708668886
 30
0.0
 11
109.0635879904775
 21
15.15842708668886
 31
0.0
  0
ENDSEC
  0
SECTION
  2
OBJECTS
  0
DICTIONARY
  5
C
330
0
100
AcDbDictionary
  3
ACAD_GROUP
350
D
  3
ACAD_LAYOUT
350
1A
  3
ACAD_MLINESTYLE
350
17
  3
ACAD_PLOTSETTINGS
350
19
  3
ACDBHEADERROUNDTRIPXREC
350
7D
  0
DICTIONARY
  5
9D
330
29
100
AcDbDictionary
280
     1
  3
ACAD_XREC_ROUNDTRIP
360
9E
  0
DICTIONARY
  5
D
102
{ACAD_REACTORS
330
C
102
}
330
C
100
AcDbDictionary
  0
DICTIONARY
  5
1A
102
{ACAD_REACTORS
330
C
102
}
330
C
100
AcDbDictionary
  0
DICTIONARY
  5
17
102
{ACAD_REACTORS
330
C
102
}
330
C
100
AcDbDictionary
  3
STANDARD
350
18
  0
DICTIONARY
  5
19
102
{ACAD_REACTORS
330
C
102
}
330
C
100
AcDbDictionary
  0
DICTIONARY
  5
7D
102
{ACAD_REACTORS
330
C
102
}
330
C
100
AcDbDictionary
  3
CEPSNTYPE
350
86
  3
DIMSTYLEDATA
350
9C
  3
FINGERPRINTGUID
350
87
  3
HYPERLINKBASE
350
80
  3
INSUNITS
350
85
  3
LAYOUTDICT
350
82
  3
LWETCUNION
350
84
  3
PLOTSETDICT
350
83
  3
PSVPSCALE
350
89
  3
PUCSBASE
350
8C
  3
PUCSORGBACK
350
92
  3
PUCSORGBOTTOM
350
8E
  3
PUCSORGFRONT
350
91
  3
PUCSORGLEFT
350
8F
  3
PUCSORGRIGHT
350
90
  3
PUCSORGTOP
350
8D
  3
PUCSORTHOREF
350
8A
  3
PUCSORTHOVIEW
350
8B
  3
STYLESHEET
350
81
  3
TSTACKALIGN
350
7E
  3
TSTACKSIZE
350
7F
  3
UCSBASE
350
95
  3
UCSORGBACK
350
9B
  3
UCSORGBOTTOM
350
97
  3
UCSORGFRONT
350
9A
  3
UCSORGLEFT
350
98
  3
UCSORGRIGHT
350
99
  3
UCSORGTOP
350
96
  3
UCSORTHOREF
350
93
  3
UCSORTHOVIEW
350
94
  3
VERSIONGUID
350
88
  0
XRECORD
  5
9E
102
{ACAD_REACTORS
330
9D
102
}
330
9D
100
AcDbXrecord
102
UCS
 74
     0
 71
     1
 10
0.0
 20
0.0
 30
0.0
 10
1.0
 20
0.0
 30
0.0
 10
0.0
 20
1.0
 30
0.0
146
0.0
 79
     0
102
VIEW
281
     0
  0
MLINESTYLE
  5
18
102
{ACAD_REACTORS
330
17
102
}
330
17
100
AcDbMlineStyle
  2
Standard
 70
     0
  3

 62
   256
 51
90.0
 52
90.0
 71
     2
 49
0.5
 62
   256
  6
BYLAYER
 49
-0.5
 62
   256
  6
BYLAYER
  0
XRECORD
  5
86
102
{ACAD_REACTORS
330
7D
102
}
330
7D
100
AcDbXrecord
 90
        0
  0
XRECORD
  5
9C
102
{ACAD_REACTORS
330
7D
102
}
330
7D
100
AcDbXrecord
1000
DSTYLE
1002
{
1070
   340
340
11
1002
}
  0
XRECORD
  5
87
102
{ACAD_REACTORS
330
7D
102
}
330
7D
100
AcDbXrecord
  1
{FAEB1C30-E019-11D5-929B-00C0DF256EC4}
  0
XRECORD
  5
80
102
{ACAD_REACTORS
330
7D
102
}
330
7D
100
AcDbXrecord
  1

  0
XRECORD
  5
85
102
{ACAD_REACTORS
330
7D
102
}
330
7D
100
AcDbXrecord
 90
        4
  0
XRECORD
  5
82
102
{ACAD_REACTORS
330
7D
102
}
330
7D
100
AcDbXrecord
340
1A
  0
XRECORD
  5
84
102
{ACAD_REACTORS
330
7D
102
}
330
7D
100
AcDbXrecord
 90
     2560
  0
XRECORD
  5
83
102
{ACAD_REACTORS
330
7D
102
}
330
7D
100
AcDbXrecord
340
19
  0
XRECORD
  5
89
102
{ACAD_REACTORS
330
7D
102
}
330
7D
100
AcDbXrecord
 40
0.0
  0
XRECORD
  5
8C
102
{ACAD_REACTORS
330
7D
102
}
330
7D
100
AcDbXrecord
340
0
  0
XRECORD
  5
92
102
{ACAD_REACTORS
330
7D
102
}
330
7D
100
AcDbXrecord
 10
0.0
 20
0.0
 30
0.0
  0
XRECORD
  5
8E
102
{ACAD_REACTORS
330
7D
102
}
330
7D
100
AcDbXrecord
 10
0.0
 20
0.0
 30
0.0
  0
XRECORD
  5
91
102
{ACAD_REACTORS
330
7D
102
}
330
7D
100
AcDbXrecord
 10
0.0
 20
0.0
 30
0.0
  0
XRECORD
  5
8F
102
{ACAD_REACTORS
330
7D
102
}
330
7D
100
AcDbXrecord
 10
0.0
 20
0.0
 30
0.0
  0
XRECORD
  5
90
102
{ACAD_REACTORS
330
7D
102
}
330
7D
100
AcDbXrecord
 10
0.0
 20
0.0
 30
0.0
  0
XRECORD
  5
8D
102
{ACAD_REACTORS
330
7D
102
}
330
7D
100
AcDbXrecord
 10
0.0
 20
0.0
 30
0.0
  0
XRECORD
  5
8A
102
{ACAD_REACTORS
330
7D
102
}
330
7D
100
AcDbXrecord
340
0
  0
XRECORD
  5
8B
102
{ACAD_REACTORS
330
7D
102
}
330
7D
100
AcDbXrecord
 70
     0
  0
XRECORD
  5
81
102
{ACAD_REACTORS
330
7D
102
}
330
7D
100
AcDbXrecord
  1

  0
XRECORD
  5
7E
102
{ACAD_REACTORS
330
7D
102
}
330
7D
100
AcDbXrecord
 90
        1
  0
XRECORD
  5
7F
102
{ACAD_REACTORS
330
7D
102
}
330
7D
100
AcDbXrecord
 90
       70
  0
XRECORD
  5
95
102
{ACAD_REACTORS
330
7D
102
}
330
7D
100
AcDbXrecord
340
0
  0
XRECORD
  5
9B
102
{ACAD_REACTORS
330
7D
102
}
330
7D
100
AcDbXrecord
 10
0.0
 20
0.0
 30
0.0
  0
XRECORD
  5
97
102
{ACAD_REACTORS
330
7D
102
}
330
7D
100
AcDbXrecord
 10
0.0
 20
0.0
 30
0.0
  0
XRECORD
  5
9A
102
{ACAD_REACTORS
330
7D
102
}
330
7D
100
AcDbXrecord
 10
0.0
 20
0.0
 30
0.0
  0
XRECORD
  5
98
102
{ACAD_REACTORS
330
7D
102
}
330
7D
100
AcDbXrecord
 10
0.0
 20
0.0
 30
0.0
  0
XRECORD
  5
99
102
{ACAD_REACTORS
330
7D
102
}
330
7D
100
AcDbXrecord
 10
0.0
 20
0.0
 30
0.0
  0
XRECORD
  5
96
102
{ACAD_REACTORS
330
7D
102
}
330
7D
100
AcDbXrecord
 10
0.0
 20
0.0
 30
0.0
  0
XRECORD
  5
93
102
{ACAD_REACTORS
330
7D
102
}
330
7D
100
AcDbXrecord
340
0
  0
XRECORD
  5
94
102
{ACAD_REACTORS
330
7D
102
}
330
7D
100
AcDbXrecord
 70
     0
  0
XRECORD
  5
88
102
{ACAD_REACTORS
330
7D
102
}
330
7D
100
AcDbXrecord
  1
{FAEB1C32-E019-11D5-929B-00C0DF256EC4}
  0
ENDSEC
  0
EOF
