  0
SECTION
  2
HEADER
  9
$ACADVER
  1
AC1014
  9
$ACADMAINTVER
 70
     9
  9
$DWGCODEPAGE
  3
ANSI_1252
  9
$INSBASE
 10
0.0
 20
0.0
 30
0.0
  9
$EXTMIN
 10
1.000000000000000E+20
 20
1.000000000000000E+20
 30
1.000000000000000E+20
  9
$EXTMAX
 10
-1.000000000000000E+20
 20
-1.000000000000000E+20
 30
-1.000000000000000E+20
  9
$LIMMIN
 10
0.0
 20
0.0
  9
$LIMMAX
 10
12.0
 20
9.0
  9
$ORTHOMODE
 70
     0
  9
$REGENMODE
 70
     1
  9
$FILLMODE
 70
     1
  9
$QTEXTMODE
 70
     0
  9
$MIRRTEXT
 70
     1
  9
$DRAGMODE
 70
     2
  9
$LTSCALE
 40
1.0
  9
$OSMODE
 70
    37
  9
$ATTMODE
 70
     1
  9
$TEXTSIZE
 40
0.2
  9
$TRACEWID
 40
0.05
  9
$TEXTSTYLE
  7
STANDARD
  9
$CLAYER
  8
0
  9
$CELTYPE
  6
BYLAYER
  9
$CECOLOR
 62
   256
  9
$CELTSCALE
 40
1.0
  9
$DELOBJ
 70
     1
  9
$DISPSILH
 70
     0
  9
$DIMSCALE
 40
1.0
  9
$DIMASZ
 40
0.18
  9
$DIMEXO
 40
0.0625
  9
$DIMDLI
 40
0.38
  9
$DIMRND
 40
0.0
  9
$DIMDLE
 40
0.0
  9
$DIMEXE
 40
0.18
  9
$DIMTP
 40
0.0
  9
$DIMTM
 40
0.0
  9
$DIMTXT
 40
0.18
  9
$DIMCEN
 40
0.09
  9
$DIMTSZ
 40
0.0
  9
$DIMTOL
 70
     0
  9
$DIMLIM
 70
     0
  9
$DIMTIH
 70
     1
  9
$DIMTOH
 70
     1
  9
$DIMSE1
 70
     0
  9
$DIMSE2
 70
     0
  9
$DIMTAD
 70
     0
  9
$DIMZIN
 70
     0
  9
$DIMBLK
  1

  9
$DIMASO
 70
     1
  9
$DIMSHO
 70
     1
  9
$DIMPOST
  1

  9
$DIMAPOST
  1

  9
$DIMALT
 70
     0
  9
$DIMALTD
 70
     2
  9
$DIMALTF
 40
25.4
  9
$DIMLFAC
 40
1.0
  9
$DIMTOFL
 70
     0
  9
$DIMTVP
 40
0.0
  9
$DIMTIX
 70
     0
  9
$DIMSOXD
 70
     0
  9
$DIMSAH
 70
     0
  9
$DIMBLK1
  1

  9
$DIMBLK2
  1

  9
$DIMSTYLE
  2
STANDARD
  9
$DIMCLRD
 70
     0
  9
$DIMCLRE
 70
     0
  9
$DIMCLRT
 70
     0
  9
$DIMTFAC
 40
1.0
  9
$DIMGAP
 40
0.09
  9
$DIMJUST
 70
     0
  9
$DIMSD1
 70
     0
  9
$DIMSD2
 70
     0
  9
$DIMTOLJ
 70
     1
  9
$DIMTZIN
 70
     0
  9
$DIMALTZ
 70
     0
  9
$DIMALTTZ
 70
     0
  9
$DIMFIT
 70
     3
  9
$DIMUPT
 70
     0
  9
$DIMUNIT
 70
     2
  9
$DIMDEC
 70
     4
  9
$DIMTDEC
 70
     4
  9
$DIMALTU
 70
     2
  9
$DIMALTTD
 70
     2
  9
$DIMTXSTY
  7
STANDARD
  9
$DIMAUNIT
 70
     0
  9
$LUNITS
 70
     2
  9
$LUPREC
 70
     0
  9
$SKETCHINC
 40
0.1
  9
$FILLETRAD
 40
0.5
  9
$AUNITS
 70
     0
  9
$AUPREC
 70
     0
  9
$MENU
  1
.
  9
$ELEVATION
 40
0.0
  9
$PELEVATION
 40
0.0
  9
$THICKNESS
 40
0.0
  9
$LIMCHECK
 70
     0
  9
$CHAMFERA
 40
0.5
  9
$CHAMFERB
 40
0.5
  9
$CHAMFERC
 40
1.0
  9
$CHAMFERD
 40
0.0
  9
$SKPOLY
 70
     0
  9
$TDCREATE
 40
2453769.508973542
  9
$TDUPDATE
 40
2453769.508973553
  9
$TDINDWG
 40
0.0000000116
  9
$TDUSRTIMER
 40
0.0000000116
  9
$USRTIMER
 70
     1
  9
$ANGBASE
 50
0.0
  9
$ANGDIR
 70
     0
  9
$PDMODE
 70
     0
  9
$PDSIZE
 40
0.0
  9
$PLINEWID
 40
0.0
  9
$COORDS
 70
     1
  9
$SPLFRAME
 70
     0
  9
$SPLINETYPE
 70
     6
  9
$SPLINESEGS
 70
     8
  9
$ATTDIA
 70
     0
  9
$ATTREQ
 70
     1
  9
$HANDLING
 70
     1
  9
$HANDSEED
  5
A1
  9
$SURFTAB1
 70
     6
  9
$SURFTAB2
 70
     6
  9
$SURFTYPE
 70
     6
  9
$SURFU
 70
     6
  9
$SURFV
 70
     6
  9
$UCSNAME
  2

  9
$UCSORG
 10
0.0
 20
0.0
 30
0.0
  9
$UCSXDIR
 10
1.0
 20
0.0
 30
0.0
  9
$UCSYDIR
 10
0.0
 20
1.0
 30
0.0
  9
$PUCSNAME
  2

  9
$PUCSORG
 10
0.0
 20
0.0
 30
0.0
  9
$PUCSXDIR
 10
1.0
 20
0.0
 30
0.0
  9
$PUCSYDIR
 10
0.0
 20
1.0
 30
0.0
  9
$USERI1
 70
     0
  9
$USERI2
 70
     0
  9
$USERI3
 70
     0
  9
$USERI4
 70
     0
  9
$USERI5
 70
     0
  9
$USERR1
 40
0.0
  9
$USERR2
 40
0.0
  9
$USERR3
 40
0.0
  9
$USERR4
 40
0.0
  9
$USERR5
 40
0.0
  9
$WORLDVIEW
 70
     1
  9
$SHADEDGE
 70
     3
  9
$SHADEDIF
 70
    70
  9
$TILEMODE
 70
     1
  9
$MAXACTVP
 70
    64
  9
$PINSBASE
 10
0.0
 20
0.0
 30
0.0
  9
$PLIMCHECK
 70
     0
  9
$PEXTMIN
 10
1.000000000000000E+20
 20
1.000000000000000E+20
 30
1.000000000000000E+20
  9
$PEXTMAX
 10
-1.000000000000000E+20
 20
-1.000000000000000E+20
 30
-1.000000000000000E+20
  9
$PLIMMIN
 10
0.0
 20
0.0
  9
$PLIMMAX
 10
12.0
 20
9.0
  9
$UNITMODE
 70
     0
  9
$VISRETAIN
 70
     1
  9
$PLINEGEN
 70
     0
  9
$PSLTSCALE
 70
     1
  9
$TREEDEPTH
 70
  3020
  9
$PICKSTYLE
 70
     1
  9
$CMLSTYLE
  2
STANDARD
  9
$CMLJUST
 70
     0
  9
$CMLSCALE
 40
1.0
  9
$PROXYGRAPHICS
 70
     1
  9
$MEASUREMENT
 70
     0
  0
ENDSEC
  0
SECTION
  2
CLASSES
  0
CLASS
  1
ACDBDICTIONARYWDFLT
  2
AcDbDictionaryWithDefault
  3
ObjectDBX Classes
 90
        0
280
     0
281
     0
  0
CLASS
  1
XRECORD
  2
AcDbXrecord
  3
AutoCAD 2000
 90
        0
280
     0
281
     0
  0
CLASS
  1
LWPOLYLINE
  2
AcDbPolyline
  3
AutoCAD 2000
 90
        0
280
     0
281
     1
  0
CLASS
  1
HATCH
  2
AcDbHatch
  3
AutoCAD 2000
 90
        0
280
     0
281
     1
  0
CLASS
  1
ACDBPLACEHOLDER
  2
AcDbPlaceHolder
  3
ObjectDBX Classes
 90
        0
280
     0
281
     0
  0
CLASS
  1
LAYOUT
  2
AcDbLayout
  3
ObjectDBX Classes
 90
        0
280
     0
281
     0
  0
ENDSEC
  0
SECTION
  2
TABLES
  0
TABLE
  2
VPORT
  5
8
330
0
100
AcDbSymbolTable
 70
     2
  0
VPORT
  5
29
102
{ACAD_XDICTIONARY
360
9F
102
}
330
8
100
AcDbSymbolTableRecord
100
AcDbViewportTableRecord
  2
*ACTIVE
 70
     0
 10
0.0
 20
0.0
 11
1.0
 21
1.0
 12
71.00873714602861
 22
43.1109051209445
 13
0.0
 23
0.0
 14
0.5
 24
0.5
 15
0.5
 25
0.5
 16
0.0
 26
0.0
 36
80.21230066091221
 17
0.0
 27
0.0
 37
0.0
 40
86.17644182431228
 41
1.972972972850329
 42
50.0
 43
0.0
 44
0.0
 50
0.0
 51
0.0
 71
     0
 72
   100
 73
     1
 74
     3
 75
     0
 76
     0
 77
     0
 78
     0
  0
ENDTAB
  0
TABLE
  2
LTYPE
  5
5
330
0
100
AcDbSymbolTable
 70
     1
  0
LTYPE
  5
14
330
5
100
AcDbSymbolTableRecord
100
AcDbLinetypeTableRecord
  2
BYBLOCK
 70
     0
  3

 72
    65
 73
     0
 40
0.0
  0
LTYPE
  5
15
330
5
100
AcDbSymbolTableRecord
100
AcDbLinetypeTableRecord
  2
BYLAYER
 70
     0
  3

 72
    65
 73
     0
 40
0.0
  0
LTYPE
  5
16
330
5
100
AcDbSymbolTableRecord
100
AcDbLinetypeTableRecord
  2
CONTINUOUS
 70
     0
  3
Solid line
 72
    65
 73
     0
 40
0.0
  0
ENDTAB
  0
TABLE
  2
LAYER
  5
2
330
0
100
AcDbSymbolTable
 70
     1
  0
LAYER
  5
10
330
2
100
AcDbSymbolTableRecord
100
AcDbLayerTableRecord
  2
0
 70
     0
 62
     7
  6
CONTINUOUS
  0
ENDTAB
  0
TABLE
  2
STYLE
  5
3
330
0
100
AcDbSymbolTable
 70
     1
  0
STYLE
  5
11
330
3
100
AcDbSymbolTableRecord
100
AcDbTextStyleTableRecord
  2
STANDARD
 70
     0
 40
0.0
 41
1.0
 50
0.0
 71
     0
 42
0.2
  3
txt
  4

  0
ENDTAB
  0
TABLE
  2
VIEW
  5
6
330
0
100
AcDbSymbolTable
 70
     0
  0
ENDTAB
  0
TABLE
  2
UCS
  5
7
330
0
100
AcDbSymbolTable
 70
     0
  0
ENDTAB
  0
TABLE
  2
APPID
  5
9
330
0
100
AcDbSymbolTable
 70
     1
  0
APPID
  5
12
330
9
100
AcDbSymbolTableRecord
100
AcDbRegAppTableRecord
  2
ACAD
 70
     0
  0
ENDTAB
  0
TABLE
  2
DIMSTYLE
  5
A
330
0
100
AcDbSymbolTable
 70
     1
  0
DIMSTYLE
105
27
330
A
100
AcDbSymbolTableRecord
100
AcDbDimStyleTableRecord
  2
STANDARD
 70
     0
  3

  4

  5

  6

  7

 40
1.0
 41
0.18
 42
0.0625
 43
0.38
 44
0.18
 45
0.0
 46
0.0
 47
0.0
 48
0.0
140
0.18
141
0.09
142
0.0
143
25.4
144
1.0
145
0.0
146
1.0
147
0.09
 71
     0
 72
     0
 73
     1
 74
     1
 75
     0
 76
     0
 77
     0
 78
     0
170
     0
171
     2
172
     0
173
     0
174
     0
175
     0
176
     0
177
     0
178
     0
270
     2
271
     4
272
     4
273
     2
274
     2
340
11
275
     0
280
     0
281
     0
282
     0
283
     1
284
     0
285
     0
286
     0
287
     3
288
     0
  0
ENDTAB
  0
TABLE
  2
BLOCK_RECORD
  5
1
330
0
100
AcDbSymbolTable
 70
     1
  0
BLOCK_RECORD
  5
1F
330
1
100
AcDbSymbolTableRecord
100
AcDbBlockTableRecord
  2
*MODEL_SPACE
  0
BLOCK_RECORD
  5
1B
330
1
100
AcDbSymbolTableRecord
100
AcDbBlockTableRecord
  2
*PAPER_SPACE
  0
ENDTAB
  0
ENDSEC
  0
SECTION
  2
BLOCKS
  0
BLOCK
  5
20
330
1F
100
AcDbEntity
  8
0
100
AcDbBlockBegin
  2
*MODEL_SPACE
 70
     0
 71
     0
 10
0.0
 20
0.0
 30
0.0
  3
*MODEL_SPACE
  1

  0
ENDBLK
  5
21
330
1F
100
AcDbEntity
  8
0
100
AcDbBlockEnd
  0
BLOCK
  5
1C
330
1B
100
AcDbEntity
 67
     1
  8
0
100
AcDbBlockBegin
  2
*PAPER_SPACE
 70
     0
 71
     0
 10
0.0
 20
0.0
 30
0.0
  3
*PAPER_SPACE
  1

  0
ENDBLK
  5
1D
330
1B
100
AcDbEntity
 67
     1
  8
0
100
AcDbBlockEnd
  0
ENDSEC
  0
SECTION
  2
ENTITIES
  0
LINE
  5
2A
330
1F
100
AcDbEntity
  8
0
 62
     7
100
AcDbLine
 10
105.0238164111694
 20
22.07832508668873
 30
0.0
 11
109.0065464111694
 21
2.023115086688705
 31
0.0
  0
LINE
  5
2B
330
1F
100
AcDbEntity
  8
0
 62
     7
100
AcDbLine
 10
106.0046564111694
 20
23.27311508668873
 30
0.0
 11
141.0065464111694
 21
23.27311508668873
 31
0.0
  0
ARC
  5
2C
330
1F
100
AcDbEntity
  8
0
 62
     7
100
AcDbCircle
 10
106.0046564111693
 20
22.27311508668876
 30
0.0
 40
0.9999999999999758
100
AcDbArc
 50
89.99999999999592
 51
191.2321380000021
  0
LINE
  5
2D
330
1F
100
AcDbEntity
  8
0
 62
     7
100
AcDbLine
 10
114.0822964111694
 20
29.77851508668874
 30
0.0
 11
116.5794964111694
 21
23.27309508668875
 31
0.0
  0
LINE
  5
2E
330
1F
100
AcDbEntity
  8
0
 62
     7
100
AcDbLine
 10
109.0560264111693
 20
28.92025508668875
 30
0.0
 11
112.7903464111694
 21
30.35372508668876
 31
0.0
  0
ARC
  5
2F
330
1F
100
AcDbEntity
  8
0
 62
     7
100
AcDbCircle
 10
113.1487164111694
 20
29.4201450866888
 30
0.0
 40
0.9999999999999552
100
AcDbArc
 50
20.99999999999814
 51
110.9999999999999
  0
LINE
  5
30
330
1F
100
AcDbEntity
  8
0
 62
     7
100
AcDbLine
 10
110.1526264111694
 20
23.27309508668875
 30
0.0
 11
108.4808164111694
 21
27.62830508668876
 31
0.0
  0
ARC
  5
31
330
1F
100
AcDbEntity
  8
0
 62
     7
100
AcDbCircle
 10
109.4143964111694
 20
27.98667508668871
 30
0.0
 40
1.000000000000054
100
AcDbArc
 50
111.0000000000022
 51
200.9999999999969
  0
LINE
  5
32
330
1F
100
AcDbEntity
  8
0
 62
     7
100
AcDbLine
 10
142.0065464111694
 20
2.023115086688704
 30
0.0
 11
142.0065464111694
 21
22.27311508668873
 31
0.0
  0
ARC
  5
33
330
1F
100
AcDbEntity
  8
0
 62
     7
100
AcDbCircle
 10
141.0065464111694
 20
22.27311508668871
 30
0.0
 40
1.000000000000016
100
AcDbArc
 50
0.0000000000012213
 51
90.0
  0
LINE
  5
34
330
1F
100
AcDbEntity
  8
0
 62
     7
100
AcDbLine
 10
141.7565464111694
 20
0.2031150866886966
 30
0.0
 11
141.5765464111694
 21
0.0231150866886984
 31
0.0
  0
LINE
  5
35
330
1F
100
AcDbEntity
  8
0
 62
     7
100
AcDbLine
 10
141.7565464111694
 20
2.023115086688704
 30
0.0
 11
141.7565464111694
 21
0.2031150866886966
 31
0.0
  0
LINE
  5
36
330
1F
100
AcDbEntity
  8
0
 62
     7
100
AcDbLine
 10
137.7565464111694
 20
0.2031150866886966
 30
0.0
 11
137.7565464111694
 21
2.023115086688704
 31
0.0
  0
LINE
  5
37
330
1F
100
AcDbEntity
  8
0
 62
     7
100
AcDbLine
 10
113.0695464111694
 20
0.0231150866886984
 30
0.0
 11
113.2565464111694
 21
0.2101150866886981
 31
0.0
  0
LINE
  5
38
330
1F
100
AcDbEntity
  8
0
 62
     7
100
AcDbLine
 10
137.7565464111694
 20
0.2031150866886966
 30
0.0
 11
137.9365464111694
 21
0.0231150866886984
 31
0.0
  0
LINE
  5
39
330
1F
100
AcDbEntity
  8
0
 62
     7
100
AcDbLine
 10
113.2565464111694
 20
0.2101150866886981
 30
0.0
 11
113.2565464111694
 21
2.023115086688704
 31
0.0
  0
LINE
  5
3A
330
1F
100
AcDbEntity
  8
0
 62
     7
100
AcDbLine
 10
109.0065464111694
 20
2.023115086688704
 30
0.0
 11
142.0065464111694
 21
2.023115086688704
 31
0.0
  0
LINE
  5
3B
330
1F
100
AcDbEntity
  8
0
 62
     7
100
AcDbLine
 10
109.2565464111693
 20
2.023115086688704
 30
0.0
 11
109.4791464111694
 21
0.2101150866886981
 31
0.0
  0
LINE
  5
3C
330
1F
100
AcDbEntity
  8
0
 62
     7
100
AcDbLine
 10
109.4791464111694
 20
0.2101150866886981
 30
0.0
 11
113.2565464111694
 21
0.2101150866886981
 31
0.0
  0
LINE
  5
3D
330
1F
100
AcDbEntity
  8
0
 62
     7
100
AcDbLine
 10
141.7565464111694
 20
0.2031150866886966
 30
0.0
 11
137.7565464111694
 21
0.2031150866886966
 31
0.0
  0
LINE
  5
3E
330
1F
100
AcDbEntity
  8
0
 62
     7
100
AcDbLine
 10
109.6661464111694
 20
0.0231150866886984
 30
0.0
 11
113.0695464111694
 21
0.0231150866886984
 31
0.0
  0
LINE
  5
3F
330
1F
100
AcDbEntity
  8
0
 62
     7
100
AcDbLine
 10
141.5765464111694
 20
0.0231150866886984
 30
0.0
 11
137.9365464111694
 21
0.0231150866886984
 31
0.0
  0
LINE
  5
40
330
1F
100
AcDbEntity
  8
0
 62
     7
100
AcDbLine
 10
109.6661464111694
 20
0.0231150866886984
 30
0.0
 11
109.4791464111694
 21
0.2101150866886981
 31
0.0
  0
LINE
  5
41
330
1F
100
AcDbEntity
  8
0
 62
     7
100
AcDbLine
 10
1.010927880887984
 20
86.1986951552003
 30
0.0
 11
60.51092788088782
 21
86.1986951552003
 31
0.0
  0
LINE
  5
42
330
1F
100
AcDbEntity
  8
0
 62
     7
100
AcDbLine
 10
3.510927880887987
 20
82.78796219692637
 30
0.0
 11
60.51092788088783
 21
82.78796219692637
 31
0.0
  0
LINE
  5
43
330
1F
100
AcDbEntity
  8
0
 62
     7
100
AcDbLine
 10
3.510927880887987
 20
77.4153752976172
 30
0.0
 11
60.51092788088783
 21
77.4153752976172
 31
0.0
  0
LINE
  5
44
330
1F
100
AcDbEntity
  8
0
 62
     7
100
AcDbLine
 10
60.51092788088785
 20
71.44819656463338
 30
0.0
 11
6.510927880887763
 21
71.44819656463338
 31
0.0
  0
LINE
  5
45
330
1F
100
AcDbEntity
  8
0
 62
     7
100
AcDbLine
 10
33.51092788088781
 20
50.18802127157013
 30
0.0
 11
33.51092788088779
 21
86.1986951552003
 31
0.0
  0
LINE
  5
46
330
1F
100
AcDbEntity
  8
0
 62
     7
100
AcDbLine
 10
34.51092788088803
 20
49.18802127157001
 30
0.0
 11
59.51092788088761
 21
49.18802127157001
 31
0.0
  0
LINE
  5
47
330
1F
100
AcDbEntity
  8
0
 62
     7
100
AcDbLine
 10
7.510927880887991
 20
49.18802127157001
 30
0.0
 11
32.51092788088758
 21
49.18802127157001
 31
0.0
  0
ARC
  5
48
330
1F
100
AcDbEntity
  8
0
 62
     7
100
AcDbCircle
 10
32.51092788088765
 20
50.18802127157015
 30
0.0
 40
1.00000000000014
100
AcDbArc
 50
269.9999999999955
 51
0.0000000000061067
  0
ARC
  5
49
330
1F
100
AcDbEntity
  8
0
 62
     7
100
AcDbCircle
 10
34.51092788088793
 20
50.18802127157015
 30
0.0
 40
1.00000000000014
100
AcDbArc
 50
179.9999999999939
 51
270.0000000000049
  0
LINE
  5
4A
330
1F
100
AcDbEntity
  8
0
 62
     7
100
AcDbLine
 10
2.510927880887758
 20
81.78796219692617
 30
0.0
 11
2.510927880887758
 21
76.41537529761726
 31
0.0
  0
ARC
  5
4B
330
1F
100
AcDbEntity
  8
0
 62
     7
100
AcDbCircle
 10
3.510927880887972
 20
76.41537529761699
 30
0.0
 40
1.000000000000211
100
AcDbArc
 50
89.99999999999911
 51
179.9999999999845
  0
ARC
  5
4C
330
1F
100
AcDbEntity
  8
0
 62
     7
100
AcDbCircle
 10
7.510927880887882
 20
50.18802127157013
 30
0.0
 40
1.000000000000121
100
AcDbArc
 50
179.9999999999939
 51
270.0000000000063
  0
ARC
  5
4D
330
1F
100
AcDbEntity
  8
0
 62
     7
100
AcDbCircle
 10
3.510927880887861
 20
81.78796219692626
 30
0.0
 40
1.000000000000102
100
AcDbArc
 50
89.99999999999272
 51
180.0000000000049
  0
LINE
  5
4E
330
1F
100
AcDbEntity
  8
0
 62
     7
100
AcDbLine
 10
6.51092788088776
 20
74.6150789488607
 30
0.0
 11
6.51092788088776
 21
50.18802127157024
 31
0.0
  0
LINE
  5
4F
330
1F
100
AcDbEntity
  8
0
 62
     7
100
AcDbLine
 10
5.510927880887498
 20
49.18802127157001
 30
0.0
 11
1.010927880888018
 21
49.18802127157001
 31
0.0
  0
ARC
  5
50
330
1F
100
AcDbEntity
  8
0
 62
     7
100
AcDbCircle
 10
5.510927880887671
 20
50.1880212715701
 30
0.0
 40
1.000000000000089
100
AcDbArc
 50
269.9999999999901
 51
0.0000000000077351
  0
LINE
  5
51
330
1F
100
AcDbEntity
  8
0
 62
     7
100
AcDbLine
 10
0.0109278808877544
 20
50.18802127157024
 30
0.0
 11
0.0109278808877553
 21
85.19869515520007
 31
0.0
  0
ARC
  5
52
330
1F
100
AcDbEntity
  8
0
 62
     7
100
AcDbCircle
 10
1.010927880887914
 20
50.18802127157017
 30
0.0
 40
1.000000000000167
100
AcDbArc
 50
179.9999999999963
 51
270.0000000000059
  0
ARC
  5
53
330
1F
100
AcDbEntity
  8
0
 62
     7
100
AcDbCircle
 10
1.010927880887874
 20
85.19869515520016
 30
0.0
 40
1.000000000000119
100
AcDbArc
 50
89.99999999999371
 51
180.0000000000049
  0
LINE
  5
54
330
1F
100
AcDbEntity
  8
0
 62
     7
100
AcDbLine
 10
6.51092788088776
 20
71.44819656463338
 30
0.0
 11
6.51092788088776
 21
74.6150789488607
 31
0.0
  0
LINE
  5
55
330
1F
100
AcDbEntity
  8
0
 62
     7
100
AcDbLine
 10
6.51092788088776
 20
74.6150789488607
 30
0.0
 11
2.510927880887758
 21
74.61507894886067
 31
0.0
  0
LINE
  5
56
330
1F
100
AcDbEntity
  8
0
 62
     7
100
AcDbLine
 10
2.510927880887758
 20
74.61507894886067
 30
0.0
 11
2.510927880887758
 21
76.41537529761726
 31
0.0
  0
LINE
  5
57
330
1F
100
AcDbEntity
  8
0
 62
     7
100
AcDbLine
 10
6.51092788088776
 20
71.44819656463338
 30
0.0
 11
6.51092788088776
 21
50.18802127157024
 31
0.0
  0
LINE
  5
58
330
1F
100
AcDbEntity
  8
0
 62
     7
100
AcDbLine
 10
0.0109278808877566
 20
2.023115086688708
 30
0.0
 11
87.51092788088785
 21
2.023115086688708
 31
0.0
  0
LINE
  5
59
330
1F
100
AcDbEntity
  8
0
 62
     7
100
AcDbLine
 10
81.22483188088783
 20
0.0231150866887067
 30
0.0
 11
86.86483188088785
 21
0.0231150866887067
 31
0.0
  0
LINE
  5
5A
330
1F
100
AcDbEntity
  8
0
 62
     7
100
AcDbLine
 10
81.04483188088784
 20
0.2031150866886851
 30
0.0
 11
87.04483188088786
 21
0.2031150866886851
 31
0.0
  0
LINE
  5
5B
330
1F
100
AcDbEntity
  8
0
 62
     7
100
AcDbLine
 10
81.04483188088784
 20
0.2031150866886851
 30
0.0
 11
81.22483188088783
 21
0.0231150866887067
 31
0.0
  0
LINE
  5
5C
330
1F
100
AcDbEntity
  8
0
 62
     7
100
AcDbLine
 10
81.04483188088784
 20
2.023115086688708
 30
0.0
 11
81.04483188088784
 21
0.2031150866886851
 31
0.0
  0
LINE
  5
5D
330
1F
100
AcDbEntity
  8
0
 62
     7
100
AcDbLine
 10
87.04483188088786
 20
2.023115086688708
 30
0.0
 11
87.04483188088786
 21
0.2031150866886851
 31
0.0
  0
LINE
  5
5E
330
1F
100
AcDbEntity
  8
0
 62
     7
100
AcDbLine
 10
87.04483188088786
 20
0.2031150866886851
 30
0.0
 11
86.86483188088785
 21
0.0231150866887067
 31
0.0
  0
LINE
  5
5F
330
1F
100
AcDbEntity
  8
0
 62
     7
100
AcDbLine
 10
0.2609278808877567
 20
2.023115086688708
 30
0.0
 11
0.2609278808877567
 21
0.2031150866886851
 31
0.0
  0
LINE
  5
60
330
1F
100
AcDbEntity
  8
0
 62
     7
100
AcDbLine
 10
0.2609278808877567
 20
0.2031150866886851
 30
0.0
 11
0.4409278808877568
 21
0.0231150866887067
 31
0.0
  0
LINE
  5
61
330
1F
100
AcDbEntity
  8
0
 62
     7
100
AcDbLine
 10
6.260927880887762
 20
2.023115086688708
 30
0.0
 11
6.260927880887762
 21
0.2031150866886851
 31
0.0
  0
LINE
  5
62
330
1F
100
AcDbEntity
  8
0
 62
     7
100
AcDbLine
 10
6.260927880887762
 20
0.2031150866886851
 30
0.0
 11
6.080927880887762
 21
0.0231150866887067
 31
0.0
  0
LINE
  5
63
330
1F
100
AcDbEntity
  8
0
 62
     7
100
AcDbLine
 10
33.51092788088778
 20
30.71209908668871
 30
0.0
 11
33.51092788088778
 21
8.023115086688712
 31
0.0
  0
LINE
  5
64
330
1F
100
AcDbEntity
  8
0
 62
     7
100
AcDbLine
 10
0.4409278808877568
 20
0.0231150866887067
 30
0.0
 11
6.080927880887762
 21
0.0231150866887067
 31
0.0
  0
LINE
  5
65
330
1F
100
AcDbEntity
  8
0
 62
     7
100
AcDbLine
 10
0.2609278808877567
 20
0.2031150866886851
 30
0.0
 11
6.260927880887762
 21
0.2031150866886851
 31
0.0
  0
LINE
  5
66
330
1F
100
AcDbEntity
  8
0
 62
     7
100
AcDbLine
 10
6.510927880887762
 20
8.023115086688712
 30
0.0
 11
87.51092788088786
 21
8.023115086688712
 31
0.0
  0
LINE
  5
67
330
1F
100
AcDbEntity
  8
0
 62
     7
100
AcDbLine
 10
60.51092788088781
 20
30.71209908668871
 30
0.0
 11
60.51092788088781
 21
8.023115086688712
 31
0.0
  0
ARC
  5
68
330
1F
100
AcDbEntity
  8
0
 62
     7
100
AcDbCircle
 10
3.310927880887747
 20
29.91209908668873
 30
0.0
 40
0.7999999999999843
100
AcDbArc
 50
89.99999999999936
 51
180.0
  0
LINE
  5
69
330
1F
100
AcDbEntity
  8
0
 62
     7
100
AcDbLine
 10
2.510927880887758
 20
29.91209908668873
 30
0.0
 11
2.510927880887758
 21
23.28342708668873
 31
0.0
  0
ARC
  5
6A
330
1F
100
AcDbEntity
  8
0
 62
     7
100
AcDbCircle
 10
86.71092788088787
 20
29.91209908668873
 30
0.0
 40
0.7999999999999843
100
AcDbArc
 50
359.9999999999995
 51
90.00000000000102
  0
LINE
  5
6B
330
1F
100
AcDbEntity
  8
0
 62
     7
100
AcDbLine
 10
3.31092788088776
 20
30.71209908668871
 30
0.0
 11
86.71092788088785
 21
30.71209908668871
 31
0.0
  0
ARC
  5
6C
330
1F
100
AcDbEntity
  8
0
 62
     7
100
AcDbCircle
 10
5.710927880887745
 20
22.47311508668872
 30
0.0
 40
0.8000000000000176
100
AcDbArc
 50
0.0
 51
89.99999999999898
  0
LINE
  5
6D
330
1F
100
AcDbEntity
  8
0
 62
     7
100
AcDbLine
 10
6.510927880887762
 20
22.47311508668872
 30
0.0
 11
6.510927880887762
 21
2.023115086688708
 31
0.0
  0
ARC
  5
6E
330
1F
100
AcDbEntity
  8
0
 62
     7
100
AcDbCircle
 10
0.8109278808877805
 20
22.4731150866887
 30
0.0
 40
0.8000000000000287
100
AcDbArc
 50
90.00000000000188
 51
179.999999999999
  0
LINE
  5
6F
330
1F
100
AcDbEntity
  8
0
 62
     7
100
AcDbLine
 10
0.8109278808877574
 20
23.27311508668873
 30
0.0
 11
5.710927880887761
 21
23.27311508668873
 31
0.0
  0
LINE
  5
70
330
1F
100
AcDbEntity
  8
0
 62
     7
100
AcDbLine
 10
0.0109278808877566
 20
2.023115086688708
 30
0.0
 11
0.0109278808877566
 21
22.47311508668872
 31
0.0
  0
ARC
  5
71
330
1F
100
AcDbEntity
  8
0
 62
     7
100
AcDbCircle
 10
86.71092788088785
 20
14.34811508668872
 30
0.0
 40
0.800000000000002
100
AcDbArc
 50
359.9999999999993
 51
90.0
  0
LINE
  5
72
330
1F
100
AcDbEntity
  8
0
 62
     7
100
AcDbLine
 10
6.510927880887762
 20
15.14811508668872
 30
0.0
 11
86.71092788088785
 21
15.14811508668872
 31
0.0
  0
LINE
  5
73
330
1F
100
AcDbEntity
  8
0
 62
     7
100
AcDbLine
 10
87.51092788088785
 20
14.34811508668871
 30
0.0
 11
87.51092788088785
 21
2.023115086688708
 31
0.0
  0
LINE
  5
74
330
1F
100
AcDbEntity
  8
0
 62
     7
100
AcDbLine
 10
87.51092788088785
 20
29.91209908668873
 30
0.0
 11
87.51092788088785
 21
14.34811508668871
 31
0.0
  0
ARC
  5
75
330
1F
100
AcDbEntity
  8
0
 62
     7
100
AcDbCircle
 10
59.51092788088768
 20
50.18802127157016
 30
0.0
 40
1.000000000000149
100
AcDbArc
 50
269.9999999999955
 51
0.0000000000056996
  0
LINE
  5
76
330
1F
100
AcDbEntity
  8
0
 62
     7
100
AcDbLine
 10
60.51092788088783
 20
50.18802127157015
 30
0.0
 11
60.51092788088783
 21
86.1986951552003
 31
0.0
  0
LINE
  5
77
330
1F
100
AcDbEntity
  8
0
 62
     7
100
AcDbLine
 10
87.51092788088785
 20
50.18802127157015
 30
0.0
 11
87.51092788088785
 21
86.1986951552003
 31
0.0
  0
ARC
  5
78
330
1F
100
AcDbEntity
  8
0
 62
     7
100
AcDbCircle
 10
86.51092788088769
 20
50.18802127157017
 30
0.0
 40
1.000000000000158
100
AcDbArc
 50
269.9999999999959
 51
0.0000000000048853
  0
ARC
  5
79
330
1F
100
AcDbEntity
  8
0
 62
     7
100
AcDbCircle
 10
61.51092788088796
 20
50.18802127157002
 30
0.0
 40
1.000000000000131
100
AcDbArc
 50
179.9999999999935
 51
270.0000000000053
  0
LINE
  5
7A
330
1F
100
AcDbEntity
  8
0
 62
     7
100
AcDbLine
 10
60.51092788088783
 20
86.1986951552003
 30
0.0
 11
87.51092788088785
 21
86.1986951552003
 31
0.0
  0
LINE
  5
7B
330
1F
100
AcDbEntity
  8
0
 62
     7
100
AcDbLine
 10
60.51092788088783
 20
82.78796219692637
 30
0.0
 11
87.51092788088785
 21
82.78796219692637
 31
0.0
  0
LINE
  5
7C
330
1F
100
AcDbEntity
  8
0
 62
     7
100
AcDbLine
 10
60.51092788088783
 20
77.4153752976172
 30
0.0
 11
87.51092788088785
 21
77.4153752976172
 31
0.0
  0
LINE
  5
7D
330
1F
100
AcDbEntity
  8
0
 62
     7
100
AcDbLine
 10
60.51092788088785
 20
71.44819656463338
 30
0.0
 11
87.51092788088785
 21
71.44819656463338
 31
0.0
  0
LINE
  5
7E
330
1F
100
AcDbEntity
  8
0
 62
     7
100
AcDbLine
 10
61.51092788088805
 20
49.1880212715699
 30
0.0
 11
86.51092788088762
 21
49.18802127157001
 31
0.0
  0
ENDSEC
  0
SECTION
  2
OBJECTS
  0
DICTIONARY
  5
C
330
0
100
AcDbDictionary
  3
ACAD_GROUP
350
D
  3
ACAD_LAYOUT
350
1A
  3
ACAD_MLINESTYLE
350
17
  3
ACAD_PLOTSETTINGS
350
19
  3
ACDBHEADERROUNDTRIPXREC
350
7F
  0
DICTIONARY
  5
9F
330
29
100
AcDbDictionary
280
     1
  3
ACAD_XREC_ROUNDTRIP
360
A0
  0
DICTIONARY
  5
D
102
{ACAD_REACTORS
330
C
102
}
330
C
100
AcDbDictionary
  0
DICTIONARY
  5
1A
102
{ACAD_REACTORS
330
C
102
}
330
C
100
AcDbDictionary
  0
DICTIONARY
  5
17
102
{ACAD_REACTORS
330
C
102
}
330
C
100
AcDbDictionary
  3
STANDARD
350
18
  0
DICTIONARY
  5
19
102
{ACAD_REACTORS
330
C
102
}
330
C
100
AcDbDictionary
  0
DICTIONARY
  5
7F
102
{ACAD_REACTORS
330
C
102
}
330
C
100
AcDbDictionary
  3
CEPSNTYPE
350
88
  3
DIMSTYLEDATA
350
9E
  3
FINGERPRINTGUID
350
89
  3
HYPERLINKBASE
350
82
  3
INSUNITS
350
87
  3
LAYOUTDICT
350
84
  3
LWETCUNION
350
86
  3
PLOTSETDICT
350
85
  3
PSVPSCALE
350
8B
  3
PUCSBASE
350
8E
  3
PUCSORGBACK
350
94
  3
PUCSORGBOTTOM
350
90
  3
PUCSORGFRONT
350
93
  3
PUCSORGLEFT
350
91
  3
PUCSORGRIGHT
350
92
  3
PUCSORGTOP
350
8F
  3
PUCSORTHOREF
350
8C
  3
PUCSORTHOVIEW
350
8D
  3
STYLESHEET
350
83
  3
TSTACKALIGN
350
80
  3
TSTACKSIZE
350
81
  3
UCSBASE
350
97
  3
UCSORGBACK
350
9D
  3
UCSORGBOTTOM
350
99
  3
UCSORGFRONT
350
9C
  3
UCSORGLEFT
350
9A
  3
UCSORGRIGHT
350
9B
  3
UCSORGTOP
350
98
  3
UCSORTHOREF
350
95
  3
UCSORTHOVIEW
350
96
  3
VERSIONGUID
350
8A
  0
XRECORD
  5
A0
102
{ACAD_REACTORS
330
9F
102
}
330
9F
100
AcDbXrecord
102
UCS
 74
     0
 71
     1
 10
0.0
 20
0.0
 30
0.0
 10
1.0
 20
0.0
 30
0.0
 10
0.0
 20
1.0
 30
0.0
146
0.0
 79
     0
102
VIEW
281
     0
  0
MLINESTYLE
  5
18
102
{ACAD_REACTORS
330
17
102
}
330
17
100
AcDbMlineStyle
  2
Standard
 70
     0
  3

 62
   256
 51
90.0
 52
90.0
 71
     2
 49
0.5
 62
   256
  6
BYLAYER
 49
-0.5
 62
   256
  6
BYLAYER
  0
XRECORD
  5
88
102
{ACAD_REACTORS
330
7F
102
}
330
7F
100
AcDbXrecord
 90
        0
  0
XRECORD
  5
9E
102
{ACAD_REACTORS
330
7F
102
}
330
7F
100
AcDbXrecord
1000
DSTYLE
1002
{
1070
   340
340
11
1002
}
  0
XRECORD
  5
89
102
{ACAD_REACTORS
330
7F
102
}
330
7F
100
AcDbXrecord
  1
{FAEB1C30-E019-11D5-929B-00C0DF256EC4}
  0
XRECORD
  5
82
102
{ACAD_REACTORS
330
7F
102
}
330
7F
100
AcDbXrecord
  1

  0
XRECORD
  5
87
102
{ACAD_REACTORS
330
7F
102
}
330
7F
100
AcDbXrecord
 90
        4
  0
XRECORD
  5
84
102
{ACAD_REACTORS
330
7F
102
}
330
7F
100
AcDbXrecord
340
1A
  0
XRECORD
  5
86
102
{ACAD_REACTORS
330
7F
102
}
330
7F
100
AcDbXrecord
 90
     2560
  0
XRECORD
  5
85
102
{ACAD_REACTORS
330
7F
102
}
330
7F
100
AcDbXrecord
340
19
  0
XRECORD
  5
8B
102
{ACAD_REACTORS
330
7F
102
}
330
7F
100
AcDbXrecord
 40
0.0
  0
XRECORD
  5
8E
102
{ACAD_REACTORS
330
7F
102
}
330
7F
100
AcDbXrecord
340
0
  0
XRECORD
  5
94
102
{ACAD_REACTORS
330
7F
102
}
330
7F
100
AcDbXrecord
 10
0.0
 20
0.0
 30
0.0
  0
XRECORD
  5
90
102
{ACAD_REACTORS
330
7F
102
}
330
7F
100
AcDbXrecord
 10
0.0
 20
0.0
 30
0.0
  0
XRECORD
  5
93
102
{ACAD_REACTORS
330
7F
102
}
330
7F
100
AcDbXrecord
 10
0.0
 20
0.0
 30
0.0
  0
XRECORD
  5
91
102
{ACAD_REACTORS
330
7F
102
}
330
7F
100
AcDbXrecord
 10
0.0
 20
0.0
 30
0.0
  0
XRECORD
  5
92
102
{ACAD_REACTORS
330
7F
102
}
330
7F
100
AcDbXrecord
 10
0.0
 20
0.0
 30
0.0
  0
XRECORD
  5
8F
102
{ACAD_REACTORS
330
7F
102
}
330
7F
100
AcDbXrecord
 10
0.0
 20
0.0
 30
0.0
  0
XRECORD
  5
8C
102
{ACAD_REACTORS
330
7F
102
}
330
7F
100
AcDbXrecord
340
0
  0
XRECORD
  5
8D
102
{ACAD_REACTORS
330
7F
102
}
330
7F
100
AcDbXrecord
 70
     0
  0
XRECORD
  5
83
102
{ACAD_REACTORS
330
7F
102
}
330
7F
100
AcDbXrecord
  1

  0
XRECORD
  5
80
102
{ACAD_REACTORS
330
7F
102
}
330
7F
100
AcDbXrecord
 90
        1
  0
XRECORD
  5
81
102
{ACAD_REACTORS
330
7F
102
}
330
7F
100
AcDbXrecord
 90
       70
  0
XRECORD
  5
97
102
{ACAD_REACTORS
330
7F
102
}
330
7F
100
AcDbXrecord
340
0
  0
XRECORD
  5
9D
102
{ACAD_REACTORS
330
7F
102
}
330
7F
100
AcDbXrecord
 10
0.0
 20
0.0
 30
0.0
  0
XRECORD
  5
99
102
{ACAD_REACTORS
330
7F
102
}
330
7F
100
AcDbXrecord
 10
0.0
 20
0.0
 30
0.0
  0
XRECORD
  5
9C
102
{ACAD_REACTORS
330
7F
102
}
330
7F
100
AcDbXrecord
 10
0.0
 20
0.0
 30
0.0
  0
XRECORD
  5
9A
102
{ACAD_REACTORS
330
7F
102
}
330
7F
100
AcDbXrecord
 10
0.0
 20
0.0
 30
0.0
  0
XRECORD
  5
9B
102
{ACAD_REACTORS
330
7F
102
}
330
7F
100
AcDbXrecord
 10
0.0
 20
0.0
 30
0.0
  0
XRECORD
  5
98
102
{ACAD_REACTORS
330
7F
102
}
330
7F
100
AcDbXrecord
 10
0.0
 20
0.0
 30
0.0
  0
XRECORD
  5
95
102
{ACAD_REACTORS
330
7F
102
}
330
7F
100
AcDbXrecord
340
0
  0
XRECORD
  5
96
102
{ACAD_REACTORS
330
7F
102
}
330
7F
100
AcDbXrecord
 70
     0
  0
XRECORD
  5
8A
102
{ACAD_REACTORS
330
7F
102
}
330
7F
100
AcDbXrecord
  1
{FAEB1C32-E019-11D5-929B-00C0DF256EC4}
  0
ENDSEC
  0
EOF
