  0
SECTION
  2
HEADER
  9
$ACADVER
  1
AC1014
  9
$ACADMAINTVER
 70
     9
  9
$DWGCODEPAGE
  3
ANSI_1252
  9
$INSBASE
 10
0.0
 20
0.0
 30
0.0
  9
$EXTMIN
 10
1.000000000000000E+20
 20
1.000000000000000E+20
 30
1.000000000000000E+20
  9
$EXTMAX
 10
-1.000000000000000E+20
 20
-1.000000000000000E+20
 30
-1.000000000000000E+20
  9
$LIMMIN
 10
0.0
 20
0.0
  9
$LIMMAX
 10
12.0
 20
9.0
  9
$ORTHOMODE
 70
     0
  9
$REGENMODE
 70
     1
  9
$FILLMODE
 70
     1
  9
$QTEXTMODE
 70
     0
  9
$MIRRTEXT
 70
     1
  9
$DRAGMODE
 70
     2
  9
$LTSCALE
 40
1.0
  9
$OSMODE
 70
    37
  9
$ATTMODE
 70
     1
  9
$TEXTSIZE
 40
0.2
  9
$TRACEWID
 40
0.05
  9
$TEXTSTYLE
  7
STANDARD
  9
$CLAYER
  8
0
  9
$CELTYPE
  6
BYLAYER
  9
$CECOLOR
 62
   256
  9
$CELTSCALE
 40
1.0
  9
$DELOBJ
 70
     1
  9
$DISPSILH
 70
     0
  9
$DIMSCALE
 40
1.0
  9
$DIMASZ
 40
0.18
  9
$DIMEXO
 40
0.0625
  9
$DIMDLI
 40
0.38
  9
$DIMRND
 40
0.0
  9
$DIMDLE
 40
0.0
  9
$DIMEXE
 40
0.18
  9
$DIMTP
 40
0.0
  9
$DIMTM
 40
0.0
  9
$DIMTXT
 40
0.18
  9
$DIMCEN
 40
0.09
  9
$DIMTSZ
 40
0.0
  9
$DIMTOL
 70
     0
  9
$DIMLIM
 70
     0
  9
$DIMTIH
 70
     1
  9
$DIMTOH
 70
     1
  9
$DIMSE1
 70
     0
  9
$DIMSE2
 70
     0
  9
$DIMTAD
 70
     0
  9
$DIMZIN
 70
     0
  9
$DIMBLK
  1

  9
$DIMASO
 70
     1
  9
$DIMSHO
 70
     1
  9
$DIMPOST
  1

  9
$DIMAPOST
  1

  9
$DIMALT
 70
     0
  9
$DIMALTD
 70
     2
  9
$DIMALTF
 40
25.4
  9
$DIMLFAC
 40
1.0
  9
$DIMTOFL
 70
     0
  9
$DIMTVP
 40
0.0
  9
$DIMTIX
 70
     0
  9
$DIMSOXD
 70
     0
  9
$DIMSAH
 70
     0
  9
$DIMBLK1
  1

  9
$DIMBLK2
  1

  9
$DIMSTYLE
  2
STANDARD
  9
$DIMCLRD
 70
     0
  9
$DIMCLRE
 70
     0
  9
$DIMCLRT
 70
     0
  9
$DIMTFAC
 40
1.0
  9
$DIMGAP
 40
0.09
  9
$DIMJUST
 70
     0
  9
$DIMSD1
 70
     0
  9
$DIMSD2
 70
     0
  9
$DIMTOLJ
 70
     1
  9
$DIMTZIN
 70
     0
  9
$DIMALTZ
 70
     0
  9
$DIMALTTZ
 70
     0
  9
$DIMFIT
 70
     3
  9
$DIMUPT
 70
     0
  9
$DIMUNIT
 70
     2
  9
$DIMDEC
 70
     4
  9
$DIMTDEC
 70
     4
  9
$DIMALTU
 70
     2
  9
$DIMALTTD
 70
     2
  9
$DIMTXSTY
  7
STANDARD
  9
$DIMAUNIT
 70
     0
  9
$LUNITS
 70
     2
  9
$LUPREC
 70
     0
  9
$SKETCHINC
 40
0.1
  9
$FILLETRAD
 40
0.5
  9
$AUNITS
 70
     0
  9
$AUPREC
 70
     0
  9
$MENU
  1
.
  9
$ELEVATION
 40
0.0
  9
$PELEVATION
 40
0.0
  9
$THICKNESS
 40
0.0
  9
$LIMCHECK
 70
     0
  9
$CHAMFERA
 40
0.5
  9
$CHAMFERB
 40
0.5
  9
$CHAMFERC
 40
1.0
  9
$CHAMFERD
 40
0.0
  9
$SKPOLY
 70
     0
  9
$TDCREATE
 40
2453769.509459097
  9
$TDUPDATE
 40
2453769.509459109
  9
$TDINDWG
 40
0.0000000116
  9
$TDUSRTIMER
 40
0.0000000116
  9
$USRTIMER
 70
     1
  9
$ANGBASE
 50
0.0
  9
$ANGDIR
 70
     0
  9
$PDMODE
 70
     0
  9
$PDSIZE
 40
0.0
  9
$PLINEWID
 40
0.0
  9
$COORDS
 70
     1
  9
$SPLFRAME
 70
     0
  9
$SPLINETYPE
 70
     6
  9
$SPLINESEGS
 70
     8
  9
$ATTDIA
 70
     0
  9
$ATTREQ
 70
     1
  9
$HANDLING
 70
     1
  9
$HANDSEED
  5
A8
  9
$SURFTAB1
 70
     6
  9
$SURFTAB2
 70
     6
  9
$SURFTYPE
 70
     6
  9
$SURFU
 70
     6
  9
$SURFV
 70
     6
  9
$UCSNAME
  2

  9
$UCSORG
 10
0.0
 20
0.0
 30
0.0
  9
$UCSXDIR
 10
1.0
 20
0.0
 30
0.0
  9
$UCSYDIR
 10
0.0
 20
1.0
 30
0.0
  9
$PUCSNAME
  2

  9
$PUCSORG
 10
0.0
 20
0.0
 30
0.0
  9
$PUCSXDIR
 10
1.0
 20
0.0
 30
0.0
  9
$PUCSYDIR
 10
0.0
 20
1.0
 30
0.0
  9
$USERI1
 70
     0
  9
$USERI2
 70
     0
  9
$USERI3
 70
     0
  9
$USERI4
 70
     0
  9
$USERI5
 70
     0
  9
$USERR1
 40
0.0
  9
$USERR2
 40
0.0
  9
$USERR3
 40
0.0
  9
$USERR4
 40
0.0
  9
$USERR5
 40
0.0
  9
$WORLDVIEW
 70
     1
  9
$SHADEDGE
 70
     3
  9
$SHADEDIF
 70
    70
  9
$TILEMODE
 70
     1
  9
$MAXACTVP
 70
    64
  9
$PINSBASE
 10
0.0
 20
0.0
 30
0.0
  9
$PLIMCHECK
 70
     0
  9
$PEXTMIN
 10
1.000000000000000E+20
 20
1.000000000000000E+20
 30
1.000000000000000E+20
  9
$PEXTMAX
 10
-1.000000000000000E+20
 20
-1.000000000000000E+20
 30
-1.000000000000000E+20
  9
$PLIMMIN
 10
0.0
 20
0.0
  9
$PLIMMAX
 10
12.0
 20
9.0
  9
$UNITMODE
 70
     0
  9
$VISRETAIN
 70
     1
  9
$PLINEGEN
 70
     0
  9
$PSLTSCALE
 70
     1
  9
$TREEDEPTH
 70
  3020
  9
$PICKSTYLE
 70
     1
  9
$CMLSTYLE
  2
STANDARD
  9
$CMLJUST
 70
     0
  9
$CMLSCALE
 40
1.0
  9
$PROXYGRAPHICS
 70
     1
  9
$MEASUREMENT
 70
     0
  0
ENDSEC
  0
SECTION
  2
CLASSES
  0
CLASS
  1
ACDBDICTIONARYWDFLT
  2
AcDbDictionaryWithDefault
  3
ObjectDBX Classes
 90
        0
280
     0
281
     0
  0
CLASS
  1
XRECORD
  2
AcDbXrecord
  3
AutoCAD 2000
 90
        0
280
     0
281
     0
  0
CLASS
  1
LWPOLYLINE
  2
AcDbPolyline
  3
AutoCAD 2000
 90
        0
280
     0
281
     1
  0
CLASS
  1
HATCH
  2
AcDbHatch
  3
AutoCAD 2000
 90
        0
280
     0
281
     1
  0
CLASS
  1
ACDBPLACEHOLDER
  2
AcDbPlaceHolder
  3
ObjectDBX Classes
 90
        0
280
     0
281
     0
  0
CLASS
  1
LAYOUT
  2
AcDbLayout
  3
ObjectDBX Classes
 90
        0
280
     0
281
     0
  0
ENDSEC
  0
SECTION
  2
TABLES
  0
TABLE
  2
VPORT
  5
8
330
0
100
AcDbSymbolTable
 70
     2
  0
VPORT
  5
29
102
{ACAD_XDICTIONARY
360
A6
102
}
330
8
100
AcDbSymbolTableRecord
100
AcDbViewportTableRecord
  2
*ACTIVE
 70
     0
 10
0.0
 20
0.0
 11
1.0
 21
1.0
 12
69.75792269432587
 22
43.11090512094457
 13
0.0
 23
0.0
 14
0.5
 24
0.5
 15
0.5
 25
0.5
 16
0.0
 26
0.0
 36
80.21230066091221
 17
0.0
 27
0.0
 37
0.0
 40
86.17644182431242
 41
1.972972972850329
 42
50.0
 43
0.0
 44
0.0
 50
0.0
 51
0.0
 71
     0
 72
   100
 73
     1
 74
     3
 75
     0
 76
     0
 77
     0
 78
     0
  0
ENDTAB
  0
TABLE
  2
LTYPE
  5
5
330
0
100
AcDbSymbolTable
 70
     1
  0
LTYPE
  5
14
330
5
100
AcDbSymbolTableRecord
100
AcDbLinetypeTableRecord
  2
BYBLOCK
 70
     0
  3

 72
    65
 73
     0
 40
0.0
  0
LTYPE
  5
15
330
5
100
AcDbSymbolTableRecord
100
AcDbLinetypeTableRecord
  2
BYLAYER
 70
     0
  3

 72
    65
 73
     0
 40
0.0
  0
LTYPE
  5
16
330
5
100
AcDbSymbolTableRecord
100
AcDbLinetypeTableRecord
  2
CONTINUOUS
 70
     0
  3
Solid line
 72
    65
 73
     0
 40
0.0
  0
ENDTAB
  0
TABLE
  2
LAYER
  5
2
330
0
100
AcDbSymbolTable
 70
     1
  0
LAYER
  5
10
330
2
100
AcDbSymbolTableRecord
100
AcDbLayerTableRecord
  2
0
 70
     0
 62
     7
  6
CONTINUOUS
  0
ENDTAB
  0
TABLE
  2
STYLE
  5
3
330
0
100
AcDbSymbolTable
 70
     1
  0
STYLE
  5
11
330
3
100
AcDbSymbolTableRecord
100
AcDbTextStyleTableRecord
  2
STANDARD
 70
     0
 40
0.0
 41
1.0
 50
0.0
 71
     0
 42
0.2
  3
txt
  4

  0
ENDTAB
  0
TABLE
  2
VIEW
  5
6
330
0
100
AcDbSymbolTable
 70
     0
  0
ENDTAB
  0
TABLE
  2
UCS
  5
7
330
0
100
AcDbSymbolTable
 70
     0
  0
ENDTAB
  0
TABLE
  2
APPID
  5
9
330
0
100
AcDbSymbolTable
 70
     1
  0
APPID
  5
12
330
9
100
AcDbSymbolTableRecord
100
AcDbRegAppTableRecord
  2
ACAD
 70
     0
  0
ENDTAB
  0
TABLE
  2
DIMSTYLE
  5
A
330
0
100
AcDbSymbolTable
 70
     1
  0
DIMSTYLE
105
27
330
A
100
AcDbSymbolTableRecord
100
AcDbDimStyleTableRecord
  2
STANDARD
 70
     0
  3

  4

  5

  6

  7

 40
1.0
 41
0.18
 42
0.0625
 43
0.38
 44
0.18
 45
0.0
 46
0.0
 47
0.0
 48
0.0
140
0.18
141
0.09
142
0.0
143
25.4
144
1.0
145
0.0
146
1.0
147
0.09
 71
     0
 72
     0
 73
     1
 74
     1
 75
     0
 76
     0
 77
     0
 78
     0
170
     0
171
     2
172
     0
173
     0
174
     0
175
     0
176
     0
177
     0
178
     0
270
     2
271
     4
272
     4
273
     2
274
     2
340
11
275
     0
280
     0
281
     0
282
     0
283
     1
284
     0
285
     0
286
     0
287
     3
288
     0
  0
ENDTAB
  0
TABLE
  2
BLOCK_RECORD
  5
1
330
0
100
AcDbSymbolTable
 70
     1
  0
BLOCK_RECORD
  5
1F
330
1
100
AcDbSymbolTableRecord
100
AcDbBlockTableRecord
  2
*MODEL_SPACE
  0
BLOCK_RECORD
  5
1B
330
1
100
AcDbSymbolTableRecord
100
AcDbBlockTableRecord
  2
*PAPER_SPACE
  0
ENDTAB
  0
ENDSEC
  0
SECTION
  2
BLOCKS
  0
BLOCK
  5
20
330
1F
100
AcDbEntity
  8
0
100
AcDbBlockBegin
  2
*MODEL_SPACE
 70
     0
 71
     0
 10
0.0
 20
0.0
 30
0.0
  3
*MODEL_SPACE
  1

  0
ENDBLK
  5
21
330
1F
100
AcDbEntity
  8
0
100
AcDbBlockEnd
  0
BLOCK
  5
1C
330
1B
100
AcDbEntity
 67
     1
  8
0
100
AcDbBlockBegin
  2
*PAPER_SPACE
 70
     0
 71
     0
 10
0.0
 20
0.0
 30
0.0
  3
*PAPER_SPACE
  1

  0
ENDBLK
  5
1D
330
1B
100
AcDbEntity
 67
     1
  8
0
100
AcDbBlockEnd
  0
ENDSEC
  0
SECTION
  2
ENTITIES
  0
LINE
  5
2A
330
1F
100
AcDbEntity
  8
0
 62
     7
100
AcDbLine
 10
117.4088935077639
 20
15.158427086689
 30
0.0
 11
138.9210135077641
 21
15.158427086689
 31
0.0
  0
LINE
  5
2B
330
1F
100
AcDbEntity
  8
0
 62
     7
100
AcDbLine
 10
114.2899975077638
 20
23.28342708668912
 30
0.0
 11
120.143925384687
 21
8.033427086688889
 31
0.0
  0
LINE
  5
2C
330
1F
100
AcDbEntity
  8
0
 62
     7
100
AcDbLine
 10
139.7210135077642
 20
22.4731150866891
 30
0.0
 11
139.7210135077642
 21
14.35842708668897
 31
0.0
  0
LINE
  5
2D
330
1F
100
AcDbEntity
  8
0
 62
     7
100
AcDbLine
 10
139.7210135077642
 20
2.023115086688801
 30
0.0
 11
139.7210135077642
 21
14.35842708668897
 31
0.0
  0
ARC
  5
2E
330
1F
100
AcDbEntity
  8
0
 62
     7
100
AcDbCircle
 10
138.9210135077641
 20
14.35842708668899
 30
0.0
 40
0.8000000000000195
100
AcDbArc
 50
359.9999999999993
 51
90.0
  0
LINE
  5
2F
330
1F
100
AcDbEntity
  8
0
 62
     7
100
AcDbLine
 10
114.2939575077638
 20
23.27311508668912
 30
0.0
 11
138.9210135077641
 21
23.27311508668912
 31
0.0
  0
ARC
  5
30
330
1F
100
AcDbEntity
  8
0
 62
     7
100
AcDbCircle
 10
138.9210135077641
 20
22.47311508668907
 30
0.0
 40
0.8000000000000728
100
AcDbArc
 50
0.00000000000229
 51
89.99999999999592
  0
LINE
  5
31
330
1F
100
AcDbEntity
  8
0
 62
     7
100
AcDbLine
 10
111.7250935077638
 20
29.96523508668922
 30
0.0
 11
114.2899975077638
 21
23.28342708668912
 31
0.0
  0
LINE
  5
32
330
1F
100
AcDbEntity
  8
0
 62
     7
100
AcDbLine
 10
106.5837815077637
 20
28.8485870866892
 30
0.0
 11
110.6915335077638
 21
30.42540308668923
 31
0.0
  0
ARC
  5
33
330
1F
100
AcDbEntity
  8
0
 62
     7
100
AcDbCircle
 10
110.9782295077637
 20
29.67853908668915
 30
0.0
 40
0.8000000000000671
100
AcDbArc
 50
21.00000000000451
 51
111.0000109999972
  0
LINE
  5
34
330
1F
100
AcDbEntity
  8
0
 62
     7
100
AcDbLine
 10
106.1236135077637
 20
27.81502708668919
 30
0.0
 11
107.8631335077637
 21
23.28342708668912
 31
0.0
  0
ARC
  5
35
330
1F
100
AcDbEntity
  8
0
 62
     7
100
AcDbCircle
 10
106.8704775077638
 20
28.10172308668917
 30
0.0
 40
0.8000000000000647
100
AcDbArc
 50
111.0000110000058
 51
201.000032999995
  0
LINE
  5
36
330
1F
100
AcDbEntity
  8
0
 62
     7
100
AcDbLine
 10
102.7097895077636
 20
22.31799508668911
 30
0.0
 11
106.7210135077637
 21
2.023115086688801
 31
0.0
  0
LINE
  5
37
330
1F
100
AcDbEntity
  8
0
 62
     7
100
AcDbLine
 10
103.4946055077637
 20
23.27311508668912
 30
0.0
 11
107.8631335077637
 21
23.27311508668912
 31
0.0
  0
ARC
  5
38
330
1F
100
AcDbEntity
  8
0
 62
     7
100
AcDbCircle
 10
103.4946055077637
 20
22.4731150866891
 30
0.0
 40
0.8000000000000284
100
AcDbArc
 50
90.00000000000102
 51
191.1802459999981
  0
LINE
  5
39
330
1F
100
AcDbEntity
  8
0
 62
     7
100
AcDbLine
 10
107.3806215077637
 20
0.0231150866887708
 30
0.0
 11
107.1936215077637
 21
0.2101150866887855
 31
0.0
  0
LINE
  5
3A
330
1F
100
AcDbEntity
  8
0
 62
     7
100
AcDbLine
 10
139.2910135077642
 20
0.0231150866887708
 30
0.0
 11
135.6510135077642
 21
0.0231150866887708
 31
0.0
  0
LINE
  5
3B
330
1F
100
AcDbEntity
  8
0
 62
     7
100
AcDbLine
 10
107.3806215077637
 20
0.0231150866887708
 30
0.0
 11
110.7840135077638
 21
0.0231150866887708
 31
0.0
  0
LINE
  5
3C
330
1F
100
AcDbEntity
  8
0
 62
     7
100
AcDbLine
 10
139.4710135077642
 20
0.2031150866887805
 30
0.0
 11
135.4710135077642
 21
0.2031150866887805
 31
0.0
  0
LINE
  5
3D
330
1F
100
AcDbEntity
  8
0
 62
     7
100
AcDbLine
 10
106.9710135077637
 20
2.023115086688801
 30
0.0
 11
107.1936215077637
 21
0.2101150866887855
 31
0.0
  0
LINE
  5
3E
330
1F
100
AcDbEntity
  8
0
 62
     7
100
AcDbLine
 10
106.7210135077637
 20
2.023115086688801
 30
0.0
 11
139.7210135077642
 21
2.023115086688801
 31
0.0
  0
LINE
  5
3F
330
1F
100
AcDbEntity
  8
0
 62
     7
100
AcDbLine
 10
110.9710135077638
 20
0.2101150866887855
 30
0.0
 11
110.9710135077638
 21
2.023115086688801
 31
0.0
  0
LINE
  5
40
330
1F
100
AcDbEntity
  8
0
 62
     7
100
AcDbLine
 10
135.4710135077642
 20
0.2031150866887805
 30
0.0
 11
135.6510135077642
 21
0.0231150866887708
 31
0.0
  0
LINE
  5
41
330
1F
100
AcDbEntity
  8
0
 62
     7
100
AcDbLine
 10
110.7840135077638
 20
0.0231150866887708
 30
0.0
 11
110.9710135077638
 21
0.2101150866887855
 31
0.0
  0
LINE
  5
42
330
1F
100
AcDbEntity
  8
0
 62
     7
100
AcDbLine
 10
135.4710135077642
 20
0.2031150866887805
 30
0.0
 11
135.4710135077642
 21
2.023115086688801
 31
0.0
  0
LINE
  5
43
330
1F
100
AcDbEntity
  8
0
 62
     7
100
AcDbLine
 10
139.4710135077642
 20
2.023115086688801
 30
0.0
 11
139.4710135077642
 21
0.2031150866887805
 31
0.0
  0
LINE
  5
44
330
1F
100
AcDbEntity
  8
0
 62
     7
100
AcDbLine
 10
139.4710135077642
 20
0.2031150866887805
 30
0.0
 11
139.2910135077642
 21
0.0231150866887708
 31
0.0
  0
LINE
  5
45
330
1F
100
AcDbEntity
  8
0
 62
     7
100
AcDbLine
 10
113.7170535077638
 20
8.033427086688892
 30
0.0
 11
107.8631335077637
 21
23.28342708668912
 31
0.0
  0
LINE
  5
46
330
1F
100
AcDbEntity
  8
0
 62
     7
100
AcDbLine
 10
113.7170535077638
 20
8.033427086688892
 30
0.0
 11
139.7170535077642
 21
8.033427086688892
 31
0.0
  0
LINE
  5
47
330
1F
100
AcDbEntity
  8
0
 62
     7
100
AcDbLine
 10
107.1936135077637
 20
0.2101150866887918
 30
0.0
 11
110.9710135077638
 21
0.2101150866887918
 31
0.0
  0
LINE
  5
48
330
1F
100
AcDbEntity
  8
0
 62
     7
100
AcDbLine
 10
86.2948318808874
 20
86.19869515520044
 30
0.0
 11
26.79483188088759
 21
86.19869515520033
 31
0.0
  0
LINE
  5
49
330
1F
100
AcDbEntity
  8
0
 62
     7
100
AcDbLine
 10
83.7948318808874
 20
82.78796219692651
 30
0.0
 11
26.79483188088757
 21
82.78796219692639
 31
0.0
  0
LINE
  5
4A
330
1F
100
AcDbEntity
  8
0
 62
     7
100
AcDbLine
 10
83.79483188088742
 20
77.41537529761735
 30
0.0
 11
26.79483188088759
 21
77.41537529761723
 31
0.0
  0
LINE
  5
4B
330
1F
100
AcDbEntity
  8
0
 62
     7
100
AcDbLine
 10
26.79483188088759
 20
71.44819656463341
 30
0.0
 11
80.79483188088766
 21
71.44819656463352
 31
0.0
  0
LINE
  5
4C
330
1F
100
AcDbEntity
  8
0
 62
     7
100
AcDbLine
 10
53.79483188088767
 20
50.18802127157021
 30
0.0
 11
53.79483188088759
 21
86.19869515520037
 31
0.0
  0
LINE
  5
4D
330
1F
100
AcDbEntity
  8
0
 62
     7
100
AcDbLine
 10
52.79483188088745
 20
49.18802127157009
 30
0.0
 11
27.79483188088788
 21
49.18802127157004
 31
0.0
  0
LINE
  5
4E
330
1F
100
AcDbEntity
  8
0
 62
     7
100
AcDbLine
 10
79.79483188088746
 20
49.18802127157016
 30
0.0
 11
54.7948318808879
 21
49.1880212715701
 31
0.0
  0
ARC
  5
4F
330
1F
100
AcDbEntity
  8
0
 62
     7
100
AcDbCircle
 10
54.79483188088782
 20
50.18802127157024
 30
0.0
 40
1.00000000000014
100
AcDbArc
 50
179.9999999999943
 51
270.0000000000049
  0
ARC
  5
50
330
1F
100
AcDbEntity
  8
0
 62
     7
100
AcDbCircle
 10
52.79483188088754
 20
50.18802127157024
 30
0.0
 40
1.00000000000014
100
AcDbArc
 50
269.9999999999947
 51
0.0000000000056996
  0
LINE
  5
51
330
1F
100
AcDbEntity
  8
0
 62
     7
100
AcDbLine
 10
84.79483188088763
 20
81.78796219692632
 30
0.0
 11
84.79483188088764
 21
76.4153752976174
 31
0.0
  0
ARC
  5
52
330
1F
100
AcDbEntity
  8
0
 62
     7
100
AcDbCircle
 10
83.79483188088742
 20
76.41537529761712
 30
0.0
 40
1.000000000000238
100
AcDbArc
 50
0.0000000000170987
 51
90.0
  0
ARC
  5
53
330
1F
100
AcDbEntity
  8
0
 62
     7
100
AcDbCircle
 10
79.79483188088754
 20
50.1880212715703
 30
0.0
 40
1.00000000000014
100
AcDbArc
 50
269.9999999999959
 51
0.0000000000048853
  0
ARC
  5
54
330
1F
100
AcDbEntity
  8
0
 62
     7
100
AcDbCircle
 10
83.79483188088756
 20
81.78796219692643
 30
0.0
 40
1.000000000000069
100
AcDbArc
 50
359.9999999999935
 51
90.00000000000895
  0
LINE
  5
55
330
1F
100
AcDbEntity
  8
0
 62
     7
100
AcDbLine
 10
80.79483188088763
 20
74.61507894886084
 30
0.0
 11
80.79483188088769
 21
50.18802127157039
 31
0.0
  0
LINE
  5
56
330
1F
100
AcDbEntity
  8
0
 62
     7
100
AcDbLine
 10
81.79483188088796
 20
49.18802127157016
 30
0.0
 11
86.29483188088743
 21
49.18802127157017
 31
0.0
  0
ARC
  5
57
330
1F
100
AcDbEntity
  8
0
 62
     7
100
AcDbCircle
 10
81.79483188088776
 20
50.18802127157024
 30
0.0
 40
1.000000000000069
100
AcDbArc
 50
179.9999999999915
 51
270.0000000000106
  0
LINE
  5
58
330
1F
100
AcDbEntity
  8
0
 62
     7
100
AcDbLine
 10
87.2948318808877
 20
50.18802127157041
 30
0.0
 11
87.29483188088763
 21
85.19869515520021
 31
0.0
  0
ARC
  5
59
330
1F
100
AcDbEntity
  8
0
 62
     7
100
AcDbCircle
 10
86.29483188088756
 20
50.1880212715703
 30
0.0
 40
1.000000000000131
100
AcDbArc
 50
269.9999999999927
 51
0.0000000000061067
  0
ARC
  5
5A
330
1F
100
AcDbEntity
  8
0
 62
     7
100
AcDbCircle
 10
86.29483188088754
 20
85.19869515520034
 30
0.0
 40
1.000000000000087
100
AcDbArc
 50
359.9999999999927
 51
90.00000000000814
  0
LINE
  5
5B
330
1F
100
AcDbEntity
  8
0
 62
     7
100
AcDbLine
 10
80.79483188088766
 20
71.44819656463352
 30
0.0
 11
80.79483188088763
 21
74.61507894886084
 31
0.0
  0
LINE
  5
5C
330
1F
100
AcDbEntity
  8
0
 62
     7
100
AcDbLine
 10
80.79483188088763
 20
74.61507894886084
 30
0.0
 11
84.79483188088764
 21
74.61507894886081
 31
0.0
  0
LINE
  5
5D
330
1F
100
AcDbEntity
  8
0
 62
     7
100
AcDbLine
 10
84.79483188088764
 20
74.61507894886081
 30
0.0
 11
84.79483188088764
 21
76.4153752976174
 31
0.0
  0
LINE
  5
5E
330
1F
100
AcDbEntity
  8
0
 62
     7
100
AcDbLine
 10
80.79483188088766
 20
71.44819656463352
 30
0.0
 11
80.79483188088769
 21
50.18802127157039
 31
0.0
  0
LINE
  5
5F
330
1F
100
AcDbEntity
  8
0
 62
     7
100
AcDbLine
 10
87.2948318808878
 20
2.023115086688895
 30
0.0
 11
-0.2051681191122441
 21
2.023115086688707
 31
0.0
  0
LINE
  5
60
330
1F
100
AcDbEntity
  8
0
 62
     7
100
AcDbLine
 10
6.080927880887772
 20
0.0231150866887193
 30
0.0
 11
0.4409278808877639
 21
0.0231150866887071
 31
0.0
  0
LINE
  5
61
330
1F
100
AcDbEntity
  8
0
 62
     7
100
AcDbLine
 10
6.260927880887762
 20
0.2031150866886979
 30
0.0
 11
0.2609278808877571
 21
0.2031150866886851
 31
0.0
  0
LINE
  5
62
330
1F
100
AcDbEntity
  8
0
 62
     7
100
AcDbLine
 10
6.260927880887762
 20
0.2031150866886979
 30
0.0
 11
6.080927880887772
 21
0.0231150866887193
 31
0.0
  0
LINE
  5
63
330
1F
100
AcDbEntity
  8
0
 62
     7
100
AcDbLine
 10
6.260927880887762
 20
2.02311508668872
 30
0.0
 11
6.260927880887762
 21
0.2031150866886979
 31
0.0
  0
LINE
  5
64
330
1F
100
AcDbEntity
  8
0
 62
     7
100
AcDbLine
 10
0.2609278808877567
 20
2.023115086688708
 30
0.0
 11
0.2609278808877567
 21
0.2031150866886851
 31
0.0
  0
LINE
  5
65
330
1F
100
AcDbEntity
  8
0
 62
     7
100
AcDbLine
 10
0.2609278808877567
 20
0.2031150866886851
 30
0.0
 11
0.4409278808877639
 21
0.0231150866887071
 31
0.0
  0
LINE
  5
66
330
1F
100
AcDbEntity
  8
0
 62
     7
100
AcDbLine
 10
87.0448318808878
 20
2.023115086688895
 30
0.0
 11
87.0448318808878
 21
0.2031150866888725
 31
0.0
  0
LINE
  5
67
330
1F
100
AcDbEntity
  8
0
 62
     7
100
AcDbLine
 10
87.0448318808878
 20
0.2031150866888725
 30
0.0
 11
86.86483188088779
 21
0.0231150866888936
 31
0.0
  0
LINE
  5
68
330
1F
100
AcDbEntity
  8
0
 62
     7
100
AcDbLine
 10
81.0448318808878
 20
2.023115086688882
 30
0.0
 11
81.0448318808878
 21
0.2031150866888591
 31
0.0
  0
LINE
  5
69
330
1F
100
AcDbEntity
  8
0
 62
     7
100
AcDbLine
 10
81.0448318808878
 20
0.2031150866888591
 30
0.0
 11
81.22483188088781
 21
0.0231150866888814
 31
0.0
  0
LINE
  5
6A
330
1F
100
AcDbEntity
  8
0
 62
     7
100
AcDbLine
 10
53.79483188088774
 20
30.71209908668882
 30
0.0
 11
53.79483188088778
 21
8.023115086688822
 31
0.0
  0
LINE
  5
6B
330
1F
100
AcDbEntity
  8
0
 62
     7
100
AcDbLine
 10
86.86483188088779
 20
0.0231150866888936
 30
0.0
 11
81.22483188088781
 21
0.0231150866888814
 31
0.0
  0
LINE
  5
6C
330
1F
100
AcDbEntity
  8
0
 62
     7
100
AcDbLine
 10
87.0448318808878
 20
0.2031150866888725
 30
0.0
 11
81.0448318808878
 21
0.2031150866888591
 31
0.0
  0
LINE
  5
6D
330
1F
100
AcDbEntity
  8
0
 62
     7
100
AcDbLine
 10
80.7948318808878
 20
8.023115086688883
 30
0.0
 11
-0.2051681191122441
 21
8.023115086688708
 31
0.0
  0
LINE
  5
6E
330
1F
100
AcDbEntity
  8
0
 62
     7
100
AcDbLine
 10
26.79483188088771
 20
30.71209908668876
 30
0.0
 11
26.79483188088776
 21
8.023115086688765
 31
0.0
  0
ARC
  5
6F
330
1F
100
AcDbEntity
  8
0
 62
     7
100
AcDbCircle
 10
83.99483188088776
 20
29.9120990866889
 30
0.0
 40
0.7999999999999795
100
AcDbArc
 50
359.9999999999997
 51
90.00000000000203
  0
LINE
  5
70
330
1F
100
AcDbEntity
  8
0
 62
     7
100
AcDbLine
 10
84.79483188088774
 20
29.9120990866889
 30
0.0
 11
84.79483188088774
 21
23.2834270866889
 31
0.0
  0
ARC
  5
71
330
1F
100
AcDbEntity
  8
0
 62
     7
100
AcDbCircle
 10
0.5948318808876443
 20
29.91209908668875
 30
0.0
 40
0.7999999999999595
100
AcDbArc
 50
89.99999999999699
 51
180.0000000000015
  0
LINE
  5
72
330
1F
100
AcDbEntity
  8
0
 62
     7
100
AcDbLine
 10
83.99483188088775
 20
30.71209908668888
 30
0.0
 11
0.594831880887682
 21
30.7120990866887
 31
0.0
  0
ARC
  5
73
330
1F
100
AcDbEntity
  8
0
 62
     7
100
AcDbCircle
 10
81.59483188088775
 20
22.47311508668889
 30
0.0
 40
0.8000000000000017
100
AcDbArc
 50
90.00000000000102
 51
180.0000000000003
  0
LINE
  5
74
330
1F
100
AcDbEntity
  8
0
 62
     7
100
AcDbLine
 10
80.79483188088776
 20
22.47311508668888
 30
0.0
 11
80.7948318808878
 21
2.023115086688883
 31
0.0
  0
ARC
  5
75
330
1F
100
AcDbEntity
  8
0
 62
     7
100
AcDbCircle
 10
86.49483188088773
 20
22.47311508668889
 30
0.0
 40
0.800000000000015
100
AcDbArc
 50
0.0
 51
89.99999999999695
  0
LINE
  5
76
330
1F
100
AcDbEntity
  8
0
 62
     7
100
AcDbLine
 10
86.49483188088775
 20
23.27311508668891
 30
0.0
 11
81.59483188088775
 21
23.2731150866889
 31
0.0
  0
LINE
  5
77
330
1F
100
AcDbEntity
  8
0
 62
     7
100
AcDbLine
 10
87.2948318808878
 20
2.023115086688895
 30
0.0
 11
87.29483188088776
 21
22.47311508668889
 31
0.0
  0
ARC
  5
78
330
1F
100
AcDbEntity
  8
0
 62
     7
100
AcDbCircle
 10
0.5948318808877176
 20
14.34811508668872
 30
0.0
 40
0.7999999999999974
100
AcDbArc
 50
89.99999999999969
 51
180.0000000000011
  0
LINE
  5
79
330
1F
100
AcDbEntity
  8
0
 62
     7
100
AcDbLine
 10
80.79483188088776
 20
15.14811508668889
 30
0.0
 11
0.5948318808877247
 21
15.14811508668872
 31
0.0
  0
LINE
  5
7A
330
1F
100
AcDbEntity
  8
0
 62
     7
100
AcDbLine
 10
-0.2051681191122796
 20
14.3481150866887
 30
0.0
 11
-0.2051681191122441
 21
2.023115086688708
 31
0.0
  0
LINE
  5
7B
330
1F
100
AcDbEntity
  8
0
 62
     7
100
AcDbLine
 10
-0.2051681191123151
 20
29.91209908668872
 30
0.0
 11
-0.2051681191122796
 21
14.3481150866887
 31
0.0
  0
ARC
  5
7C
330
1F
100
AcDbEntity
  8
0
 62
     7
100
AcDbCircle
 10
27.79483188088777
 20
50.18802127157016
 30
0.0
 40
1.000000000000113
100
AcDbArc
 50
179.9999999999923
 51
270.0000000000061
  0
LINE
  5
7D
330
1F
100
AcDbEntity
  8
0
 62
     7
100
AcDbLine
 10
26.79483188088765
 20
50.18802127157018
 30
0.0
 11
26.79483188088758
 21
86.19869515520033
 31
0.0
  0
LINE
  5
7E
330
1F
100
AcDbEntity
  8
0
 62
     7
100
AcDbLine
 10
-0.2051681191123507
 20
50.18802127157012
 30
0.0
 11
-0.2051681191124217
 21
86.19869515520027
 31
0.0
  0
ARC
  5
7F
330
1F
100
AcDbEntity
  8
0
 62
     7
100
AcDbCircle
 10
0.7948318808877604
 20
50.1880212715701
 30
0.0
 40
1.000000000000113
100
AcDbArc
 50
179.9999999999927
 51
270.0000000000067
  0
ARC
  5
80
330
1F
100
AcDbEntity
  8
0
 62
     7
100
AcDbCircle
 10
25.79483188088753
 20
50.18802127157006
 30
0.0
 40
1.000000000000131
100
AcDbArc
 50
269.9999999999943
 51
0.0000000000065138
  0
LINE
  5
81
330
1F
100
AcDbEntity
  8
0
 62
     7
100
AcDbLine
 10
26.79483188088758
 20
86.19869515520033
 30
0.0
 11
-0.2051681191124217
 21
86.19869515520027
 31
0.0
  0
LINE
  5
82
330
1F
100
AcDbEntity
  8
0
 62
     7
100
AcDbLine
 10
26.79483188088758
 20
82.78796219692639
 30
0.0
 11
-0.2051681191124217
 21
82.78796219692633
 31
0.0
  0
LINE
  5
83
330
1F
100
AcDbEntity
  8
0
 62
     7
100
AcDbLine
 10
26.79483188088759
 20
77.41537529761723
 30
0.0
 11
-0.2051681191124217
 21
77.41537529761716
 31
0.0
  0
LINE
  5
84
330
1F
100
AcDbEntity
  8
0
 62
     7
100
AcDbLine
 10
26.79483188088759
 20
71.44819656463341
 30
0.0
 11
-0.2051681191123862
 21
71.44819656463335
 31
0.0
  0
LINE
  5
85
330
1F
100
AcDbEntity
  8
0
 62
     7
100
AcDbLine
 10
25.79483188088743
 20
49.18802127156992
 30
0.0
 11
0.7948318808878767
 21
49.18802127156999
 31
0.0
  0
ENDSEC
  0
SECTION
  2
OBJECTS
  0
DICTIONARY
  5
C
330
0
100
AcDbDictionary
  3
ACAD_GROUP
350
D
  3
ACAD_LAYOUT
350
1A
  3
ACAD_MLINESTYLE
350
17
  3
ACAD_PLOTSETTINGS
350
19
  3
ACDBHEADERROUNDTRIPXREC
350
86
  0
DICTIONARY
  5
A6
330
29
100
AcDbDictionary
280
     1
  3
ACAD_XREC_ROUNDTRIP
360
A7
  0
DICTIONARY
  5
D
102
{ACAD_REACTORS
330
C
102
}
330
C
100
AcDbDictionary
  0
DICTIONARY
  5
1A
102
{ACAD_REACTORS
330
C
102
}
330
C
100
AcDbDictionary
  0
DICTIONARY
  5
17
102
{ACAD_REACTORS
330
C
102
}
330
C
100
AcDbDictionary
  3
STANDARD
350
18
  0
DICTIONARY
  5
19
102
{ACAD_REACTORS
330
C
102
}
330
C
100
AcDbDictionary
  0
DICTIONARY
  5
86
102
{ACAD_REACTORS
330
C
102
}
330
C
100
AcDbDictionary
  3
CEPSNTYPE
350
8F
  3
DIMSTYLEDATA
350
A5
  3
FINGERPRINTGUID
350
90
  3
HYPERLINKBASE
350
89
  3
INSUNITS
350
8E
  3
LAYOUTDICT
350
8B
  3
LWETCUNION
350
8D
  3
PLOTSETDICT
350
8C
  3
PSVPSCALE
350
92
  3
PUCSBASE
350
95
  3
PUCSORGBACK
350
9B
  3
PUCSORGBOTTOM
350
97
  3
PUCSORGFRONT
350
9A
  3
PUCSORGLEFT
350
98
  3
PUCSORGRIGHT
350
99
  3
PUCSORGTOP
350
96
  3
PUCSORTHOREF
350
93
  3
PUCSORTHOVIEW
350
94
  3
STYLESHEET
350
8A
  3
TSTACKALIGN
350
87
  3
TSTACKSIZE
350
88
  3
UCSBASE
350
9E
  3
UCSORGBACK
350
A4
  3
UCSORGBOTTOM
350
A0
  3
UCSORGFRONT
350
A3
  3
UCSORGLEFT
350
A1
  3
UCSORGRIGHT
350
A2
  3
UCSORGTOP
350
9F
  3
UCSORTHOREF
350
9C
  3
UCSORTHOVIEW
350
9D
  3
VERSIONGUID
350
91
  0
XRECORD
  5
A7
102
{ACAD_REACTORS
330
A6
102
}
330
A6
100
AcDbXrecord
102
UCS
 74
     0
 71
     1
 10
0.0
 20
0.0
 30
0.0
 10
1.0
 20
0.0
 30
0.0
 10
0.0
 20
1.0
 30
0.0
146
0.0
 79
     0
102
VIEW
281
     0
  0
MLINESTYLE
  5
18
102
{ACAD_REACTORS
330
17
102
}
330
17
100
AcDbMlineStyle
  2
Standard
 70
     0
  3

 62
   256
 51
90.0
 52
90.0
 71
     2
 49
0.5
 62
   256
  6
BYLAYER
 49
-0.5
 62
   256
  6
BYLAYER
  0
XRECORD
  5
8F
102
{ACAD_REACTORS
330
86
102
}
330
86
100
AcDbXrecord
 90
        0
  0
XRECORD
  5
A5
102
{ACAD_REACTORS
330
86
102
}
330
86
100
AcDbXrecord
1000
DSTYLE
1002
{
1070
   340
340
11
1002
}
  0
XRECORD
  5
90
102
{ACAD_REACTORS
330
86
102
}
330
86
100
AcDbXrecord
  1
{FAEB1C30-E019-11D5-929B-00C0DF256EC4}
  0
XRECORD
  5
89
102
{ACAD_REACTORS
330
86
102
}
330
86
100
AcDbXrecord
  1

  0
XRECORD
  5
8E
102
{ACAD_REACTORS
330
86
102
}
330
86
100
AcDbXrecord
 90
        4
  0
XRECORD
  5
8B
102
{ACAD_REACTORS
330
86
102
}
330
86
100
AcDbXrecord
340
1A
  0
XRECORD
  5
8D
102
{ACAD_REACTORS
330
86
102
}
330
86
100
AcDbXrecord
 90
     2560
  0
XRECORD
  5
8C
102
{ACAD_REACTORS
330
86
102
}
330
86
100
AcDbXrecord
340
19
  0
XRECORD
  5
92
102
{ACAD_REACTORS
330
86
102
}
330
86
100
AcDbXrecord
 40
0.0
  0
XRECORD
  5
95
102
{ACAD_REACTORS
330
86
102
}
330
86
100
AcDbXrecord
340
0
  0
XRECORD
  5
9B
102
{ACAD_REACTORS
330
86
102
}
330
86
100
AcDbXrecord
 10
0.0
 20
0.0
 30
0.0
  0
XRECORD
  5
97
102
{ACAD_REACTORS
330
86
102
}
330
86
100
AcDbXrecord
 10
0.0
 20
0.0
 30
0.0
  0
XRECORD
  5
9A
102
{ACAD_REACTORS
330
86
102
}
330
86
100
AcDbXrecord
 10
0.0
 20
0.0
 30
0.0
  0
XRECORD
  5
98
102
{ACAD_REACTORS
330
86
102
}
330
86
100
AcDbXrecord
 10
0.0
 20
0.0
 30
0.0
  0
XRECORD
  5
99
102
{ACAD_REACTORS
330
86
102
}
330
86
100
AcDbXrecord
 10
0.0
 20
0.0
 30
0.0
  0
XRECORD
  5
96
102
{ACAD_REACTORS
330
86
102
}
330
86
100
AcDbXrecord
 10
0.0
 20
0.0
 30
0.0
  0
XRECORD
  5
93
102
{ACAD_REACTORS
330
86
102
}
330
86
100
AcDbXrecord
340
0
  0
XRECORD
  5
94
102
{ACAD_REACTORS
330
86
102
}
330
86
100
AcDbXrecord
 70
     0
  0
XRECORD
  5
8A
102
{ACAD_REACTORS
330
86
102
}
330
86
100
AcDbXrecord
  1

  0
XRECORD
  5
87
102
{ACAD_REACTORS
330
86
102
}
330
86
100
AcDbXrecord
 90
        1
  0
XRECORD
  5
88
102
{ACAD_REACTORS
330
86
102
}
330
86
100
AcDbXrecord
 90
       70
  0
XRECORD
  5
9E
102
{ACAD_REACTORS
330
86
102
}
330
86
100
AcDbXrecord
340
0
  0
XRECORD
  5
A4
102
{ACAD_REACTORS
330
86
102
}
330
86
100
AcDbXrecord
 10
0.0
 20
0.0
 30
0.0
  0
XRECORD
  5
A0
102
{ACAD_REACTORS
330
86
102
}
330
86
100
AcDbXrecord
 10
0.0
 20
0.0
 30
0.0
  0
XRECORD
  5
A3
102
{ACAD_REACTORS
330
86
102
}
330
86
100
AcDbXrecord
 10
0.0
 20
0.0
 30
0.0
  0
XRECORD
  5
A1
102
{ACAD_REACTORS
330
86
102
}
330
86
100
AcDbXrecord
 10
0.0
 20
0.0
 30
0.0
  0
XRECORD
  5
A2
102
{ACAD_REACTORS
330
86
102
}
330
86
100
AcDbXrecord
 10
0.0
 20
0.0
 30
0.0
  0
XRECORD
  5
9F
102
{ACAD_REACTORS
330
86
102
}
330
86
100
AcDbXrecord
 10
0.0
 20
0.0
 30
0.0
  0
XRECORD
  5
9C
102
{ACAD_REACTORS
330
86
102
}
330
86
100
AcDbXrecord
340
0
  0
XRECORD
  5
9D
102
{ACAD_REACTORS
330
86
102
}
330
86
100
AcDbXrecord
 70
     0
  0
XRECORD
  5
91
102
{ACAD_REACTORS
330
86
102
}
330
86
100
AcDbXrecord
  1
{FAEB1C32-E019-11D5-929B-00C0DF256EC4}
  0
ENDSEC
  0
EOF
