  0
SECTION
  2
HEADER
  9
$ACADVER
  1
AC1014
  9
$ACADMAINTVER
 70
     9
  9
$DWGCODEPAGE
  3
ANSI_1252
  9
$INSBASE
 10
0.0
 20
0.0
 30
0.0
  9
$EXTMIN
 10
1.000000000000000E+20
 20
1.000000000000000E+20
 30
1.000000000000000E+20
  9
$EXTMAX
 10
-1.000000000000000E+20
 20
-1.000000000000000E+20
 30
-1.000000000000000E+20
  9
$LIMMIN
 10
0.0
 20
0.0
  9
$LIMMAX
 10
12.0
 20
9.0
  9
$ORTHOMODE
 70
     0
  9
$REGENMODE
 70
     1
  9
$FILLMODE
 70
     1
  9
$QTEXTMODE
 70
     0
  9
$MIRRTEXT
 70
     1
  9
$DRAGMODE
 70
     2
  9
$LTSCALE
 40
1.0
  9
$OSMODE
 70
    37
  9
$ATTMODE
 70
     1
  9
$TEXTSIZE
 40
0.2
  9
$TRACEWID
 40
0.05
  9
$TEXTSTYLE
  7
STANDARD
  9
$CLAYER
  8
DEFAULT
  9
$CELTYPE
  6
BYLAYER
  9
$CECOLOR
 62
   256
  9
$CELTSCALE
 40
1.0
  9
$DELOBJ
 70
     1
  9
$DISPSILH
 70
     0
  9
$DIMSCALE
 40
1.0
  9
$DIMASZ
 40
0.18
  9
$DIMEXO
 40
0.0625
  9
$DIMDLI
 40
0.38
  9
$DIMRND
 40
0.0
  9
$DIMDLE
 40
0.0
  9
$DIMEXE
 40
0.18
  9
$DIMTP
 40
0.0
  9
$DIMTM
 40
0.0
  9
$DIMTXT
 40
0.18
  9
$DIMCEN
 40
0.09
  9
$DIMTSZ
 40
0.0
  9
$DIMTOL
 70
     0
  9
$DIMLIM
 70
     0
  9
$DIMTIH
 70
     1
  9
$DIMTOH
 70
     1
  9
$DIMSE1
 70
     0
  9
$DIMSE2
 70
     0
  9
$DIMTAD
 70
     0
  9
$DIMZIN
 70
     0
  9
$DIMBLK
  1

  9
$DIMASO
 70
     1
  9
$DIMSHO
 70
     1
  9
$DIMPOST
  1

  9
$DIMAPOST
  1

  9
$DIMALT
 70
     0
  9
$DIMALTD
 70
     2
  9
$DIMALTF
 40
25.4
  9
$DIMLFAC
 40
1.0
  9
$DIMTOFL
 70
     0
  9
$DIMTVP
 40
0.0
  9
$DIMTIX
 70
     0
  9
$DIMSOXD
 70
     0
  9
$DIMSAH
 70
     0
  9
$DIMBLK1
  1

  9
$DIMBLK2
  1

  9
$DIMSTYLE
  2
STANDARD
  9
$DIMCLRD
 70
     0
  9
$DIMCLRE
 70
     0
  9
$DIMCLRT
 70
     0
  9
$DIMTFAC
 40
1.0
  9
$DIMGAP
 40
0.09
  9
$DIMJUST
 70
     0
  9
$DIMSD1
 70
     0
  9
$DIMSD2
 70
     0
  9
$DIMTOLJ
 70
     1
  9
$DIMTZIN
 70
     0
  9
$DIMALTZ
 70
     0
  9
$DIMALTTZ
 70
     0
  9
$DIMFIT
 70
     3
  9
$DIMUPT
 70
     0
  9
$DIMUNIT
 70
     2
  9
$DIMDEC
 70
     4
  9
$DIMTDEC
 70
     4
  9
$DIMALTU
 70
     2
  9
$DIMALTTD
 70
     2
  9
$DIMTXSTY
  7
STANDARD
  9
$DIMAUNIT
 70
     0
  9
$LUNITS
 70
     2
  9
$LUPREC
 70
     3
  9
$SKETCHINC
 40
0.1
  9
$FILLETRAD
 40
0.5
  9
$AUNITS
 70
     0
  9
$AUPREC
 70
     0
  9
$MENU
  1
.
  9
$ELEVATION
 40
0.0
  9
$PELEVATION
 40
0.0
  9
$THICKNESS
 40
0.0
  9
$LIMCHECK
 70
     0
  9
$CHAMFERA
 40
0.5
  9
$CHAMFERB
 40
0.5
  9
$CHAMFERC
 40
1.0
  9
$CHAMFERD
 40
0.0
  9
$SKPOLY
 70
     0
  9
$TDCREATE
 40
2453721.557670915
  9
$TDUPDATE
 40
2453721.557670926
  9
$TDINDWG
 40
0.0000000116
  9
$TDUSRTIMER
 40
0.0000000116
  9
$USRTIMER
 70
     1
  9
$ANGBASE
 50
0.0
  9
$ANGDIR
 70
     0
  9
$PDMODE
 70
     0
  9
$PDSIZE
 40
0.0
  9
$PLINEWID
 40
0.0
  9
$COORDS
 70
     1
  9
$SPLFRAME
 70
     0
  9
$SPLINETYPE
 70
     6
  9
$SPLINESEGS
 70
     8
  9
$ATTDIA
 70
     0
  9
$ATTREQ
 70
     1
  9
$HANDLING
 70
     1
  9
$HANDSEED
  5
38F
  9
$SURFTAB1
 70
     6
  9
$SURFTAB2
 70
     6
  9
$SURFTYPE
 70
     6
  9
$SURFU
 70
     6
  9
$SURFV
 70
     6
  9
$UCSNAME
  2

  9
$UCSORG
 10
0.0
 20
0.0
 30
0.0
  9
$UCSXDIR
 10
1.0
 20
0.0
 30
0.0
  9
$UCSYDIR
 10
0.0
 20
1.0
 30
0.0
  9
$PUCSNAME
  2

  9
$PUCSORG
 10
0.0
 20
0.0
 30
0.0
  9
$PUCSXDIR
 10
1.0
 20
0.0
 30
0.0
  9
$PUCSYDIR
 10
0.0
 20
1.0
 30
0.0
  9
$USERI1
 70
     0
  9
$USERI2
 70
     0
  9
$USERI3
 70
     0
  9
$USERI4
 70
     0
  9
$USERI5
 70
     0
  9
$USERR1
 40
0.0
  9
$USERR2
 40
0.0
  9
$USERR3
 40
0.0
  9
$USERR4
 40
0.0
  9
$USERR5
 40
0.0
  9
$WORLDVIEW
 70
     1
  9
$SHADEDGE
 70
     3
  9
$SHADEDIF
 70
    70
  9
$TILEMODE
 70
     1
  9
$MAXACTVP
 70
    64
  9
$PINSBASE
 10
0.0
 20
0.0
 30
0.0
  9
$PLIMCHECK
 70
     0
  9
$PEXTMIN
 10
1.000000000000000E+20
 20
1.000000000000000E+20
 30
1.000000000000000E+20
  9
$PEXTMAX
 10
-1.000000000000000E+20
 20
-1.000000000000000E+20
 30
-1.000000000000000E+20
  9
$PLIMMIN
 10
0.0
 20
0.0
  9
$PLIMMAX
 10
12.0
 20
9.0
  9
$UNITMODE
 70
     0
  9
$VISRETAIN
 70
     1
  9
$PLINEGEN
 70
     0
  9
$PSLTSCALE
 70
     1
  9
$TREEDEPTH
 70
  3020
  9
$PICKSTYLE
 70
     1
  9
$CMLSTYLE
  2
STANDARD
  9
$CMLJUST
 70
     0
  9
$CMLSCALE
 40
1.0
  9
$PROXYGRAPHICS
 70
     1
  9
$MEASUREMENT
 70
     0
  0
ENDSEC
  0
SECTION
  2
CLASSES
  0
CLASS
  1
ACDBDICTIONARYWDFLT
  2
AcDbDictionaryWithDefault
  3
ObjectDBX Classes
 90
        0
280
     0
281
     0
  0
CLASS
  1
XRECORD
  2
AcDbXrecord
  3
AutoCAD 2000
 90
        0
280
     0
281
     0
  0
CLASS
  1
LWPOLYLINE
  2
AcDbPolyline
  3
AutoCAD 2000
 90
        0
280
     0
281
     1
  0
CLASS
  1
HATCH
  2
AcDbHatch
  3
AutoCAD 2000
 90
        0
280
     0
281
     1
  0
CLASS
  1
ACDBPLACEHOLDER
  2
AcDbPlaceHolder
  3
ObjectDBX Classes
 90
        0
280
     0
281
     0
  0
CLASS
  1
LAYOUT
  2
AcDbLayout
  3
ObjectDBX Classes
 90
        0
280
     0
281
     0
  0
ENDSEC
  0
SECTION
  2
TABLES
  0
TABLE
  2
VPORT
  5
8
330
0
100
AcDbSymbolTable
 70
     2
  0
VPORT
  5
29
102
{ACAD_XDICTIONARY
360
38D
102
}
330
8
100
AcDbSymbolTableRecord
100
AcDbViewportTableRecord
  2
*ACTIVE
 70
     0
 10
0.0
 20
0.0
 11
1.0
 21
1.0
 12
25.75149311457822
 22
30.70574172896036
 13
0.0
 23
0.0
 14
0.5
 24
0.5
 15
0.5
 25
0.5
 16
0.0
 26
0.0
 36
80.21230066091221
 17
0.0
 27
0.0
 37
0.0
 40
61.39446035168743
 41
1.972972972850329
 42
50.0
 43
0.0
 44
0.0
 50
0.0
 51
0.0
 71
     0
 72
   100
 73
     1
 74
     3
 75
     0
 76
     0
 77
     0
 78
     0
  0
ENDTAB
  0
TABLE
  2
LTYPE
  5
5
330
0
100
AcDbSymbolTable
 70
     1
  0
LTYPE
  5
14
330
5
100
AcDbSymbolTableRecord
100
AcDbLinetypeTableRecord
  2
BYBLOCK
 70
     0
  3

 72
    65
 73
     0
 40
0.0
  0
LTYPE
  5
15
330
5
100
AcDbSymbolTableRecord
100
AcDbLinetypeTableRecord
  2
BYLAYER
 70
     0
  3

 72
    65
 73
     0
 40
0.0
  0
LTYPE
  5
16
330
5
100
AcDbSymbolTableRecord
100
AcDbLinetypeTableRecord
  2
CONTINUOUS
 70
     0
  3
Solid line
 72
    65
 73
     0
 40
0.0
  0
ENDTAB
  0
TABLE
  2
LAYER
  5
2
330
0
100
AcDbSymbolTable
 70
     3
  0
LAYER
  5
10
330
2
100
AcDbSymbolTableRecord
100
AcDbLayerTableRecord
  2
0
 70
     0
 62
     7
  6
CONTINUOUS
  0
LAYER
  5
2A
330
2
100
AcDbSymbolTableRecord
100
AcDbLayerTableRecord
  2
IGES_LEVEL_0
 70
     0
 62
   255
  6
CONTINUOUS
  0
LAYER
  5
54
330
2
100
AcDbSymbolTableRecord
100
AcDbLayerTableRecord
  2
DEFAULT
 70
     0
 62
     7
  6
CONTINUOUS
  0
ENDTAB
  0
TABLE
  2
STYLE
  5
3
330
0
100
AcDbSymbolTable
 70
     1
  0
STYLE
  5
11
330
3
100
AcDbSymbolTableRecord
100
AcDbTextStyleTableRecord
  2
STANDARD
 70
     0
 40
0.0
 41
1.0
 50
0.0
 71
     0
 42
0.2
  3
txt
  4

  0
ENDTAB
  0
TABLE
  2
VIEW
  5
6
330
0
100
AcDbSymbolTable
 70
     0
  0
ENDTAB
  0
TABLE
  2
UCS
  5
7
330
0
100
AcDbSymbolTable
 70
     0
  0
ENDTAB
  0
TABLE
  2
APPID
  5
9
330
0
100
AcDbSymbolTable
 70
     1
  0
APPID
  5
12
330
9
100
AcDbSymbolTableRecord
100
AcDbRegAppTableRecord
  2
ACAD
 70
     0
  0
ENDTAB
  0
TABLE
  2
DIMSTYLE
  5
A
330
0
100
AcDbSymbolTable
 70
     1
  0
DIMSTYLE
105
27
330
A
100
AcDbSymbolTableRecord
100
AcDbDimStyleTableRecord
  2
STANDARD
 70
     0
  3

  4

  5

  6

  7

 40
1.0
 41
0.18
 42
0.0625
 43
0.38
 44
0.18
 45
0.0
 46
0.0
 47
0.0
 48
0.0
140
0.18
141
0.09
142
0.0
143
25.4
144
1.0
145
0.0
146
1.0
147
0.09
 71
     0
 72
     0
 73
     1
 74
     1
 75
     0
 76
     0
 77
     0
 78
     0
170
     0
171
     2
172
     0
173
     0
174
     0
175
     0
176
     0
177
     0
178
     0
270
     2
271
     4
272
     4
273
     2
274
     2
340
11
275
     0
280
     0
281
     0
282
     0
283
     1
284
     0
285
     0
286
     0
287
     3
288
     0
  0
ENDTAB
  0
TABLE
  2
BLOCK_RECORD
  5
1
330
0
100
AcDbSymbolTable
 70
     1
  0
BLOCK_RECORD
  5
1F
330
1
100
AcDbSymbolTableRecord
100
AcDbBlockTableRecord
  2
*MODEL_SPACE
  0
BLOCK_RECORD
  5
1B
330
1
100
AcDbSymbolTableRecord
100
AcDbBlockTableRecord
  2
*PAPER_SPACE
  0
ENDTAB
  0
ENDSEC
  0
SECTION
  2
BLOCKS
  0
BLOCK
  5
20
330
1F
100
AcDbEntity
  8
0
100
AcDbBlockBegin
  2
*MODEL_SPACE
 70
     0
 71
     0
 10
0.0
 20
0.0
 30
0.0
  3
*MODEL_SPACE
  1

  0
ENDBLK
  5
21
330
1F
100
AcDbEntity
  8
0
100
AcDbBlockEnd
  0
BLOCK
  5
1C
330
1B
100
AcDbEntity
 67
     1
  8
0
100
AcDbBlockBegin
  2
*PAPER_SPACE
 70
     0
 71
     0
 10
0.0
 20
0.0
 30
0.0
  3
*PAPER_SPACE
  1

  0
ENDBLK
  5
1D
330
1B
100
AcDbEntity
 67
     1
  8
0
100
AcDbBlockEnd
  0
ENDSEC
  0
SECTION
  2
ENTITIES
  0
SPLINE
  5
2B
330
1F
100
AcDbEntity
  8
IGES_LEVEL_0
 62
     7
100
AcDbSpline
210
0.0
220
0.0
230
1.0
 70
     8
 71
     3
 72
    23
 73
    19
 74
     0
 42
0.0000000001
 43
0.0000000001
 40
0.0
 40
0.0
 40
0.0
 40
0.0
 40
0.02256848671311
 40
0.05903132801563
 40
0.1105148563647
 40
0.1758698005997
 40
0.2529732684608
 40
0.3390939962203
 40
0.4310869317167
 40
0.5255510738348
 40
0.6189799397444
 40
0.7079110972868
 40
0.7890759658347
 40
0.8595530602819
 40
0.9169407316188
 40
0.9596198814211
 40
0.9874692870956
 40
1.0
 40
1.0
 40
1.0
 40
1.0
 10
2.221846497720222
 20
58.35113631158733
 30
0.0
 10
2.222395441050225
 20
58.35042694744733
 30
0.0
 10
2.224759215410224
 20
58.34948440712732
 30
0.0
 10
2.229097021800222
 20
58.34923564048732
 30
0.0
 10
2.235213975240221
 20
58.34968190759732
 30
0.0
 10
2.242813614940225
 20
58.35094572545732
 30
0.0
 10
2.251680299670223
 20
58.35295731067733
 30
0.0
 10
2.261457718960223
 20
58.35566470621733
 30
0.0
 10
2.271779390020221
 20
58.35896392838733
 30
0.0
 10
2.282247713500222
 20
58.36273230281732
 30
0.0
 10
2.292463151830223
 20
58.36682511865732
 30
0.0
 10
2.302032703850223
 20
58.37108578689733
 30
0.0
 10
2.310600470020223
 20
58.37534530601732
 30
0.0
 10
2.317820009210223
 20
58.37944719664733
 30
0.0
 10
2.323503548630221
 20
58.38319857865732
 30
0.0
 10
2.327300725780223
 20
58.38653825642732
 30
0.0
 10
2.329518760870222
 20
58.38911725002733
 30
0.0
 10
2.329591611880225
 20
58.39091708902733
 30
0.0
 10
2.329442568960225
 20
58.39139802256732
 30
0.0
  0
LINE
  5
2C
330
1F
100
AcDbEntity
  8
IGES_LEVEL_0
 62
     7
100
AcDbLine
 10
2.432735518920225
 20
58.48704127921732
 30
0.0
 11
2.431794659570222
 21
58.48882093671733
 31
0.0
  0
SPLINE
  5
2D
330
1F
100
AcDbEntity
  8
IGES_LEVEL_0
 62
     7
100
AcDbSpline
210
0.0
220
0.0
230
1.0
 70
     8
 71
     3
 72
    11
 73
     7
 74
     0
 42
0.0000000001
 43
0.0000000001
 40
0.0
 40
0.0
 40
0.0
 40
0.0
 40
0.2677462730081
 40
0.5960083980200001
 40
0.8361563306974
 40
1.0
 40
1.0
 40
1.0
 40
1.0
 10
2.394626995920223
 20
58.49391208976732
 30
0.0
 10
2.398044208600222
 20
58.49423705862732
 30
0.0
 10
2.405669872620223
 20
58.49476702129732
 30
0.0
 10
2.416433697020224
 20
58.49463767814732
 30
0.0
 10
2.425695067850221
 20
58.49311398085732
 30
0.0
 10
2.430509201230223
 20
58.49048205178733
 30
0.0
 10
2.431794659570222
 20
58.48882093671733
 30
0.0
  0
LINE
  5
2E
330
1F
100
AcDbEntity
  8
IGES_LEVEL_0
 62
     7
100
AcDbLine
 10
2.348686055970223
 20
58.48603280963732
 30
0.0
 11
2.394626995920223
 21
58.49391208976732
 31
0.0
  0
ARC
  5
2F
330
1F
100
AcDbEntity
  8
IGES_LEVEL_0
 62
     7
100
AcDbCircle
 10
2.565545902186141
 20
57.58268208754103
 30
0.0
 40
0.9290159955634157
100
AcDbArc
 50
103.499072021287
 51
112.8540446753686
  0
LINE
  5
30
330
1F
100
AcDbEntity
  8
IGES_LEVEL_0
 62
     7
100
AcDbLine
 10
2.15738329669022
 20
58.41726218768732
 30
0.0
 11
2.204730054210224
 21
58.43876773971732
 31
0.0
  0
SPLINE
  5
31
330
1F
100
AcDbEntity
  8
IGES_LEVEL_0
 62
     7
100
AcDbSpline
210
0.0
220
0.0
230
1.0
 70
     8
 71
     3
 72
    15
 73
    11
 74
     0
 42
0.0000000001
 43
0.0000000001
 40
0.0
 40
0.0
 40
0.0
 40
0.0
 40
0.03150068122407
 40
0.1000601095122
 40
0.1996554053154
 40
0.333227906781
 40
0.4998521147342
 40
0.6968385332678
 40
0.9204022287561
 40
1.0
 40
1.0
 40
1.0
 40
1.0
 10
2.080911637370221
 20
58.35751726880732
 30
0.0
 10
2.080563421440225
 20
58.35853632377732
 30
0.0
 10
2.080176052430225
 20
58.36209028361732
 30
0.0
 10
2.083482530150221
 20
58.36820171528732
 30
0.0
 10
2.090223010900225
 20
58.37567144500732
 30
0.0
 10
2.100602097030222
 20
58.38419153485732
 30
0.0
 10
2.114321495640223
 20
58.39357746926732
 30
0.0
 10
2.131194714380222
 20
58.40363862042732
 30
0.0
 10
2.145944951930225
 20
58.41152283681733
 30
0.0
 10
2.154998957150223
 20
58.41607999358732
 30
0.0
 10
2.15738329669022
 20
58.41726218768732
 30
0.0
  0
SPLINE
  5
32
330
1F
100
AcDbEntity
  8
IGES_LEVEL_0
 62
     7
100
AcDbSpline
210
0.0
220
0.0
230
1.0
 70
     8
 71
     3
 72
    23
 73
    19
 74
     0
 42
0.0000000001
 43
0.0000000001
 40
0.0
 40
0.0
 40
0.0
 40
0.0
 40
0.02256848671311
 40
0.05903132801563
 40
0.1105148563647
 40
0.1758698005997
 40
0.2529732684608
 40
0.3390939962203
 40
0.4310869317168
 40
0.5255510738348
 40
0.6189799397444
 40
0.7079110972868
 40
0.7890759658348
 40
0.8595530602819
 40
0.9169407316188
 40
0.9596198814212
 40
0.9874692870956
 40
1.0
 40
1.0
 40
1.0
 40
1.0
 10
2.329162094330222
 20
58.39194853137732
 30
0.0
 10
2.328613151000223
 20
58.39265789550733
 30
0.0
 10
2.326249376640224
 20
58.39360043582732
 30
0.0
 10
2.321911570250222
 20
58.39384920247733
 30
0.0
 10
2.315794616810223
 20
58.39340293535732
 30
0.0
 10
2.308194977110222
 20
58.39213911749732
 30
0.0
 10
2.299328292380224
 20
58.39012753227733
 30
0.0
 10
2.289550873090221
 20
58.38742013674732
 30
0.0
 10
2.279229202030223
 20
58.38412091456733
 30
0.0
 10
2.268760878550225
 20
58.38035254013732
 30
0.0
 10
2.258545440220225
 20
58.37625972430732
 30
0.0
 10
2.248975888200221
 20
58.37199905606732
 30
0.0
 10
2.240408122030225
 20
58.36773953694733
 30
0.0
 10
2.233188582840221
 20
58.36363764631732
 30
0.0
 10
2.227505043420223
 20
58.35988626430732
 30
0.0
 10
2.223707866270225
 20
58.35654658652732
 30
0.0
 10
2.221489831180222
 20
58.35396759292733
 30
0.0
 10
2.221416980170226
 20
58.35216775392733
 30
0.0
 10
2.221566023090222
 20
58.35168682038732
 30
0.0
  0
LINE
  5
33
330
1F
100
AcDbEntity
  8
IGES_LEVEL_0
 62
     7
100
AcDbLine
 10
2.094613479670223
 20
58.32496193287732
 30
0.0
 11
2.089362200640224
 21
58.33443336657732
 31
0.0
  0
SPLINE
  5
34
330
1F
100
AcDbEntity
  8
IGES_LEVEL_0
 62
     7
100
AcDbSpline
210
0.0
220
0.0
230
1.0
 70
     8
 71
     3
 72
    32
 73
    28
 74
     0
 42
0.0000000001
 43
0.0000000001
 40
0.0
 40
0.0
 40
0.0
 40
0.0
 40
0.02233143812173
 40
0.0455605125134
 40
0.06935346600567
 40
0.09351200835789
 40
0.119201667014
 40
0.1485037854714
 40
0.1846982485659
 40
0.2311364066671
 40
0.2843191079859
 40
0.3410830608166
 40
0.400875932095
 40
0.462741556868
 40
0.525556663629
 40
0.5881230714013001
 40
0.649259550207
 40
0.7078924284856
 40
0.7631877999418
 40
0.8135191184264
 40
0.8536227936161001
 40
0.8852682036238
 40
0.9114692004214
 40
0.9348403655781
 40
0.9568765569156
 40
0.9785238719814
 40
1.0
 40
1.0
 40
1.0
 40
1.0
 10
2.441267426450224
 20
58.46400077005733
 30
0.0
 10
2.442327034720222
 20
58.46112287271733
 30
0.0
 10
2.443723521640223
 20
58.45493802913732
 30
0.0
 10
2.443321294380223
 20
58.44531573450733
 30
0.0
 10
2.440415584540222
 20
58.43587640111733
 30
0.0
 10
2.435283952600223
 20
58.42707949457732
 30
0.0
 10
2.428165912660223
 20
58.41880764547732
 30
0.0
 10
2.418793282820225
 20
58.41046505755733
 30
0.0
 10
2.406365249700222
 20
58.40138893784732
 30
0.0
 10
2.390522955940224
 20
58.39152021382732
 30
0.0
 10
2.37168096085022
 20
58.38119694782733
 30
0.0
 10
2.350767585260222
 20
58.37088823998732
 30
0.0
 10
2.328413954040222
 20
58.36084253534732
 30
0.0
 10
2.304987853570225
 20
58.35118808747733
 30
0.0
 10
2.280932129920224
 20
58.34209156792733
 30
0.0
 10
2.256717870440223
 20
58.33372755491732
 30
0.0
 10
2.232811693430222
 20
58.32626413020732
 30
0.0
 10
2.209635483440223
 20
58.31985350900732
 30
0.0
 10
2.187674918360223
 20
58.31466942720732
 30
0.0
 10
2.167992793390223
 20
58.31099114627732
 30
0.0
 10
2.151346004900223
 20
58.30890092279732
 30
0.0
 10
2.137896008120222
 20
58.30822611883733
 30
0.0
 10
2.126732325960223
 20
58.30874532763733
 30
0.0
 10
2.117015055680223
 20
58.31047283601733
 30
0.0
 10
2.108302474800222
 20
58.31362381864732
 30
0.0
 10
2.100638685010225
 20
58.31837807234732
 30
0.0
 10
2.096418469850221
 20
58.32262946024732
 30
0.0
 10
2.094613479670223
 20
58.32496193287732
 30
0.0
  0
SPLINE
  5
35
330
1F
100
AcDbEntity
  8
IGES_LEVEL_0
 62
     7
100
AcDbSpline
210
0.0
220
0.0
230
1.0
 70
     8
 71
     3
 72
    23
 73
    19
 74
     0
 42
0.0000000001
 43
0.0000000001
 40
0.0
 40
0.0
 40
0.0
 40
0.0
 40
0.02256848671311
 40
0.05903132801564
 40
0.1105148563647
 40
0.1758698005997
 40
0.2529732684608
 40
0.3390939962203
 40
0.4310869317168
 40
0.5255510738349
 40
0.6189799397445001
 40
0.7079110972868
 40
0.7890759658348
 40
0.859553060282
 40
0.9169407316188
 40
0.9596198814212
 40
0.9874692870956
 40
1.0
 40
1.0
 40
1.0
 40
1.0
 10
2.764233950800225
 20
57.61351889543732
 30
0.0
 10
2.764782894130221
 20
57.61280953130732
 30
0.0
 10
2.767146668490224
 20
57.61186699098732
 30
0.0
 10
2.771484474880225
 20
57.61161822433732
 30
0.0
 10
2.777601428320224
 20
57.61206449145733
 30
0.0
 10
2.785201068020221
 20
57.61332830931733
 30
0.0
 10
2.794067752750223
 20
57.61533989453732
 30
0.0
 10
2.803845172040223
 20
57.61804729006732
 30
0.0
 10
2.814166843100225
 20
57.62134651224732
 30
0.0
 10
2.824635166580222
 20
57.62511488667732
 30
0.0
 10
2.834850604910223
 20
57.62920770251732
 30
0.0
 10
2.844420156930223
 20
57.63346837074732
 30
0.0
 10
2.852987923100223
 20
57.63772788987733
 30
0.0
 10
2.860207462290223
 20
57.64182978050732
 30
0.0
 10
2.865891001710224
 20
57.64558116250733
 30
0.0
 10
2.869688178860223
 20
57.64892084028733
 30
0.0
 10
2.871906213950222
 20
57.65149983388732
 30
0.0
 10
2.871979064960222
 20
57.65329967288732
 30
0.0
 10
2.871830022040221
 20
57.65378060642733
 30
0.0
  0
LINE
  5
36
330
1F
100
AcDbEntity
  8
IGES_LEVEL_0
 62
     7
100
AcDbLine
 10
2.975122972000222
 20
57.74942386307733
 30
0.0
 11
2.974182112650222
 21
57.75120352057732
 31
0.0
  0
SPLINE
  5
37
330
1F
100
AcDbEntity
  8
IGES_LEVEL_0
 62
     7
100
AcDbSpline
210
0.0
220
0.0
230
1.0
 70
     8
 71
     3
 72
    13
 73
     9
 74
     0
 42
0.0000000001
 43
0.0000000001
 40
0.0
 40
0.0
 40
0.0
 40
0.0
 40
0.2568512780928
 40
0.4812746660808
 40
0.6690623746433
 40
0.8174184486947
 40
0.9259518485874
 40
1.0
 40
1.0
 40
1.0
 40
1.0
 10
2.891073509050223
 20
57.74841539349733
 30
0.0
 10
2.898177818240221
 20
57.75003305463732
 30
0.0
 10
2.911547063540223
 20
57.75281434556732
 30
0.0
 10
2.930309580010224
 20
57.75574855926733
 30
0.0
 10
2.946155152210224
 20
57.75717246255732
 30
0.0
 10
2.958821150100221
 20
57.75702026200732
 30
0.0
 10
2.968082520930224
 20
57.75549656471733
 30
0.0
 10
2.972896654310222
 20
57.75286463564732
 30
0.0
 10
2.974182112650222
 20
57.75120352057732
 30
0.0
  0
ARC
  5
38
330
1F
100
AcDbEntity
  8
IGES_LEVEL_0
 62
     7
100
AcDbCircle
 10
3.111832513781145
 20
56.83385512003602
 30
0.0
 40
0.9408267810619577
100
AcDbArc
 50
103.5706165206697
 51
115.97496308508
  0
SPLINE
  5
39
330
1F
100
AcDbEntity
  8
IGES_LEVEL_0
 62
     7
100
AcDbSpline
210
0.0
220
0.0
230
1.0
 70
     8
 71
     3
 72
    15
 73
    11
 74
     0
 42
0.0000000001
 43
0.0000000001
 40
0.0
 40
0.0
 40
0.0
 40
0.0
 40
0.03150068122422
 40
0.1000601095123
 40
0.1996554053154
 40
0.3332279067811
 40
0.4998521147342
 40
0.6968385332679
 40
0.9204022287561
 40
1.0
 40
1.0
 40
1.0
 40
1.0
 10
2.623299090460222
 20
57.61989985265733
 30
0.0
 10
2.622950874520221
 20
57.62091890763733
 30
0.0
 10
2.622563505510222
 20
57.62447286747732
 30
0.0
 10
2.625869983230224
 20
57.63058429914732
 30
0.0
 10
2.632610463980221
 20
57.63805402885733
 30
0.0
 10
2.642989550110222
 20
57.64657411871733
 30
0.0
 10
2.656708948720223
 20
57.65596005312732
 30
0.0
 10
2.673582167460225
 20
57.66602120428733
 30
0.0
 10
2.688332405010222
 20
57.67390542067732
 30
0.0
 10
2.697386410230223
 20
57.67846257744732
 30
0.0
 10
2.699770749770224
 20
57.67964477154732
 30
0.0
  0
SPLINE
  5
3A
330
1F
100
AcDbEntity
  8
IGES_LEVEL_0
 62
     7
100
AcDbSpline
210
0.0
220
0.0
230
1.0
 70
     8
 71
     3
 72
    23
 73
    19
 74
     0
 42
0.0000000001
 43
0.0000000001
 40
0.0
 40
0.0
 40
0.0
 40
0.0
 40
0.02256848671311
 40
0.05903132801563
 40
0.1105148563647
 40
0.1758698005997
 40
0.2529732684608
 40
0.3390939962203
 40
0.4310869317167
 40
0.5255510738348
 40
0.6189799397444
 40
0.7079110972868
 40
0.7890759658347
 40
0.8595530602819
 40
0.9169407316188
 40
0.9596198814212
 40
0.9874692870956
 40
1.0
 40
1.0
 40
1.0
 40
1.0
 10
2.871549547410226
 20
57.65433111523733
 30
0.0
 10
2.871000604080223
 20
57.65504047936732
 30
0.0
 10
2.868636829720224
 20
57.65598301968733
 30
0.0
 10
2.864299023330222
 20
57.65623178632733
 30
0.0
 10
2.858182069890223
 20
57.65578551921733
 30
0.0
 10
2.850582430190222
 20
57.65452170135733
 30
0.0
 10
2.84171574546022
 20
57.65251011613732
 30
0.0
 10
2.831938326170224
 20
57.64980272059732
 30
0.0
 10
2.821616655110223
 20
57.64650349842732
 30
0.0
 10
2.811148331630221
 20
57.64273512399733
 30
0.0
 10
2.800932893300221
 20
57.63864230815732
 30
0.0
 10
2.791363341280224
 20
57.63438163992733
 30
0.0
 10
2.782795575110221
 20
57.63012212079732
 30
0.0
 10
2.775576035920224
 20
57.62602023016732
 30
0.0
 10
2.769892496500223
 20
57.62226884815733
 30
0.0
 10
2.766095319350221
 20
57.61892917038733
 30
0.0
 10
2.763877284260225
 20
57.61635017678732
 30
0.0
 10
2.763804433250222
 20
57.61455033778732
 30
0.0
 10
2.763953476170222
 20
57.61406940424732
 30
0.0
  0
LINE
  5
3B
330
1F
100
AcDbEntity
  8
IGES_LEVEL_0
 62
     7
100
AcDbLine
 10
2.637000932750222
 20
57.58734451673733
 30
0.0
 11
2.63174965372022
 21
57.59681595042732
 31
0.0
  0
SPLINE
  5
3C
330
1F
100
AcDbEntity
  8
IGES_LEVEL_0
 62
     7
100
AcDbSpline
210
0.0
220
0.0
230
1.0
 70
     8
 71
     3
 72
    32
 73
    28
 74
     0
 42
0.0000000001
 43
0.0000000001
 40
0.0
 40
0.0
 40
0.0
 40
0.0
 40
0.02233143812173
 40
0.0455605125134
 40
0.06935346600567
 40
0.09351200835789
 40
0.119201667014
 40
0.1485037854714
 40
0.1846982485659
 40
0.2311364066671
 40
0.2843191079859
 40
0.3410830608166
 40
0.400875932095
 40
0.462741556868
 40
0.525556663629
 40
0.5881230714013001
 40
0.649259550207
 40
0.7078924284856
 40
0.7631877999418
 40
0.8135191184264
 40
0.8536227936161001
 40
0.8852682036238
 40
0.9114692004214
 40
0.9348403655781
 40
0.9568765569156
 40
0.9785238719814
 40
1.0
 40
1.0
 40
1.0
 40
1.0
 10
2.983654879530221
 20
57.72638335391732
 30
0.0
 10
2.984714487800225
 20
57.72350545657732
 30
0.0
 10
2.986110974720223
 20
57.71732061299733
 30
0.0
 10
2.985708747460222
 20
57.70769831836732
 30
0.0
 10
2.982803037620222
 20
57.69825898497732
 30
0.0
 10
2.977671405680223
 20
57.68946207843732
 30
0.0
 10
2.970553365740223
 20
57.68119022932732
 30
0.0
 10
2.961180735900221
 20
57.67284764140732
 30
0.0
 10
2.948752702780222
 20
57.66377152170733
 30
0.0
 10
2.932910409020224
 20
57.65390279768732
 30
0.0
 10
2.914068413930224
 20
57.64357953168732
 30
0.0
 10
2.893155038350223
 20
57.63327082384733
 30
0.0
 10
2.870801407120222
 20
57.62322511920733
 30
0.0
 10
2.847375306650221
 20
57.61357067133732
 30
0.0
 10
2.82331958300022
 20
57.60447415178732
 30
0.0
 10
2.799105323520223
 20
57.59611013876732
 30
0.0
 10
2.775199146510225
 20
57.58864671406732
 30
0.0
 10
2.752022936520223
 20
57.58223609286733
 30
0.0
 10
2.730062371440223
 20
57.57705201106732
 30
0.0
 10
2.710380246470223
 20
57.57337373013733
 30
0.0
 10
2.693733457980223
 20
57.57128350665732
 30
0.0
 10
2.680283461200222
 20
57.57060870269732
 30
0.0
 10
2.669119779040223
 20
57.57112791149732
 30
0.0
 10
2.659402508760223
 20
57.57285541986732
 30
0.0
 10
2.650689927880222
 20
57.57600640250733
 30
0.0
 10
2.643026138090221
 20
57.58076065620733
 30
0.0
 10
2.638805922930224
 20
57.58501204409733
 30
0.0
 10
2.637000932750222
 20
57.58734451673733
 30
0.0
  0
LINE
  5
3D
330
1F
100
AcDbEntity
  8
IGES_LEVEL_0
 62
     7
100
AcDbLine
 10
2.080871451810225
 20
58.35749582331732
 30
0.0
 11
2.089362451810224
 21
58.33443382331733
 31
0.0
  0
LINE
  5
3E
330
1F
100
AcDbEntity
  8
IGES_LEVEL_0
 62
     7
100
AcDbLine
 10
2.623258451810223
 20
57.61987782331732
 30
0.0
 11
2.631749451810222
 21
57.59681582331732
 31
0.0
  0
LINE
  5
3F
330
1F
100
AcDbEntity
  8
IGES_LEVEL_0
 62
     7
100
AcDbLine
 10
2.432776451810224
 20
58.48706282331732
 30
0.0
 11
2.441267451810223
 21
58.46400082331732
 31
0.0
  0
LINE
  5
40
330
1F
100
AcDbEntity
  8
IGES_LEVEL_0
 62
     7
100
AcDbLine
 10
2.975163451810225
 20
57.74944582331732
 30
0.0
 11
2.983654451810224
 21
57.72638382331732
 31
0.0
  0
LINE
  5
41
330
1F
100
AcDbEntity
  8
IGES_LEVEL_0
 62
     7
100
AcDbLine
 10
2.221546451810223
 20
58.35168082331732
 30
0.0
 11
2.221846451810222
 21
58.35113582331732
 31
0.0
  0
LINE
  5
42
330
1F
100
AcDbEntity
  8
IGES_LEVEL_0
 62
     7
100
AcDbLine
 10
2.329462451810223
 20
58.39140382331733
 30
0.0
 11
2.329162451810223
 21
58.39194882331732
 31
0.0
  0
LINE
  5
43
330
1F
100
AcDbEntity
  8
IGES_LEVEL_0
 62
     7
100
AcDbLine
 10
2.763933451810225
 20
57.61406382331732
 30
0.0
 11
2.76423345181022
 21
57.61351882331732
 31
0.0
  0
LINE
  5
44
330
1F
100
AcDbEntity
  8
IGES_LEVEL_0
 62
     7
100
AcDbLine
 10
2.87184945181022
 20
57.65378682331733
 30
0.0
 11
2.871549451810225
 21
57.65433082331732
 31
0.0
  0
ARC
  5
45
330
1F
100
AcDbEntity
  8
IGES_LEVEL_0
 62
     7
100
AcDbCircle
 10
2.248856928958226
 20
43.1777683631413
 30
0.0
 40
0.0575000106753841
100
AcDbArc
 50
0.0349136682055563
 51
179.9650863317945
  0
ARC
  5
46
330
1F
100
AcDbEntity
  8
IGES_LEVEL_0
 62
     7
100
AcDbCircle
 10
2.248856928958219
 20
43.17599842837166
 30
0.0
 40
0.1875000349603144
100
AcDbArc
 50
180.0349884454869
 51
359.9650115545131
  0
ARC
  5
47
330
1F
100
AcDbEntity
  8
IGES_LEVEL_0
 62
     7
100
AcDbCircle
 10
2.248856928958226
 20
43.17783843938334
 30
0.0
 40
0.0575000106753937
100
AcDbArc
 50
180.0349136781674
 51
359.9650863218326
  0
ARC
  5
48
330
1F
100
AcDbEntity
  8
IGES_LEVEL_0
 62
     7
100
AcDbCircle
 10
2.248856928963221
 20
43.15647324904005
 30
0.0
 40
0.0575064317866529
100
AcDbArc
 50
10.71189596638405
 51
169.2881040336159
  0
ARC
  5
49
330
1F
100
AcDbEntity
  8
IGES_LEVEL_0
 62
     7
100
AcDbCircle
 10
2.248856928958226
 20
43.17666020211782
 30
0.0
 40
0.187500024685815
100
AcDbArc
 50
0.0294009033005876
 51
179.9705990966994
  0
ARC
  5
4A
330
1F
100
AcDbEntity
  8
IGES_LEVEL_0
 62
     7
100
AcDbCircle
 10
3.432794996508228
 20
54.61667297676129
 30
0.0
 40
0.0575000106753805
100
AcDbArc
 50
0.0349136682126387
 51
179.9650863317874
  0
ARC
  5
4B
330
1F
100
AcDbEntity
  8
IGES_LEVEL_0
 62
     7
100
AcDbCircle
 10
3.432794996508221
 20
54.61490304199167
 30
0.0
 40
0.1875000349603144
100
AcDbArc
 50
180.0349884454891
 51
359.9650115545109
  0
ARC
  5
4C
330
1F
100
AcDbEntity
  8
IGES_LEVEL_0
 62
     7
100
AcDbCircle
 10
3.432794996508214
 20
54.61674305300335
 30
0.0
 40
0.0575000106753866
100
AcDbArc
 50
180.0349136781674
 51
359.9650863218326
  0
ARC
  5
4D
330
1F
100
AcDbEntity
  8
IGES_LEVEL_0
 62
     7
100
AcDbCircle
 10
3.432794996513223
 20
54.59537786266005
 30
0.0
 40
0.0575064317866481
100
AcDbArc
 50
10.71189596637775
 51
169.2881040336224
  0
ARC
  5
4E
330
1F
100
AcDbEntity
  8
IGES_LEVEL_0
 62
     7
100
AcDbCircle
 10
3.432794996508228
 20
54.61556481573781
 30
0.0
 40
0.187500024685815
100
AcDbArc
 50
0.0294009033049301
 51
179.9705990966951
  0
LINE
  5
4F
330
1F
100
AcDbEntity
  8
IGES_LEVEL_0
 62
     7
100
AcDbLine
 10
2.061356451808223
 20
43.17588382331732
 30
0.0
 11
2.061356451808223
 21
43.17675682331733
 31
0.0
  0
LINE
  5
50
330
1F
100
AcDbEntity
  8
IGES_LEVEL_0
 62
     7
100
AcDbLine
 10
2.436356451808223
 20
43.17588382331732
 30
0.0
 11
2.436356451808223
 21
43.17675682331733
 31
0.0
  0
LINE
  5
51
330
1F
100
AcDbEntity
  8
IGES_LEVEL_0
 62
     7
100
AcDbLine
 10
3.245295451808222
 20
54.61478882331733
 30
0.0
 11
3.245295451808222
 21
54.61566082331732
 31
0.0
  0
LINE
  5
52
330
1F
100
AcDbEntity
  8
IGES_LEVEL_0
 62
     7
100
AcDbLine
 10
3.620295451808222
 20
54.61478882331733
 30
0.0
 11
3.620295451808222
 21
54.61566082331732
 31
0.0
  0
LINE
  5
53
330
1F
100
AcDbEntity
  8
IGES_LEVEL_0
 62
     7
100
AcDbLine
 10
32.91850861584339
 20
30.55913939332231
 30
0.0
 11
34.76710761361022
 21
18.61473782331733
 31
0.0
  0
SPLINE
  5
55
330
1F
100
AcDbEntity
  8
DEFAULT
100
AcDbSpline
210
0.0
220
0.0
230
1.0
 70
     8
 71
     5
 72
    12
 73
     6
 74
     0
 42
0.0000000001
 43
0.0000000001
 40
0.0
 40
0.0
 40
0.0
 40
0.0
 40
0.0
 40
0.0
 40
1.0
 40
1.0
 40
1.0
 40
1.0
 40
1.0
 40
1.0
 10
32.88900107106022
 20
30.53448534024733
 30
0.0
 10
32.89559259174671
 20
30.5367731421375
 30
0.0
 10
32.93278203334747
 20
30.54970362871764
 30
0.0
 10
32.92007938434271
 20
30.56442545575476
 30
0.0
 10
32.91310626779963
 20
30.56466859625026
 30
0.0
 10
32.90613208473885
 20
30.56487584750814
 30
0.0
  0
SPLINE
  5
56
330
1F
100
AcDbEntity
  8
IGES_LEVEL_0
 62
     7
100
AcDbSpline
210
0.0
220
0.0
230
1.0
 70
     8
 71
     3
 72
     9
 73
     5
 74
     0
 42
0.0000000001
 43
0.0000000001
 40
0.0
 40
0.0
 40
0.0
 40
0.0
 40
0.3368219466872
 40
1.0
 40
1.0
 40
1.0
 40
1.0
 10
32.30275673045022
 20
30.46459451502733
 30
0.0
 10
32.30918672577022
 20
30.47361321954733
 30
0.0
 10
32.34274292124022
 20
30.48548217612733
 30
0.0
 10
32.37301894275022
 20
30.49555298653733
 30
0.0
 10
32.39370859043022
 20
30.50141598446733
 30
0.0
  0
ARC
  5
57
330
1F
100
AcDbEntity
  8
IGES_LEVEL_0
 62
     7
100
AcDbCircle
 10
32.85578940865176
 20
28.87080150313417
 30
0.0
 40
1.694822194007878
100
AcDbArc
 50
88.29784669441453
 51
105.8215807659628
  0
SPLINE
  5
58
330
1F
100
AcDbEntity
  8
IGES_LEVEL_0
 62
     7
100
AcDbSpline
210
0.0
220
0.0
230
1.0
 70
     8
 71
     3
 72
    12
 73
     8
 74
     0
 42
0.0000000001
 43
0.0000000001
 40
0.0
 40
0.0
 40
0.0
 40
0.0
 40
0.2052418028489
 40
0.4493742213989
 40
0.6734013240933
 40
0.8657452898002001
 40
1.0
 40
1.0
 40
1.0
 40
1.0
 10
48.64461368621022
 20
18.34177601521733
 30
0.0
 10
48.70652719806022
 20
18.34095763007733
 30
0.0
 10
48.84207049161022
 20
18.33700493385733
 30
0.0
 10
49.04475388891022
 20
18.32239081023733
 30
0.0
 10
49.24256383512022
 20
18.29666752746733
 30
0.0
 10
49.40528873931022
 20
18.26370507652733
 30
0.0
 10
49.50044533443022
 20
18.23593751218733
 30
0.0
 10
49.53831252022022
 20
18.22195822884733
 30
0.0
  0
ARC
  5
59
330
1F
100
AcDbEntity
  8
IGES_LEVEL_0
 62
     7
100
AcDbCircle
 10
49.57838591186172
 20
18.33050932761374
 30
0.0
 40
0.1157117874766742
100
AcDbArc
 50
249.7375606096
 51
61.12568676926311
  0
ARC
  5
5A
330
1F
100
AcDbEntity
  8
IGES_LEVEL_0
 62
     7
100
AcDbCircle
 10
36.667442612522
 20
17.99203821201874
 30
0.0
 40
0.0300002755487349
100
AcDbArc
 50
93.29740618700926
 51
183.2974061870092
  0
ARC
  5
5B
330
1F
100
AcDbEntity
  8
IGES_LEVEL_0
 62
     7
100
AcDbCircle
 10
36.98192100587124
 20
18.01015624252636
 30
0.0
 40
0.0300002755487332
100
AcDbArc
 50
3.297406187009251
 51
93.29740618700964
  0
LINE
  5
5C
330
1F
100
AcDbEntity
  8
IGES_LEVEL_0
 62
     7
100
AcDbLine
 10
36.66593281786392
 20
18.02200070861182
 30
0.0
 11
36.98019542508028
 21
18.04010685026533
 31
0.0
  0
LINE
  5
5D
330
1F
100
AcDbEntity
  8
DEFAULT
100
AcDbLine
 10
35.42747618182022
 20
17.87342567528733
 30
0.0
 11
35.46217230455022
 21
17.88686340242733
 31
0.0
  0
ARC
  5
5E
330
1F
100
AcDbEntity
  8
IGES_LEVEL_0
 62
     7
100
AcDbCircle
 10
35.73286035103789
 20
17.18204656030733
 30
0.0
 40
0.7545892106527077
100
AcDbArc
 50
93.0672680130599
 51
106.6282119385582
  0
ARC
  5
5F
330
1F
100
AcDbEntity
  8
DEFAULT
100
AcDbCircle
 10
31.10998846290734
 20
-0.0024967785276182
 30
0.0
 40
1.112718472270231
100
AcDbArc
 50
161.9949730731971
 51
164.017038496644
  0
LINE
  5
60
330
1F
100
AcDbEntity
  8
DEFAULT
100
AcDbLine
 10
30.03909350173022
 20
0.2403221684663282
 30
0.0
 11
30.03720999003022
 21
0.2759934260603283
 31
0.0
  0
LINE
  5
61
330
1F
100
AcDbEntity
  8
DEFAULT
100
AcDbLine
 10
1.314707733492221
 20
30.84203772350733
 30
0.0
 11
1.31462108622722
 21
30.86149900911733
 31
0.0
  0
LINE
  5
62
330
1F
100
AcDbEntity
  8
DEFAULT
100
AcDbLine
 10
19.26387440425022
 20
30.84532004092733
 30
0.0
 11
19.26390138364022
 21
30.85474764977733
 31
0.0
  0
LINE
  5
63
330
1F
100
AcDbEntity
  8
IGES_LEVEL_0
 62
     7
100
AcDbLine
 10
19.26390138364022
 20
30.85474764977733
 30
0.0
 11
19.26392608344022
 21
30.86145681805733
 31
0.0
  0
ARC
  5
64
330
1F
100
AcDbEntity
  8
IGES_LEVEL_0
 62
     7
100
AcDbCircle
 10
2.821341867568968
 20
25.6922361919545
 30
0.0
 40
0.0573069857454277
100
AcDbArc
 50
184.7770681598104
 51
294.6183846438695
  0
ARC
  5
65
330
1F
100
AcDbEntity
  8
IGES_LEVEL_0
 62
     7
100
AcDbCircle
 10
2.818944010609433
 20
25.68635196215299
 30
0.0
 40
0.0531586111691299
100
AcDbArc
 50
299.6162509735953
 51
8.272177508642631
  0
ARC
  5
66
330
1F
100
AcDbEntity
  8
IGES_LEVEL_0
 62
     7
100
AcDbCircle
 10
2.814441630649472
 20
25.68922772457282
 30
0.0
 40
0.0573069857372441
100
AcDbArc
 50
4.777068157817316
 51
114.6183846564136
  0
ARC
  5
67
330
1F
100
AcDbEntity
  8
IGES_LEVEL_0
 62
     7
100
AcDbCircle
 10
2.816839487593109
 20
25.69511195436696
 30
0.0
 40
0.0531586111606258
100
AcDbArc
 50
119.6162509690086
 51
188.2721775048481
  0
SPLINE
  5
68
330
1F
100
AcDbEntity
  8
IGES_LEVEL_0
 62
     7
100
AcDbSpline
210
0.0
220
0.0
230
1.0
 70
     8
 71
     3
 72
    21
 73
    17
 74
     0
 42
0.0000000001
 43
0.0000000001
 40
-1.0
 40
-1.0
 40
-1.0
 40
-1.0
 40
-0.9853734550538
 40
-0.9131763524317
 40
-0.8406487693278
 40
-0.7675501419758
 40
-0.6936954900328
 40
-0.618971468186
 40
-0.5433444789778
 40
-0.4668609335155
 40
-0.3896406241229
 40
-0.3118646015495
 40
-0.2337590326026
 40
-0.1555764107908
 40
-0.07757534015011
 40
0.0
 40
0.0
 40
0.0
 40
0.0
 10
2.888307818710224
 20
25.51566361214733
 30
0.0
 10
2.886768607320221
 20
25.51483227644733
 30
0.0
 10
2.877550670430225
 20
25.51004773600733
 30
0.0
 10
2.859800559340222
 20
25.50293674352733
 30
0.0
 10
2.834292010420221
 20
25.49724508302733
 30
0.0
 10
2.80800841888022
 20
25.49566363656733
 30
0.0
 10
2.781541715940222
 20
25.49822209612733
 30
0.0
 10
2.755484684470225
 20
25.50485644673733
 30
0.0
 10
2.730417802770223
 20
25.51541203699733
 30
0.0
 10
2.70689703739022
 20
25.52964826050733
 30
0.0
 10
2.685442481150222
 20
25.54724450215733
 30
0.0
 10
2.666527746700222
 20
25.56780764444733
 30
0.0
 10
2.650570353000223
 20
25.59087978353733
 30
0.0
 10
2.637922695620222
 20
25.61595116427733
 30
0.0
 10
2.628866010490221
 20
25.64245928485733
 30
0.0
 10
2.625572981805286
 20
25.66081621297141
 30
0.0
 10
2.624239949800224
 20
25.66998494397733
 30
0.0
  0
ARC
  5
69
330
1F
100
AcDbEntity
  8
IGES_LEVEL_0
 62
     7
100
AcDbCircle
 10
2.789968555480503
 20
25.6977661056894
 30
0.0
 40
0.1680409583607591
100
AcDbArc
 50
118.3743662989338
 51
189.5160423861636
  0
LINE
  5
6A
330
1F
100
AcDbEntity
  8
IGES_LEVEL_0
 62
     7
100
AcDbLine
 10
2.71011034777522
 20
25.84561883765233
 30
0.0
 11
2.718597337550222
 21
25.85020283000233
 31
0.0
  0
SPLINE
  5
6B
330
1F
100
AcDbEntity
  8
IGES_LEVEL_0
 62
     7
100
AcDbSpline
210
0.0
220
0.0
230
1.0
 70
     8
 71
     3
 72
    20
 73
    16
 74
     0
 42
0.0000000001
 43
0.0000000001
 40
2.0
 40
2.0
 40
2.0
 40
2.0
 40
2.0733168502334
 40
2.146973238140707
 40
2.22119770285113
 40
2.296223354685972
 40
2.372066589639174
 40
2.448911671658549
 40
2.526550639725765
 40
2.604909784389056
 40
2.683822489128192
 40
2.763014690218735
 40
2.842280023875588
 40
2.921333856828951
 40
3.0
 40
3.0
 40
3.0
 40
3.0
 10
2.718597337550222
 20
25.85020283000233
 30
0.0
 10
2.726325857602866
 20
25.85437717801798
 30
0.0
 10
2.742522975437989
 20
25.86150973882926
 30
0.0
 10
2.768277138700221
 20
25.86819937794733
 30
0.0
 10
2.794975408700225
 20
25.87073959548733
 30
0.0
 10
2.821999555670224
 20
25.86904640097733
 30
0.0
 10
2.848743569800224
 20
25.86313873521733
 30
0.0
 10
2.874573882060222
 20
25.85313656017733
 30
0.0
 10
2.898889815260223
 20
25.83925821385733
 30
0.0
 10
2.921112692260223
 20
25.82182809509733
 30
0.0
 10
2.940725161310223
 20
25.80124991420733
 30
0.0
 10
2.957272727770224
 20
25.77800392193733
 30
0.0
 10
2.970372632960221
 20
25.75263422396733
 30
0.0
 10
2.979729064500223
 20
25.72573126096733
 30
0.0
 10
2.983146681399168
 20
25.70707797858494
 30
0.0
 10
2.984465100710224
 20
25.69774810542733
 30
0.0
  0
ARC
  5
6C
330
1F
100
AcDbEntity
  8
IGES_LEVEL_0
 62
     7
100
AcDbCircle
 10
2.815502009304634
 20
25.67080015327153
 30
0.0
 40
0.1710985633566939
100
AcDbArc
 50
298.3721194388733
 51
9.061792683401723
  0
LINE
  5
6D
330
1F
100
AcDbEntity
  8
IGES_LEVEL_0
 62
     7
100
AcDbLine
 10
2.896807380885221
 20
25.52025396456233
 30
0.0
 11
2.888307818710224
 21
25.51566361214733
 31
0.0
  0
SPLINE
  5
6E
330
1F
100
AcDbEntity
  8
IGES_LEVEL_0
 62
     7
100
AcDbSpline
210
0.0
220
0.0
230
1.0
 70
     8
 71
     3
 72
    21
 73
    17
 74
     0
 42
0.0000000001
 43
0.0000000001
 40
-1.0
 40
-1.0
 40
-1.0
 40
-1.0
 40
-0.9853734550538
 40
-0.9131763524317
 40
-0.8406487693278
 40
-0.7675501419758
 40
-0.6936954900328
 40
-0.618971468186
 40
-0.5433444789778
 40
-0.4668609335155
 40
-0.3896406241229
 40
-0.3118646015495
 40
-0.2337590326026
 40
-0.1555764107908
 40
-0.07757534015011
 40
0.0
 40
0.0
 40
0.0
 40
0.0
 10
2.345920365630221
 20
29.81505286795733
 30
0.0
 10
2.344381154240217
 20
29.81422153225733
 30
0.0
 10
2.335163217350221
 20
29.80943699181733
 30
0.0
 10
2.317413106260219
 20
29.80232599933733
 30
0.0
 10
2.291904557340217
 20
29.79663433883733
 30
0.0
 10
2.265620965800217
 20
29.79505289237733
 30
0.0
 10
2.239154262860218
 20
29.79761135193733
 30
0.0
 10
2.213097231390222
 20
29.80424570254733
 30
0.0
 10
2.188030349690219
 20
29.81480129280733
 30
0.0
 10
2.164509584310217
 20
29.82903751631733
 30
0.0
 10
2.143055028070219
 20
29.84663375796733
 30
0.0
 10
2.124140293620219
 20
29.86719690025733
 30
0.0
 10
2.10818289992022
 20
29.89026903934733
 30
0.0
 10
2.095535242540219
 20
29.91534042008733
 30
0.0
 10
2.086478557410217
 20
29.94184854066733
 30
0.0
 10
2.083185528725283
 20
29.96020546878141
 30
0.0
 10
2.08185249672022
 20
29.96937419978733
 30
0.0
  0
ARC
  5
6F
330
1F
100
AcDbEntity
  8
IGES_LEVEL_0
 62
     7
100
AcDbCircle
 10
2.247581102400497
 20
29.99715536149941
 30
0.0
 40
0.1680409583607555
100
AcDbArc
 50
118.3743662989341
 51
189.5160423861663
  0
LINE
  5
70
330
1F
100
AcDbEntity
  8
IGES_LEVEL_0
 62
     7
100
AcDbLine
 10
2.167722894695217
 20
30.14500809346233
 30
0.0
 11
2.176209884470218
 21
30.14959208581233
 31
0.0
  0
SPLINE
  5
71
330
1F
100
AcDbEntity
  8
IGES_LEVEL_0
 62
     7
100
AcDbSpline
210
0.0
220
0.0
230
1.0
 70
     8
 71
     3
 72
    20
 73
    16
 74
     0
 42
0.0000000001
 43
0.0000000001
 40
2.0
 40
2.0
 40
2.0
 40
2.0
 40
2.0733168502334
 40
2.146973238140707
 40
2.22119770285113
 40
2.296223354685972
 40
2.372066589639174
 40
2.448911671658549
 40
2.526550639725765
 40
2.604909784389056
 40
2.683822489128192
 40
2.763014690218735
 40
2.842280023875588
 40
2.921333856828951
 40
3.0
 40
3.0
 40
3.0
 40
3.0
 10
2.176209884470218
 20
30.14959208581233
 30
0.0
 10
2.183938404522863
 20
30.15376643382799
 30
0.0
 10
2.200135522357986
 20
30.16089899463926
 30
0.0
 10
2.225889685620217
 20
30.16758863375733
 30
0.0
 10
2.252587955620221
 20
30.17012885129733
 30
0.0
 10
2.279612102590221
 20
30.16843565678733
 30
0.0
 10
2.30635611672022
 20
30.16252799102733
 30
0.0
 10
2.332186428980219
 20
30.15252581598733
 30
0.0
 10
2.356502362180219
 20
30.13864746966733
 30
0.0
 10
2.37872523918022
 20
30.12121735090733
 30
0.0
 10
2.398337708230219
 20
30.10063917001733
 30
0.0
 10
2.414885274690221
 20
30.07739317774733
 30
0.0
 10
2.427985179880217
 20
30.05202347977733
 30
0.0
 10
2.437341611420219
 20
30.02512051677733
 30
0.0
 10
2.440759228319164
 20
30.00646723439494
 30
0.0
 10
2.442077647630221
 20
29.99713736123733
 30
0.0
  0
ARC
  5
72
330
1F
100
AcDbEntity
  8
IGES_LEVEL_0
 62
     7
100
AcDbCircle
 10
2.273114556224627
 20
29.97018940908154
 30
0.0
 40
0.1710985633566976
100
AcDbArc
 50
298.3721194388731
 51
9.061792683399117
  0
LINE
  5
73
330
1F
100
AcDbEntity
  8
IGES_LEVEL_0
 62
     7
100
AcDbLine
 10
2.354419927805218
 20
29.81964322037233
 30
0.0
 11
2.345920365630221
 21
29.81505286795733
 31
0.0
  0
ARC
  5
74
330
1F
100
AcDbEntity
  8
IGES_LEVEL_0
 62
     7
100
AcDbCircle
 10
2.278954414488969
 20
29.99162544776452
 30
0.0
 40
0.0573069857454326
100
AcDbArc
 50
184.7770681598207
 51
294.6183846438617
  0
ARC
  5
75
330
1F
100
AcDbEntity
  8
IGES_LEVEL_0
 62
     7
100
AcDbCircle
 10
2.276556557529419
 20
29.985741217963
 30
0.0
 40
0.0531586111691411
100
AcDbArc
 50
299.6162509736011
 51
8.272177508633126
  0
ARC
  5
76
330
1F
100
AcDbEntity
  8
IGES_LEVEL_0
 62
     7
100
AcDbCircle
 10
2.272054177569468
 20
29.98861698038282
 30
0.0
 40
0.0573069857372444
100
AcDbArc
 50
4.777068157820856
 51
114.6183846564113
  0
ARC
  5
77
330
1F
100
AcDbEntity
  8
IGES_LEVEL_0
 62
     7
100
AcDbCircle
 10
2.274452034513117
 20
29.99450121017695
 30
0.0
 40
0.0531586111606408
100
AcDbArc
 50
119.6162509690138
 51
188.2721775048342
  0
ARC
  5
78
330
1F
100
AcDbEntity
  8
IGES_LEVEL_0
 62
     7
100
AcDbCircle
 10
18.29959365093147
 20
29.99162544776452
 30
0.0
 40
0.0573069857454321
100
AcDbArc
 50
245.3816153561393
 51
355.2229318401792
  0
ARC
  5
79
330
1F
100
AcDbEntity
  8
IGES_LEVEL_0
 62
     7
100
AcDbCircle
 10
18.30199150789102
 20
29.98574121796299
 30
0.0
 40
0.0531586111691387
100
AcDbArc
 50
171.7278224913626
 51
240.3837490263958
  0
ARC
  5
7A
330
1F
100
AcDbEntity
  8
IGES_LEVEL_0
 62
     7
100
AcDbCircle
 10
18.30649388785098
 20
29.98861698038281
 30
0.0
 40
0.0573069857372515
100
AcDbArc
 50
65.38161534359689
 51
175.2229318421691
  0
ARC
  5
7B
330
1F
100
AcDbEntity
  8
IGES_LEVEL_0
 62
     7
100
AcDbCircle
 10
18.30409603090733
 20
29.99450121017696
 30
0.0
 40
0.0531586111606316
100
AcDbArc
 50
351.7278224951566
 51
60.38374903098828
  0
SPLINE
  5
7C
330
1F
100
AcDbEntity
  8
IGES_LEVEL_0
 62
     7
100
AcDbSpline
210
0.0
220
0.0
230
1.0
 70
     8
 71
     3
 72
    21
 73
    17
 74
     0
 42
0.0000000001
 43
0.0000000001
 40
-1.0
 40
-1.0
 40
-1.0
 40
-1.0
 40
-0.9853734550538
 40
-0.9131763524317
 40
-0.8406487693278
 40
-0.7675501419758
 40
-0.6936954900328
 40
-0.618971468186
 40
-0.5433444789778
 40
-0.4668609335155
 40
-0.3896406241229
 40
-0.3118646015495
 40
-0.2337590326026
 40
-0.1555764107908
 40
-0.07757534015011
 40
0.0
 40
0.0
 40
0.0
 40
0.0
 10
18.23262769979022
 20
29.81505286795733
 30
0.0
 10
18.23416691118023
 20
29.81422153225733
 30
0.0
 10
18.24338484807022
 20
29.80943699181733
 30
0.0
 10
18.26113495916022
 20
29.80232599933733
 30
0.0
 10
18.28664350808023
 20
29.79663433883733
 30
0.0
 10
18.31292709962023
 20
29.79505289237733
 30
0.0
 10
18.33939380256022
 20
29.79761135193733
 30
0.0
 10
18.36545083403022
 20
29.80424570254733
 30
0.0
 10
18.39051771573022
 20
29.81480129280733
 30
0.0
 10
18.41403848111023
 20
29.82903751631733
 30
0.0
 10
18.43549303735022
 20
29.84663375796733
 30
0.0
 10
18.45440777180022
 20
29.86719690025733
 30
0.0
 10
18.47036516550022
 20
29.89026903934733
 30
0.0
 10
18.48301282288022
 20
29.91534042008733
 30
0.0
 10
18.49206950801023
 20
29.94184854066733
 30
0.0
 10
18.49536253669516
 20
29.96020546878141
 30
0.0
 10
18.49669556870022
 20
29.96937419978733
 30
0.0
  0
ARC
  5
7D
330
1F
100
AcDbEntity
  8
IGES_LEVEL_0
 62
     7
100
AcDbCircle
 10
18.33096696301995
 20
29.9971553614994
 30
0.0
 40
0.1680409583607544
100
AcDbArc
 50
350.4839576138349
 51
61.62563370106662
  0
LINE
  5
7E
330
1F
100
AcDbEntity
  8
IGES_LEVEL_0
 62
     7
100
AcDbLine
 10
18.41082517072523
 20
30.14500809346233
 30
0.0
 11
18.40233818095022
 21
30.14959208581233
 31
0.0
  0
SPLINE
  5
7F
330
1F
100
AcDbEntity
  8
IGES_LEVEL_0
 62
     7
100
AcDbSpline
210
0.0
220
0.0
230
1.0
 70
     8
 71
     3
 72
    20
 73
    16
 74
     0
 42
0.0000000001
 43
0.0000000001
 40
2.0
 40
2.0
 40
2.0
 40
2.0
 40
2.0733168502334
 40
2.146973238140707
 40
2.22119770285113
 40
2.296223354685972
 40
2.372066589639174
 40
2.448911671658549
 40
2.526550639725765
 40
2.604909784389056
 40
2.683822489128192
 40
2.763014690218735
 40
2.842280023875588
 40
2.921333856828951
 40
3.0
 40
3.0
 40
3.0
 40
3.0
 10
18.40233818095022
 20
30.14959208581233
 30
0.0
 10
18.39460966089758
 20
30.15376643382799
 30
0.0
 10
18.37841254306246
 20
30.16089899463926
 30
0.0
 10
18.35265837980023
 20
30.16758863375733
 30
0.0
 10
18.32596010980022
 20
30.17012885129733
 30
0.0
 10
18.29893596283022
 20
30.16843565678733
 30
0.0
 10
18.27219194870022
 20
30.16252799102733
 30
0.0
 10
18.24636163644022
 20
30.15252581598733
 30
0.0
 10
18.22204570324022
 20
30.13864746966733
 30
0.0
 10
18.19982282624022
 20
30.12121735090733
 30
0.0
 10
18.18021035719022
 20
30.10063917001733
 30
0.0
 10
18.16366279073022
 20
30.07739317774733
 30
0.0
 10
18.15056288554023
 20
30.05202347977733
 30
0.0
 10
18.14120645400022
 20
30.02512051677733
 30
0.0
 10
18.13778883710128
 20
30.00646723439494
 30
0.0
 10
18.13647041779022
 20
29.99713736123733
 30
0.0
  0
ARC
  5
80
330
1F
100
AcDbEntity
  8
IGES_LEVEL_0
 62
     7
100
AcDbCircle
 10
18.30543350919582
 20
29.97018940908154
 30
0.0
 40
0.1710985633566981
100
AcDbArc
 50
170.9382073166009
 51
241.6278805611266
  0
LINE
  5
81
330
1F
100
AcDbEntity
  8
IGES_LEVEL_0
 62
     7
100
AcDbLine
 10
18.22412813761522
 20
29.81964322037233
 30
0.0
 11
18.23262769979022
 21
29.81505286795733
 31
0.0
  0
SPLINE
  5
82
330
1F
100
AcDbEntity
  8
IGES_LEVEL_0
 62
     7
100
AcDbSpline
210
0.0
220
0.0
230
1.0
 70
     8
 71
     3
 72
    21
 73
    17
 74
     0
 42
0.0000000001
 43
0.0000000001
 40
-1.0
 40
-1.0
 40
-1.0
 40
-1.0
 40
-0.9853734550538
 40
-0.9131763524317
 40
-0.8406487693278
 40
-0.7675501419758
 40
-0.6936954900328
 40
-0.618971468186
 40
-0.5433444789778
 40
-0.4668609335155
 40
-0.3896406241229
 40
-0.3118646015495
 40
-0.2337590326026
 40
-0.1555764107908
 40
-0.07757534015011
 40
0.0
 40
0.0
 40
0.0
 40
0.0
 10
17.69024024671022
 20
25.51566361214733
 30
0.0
 10
17.69177945810022
 20
25.51483227644733
 30
0.0
 10
17.70099739499022
 20
25.51004773600733
 30
0.0
 10
17.71874750608022
 20
25.50293674352733
 30
0.0
 10
17.74425605500022
 20
25.49724508302733
 30
0.0
 10
17.77053964654022
 20
25.49566363656733
 30
0.0
 10
17.79700634948022
 20
25.49822209612733
 30
0.0
 10
17.82306338095022
 20
25.50485644673733
 30
0.0
 10
17.84813026265022
 20
25.51541203699733
 30
0.0
 10
17.87165102803022
 20
25.52964826050733
 30
0.0
 10
17.89310558427022
 20
25.54724450215733
 30
0.0
 10
17.91202031872022
 20
25.56780764444733
 30
0.0
 10
17.92797771242022
 20
25.59087978353733
 30
0.0
 10
17.94062536980022
 20
25.61595116427733
 30
0.0
 10
17.94968205493022
 20
25.64245928485733
 30
0.0
 10
17.95297508361515
 20
25.66081621297141
 30
0.0
 10
17.95430811562022
 20
25.66998494397733
 30
0.0
  0
ARC
  5
83
330
1F
100
AcDbEntity
  8
IGES_LEVEL_0
 62
     7
100
AcDbCircle
 10
17.78857950993994
 20
25.6977661056894
 30
0.0
 40
0.1680409583607593
100
AcDbArc
 50
350.4839576138363
 51
61.62563370106614
  0
LINE
  5
84
330
1F
100
AcDbEntity
  8
IGES_LEVEL_0
 62
     7
100
AcDbLine
 10
17.86843771764522
 20
25.84561883765233
 30
0.0
 11
17.85995072787022
 21
25.85020283000233
 31
0.0
  0
SPLINE
  5
85
330
1F
100
AcDbEntity
  8
IGES_LEVEL_0
 62
     7
100
AcDbSpline
210
0.0
220
0.0
230
1.0
 70
     8
 71
     3
 72
    20
 73
    16
 74
     0
 42
0.0000000001
 43
0.0000000001
 40
2.0
 40
2.0
 40
2.0
 40
2.0
 40
2.0733168502334
 40
2.146973238140707
 40
2.22119770285113
 40
2.296223354685972
 40
2.372066589639174
 40
2.448911671658549
 40
2.526550639725765
 40
2.604909784389056
 40
2.683822489128192
 40
2.763014690218735
 40
2.842280023875588
 40
2.921333856828951
 40
3.0
 40
3.0
 40
3.0
 40
3.0
 10
17.85995072787022
 20
25.85020283000233
 30
0.0
 10
17.85222220781758
 20
25.85437717801798
 30
0.0
 10
17.83602508998245
 20
25.86150973882926
 30
0.0
 10
17.81027092672022
 20
25.86819937794733
 30
0.0
 10
17.78357265672022
 20
25.87073959548733
 30
0.0
 10
17.75654850975022
 20
25.86904640097733
 30
0.0
 10
17.72980449562022
 20
25.86313873521733
 30
0.0
 10
17.70397418336022
 20
25.85313656017733
 30
0.0
 10
17.67965825016022
 20
25.83925821385733
 30
0.0
 10
17.65743537316022
 20
25.82182809509733
 30
0.0
 10
17.63782290411022
 20
25.80124991420733
 30
0.0
 10
17.62127533765022
 20
25.77800392193733
 30
0.0
 10
17.60817543246022
 20
25.75263422396733
 30
0.0
 10
17.59881900092022
 20
25.72573126096733
 30
0.0
 10
17.59540138402128
 20
25.70707797858494
 30
0.0
 10
17.59408296471022
 20
25.69774810542733
 30
0.0
  0
ARC
  5
86
330
1F
100
AcDbEntity
  8
IGES_LEVEL_0
 62
     7
100
AcDbCircle
 10
17.76304605611581
 20
25.67080015327153
 30
0.0
 40
0.1710985633566901
100
AcDbArc
 50
170.938207316597
 51
241.6278805611266
  0
LINE
  5
87
330
1F
100
AcDbEntity
  8
IGES_LEVEL_0
 62
     7
100
AcDbLine
 10
17.68174068453522
 20
25.52025396456233
 30
0.0
 11
17.69024024671022
 21
25.51566361214733
 31
0.0
  0
ARC
  5
88
330
1F
100
AcDbEntity
  8
IGES_LEVEL_0
 62
     7
100
AcDbCircle
 10
17.75720619785147
 20
25.69223619195451
 30
0.0
 40
0.0573069857454319
100
AcDbArc
 50
245.381615356136
 51
355.2229318401828
  0
ARC
  5
89
330
1F
100
AcDbEntity
  8
IGES_LEVEL_0
 62
     7
100
AcDbCircle
 10
17.75960405481099
 20
25.68635196215298
 30
0.0
 40
0.0531586111691154
100
AcDbArc
 50
171.7278224913474
 51
240.3837490264167
  0
ARC
  5
8A
330
1F
100
AcDbEntity
  8
IGES_LEVEL_0
 62
     7
100
AcDbCircle
 10
17.76410643477097
 20
25.68922772457282
 30
0.0
 40
0.0573069857372432
100
AcDbArc
 50
65.38161534358599
 51
175.2229318421826
  0
ARC
  5
8B
330
1F
100
AcDbEntity
  8
IGES_LEVEL_0
 62
     7
100
AcDbCircle
 10
17.76170857782735
 20
25.69511195436697
 30
0.0
 40
0.0531586111606087
100
AcDbArc
 50
351.7278224951376
 51
60.38374903100069
  0
LINE
  5
8C
330
1F
100
AcDbEntity
  8
IGES_LEVEL_0
 62
     7
100
AcDbLine
 10
18.11289971589576
 20
18.61982917358955
 30
0.0
 11
18.11235796735094
 21
18.64480829954533
 31
0.0
  0
SPLINE
  5
8D
330
1F
100
AcDbEntity
  8
IGES_LEVEL_0
 62
     7
100
AcDbSpline
210
0.0
220
0.0
230
1.0
 70
     8
 71
     3
 72
    52
 73
    48
 74
     0
 42
0.0000000001
 43
0.0000000001
 40
0.0
 40
0.0
 40
0.0
 40
0.0
 40
0.009065135125823
 40
0.02779428906312
 40
0.04839807197404
 40
0.064984198682
 40
0.07770252381519
 40
0.08753445492461
 40
0.09543648369709
 40
0.1026743700334
 40
0.1101641343641
 40
0.118679525829
 40
0.128935862782
 40
0.1416838256296
 40
0.1577554268223
 40
0.1781259999127
 40
0.2039838019395
 40
0.2367710200231
 40
0.2782299566583
 40
0.3301077788768
 40
0.387923451883
 40
0.4482613715777
 40
0.5097177916786
 40
0.5708347434965
 40
0.6301653507032
 40
0.684424135497
 40
0.7286044342218
 40
0.7640659005736
 40
0.7924569794564
 40
0.815161480662
 40
0.833327162843
 40
0.8478934680579
 40
0.8596348015888
 40
0.8691988924987
 40
0.877142257568
 40
0.8839765976563
 40
0.8902247769908001
 40
0.8963730577409
 40
0.9029865357406
 40
0.9108911358521
 40
0.9199386736066
 40
0.930242452154
 40
0.9414081656226
 40
0.9551529596287
 40
0.9685393260851
 40
0.9831690283336
 40
1.0
 40
1.0
 40
1.0
 40
1.0
 10
18.48697317170522
 20
18.65654971929733
 30
0.0
 10
18.48679917722891
 20
18.6577686330436
 30
0.0
 10
18.48603784288774
 20
18.66147638085996
 30
0.0
 10
18.48351846436845
 20
18.66759887838406
 30
0.0
 10
18.47884206668055
 20
18.67368554293157
 30
0.0
 10
18.47348858186406
 20
18.6778994977423
 30
0.0
 10
18.46875442613518
 20
18.68033503795533
 30
0.0
 10
18.4648501831084
 20
18.68169248904349
 30
0.0
 10
18.46155909154148
 20
18.68248610719632
 30
0.0
 10
18.4585374318921
 20
18.68300704516049
 30
0.0
 10
18.45541396966151
 20
18.68340392575799
 30
0.0
 10
18.45187311631631
 20
18.68374352138631
 30
0.0
 10
18.44761540398427
 20
18.68405539487838
 30
0.0
 10
18.44233122443653
 20
18.68435079728914
 30
0.0
 10
18.43567489793734
 20
18.6846308068151
 30
0.0
 10
18.427241139192
 20
18.68488933097248
 30
0.0
 10
18.41654190376592
 20
18.68511350956399
 30
0.0
 10
18.40298528049026
 20
18.68528250755005
 30
0.0
 10
18.38590378423458
 20
18.6853647417676
 30
0.0
 10
18.36543241430153
 20
18.68531768429156
 30
0.0
 10
18.34240503323876
 20
18.68511510081538
 30
0.0
 10
18.31808212931448
 20
18.68475779400387
 30
0.0
 10
18.29331456507874
 20
18.68425692415228
 30
0.0
 10
18.26868648154042
 20
18.68362437480567
 30
0.0
 10
18.24503669059779
 20
18.68288303172232
 30
0.0
 10
18.22368402794111
 20
18.68208391930859
 30
0.0
 10
18.20556658388384
 20
18.68128868937583
 30
0.0
 10
18.190953819919
 20
18.68054857988074
 30
0.0
 10
18.17925049119965
 20
18.67987106172455
 30
0.0
 10
18.16989029746194
 20
18.67925453688037
 30
0.0
 10
18.16240311866014
 20
18.6786940520635
 30
0.0
 10
18.15640153069029
 20
18.67818254091452
 30
0.0
 10
18.15156603084692
 20
18.67771126520738
 30
0.0
 10
18.14762928703083
 20
18.6772693828141
 30
0.0
 10
18.14436011179348
 20
18.67684240003091
 30
0.0
 10
18.14154541119864
 20
18.6764084913811
 30
0.0
 10
18.13898408917968
 20
18.67593325021927
 30
0.0
 10
18.13647346351273
 20
18.67535845101762
 30
0.0
 10
18.13378344339036
 20
18.67457812012361
 30
0.0
 10
18.13079393438168
 20
18.67344764965776
 30
0.0
 10
18.12748724418157
 20
18.67178912494046
 30
0.0
 10
18.12404069877133
 20
18.66948516898671
 30
0.0
 10
18.12047605977847
 20
18.66629142123295
 30
0.0
 10
18.11721897325435
 20
18.66221601720458
 30
0.0
 10
18.11453191634689
 20
18.65720466900766
 30
0.0
 10
18.11270248317244
 20
18.65137442924088
 30
0.0
 10
18.11230822161912
 20
18.64708721952157
 30
0.0
 10
18.11235764779337
 20
18.64480826068724
 30
0.0
  0
SPLINE
  5
8E
330
1F
100
AcDbEntity
  8
IGES_LEVEL_0
 62
     7
100
AcDbSpline
210
0.0
220
0.0
230
1.0
 70
     8
 71
     3
 72
    52
 73
    48
 74
     0
 42
0.0000000001
 43
0.0000000001
 40
0.0
 40
0.0
 40
0.0
 40
0.0
 40
0.009065135125823
 40
0.02779428906312
 40
0.04839807197404
 40
0.064984198682
 40
0.07770252381519
 40
0.08753445492461
 40
0.09543648369709
 40
0.1026743700334
 40
0.1101641343641
 40
0.118679525829
 40
0.128935862782
 40
0.1416838256296
 40
0.1577554268223
 40
0.1781259999127
 40
0.2039838019395
 40
0.2367710200231
 40
0.2782299566583
 40
0.3301077788768
 40
0.387923451883
 40
0.4482613715777
 40
0.5097177916786
 40
0.5708347434965
 40
0.6301653507032
 40
0.684424135497
 40
0.7286044342218
 40
0.7640659005736
 40
0.7924569794564
 40
0.815161480662
 40
0.833327162843
 40
0.8478934680579
 40
0.8596348015888
 40
0.8691988924987
 40
0.877142257568
 40
0.8839765976563
 40
0.8902247769908001
 40
0.8963730577409
 40
0.9029865357406
 40
0.9108911358521
 40
0.9199386736066
 40
0.930242452154
 40
0.9414081656226
 40
0.9551529596287
 40
0.9685393260851
 40
0.9831690283336
 40
1.0
 40
1.0
 40
1.0
 40
1.0
 10
2.091574893715221
 20
18.65654971929733
 30
0.0
 10
2.091748888191535
 20
18.6577686330436
 30
0.0
 10
2.092510222532706
 20
18.66147638085996
 30
0.0
 10
2.095029601051991
 20
18.66759887838406
 30
0.0
 10
2.099705998739893
 20
18.67368554293157
 30
0.0
 10
2.105059483556381
 20
18.6778994977423
 30
0.0
 10
2.109793639285265
 20
18.68033503795533
 30
0.0
 10
2.113697882312048
 20
18.68169248904349
 30
0.0
 10
2.11698897387896
 20
18.68248610719632
 30
0.0
 10
2.120010633528342
 20
18.68300704516049
 30
0.0
 10
2.123134095758927
 20
18.68340392575799
 30
0.0
 10
2.126674949104132
 20
18.68374352138631
 30
0.0
 10
2.130932661436177
 20
18.68405539487838
 30
0.0
 10
2.136216840983912
 20
18.68435079728914
 30
0.0
 10
2.142873167483105
 20
18.6846308068151
 30
0.0
 10
2.151306926228443
 20
18.68488933097248
 30
0.0
 10
2.162006161654522
 20
18.68511350956399
 30
0.0
 10
2.175562784930178
 20
18.68528250755005
 30
0.0
 10
2.19264428118586
 20
18.6853647417676
 30
0.0
 10
2.21311565111891
 20
18.68531768429156
 30
0.0
 10
2.236143032181686
 20
18.68511510081538
 30
0.0
 10
2.260465936105967
 20
18.68475779400387
 30
0.0
 10
2.285233500341702
 20
18.68425692415228
 30
0.0
 10
2.309861583880018
 20
18.68362437480567
 30
0.0
 10
2.333511374822651
 20
18.68288303172232
 30
0.0
 10
2.354864037479329
 20
18.68208391930859
 30
0.0
 10
2.372981481536602
 20
18.68128868937583
 30
0.0
 10
2.387594245501444
 20
18.68054857988074
 30
0.0
 10
2.399297574220793
 20
18.67987106172455
 30
0.0
 10
2.408657767958505
 20
18.67925453688037
 30
0.0
 10
2.4161449467603
 20
18.6786940520635
 30
0.0
 10
2.422146534730155
 20
18.67818254091452
 30
0.0
 10
2.426982034573526
 20
18.67771126520738
 30
0.0
 10
2.430918778389611
 20
18.6772693828141
 30
0.0
 10
2.434187953626958
 20
18.67684240003091
 30
0.0
 10
2.437002654221799
 20
18.6764084913811
 30
0.0
 10
2.439563976240764
 20
18.67593325021927
 30
0.0
 10
2.442074601907717
 20
18.67535845101762
 30
0.0
 10
2.444764622030085
 20
18.67457812012361
 30
0.0
 10
2.447754131038761
 20
18.67344764965776
 30
0.0
 10
2.451060821238876
 20
18.67178912494046
 30
0.0
 10
2.454507366649109
 20
18.66948516898671
 30
0.0
 10
2.458072005641976
 20
18.66629142123295
 30
0.0
 10
2.46132909216609
 20
18.66221601720458
 30
0.0
 10
2.464016149073554
 20
18.65720466900766
 30
0.0
 10
2.465845582248006
 20
18.65137442924088
 30
0.0
 10
2.466239843801326
 20
18.64708721952157
 30
0.0
 10
2.466190417627072
 20
18.64480826068724
 30
0.0
  0
LINE
  5
8F
330
1F
100
AcDbEntity
  8
IGES_LEVEL_0
 62
     7
100
AcDbLine
 10
2.465648349524686
 20
18.61982917358955
 30
0.0
 11
2.466190098069502
 21
18.64480829954533
 31
0.0
  0
LINE
  5
90
330
1F
100
AcDbEntity
  8
DEFAULT
100
AcDbLine
 10
17.67559521428022
 20
18.52756834747733
 30
0.0
 11
17.53591936317022
 21
18.49799909716733
 31
0.0
  0
LINE
  5
91
330
1F
100
AcDbEntity
  8
IGES_LEVEL_0
 62
     7
100
AcDbLine
 10
2.553151613610221
 20
18.60346582331733
 30
0.0
 11
2.521866613610221
 21
18.60952882331733
 31
0.0
  0
ARC
  5
92
330
1F
100
AcDbEntity
  8
IGES_LEVEL_0
 62
     7
100
AcDbCircle
 10
2.022672808102284
 20
16.03369537365329
 30
0.0
 40
2.623759214536585
100
AcDbArc
 50
79.03210045114238
 51
88.49519247866303
  0
LINE
  5
93
330
1F
100
AcDbEntity
  8
DEFAULT
100
AcDbLine
 10
2.902952851146221
 20
18.52756834746733
 30
0.0
 11
3.042619405540221
 21
18.49800104579733
 31
0.0
  0
LINE
  5
94
330
1F
100
AcDbEntity
  8
IGES_LEVEL_0
 62
     7
100
AcDbLine
 10
1.62306561361022
 20
0.1578078233173279
 30
0.0
 11
1.58344961361022
 21
1.154227823317328
 31
0.0
  0
LINE
  5
95
330
1F
100
AcDbEntity
  8
IGES_LEVEL_0
 62
     7
100
AcDbLine
 10
1.290850613610221
 20
18.39069882331733
 30
0.0
 11
1.290839613610221
 21
18.39153282331733
 31
0.0
  0
LINE
  5
96
330
1F
100
AcDbEntity
  8
IGES_LEVEL_0
 62
     7
100
AcDbLine
 10
1.20703961361022
 20
15.35599282331733
 30
0.0
 11
1.20703961361022
 21
15.35813282331733
 31
0.0
  0
LINE
  5
97
330
1F
100
AcDbEntity
  8
IGES_LEVEL_0
 62
     7
100
AcDbLine
 10
1.290839613610221
 20
18.39179482331733
 30
0.0
 11
1.290839613610221
 21
18.53934482331733
 31
0.0
  0
LINE
  5
98
330
1F
100
AcDbEntity
  8
IGES_LEVEL_0
 62
     7
100
AcDbLine
 10
0.2421276136102207
 20
1.158285823317328
 30
0.0
 11
0.9008766136102205
 21
15.63279082331733
 31
0.0
  0
LINE
  5
99
330
1F
100
AcDbEntity
  8
IGES_LEVEL_0
 62
     7
100
AcDbLine
 10
0.8720236136102203
 20
1.251648823317328
 30
0.0
 11
1.504246613610221
 21
15.14330482331733
 31
0.0
  0
LINE
  5
9A
330
1F
100
AcDbEntity
  8
IGES_LEVEL_0
 62
     7
100
AcDbLine
 10
1.207279613610221
 20
15.36853282331733
 30
0.0
 11
1.213811613610221
 21
15.50987482331733
 31
0.0
  0
LINE
  5
9B
330
1F
100
AcDbEntity
  8
IGES_LEVEL_0
 62
     7
100
AcDbLine
 10
2.69863961361022
 20
17.41030482331733
 30
0.0
 11
2.69863961361022
 21
17.61298282331733
 31
0.0
  0
LINE
  5
9C
330
1F
100
AcDbEntity
  8
IGES_LEVEL_0
 62
     7
100
AcDbLine
 10
2.37616261361022
 20
16.69587882331733
 30
0.0
 11
2.376164613610221
 21
16.71677982331732
 31
0.0
  0
LINE
  5
9D
330
1F
100
AcDbEntity
  8
IGES_LEVEL_0
 62
     7
100
AcDbLine
 10
2.37620461361022
 20
16.69407082331733
 30
0.0
 11
2.37589261361022
 21
16.29402582331733
 31
0.0
  0
LINE
  5
9E
330
1F
100
AcDbEntity
  8
IGES_LEVEL_0
 62
     7
100
AcDbLine
 10
1.675815613610221
 20
16.48674782331733
 30
0.0
 11
0.8794596136102205
 21
1.252134823317329
 31
0.0
  0
LINE
  5
9F
330
1F
100
AcDbEntity
  8
IGES_LEVEL_0
 62
     7
100
AcDbLine
 10
2.29996361361022
 20
16.45412182331733
 30
0.0
 11
1.503607613610221
 21
1.219508823317328
 31
0.0
  0
LINE
  5
A0
330
1F
100
AcDbEntity
  8
IGES_LEVEL_0
 62
     7
100
AcDbLine
 10
0.6499616136102201
 20
0.2086688233173282
 30
0.0
 11
0.6496506136102201
 21
0.2062238233173279
 31
0.0
  0
LINE
  5
A1
330
1F
100
AcDbEntity
  8
IGES_LEVEL_0
 62
     7
100
AcDbLine
 10
0.7932426136102205
 20
1.195495823317328
 30
0.0
 11
0.6499536136102208
 21
0.2086288233173279
 31
0.0
  0
LINE
  5
A2
330
1F
100
AcDbEntity
  8
IGES_LEVEL_0
 62
     7
100
AcDbLine
 10
2.450918613610221
 20
24.83261382331733
 30
0.0
 11
3.205788613610221
 21
18.52978082331733
 31
0.0
  0
LINE
  5
A3
330
1F
100
AcDbEntity
  8
IGES_LEVEL_0
 62
     7
100
AcDbLine
 10
1.323452613610221
 20
18.58619482331732
 30
0.0
 11
1.33026661361022
 21
18.58817982331733
 31
0.0
  0
LINE
  5
A4
330
1F
100
AcDbEntity
  8
IGES_LEVEL_0
 62
     7
100
AcDbLine
 10
3.100445613610221
 20
24.66511282331733
 30
0.0
 11
3.826354613610221
 21
18.60410382331733
 31
0.0
  0
LINE
  5
A5
330
1F
100
AcDbEntity
  8
IGES_LEVEL_0
 62
     7
100
AcDbLine
 10
3.316279613610221
 20
17.09651882331733
 30
0.0
 11
2.69863961361022
 21
17.42991182331733
 31
0.0
  0
LINE
  5
A6
330
1F
100
AcDbEntity
  8
IGES_LEVEL_0
 62
     7
100
AcDbLine
 10
18.05664861361022
 20
18.60952282331733
 30
0.0
 11
18.02539661361022
 21
18.60346582331733
 31
0.0
  0
LINE
  5
A7
330
1F
100
AcDbEntity
  8
IGES_LEVEL_0
 62
     7
100
AcDbLine
 10
17.87990861361022
 20
17.42991182331733
 30
0.0
 11
17.26227861361022
 21
17.09652382331733
 31
0.0
  0
LINE
  5
A8
330
1F
100
AcDbEntity
  8
IGES_LEVEL_0
 62
     7
100
AcDbLine
 10
19.24828161361022
 20
18.58817982331733
 30
0.0
 11
19.25512161361022
 21
18.58618482331733
 31
0.0
  0
LINE
  5
A9
330
1F
100
AcDbEntity
  8
IGES_LEVEL_0
 62
     7
100
AcDbLine
 10
16.75219361361022
 20
18.60410382331733
 30
0.0
 11
17.47810261361022
 21
24.66511282331733
 31
0.0
  0
LINE
  5
AA
330
1F
100
AcDbEntity
  8
IGES_LEVEL_0
 62
     7
100
AcDbLine
 10
18.20240261361022
 20
16.41040482331733
 30
0.0
 11
17.78849061361022
 21
16.80176582331733
 31
0.0
  0
LINE
  5
AB
330
1F
100
AcDbEntity
  8
IGES_LEVEL_0
 62
     7
100
AcDbLine
 10
17.87990861361022
 20
17.41030482331733
 30
0.0
 11
17.87990861361022
 21
17.61298282331733
 31
0.0
  0
LINE
  5
AC
330
1F
100
AcDbEntity
  8
IGES_LEVEL_0
 62
     7
100
AcDbLine
 10
17.37275861361022
 20
18.52978082331733
 30
0.0
 11
18.12761361361022
 21
24.83247782331733
 31
0.0
  0
LINE
  5
AD
330
1F
100
AcDbEntity
  8
IGES_LEVEL_0
 62
     7
100
AcDbLine
 10
19.92858861361022
 20
0.2086748233173281
 30
0.0
 11
19.78530061361022
 21
1.195533823317328
 31
0.0
  0
LINE
  5
AE
330
1F
100
AcDbEntity
  8
IGES_LEVEL_0
 62
     7
100
AcDbLine
 10
19.07494061361022
 20
1.219508823317328
 30
0.0
 11
18.27858461361022
 21
16.45412182331733
 31
0.0
  0
LINE
  5
AF
330
1F
100
AcDbEntity
  8
IGES_LEVEL_0
 62
     7
100
AcDbLine
 10
19.69908761361022
 20
1.252134823317328
 30
0.0
 11
18.90273261361022
 21
16.48674782331733
 31
0.0
  0
LINE
  5
B0
330
1F
100
AcDbEntity
  8
IGES_LEVEL_0
 62
     7
100
AcDbLine
 10
19.07428761361022
 20
15.14360582331733
 30
0.0
 11
19.70652461361022
 21
1.251647823317327
 31
0.0
  0
LINE
  5
B1
330
1F
100
AcDbEntity
  8
IGES_LEVEL_0
 62
     7
100
AcDbLine
 10
18.20254361361022
 20
16.29405482331733
 30
0.0
 11
18.20210761361022
 21
16.69409382331733
 31
0.0
  0
LINE
  5
B2
330
1F
100
AcDbEntity
  8
IGES_LEVEL_0
 62
     7
100
AcDbLine
 10
18.20215961361022
 20
16.71685982331733
 30
0.0
 11
18.20216261361022
 21
16.69602882331733
 31
0.0
  0
LINE
  5
B3
330
1F
100
AcDbEntity
  8
IGES_LEVEL_0
 62
     7
100
AcDbLine
 10
19.28770861361022
 20
18.53934482331733
 30
0.0
 11
19.28770861361022
 21
18.39179482331733
 31
0.0
  0
LINE
  5
B4
330
1F
100
AcDbEntity
  8
IGES_LEVEL_0
 62
     7
100
AcDbLine
 10
19.28770861361022
 20
18.39153282331733
 30
0.0
 11
19.28769661361022
 21
18.39065282331733
 31
0.0
  0
LINE
  5
B5
330
1F
100
AcDbEntity
  8
IGES_LEVEL_0
 62
     7
100
AcDbLine
 10
19.36482561361022
 20
15.51020082331733
 30
0.0
 11
19.37139761361022
 21
15.36886082331733
 31
0.0
  0
LINE
  5
B6
330
1F
100
AcDbEntity
  8
IGES_LEVEL_0
 62
     7
100
AcDbLine
 10
19.67767161361022
 20
15.63279082331733
 30
0.0
 11
20.33641961361022
 21
1.158285823317328
 31
0.0
  0
LINE
  5
B7
330
1F
100
AcDbEntity
  8
IGES_LEVEL_0
 62
     7
100
AcDbLine
 10
19.37164061361022
 20
15.35840482331733
 30
0.0
 11
19.37164061361022
 21
15.35626482331733
 31
0.0
  0
LINE
  5
B8
330
1F
100
AcDbEntity
  8
IGES_LEVEL_0
 62
     7
100
AcDbLine
 10
18.95548561361022
 20
0.157801823317328
 30
0.0
 11
18.95543061361022
 21
0.1553378233173282
 31
0.0
  0
LINE
  5
B9
330
1F
100
AcDbEntity
  8
IGES_LEVEL_0
 62
     7
100
AcDbLine
 10
18.99509761361022
 20
1.154189823317328
 30
0.0
 11
18.95548161361022
 21
0.157760823317328
 31
0.0
  0
LINE
  5
BA
330
1F
100
AcDbEntity
  8
IGES_LEVEL_0
 62
     7
100
AcDbLine
 10
32.30154161361022
 20
30.46007882331733
 30
0.0
 11
32.30275661361022
 21
30.46459482331733
 31
0.0
  0
LINE
  5
BB
330
1F
100
AcDbEntity
  8
IGES_LEVEL_0
 62
     7
100
AcDbLine
 10
34.05024861361022
 20
17.04473282331733
 30
0.0
 11
34.04501361361022
 21
17.19464182331733
 31
0.0
  0
LINE
  5
BC
330
1F
100
AcDbEntity
  8
IGES_LEVEL_0
 62
     7
100
AcDbLine
 10
31.04820961361022
 20
0.1341178233173281
 30
0.0
 11
31.23671261361022
 21
0.9877408233173279
 31
0.0
  0
LINE
  5
BD
330
1F
100
AcDbEntity
  8
IGES_LEVEL_0
 62
     7
100
AcDbLine
 10
32.25799261361022
 20
25.11186582331733
 30
0.0
 11
31.02699761361022
 21
30.66452782331733
 31
0.0
  0
LINE
  5
BE
330
1F
100
AcDbEntity
  8
IGES_LEVEL_0
 62
     7
100
AcDbLine
 10
32.30138661361022
 20
30.46014982331733
 30
0.0
 11
34.14946161361022
 21
18.51914582331733
 31
0.0
  0
LINE
  5
BF
330
1F
100
AcDbEntity
  8
IGES_LEVEL_0
 62
     7
100
AcDbLine
 10
30.58561361361022
 20
1.274823823317328
 30
0.0
 11
36.07519461361022
 21
17.21772582331733
 31
0.0
  0
LINE
  5
C0
330
1F
100
AcDbEntity
  8
IGES_LEVEL_0
 62
     7
100
AcDbLine
 10
31.17634861361022
 20
1.070722823317328
 30
0.0
 11
36.66614361361022
 21
17.01424582331732
 31
0.0
  0
LINE
  5
C1
330
1F
100
AcDbEntity
  8
IGES_LEVEL_0
 62
     7
100
AcDbLine
 10
30.48390961361022
 20
1.257516823317328
 30
0.0
 11
30.45285061361022
 21
1.213473823317328
 31
0.0
  0
LINE
  5
C2
330
1F
100
AcDbEntity
  8
IGES_LEVEL_0
 62
     7
100
AcDbLine
 10
46.85881861361022
 20
17.25217282331733
 30
0.0
 11
47.15828961361022
 21
17.26890382331733
 31
0.0
  0
LINE
  5
C3
330
1F
100
AcDbEntity
  8
IGES_LEVEL_0
 62
     7
100
AcDbLine
 10
36.67767361361022
 20
17.05895282331733
 30
0.0
 11
46.68810361361022
 21
17.61821982331733
 31
0.0
  0
LINE
  5
C4
330
1F
100
AcDbEntity
  8
IGES_LEVEL_0
 62
     7
100
AcDbLine
 10
47.27125461361022
 20
17.65079982331733
 30
0.0
 11
48.39944661361022
 21
17.71382982331733
 31
0.0
  0
LINE
  5
C5
330
1F
100
AcDbEntity
  8
IGES_LEVEL_0
 62
     7
100
AcDbLine
 10
48.14743561361022
 20
17.48698682331733
 30
0.0
 11
47.29866161361022
 21
17.45734782331733
 31
0.0
  0
LINE
  5
C6
330
1F
100
AcDbEntity
  8
IGES_LEVEL_0
 62
     7
100
AcDbLine
 10
46.69826261361022
 20
17.43638082331733
 30
0.0
 11
37.99052161361022
 21
17.13229982331733
 31
0.0
  0
LINE
  5
C7
330
1F
100
AcDbEntity
  8
IGES_LEVEL_0
 62
     7
100
AcDbLine
 10
35.58543561361022
 20
17.04831282331733
 30
0.0
 11
34.10196261361022
 21
16.99650882331733
 31
0.0
  0
LINE
  5
C8
330
1F
100
AcDbEntity
  8
IGES_LEVEL_0
 62
     7
100
AcDbLine
 10
35.70354761361022
 20
17.68583882331733
 30
0.0
 11
35.70361161361022
 21
17.68584282331733
 31
0.0
  0
LINE
  5
C9
330
1F
100
AcDbEntity
  8
IGES_LEVEL_0
 62
     7
100
AcDbLine
 10
35.96661061361022
 20
17.64520182331733
 30
0.0
 11
36.10005461361022
 21
17.65265682331733
 31
0.0
  0
LINE
  5
CA
330
1F
100
AcDbEntity
  8
IGES_LEVEL_0
 62
     7
100
AcDbLine
 10
48.10523461361022
 20
18.67742682331733
 30
0.0
 11
48.41982661361022
 21
18.68841182331733
 31
0.0
  0
LINE
  5
CB
330
1F
100
AcDbEntity
  8
IGES_LEVEL_0
 62
     7
100
AcDbLine
 10
46.70065361361022
 20
17.39357082331733
 30
0.0
 11
46.68871661361022
 21
17.60724082331733
 31
0.0
  0
LINE
  5
CC
330
1F
100
AcDbEntity
  8
IGES_LEVEL_0
 62
     7
100
AcDbLine
 10
47.29971961361022
 20
17.42703882331733
 30
0.0
 11
47.28778161361022
 21
17.64071682331733
 31
0.0
  0
LINE
  5
CD
330
1F
100
AcDbEntity
  8
IGES_LEVEL_0
 62
     7
100
AcDbLine
 10
48.07629361361022
 20
18.64040482331733
 30
0.0
 11
48.07608461361022
 21
18.64638982331733
 31
0.0
  0
LINE
  5
CE
330
1F
100
AcDbEntity
  8
IGES_LEVEL_0
 62
     7
100
AcDbLine
 10
48.14743561361022
 20
17.69975082331733
 30
0.0
 11
48.14743561361022
 21
17.11458882331733
 31
0.0
  0
LINE
  5
CF
330
1F
100
AcDbEntity
  8
IGES_LEVEL_0
 62
     7
100
AcDbLine
 10
48.77243561361022
 20
17.70158482331733
 30
0.0
 11
48.77243561361022
 21
17.11458882331733
 31
0.0
  0
LINE
  5
D0
330
1F
100
AcDbEntity
  8
IGES_LEVEL_0
 62
     7
100
AcDbLine
 10
51.49635561361022
 20
0.2078028233173279
 30
0.0
 11
51.35485961361022
 21
1.194825823317328
 31
0.0
  0
LINE
  5
D1
330
1F
100
AcDbEntity
  8
IGES_LEVEL_0
 62
     7
100
AcDbLine
 10
49.87583461361022
 20
16.45468682331733
 30
0.0
 11
50.64453161361022
 21
1.220333823317327
 31
0.0
  0
LINE
  5
D2
330
1F
100
AcDbEntity
  8
IGES_LEVEL_0
 62
     7
100
AcDbLine
 10
50.50004061361022
 20
16.48618282331733
 30
0.0
 11
51.26873761361022
 21
1.251826823317328
 31
0.0
  0
LINE
  5
D3
330
1F
100
AcDbEntity
  8
IGES_LEVEL_0
 62
     7
100
AcDbLine
 10
49.76909861361022
 20
18.27933282331733
 30
0.0
 11
49.77383361361022
 21
18.14374082331733
 31
0.0
  0
LINE
  5
D4
330
1F
100
AcDbEntity
  8
IGES_LEVEL_0
 62
     7
100
AcDbLine
 10
49.78212161361022
 20
17.90640482331733
 30
0.0
 11
49.77400561361022
 21
18.13883982331733
 31
0.0
  0
LINE
  5
D5
330
1F
100
AcDbEntity
  8
IGES_LEVEL_0
 62
     7
100
AcDbLine
 10
32.39853161361022
 20
24.37478982331733
 30
0.0
 11
33.21518061361022
 21
24.55583682331733
 31
0.0
  0
LINE
  5
D6
330
1F
100
AcDbEntity
  8
IGES_LEVEL_0
 62
     7
100
AcDbLine
 10
50.56458461361022
 20
1.154949823317328
 30
0.0
 11
50.52316061361022
 21
0.1586968233173283
 31
0.0
  0
LINE
  5
D7
330
1F
100
AcDbEntity
  8
IGES_LEVEL_0
 62
     7
100
AcDbLine
 10
30.84059661361022
 20
31.39141282331733
 30
0.0
 11
32.48608361361022
 21
31.75620882331732
 31
0.0
  0
LINE
  5
D8
330
1F
100
AcDbEntity
  8
IGES_LEVEL_0
 62
     7
100
AcDbLine
 10
1.00475661361022
 20
60.78783182331733
 30
0.0
 11
0.9404006136102202
 21
60.50429182331732
 31
0.0
  0
LINE
  5
D9
330
1F
100
AcDbEntity
  8
IGES_LEVEL_0
 62
     7
100
AcDbLine
 10
1.207031613610221
 20
55.95696082331732
 30
0.0
 11
1.207030613610221
 21
55.96317682331733
 31
0.0
  0
LINE
  5
DA
330
1F
100
AcDbEntity
  8
IGES_LEVEL_0
 62
     7
100
AcDbLine
 10
1.314611613610221
 20
58.37048982331732
 30
0.0
 11
1.314611613610221
 21
58.40081582331732
 31
0.0
  0
LINE
  5
DB
330
1F
100
AcDbEntity
  8
IGES_LEVEL_0
 62
     7
100
AcDbLine
 10
1.21395961361022
 20
55.90243682331732
 30
0.0
 11
1.20742761361022
 21
55.95110382331733
 31
0.0
  0
LINE
  5
DC
330
1F
100
AcDbEntity
  8
IGES_LEVEL_0
 62
     7
100
AcDbLine
 10
0.2368026136102207
 20
60.58573782331732
 30
0.0
 11
0.9032476136102202
 21
55.54353782331732
 31
0.0
  0
LINE
  5
DD
330
1F
100
AcDbEntity
  8
IGES_LEVEL_0
 62
     7
100
AcDbLine
 10
0.8563506136102203
 20
60.66811382331732
 30
0.0
 11
1.47006561361022
 21
56.02485482331733
 31
0.0
  0
LINE
  5
DE
330
1F
100
AcDbEntity
  8
IGES_LEVEL_0
 62
     7
100
AcDbLine
 10
0.0651106136102205
 20
60.65799782331732
 30
0.0
 11
0.19813861361022
 21
60.40618382331732
 31
0.0
  0
LINE
  5
DF
330
1F
100
AcDbEntity
  8
IGES_LEVEL_0
 62
     7
100
AcDbLine
 10
2.737623613610221
 20
57.47659382331732
 30
0.0
 11
3.268929613610221
 21
56.79002182331733
 31
0.0
  0
LINE
  5
E0
330
1F
100
AcDbEntity
  8
IGES_LEVEL_0
 62
     7
100
AcDbLine
 10
19.21920661361022
 20
40.21055382331733
 30
0.0
 11
18.37362461361022
 21
41.02678082331732
 31
0.0
  0
LINE
  5
E1
330
1F
100
AcDbEntity
  8
IGES_LEVEL_0
 62
     7
100
AcDbLine
 10
3.364984613610221
 20
57.68713082331733
 30
0.0
 11
3.76321361361022
 21
57.17252482331733
 31
0.0
  0
LINE
  5
E2
330
1F
100
AcDbEntity
  8
IGES_LEVEL_0
 62
     7
100
AcDbLine
 10
19.65327361361022
 20
40.66023282331732
 30
0.0
 11
18.86084461361022
 21
41.42515282331733
 31
0.0
  0
LINE
  5
E3
330
1F
100
AcDbEntity
  8
IGES_LEVEL_0
 62
     7
100
AcDbLine
 10
1.717703613610221
 20
41.42515282331733
 30
0.0
 11
0.9252746136102202
 21
40.66023282331732
 31
0.0
  0
LINE
  5
E4
330
1F
100
AcDbEntity
  8
IGES_LEVEL_0
 62
     7
100
AcDbLine
 10
16.81533461361022
 20
57.17252482331733
 30
0.0
 11
17.21356361361022
 21
57.68713082331733
 31
0.0
  0
LINE
  5
E5
330
1F
100
AcDbEntity
  8
IGES_LEVEL_0
 62
     7
100
AcDbLine
 10
17.30961861361022
 20
56.79002182331733
 30
0.0
 11
17.84091661361022
 21
57.47658482331732
 31
0.0
  0
LINE
  5
E6
330
1F
100
AcDbEntity
  8
IGES_LEVEL_0
 62
     7
100
AcDbLine
 10
2.20492361361022
 20
41.02678082331732
 30
0.0
 11
1.359341613610221
 21
40.21055382331733
 31
0.0
  0
LINE
  5
E7
330
1F
100
AcDbEntity
  8
IGES_LEVEL_0
 62
     7
100
AcDbLine
 10
17.70669861361022
 20
57.65378682331733
 30
0.0
 11
17.70699861361022
 21
57.65433082331732
 31
0.0
  0
LINE
  5
E8
330
1F
100
AcDbEntity
  8
IGES_LEVEL_0
 62
     7
100
AcDbLine
 10
17.81461461361022
 20
57.61406382331732
 30
0.0
 11
17.81431461361022
 21
57.61351882331732
 31
0.0
  0
LINE
  5
E9
330
1F
100
AcDbEntity
  8
IGES_LEVEL_0
 62
     7
100
AcDbLine
 10
18.24908561361022
 20
58.39140382331733
 30
0.0
 11
18.24938561361022
 21
58.39194882331732
 31
0.0
  0
LINE
  5
EA
330
1F
100
AcDbEntity
  8
IGES_LEVEL_0
 62
     7
100
AcDbLine
 10
18.35700161361022
 20
58.35168082331732
 30
0.0
 11
18.35670161361022
 21
58.35113582331732
 31
0.0
  0
LINE
  5
EB
330
1F
100
AcDbEntity
  8
IGES_LEVEL_0
 62
     7
100
AcDbLine
 10
17.60338461361022
 20
57.74944582331732
 30
0.0
 11
17.59489361361022
 21
57.72638382331732
 31
0.0
  0
LINE
  5
EC
330
1F
100
AcDbEntity
  8
IGES_LEVEL_0
 62
     7
100
AcDbLine
 10
18.14577161361022
 20
58.48706282331732
 30
0.0
 11
18.13728061361022
 21
58.46400082331732
 31
0.0
  0
LINE
  5
ED
330
1F
100
AcDbEntity
  8
IGES_LEVEL_0
 62
     7
100
AcDbLine
 10
17.95528961361022
 20
57.61987782331732
 30
0.0
 11
17.94679861361022
 21
57.59681582331732
 31
0.0
  0
LINE
  5
EE
330
1F
100
AcDbEntity
  8
IGES_LEVEL_0
 62
     7
100
AcDbLine
 10
18.49767661361022
 20
58.35749582331732
 30
0.0
 11
18.48918561361022
 21
58.33443382331733
 31
0.0
  0
LINE
  5
EF
330
1F
100
AcDbEntity
  8
IGES_LEVEL_0
 62
     7
100
AcDbLine
 10
20.51343661361022
 20
60.65799582331732
 30
0.0
 11
20.38040961361022
 21
60.40618382331732
 31
0.0
  0
LINE
  5
F0
330
1F
100
AcDbEntity
  8
IGES_LEVEL_0
 62
     7
100
AcDbLine
 10
16.95825261361022
 20
54.61478882331733
 30
0.0
 11
16.95825261361022
 21
54.61566082331732
 31
0.0
  0
LINE
  5
F1
330
1F
100
AcDbEntity
  8
IGES_LEVEL_0
 62
     7
100
AcDbLine
 10
17.33325261361022
 20
54.61478882331733
 30
0.0
 11
17.33325261361022
 21
54.61566082331732
 31
0.0
  0
LINE
  5
F2
330
1F
100
AcDbEntity
  8
IGES_LEVEL_0
 62
     7
100
AcDbLine
 10
18.14219161361022
 20
43.17588382331732
 30
0.0
 11
18.14219161361022
 21
43.17675682331733
 31
0.0
  0
LINE
  5
F3
330
1F
100
AcDbEntity
  8
IGES_LEVEL_0
 62
     7
100
AcDbLine
 10
18.20228161361022
 20
55.40729182331732
 30
0.0
 11
18.20244761361022
 21
55.42553482331732
 31
0.0
  0
LINE
  5
F4
330
1F
100
AcDbEntity
  8
IGES_LEVEL_0
 62
     7
100
AcDbLine
 10
19.10846061361022
 20
56.02469182331733
 30
0.0
 11
19.72219761361022
 21
60.66811382331732
 31
0.0
  0
LINE
  5
F5
330
1F
100
AcDbEntity
  8
IGES_LEVEL_0
 62
     7
100
AcDbLine
 10
18.51719161361022
 20
43.17588382331732
 30
0.0
 11
18.51719161361022
 21
43.17675682331733
 31
0.0
  0
LINE
  5
F6
330
1F
100
AcDbEntity
  8
IGES_LEVEL_0
 62
     7
100
AcDbLine
 10
19.26393661361022
 20
58.37058382331733
 30
0.0
 11
19.26393661361022
 21
58.40092982331733
 31
0.0
  0
LINE
  5
F7
330
1F
100
AcDbEntity
  8
IGES_LEVEL_0
 62
     7
100
AcDbLine
 10
19.37164061361022
 20
55.96309682331732
 30
0.0
 11
19.37164061361022
 21
55.95688182331733
 31
0.0
  0
LINE
  5
F8
330
1F
100
AcDbEntity
  8
IGES_LEVEL_0
 62
     7
100
AcDbLine
 10
19.67530061361022
 20
55.54353782331732
 30
0.0
 11
20.34174461361022
 21
60.58573782331732
 31
0.0
  0
LINE
  5
F9
330
1F
100
AcDbEntity
  8
IGES_LEVEL_0
 62
     7
100
AcDbLine
 10
19.37123861361022
 20
55.95098682331732
 30
0.0
 11
19.36466761361022
 21
55.90231982331732
 31
0.0
  0
LINE
  5
FA
330
1F
100
AcDbEntity
  8
IGES_LEVEL_0
 62
     7
100
AcDbLine
 10
19.57378961361022
 20
60.78784182331732
 30
0.0
 11
19.63814661361022
 21
60.50429182331732
 31
0.0
  0
ARC
  5
FB
330
1F
100
AcDbEntity
  8
IGES_LEVEL_0
 62
     7
100
AcDbCircle
 10
10.28927361361022
 20
52.91458882331732
 30
0.0
 40
36.11250011841251
100
AcDbArc
 50
257.4241327284148
 51
282.575868820112
  0
ARC
  5
FC
330
1F
100
AcDbEntity
  8
IGES_LEVEL_0
 62
     7
100
AcDbCircle
 10
48.10606561361022
 20
18.64743682331732
 30
0.0
 40
0.0299997758533343
100
AcDbArc
 50
92.00001047691633
 51
182.000077132012
  0
ARC
  5
FD
330
1F
100
AcDbEntity
  8
IGES_LEVEL_0
 62
     7
100
AcDbCircle
 10
48.42087361361022
 20
18.65843082331733
 30
0.0
 40
0.0299997758533369
100
AcDbArc
 50
2.000010476923105
 51
92.00007713200526
  0
ARC
  5
FE
330
1F
100
AcDbEntity
  8
IGES_LEVEL_0
 62
     7
100
AcDbCircle
 10
46.85042061361022
 20
17.40193782331733
 30
0.0
 40
0.1500005365923724
100
AcDbArc
 50
183.1976067774482
 51
273.1976067774482
  0
ARC
  5
FF
330
1F
100
AcDbEntity
  8
IGES_LEVEL_0
 62
     7
100
AcDbCircle
 10
47.14995361361022
 20
17.41867182331733
 30
0.0
 40
0.1499995381492886
100
AcDbArc
 50
273.1976280838281
 51
3.197628083828127
  0
ARC
  5
100
330
1F
100
AcDbEntity
  8
IGES_LEVEL_0
 62
     7
100
AcDbCircle
 10
30.86224561361022
 20
31.29378482331733
 30
0.0
 40
0.0999999083245923
100
AcDbArc
 50
102.5006554689235
 51
218.2868495845794
  0
ARC
  5
101
330
1F
100
AcDbEntity
  8
IGES_LEVEL_0
 62
     7
100
AcDbCircle
 10
32.37690661361022
 20
24.47242382331733
 30
0.0
 40
0.0999999314446639
100
AcDbArc
 50
166.4053857005608
 51
282.4994127040391
  0
ARC
  5
102
330
1F
100
AcDbEntity
  8
IGES_LEVEL_0
 62
     7
100
AcDbCircle
 10
34.09498361361022
 20
17.19638682331733
 30
0.0
 40
0.0500001215937127
100
AcDbArc
 50
115.8019589325797
 51
182.000010476925
  0
ARC
  5
103
330
1F
100
AcDbEntity
  8
IGES_LEVEL_0
 62
     7
100
AcDbCircle
 10
34.10021861361022
 20
17.04647782331733
 30
0.0
 40
0.0499999421072908
100
AcDbArc
 50
182.0000104769229
 51
271.9989052387804
  0
ARC
  5
104
330
1F
100
AcDbEntity
  8
IGES_LEVEL_0
 62
     7
100
AcDbCircle
 10
36.37103461361022
 20
17.11704682331733
 30
0.0
 40
0.3124999324004361
100
AcDbArc
 50
340.9999752460902
 51
161.0000349378674
  0
ARC
  5
105
330
1F
100
AcDbEntity
  8
IGES_LEVEL_0
 62
     7
100
AcDbCircle
 10
48.45993561361022
 20
17.11458882331733
 30
0.0
 40
0.3125
100
AcDbArc
 50
180.0
 51
0.0
  0
LINE
  5
106
330
1F
100
AcDbEntity
  8
IGES_LEVEL_0
 62
     7
100
AcDbLine
 10
2.465593226964221
 20
17.66298072853733
 30
0.0
 11
2.442765268691221
 21
17.65707711745733
 31
0.0
  0
LINE
  5
107
330
1F
100
AcDbEntity
  8
IGES_LEVEL_0
 62
     7
100
AcDbLine
 10
2.442765268691221
 20
17.65707711745733
 30
0.0
 11
2.42354566643722
 21
17.65331685838733
 31
0.0
  0
SPLINE
  5
108
330
1F
100
AcDbEntity
  8
IGES_LEVEL_0
 62
     7
100
AcDbSpline
210
0.0
220
0.0
230
1.0
 70
     8
 71
     3
 72
    27
 73
    23
 74
     0
 42
0.0000000001
 43
0.0000000001
 40
0.0
 40
0.0
 40
0.0
 40
0.0
 40
0.06550239777664
 40
0.1325645121761
 40
0.1985924044936
 40
0.2681715727177
 40
0.3309285166486
 40
0.3858142672737
 40
0.4239064259928
 40
0.4626055606094
 40
0.4940462341716
 40
0.5218929491329
 40
0.5505029562752
 40
0.5823301914954
 40
0.620308422214
 40
0.667952833901
 40
0.7277582533906
 40
0.7928072527073
 40
0.860286916465
 40
0.9289919134836
 40
0.9974714388477
 40
1.0
 40
1.0
 40
1.0
 40
1.0
 10
2.698639278943221
 20
17.41030476388733
 30
0.0
 10
2.698639278943221
 20
17.40113287051733
 30
0.0
 10
2.69693288648222
 20
17.38252671689733
 30
0.0
 10
2.68928688236422
 20
17.35562698895733
 30
0.0
 10
2.67654760354722
 20
17.33008925682733
 30
0.0
 10
2.659584954961221
 20
17.30786953278733
 30
0.0
 10
2.640032477421221
 20
17.29020964870733
 30
0.0
 10
2.621622753262221
 20
17.27836239200733
 30
0.0
 10
2.60495331744022
 20
17.27041292914733
 30
0.0
 10
2.590653569363221
 20
17.26531255302733
 30
0.0
 10
2.577362942343221
 20
17.26185605236733
 30
0.0
 10
2.56526769060822
 20
17.25954516949733
 30
0.0
 10
2.55302209664722
 20
17.25782754780733
 30
0.0
 10
2.539312470627221
 20
17.25641098703733
 30
0.0
 10
2.52291320142322
 20
17.25515637022733
 30
0.0
 10
2.502580428464221
 20
17.25401973604733
 30
0.0
 10
2.47844397486422
 20
17.25307583945733
 30
0.0
 10
2.451520671574221
 20
17.25239057498733
 30
0.0
 10
2.423345386324221
 20
17.25199634737733
 30
0.0
 10
2.39468723590822
 20
17.25189189870733
 30
0.0
 10
2.375124145709221
 20
17.25201777541733
 30
0.0
 10
2.365181987428221
 20
17.25213679145733
 30
0.0
 10
2.364827953162221
 20
17.25214109979733
 30
0.0
  0
LINE
  5
109
330
1F
100
AcDbEntity
  8
IGES_LEVEL_0
 62
     7
100
AcDbLine
 10
18.15500271321022
 20
17.65331674178733
 30
0.0
 11
18.13558761612022
 21
17.65712113208733
 31
0.0
  0
LINE
  5
10A
330
1F
100
AcDbEntity
  8
IGES_LEVEL_0
 62
     7
100
AcDbLine
 10
18.13558761612022
 20
17.65712113208733
 30
0.0
 11
18.11295439663022
 21
17.66298068171733
 31
0.0
  0
SPLINE
  5
10B
330
1F
100
AcDbEntity
  8
IGES_LEVEL_0
 62
     7
100
AcDbSpline
210
0.0
220
0.0
230
1.0
 70
     8
 71
     3
 72
    32
 73
    28
 74
     0
 42
0.0000000001
 43
0.0000000001
 40
0.0
 40
0.0
 40
0.0
 40
0.0
 40
0.03522143178272
 40
0.1036326251252
 40
0.1715309818832
 40
0.2375603759175
 40
0.2984901942205
 40
0.3476452127385
 40
0.3869278531899
 40
0.419005268669
 40
0.4462699447964
 40
0.4706011319189
 40
0.4935596857506
 40
0.5159417142133
 40
0.5392605471961
 40
0.5612793863575
 40
0.5894690615612001
 40
0.6156570730941
 40
0.6439245502299
 40
0.6754183934356
 40
0.7109584103382
 40
0.7447338766912
 40
0.7887003060337
 40
0.8364000665823
 40
0.8824980807544
 40
0.9373122123702
 40
1.0
 40
1.0
 40
1.0
 40
1.0
 10
18.21371986634022
 20
17.25214101842733
 30
0.0
 10
18.20878701506022
 20
17.25208095376733
 30
0.0
 10
18.19427250514022
 20
17.25194480831733
 30
0.0
 10
18.17024711329022
 20
17.25190597765733
 30
0.0
 10
18.14190757048022
 20
17.25214533448733
 30
0.0
 10
18.11461979103022
 20
17.25266734929733
 30
0.0
 10
18.08996410406022
 20
17.25343657746733
 30
0.0
 10
18.06906381711022
 20
17.25437833671733
 30
0.0
 10
18.05221454570022
 20
17.25540329045733
 30
0.0
 10
18.03844353016022
 20
17.25649933174733
 30
0.0
 10
18.02678444689022
 20
17.25770038145733
 30
0.0
 10
18.01643176303022
 20
17.25907987676733
 30
0.0
 10
18.00681198293022
 20
17.26073582904733
 30
0.0
 10
17.99741605835022
 20
17.26280183183733
 30
0.0
 10
17.98826872101022
 20
17.26532994519733
 30
0.0
 10
17.97851015978022
 20
17.26863651006733
 30
0.0
 10
17.96861360933022
 20
17.27273298266733
 30
0.0
 10
17.95826220303022
 20
17.27793469616733
 30
0.0
 10
17.94792599375022
 20
17.28412942370733
 30
0.0
 10
17.93706528902022
 20
17.29191783479732
 30
0.0
 10
17.92638447260022
 20
17.30118897322733
 30
0.0
 10
17.91544191690022
 20
17.31270862298733
 30
0.0
 10
17.90475988868022
 20
17.32671482855733
 30
0.0
 10
17.89508103292022
 20
17.34347399233733
 30
0.0
 10
17.88709163872022
 20
17.36275608202733
 30
0.0
 10
17.88135726904022
 20
17.38502851081733
 30
0.0
 10
17.87990878648022
 20
17.40152456904733
 30
0.0
 10
17.87990878648022
 20
17.41030476388733
 30
0.0
  0
SPLINE
  5
10C
330
1F
100
AcDbEntity
  8
IGES_LEVEL_0
 62
     7
100
AcDbSpline
210
0.0
220
0.0
230
1.0
 70
     8
 71
     3
 72
    15
 73
    11
 74
     0
 42
0.0000000001
 43
0.0000000001
 40
0.0
 40
0.0
 40
0.0
 40
0.0
 40
0.1661757019331
 40
0.3282293860174
 40
0.4818234336317
 40
0.6229816501844
 40
0.7483093827601
 40
0.8552867281459
 40
0.9427575515196
 40
1.0
 40
1.0
 40
1.0
 40
1.0
 10
0.5553481227532208
 20
1.062656446452328
 30
0.0
 10
0.53678489990622
 20
1.063411728847328
 30
0.0
 10
0.5001521353102202
 20
1.065934840116328
 30
0.0
 10
0.4466821307332202
 20
1.072716697138328
 30
0.0
 10
0.3964753643752207
 20
1.082272256826328
 30
0.0
 10
0.3510279254622203
 20
1.094301336425328
 30
0.0
 10
0.3116722422662205
 20
1.108432508325328
 30
0.0
 10
0.2794847563052206
 20
1.124234956799328
 30
0.0
 10
0.2563841193092203
 20
1.140575217743328
 30
0.0
 10
0.2454159765122203
 20
1.152756183876328
 30
0.0
 10
0.2420115234902202
 20
1.158213387137328
 30
0.0
  0
ARC
  5
10D
330
1F
100
AcDbEntity
  8
IGES_LEVEL_0
 62
     7
100
AcDbCircle
 10
0.2762380488848538
 20
1.180892740624779
 30
0.0
 40
0.0410585936826661
100
AcDbArc
 50
179.0604731103718
 51
213.5294527749763
  0
ARC
  5
10E
330
1F
100
AcDbEntity
  8
IGES_LEVEL_0
 62
     7
100
AcDbCircle
 10
0.1246367025697644
 20
0.2322085821428858
 30
0.0
 40
0.1200638605845174
100
AcDbArc
 50
195.9048810080006
 51
244.2951292349948
  0
LINE
  5
10F
330
1F
100
AcDbEntity
  8
IGES_LEVEL_0
 62
     7
100
AcDbLine
 10
0.0067483439242201
 20
0.2116802162793279
 30
0.0
 11
0.0091684098552202
 21
0.1993059543903282
 31
0.0
  0
LINE
  5
110
330
1F
100
AcDbEntity
  8
IGES_LEVEL_0
 62
     7
100
AcDbLine
 10
0.0065170924802208
 20
0.2387392621603282
 30
0.0
 11
0.0061558756052204
 21
0.2349043853813282
 31
0.0
  0
LINE
  5
111
330
1F
100
AcDbEntity
  8
IGES_LEVEL_0
 62
     7
100
AcDbLine
 10
0.0061558756052204
 20
0.2349043853813282
 30
0.0
 11
0.0067467865182204
 21
0.211680013694328
 31
0.0
  0
LINE
  5
112
330
1F
100
AcDbEntity
  8
IGES_LEVEL_0
 62
     7
100
AcDbLine
 10
0.0074168650952208
 20
0.245186779580328
 30
0.0
 11
0.0066055026792208
 21
0.239508929441328
 31
0.0
  0
LINE
  5
113
330
1F
100
AcDbEntity
  8
IGES_LEVEL_0
 62
     7
100
AcDbLine
 10
0.0066055026792208
 20
0.239508929441328
 30
0.0
 11
0.00655815044222
 21
0.2391027574603279
 31
0.0
  0
SPLINE
  5
114
330
1F
100
AcDbEntity
  8
IGES_LEVEL_0
 62
     7
100
AcDbSpline
210
0.0
220
0.0
230
1.0
 70
     8
 71
     3
 72
    12
 73
     8
 74
     0
 42
0.0000000001
 43
0.0000000001
 40
0.0
 40
0.0
 40
0.0
 40
0.0
 40
0.07204192536434
 40
0.3751003243226
 40
0.6243742847454
 40
0.8449290764456
 40
1.0
 40
1.0
 40
1.0
 40
1.0
 10
0.2456989300312203
 20
1.237764201355328
 30
0.0
 10
0.2427202625832207
 20
1.236366151734328
 30
0.0
 10
0.2273359280762207
 20
1.228814549221328
 30
0.0
 10
0.20294840433522
 20
1.213710534397328
 30
0.0
 10
0.17768175018722
 20
1.188589628479328
 30
0.0
 10
0.1632579887892204
 20
1.163589017809328
 30
0.0
 10
0.1585994477082208
 20
1.146895341531328
 30
0.0
 10
0.1574312783362201
 20
1.139899722751328
 30
0.0
  0
ARC
  5
115
330
1F
100
AcDbEntity
  8
IGES_LEVEL_0
 62
     7
100
AcDbCircle
 10
0.552985042596144
 20
1.017023714595924
 30
0.0
 40
1.008205189158707
100
AcDbArc
 50
267.2422996310468
 51
290.3686970154151
  0
ARC
  5
116
330
1F
100
AcDbEntity
  8
IGES_LEVEL_0
 62
     7
100
AcDbCircle
 10
0.5358581457901592
 20
1.003792844913382
 30
0.0
 40
0.9943020607602384
100
AcDbArc
 50
242.2185966211268
 51
268.1914395420786
  0
LINE
  5
117
330
1F
100
AcDbEntity
  8
IGES_LEVEL_0
 62
     7
100
AcDbLine
 10
0.1574477835212201
 20
1.140020389526328
 30
0.0
 11
0.1562699703422202
 21
1.132995005534328
 31
0.0
  0
LINE
  5
118
330
1F
100
AcDbEntity
  8
IGES_LEVEL_0
 62
     7
100
AcDbLine
 10
0.1562699703422202
 20
1.132995005534328
 30
0.0
 11
0.0074170655952205
 21
0.2451883067173279
 31
0.0
  0
ARC
  5
119
330
1F
100
AcDbEntity
  8
IGES_LEVEL_0
 62
     7
100
AcDbCircle
 10
0.5972991035044794
 20
1.835413495936353
 30
0.0
 40
0.7738949168415877
100
AcDbArc
 50
266.8926106042268
 51
283.4169375183313
  0
ARC
  5
11A
330
1F
100
AcDbEntity
  8
IGES_LEVEL_0
 62
     7
100
AcDbCircle
 10
0.2764893582343422
 20
1.178410597324967
 30
0.0
 40
0.0414247331383554
100
AcDbArc
 50
141.3095566477839
 51
175.6314614267684
  0
ARC
  5
11B
330
1F
100
AcDbEntity
  8
IGES_LEVEL_0
 62
     7
100
AcDbCircle
 10
19.98124901729346
 20
1.835415065455516
 30
0.0
 40
0.7738964810513611
100
AcDbArc
 50
256.5831446049546
 51
273.1073790031981
  0
LINE
  5
11C
330
1F
100
AcDbEntity
  8
IGES_LEVEL_0
 62
     7
100
AcDbLine
 10
20.57199046431022
 20
0.239097838218328
 30
0.0
 11
20.57146805391022
 21
0.2430591552663282
 31
0.0
  0
LINE
  5
11D
330
1F
100
AcDbEntity
  8
IGES_LEVEL_0
 62
     7
100
AcDbLine
 10
20.57146805391022
 20
0.2430591552663282
 30
0.0
 11
20.57132484938022
 21
0.2439944578623281
 31
0.0
  0
LINE
  5
11E
330
1F
100
AcDbEntity
  8
IGES_LEVEL_0
 62
     7
100
AcDbLine
 10
20.57132484938022
 20
0.2439944578623281
 30
0.0
 11
20.57113112044022
 21
0.2451872922853282
 31
0.0
  0
LINE
  5
11F
330
1F
100
AcDbEntity
  8
IGES_LEVEL_0
 62
     7
100
AcDbLine
 10
20.57179966098022
 20
0.211679805773328
 30
0.0
 11
20.56938019260022
 21
0.1993079843813279
 31
0.0
  0
LINE
  5
120
330
1F
100
AcDbEntity
  8
IGES_LEVEL_0
 62
     7
100
AcDbLine
 10
20.57180121771022
 20
0.2116796032653279
 30
0.0
 11
20.57241376456022
 21
0.2346207760393282
 31
0.0
  0
LINE
  5
121
330
1F
100
AcDbEntity
  8
IGES_LEVEL_0
 62
     7
100
AcDbLine
 10
20.57241376456022
 20
0.2346207760393282
 30
0.0
 11
20.57203206199022
 21
0.2387294533633282
 31
0.0
  0
ARC
  5
122
330
1F
100
AcDbEntity
  8
IGES_LEVEL_0
 62
     7
100
AcDbCircle
 10
20.45389130143623
 20
0.2322207121998918
 30
0.0
 40
0.120086515431709
100
AcDbArc
 50
295.7046629482279
 51
344.0931785283476
  0
SPLINE
  5
123
330
1F
100
AcDbEntity
  8
IGES_LEVEL_0
 62
     7
100
AcDbSpline
210
0.0
220
0.0
230
1.0
 70
     8
 71
     3
 72
    12
 73
     8
 74
     0
 42
0.0000000001
 43
0.0000000001
 40
0.0
 40
0.0
 40
0.0
 40
0.0
 40
0.1552455665439
 40
0.3758981379102
 40
0.6252562568118
 40
0.9285372212597
 40
1.0
 40
1.0
 40
1.0
 40
1.0
 10
20.42111674462022
 20
1.139899926319328
 30
0.0
 10
20.41994724397022
 20
1.146903388929328
 30
0.0
 10
20.41528320942022
 20
1.163608863955328
 30
0.0
 10
20.40084401769022
 20
1.188619532156328
 30
0.0
 10
20.37555647796022
 20
1.213745443602328
 30
0.0
 10
20.35117489922022
 20
1.228834968415328
 30
0.0
 10
20.33580420959022
 20
1.236377188688328
 30
0.0
 10
20.33284950246022
 20
1.237764001498328
 30
0.0
  0
ARC
  5
124
330
1F
100
AcDbEntity
  8
IGES_LEVEL_0
 62
     7
100
AcDbCircle
 10
20.04269001526833
 20
1.003792610127352
 30
0.0
 40
0.9943018136352745
100
AcDbArc
 50
271.8085546520046
 51
297.7813220562761
  0
ARC
  5
125
330
1F
100
AcDbEntity
  8
IGES_LEVEL_0
 62
     7
100
AcDbCircle
 10
20.02556313985583
 20
1.017024480579986
 30
0.0
 40
1.008205958231271
100
AcDbArc
 50
249.6314748914907
 51
272.757692031999
  0
LINE
  5
126
330
1F
100
AcDbEntity
  8
IGES_LEVEL_0
 62
     7
100
AcDbLine
 10
20.57113100960022
 20
0.2451882484133281
 30
0.0
 11
20.42227809508022
 21
1.132995005534328
 31
0.0
  0
LINE
  5
127
330
1F
100
AcDbEntity
  8
IGES_LEVEL_0
 62
     7
100
AcDbLine
 10
20.42227809508022
 20
1.132995005534328
 30
0.0
 11
20.42110028203022
 21
1.140020388720328
 31
0.0
  0
ARC
  5
128
330
1F
100
AcDbEntity
  8
IGES_LEVEL_0
 62
     7
100
AcDbCircle
 10
20.30231001650645
 20
1.18089274063681
 30
0.0
 40
0.0410585937136016
100
AcDbArc
 50
326.4705472334892
 51
0.9395268721300442
  0
SPLINE
  5
129
330
1F
100
AcDbEntity
  8
IGES_LEVEL_0
 62
     7
100
AcDbSpline
210
0.0
220
0.0
230
1.0
 70
     8
 71
     3
 72
    15
 73
    11
 74
     0
 42
0.0000000001
 43
0.0000000001
 40
0.0
 40
0.0
 40
0.0
 40
0.0
 40
0.05724244848043
 40
0.1447132718541
 40
0.2516906172399
 40
0.3770183498156
 40
0.5181765663683
 40
0.6717706139827
 40
0.8338242980669
 40
1.0
 40
1.0
 40
1.0
 40
1.0
 10
20.33653654193022
 20
1.158213387137328
 30
0.0
 10
20.33313208891022
 20
1.152756183876328
 30
0.0
 10
20.32216394611022
 20
1.140575217743328
 30
0.0
 10
20.29906330911022
 20
1.124234956799328
 30
0.0
 10
20.26687582315022
 20
1.108432508325328
 30
0.0
 10
20.22752013996022
 20
1.094301336425328
 30
0.0
 10
20.18207270104022
 20
1.082272256826328
 30
0.0
 10
20.13186593469022
 20
1.072716697138328
 30
0.0
 10
20.07839593011022
 20
1.065934840116328
 30
0.0
 10
20.04176316551022
 20
1.063411728847328
 30
0.0
 10
20.02319994267022
 20
1.062656446452328
 30
0.0
  0
ARC
  5
12A
330
1F
100
AcDbEntity
  8
IGES_LEVEL_0
 62
     7
100
AcDbCircle
 10
20.30205870713209
 20
1.178410597302874
 30
0.0
 40
0.0414247331958768
100
AcDbArc
 50
4.368538597800646
 51
38.69044332764844
  0
SPLINE
  5
12B
330
1F
100
AcDbEntity
  8
IGES_LEVEL_0
 62
     7
100
AcDbSpline
210
0.0
220
0.0
230
1.0
 70
     8
 71
     3
 72
    13
 73
     9
 74
     0
 42
0.0000000001
 43
0.0000000001
 40
0.0
 40
0.0
 40
0.0
 40
0.0
 40
0.1045874601465
 40
0.2597140515905
 40
0.4601149909441
 40
0.709582977052
 40
0.9916498871138
 40
1.0
 40
1.0
 40
1.0
 40
1.0
 10
2.376197077509221
 20
16.69408915957733
 30
0.0
 10
2.376187266513221
 20
16.69902706108733
 30
0.0
 10
2.37408204390922
 20
16.71135870568733
 30
0.0
 10
2.36552403148522
 20
16.73132964530733
 30
0.0
 10
2.35236333587422
 20
16.75663883456733
 30
0.0
 10
2.33699802928422
 20
16.78755149537733
 30
0.0
 10
2.327913711489221
 20
16.81140901259733
 30
0.0
 10
2.32411373604522
 20
16.82458047479733
 30
0.0
 10
2.32400537980722
 20
16.82495945645733
 30
0.0
  0
LINE
  5
12C
330
1F
100
AcDbEntity
  8
IGES_LEVEL_0
 62
     7
100
AcDbLine
 10
1.677984347801221
 20
16.53084194655733
 30
0.0
 11
1.65503695513122
 21
16.50794033286732
 31
0.0
  0
LINE
  5
12D
330
1F
100
AcDbEntity
  8
IGES_LEVEL_0
 62
     7
100
AcDbLine
 10
1.65503695513122
 20
16.50794033286732
 30
0.0
 11
1.65016724899222
 21
16.50295953606733
 31
0.0
  0
ARC
  5
12E
330
1F
100
AcDbEntity
  8
IGES_LEVEL_0
 62
     7
100
AcDbCircle
 10
2.7921867599115
 20
15.39113227971042
 30
0.0
 40
1.593853321764093
100
AcDbArc
 50
135.767481321604
 51
140.09377644288
  0
LINE
  5
12F
330
1F
100
AcDbEntity
  8
IGES_LEVEL_0
 62
     7
100
AcDbLine
 10
1.569549093709221
 20
16.41364171657733
 30
0.0
 11
1.564166445618221
 21
16.40716983539733
 31
0.0
  0
ARC
  5
130
330
1F
100
AcDbEntity
  8
IGES_LEVEL_0
 62
     7
100
AcDbCircle
 10
2.729066527583905
 20
15.43527967230089
 30
0.0
 40
1.517090204993516
100
AcDbArc
 50
140.1613509607553
 51
177.1816514716749
  0
SPLINE
  5
131
330
1F
100
AcDbEntity
  8
IGES_LEVEL_0
 62
     7
100
AcDbSpline
210
0.0
220
0.0
230
1.0
 70
     8
 71
     3
 72
    20
 73
    16
 74
     0
 42
0.0000000001
 43
0.0000000001
 40
0.0
 40
0.0
 40
0.0
 40
0.0
 40
0.01145781787889
 40
0.04870638035009
 40
0.09117345102698
 40
0.1398000633654
 40
0.1955934127804
 40
0.2596574764301
 40
0.3334671797826
 40
0.4188278088831
 40
0.5174440958468
 40
0.6309534480512
 40
0.7604244885727
 40
0.903225506324
 40
1.0
 40
1.0
 40
1.0
 40
1.0
 10
1.449590736170221
 20
15.15846442087733
 30
0.0
 10
1.44828525162422
 20
15.15806476969733
 30
0.0
 10
1.442715948853221
 20
15.15642998070733
 30
0.0
 10
1.432146900502221
 20
15.15388443153733
 30
0.0
 10
1.41702354843222
 20
15.15151189227733
 30
0.0
 10
1.399531114003221
 20
15.15041009081733
 30
0.0
 10
1.37943553692122
 20
15.15128995513733
 30
0.0
 10
1.35661725960022
 20
15.15511579955733
 30
0.0
 10
1.331163226651221
 20
15.16314727153733
 30
0.0
 10
1.303563828333221
 20
15.17693595765733
 30
0.0
 10
1.27495798505822
 20
15.19819512316733
 30
0.0
 10
1.247370651581221
 20
15.22848316093733
 30
0.0
 10
1.223983133219221
 20
15.26847437805733
 30
0.0
 10
1.21068921208522
 20
15.31078366364733
 30
0.0
 10
1.207538134718221
 20
15.33933969460733
 30
0.0
 10
1.20716088491622
 20
15.35088660566733
 30
0.0
  0
ARC
  5
132
330
1F
100
AcDbEntity
  8
IGES_LEVEL_0
 62
     7
100
AcDbCircle
 10
1.426436717081692
 20
15.4660131439211
 30
0.0
 40
0.3326857064974628
100
AcDbArc
 50
276.6089736870851
 51
303.065941842502
  0
LINE
  5
133
330
1F
100
AcDbEntity
  8
IGES_LEVEL_0
 62
     7
100
AcDbLine
 10
1.443618884682221
 20
15.13332214777733
 30
0.0
 11
1.46476418561222
 21
15.13554517866733
 31
0.0
  0
LINE
  5
134
330
1F
100
AcDbEntity
  8
IGES_LEVEL_0
 62
     7
100
AcDbLine
 10
1.20704031122022
 20
15.35603494719733
 30
0.0
 11
1.20721552342122
 21
15.34711112916733
 31
0.0
  0
ARC
  5
135
330
1F
100
AcDbEntity
  8
IGES_LEVEL_0
 62
     7
100
AcDbCircle
 10
1.429851839619725
 20
15.35569888526332
 30
0.0
 40
0.2228018824992391
100
AcDbArc
 50
182.2089763829206
 51
273.5427186402714
  0
LINE
  5
136
330
1F
100
AcDbEntity
  8
IGES_LEVEL_0
 62
     7
100
AcDbLine
 10
1.207041773072221
 20
15.35802644471733
 30
0.0
 11
1.20718962557722
 21
15.36629897610733
 31
0.0
  0
LINE
  5
137
330
1F
100
AcDbEntity
  8
IGES_LEVEL_0
 62
     7
100
AcDbLine
 10
1.20718962557722
 20
15.36629897610733
 30
0.0
 11
1.20727783670722
 21
15.36843488035733
 31
0.0
  0
ARC
  5
138
330
1F
100
AcDbEntity
  8
IGES_LEVEL_0
 62
     7
100
AcDbCircle
 10
2.175896198965791
 20
16.29415628739579
 30
0.0
 40
0.1999967305320771
100
AcDbArc
 50
303.2929221951631
 51
359.9636429912944
  0
LINE
  5
139
330
1F
100
AcDbEntity
  8
IGES_LEVEL_0
 62
     7
100
AcDbLine
 10
18.90056355290022
 20
16.53084814989733
 30
0.0
 11
18.92351054875022
 21
16.50795143697733
 31
0.0
  0
LINE
  5
13A
330
1F
100
AcDbEntity
  8
IGES_LEVEL_0
 62
     7
100
AcDbLine
 10
18.92351054875022
 20
16.50795143697733
 30
0.0
 11
18.92818658599022
 21
16.50317051043733
 31
0.0
  0
ARC
  5
13B
330
1F
100
AcDbEntity
  8
IGES_LEVEL_0
 62
     7
100
AcDbCircle
 10
17.78644190686345
 20
15.39100202897095
 30
0.0
 40
1.593894489444489
100
AcDbArc
 50
39.91203867872964
 51
44.24819905432439
  0
LINE
  5
13C
330
1F
100
AcDbEntity
  8
IGES_LEVEL_0
 62
     7
100
AcDbLine
 10
19.00900736606022
 20
16.41366196338733
 30
0.0
 11
19.01439007469022
 21
16.40719134463733
 31
0.0
  0
ARC
  5
13D
330
1F
100
AcDbEntity
  8
IGES_LEVEL_0
 62
     7
100
AcDbCircle
 10
17.84957260815173
 20
15.43517194913764
 30
0.0
 40
1.517109566109427
100
AcDbArc
 50
2.834708575791327
 51
39.84439546425163
  0
SPLINE
  5
13E
330
1F
100
AcDbEntity
  8
IGES_LEVEL_0
 62
     7
100
AcDbSpline
210
0.0
220
0.0
230
1.0
 70
     8
 71
     3
 72
    13
 73
     9
 74
     0
 42
0.0000000001
 43
0.0000000001
 40
0.0
 40
0.0
 40
0.0
 40
0.0
 40
0.02104779272401
 40
0.3012784157658
 40
0.547949037392
 40
0.7457014193554
 40
0.8990141719395
 40
1.0
 40
1.0
 40
1.0
 40
1.0
 10
18.25450211139022
 20
16.82586011176733
 30
0.0
 10
18.25423113161022
 20
16.82489762645733
 30
0.0
 10
18.25026941704022
 20
16.81114523355733
 30
0.0
 10
18.24092418540022
 20
16.78680771460733
 30
0.0
 10
18.22558603808022
 20
16.75602753943733
 30
0.0
 10
18.21252493187022
 20
16.73085365630733
 30
0.0
 10
18.20413334530022
 20
16.71107596900733
 30
0.0
 10
18.20212442768022
 20
16.69891551897733
 30
0.0
 10
18.20211571859022
 20
16.69411575183733
 30
0.0
  0
ARC
  5
13F
330
1F
100
AcDbEntity
  8
IGES_LEVEL_0
 62
     7
100
AcDbCircle
 10
19.14883622522122
 20
15.35596140524859
 30
0.0
 40
0.2227942819228623
100
AcDbArc
 50
266.4722163226514
 51
357.7862921356911
  0
LINE
  5
140
330
1F
100
AcDbEntity
  8
IGES_LEVEL_0
 62
     7
100
AcDbLine
 10
19.37146423658022
 20
15.34735555747733
 30
0.0
 11
19.37164021069022
 21
15.35630585005733
 31
0.0
  0
LINE
  5
141
330
1F
100
AcDbEntity
  8
IGES_LEVEL_0
 62
     7
100
AcDbLine
 10
19.11398213639022
 20
15.13580621885733
 30
0.0
 11
19.13512768228022
 21
15.13358859742733
 31
0.0
  0
LINE
  5
142
330
1F
100
AcDbEntity
  8
IGES_LEVEL_0
 62
     7
100
AcDbLine
 10
19.37139965473022
 20
15.36876214503733
 30
0.0
 11
19.37148846850022
 21
15.36662624947733
 31
0.0
  0
LINE
  5
143
330
1F
100
AcDbEntity
  8
IGES_LEVEL_0
 62
     7
100
AcDbLine
 10
19.37148846850022
 20
15.36662624947733
 30
0.0
 11
19.37163859002022
 21
15.35828969812733
 31
0.0
  0
ARC
  5
144
330
1F
100
AcDbEntity
  8
IGES_LEVEL_0
 62
     7
100
AcDbCircle
 10
19.15213136858798
 20
15.46592261436496
 30
0.0
 40
0.3323157209149883
100
AcDbArc
 50
236.8842966627377
 51
263.4141034275879
  0
ARC
  5
145
330
1F
100
AcDbEntity
  8
IGES_LEVEL_0
 62
     7
100
AcDbCircle
 10
18.40254876130748
 20
16.29423337566431
 30
0.0
 40
0.2000050243396137
100
AcDbArc
 50
180.0510062377893
 51
236.7234234019523
  0
SPLINE
  5
146
330
1F
100
AcDbEntity
  8
IGES_LEVEL_0
 62
     7
100
AcDbSpline
210
0.0
220
0.0
230
1.0
 70
     8
 71
     3
 72
    16
 73
    12
 74
     0
 42
0.0000000001
 43
0.0000000001
 40
0.0
 40
0.0
 40
0.0
 40
0.0
 40
0.1670837081992
 40
0.3312664806484
 40
0.4634853784787
 40
0.5529241815389
 40
0.6331989914943
 40
0.7227710531641
 40
0.8274485379392
 40
0.9529868302282
 40
1.0
 40
1.0
 40
1.0
 40
1.0
 10
1.583441431142221
 20
1.154220717876328
 30
0.0
 10
1.58311708807222
 20
1.162372213289328
 30
0.0
 10
1.579129343972221
 20
1.178587283661328
 30
0.0
 10
1.56522202227722
 20
1.197163248546328
 30
0.0
 10
1.549243248482221
 20
1.207649967757328
 30
0.0
 10
1.53538773741922
 20
1.212815759731328
 30
0.0
 10
1.523109623326221
 20
1.215934582462328
 30
0.0
 10
1.509954736691221
 20
1.218511415256328
 30
0.0
 10
1.494540927781221
 20
1.220996047685328
 30
0.0
 10
1.481133641669221
 20
1.222844813557328
 30
0.0
 10
1.472777414900221
 20
1.223906898450328
 30
0.0
 10
1.470499953857221
 20
1.224190376019328
 30
0.0
  0
ARC
  5
147
330
1F
100
AcDbEntity
  8
IGES_LEVEL_0
 62
     7
100
AcDbCircle
 10
0.9189159606047952
 20
-4.00528656469002
 30
0.0
 40
5.258485901381032
100
AcDbArc
 50
83.97893642895934
 51
90.1425014865729
  0
ARC
  5
148
330
1F
100
AcDbEntity
  8
IGES_LEVEL_0
 62
     7
100
AcDbCircle
 10
0.9008971334437841
 20
0.9774083765717002
 30
0.0
 40
0.2758189445840802
100
AcDbArc
 50
88.97368688465667
 51
103.8353371255498
  0
ARC
  5
149
330
1F
100
AcDbEntity
  8
IGES_LEVEL_0
 62
     7
100
AcDbCircle
 10
0.8548139911941259
 20
1.186220784340184
 30
0.0
 40
0.0622613421379627
100
AcDbArc
 50
108.6148153691471
 51
171.407391270651
  0
ARC
  5
14A
330
1F
100
AcDbEntity
  8
IGES_LEVEL_0
 62
     7
100
AcDbCircle
 10
1.544018335132255
 20
0.1682452794168871
 30
0.0
 40
0.0867723259800229
100
AcDbArc
 50
283.2132289526253
 51
298.9917021558047
  0
ARC
  5
14B
330
1F
100
AcDbEntity
  8
IGES_LEVEL_0
 62
     7
100
AcDbCircle
 10
1.551213145017519
 20
0.1552607348654044
 30
0.0
 40
0.0719276742002149
100
AcDbArc
 50
298.9918293895589
 51
353.3294389004182
  0
LINE
  5
14C
330
1F
100
AcDbEntity
  8
IGES_LEVEL_0
 62
     7
100
AcDbLine
 10
0.64961425619822
 20
0.2058994077843279
 30
0.0
 11
0.6492490241542205
 21
0.196945208402328
 31
0.0
  0
ARC
  5
14D
330
1F
100
AcDbEntity
  8
IGES_LEVEL_0
 62
     7
100
AcDbCircle
 10
0.7205198548596208
 20
0.1984720053985826
 30
0.0
 40
0.0712871827084337
100
AcDbArc
 50
181.2272292164691
 51
202.8411217748742
  0
ARC
  5
14E
330
1F
100
AcDbEntity
  8
IGES_LEVEL_0
 62
     7
100
AcDbCircle
 10
0.723956884355399
 20
0.2007694062518578
 30
0.0
 40
0.0753505643736185
100
AcDbArc
 50
203.4365733627157
 51
250.2348952468828
  0
LINE
  5
14F
330
1F
100
AcDbEntity
  8
IGES_LEVEL_0
 62
     7
100
AcDbLine
 10
0.6984759738422207
 20
0.129857977336328
 30
0.0
 11
0.7011331269812201
 21
0.1288664272803282
 31
0.0
  0
LINE
  5
150
330
1F
100
AcDbEntity
  8
IGES_LEVEL_0
 62
     7
100
AcDbLine
 10
1.62272027568722
 20
0.147444682134328
 30
0.0
 11
1.623065084026221
 21
0.1578043960733282
 31
0.0
  0
ARC
  5
151
330
1F
100
AcDbEntity
  8
IGES_LEVEL_0
 62
     7
100
AcDbCircle
 10
1.207477106078531
 20
1.540820275262323
 30
0.0
 40
1.500000003618777
100
AcDbArc
 50
250.27154678264
 51
283.7438890455293
  0
ARC
  5
152
330
1F
100
AcDbEntity
  8
IGES_LEVEL_0
 62
     7
100
AcDbCircle
 10
19.72372736334376
 20
1.186221088097961
 30
0.0
 40
0.0622652473360238
100
AcDbArc
 50
8.594462123381852
 51
71.42712735770849
  0
ARC
  5
153
330
1F
100
AcDbEntity
  8
IGES_LEVEL_0
 62
     7
100
AcDbCircle
 10
19.67751877744318
 20
0.9762399627206712
 30
0.0
 40
0.2769914988295221
100
AcDbArc
 50
76.20660635623598
 51
91.0266432663352
  0
ARC
  5
154
330
1F
100
AcDbEntity
  8
IGES_LEVEL_0
 62
     7
100
AcDbCircle
 10
19.65970303305591
 20
-4.005431340815333
 30
0.0
 40
5.258634044304027
100
AcDbArc
 50
89.85996145597898
 51
96.02350435454892
  0
SPLINE
  5
155
330
1F
100
AcDbEntity
  8
IGES_LEVEL_0
 62
     7
100
AcDbSpline
210
0.0
220
0.0
230
1.0
 70
     8
 71
     3
 72
    16
 73
    12
 74
     0
 42
0.0000000001
 43
0.0000000001
 40
0.0
 40
0.0
 40
0.0
 40
0.0
 40
0.04697082254304
 40
0.1724120414924
 40
0.276992223302
 40
0.3665089675004
 40
0.4468589000409
 40
0.5363172196559
 40
0.6685706949799
 40
0.8328230201908
 40
1.0
 40
1.0
 40
1.0
 40
1.0
 10
19.10788072052022
 20
1.224169422847328
 30
0.0
 10
19.10560789142022
 20
1.223886233244328
 30
0.0
 10
19.09726788590022
 20
1.222825163211328
 30
0.0
 10
19.08388723166022
 20
1.220978553452328
 30
0.0
 10
19.06850324159022
 20
1.218495127327328
 30
0.0
 10
19.05536735584022
 20
1.215919014787328
 30
0.0
 10
19.04310227338022
 20
1.212798054713328
 30
0.0
 10
19.02926044703022
 20
1.207624626255328
 30
0.0
 10
19.01330117620022
 20
1.197136956977328
 30
0.0
 10
18.99941085353022
 20
1.178569255589328
 30
0.0
 10
18.99542777481022
 20
1.162364444684328
 30
0.0
 10
18.99510380111022
 20
1.154217526336328
 30
0.0
  0
ARC
  5
156
330
1F
100
AcDbEntity
  8
IGES_LEVEL_0
 62
     7
100
AcDbCircle
 10
19.84888368294662
 20
0.210813839423653
 30
0.0
 40
0.0867723259302013
100
AcDbArc
 50
289.1978035424602
 51
304.9762767546468
  0
ARC
  5
157
330
1F
100
AcDbEntity
  8
IGES_LEVEL_0
 62
     7
100
AcDbCircle
 10
19.85657472208105
 20
0.1993568940040529
 30
0.0
 40
0.072976318999297
100
AcDbArc
 50
305.1848003258028
 51
334.721441654742
  0
ARC
  5
158
330
1F
100
AcDbEntity
  8
IGES_LEVEL_0
 62
     7
100
AcDbCircle
 10
19.85785472229257
 20
0.1985266800946701
 30
0.0
 40
0.0714646625225374
100
AcDbArc
 50
334.8850998720011
 51
359.4086027138786
  0
LINE
  5
159
330
1F
100
AcDbEntity
  8
IGES_LEVEL_0
 62
     7
100
AcDbLine
 10
18.95542825924022
 20
0.155011548359328
 30
0.0
 11
18.95599858890022
 21
0.146068070004328
 31
0.0
  0
ARC
  5
15A
330
1F
100
AcDbEntity
  8
IGES_LEVEL_0
 62
     7
100
AcDbCircle
 10
19.02877000581496
 20
0.1559691762576669
 30
0.0
 40
0.0734418887612471
100
AcDbArc
 50
187.7479523094198
 51
256.761795941345
  0
LINE
  5
15B
330
1F
100
AcDbEntity
  8
IGES_LEVEL_0
 62
     7
100
AcDbLine
 10
19.01195181412022
 20
0.0844789010243281
 30
0.0
 11
19.01469786549022
 21
0.0837697915883282
 31
0.0
  0
LINE
  5
15C
330
1F
100
AcDbEntity
  8
IGES_LEVEL_0
 62
     7
100
AcDbLine
 10
19.92932538302022
 20
0.1983321256403279
 30
0.0
 11
19.92858820102022
 21
0.2086713291103279
 31
0.0
  0
ARC
  5
15D
330
1F
100
AcDbEntity
  8
IGES_LEVEL_0
 62
     7
100
AcDbCircle
 10
19.37107095934324
 20
1.540820275283912
 30
0.0
 40
1.500000003639992
100
AcDbArc
 50
256.2561213790936
 51
289.7284636416528
  0
LINE
  5
15E
330
1F
100
AcDbEntity
  8
IGES_LEVEL_0
 62
     7
100
AcDbLine
 10
18.02537119639022
 20
18.60346125126733
 30
0.0
 11
17.96427403296022
 21
18.59056178520733
 31
0.0
  0
LINE
  5
15F
330
1F
100
AcDbEntity
  8
IGES_LEVEL_0
 62
     7
100
AcDbLine
 10
17.96427405767022
 20
18.59056167420733
 30
0.0
 11
17.67559521428022
 21
18.52756834747733
 31
0.0
  0
LINE
  5
160
330
1F
100
AcDbEntity
  8
IGES_LEVEL_0
 62
     7
100
AcDbLine
 10
2.902952851146221
 20
18.52756834746733
 30
0.0
 11
2.61427400774922
 21
18.59056167420733
 31
0.0
  0
SPLINE
  5
161
330
1F
100
AcDbEntity
  8
IGES_LEVEL_0
 62
     7
100
AcDbSpline
210
0.0
220
0.0
230
1.0
 70
     8
 71
     3
 72
    21
 73
    17
 74
     0
 42
0.0000000001
 43
0.0000000001
 40
0.0
 40
0.0
 40
0.0
 40
0.0
 40
0.1504936206241
 40
0.3265513065811
 40
0.4411670458481
 40
0.5009886307654
 40
0.5404620874915
 40
0.5758817051516
 40
0.6131296314385
 40
0.6549549142587
 40
0.702901804849
 40
0.7578372103711
 40
0.820327954406
 40
0.8911496646042
 40
0.9711472578242
 40
1.0
 40
1.0
 40
1.0
 40
1.0
 10
1.29085933198922
 20
18.39069976471733
 30
0.0
 10
1.291001811931221
 20
18.38470204668733
 30
0.0
 10
1.29364281674822
 20
18.37162764371733
 30
0.0
 10
1.303697857448221
 20
18.35673133146733
 30
0.0
 10
1.314984593926221
 20
18.34838646448733
 30
0.0
 10
1.322643829140221
 20
18.34473179649732
 30
0.0
 10
1.32763874196722
 20
18.34285450062733
 30
0.0
 10
1.331857240702221
 20
18.34146834821733
 30
0.0
 10
1.336196970498221
 20
18.34015836596733
 30
0.0
 10
1.34103328615522
 20
18.33877977674733
 30
0.0
 10
1.34655912215122
 20
18.33726699228733
 30
0.0
 10
1.35288665346922
 20
18.33558487377733
 30
0.0
 10
1.360099451388221
 20
18.33370829166733
 30
0.0
 10
1.368280588556221
 20
18.33161318969733
 30
0.0
 10
1.375176642858221
 20
18.32986831296732
 30
0.0
 10
1.37935594938822
 20
18.32881711731733
 30
0.0
 10
1.380463843212221
 20
18.32853885062733
 30
0.0
  0
LINE
  5
162
330
1F
100
AcDbEntity
  8
IGES_LEVEL_0
 62
     7
100
AcDbLine
 10
1.380463843212221
 20
18.32853885062733
 30
0.0
 11
1.39914483210422
 21
18.32387686417733
 31
0.0
  0
ARC
  5
163
330
1F
100
AcDbEntity
  8
IGES_LEVEL_0
 62
     7
100
AcDbCircle
 10
8.929128926223603
 20
48.73424716839229
 30
0.0
 40
31.32876126656096
100
AcDbArc
 50
256.0925822770219
 51
257.9737461273178
  0
LINE
  5
164
330
1F
100
AcDbEntity
  8
IGES_LEVEL_0
 62
     7
100
AcDbLine
 10
2.614274032458221
 20
18.59056178520733
 30
0.0
 11
2.553176869032221
 21
18.60346125126733
 31
0.0
  0
LINE
  5
165
330
1F
100
AcDbEntity
  8
IGES_LEVEL_0
 62
     7
100
AcDbLine
 10
2.40147222776822
 20
18.09308238418733
 30
0.0
 11
2.46803529113022
 21
18.07808690333733
 31
0.0
  0
LINE
  5
166
330
1F
100
AcDbEntity
  8
IGES_LEVEL_0
 62
     7
100
AcDbLine
 10
2.468035291307221
 20
18.07808690508733
 30
0.0
 11
2.529383531261221
 21
18.06320267204733
 31
0.0
  0
SPLINE
  5
167
330
1F
100
AcDbEntity
  8
IGES_LEVEL_0
 62
     7
100
AcDbSpline
210
0.0
220
0.0
230
1.0
 70
     8
 71
     3
 72
    11
 73
     7
 74
     0
 42
0.0000000001
 43
0.0000000001
 40
0.0
 40
0.0
 40
0.0
 40
0.0
 40
0.2645467734482
 40
0.5229497841507
 40
0.7699953216992
 40
1.0
 40
1.0
 40
1.0
 40
1.0
 10
2.529383508859221
 20
18.06320258218733
 30
0.0
 10
3.20090147984022
 20
17.89769447076733
 30
0.0
 10
4.53747252667982
 20
17.60631217088733
 30
0.0
 10
6.52602587308822
 20
17.28675962848732
 30
0.0
 10
8.440429297187221
 20
17.09552178292732
 30
0.0
 10
9.687961708897221
 20
17.05314594477733
 30
0.0
 10
10.28927403272422
 20
17.05313427361732
 30
0.0
  0
SPLINE
  5
168
330
1F
100
AcDbEntity
  8
IGES_LEVEL_0
 62
     7
100
AcDbSpline
210
0.0
220
0.0
230
1.0
 70
     8
 71
     3
 72
    11
 73
     7
 74
     0
 42
0.0000000001
 43
0.0000000001
 40
0.0
 40
0.0
 40
0.0
 40
0.0
 40
0.2304734087216
 40
0.4775184104888
 40
0.7359218788192
 40
1.0
 40
1.0
 40
1.0
 40
1.0
 10
10.28927403270822
 20
17.05313420624733
 30
0.0
 10
10.89181109860922
 20
17.05314501234733
 30
0.0
 10
12.14056753337822
 20
17.09565216140733
 30
0.0
 10
14.05616730579222
 20
17.28724073820733
 30
0.0
 10
16.04347683202022
 20
17.60680375797733
 30
0.0
 10
17.37883568956022
 20
17.89798735144733
 30
0.0
 10
18.04916455957022
 20
18.06320257040733
 30
0.0
  0
LINE
  5
169
330
1F
100
AcDbEntity
  8
IGES_LEVEL_0
 62
     7
100
AcDbLine
 10
18.04916453414022
 20
18.06320267207733
 30
0.0
 11
18.11051277401022
 21
18.07808690503733
 31
0.0
  0
LINE
  5
16A
330
1F
100
AcDbEntity
  8
IGES_LEVEL_0
 62
     7
100
AcDbLine
 10
18.11051277407022
 20
18.07808690420733
 30
0.0
 11
18.17707583741022
 21
18.09308238278733
 31
0.0
  0
LINE
  5
16B
330
1F
100
AcDbEntity
  8
IGES_LEVEL_0
 62
     7
100
AcDbLine
 10
18.17707583748022
 20
18.09308236748733
 30
0.0
 11
18.19135346827022
 21
18.09611278856733
 31
0.0
  0
ARC
  5
16C
330
1F
100
AcDbEntity
  8
IGES_LEVEL_0
 62
     7
100
AcDbCircle
 10
12.33113268589129
 20
45.66302023268406
 30
0.0
 40
28.1829127957123
100
AcDbArc
 50
282.0013795119878
 51
284.2117556203424
  0
ARC
  5
16D
330
1F
100
AcDbEntity
  8
IGES_LEVEL_0
 62
     7
100
AcDbCircle
 10
19.23613008852745
 20
18.39226687825667
 30
0.0
 40
0.0515816068383732
100
AcDbArc
 50
285.8464037897771
 51
358.2075717105884
  0
LINE
  5
16E
330
1F
100
AcDbEntity
  8
IGES_LEVEL_0
 62
     7
100
AcDbLine
 10
1.35993143751322
 20
18.33375651409733
 30
0.0
 11
1.367955539829221
 21
18.32900880210733
 31
0.0
  0
LINE
  5
16F
330
1F
100
AcDbEntity
  8
IGES_LEVEL_0
 62
     7
100
AcDbLine
 10
1.367955539829221
 20
18.32900880210733
 30
0.0
 11
1.368626072181221
 21
18.32861206185733
 31
0.0
  0
LINE
  5
170
330
1F
100
AcDbEntity
  8
IGES_LEVEL_0
 62
     7
100
AcDbLine
 10
1.368626072181221
 20
18.32861206185733
 30
0.0
 11
1.873528434974221
 21
18.02993099317733
 31
0.0
  0
LINE
  5
171
330
1F
100
AcDbEntity
  8
IGES_LEVEL_0
 62
     7
100
AcDbLine
 10
18.70501962910022
 20
18.02993099238733
 30
0.0
 11
19.20993285862022
 21
18.32861849067733
 31
0.0
  0
LINE
  5
172
330
1F
100
AcDbEntity
  8
IGES_LEVEL_0
 62
     7
100
AcDbLine
 10
19.20993285862022
 20
18.32861849067733
 30
0.0
 11
19.21059254042022
 21
18.32900881088733
 31
0.0
  0
LINE
  5
173
330
1F
100
AcDbEntity
  8
IGES_LEVEL_0
 62
     7
100
AcDbLine
 10
19.21059254042022
 20
18.32900881088733
 30
0.0
 11
19.21861624282022
 21
18.33375628624733
 31
0.0
  0
LINE
  5
174
330
1F
100
AcDbEntity
  8
IGES_LEVEL_0
 62
     7
100
AcDbLine
 10
1.333540324231221
 20
18.58915249817733
 30
0.0
 11
1.325906168608221
 21
18.58705621595733
 31
0.0
  0
LINE
  5
175
330
1F
100
AcDbEntity
  8
IGES_LEVEL_0
 62
     7
100
AcDbLine
 10
1.325906168608221
 20
18.58705621595733
 30
0.0
 11
1.323454353631221
 21
18.58619481928733
 31
0.0
  0
LINE
  5
176
330
1F
100
AcDbEntity
  8
IGES_LEVEL_0
 62
     7
100
AcDbLine
 10
19.25511840313022
 20
18.58617570529733
 30
0.0
 11
19.26859712209022
 21
18.57864247739733
 31
0.0
  0
LINE
  5
177
330
1F
100
AcDbEntity
  8
IGES_LEVEL_0
 62
     7
100
AcDbLine
 10
19.26859712209022
 20
18.57864247739733
 30
0.0
 11
19.27417378973022
 21
18.57354794622733
 31
0.0
  0
ARC
  5
178
330
1F
100
AcDbEntity
  8
IGES_LEVEL_0
 62
     7
100
AcDbCircle
 10
19.23753643881828
 20
18.53926940314371
 30
0.0
 40
0.0501728412368743
100
AcDbArc
 50
359.785653787936
 51
43.09492742596091
  0
LINE
  5
179
330
1F
100
AcDbEntity
  8
IGES_LEVEL_0
 62
     7
100
AcDbLine
 10
19.25512083041022
 20
18.58618521893733
 30
0.0
 11
19.24821279866022
 21
18.58837786393733
 31
0.0
  0
LINE
  5
17A
330
1F
100
AcDbEntity
  8
IGES_LEVEL_0
 62
     7
100
AcDbLine
 10
19.24821279866022
 20
18.58837786393733
 30
0.0
 11
19.24500763457022
 21
18.58915278254733
 31
0.0
  0
ARC
  5
17B
330
1F
100
AcDbEntity
  8
IGES_LEVEL_0
 62
     7
100
AcDbCircle
 10
1.98244412455411
 20
15.62536849508459
 30
0.0
 40
3.033989189634623
100
AcDbArc
 50
87.9393209716518
 51
102.3497642380314
  0
ARC
  5
17C
330
1F
100
AcDbEntity
  8
IGES_LEVEL_0
 62
     7
100
AcDbCircle
 10
1.340731099504706
 20
18.53937879031659
 30
0.0
 40
0.0498928486459482
100
AcDbArc
 50
110.2577334823076
 51
180.3411682790495
  0
ARC
  5
17D
330
1F
100
AcDbEntity
  8
IGES_LEVEL_0
 62
     7
100
AcDbCircle
 10
10.28792173904609
 20
53.11001559339743
 30
0.0
 40
35.36221086056676
100
AcDbArc
 50
258.1770412292293
 51
270.0021910598277
  0
ARC
  5
17E
330
1F
100
AcDbEntity
  8
IGES_LEVEL_0
 62
     7
100
AcDbCircle
 10
10.29062604863143
 20
53.1100183552607
 30
0.0
 40
35.36221362324942
100
AcDbArc
 50
269.9978093903577
 51
281.8229429040125
  0
ARC
  5
17F
330
1F
100
AcDbEntity
  8
IGES_LEVEL_0
 62
     7
100
AcDbCircle
 10
18.60054716018626
 20
15.66579978241961
 30
0.0
 40
2.993546184075829
100
AcDbArc
 50
77.56779597608426
 51
100.4682212285313
  0
LINE
  5
180
330
1F
100
AcDbEntity
  8
IGES_LEVEL_0
 62
     7
100
AcDbLine
 10
1.31517753673822
 20
30.89418394217733
 30
0.0
 11
1.315171611111221
 21
30.89401051827733
 31
0.0
  0
LINE
  5
181
330
1F
100
AcDbEntity
  8
IGES_LEVEL_0
 62
     7
100
AcDbLine
 10
19.25697738117022
 20
30.73909234581733
 30
0.0
 11
19.25779144712022
 21
30.74611254966733
 31
0.0
  0
LINE
  5
182
330
1F
100
AcDbEntity
  8
IGES_LEVEL_0
 62
     7
100
AcDbLine
 10
19.25779144712022
 20
30.74611254966733
 30
0.0
 11
19.26051293098022
 21
30.77386396096733
 31
0.0
  0
LINE
  5
183
330
1F
100
AcDbEntity
  8
IGES_LEVEL_0
 62
     7
100
AcDbLine
 10
19.26051293098022
 20
30.77386396096733
 30
0.0
 11
19.26242884132022
 21
30.80136121364733
 31
0.0
  0
LINE
  5
184
330
1F
100
AcDbEntity
  8
IGES_LEVEL_0
 62
     7
100
AcDbLine
 10
19.26242884132022
 20
30.80136121364733
 30
0.0
 11
19.26349745280022
 21
30.82642105930733
 31
0.0
  0
LINE
  5
185
330
1F
100
AcDbEntity
  8
IGES_LEVEL_0
 62
     7
100
AcDbLine
 10
19.26349745280022
 20
30.82642105930733
 30
0.0
 11
19.26387440425022
 21
30.84532004092733
 31
0.0
  0
LINE
  5
186
330
1F
100
AcDbEntity
  8
IGES_LEVEL_0
 62
     7
100
AcDbLine
 10
1.314707733492221
 20
30.84203772350733
 30
0.0
 11
1.315165529198221
 21
30.82260873256733
 31
0.0
  0
LINE
  5
187
330
1F
100
AcDbEntity
  8
IGES_LEVEL_0
 62
     7
100
AcDbLine
 10
1.315165529198221
 20
30.82260873256733
 30
0.0
 11
1.31619956501822
 21
30.79981564296733
 31
0.0
  0
LINE
  5
188
330
1F
100
AcDbEntity
  8
IGES_LEVEL_0
 62
     7
100
AcDbLine
 10
1.31619956501822
 20
30.79981564296733
 30
0.0
 11
1.31830941290422
 21
30.77057431012733
 31
0.0
  0
LINE
  5
189
330
1F
100
AcDbEntity
  8
IGES_LEVEL_0
 62
     7
100
AcDbLine
 10
1.31830941290422
 20
30.77057431012733
 30
0.0
 11
1.32075060460922
 21
30.74611086874733
 31
0.0
  0
LINE
  5
18A
330
1F
100
AcDbEntity
  8
IGES_LEVEL_0
 62
     7
100
AcDbLine
 10
1.32075060460922
 20
30.74611086874733
 30
0.0
 11
1.32156497451322
 21
30.73909162259733
 31
0.0
  0
LINE
  5
18B
330
1F
100
AcDbEntity
  8
IGES_LEVEL_0
 62
     7
100
AcDbLine
 10
1.321560302963221
 20
30.73909098191733
 30
0.0
 11
1.93462775412522
 21
25.62480156779733
 31
0.0
  0
LINE
  5
18C
330
1F
100
AcDbEntity
  8
IGES_LEVEL_0
 62
     7
100
AcDbLine
 10
1.93462775412522
 20
25.62480156779733
 30
0.0
 11
1.935542729026221
 21
25.61717233973733
 31
0.0
  0
LINE
  5
18D
330
1F
100
AcDbEntity
  8
IGES_LEVEL_0
 62
     7
100
AcDbLine
 10
1.935552042611221
 20
25.61717181490733
 30
0.0
 11
1.939780726707221
 21
25.58612587988733
 31
0.0
  0
SPLINE
  5
18E
330
1F
100
AcDbEntity
  8
IGES_LEVEL_0
 62
     7
100
AcDbSpline
210
0.0
220
0.0
230
1.0
 70
     8
 71
     3
 72
    14
 73
    10
 74
     0
 42
0.0000000001
 43
0.0000000001
 40
0.0
 40
0.0
 40
0.0
 40
0.0
 40
0.09897725585731
 40
0.252337742321
 40
0.4100618775419
 40
0.5703483956193
 40
0.7316787346107
 40
0.8929018278773
 40
1.0
 40
1.0
 40
1.0
 40
1.0
 10
1.939780726707221
 20
25.58612587988733
 30
0.0
 10
1.94674162535122
 20
25.54041689831733
 30
0.0
 10
1.972609185593221
 20
25.42497120206733
 30
0.0
 10
2.046292980419221
 20
25.24710361844733
 30
0.0
 10
2.17039565309722
 20
25.06378837453733
 30
0.0
 10
2.331344881162221
 20
24.90643869402733
 30
0.0
 10
2.522104703613221
 20
24.78377473698733
 30
0.0
 10
2.710581864855221
 20
24.71170117906733
 30
0.0
 10
2.834257804857221
 20
24.68827997522733
 30
0.0
 10
2.883970284985221
 20
24.68256051579733
 30
0.0
  0
LINE
  5
18F
330
1F
100
AcDbEntity
  8
IGES_LEVEL_0
 62
     7
100
AcDbLine
 10
2.883970284985221
 20
24.68256051579733
 30
0.0
 11
2.92077012165022
 21
24.67899665265733
 31
0.0
  0
LINE
  5
190
330
1F
100
AcDbEntity
  8
IGES_LEVEL_0
 62
     7
100
AcDbLine
 10
4.02305948048072
 20
24.59970644666733
 30
0.0
 11
3.77644095808432
 21
24.61621531667733
 31
0.0
  0
LINE
  5
191
330
1F
100
AcDbEntity
  8
IGES_LEVEL_0
 62
     7
100
AcDbLine
 10
3.77644095808432
 20
24.61621531667733
 30
0.0
 11
3.736339194281221
 21
24.61896591530733
 31
0.0
  0
ARC
  5
192
330
1F
100
AcDbEntity
  8
IGES_LEVEL_0
 62
     7
100
AcDbCircle
 10
9.604019088703591
 20
109.914262028041
 30
0.0
 40
85.49688419060858
100
AcDbArc
 50
265.5213427242618
 51
266.0646779556724
  0
LINE
  5
193
330
1F
100
AcDbEntity
  8
IGES_LEVEL_0
 62
     7
100
AcDbLine
 10
2.927760815103221
 20
24.67844337316733
 30
0.0
 11
2.92077266698622
 21
24.67899124381733
 31
0.0
  0
LINE
  5
194
330
1F
100
AcDbEntity
  8
IGES_LEVEL_0
 62
     7
100
AcDbLine
 10
4.022910481144121
 20
24.59972241041733
 30
0.0
 11
4.02942974678312
 21
24.59929733683733
 31
0.0
  0
SPLINE
  5
195
330
1F
100
AcDbEntity
  8
IGES_LEVEL_0
 62
     7
100
AcDbSpline
210
0.0
220
0.0
230
1.0
 70
     8
 71
     3
 72
    14
 73
    10
 74
     0
 42
0.0000000001
 43
0.0000000001
 40
0.0
 40
0.0
 40
0.0
 40
0.0
 40
0.1438366747101
 40
0.2958584493995
 40
0.4347722569973
 40
0.5654757140544
 40
0.7047315538887
 40
0.8570662179717
 40
1.0
 40
1.0
 40
1.0
 40
1.0
 10
4.02942974678312
 20
24.59929733683733
 30
0.0
 10
4.62893241272942
 20
24.56020767373733
 30
0.0
 10
5.86208976342122
 20
24.47954501992733
 30
0.0
 10
7.676744391156221
 20
24.40589783378733
 30
0.0
 10
9.437597913230221
 20
24.37106997396733
 30
0.0
 10
11.14548368914422
 20
24.37110059443733
 30
0.0
 10
12.90907070476022
 20
24.40609151596733
 30
0.0
 10
14.72268317054822
 20
24.47989506983733
 30
0.0
 10
15.95337540722022
 20
24.56046932997733
 30
0.0
 10
16.54911593823022
 20
24.59929834093733
 30
0.0
  0
LINE
  5
196
330
1F
100
AcDbEntity
  8
IGES_LEVEL_0
 62
     7
100
AcDbLine
 10
16.54911593823022
 20
24.59929834093733
 30
0.0
 11
16.55564626087022
 21
24.59972396514733
 31
0.0
  0
LINE
  5
197
330
1F
100
AcDbEntity
  8
IGES_LEVEL_0
 62
     7
100
AcDbLine
 10
17.65777540436022
 20
24.67899124428733
 30
0.0
 11
17.65078725030022
 21
24.67844337316733
 31
0.0
  0
ARC
  5
198
330
1F
100
AcDbEntity
  8
IGES_LEVEL_0
 62
     7
100
AcDbCircle
 10
10.97452926954311
 20
109.9142581333883
 30
0.0
 40
85.49688028498073
100
AcDbArc
 50
273.9353234036017
 51
274.4786572838976
  0
LINE
  5
199
330
1F
100
AcDbEntity
  8
IGES_LEVEL_0
 62
     7
100
AcDbLine
 10
16.84221091945022
 20
24.61896605627733
 30
0.0
 11
16.80210506160022
 21
24.61621517683733
 31
0.0
  0
LINE
  5
19A
330
1F
100
AcDbEntity
  8
IGES_LEVEL_0
 62
     7
100
AcDbLine
 10
16.80210506160022
 20
24.61621517683733
 30
0.0
 11
16.55548611699022
 21
24.59970628494733
 31
0.0
  0
LINE
  5
19B
330
1F
100
AcDbEntity
  8
IGES_LEVEL_0
 62
     7
100
AcDbLine
 10
17.65777826121022
 20
24.67899895106733
 30
0.0
 11
17.69784416468022
 21
24.68294407270733
 31
0.0
  0
SPLINE
  5
19C
330
1F
100
AcDbEntity
  8
IGES_LEVEL_0
 62
     7
100
AcDbSpline
210
0.0
220
0.0
230
1.0
 70
     8
 71
     3
 72
    14
 73
    10
 74
     0
 42
0.0000000001
 43
0.0000000001
 40
0.0
 40
0.0
 40
0.0
 40
0.0
 40
0.1072752276073
 40
0.2687240843471
 40
0.4301933613878
 40
0.590511605541
 40
0.7481386355088
 40
0.9012554352034
 40
1.0
 40
1.0
 40
1.0
 40
1.0
 10
17.69784416468022
 20
24.68294407270733
 30
0.0
 10
17.74762711105022
 20
24.68883238443733
 30
0.0
 10
17.87142969460022
 20
24.71269072079733
 30
0.0
 10
18.05991843920022
 20
24.78552608217733
 30
0.0
 10
18.25041756704022
 20
24.90899484293733
 30
0.0
 10
18.41081994477022
 20
25.06699439888733
 30
0.0
 10
18.53416792277022
 20
25.25067952301733
 30
0.0
 10
18.60708103697022
 20
25.42859682079733
 30
0.0
 10
18.63250321473022
 20
25.54392792422733
 30
0.0
 10
18.63928964775022
 20
25.58955890066733
 30
0.0
  0
LINE
  5
19D
330
1F
100
AcDbEntity
  8
IGES_LEVEL_0
 62
     7
100
AcDbLine
 10
18.63928964775022
 20
25.58955890066733
 30
0.0
 11
18.64300094125022
 21
25.61717180880733
 31
0.0
  0
LINE
  5
19E
330
1F
100
AcDbEntity
  8
IGES_LEVEL_0
 62
     7
100
AcDbLine
 10
18.64300533685022
 20
25.61717234351733
 30
0.0
 11
18.64392031130022
 21
25.62480156782733
 31
0.0
  0
LINE
  5
19F
330
1F
100
AcDbEntity
  8
IGES_LEVEL_0
 62
     7
100
AcDbLine
 10
18.64392031130022
 20
25.62480156782733
 30
0.0
 11
19.25698776252022
 21
30.73909098246733
 31
0.0
  0
LINE
  5
1A0
330
1F
100
AcDbEntity
  8
IGES_LEVEL_0
 62
     7
100
AcDbLine
 10
1.315171611111221
 20
30.89401051827733
 30
0.0
 11
1.31462108622722
 21
30.86149900911733
 31
0.0
  0
SPLINE
  5
1A1
330
1F
100
AcDbEntity
  8
IGES_LEVEL_0
 62
     7
100
AcDbSpline
210
0.0
220
0.0
230
1.0
 70
     8
 71
     3
 72
    15
 73
    11
 74
     0
 42
0.0000000001
 43
0.0000000001
 40
0.0
 40
0.0
 40
0.0
 40
0.0
 40
0.1216800870614
 40
0.2627638941799
 40
0.3995019335028
 40
0.5332015828310001
 40
0.6651802664145
 40
0.7964606298234001
 40
0.9276493310042
 40
1.0
 40
1.0
 40
1.0
 40
1.0
 10
2.323081862069221
 20
31.75821500468732
 30
0.0
 10
2.262888538588221
 20
31.76332607720732
 30
0.0
 10
2.131660695450221
 20
31.76308702083733
 30
0.0
 10
1.935960132433221
 20
31.72374065866733
 30
0.0
 10
1.747850772677221
 20
31.64030343685733
 30
0.0
 10
1.58660714914922
 20
31.51984105552733
 30
0.0
 10
1.458329504435221
 20
31.36827478076733
 30
0.0
 10
1.367901427853221
 20
31.19294059575733
 30
0.0
 10
1.325601542814221
 20
31.03107034197733
 30
0.0
 10
1.316419432144221
 20
30.93011525782733
 30
0.0
 10
1.31518988130822
 20
30.89418351924733
 30
0.0
  0
LINE
  5
1A2
330
1F
100
AcDbEntity
  8
IGES_LEVEL_0
 62
     7
100
AcDbLine
 10
19.26392608344022
 20
30.86145681805733
 30
0.0
 11
19.26385561868022
 21
30.87322761007733
 31
0.0
  0
LINE
  5
1A3
330
1F
100
AcDbEntity
  8
IGES_LEVEL_0
 62
     7
100
AcDbLine
 10
19.26385561868022
 20
30.87322761007733
 30
0.0
 11
19.26352709434022
 21
30.88920458670733
 31
0.0
  0
SPLINE
  5
1A4
330
1F
100
AcDbEntity
  8
IGES_LEVEL_0
 62
     7
100
AcDbSpline
210
0.0
220
0.0
230
1.0
 70
     8
 71
     3
 72
    15
 73
    11
 74
     0
 42
0.0000000001
 43
0.0000000001
 40
0.0
 40
0.0
 40
0.0
 40
0.0
 40
0.07502996271629
 40
0.2055804330499
 40
0.3362174612895
 40
0.4675426220153
 40
0.6005699117449
 40
0.7366058528329
 40
0.876951444216
 40
1.0
 40
1.0
 40
1.0
 40
1.0
 10
19.26351279782022
 20
30.88935090181733
 30
0.0
 10
19.26242321412022
 20
30.92673805994733
 30
0.0
 10
19.25340820724022
 20
31.02907820327733
 30
0.0
 10
19.21091037506022
 20
31.19217787366733
 30
0.0
 10
19.12082918684022
 20
31.36731376347733
 30
0.0
 10
18.99300300297022
 20
31.51880567120733
 30
0.0
 10
18.83227863527022
 20
31.63934686926733
 30
0.0
 10
18.64471455126022
 20
31.72303722848733
 30
0.0
 10
18.44851597230022
 20
31.76299178795733
 30
0.0
 10
18.31652920744022
 20
31.76340223081733
 30
0.0
 10
18.25546574928022
 20
31.75821659120732
 30
0.0
  0
LINE
  5
1A5
330
1F
100
AcDbEntity
  8
IGES_LEVEL_0
 62
     7
100
AcDbLine
 10
3.044452625493221
 20
31.70002408163733
 30
0.0
 11
2.323087256145221
 21
31.75821951603732
 31
0.0
  0
LINE
  5
1A6
330
1F
100
AcDbEntity
  8
IGES_LEVEL_0
 62
     7
100
AcDbLine
 10
18.25546081912022
 20
31.75821951687733
 30
0.0
 11
17.53410311081022
 21
31.70002466726733
 31
0.0
  0
SPLINE
  5
1A7
330
1F
100
AcDbEntity
  8
IGES_LEVEL_0
 62
     7
100
AcDbSpline
210
0.0
220
0.0
230
1.0
 70
     8
 71
     3
 72
    20
 73
    16
 74
     0
 42
0.0000000001
 43
0.0000000001
 40
0.0
 40
0.0
 40
0.0
 40
0.0
 40
0.05513917373704
 40
0.1200277218822
 40
0.1916900433131
 40
0.2698784535197
 40
0.3556808891814
 40
0.4502258186604
 40
0.5492295036796
 40
0.6438225095172
 40
0.729690170021
 40
0.807943817135
 40
0.8796639871119
 40
0.9446022192271
 40
1.0
 40
1.0
 40
1.0
 40
1.0
 10
17.53333347593022
 20
31.69995655643733
 30
0.0
 10
17.26752765194022
 20
31.67950992976733
 30
0.0
 10
16.68895163303022
 20
31.63456135250733
 30
0.0
 10
15.76443029747022
 20
31.56939334907733
 30
0.0
 10
14.72788072222122
 20
31.50967363919733
 30
0.0
 10
13.58962969507322
 20
31.45881255693733
 30
0.0
 10
12.34018664483122
 20
31.42044834891733
 30
0.0
 10
10.98967392692722
 20
31.39909305541733
 30
0.0
 10
9.596484031599221
 20
31.39903190838733
 30
0.0
 10
8.245421700437221
 20
31.42028134371733
 30
0.0
 10
6.99511285577122
 20
31.45857650119733
 30
0.0
 10
5.85594862290822
 20
31.50939910577733
 30
0.0
 10
4.818561917893121
 20
31.56911076457733
 30
0.0
 10
3.892270182946821
 20
31.63434153023733
 30
0.0
 10
3.312210197132221
 20
31.67943344801733
 30
0.0
 10
3.04515672184722
 20
31.69996295605733
 30
0.0
  0
SPLINE
  5
1A8
330
1F
100
AcDbEntity
  8
IGES_LEVEL_0
 62
     7
100
AcDbSpline
210
0.0
220
0.0
230
1.0
 70
     8
 71
     3
 72
    15
 73
    11
 74
     0
 42
0.0000000001
 43
0.0000000001
 40
0.0
 40
0.0
 40
0.0
 40
0.0
 40
0.05318258137074
 40
0.1128170875121
 40
0.1842945994792
 40
0.2774871884904
 40
0.4013558418658
 40
0.5645654897667
 40
0.7725120910093
 40
1.0
 40
1.0
 40
1.0
 40
1.0
 10
18.62730278105022
 20
18.19255786551733
 30
0.0
 10
18.64514985334022
 20
18.16733195322733
 30
0.0
 10
18.67701818081022
 20
18.10973445269733
 30
0.0
 10
18.71373972006022
 20
18.00913127399733
 30
0.0
 10
18.74689026127022
 20
17.88325570926733
 30
0.0
 10
18.77977381463022
 20
17.71914223204733
 30
0.0
 10
18.81372233164022
 20
17.50122084519733
 30
0.0
 10
18.84814838154022
 20
17.21620721239733
 30
0.0
 10
18.87958262041022
 20
16.87046778067733
 30
0.0
 10
18.89584636984022
 20
16.61847568881733
 30
0.0
 10
18.90273215372022
 20
16.48674782886733
 30
0.0
  0
SPLINE
  5
1A9
330
1F
100
AcDbEntity
  8
IGES_LEVEL_0
 62
     7
100
AcDbSpline
210
0.0
220
0.0
230
1.0
 70
     8
 71
     3
 72
    15
 73
    11
 74
     0
 42
0.0000000001
 43
0.0000000001
 40
0.0
 40
0.0
 40
0.0
 40
0.0
 40
0.05318234307621
 40
0.1128168642263
 40
0.1842943941829
 40
0.2774870066487
 40
0.4013556911993
 40
0.5645653801767
 40
0.7725120337553
 40
1.0
 40
1.0
 40
1.0
 40
1.0
 10
1.95124503099022
 20
18.19255750738733
 30
0.0
 10
1.933398069895221
 20
18.16733169623733
 30
0.0
 10
1.901529834461221
 20
18.10973431530733
 30
0.0
 10
1.864808345357221
 20
18.00913127399733
 30
0.0
 10
1.83165780414422
 20
17.88325570926733
 30
0.0
 10
1.79877425079322
 20
17.71914223204733
 30
0.0
 10
1.764825733778221
 20
17.50122084519733
 30
0.0
 10
1.730399683879221
 20
17.21620721239733
 30
0.0
 10
1.698965445006221
 20
16.87046778067733
 30
0.0
 10
1.68270169557622
 20
16.61847568881733
 30
0.0
 10
1.675815911700221
 20
16.48674782886733
 30
0.0
  0
ARC
  5
1AA
330
1F
100
AcDbEntity
  8
IGES_LEVEL_0
 62
     7
100
AcDbCircle
 10
17.71098970381646
 20
15.36465925484628
 30
0.0
 40
1.439874408433826
100
AcDbArc
 50
87.91017531519195
 51
96.22429761230463
  0
ARC
  5
1AB
330
1F
100
AcDbEntity
  8
IGES_LEVEL_0
 62
     7
100
AcDbCircle
 10
17.71123333493647
 20
15.36653256594832
 30
0.0
 40
1.437993469655817
100
AcDbArc
 50
83.75195704308347
 51
87.91715429459825
  0
ARC
  5
1AC
330
1F
100
AcDbEntity
  8
IGES_LEVEL_0
 62
     7
100
AcDbCircle
 10
17.7135272185188
 20
15.38334556450257
 30
0.0
 40
1.421030760711388
100
AcDbArc
 50
69.54960294299578
 51
83.77011914218494
  0
LINE
  5
1AD
330
1F
100
AcDbEntity
  8
IGES_LEVEL_0
 62
     7
100
AcDbLine
 10
17.86710928680022
 20
17.42363330652733
 30
0.0
 11
17.88059247168022
 21
17.42256733324733
 31
0.0
  0
SPLINE
  5
1AE
330
1F
100
AcDbEntity
  8
IGES_LEVEL_0
 62
     7
100
AcDbSpline
210
0.0
220
0.0
230
1.0
 70
     8
 71
     3
 72
    12
 73
     8
 74
     0
 42
0.0000000001
 43
0.0000000001
 40
0.0
 40
0.0
 40
0.0
 40
0.0
 40
0.09589652102578
 40
0.3251412339353
 40
0.5518680601103
 40
0.7765414737197
 40
1.0
 40
1.0
 40
1.0
 40
1.0
 10
18.86081040591022
 20
17.07594684353733
 30
0.0
 10
18.90610641107022
 20
17.04485378078732
 30
0.0
 10
19.05527304902022
 20
16.93301292563733
 30
0.0
 10
19.27968050578022
 20
16.70789194920733
 30
0.0
 10
19.49344331203022
 20
16.37909607075733
 30
0.0
 10
19.63256315626022
 20
16.01608697080733
 30
0.0
 10
19.67186099390022
 20
15.76046673795733
 30
0.0
 10
19.67767163521022
 20
15.63279104769733
 30
0.0
  0
ARC
  5
1AF
330
1F
100
AcDbEntity
  8
IGES_LEVEL_0
 62
     7
100
AcDbCircle
 10
10.28927403270722
 20
83.31971492174196
 30
0.0
 40
66.9192614582412
100
AcDbArc
 50
263.7669570003911
 51
276.2330429996088
  0
LINE
  5
1B0
330
1F
100
AcDbEntity
  8
IGES_LEVEL_0
 62
     7
100
AcDbLine
 10
3.81275692611402
 20
17.34254827625733
 30
0.0
 11
4.37575065363952
 21
17.28969846391733
 31
0.0
  0
LINE
  5
1B1
330
1F
100
AcDbEntity
  8
IGES_LEVEL_0
 62
     7
100
AcDbLine
 10
16.20279729419022
 20
17.28969845338733
 30
0.0
 11
16.76579113931022
 21
17.34254827625733
 31
0.0
  0
ARC
  5
1B2
330
1F
100
AcDbEntity
  8
IGES_LEVEL_0
 62
     7
100
AcDbCircle
 10
2.867475886808067
 20
15.37307784814614
 30
0.0
 40
1.431514729720722
100
AcDbArc
 50
83.73588831532774
 51
110.2622054743736
  0
SPLINE
  5
1B3
330
1F
100
AcDbEntity
  8
IGES_LEVEL_0
 62
     7
100
AcDbSpline
210
0.0
220
0.0
230
1.0
 70
     8
 71
     3
 72
    12
 73
     8
 74
     0
 42
0.0000000001
 43
0.0000000001
 40
0.0
 40
0.0
 40
0.0
 40
0.0
 40
0.2233012731008
 40
0.4480041713245
 40
0.6748708656826
 40
0.9042934568252
 40
1.0
 40
1.0
 40
1.0
 40
1.0
 10
0.9008764302122202
 20
15.63279104769733
 30
0.0
 10
0.9066829957232202
 20
15.76037718156733
 30
0.0
 10
0.9459498135622203
 20
16.01592453149733
 30
0.0
 10
1.085023929033221
 20
16.37896090802733
 30
0.0
 10
1.298881297514221
 20
16.70793934227732
 30
0.0
 10
1.523364784408221
 20
16.93309441902733
 30
0.0
 10
1.672535603157221
 20
17.04491847398733
 30
0.0
 10
1.717742162093221
 20
17.07594992979733
 30
0.0
  0
LINE
  5
1B4
330
1F
100
AcDbEntity
  8
IGES_LEVEL_0
 62
     7
100
AcDbLine
 10
2.69795803508522
 20
17.42256757903733
 30
0.0
 11
2.71142338390522
 21
17.42363219493733
 31
0.0
  0
LINE
  5
1B5
330
1F
100
AcDbEntity
  8
IGES_LEVEL_0
 62
     7
100
AcDbLine
 10
3.82635423164932
 20
18.60410356592733
 30
0.0
 11
3.85563901660732
 21
18.33906759112733
 31
0.0
  0
LINE
  5
1B6
330
1F
100
AcDbEntity
  8
IGES_LEVEL_0
 62
     7
100
AcDbLine
 10
3.88954038039822
 20
17.37769548852733
 30
0.0
 11
3.883018922931521
 21
17.33590268166733
 31
0.0
  0
LINE
  5
1B7
330
1F
100
AcDbEntity
  8
IGES_LEVEL_0
 62
     7
100
AcDbLine
 10
3.20578911301922
 20
18.52978039632733
 30
0.0
 11
3.213523286680221
 21
18.46394125709733
 31
0.0
  0
SPLINE
  5
1B8
330
1F
100
AcDbEntity
  8
IGES_LEVEL_0
 62
     7
100
AcDbSpline
210
0.0
220
0.0
230
1.0
 70
     8
 71
     3
 72
    15
 73
    11
 74
     0
 42
0.0000000001
 43
0.0000000001
 40
0.0
 40
0.0
 40
0.0
 40
0.0
 40
0.01958459226619
 40
0.06486639552714
 40
0.1348232567221
 40
0.2330540759601
 40
0.364364353376
 40
0.5341870997173001
 40
0.7476607737643
 40
1.0
 40
1.0
 40
1.0
 40
1.0
 10
18.10512346563022
 20
17.84877137908732
 30
0.0
 10
18.10286493100022
 20
17.84922372284733
 30
0.0
 10
18.13020941405022
 20
17.79057998413733
 30
0.0
 10
18.13125891576022
 20
17.75378646125733
 30
0.0
 10
18.15930883840022
 20
17.64344331581733
 30
0.0
 10
18.17939841240022
 20
17.51096959703733
 30
0.0
 10
18.20643404184022
 20
17.32374045385733
 30
0.0
 10
18.23261009492022
 20
17.08553899659733
 30
0.0
 10
18.25863971820022
 20
16.78916173126733
 30
0.0
 10
18.27242665538022
 20
16.57192007462733
 30
0.0
 10
18.27858429700022
 20
16.45412187373733
 30
0.0
  0
SPLINE
  5
1B9
330
1F
100
AcDbEntity
  8
IGES_LEVEL_0
 62
     7
100
AcDbSpline
210
0.0
220
0.0
230
1.0
 70
     8
 71
     3
 72
    15
 73
    11
 74
     0
 42
0.0000000001
 43
0.0000000001
 40
0.0
 40
0.0
 40
0.0
 40
0.0
 40
0.01958459226618
 40
0.06486639552714
 40
0.1348232567221
 40
0.2330540759601
 40
0.3643643533759
 40
0.5341870997173001
 40
0.7476607737643
 40
1.0
 40
1.0
 40
1.0
 40
1.0
 10
2.473424599785221
 20
17.84877137908732
 30
0.0
 10
2.475683134424221
 20
17.84922372284733
 30
0.0
 10
2.448338651365221
 20
17.79057998413733
 30
0.0
 10
2.44728914966122
 20
17.75378646125733
 30
0.0
 10
2.419239227017221
 20
17.64344331581733
 30
0.0
 10
2.399149653015221
 20
17.51096959703733
 30
0.0
 10
2.372114023578221
 20
17.32374045385733
 30
0.0
 10
2.345937970499221
 20
17.08553899659733
 30
0.0
 10
2.319908347221221
 20
16.78916173126733
 30
0.0
 10
2.30612141003822
 20
16.57192007462733
 30
0.0
 10
2.299963768423221
 20
16.45412187373733
 30
0.0
  0
LINE
  5
1BA
330
1F
100
AcDbEntity
  8
IGES_LEVEL_0
 62
     7
100
AcDbLine
 10
17.37275895240022
 20
18.52978039632733
 30
0.0
 11
17.36502464890022
 21
18.46394012934733
 31
0.0
  0
LINE
  5
1BB
330
1F
100
AcDbEntity
  8
IGES_LEVEL_0
 62
     7
100
AcDbLine
 10
16.75219383377022
 20
18.60410356592733
 30
0.0
 11
16.72290928681022
 21
18.33906995328733
 31
0.0
  0
LINE
  5
1BC
330
1F
100
AcDbEntity
  8
IGES_LEVEL_0
 62
     7
100
AcDbLine
 10
16.68900768502022
 20
17.37769548852733
 30
0.0
 11
16.69552914238022
 21
17.33590268227733
 31
0.0
  0
ARC
  5
1BD
330
1F
100
AcDbEntity
  8
IGES_LEVEL_0
 62
     7
100
AcDbCircle
 10
17.11089543855012
 20
17.37690639585088
 30
0.0
 40
0.3186398570796127
100
AcDbArc
 50
262.8782788087054
 51
298.3900712772343
  0
SPLINE
  5
1BE
330
1F
100
AcDbEntity
  8
IGES_LEVEL_0
 62
     7
100
AcDbSpline
210
0.0
220
0.0
230
1.0
 70
     8
 71
     3
 72
    13
 73
     9
 74
     0
 42
0.0000000001
 43
0.0000000001
 40
0.0
 40
0.0
 40
0.0
 40
0.0
 40
0.09787502787379
 40
0.2355614134588
 40
0.4011507172291
 40
0.5861105686661
 40
0.7872153178747
 40
1.0
 40
1.0
 40
1.0
 40
1.0
 10
3.800886300464421
 20
17.32677487056733
 30
0.0
 10
3.795510020183721
 20
17.31424258235733
 30
0.0
 10
3.78436049496362
 20
17.28335235464733
 30
0.0
 10
3.760120033439021
 20
17.23281522711732
 30
0.0
 10
3.72142759178122
 20
17.17642038752733
 30
0.0
 10
3.66568256452522
 20
17.12259197295733
 30
0.0
 10
3.593086274998221
 20
17.07977995144733
 30
0.0
 10
3.536573052497221
 20
17.06441727712733
 30
0.0
 10
3.507156853006221
 20
17.06072484256733
 30
0.0
  0
SPLINE
  5
1BF
330
1F
100
AcDbEntity
  8
IGES_LEVEL_0
 62
     7
100
AcDbSpline
210
0.0
220
0.0
230
1.0
 70
     8
 71
     3
 72
    13
 73
     9
 74
     0
 42
0.0000000001
 43
0.0000000001
 40
0.0
 40
0.0
 40
0.0
 40
0.0
 40
0.2127846821253
 40
0.4138894313339
 40
0.5988492827708
 40
0.7644385865412
 40
0.9021249721262
 40
1.0
 40
1.0
 40
1.0
 40
1.0
 10
17.07139121241022
 20
17.06072484256733
 30
0.0
 10
17.04197501292022
 20
17.06441727712733
 30
0.0
 10
16.98546179042022
 20
17.07977995144733
 30
0.0
 10
16.91286550089022
 20
17.12259197295733
 30
0.0
 10
16.85712047364022
 20
17.17642038752733
 30
0.0
 10
16.81842803198022
 20
17.23281522711732
 30
0.0
 10
16.79418757046022
 20
17.28335235464733
 30
0.0
 10
16.78303804524022
 20
17.31424258235733
 30
0.0
 10
16.77766176495022
 20
17.32677487056733
 30
0.0
  0
ARC
  5
1C0
330
1F
100
AcDbEntity
  8
IGES_LEVEL_0
 62
     7
100
AcDbCircle
 10
16.75175562361817
 20
17.31964596478488
 30
0.0
 40
0.0268691171490853
100
AcDbArc
 50
15.38594957862973
 51
58.5085501851772
  0
ARC
  5
1C1
330
1F
100
AcDbEntity
  8
IGES_LEVEL_0
 62
     7
100
AcDbCircle
 10
3.467658304959827
 20
17.37694252202167
 30
0.0
 40
0.3186750007409792
100
AcDbArc
 50
241.5798108965303
 51
277.1199029143535
  0
ARC
  5
1C2
330
1F
100
AcDbEntity
  8
IGES_LEVEL_0
 62
     7
100
AcDbCircle
 10
3.825616437405582
 20
17.32052963489862
 30
0.0
 40
0.0255065215520697
100
AcDbArc
 50
120.2743481920856
 51
165.8271143438606
  0
LINE
  5
1C3
330
1F
100
AcDbEntity
  8
IGES_LEVEL_0
 62
     7
100
AcDbLine
 10
18.10861293919022
 20
17.84200269589733
 30
0.0
 11
18.09134944220022
 21
17.87028091052733
 31
0.0
  0
ARC
  5
1C4
330
1F
100
AcDbEntity
  8
IGES_LEVEL_0
 62
     7
100
AcDbCircle
 10
18.38457367341561
 20
18.0249640643605
 30
0.0
 40
0.3315227410776456
100
AcDbArc
 50
184.3007930613237
 51
207.8127737500816
  0
ARC
  5
1C5
330
1F
100
AcDbEntity
  8
IGES_LEVEL_0
 62
     7
100
AcDbCircle
 10
18.42284635618733
 20
18.02995464988147
 30
0.0
 40
0.3700679028662002
100
AcDbArc
 50
174.6332794627887
 51
184.6269132209782
  0
LINE
  5
1C6
330
1F
100
AcDbEntity
  8
IGES_LEVEL_0
 62
     7
100
AcDbLine
 10
2.524147389895221
 20
18.06456748345733
 30
0.0
 11
2.52485478642522
 21
18.05592223378732
 31
0.0
  0
ARC
  5
1C7
330
1F
100
AcDbEntity
  8
IGES_LEVEL_0
 62
     7
100
AcDbCircle
 10
2.156525256737915
 20
18.02993245867335
 30
0.0
 40
0.369245326104673
100
AcDbArc
 50
355.3982018439081
 51
4.036169522540212
  0
ARC
  5
1C8
330
1F
100
AcDbEntity
  8
IGES_LEVEL_0
 62
     7
100
AcDbCircle
 10
2.201637552970857
 20
18.02319986054778
 30
0.0
 40
0.3237530587511843
100
AcDbArc
 50
325.9687026389607
 51
355.9453289449205
  0
LINE
  5
1C9
330
1F
100
AcDbEntity
  8
IGES_LEVEL_0
 62
     7
100
AcDbLine
 10
19.26352709434022
 20
30.88920458670733
 30
0.0
 11
19.26352283340022
 21
30.88935119426733
 31
0.0
  0
LINE
  5
1CA
330
1F
100
AcDbEntity
  8
IGES_LEVEL_0
 62
     7
100
AcDbLine
 10
51.49706902794022
 20
0.1982911768963283
 30
0.0
 11
51.49635218427022
 21
0.2078096245783281
 31
0.0
  0
SPLINE
  5
1CB
330
1F
100
AcDbEntity
  8
IGES_LEVEL_0
 62
     7
100
AcDbSpline
210
0.0
220
0.0
230
1.0
 70
     8
 71
     3
 72
    35
 73
    31
 74
     0
 42
0.0000000001
 43
0.0000000001
 40
0.0
 40
0.0
 40
0.0
 40
0.0
 40
0.04679101610054
 40
0.1106911275085
 40
0.1721115782516
 40
0.2310806699249
 40
0.287746736333
 40
0.3422754438549
 40
0.3946418664453
 40
0.4448669464715
 40
0.4930039239984
 40
0.5390868111652
 40
0.5831404101949
 40
0.6251745753671
 40
0.6651982685996
 40
0.7031699001351
 40
0.7390394622499
 40
0.7727666438659
 40
0.8043046829264
 40
0.8336207621119
 40
0.8606983619204
 40
0.8855237093203
 40
0.9080952424463
 40
0.9284332500575
 40
0.9465802897433
 40
0.9626127860202
 40
0.9766566865279001
 40
0.9888837876974
 40
0.9995395155714
 40
1.0
 40
1.0
 40
1.0
 40
1.0
 10
46.94806698339022
 20
17.80880186289733
 30
0.0
 10
46.94296392128022
 20
17.80851576711733
 30
0.0
 10
46.93091750415022
 20
17.80724585837733
 30
0.0
 10
46.91254166924022
 20
17.80310397816733
 30
0.0
 10
46.89354372756022
 20
17.79637174720733
 30
0.0
 10
46.87601032159022
 20
17.78818620984733
 30
0.0
 10
46.85981753753022
 20
17.77905856132733
 30
0.0
 10
46.84480091985022
 20
17.76938668115733
 30
0.0
 10
46.83083566144022
 20
17.75942251716733
 30
0.0
 10
46.81780118619022
 20
17.74937759333733
 30
0.0
 10
46.80561564757022
 20
17.73936883044733
 30
0.0
 10
46.79419274816022
 20
17.72950140234732
 30
0.0
 10
46.78348092756022
 20
17.71983552006733
 30
0.0
 10
46.77343390246022
 20
17.71042419150733
 30
0.0
 10
46.76401716925022
 20
17.70131380460733
 30
0.0
 10
46.75521486667022
 20
17.69253823460733
 30
0.0
 10
46.74701376044022
 20
17.68413480287733
 30
0.0
 10
46.73940472275022
 20
17.67613614373733
 30
0.0
 10
46.73238359585022
 20
17.66856670251733
 30
0.0
 10
46.72594419757022
 20
17.66144873253733
 30
0.0
 10
46.72007930779022
 20
17.65480004643733
 30
0.0
 10
46.71478260918022
 20
17.64863279183733
 30
0.0
 10
46.71004532021022
 20
17.64295579701733
 30
0.0
 10
46.70585535388022
 20
17.63777253362733
 30
0.0
 10
46.70219675069022
 20
17.63307868479733
 30
0.0
 10
46.69904725302022
 20
17.62886042797733
 30
0.0
 10
46.69637764145022
 20
17.62509194097733
 30
0.0
 10
46.69415079311022
 20
17.62173116204733
 30
0.0
 10
46.69283026532022
 20
17.61955090947733
 30
0.0
 10
46.69223392921022
 20
17.61849392757733
 30
0.0
 10
46.69220928381022
 20
17.61845010973733
 30
0.0
  0
LINE
  5
1CC
330
1F
100
AcDbEntity
  8
IGES_LEVEL_0
 62
     7
100
AcDbLine
 10
46.69220928381022
 20
17.61845010973733
 30
0.0
 11
46.68872398400022
 21
17.60711219482733
 31
0.0
  0
LINE
  5
1CD
330
1F
100
AcDbEntity
  8
IGES_LEVEL_0
 62
     7
100
AcDbLine
 10
47.28778921664022
 20
17.64058102345733
 30
0.0
 11
47.28306269426022
 21
17.65146015192733
 31
0.0
  0
ARC
  5
1CE
330
1F
100
AcDbEntity
  8
IGES_LEVEL_0
 62
     7
100
AcDbCircle
 10
47.28971208936623
 20
17.68789674606457
 30
0.0
 40
0.0414441555646757
100
AcDbArc
 50
243.5479084018278
 51
251.8051619778075
  0
SPLINE
  5
1CF
330
1F
100
AcDbEntity
  8
IGES_LEVEL_0
 62
     7
100
AcDbSpline
210
0.0
220
0.0
230
1.0
 70
     8
 71
     3
 72
    29
 73
    25
 74
     0
 42
0.0000000001
 43
0.0000000001
 40
0.0
 40
0.0
 40
0.0
 40
0.0
 40
0.008233081718568
 40
0.02498276309531
 40
0.04524635835444
 40
0.06907493784616
 40
0.09649408564144
 40
0.1275106191605
 40
0.1620840713259
 40
0.2001325252512
 40
0.2415482678623
 40
0.286196666574
 40
0.3339760838079
 40
0.3848367398928
 40
0.4387278272819
 40
0.4955872300672
 40
0.5553724606759
 40
0.6180419780423
 40
0.6835508471459
 40
0.751889171496
 40
0.8230428328819001
 40
0.8970043698762
 40
0.9737782836506
 40
1.0
 40
1.0
 40
1.0
 40
1.0
 10
47.27125081723022
 20
17.65079149762733
 30
0.0
 10
47.27067331004022
 20
17.65107325585733
 30
0.0
 10
47.26898485534022
 20
17.65193926128733
 30
0.0
 10
47.26583167926022
 20
17.65360647966732
 30
0.0
 10
47.26170977647022
 20
17.65593377706733
 30
0.0
 10
47.25689307263022
 20
17.65876043731733
 30
0.0
 10
47.25140733818022
 20
17.66209068246733
 30
0.0
 10
47.24524669536022
 20
17.66592777655733
 30
0.0
 10
47.23842195354022
 20
17.67026543023733
 30
0.0
 10
47.23094656172022
 20
17.67509198689733
 30
0.0
 10
47.22283939516022
 20
17.68038890096733
 30
0.0
 10
47.21411836875022
 20
17.68613431079733
 30
0.0
 10
47.20479718207022
 20
17.69230821598733
 30
0.0
 10
47.19488157139022
 20
17.69889065607732
 30
0.0
 10
47.18437281434022
 20
17.70586059875733
 30
0.0
 10
47.17327142012022
 20
17.71319685377733
 30
0.0
 10
47.16157244954022
 20
17.72087112461733
 30
0.0
 10
47.14926640399022
 20
17.72885008952733
 30
0.0
 10
47.13634178750022
 20
17.73710120068733
 30
0.0
 10
47.12277401122022
 20
17.74557397660733
 30
0.0
 10
47.10853163363022
 20
17.75420934404733
 30
0.0
 10
47.09357772284022
 20
17.76293706202733
 30
0.0
 10
47.08149533270022
 20
17.76962309159733
 30
0.0
 10
47.07439035588022
 20
17.77337977528732
 30
0.0
 10
47.07257642813022
 20
17.77432647294733
 30
0.0
  0
ARC
  5
1D0
330
1F
100
AcDbEntity
  8
IGES_LEVEL_0
 62
     7
100
AcDbCircle
 10
46.94722610326075
 20
17.56369914099212
 30
0.0
 40
0.2451052364015247
100
AcDbArc
 50
59.2419179123863
 51
89.80340471740772
  0
LINE
  5
1D1
330
1F
100
AcDbEntity
  8
IGES_LEVEL_0
 62
     7
100
AcDbLine
 10
30.06013874687022
 20
0.3647920109463281
 30
0.0
 11
30.05176048120022
 21
0.341444985821328
 31
0.0
  0
LINE
  5
1D2
330
1F
100
AcDbEntity
  8
IGES_LEVEL_0
 62
     7
100
AcDbLine
 10
30.05552090826022
 20
0.1986195174693279
 30
0.0
 11
30.05634597208022
 21
0.1974175564983283
 31
0.0
  0
LINE
  5
1D3
330
1F
100
AcDbEntity
  8
IGES_LEVEL_0
 62
     7
100
AcDbLine
 10
30.04028365664022
 20
0.3038919059573282
 30
0.0
 11
30.03720999003022
 21
0.2759934260603283
 31
0.0
  0
LINE
  5
1D4
330
1F
100
AcDbEntity
  8
IGES_LEVEL_0
 62
     7
100
AcDbLine
 10
30.45284907779022
 20
1.213470164346328
 30
0.0
 11
30.44679750846022
 21
1.202921980781328
 31
0.0
  0
LINE
  5
1D5
330
1F
100
AcDbEntity
  8
IGES_LEVEL_0
 62
     7
100
AcDbLine
 10
30.44679750846022
 20
1.202921980781328
 30
0.0
 11
30.44370779357022
 21
1.196438798298328
 31
0.0
  0
LINE
  5
1D6
330
1F
100
AcDbEntity
  8
IGES_LEVEL_0
 62
     7
100
AcDbLine
 10
30.44370779357022
 20
1.196438798298328
 30
0.0
 11
30.44344964840022
 21
1.195893097743328
 31
0.0
  0
LINE
  5
1D7
330
1F
100
AcDbEntity
  8
IGES_LEVEL_0
 62
     7
100
AcDbLine
 10
30.44203268583022
 20
1.192892558693328
 30
0.0
 11
30.06221258234022
 21
0.3692516836843283
 31
0.0
  0
LINE
  5
1D8
330
1F
100
AcDbEntity
  8
IGES_LEVEL_0
 62
     7
100
AcDbLine
 10
30.06221258234022
 20
0.3692516836843283
 30
0.0
 11
30.06013958646022
 21
0.3647952376873282
 31
0.0
  0
LINE
  5
1D9
330
1F
100
AcDbEntity
  8
IGES_LEVEL_0
 62
     7
100
AcDbLine
 10
30.58561337945022
 20
1.274825233296328
 30
0.0
 11
30.55683156390022
 21
1.281349801939328
 31
0.0
  0
LINE
  5
1DA
330
1F
100
AcDbEntity
  8
IGES_LEVEL_0
 62
     7
100
AcDbLine
 10
30.48519000748022
 20
1.259264955100328
 30
0.0
 11
30.48390916626022
 21
1.257514503742328
 31
0.0
  0
LINE
  5
1DB
330
1F
100
AcDbEntity
  8
IGES_LEVEL_0
 62
     7
100
AcDbLine
 10
30.16638711660022
 20
0.0809276494223281
 30
0.0
 11
30.16751350675022
 21
0.080553509395328
 31
0.0
  0
ARC
  5
1DC
330
1F
100
AcDbEntity
  8
IGES_LEVEL_0
 62
     7
100
AcDbCircle
 10
30.61494803187722
 20
1.432266671812667
 30
0.0
 40
1.423842030468236
100
AcDbArc
 50
251.6847890953897
 51
261.2406123620233
  0
ARC
  5
1DD
330
1F
100
AcDbEntity
  8
IGES_LEVEL_0
 62
     7
100
AcDbCircle
 10
36.64515605188072
 20
16.87198417402425
 30
0.0
 40
0.0206604728886727
100
AcDbArc
 50
41.46082951487045
 51
159.4621567279733
  0
LINE
  5
1DE
330
1F
100
AcDbEntity
  8
IGES_LEVEL_0
 62
     7
100
AcDbLine
 10
36.62580874467022
 20
16.87923240440733
 30
0.0
 11
36.62529462381022
 21
16.87831878027733
 31
0.0
  0
LINE
  5
1DF
330
1F
100
AcDbEntity
  8
IGES_LEVEL_0
 62
     7
100
AcDbLine
 10
36.61707472778022
 20
16.86336240579733
 30
0.0
 11
36.61018273688022
 21
16.85141976826733
 31
0.0
  0
ARC
  5
1E0
330
1F
100
AcDbEntity
  8
IGES_LEVEL_0
 62
     7
100
AcDbCircle
 10
36.58843190507861
 20
16.81904184847423
 30
0.0
 40
0.0982472255493738
100
AcDbArc
 50
358.359395156462
 51
42.68580088185828
  0
LINE
  5
1E1
330
1F
100
AcDbEntity
  8
IGES_LEVEL_0
 62
     7
100
AcDbLine
 10
36.68227990959022
 20
16.79416942639733
 30
0.0
 11
36.68264899222022
 21
16.79526435500733
 31
0.0
  0
LINE
  5
1E2
330
1F
100
AcDbEntity
  8
IGES_LEVEL_0
 62
     7
100
AcDbLine
 10
36.68264899222022
 20
16.79526435500733
 30
0.0
 11
36.68663387929022
 21
16.81609504233733
 31
0.0
  0
LINE
  5
1E3
330
1F
100
AcDbEntity
  8
IGES_LEVEL_0
 62
     7
100
AcDbLine
 10
36.56551885668022
 20
16.45607752452733
 30
0.0
 11
36.68133004637022
 21
16.79141507222733
 31
0.0
  0
LINE
  5
1E4
330
1F
100
AcDbEntity
  8
IGES_LEVEL_0
 62
     7
100
AcDbLine
 10
36.68133004637022
 20
16.79141507222733
 30
0.0
 11
36.68227595611022
 21
16.79415711800733
 31
0.0
  0
LINE
  5
1E5
330
1F
100
AcDbEntity
  8
IGES_LEVEL_0
 62
     7
100
AcDbLine
 10
35.43192062636022
 20
15.60593509712733
 30
0.0
 11
35.43017815278022
 21
15.60078514895733
 31
0.0
  0
LINE
  5
1E6
330
1F
100
AcDbEntity
  8
IGES_LEVEL_0
 62
     7
100
AcDbLine
 10
35.43017815278022
 20
15.60078514895733
 30
0.0
 11
35.42549700098022
 21
15.58663058916733
 31
0.0
  0
LINE
  5
1E7
330
1F
100
AcDbEntity
  8
IGES_LEVEL_0
 62
     7
100
AcDbLine
 10
35.42549700098022
 20
15.58663058916733
 30
0.0
 11
35.42501731212022
 21
15.58515217932733
 31
0.0
  0
LINE
  5
1E8
330
1F
100
AcDbEntity
  8
IGES_LEVEL_0
 62
     7
100
AcDbLine
 10
35.42501731212022
 20
15.58515217932733
 30
0.0
 11
35.42105376914022
 21
15.57271984024733
 31
0.0
  0
LINE
  5
1E9
330
1F
100
AcDbEntity
  8
IGES_LEVEL_0
 62
     7
100
AcDbLine
 10
35.47476713660022
 20
15.73183950490733
 30
0.0
 11
35.47153362754022
 21
15.72233781100733
 31
0.0
  0
LINE
  5
1EA
330
1F
100
AcDbEntity
  8
IGES_LEVEL_0
 62
     7
100
AcDbLine
 10
35.47153362754022
 20
15.72233781100733
 30
0.0
 11
35.43405072174022
 21
15.61219363793733
 31
0.0
  0
LINE
  5
1EB
330
1F
100
AcDbEntity
  8
IGES_LEVEL_0
 62
     7
100
AcDbLine
 10
35.43405072174022
 20
15.61219363793733
 30
0.0
 11
35.43192119341022
 21
15.60593630635733
 31
0.0
  0
LINE
  5
1EC
330
1F
100
AcDbEntity
  8
IGES_LEVEL_0
 62
     7
100
AcDbLine
 10
35.48005149784022
 20
15.74739784995733
 30
0.0
 11
35.47924545592022
 21
15.74502080328733
 31
0.0
  0
LINE
  5
1ED
330
1F
100
AcDbEntity
  8
IGES_LEVEL_0
 62
     7
100
AcDbLine
 10
35.47924545592022
 20
15.74502080328733
 30
0.0
 11
35.47806125907022
 21
15.74153107970733
 31
0.0
  0
LINE
  5
1EE
330
1F
100
AcDbEntity
  8
IGES_LEVEL_0
 62
     7
100
AcDbLine
 10
35.47806125907022
 20
15.74153107970733
 30
0.0
 11
35.47570669728022
 21
15.73460136533733
 31
0.0
  0
LINE
  5
1EF
330
1F
100
AcDbEntity
  8
IGES_LEVEL_0
 62
     7
100
AcDbLine
 10
35.47570669728022
 20
15.73460136533733
 30
0.0
 11
35.47476713660022
 21
15.73183950489733
 31
0.0
  0
LINE
  5
1F0
330
1F
100
AcDbEntity
  8
IGES_LEVEL_0
 62
     7
100
AcDbLine
 10
35.79877234502022
 20
16.68072888208733
 30
0.0
 11
35.48005149750022
 21
15.74739785544733
 31
0.0
  0
LINE
  5
1F1
330
1F
100
AcDbEntity
  8
IGES_LEVEL_0
 62
     7
100
AcDbLine
 10
50.95791710961022
 20
1.246804446705328
 30
0.0
 11
50.94926255761022
 21
1.246364322678328
 31
0.0
  0
ARC
  5
1F2
330
1F
100
AcDbEntity
  8
IGES_LEVEL_0
 62
     7
100
AcDbCircle
 10
51.14142542478702
 20
-2.922273230291101
 30
0.0
 40
4.173064295640382
100
AcDbArc
 50
92.6393113743262
 51
96.48119917048757
  0
SPLINE
  5
1F3
330
1F
100
AcDbEntity
  8
IGES_LEVEL_0
 62
     7
100
AcDbSpline
210
0.0
220
0.0
230
1.0
 70
     8
 71
     3
 72
    16
 73
    12
 74
     0
 42
0.0000000001
 43
0.0000000001
 40
0.0
 40
0.0
 40
0.0
 40
0.0
 40
0.09804684419904
 40
0.2226073060569
 40
0.3248692942089
 40
0.4144476658717
 40
0.5121886390713
 40
0.6402061489622
 40
0.8024789865236
 40
0.9912779750909
 40
1.0
 40
1.0
 40
1.0
 40
1.0
 10
50.67038169259022
 20
1.224120795595328
 30
0.0
 10
50.66587052109022
 20
1.223528725855328
 30
0.0
 10
50.65563668593022
 20
1.222120685719328
 30
0.0
 10
50.64074144786022
 20
1.219785591722328
 30
0.0
 10
50.62631914520022
 20
1.217012185782328
 30
0.0
 10
50.61327452123022
 20
1.213741293690328
 30
0.0
 10
50.59950551913022
 20
1.208635217442328
 30
0.0
 10
50.58415609926022
 20
1.198816537600328
 30
0.0
 10
50.56984193002022
 20
1.181143935577328
 30
0.0
 10
50.56507519479022
 20
1.164600134364328
 30
0.0
 10
50.56460670756022
 20
1.155354863821328
 30
0.0
 10
50.56459019026022
 20
1.154946393783328
 30
0.0
  0
SPLINE
  5
1F4
330
1F
100
AcDbEntity
  8
IGES_LEVEL_0
 62
     7
100
AcDbSpline
210
0.0
220
0.0
230
1.0
 70
     8
 71
     3
 72
    16
 73
    12
 74
     0
 42
0.0000000001
 43
0.0000000001
 40
0.0
 40
0.0
 40
0.0
 40
0.0
 40
0.1406444811887
 40
0.3024793548342
 40
0.4371675885149
 40
0.5348205530427
 40
0.6159110480511
 40
0.7008718107245
 40
0.7981835741025
 40
0.9127304919338
 40
1.0
 40
1.0
 40
1.0
 40
1.0
 10
51.35484918179022
 20
1.194815879562328
 30
0.0
 10
51.35387589389022
 20
1.201533672070328
 30
0.0
 10
51.34935476526022
 20
1.215744053896328
 30
0.0
 10
51.33602001146022
 20
1.232561113771328
 30
0.0
 10
51.31972040845022
 20
1.242727631006328
 30
0.0
 10
51.30533795519022
 20
1.247371014710328
 30
0.0
 10
51.29287219889022
 20
1.249626014064328
 30
0.0
 10
51.28031015452022
 20
1.251034144742328
 30
0.0
 10
51.26610375690022
 20
1.252060098372328
 30
0.0
 10
51.25176600143022
 20
1.252721260895328
 30
0.0
 10
51.24208739838022
 20
1.253019311037328
 30
0.0
 10
51.23790161153022
 20
1.253126567589328
 30
0.0
  0
ARC
  5
1F5
330
1F
100
AcDbEntity
  8
IGES_LEVEL_0
 62
     7
100
AcDbCircle
 10
51.19185968198554
 20
-2.787316682319813
 30
0.0
 40
4.040705571433354
100
AcDbArc
 50
89.34712755367661
 51
92.88985083651335
  0
LINE
  5
1F6
330
1F
100
AcDbEntity
  8
IGES_LEVEL_0
 62
     7
100
AcDbLine
 10
50.98814334943022
 20
1.248250337426328
 30
0.0
 11
50.95791711910022
 21
1.246804491568328
 31
0.0
  0
ARC
  5
1F7
330
1F
100
AcDbEntity
  8
IGES_LEVEL_0
 62
     7
100
AcDbCircle
 10
50.59669996429823
 20
0.1565284968644747
 30
0.0
 40
0.0735681263332741
100
AcDbArc
 50
178.3052739293779
 51
259.0453557416063
  0
ARC
  5
1F8
330
1F
100
AcDbEntity
  8
IGES_LEVEL_0
 62
     7
100
AcDbCircle
 10
51.42342427198869
 20
0.1982339578510075
 30
0.0
 40
0.0735530602287606
100
AcDbArc
 50
286.7382034939811
 51
7.46917744703736
  0
ARC
  5
1F9
330
1F
100
AcDbEntity
  8
IGES_LEVEL_0
 62
     7
100
AcDbCircle
 10
50.94125780246488
 20
1.540820467769315
 30
0.0
 40
1.500000197988352
100
AcDbArc
 50
272.8725392228523
 51
289.6068886236388
  0
ARC
  5
1FA
330
1F
100
AcDbEntity
  8
IGES_LEVEL_0
 62
     7
100
AcDbCircle
 10
50.94125786721322
 20
1.540820539948487
 30
0.0
 40
1.500000266832015
100
AcDbArc
 50
256.1701626124586
 51
272.8725366145885
  0
SPLINE
  5
1FB
330
1F
100
AcDbEntity
  8
IGES_LEVEL_0
 62
     7
100
AcDbSpline
210
0.0
220
0.0
230
1.0
 70
     8
 71
     3
 72
    24
 73
    20
 74
     0
 42
0.0000000001
 43
0.0000000001
 40
0.0
 40
0.0
 40
0.0
 40
0.0
 40
0.07820807632607
 40
0.1624739589173
 40
0.239272705796
 40
0.3089458547121
 40
0.3718999134701
 40
0.4286684764586
 40
0.4797866396549
 40
0.5260080812713001
 40
0.5683491512805
 40
0.6086032626506001
 40
0.6498644496162001
 40
0.6952472468026
 40
0.7489950398155
 40
0.8147004783353
 40
0.8950715853154
 40
0.9917527937757
 40
1.0
 40
1.0
 40
1.0
 40
1.0
 10
30.05552107303022
 20
0.1986191897513281
 30
0.0
 10
30.05794725021022
 20
0.195082669674328
 30
0.0
 10
30.06300488317022
 20
0.1877475853573281
 30
0.0
 10
30.07051109180022
 20
0.1769854865223282
 30
0.0
 10
30.07781246025022
 20
0.1666514209923282
 30
0.0
 10
30.08450026530022
 20
0.157315101355328
 30
0.0
 10
30.09060878660022
 20
0.1489152793833279
 30
0.0
 10
30.09618000626022
 20
0.1413831933113279
 30
0.0
 10
30.10126984196022
 20
0.1346367831103279
 30
0.0
 10
30.10595328607022
 20
0.1285754091103282
 30
0.0
 10
30.11035317524022
 20
0.123048635820328
 30
0.0
 10
30.11468347067022
 20
0.1178153939553279
 30
0.0
 10
30.11926484830022
 20
0.1125758763293281
 30
0.0
 10
30.12456681790022
 20
0.1069896395563281
 30
0.0
 10
30.13117986430022
 20
0.1008160734113279
 30
0.0
 10
30.13980929925022
 20
0.0940348742883279
 30
0.0
 10
30.15116294262022
 20
0.0870150867313282
 30
0.0
 10
30.16050510426022
 20
0.0829229810013279
 30
0.0
 10
30.16596248453022
 20
0.0810680549913279
 30
0.0
 10
30.16639241106022
 20
0.0809251296353282
 30
0.0
  0
ARC
  5
1FC
330
1F
100
AcDbEntity
  8
IGES_LEVEL_0
 62
     7
100
AcDbCircle
 10
30.13796904975604
 20
0.2551851978073589
 30
0.0
 40
0.0999864172705401
100
AcDbArc
 50
188.5487282436329
 51
214.4474330436701
  0
LINE
  5
1FD
330
1F
100
AcDbEntity
  8
IGES_LEVEL_0
 62
     7
100
AcDbLine
 10
30.97457627716022
 20
0.0578622993393279
 30
0.0
 11
30.97846016191022
 21
0.058992193446328
 31
0.0
  0
ARC
  5
1FE
330
1F
100
AcDbEntity
  8
IGES_LEVEL_0
 62
     7
100
AcDbCircle
 10
30.94886799306453
 20
0.15645230599512
 30
0.0
 40
0.1018536695215982
100
AcDbArc
 50
286.8900548162247
 51
340.7112315584456
  0
LINE
  5
1FF
330
1F
100
AcDbEntity
  8
IGES_LEVEL_0
 62
     7
100
AcDbLine
 10
31.04512081356022
 20
0.123138987351328
 30
0.0
 11
31.04821485853022
 21
0.1341422424433281
 31
0.0
  0
LINE
  5
200
330
1F
100
AcDbEntity
  8
IGES_LEVEL_0
 62
     7
100
AcDbLine
 10
30.44349517460022
 20
1.195989525868328
 30
0.0
 11
30.44203275437022
 21
1.192892526365328
 31
0.0
  0
SPLINE
  5
201
330
1F
100
AcDbEntity
  8
IGES_LEVEL_0
 62
     7
100
AcDbSpline
210
0.0
220
0.0
230
1.0
 70
     8
 71
     3
 72
    35
 73
    31
 74
     0
 42
0.0000000001
 43
0.0000000001
 40
0.0
 40
0.0
 40
0.0
 40
0.0
 40
0.06234356402737
 40
0.1307048521132
 40
0.1962245986441
 40
0.2587077503945
 40
0.3180200797106
 40
0.3740496676005
 40
0.4267219240294
 40
0.4760115675184
 40
0.5219235671322
 40
0.5644923562311
 40
0.6037713051794
 40
0.6397765072484
 40
0.6725139482845
 40
0.7020342704585
 40
0.7284512919966
 40
0.7519374347688
 40
0.7727290983448
 40
0.7911571537906
 40
0.8076576701626
 40
0.8229144318444001
 40
0.8381481977169
 40
0.8548018172141
 40
0.8750710583726
 40
0.9002076765711
 40
0.928975976831
 40
0.9604822638645
 40
0.9948863229018
 40
1.0
 40
1.0
 40
1.0
 40
1.0
 10
30.88383240521022
 20
1.180715809301328
 30
0.0
 10
30.87550539285022
 20
1.183582243671328
 30
0.0
 10
30.85803821551022
 20
1.189564567395328
 30
0.0
 10
30.83178558447022
 20
1.198459084106328
 30
0.0
 10
30.80548310540022
 20
1.207267397163328
 30
0.0
 10
30.78036312435022
 20
1.215580931854328
 30
0.0
 10
30.75648737921022
 20
1.223386803569328
 30
0.0
 10
30.73390149884022
 20
1.230677690603328
 30
0.0
 10
30.71263619669022
 20
1.237450223555328
 30
0.0
 10
30.69270659238022
 20
1.243706511312328
 30
0.0
 10
30.67411285506022
 20
1.249452472556328
 30
0.0
 10
30.65684459084022
 20
1.254697446188328
 30
0.0
 10
30.64088972260022
 20
1.259450581643328
 30
0.0
 10
30.62624000569022
 20
1.263719685853328
 30
0.0
 10
30.61288771892022
 20
1.267512799816328
 30
0.0
 10
30.60081182945022
 20
1.270841330160328
 30
0.0
 10
30.58996893935022
 20
1.273723585446328
 30
0.0
 10
30.58029013351022
 20
1.276183401721328
 30
0.0
 10
30.57167657421022
 20
1.278250254147328
 30
0.0
 10
30.56399270650022
 20
1.279958324865328
 30
0.0
 10
30.55703984859022
 20
1.281345269405328
 30
0.0
 10
30.55049337578022
 20
1.282450848647328
 30
0.0
 10
30.54388289778022
 20
1.283280543002328
 30
0.0
 10
30.53652141350022
 20
1.283725062397328
 30
0.0
 10
30.52774119671022
 20
1.283384529854328
 30
0.0
 10
30.51738864373022
 20
1.281484240786328
 30
0.0
 10
30.50603589271022
 20
1.277175607404328
 30
0.0
 10
30.49468960313022
 20
1.269891937589328
 30
0.0
 10
30.48763628442022
 20
1.262629956543328
 30
0.0
 10
30.48432684733022
 20
1.258107291120328
 30
0.0
 10
30.48390917046022
 20
1.257514468286328
 30
0.0
  0
ARC
  5
202
330
1F
100
AcDbEntity
  8
IGES_LEVEL_0
 62
     7
100
AcDbCircle
 10
29.53824140083547
 20
-2.83270823680409
 30
0.0
 40
4.232988035278992
100
AcDbArc
 50
67.14071593777855
 51
71.4651109130668
  0
SPLINE
  5
203
330
1F
100
AcDbEntity
  8
IGES_LEVEL_0
 62
     7
100
AcDbSpline
210
0.0
220
0.0
230
1.0
 70
     8
 71
     3
 72
    19
 73
    15
 74
     0
 42
0.0000000001
 43
0.0000000001
 40
0.0
 40
0.0
 40
0.0
 40
0.0
 40
0.03070176962959
 40
0.1116949815658
 40
0.180829167673
 40
0.2442795293547
 40
0.3090252169199
 40
0.3821627579656
 40
0.4633596205303
 40
0.5469619908295
 40
0.6582804305382
 40
0.746583056582
 40
0.8593398829993
 40
1.0
 40
1.0
 40
1.0
 40
1.0
 10
31.18262701435022
 20
1.067828093097328
 30
0.0
 10
31.18360756669022
 20
1.067367779237328
 30
0.0
 10
31.18716901216022
 20
1.065680629123328
 30
0.0
 10
31.19289554097022
 20
1.062866452776328
 30
0.0
 10
31.19955508746022
 20
1.059337279149328
 30
0.0
 10
31.20556593018022
 20
1.055818792342328
 30
0.0
 10
31.21147131530022
 20
1.051860248081328
 30
0.0
 10
31.21749794050022
 20
1.046998677696328
 30
0.0
 10
31.22338641037022
 20
1.040981562130328
 30
0.0
 10
31.22921735395022
 20
1.033140769983328
 30
0.0
 10
31.23380901713022
 20
1.024191382630328
 30
0.0
 10
31.23709443795022
 20
1.013629169731328
 30
0.0
 10
31.23863531304022
 20
1.001598542204328
 30
0.0
 10
31.23778236546022
 20
0.9925871968663282
 30
0.0
 10
31.23671224970022
 20
0.9877412372953283
 30
0.0
  0
ARC
  5
204
330
1F
100
AcDbEntity
  8
IGES_LEVEL_0
 62
     7
100
AcDbCircle
 10
30.60864706412156
 20
1.40561606189617
 30
0.0
 40
1.396544589312291
100
AcDbArc
 50
261.3312218941078
 51
285.1397341535836
  0
LINE
  5
205
330
1F
100
AcDbEntity
  8
IGES_LEVEL_0
 62
     7
100
AcDbLine
 10
30.97338819134022
 20
0.057543103910328
 30
0.0
 11
30.97455839765022
 21
0.0578598309563281
 31
0.0
  0
LINE
  5
206
330
1F
100
AcDbEntity
  8
IGES_LEVEL_0
 62
     7
100
AcDbLine
 10
30.16638711660022
 20
0.080927649421328
 30
0.0
 11
30.16755273290022
 21
0.080540499170328
 31
0.0
  0
LINE
  5
207
330
1F
100
AcDbEntity
  8
IGES_LEVEL_0
 62
     7
100
AcDbLine
 10
36.02094039836022
 20
17.06857208896733
 30
0.0
 11
36.02431288780022
 21
17.09019258678733
 31
0.0
  0
ARC
  5
208
330
1F
100
AcDbEntity
  8
IGES_LEVEL_0
 62
     7
100
AcDbCircle
 10
36.00428889145498
 20
17.09311196969606
 30
0.0
 40
0.0202356918883919
100
AcDbArc
 50
351.7050494582675
 51
101.2633859895185
  0
LINE
  5
209
330
1F
100
AcDbEntity
  8
IGES_LEVEL_0
 62
     7
100
AcDbLine
 10
36.01901628740022
 20
17.05487810356733
 30
0.0
 11
36.02094265342022
 21
17.06857344187733
 31
0.0
  0
LINE
  5
20A
330
1F
100
AcDbEntity
  8
IGES_LEVEL_0
 62
     7
100
AcDbLine
 10
36.61705025360022
 20
16.86331968958733
 30
0.0
 11
36.61019288048022
 21
16.85143377053733
 31
0.0
  0
ARC
  5
20B
330
1F
100
AcDbEntity
  8
IGES_LEVEL_0
 62
     7
100
AcDbCircle
 10
36.64527819153063
 20
16.87239070172942
 30
0.0
 40
0.0202468307463632
100
AcDbArc
 50
40.75843090759796
 51
150.6953815571447
  0
LINE
  5
20C
330
1F
100
AcDbEntity
  8
IGES_LEVEL_0
 62
     7
100
AcDbLine
 10
36.62762235132022
 20
16.88230056861733
 30
0.0
 11
36.61705120966022
 21
16.86331753605733
 31
0.0
  0
ARC
  5
20D
330
1F
100
AcDbEntity
  8
IGES_LEVEL_0
 62
     7
100
AcDbCircle
 10
36.01624913429067
 20
17.01598036811716
 30
0.0
 40
0.098275454956825
100
AcDbArc
 50
99.32844603930809
 51
143.6524384320493
  0
LINE
  5
20E
330
1F
100
AcDbEntity
  8
IGES_LEVEL_0
 62
     7
100
AcDbLine
 10
35.93701605332022
 20
17.07411795774733
 30
0.0
 11
35.92695151942022
 21
17.05416092061733
 31
0.0
  0
LINE
  5
20F
330
1F
100
AcDbEntity
  8
IGES_LEVEL_0
 62
     7
100
AcDbLine
 10
35.92694706602022
 20
17.05414881064733
 30
0.0
 11
35.47995268617022
 21
15.74708256297733
 31
0.0
  0
LINE
  5
210
330
1F
100
AcDbEntity
  8
IGES_LEVEL_0
 62
     7
100
AcDbLine
 10
35.47995268677022
 20
15.74708255697733
 30
0.0
 11
35.47466833371022
 21
15.73152400180733
 31
0.0
  0
LINE
  5
211
330
1F
100
AcDbEntity
  8
IGES_LEVEL_0
 62
     7
100
AcDbLine
 10
35.47466833374022
 20
15.73152400180733
 30
0.0
 11
35.43182246297022
 21
15.60561912081733
 31
0.0
  0
SPLINE
  5
212
330
1F
100
AcDbEntity
  8
IGES_LEVEL_0
 62
     7
100
AcDbSpline
210
0.0
220
0.0
230
1.0
 70
     8
 71
     3
 72
    15
 73
    11
 74
     0
 42
0.0000000001
 43
0.0000000001
 40
0.0
 40
0.0
 40
0.0
 40
0.0
 40
0.1226953755003
 40
0.2977516511727
 40
0.4721378971848
 40
0.6232379916776
 40
0.7454168882033
 40
0.8509591962045
 40
0.9497203554192
 40
1.0
 40
1.0
 40
1.0
 40
1.0
 10
35.43182193603022
 20
15.60561798004733
 30
0.0
 10
35.42805339243022
 20
15.59454561070733
 30
0.0
 10
35.41921912828022
 20
15.56756884464733
 30
0.0
 10
35.40652239552022
 20
15.52437766675733
 30
0.0
 10
35.39543222923022
 20
15.47793591596733
 30
0.0
 10
35.38922781299022
 20
15.43561933431733
 30
0.0
 10
35.38974737248022
 20
15.39926317866733
 30
0.0
 10
35.39824120130022
 20
15.36883546805733
 30
0.0
 10
35.41237510386022
 20
15.34849635953733
 30
0.0
 10
35.42348403308022
 20
15.33939153762733
 30
0.0
 10
35.42746874468022
 20
15.33668208047733
 30
0.0
  0
SPLINE
  5
213
330
1F
100
AcDbEntity
  8
IGES_LEVEL_0
 62
     7
100
AcDbSpline
210
0.0
220
0.0
230
1.0
 70
     8
 71
     3
 72
    15
 73
    11
 74
     0
 42
0.0000000001
 43
0.0000000001
 40
0.0
 40
0.0
 40
0.0
 40
0.0
 40
0.05225046462211
 40
0.1509861780459
 40
0.2564888206543
 40
0.3787471085119
 40
0.530119161365
 40
0.70474221889
 40
0.8797907079436
 40
1.0
 40
1.0
 40
1.0
 40
1.0
 10
36.01846871250022
 20
15.13318126802733
 30
0.0
 10
36.02346498136022
 20
15.13284988792733
 30
0.0
 10
36.03801781141022
 20
15.13323832661733
 30
0.0
 10
36.06180325967022
 20
15.14078050839733
 30
0.0
 10
36.08712883700022
 20
15.15966010128733
 30
0.0
 10
36.10985186811022
 20
15.18808095983733
 30
0.0
 10
36.13098518067022
 20
15.22533078295733
 30
0.0
 10
36.15082084728022
 20
15.26881954500733
 30
0.0
 10
36.16730467925022
 20
15.31048435129733
 30
0.0
 10
36.17686556334022
 20
15.33696194916733
 30
0.0
 10
36.18063500419022
 20
15.34778437167733
 30
0.0
  0
LINE
  5
214
330
1F
100
AcDbEntity
  8
IGES_LEVEL_0
 62
     7
100
AcDbLine
 10
36.18063529945022
 20
15.34778566698733
 30
0.0
 11
36.22438591462022
 21
15.47337902811733
 31
0.0
  0
LINE
  5
215
330
1F
100
AcDbEntity
  8
IGES_LEVEL_0
 62
     7
100
AcDbLine
 10
36.22438591462022
 20
15.47337902810733
 30
0.0
 11
36.22980044665022
 21
15.48889275912733
 31
0.0
  0
LINE
  5
216
330
1F
100
AcDbEntity
  8
IGES_LEVEL_0
 62
     7
100
AcDbLine
 10
36.22980045029022
 20
15.48889276321733
 30
0.0
 11
36.68224327261022
 21
16.79408573853733
 31
0.0
  0
LINE
  5
217
330
1F
100
AcDbEntity
  8
IGES_LEVEL_0
 62
     7
100
AcDbLine
 10
36.68224761941022
 20
16.79409927052733
 30
0.0
 11
36.68660175915022
 21
16.81602198013733
 31
0.0
  0
ARC
  5
218
330
1F
100
AcDbEntity
  8
IGES_LEVEL_0
 62
     7
100
AcDbCircle
 10
36.58836569416189
 20
16.81898146474272
 30
0.0
 40
0.0982818269677219
100
AcDbArc
 50
358.3495411190725
 51
42.67257906896511
  0
SPLINE
  5
219
330
1F
100
AcDbEntity
  8
IGES_LEVEL_0
 62
     7
100
AcDbSpline
210
0.0
220
0.0
230
1.0
 70
     8
 71
     3
 72
    14
 73
    10
 74
     0
 42
0.0000000001
 43
0.0000000001
 40
0.0
 40
0.0
 40
0.0
 40
0.0
 40
0.06553684697945
 40
0.1715605378806
 40
0.298939151896
 40
0.4570995303158
 40
0.6398452283324
 40
0.8365894933673
 40
1.0
 40
1.0
 40
1.0
 40
1.0
 10
33.82658698536022
 20
24.69172297313733
 30
0.0
 10
33.84901390687022
 20
24.69791551749733
 30
0.0
 10
33.90557035969022
 20
24.72354545102733
 30
0.0
 10
33.98002852143022
 20
24.80162688041733
 30
0.0
 10
34.03933349803022
 20
24.92791899057733
 30
0.0
 10
34.07644688677022
 20
25.08956972665733
 30
0.0
 10
34.09071446543022
 20
25.27903994570733
 30
0.0
 10
34.08273559677022
 20
25.47053665468733
 30
0.0
 10
34.06602835154022
 20
25.59651841727733
 30
0.0
 10
34.05629375872022
 20
25.65328635987733
 30
0.0
  0
ARC
  5
21A
330
1F
100
AcDbEntity
  8
IGES_LEVEL_0
 62
     7
100
AcDbCircle
 10
1231.627111696313
 20
230.9817882911482
 30
0.0
 40
1215.045536517215
100
AcDbArc
 50
189.4840930325839
 51
189.7290031846516
  0
SPLINE
  5
21B
330
1F
100
AcDbEntity
  8
IGES_LEVEL_0
 62
     7
100
AcDbSpline
210
0.0
220
0.0
230
1.0
 70
     8
 71
     3
 72
    15
 73
    11
 74
     0
 42
0.0000000001
 43
0.0000000001
 40
0.0
 40
0.0
 40
0.0
 40
0.0
 40
0.1399775042816
 40
0.2987579745442
 40
0.4520502365751
 40
0.6005174084696
 40
0.7351456383285
 40
0.8446947671011
 40
0.9361524374699
 40
1.0
 40
1.0
 40
1.0
 40
1.0
 10
33.18956486538022
 20
30.77414475368733
 30
0.0
 10
33.17952059755022
 20
30.83429419261733
 30
0.0
 10
33.15246837276022
 20
30.96180246102733
 30
0.0
 10
33.09399666704022
 20
31.15014176506733
 30
0.0
 10
33.01480488171022
 20
31.33488596566733
 30
0.0
 10
32.91908325567022
 20
31.49976604034733
 30
0.0
 10
32.81058471251022
 20
31.63321608123733
 30
0.0
 10
32.69445419521022
 20
31.72476724696733
 30
0.0
 10
32.58349785625022
 20
31.76497853472733
 30
0.0
 10
32.51397191894022
 20
31.76218676302732
 30
0.0
 10
32.48665478679022
 20
31.75628556419733
 30
0.0
  0
LINE
  5
21C
330
1F
100
AcDbEntity
  8
IGES_LEVEL_0
 62
     7
100
AcDbLine
 10
32.25795999244022
 20
25.11185864798733
 30
0.0
 11
32.25969892818022
 21
25.10396887417733
 31
0.0
  0
SPLINE
  5
21D
330
1F
100
AcDbEntity
  8
IGES_LEVEL_0
 62
     7
100
AcDbSpline
210
0.0
220
0.0
230
1.0
 70
     8
 71
     3
 72
     9
 73
     5
 74
     0
 42
0.0000000001
 43
0.0000000001
 40
0.0
 40
0.0
 40
0.0
 40
0.0
 40
0.7855972930412
 40
1.0
 40
1.0
 40
1.0
 40
1.0
 10
32.25969892818022
 20
25.10396887417733
 30
0.0
 10
32.29627318170022
 20
24.93703929993733
 30
0.0
 10
32.32274398136022
 20
24.73516398998733
 30
0.0
 10
32.28989989008022
 20
24.53807478619733
 30
0.0
 10
32.27970802034022
 20
24.49592891153733
 30
0.0
  0
SPLINE
  5
21E
330
1F
100
AcDbEntity
  8
IGES_LEVEL_0
 62
     7
100
AcDbSpline
210
0.0
220
0.0
230
1.0
 70
     8
 71
     3
 72
     9
 73
     5
 74
     0
 42
0.0000000001
 43
0.0000000001
 40
0.0
 40
0.0
 40
0.0
 40
0.0
 40
0.2134548764036
 40
1.0
 40
1.0
 40
1.0
 40
1.0
 10
30.78375286222022
 20
31.23182482373733
 30
0.0
 10
30.81082915046022
 20
31.19752379493733
 30
0.0
 10
30.92526595368022
 20
31.03025895275733
 30
0.0
 10
30.98948516817022
 20
30.83373496389733
 30
0.0
 10
31.02699752890022
 20
30.66452763940733
 30
0.0
  0
ARC
  5
21F
330
1F
100
AcDbEntity
  8
IGES_LEVEL_0
 62
     7
100
AcDbCircle
 10
48.49728767561587
 20
15.53219115097642
 30
0.0
 40
1.965545138343009
100
AcDbArc
 50
53.55708588832768
 51
81.95265482617459
  0
LINE
  5
220
330
1F
100
AcDbEntity
  8
IGES_LEVEL_0
 62
     7
100
AcDbLine
 10
48.39738884987022
 20
18.33910815846733
 30
0.0
 11
48.40376263340022
 21
18.33944950177733
 31
0.0
  0
ARC
  5
221
330
1F
100
AcDbEntity
  8
IGES_LEVEL_0
 62
     7
100
AcDbCircle
 10
48.55149503408553
 20
15.51327893351277
 30
0.0
 40
2.830029138068005
100
AcDbArc
 50
88.11444857857813
 51
92.98792644347499
  0
LINE
  5
222
330
1F
100
AcDbEntity
  8
IGES_LEVEL_0
 62
     7
100
AcDbLine
 10
36.61277650985022
 20
17.64592166316733
 30
0.0
 11
36.93552532896022
 21
17.66489522204733
 31
0.0
  0
LINE
  5
223
330
1F
100
AcDbEntity
  8
IGES_LEVEL_0
 62
     7
100
AcDbLine
 10
36.93552532896022
 20
17.66489522204733
 30
0.0
 11
48.17818065180022
 21
18.32620764599733
 31
0.0
  0
LINE
  5
224
330
1F
100
AcDbEntity
  8
IGES_LEVEL_0
 62
     7
100
AcDbLine
 10
48.17818065180022
 20
18.32620764599733
 30
0.0
 11
48.18363339610022
 21
18.32652854014733
 31
0.0
  0
LINE
  5
225
330
1F
100
AcDbEntity
  8
IGES_LEVEL_0
 62
     7
100
AcDbLine
 10
48.18363339610022
 20
18.32652854014733
 30
0.0
 11
48.27595900771022
 21
18.33196192416733
 31
0.0
  0
LINE
  5
226
330
1F
100
AcDbEntity
  8
IGES_LEVEL_0
 62
     7
100
AcDbLine
 10
48.27595900771022
 20
18.33196192416733
 30
0.0
 11
48.35982119255022
 21
18.33689726496733
 31
0.0
  0
LINE
  5
227
330
1F
100
AcDbEntity
  8
IGES_LEVEL_0
 62
     7
100
AcDbLine
 10
48.35982119255022
 20
18.33689726496733
 30
0.0
 11
48.37376779992022
 21
18.33771803422733
 31
0.0
  0
LINE
  5
228
330
1F
100
AcDbEntity
  8
IGES_LEVEL_0
 62
     7
100
AcDbLine
 10
48.37376779992022
 20
18.33771803422733
 30
0.0
 11
48.39739087916022
 21
18.33910827364733
 31
0.0
  0
LINE
  5
229
330
1F
100
AcDbEntity
  8
IGES_LEVEL_0
 62
     7
100
AcDbLine
 10
35.85422186982022
 20
17.67995675253733
 30
0.0
 11
35.86605110404022
 21
17.67844540638733
 31
0.0
  0
ARC
  5
22A
330
1F
100
AcDbEntity
  8
IGES_LEVEL_0
 62
     7
100
AcDbCircle
 10
36.40268865686617
 20
21.4017026469241
 30
0.0
 40
3.76173156170301
100
AcDbArc
 50
261.7983720216342
 51
272.7444504861132
  0
LINE
  5
22B
330
1F
100
AcDbEntity
  8
IGES_LEVEL_0
 62
     7
100
AcDbLine
 10
36.58280556482022
 20
17.64428568286733
 30
0.0
 11
36.61277698366022
 21
17.64592349712733
 31
0.0
  0
ARC
  5
22C
330
1F
100
AcDbEntity
  8
IGES_LEVEL_0
 62
     7
100
AcDbCircle
 10
35.75091515158541
 20
16.81626809793096
 30
0.0
 40
0.8708591898664496
100
AcDbArc
 50
85.17666708598982
 51
93.11371115476726
  0
LINE
  5
22D
330
1F
100
AcDbEntity
  8
IGES_LEVEL_0
 62
     7
100
AcDbLine
 10
35.82414016596022
 20
17.68404331412733
 30
0.0
 11
35.85433800611022
 21
17.68106330098733
 31
0.0
  0
ARC
  5
22E
330
1F
100
AcDbEntity
  8
IGES_LEVEL_0
 62
     7
100
AcDbCircle
 10
35.74690119222744
 20
16.86505477585279
 30
0.0
 40
0.8219284581814321
100
AcDbArc
 50
82.50103204415873
 51
93.01941275318394
  0
LINE
  5
22F
330
1F
100
AcDbEntity
  8
IGES_LEVEL_0
 62
     7
100
AcDbLine
 10
49.76898608833022
 20
18.27990120174733
 30
0.0
 11
49.76878035018022
 21
18.28316289045733
 31
0.0
  0
LINE
  5
230
330
1F
100
AcDbEntity
  8
IGES_LEVEL_0
 62
     7
100
AcDbLine
 10
49.76878035018022
 20
18.28316289045733
 30
0.0
 11
49.76540121132022
 21
18.30295973220733
 31
0.0
  0
SPLINE
  5
231
330
1F
100
AcDbEntity
  8
IGES_LEVEL_0
 62
     7
100
AcDbSpline
210
0.0
220
0.0
230
1.0
 70
     8
 71
     3
 72
    11
 73
     7
 74
     0
 42
0.0000000001
 43
0.0000000001
 40
0.0
 40
0.0
 40
0.0
 40
0.0
 40
0.07595029154335
 40
0.3230211441535
 40
0.6232409531067
 40
1.0
 40
1.0
 40
1.0
 40
1.0
 10
49.76540121132022
 20
18.30295973220733
 30
0.0
 10
49.76368552595022
 20
18.30948717345733
 30
0.0
 10
49.75398817494022
 20
18.33662471118733
 30
0.0
 10
49.71793710177022
 20
18.37919434487733
 30
0.0
 10
49.64984878110022
 20
18.42338946571732
 30
0.0
 10
49.59552986572022
 20
18.44703574689733
 30
0.0
 10
49.56474997109022
 20
18.45868275834733
 30
0.0
  0
LINE
  5
232
330
1F
100
AcDbEntity
  8
IGES_LEVEL_0
 62
     7
100
AcDbLine
 10
35.51691483145022
 20
17.90507818037733
 30
0.0
 11
35.46217230455022
 21
17.88686340242733
 31
0.0
  0
LINE
  5
233
330
1F
100
AcDbEntity
  8
IGES_LEVEL_0
 62
     7
100
AcDbLine
 10
35.42747618182022
 20
17.87342567528733
 30
0.0
 11
35.39565240355022
 21
17.85971073093733
 31
0.0
  0
LINE
  5
234
330
1F
100
AcDbEntity
  8
IGES_LEVEL_0
 62
     7
100
AcDbLine
 10
34.66525689683022
 20
17.52304352186733
 30
0.0
 11
34.11022189760022
 21
17.25924696145733
 31
0.0
  0
LINE
  5
235
330
1F
100
AcDbEntity
  8
IGES_LEVEL_0
 62
     7
100
AcDbLine
 10
34.11022189760022
 20
17.25924696145733
 30
0.0
 11
34.07322049900022
 21
17.24140205484733
 31
0.0
  0
LINE
  5
236
330
1F
100
AcDbEntity
  8
IGES_LEVEL_0
 62
     7
100
AcDbLine
 10
35.39565128863022
 20
17.85971037504733
 30
0.0
 11
35.35709679053022
 21
17.84223851230733
 31
0.0
  0
LINE
  5
237
330
1F
100
AcDbEntity
  8
IGES_LEVEL_0
 62
     7
100
AcDbLine
 10
35.35709679053022
 20
17.84223851230733
 30
0.0
 11
35.29995285280022
 21
17.81628055914733
 31
0.0
  0
LINE
  5
238
330
1F
100
AcDbEntity
  8
IGES_LEVEL_0
 62
     7
100
AcDbLine
 10
34.66525689769022
 20
17.52304352002733
 30
0.0
 11
34.11026237168022
 21
17.25926645798733
 31
0.0
  0
LINE
  5
239
330
1F
100
AcDbEntity
  8
IGES_LEVEL_0
 62
     7
100
AcDbLine
 10
34.11026237168022
 20
17.25926645798733
 30
0.0
 11
34.09278171523022
 21
17.25084034116733
 31
0.0
  0
LINE
  5
23A
330
1F
100
AcDbEntity
  8
IGES_LEVEL_0
 62
     7
100
AcDbLine
 10
34.09278171523022
 20
17.25084034116733
 30
0.0
 11
34.07322059600022
 21
17.24140210353733
 31
0.0
  0
LINE
  5
23B
330
1F
100
AcDbEntity
  8
IGES_LEVEL_0
 62
     7
100
AcDbLine
 10
35.51691480417022
 20
17.90507816245733
 30
0.0
 11
35.49867476448022
 21
17.89939845712733
 31
0.0
  0
ARC
  5
23C
330
1F
100
AcDbEntity
  8
IGES_LEVEL_0
 62
     7
100
AcDbCircle
 10
35.74670687462024
 20
16.90840166069404
 30
0.0
 40
0.7786334303106914
100
AcDbArc
 50
93.17749389949218
 51
98.72345192840655
  0
LINE
  5
23D
330
1F
100
AcDbEntity
  8
IGES_LEVEL_0
 62
     7
100
AcDbLine
 10
48.38907362771022
 20
18.65836488582733
 30
0.0
 11
48.37210204354022
 21
18.65738947589733
 31
0.0
  0
LINE
  5
23E
330
1F
100
AcDbEntity
  8
IGES_LEVEL_0
 62
     7
100
AcDbLine
 10
48.37210204354022
 20
18.65738947589733
 30
0.0
 11
48.26301193365022
 21
18.65112016120733
 31
0.0
  0
LINE
  5
23F
330
1F
100
AcDbEntity
  8
IGES_LEVEL_0
 62
     7
100
AcDbLine
 10
48.26301193365022
 20
18.65112016120733
 30
0.0
 11
48.15445210577022
 21
18.64488207230733
 31
0.0
  0
LINE
  5
240
330
1F
100
AcDbEntity
  8
IGES_LEVEL_0
 62
     7
100
AcDbLine
 10
48.15445210577022
 20
18.64488207230733
 30
0.0
 11
48.07586787461022
 21
18.64036691862733
 31
0.0
  0
ARC
  5
241
330
1F
100
AcDbEntity
  8
IGES_LEVEL_0
 62
     7
100
AcDbCircle
 10
-536.1699592508983
 20
10174.32047229446
 30
0.0
 40
10172.4717541628
100
AcDbArc
 50
273.2235711588411
 51
273.292538134161
  0
LINE
  5
242
330
1F
100
AcDbEntity
  8
IGES_LEVEL_0
 62
     7
100
AcDbLine
 10
35.85104735977022
 20
17.94446718140733
 30
0.0
 11
35.69258101475022
 21
17.93555990468733
 31
0.0
  0
ARC
  5
243
330
1F
100
AcDbEntity
  8
IGES_LEVEL_0
 62
     7
100
AcDbCircle
 10
48.46785540541996
 20
15.56196893439042
 30
0.0
 40
3.097397406901246
100
AcDbArc
 50
69.25406205360098
 51
91.45746674757936
  0
LINE
  5
244
330
1F
100
AcDbEntity
  8
IGES_LEVEL_0
 62
     7
100
AcDbLine
 10
49.56503048033022
 20
18.45853199266733
 30
0.0
 11
49.50618782364022
 21
18.48016574732733
 31
0.0
  0
LINE
  5
245
330
1F
100
AcDbEntity
  8
IGES_LEVEL_0
 62
     7
100
AcDbLine
 10
48.18371132233022
 20
18.32520434195733
 30
0.0
 11
48.18027841904022
 21
18.32641662180733
 31
0.0
  0
ARC
  5
246
330
1F
100
AcDbEntity
  8
IGES_LEVEL_0
 62
     7
100
AcDbCircle
 10
48.54977158442825
 20
16.3927115052572
 30
0.0
 40
1.327510488618227
100
AcDbArc
 50
2.675842960907632
 51
90.72006299109644
  0
ARC
  5
247
330
1F
100
AcDbEntity
  8
IGES_LEVEL_0
 62
     7
100
AcDbCircle
 10
48.25083567357234
 20
18.58512808177891
 30
0.0
 40
0.2684511669792347
100
AcDbArc
 50
255.5199397335958
 51
275.5477151541487
  0
LINE
  5
248
330
1F
100
AcDbEntity
  8
IGES_LEVEL_0
 62
     7
100
AcDbLine
 10
48.35992993568022
 20
18.33504939602733
 30
0.0
 11
48.33859937265022
 21
18.32913493830733
 31
0.0
  0
LINE
  5
249
330
1F
100
AcDbEntity
  8
IGES_LEVEL_0
 62
     7
100
AcDbLine
 10
48.33859937265022
 20
18.32913493830733
 30
0.0
 11
48.32015677820022
 21
18.32469596941733
 31
0.0
  0
LINE
  5
24A
330
1F
100
AcDbEntity
  8
IGES_LEVEL_0
 62
     7
100
AcDbLine
 10
48.32015677820022
 20
18.32469596941733
 30
0.0
 11
48.28839186453022
 21
18.31918559673733
 31
0.0
  0
LINE
  5
24B
330
1F
100
AcDbEntity
  8
IGES_LEVEL_0
 62
     7
100
AcDbLine
 10
48.28839186453022
 20
18.31918559673733
 30
0.0
 11
48.27678810202022
 21
18.31793433089733
 31
0.0
  0
ARC
  5
24C
330
1F
100
AcDbEntity
  8
IGES_LEVEL_0
 62
     7
100
AcDbCircle
 10
35.88033442253733
 20
18.78717680694482
 30
0.0
 40
1.126503002862517
100
AcDbArc
 50
188.805154243595
 51
193.5621775976651
  0
ARC
  5
24D
330
1F
100
AcDbEntity
  8
IGES_LEVEL_0
 62
     7
100
AcDbCircle
 10
35.90511331097454
 20
18.79599045791747
 30
0.0
 40
1.152661059886837
100
AcDbArc
 50
193.6992324936302
 51
254.4044313570913
  0
LINE
  5
24E
330
1F
100
AcDbEntity
  8
IGES_LEVEL_0
 62
     7
100
AcDbLine
 10
35.62842225390022
 20
17.67701625360733
 30
0.0
 11
35.68662455489022
 21
17.66419968957733
 31
0.0
  0
ARC
  5
24F
330
1F
100
AcDbEntity
  8
IGES_LEVEL_0
 62
     7
100
AcDbCircle
 10
35.90363375603634
 20
18.78886312813729
 30
0.0
 40
1.145408592344062
100
AcDbArc
 50
259.0787233523045
 51
263.774583744006
  0
ARC
  5
250
330
1F
100
AcDbEntity
  8
IGES_LEVEL_0
 62
     7
100
AcDbCircle
 10
35.90379188537946
 20
18.78967073765347
 30
0.0
 40
1.146228589068172
100
AcDbArc
 50
263.7711037250011
 51
268.4590389154813
  0
ARC
  5
251
330
1F
100
AcDbEntity
  8
IGES_LEVEL_0
 62
     7
100
AcDbCircle
 10
35.90352041903021
 20
18.77703064290588
 30
0.0
 40
1.13358576744894
100
AcDbArc
 50
268.455574426929
 51
273.1904767401611
  0
ARC
  5
252
330
1F
100
AcDbEntity
  8
IGES_LEVEL_0
 62
     7
100
AcDbCircle
 10
35.90485599663719
 20
18.79543241153581
 30
0.0
 40
1.777004559245695
100
AcDbArc
 50
188.9445521231068
 51
269.119287604093
  0
LINE
  5
253
330
1F
100
AcDbEntity
  8
IGES_LEVEL_0
 62
     7
100
AcDbLine
 10
35.87754214688022
 20
17.01863778153733
 30
0.0
 11
35.91501161833022
 21
17.01848344163733
 31
0.0
  0
LINE
  5
254
330
1F
100
AcDbEntity
  8
IGES_LEVEL_0
 62
     7
100
AcDbLine
 10
48.36847550317022
 20
18.33776476299733
 30
0.0
 11
48.36613276189022
 21
18.33702530896733
 31
0.0
  0
LINE
  5
255
330
1F
100
AcDbEntity
  8
IGES_LEVEL_0
 62
     7
100
AcDbLine
 10
48.36613276189022
 20
18.33702530896733
 30
0.0
 11
48.35992993568022
 21
18.33504939602733
 31
0.0
  0
ARC
  5
256
330
1F
100
AcDbEntity
  8
IGES_LEVEL_0
 62
     7
100
AcDbCircle
 10
48.54947005696169
 20
16.39249502046004
 30
0.0
 40
1.952819115150164
100
AcDbArc
 50
2.749863470348868
 51
87.20514603483562
  0
SPLINE
  5
257
330
1F
100
AcDbEntity
  8
IGES_LEVEL_0
 62
     7
100
AcDbSpline
210
0.0
220
0.0
230
1.0
 70
     8
 71
     3
 72
    15
 73
    11
 74
     0
 42
0.0000000001
 43
0.0000000001
 40
0.0
 40
0.0
 40
0.0
 40
0.0
 40
0.1096934004703
 40
0.2619591713867
 40
0.438996667307
 40
0.6197947016699
 40
0.7828657941697
 40
0.9089899359735
 40
0.9840423050654999
 40
1.0
 40
1.0
 40
1.0
 40
1.0
 10
32.88900107106022
 20
30.53448534024733
 30
0.0
 10
32.86748004071022
 20
30.52701576588733
 30
0.0
 10
32.81953076417022
 20
30.51106624381733
 30
0.0
 10
32.73333443640022
 20
30.49213397168733
 30
0.0
 10
32.63398321724022
 20
30.47356171809733
 30
0.0
 10
32.53098677583022
 20
30.45994212045733
 30
0.0
 10
32.43903305259022
 20
30.44796744133733
 30
0.0
 10
32.36401168231022
 20
30.45175376196733
 30
0.0
 10
32.32525734352022
 20
30.44240211150733
 30
0.0
 10
32.30381913779022
 20
30.45782778420733
 30
0.0
 10
32.30251662507022
 20
30.46054571245733
 30
0.0
  0
LINE
  5
258
330
1F
100
AcDbEntity
  8
IGES_LEVEL_0
 62
     7
100
AcDbLine
 10
48.46967483360022
 20
17.72583710033733
 30
0.0
 11
48.45993543729022
 21
17.72322807976733
 31
0.0
  0
ARC
  5
259
330
1F
100
AcDbEntity
  8
IGES_LEVEL_0
 62
     7
100
AcDbCircle
 10
48.38059500871911
 20
18.03457098353704
 30
0.0
 40
0.3212931797184647
100
AcDbArc
 50
273.3138962763505
 51
284.2965642439811
  0
ARC
  5
25A
330
1F
100
AcDbEntity
  8
IGES_LEVEL_0
 62
     7
100
AcDbCircle
 10
48.52956791136935
 20
18.03588461093575
 30
0.0
 40
0.3157794160374224
100
AcDbArc
 50
259.0666221816766
 51
270.6322152031145
  0
ARC
  5
25B
330
1F
100
AcDbEntity
  8
IGES_LEVEL_0
 62
     7
100
AcDbCircle
 10
17.14575306891021
 20
54.61556481573781
 30
0.0
 40
0.1875000246858185
100
AcDbArc
 50
0.0294009033049296
 51
179.9705990966951
  0
ARC
  5
25C
330
1F
100
AcDbEntity
  8
IGES_LEVEL_0
 62
     7
100
AcDbCircle
 10
17.14575306890522
 20
54.59537786266005
 30
0.0
 40
0.0575064317866516
100
AcDbArc
 50
10.7118959663847
 51
169.2881040336229
  0
ARC
  5
25D
330
1F
100
AcDbEntity
  8
IGES_LEVEL_0
 62
     7
100
AcDbCircle
 10
17.14575306891022
 20
54.61674305300335
 30
0.0
 40
0.0575000106753901
100
AcDbArc
 50
180.0349136781674
 51
359.9650863218326
  0
ARC
  5
25E
330
1F
100
AcDbEntity
  8
IGES_LEVEL_0
 62
     7
100
AcDbCircle
 10
17.14575306891021
 20
54.61490304199167
 30
0.0
 40
0.1875000349603251
100
AcDbArc
 50
180.0349884454891
 51
359.9650115545109
  0
ARC
  5
25F
330
1F
100
AcDbEntity
  8
IGES_LEVEL_0
 62
     7
100
AcDbCircle
 10
17.14575306891023
 20
54.61667297676132
 30
0.0
 40
0.0575000106753982
100
AcDbArc
 50
0.0349136681843071
 51
179.9650863318157
  0
ARC
  5
260
330
1F
100
AcDbEntity
  8
IGES_LEVEL_0
 62
     7
100
AcDbCircle
 10
18.32969113646022
 20
43.17666020211782
 30
0.0
 40
0.1875000246858078
100
AcDbArc
 50
0.0294009032984175
 51
179.9705990967016
  0
ARC
  5
261
330
1F
100
AcDbEntity
  8
IGES_LEVEL_0
 62
     7
100
AcDbCircle
 10
18.32969113645522
 20
43.15647324904005
 30
0.0
 40
0.0575064317866481
100
AcDbArc
 50
10.71189596637775
 51
169.2881040336223
  0
ARC
  5
262
330
1F
100
AcDbEntity
  8
IGES_LEVEL_0
 62
     7
100
AcDbCircle
 10
18.32969113646022
 20
43.17783843938334
 30
0.0
 40
0.0575000106753901
100
AcDbArc
 50
180.0349136781674
 51
359.9650863218326
  0
ARC
  5
263
330
1F
100
AcDbEntity
  8
IGES_LEVEL_0
 62
     7
100
AcDbCircle
 10
18.32969113646022
 20
43.17599842837167
 30
0.0
 40
0.187500034960318
100
AcDbArc
 50
180.0349884454891
 51
359.9650115545109
  0
ARC
  5
264
330
1F
100
AcDbEntity
  8
IGES_LEVEL_0
 62
     7
100
AcDbCircle
 10
18.32969113646022
 20
43.1777683631413
 30
0.0
 40
0.0575000106753841
100
AcDbArc
 50
0.0349136682055563
 51
179.9650863317945
  0
SPLINE
  5
265
330
1F
100
AcDbEntity
  8
IGES_LEVEL_0
 62
     7
100
AcDbSpline
210
0.0
220
0.0
230
1.0
 70
     8
 71
     3
 72
    32
 73
    28
 74
     0
 42
0.0000000001
 43
0.0000000001
 40
0.0
 40
0.0
 40
0.0
 40
0.0
 40
0.02233143812173
 40
0.0455605125134
 40
0.06935346600567
 40
0.09351200835789
 40
0.119201667014
 40
0.1485037854714
 40
0.1846982485659
 40
0.2311364066671
 40
0.2843191079859
 40
0.3410830608166
 40
0.400875932095
 40
0.462741556868
 40
0.525556663629
 40
0.5881230714013001
 40
0.649259550207
 40
0.7078924284856
 40
0.7631877999418
 40
0.8135191184264
 40
0.8536227936161001
 40
0.8852682036238
 40
0.9114692004214
 40
0.9348403655781
 40
0.9568765569156
 40
0.9785238719814
 40
1.0
 40
1.0
 40
1.0
 40
1.0
 10
17.59489318589022
 20
57.72638335391732
 30
0.0
 10
17.59383357762022
 20
57.72350545657732
 30
0.0
 10
17.59243709070022
 20
57.71732061299733
 30
0.0
 10
17.59283931796022
 20
57.70769831836732
 30
0.0
 10
17.59574502780022
 20
57.69825898497732
 30
0.0
 10
17.60087665974022
 20
57.68946207843732
 30
0.0
 10
17.60799469968022
 20
57.68119022932732
 30
0.0
 10
17.61736732952022
 20
57.67284764140732
 30
0.0
 10
17.62979536264022
 20
57.66377152170733
 30
0.0
 10
17.64563765640022
 20
57.65390279768732
 30
0.0
 10
17.66447965149022
 20
57.64357953168732
 30
0.0
 10
17.68539302707022
 20
57.63327082384733
 30
0.0
 10
17.70774665830022
 20
57.62322511920733
 30
0.0
 10
17.73117275877022
 20
57.61357067133732
 30
0.0
 10
17.75522848242022
 20
57.60447415178732
 30
0.0
 10
17.77944274190022
 20
57.59611013876732
 30
0.0
 10
17.80334891891022
 20
57.58864671406732
 30
0.0
 10
17.82652512890022
 20
57.58223609286733
 30
0.0
 10
17.84848569398022
 20
57.57705201106732
 30
0.0
 10
17.86816781895022
 20
57.57337373013733
 30
0.0
 10
17.88481460744022
 20
57.57128350665732
 30
0.0
 10
17.89826460422022
 20
57.57060870269732
 30
0.0
 10
17.90942828638022
 20
57.57112791149732
 30
0.0
 10
17.91914555666022
 20
57.57285541986732
 30
0.0
 10
17.92785813754022
 20
57.57600640250733
 30
0.0
 10
17.93552192733022
 20
57.58076065620733
 30
0.0
 10
17.93974214249022
 20
57.58501204409733
 30
0.0
 10
17.94154713267022
 20
57.58734451673733
 30
0.0
  0
LINE
  5
266
330
1F
100
AcDbEntity
  8
IGES_LEVEL_0
 62
     7
100
AcDbLine
 10
17.94154713267022
 20
57.58734451673733
 30
0.0
 11
17.94679841170022
 21
57.59681595042732
 31
0.0
  0
SPLINE
  5
267
330
1F
100
AcDbEntity
  8
IGES_LEVEL_0
 62
     7
100
AcDbSpline
210
0.0
220
0.0
230
1.0
 70
     8
 71
     3
 72
    23
 73
    19
 74
     0
 42
0.0000000001
 43
0.0000000001
 40
0.0
 40
0.0
 40
0.0
 40
0.0
 40
0.02256848671311
 40
0.05903132801563
 40
0.1105148563647
 40
0.1758698005997
 40
0.2529732684608
 40
0.3390939962203
 40
0.4310869317167
 40
0.5255510738348
 40
0.6189799397444
 40
0.7079110972868
 40
0.7890759658347
 40
0.8595530602819
 40
0.9169407316188
 40
0.9596198814212
 40
0.9874692870956
 40
1.0
 40
1.0
 40
1.0
 40
1.0
 10
17.70699851801022
 20
57.65433111523733
 30
0.0
 10
17.70754746134022
 20
57.65504047936732
 30
0.0
 10
17.70991123570022
 20
57.65598301968733
 30
0.0
 10
17.71424904209022
 20
57.65623178632733
 30
0.0
 10
17.72036599553022
 20
57.65578551921733
 30
0.0
 10
17.72796563523022
 20
57.65452170135733
 30
0.0
 10
17.73683231996022
 20
57.65251011613732
 30
0.0
 10
17.74660973925022
 20
57.64980272059732
 30
0.0
 10
17.75693141031022
 20
57.64650349842732
 30
0.0
 10
17.76739973379022
 20
57.64273512399733
 30
0.0
 10
17.77761517212022
 20
57.63864230815732
 30
0.0
 10
17.78718472414022
 20
57.63438163992733
 30
0.0
 10
17.79575249031022
 20
57.63012212079732
 30
0.0
 10
17.80297202950022
 20
57.62602023016732
 30
0.0
 10
17.80865556892022
 20
57.62226884815733
 30
0.0
 10
17.81245274607022
 20
57.61892917038733
 30
0.0
 10
17.81467078116022
 20
57.61635017678732
 30
0.0
 10
17.81474363217022
 20
57.61455033778732
 30
0.0
 10
17.81459458925022
 20
57.61406940424732
 30
0.0
  0
SPLINE
  5
268
330
1F
100
AcDbEntity
  8
IGES_LEVEL_0
 62
     7
100
AcDbSpline
210
0.0
220
0.0
230
1.0
 70
     8
 71
     3
 72
    15
 73
    11
 74
     0
 42
0.0000000001
 43
0.0000000001
 40
0.0
 40
0.0
 40
0.0
 40
0.0
 40
0.03150068122422
 40
0.1000601095123
 40
0.1996554053154
 40
0.3332279067811
 40
0.4998521147342
 40
0.6968385332679
 40
0.9204022287561
 40
1.0
 40
1.0
 40
1.0
 40
1.0
 10
17.95524897496022
 20
57.61989985265733
 30
0.0
 10
17.95559719090022
 20
57.62091890763733
 30
0.0
 10
17.95598455991022
 20
57.62447286747732
 30
0.0
 10
17.95267808219022
 20
57.63058429914732
 30
0.0
 10
17.94593760144022
 20
57.63805402885733
 30
0.0
 10
17.93555851531022
 20
57.64657411871733
 30
0.0
 10
17.92183911670022
 20
57.65596005312732
 30
0.0
 10
17.90496589796022
 20
57.66602120428733
 30
0.0
 10
17.89021566041022
 20
57.67390542067732
 30
0.0
 10
17.88116165519022
 20
57.67846257744732
 30
0.0
 10
17.87877731565022
 20
57.67964477154732
 30
0.0
  0
ARC
  5
269
330
1F
100
AcDbEntity
  8
IGES_LEVEL_0
 62
     7
100
AcDbCircle
 10
17.46671555163933
 20
56.83385512003611
 30
0.0
 40
0.940826781061867
100
AcDbArc
 50
64.02503691491948
 51
76.42938347933099
  0
SPLINE
  5
26A
330
1F
100
AcDbEntity
  8
IGES_LEVEL_0
 62
     7
100
AcDbSpline
210
0.0
220
0.0
230
1.0
 70
     8
 71
     3
 72
    13
 73
     9
 74
     0
 42
0.0000000001
 43
0.0000000001
 40
0.0
 40
0.0
 40
0.0
 40
0.0
 40
0.2568512780928
 40
0.4812746660808
 40
0.6690623746433
 40
0.8174184486947
 40
0.9259518485874
 40
1.0
 40
1.0
 40
1.0
 40
1.0
 10
17.68747455637022
 20
57.74841539349733
 30
0.0
 10
17.68037024718022
 20
57.75003305463732
 30
0.0
 10
17.66700100188022
 20
57.75281434556732
 30
0.0
 10
17.64823848541022
 20
57.75574855926733
 30
0.0
 10
17.63239291321022
 20
57.75717246255732
 30
0.0
 10
17.61972691532022
 20
57.75702026200732
 30
0.0
 10
17.61046554449022
 20
57.75549656471733
 30
0.0
 10
17.60565141111022
 20
57.75286463564732
 30
0.0
 10
17.60436595277022
 20
57.75120352057732
 30
0.0
  0
LINE
  5
26B
330
1F
100
AcDbEntity
  8
IGES_LEVEL_0
 62
     7
100
AcDbLine
 10
17.60342509342022
 20
57.74942386307733
 30
0.0
 11
17.60436595277022
 21
57.75120352057732
 31
0.0
  0
SPLINE
  5
26C
330
1F
100
AcDbEntity
  8
IGES_LEVEL_0
 62
     7
100
AcDbSpline
210
0.0
220
0.0
230
1.0
 70
     8
 71
     3
 72
    23
 73
    19
 74
     0
 42
0.0000000001
 43
0.0000000001
 40
0.0
 40
0.0
 40
0.0
 40
0.0
 40
0.02256848671311
 40
0.05903132801564
 40
0.1105148563647
 40
0.1758698005997
 40
0.2529732684608
 40
0.3390939962203
 40
0.4310869317168
 40
0.5255510738349
 40
0.6189799397445001
 40
0.7079110972868
 40
0.7890759658348
 40
0.859553060282
 40
0.9169407316188
 40
0.9596198814212
 40
0.9874692870956
 40
1.0
 40
1.0
 40
1.0
 40
1.0
 10
17.81431411462022
 20
57.61351889543732
 30
0.0
 10
17.81376517129022
 20
57.61280953130732
 30
0.0
 10
17.81140139693022
 20
57.61186699098732
 30
0.0
 10
17.80706359054022
 20
57.61161822433732
 30
0.0
 10
17.80094663710022
 20
57.61206449145733
 30
0.0
 10
17.79334699740022
 20
57.61332830931733
 30
0.0
 10
17.78448031267022
 20
57.61533989453732
 30
0.0
 10
17.77470289338022
 20
57.61804729006732
 30
0.0
 10
17.76438122232022
 20
57.62134651224732
 30
0.0
 10
17.75391289884022
 20
57.62511488667732
 30
0.0
 10
17.74369746051022
 20
57.62920770251732
 30
0.0
 10
17.73412790849022
 20
57.63346837074732
 30
0.0
 10
17.72556014232022
 20
57.63772788987733
 30
0.0
 10
17.71834060313022
 20
57.64182978050732
 30
0.0
 10
17.71265706371022
 20
57.64558116250733
 30
0.0
 10
17.70885988656022
 20
57.64892084028733
 30
0.0
 10
17.70664185147022
 20
57.65149983388732
 30
0.0
 10
17.70656900046022
 20
57.65329967288732
 30
0.0
 10
17.70671804338022
 20
57.65378060642733
 30
0.0
  0
SPLINE
  5
26D
330
1F
100
AcDbEntity
  8
IGES_LEVEL_0
 62
     7
100
AcDbSpline
210
0.0
220
0.0
230
1.0
 70
     8
 71
     3
 72
    32
 73
    28
 74
     0
 42
0.0000000001
 43
0.0000000001
 40
0.0
 40
0.0
 40
0.0
 40
0.0
 40
0.02233143812173
 40
0.0455605125134
 40
0.06935346600567
 40
0.09351200835789
 40
0.119201667014
 40
0.1485037854714
 40
0.1846982485659
 40
0.2311364066671
 40
0.2843191079859
 40
0.3410830608166
 40
0.400875932095
 40
0.462741556868
 40
0.525556663629
 40
0.5881230714013001
 40
0.649259550207
 40
0.7078924284856
 40
0.7631877999418
 40
0.8135191184264
 40
0.8536227936161001
 40
0.8852682036238
 40
0.9114692004214
 40
0.9348403655781
 40
0.9568765569156
 40
0.9785238719814
 40
1.0
 40
1.0
 40
1.0
 40
1.0
 10
18.13728063897022
 20
58.46400077005733
 30
0.0
 10
18.13622103070022
 20
58.46112287271733
 30
0.0
 10
18.13482454378022
 20
58.45493802913732
 30
0.0
 10
18.13522677104022
 20
58.44531573450733
 30
0.0
 10
18.13813248088022
 20
58.43587640111733
 30
0.0
 10
18.14326411282022
 20
58.42707949457732
 30
0.0
 10
18.15038215276022
 20
58.41880764547732
 30
0.0
 10
18.15975478260022
 20
58.41046505755733
 30
0.0
 10
18.17218281572022
 20
58.40138893784732
 30
0.0
 10
18.18802510948022
 20
58.39152021382732
 30
0.0
 10
18.20686710457022
 20
58.38119694782733
 30
0.0
 10
18.22778048016022
 20
58.37088823998732
 30
0.0
 10
18.25013411138022
 20
58.36084253534732
 30
0.0
 10
18.27356021185022
 20
58.35118808747733
 30
0.0
 10
18.29761593550022
 20
58.34209156792733
 30
0.0
 10
18.32183019498022
 20
58.33372755491732
 30
0.0
 10
18.34573637199022
 20
58.32626413020732
 30
0.0
 10
18.36891258198022
 20
58.31985350900732
 30
0.0
 10
18.39087314706022
 20
58.31466942720732
 30
0.0
 10
18.41055527203022
 20
58.31099114627732
 30
0.0
 10
18.42720206052022
 20
58.30890092279732
 30
0.0
 10
18.44065205730022
 20
58.30822611883733
 30
0.0
 10
18.45181573946022
 20
58.30874532763733
 30
0.0
 10
18.46153300974022
 20
58.31047283601733
 30
0.0
 10
18.47024559062022
 20
58.31362381864732
 30
0.0
 10
18.47790938041022
 20
58.31837807234732
 30
0.0
 10
18.48212959557022
 20
58.32262946024732
 30
0.0
 10
18.48393458575022
 20
58.32496193287732
 30
0.0
  0
LINE
  5
26E
330
1F
100
AcDbEntity
  8
IGES_LEVEL_0
 62
     7
100
AcDbLine
 10
18.48393458575022
 20
58.32496193287732
 30
0.0
 11
18.48918586478022
 21
58.33443336657732
 31
0.0
  0
SPLINE
  5
26F
330
1F
100
AcDbEntity
  8
IGES_LEVEL_0
 62
     7
100
AcDbSpline
210
0.0
220
0.0
230
1.0
 70
     8
 71
     3
 72
    23
 73
    19
 74
     0
 42
0.0000000001
 43
0.0000000001
 40
0.0
 40
0.0
 40
0.0
 40
0.0
 40
0.02256848671311
 40
0.05903132801563
 40
0.1105148563647
 40
0.1758698005997
 40
0.2529732684608
 40
0.3390939962203
 40
0.4310869317168
 40
0.5255510738348
 40
0.6189799397444
 40
0.7079110972868
 40
0.7890759658348
 40
0.8595530602819
 40
0.9169407316188
 40
0.9596198814212
 40
0.9874692870956
 40
1.0
 40
1.0
 40
1.0
 40
1.0
 10
18.24938597109022
 20
58.39194853137732
 30
0.0
 10
18.24993491442022
 20
58.39265789550733
 30
0.0
 10
18.25229868878022
 20
58.39360043582732
 30
0.0
 10
18.25663649517022
 20
58.39384920247733
 30
0.0
 10
18.26275344861022
 20
58.39340293535732
 30
0.0
 10
18.27035308831022
 20
58.39213911749732
 30
0.0
 10
18.27921977304022
 20
58.39012753227733
 30
0.0
 10
18.28899719233022
 20
58.38742013674732
 30
0.0
 10
18.29931886339022
 20
58.38412091456733
 30
0.0
 10
18.30978718687022
 20
58.38035254013732
 30
0.0
 10
18.32000262520022
 20
58.37625972430732
 30
0.0
 10
18.32957217722022
 20
58.37199905606732
 30
0.0
 10
18.33813994339022
 20
58.36773953694733
 30
0.0
 10
18.34535948258022
 20
58.36363764631732
 30
0.0
 10
18.35104302200022
 20
58.35988626430732
 30
0.0
 10
18.35484019915022
 20
58.35654658652732
 30
0.0
 10
18.35705823424022
 20
58.35396759292733
 30
0.0
 10
18.35713108525022
 20
58.35216775392733
 30
0.0
 10
18.35698204233022
 20
58.35168682038732
 30
0.0
  0
SPLINE
  5
270
330
1F
100
AcDbEntity
  8
IGES_LEVEL_0
 62
     7
100
AcDbSpline
210
0.0
220
0.0
230
1.0
 70
     8
 71
     3
 72
    15
 73
    11
 74
     0
 42
0.0000000001
 43
0.0000000001
 40
0.0
 40
0.0
 40
0.0
 40
0.0
 40
0.03150068122407
 40
0.1000601095122
 40
0.1996554053154
 40
0.333227906781
 40
0.4998521147342
 40
0.6968385332678
 40
0.9204022287561
 40
1.0
 40
1.0
 40
1.0
 40
1.0
 10
18.49763642805022
 20
58.35751726880732
 30
0.0
 10
18.49798464398022
 20
58.35853632377732
 30
0.0
 10
18.49837201299022
 20
58.36209028361732
 30
0.0
 10
18.49506553527022
 20
58.36820171528732
 30
0.0
 10
18.48832505452022
 20
58.37567144500732
 30
0.0
 10
18.47794596839022
 20
58.38419153485732
 30
0.0
 10
18.46422656978022
 20
58.39357746926732
 30
0.0
 10
18.44735335104022
 20
58.40363862042732
 30
0.0
 10
18.43260311349022
 20
58.41152283681733
 30
0.0
 10
18.42354910827022
 20
58.41607999358732
 30
0.0
 10
18.42116476873022
 20
58.41726218768732
 30
0.0
  0
LINE
  5
271
330
1F
100
AcDbEntity
  8
IGES_LEVEL_0
 62
     7
100
AcDbLine
 10
18.42116476873022
 20
58.41726218768732
 30
0.0
 11
18.37381801121022
 21
58.43876773971732
 31
0.0
  0
ARC
  5
272
330
1F
100
AcDbEntity
  8
IGES_LEVEL_0
 62
     7
100
AcDbCircle
 10
18.01300216323425
 20
57.58268208754087
 30
0.0
 40
0.9290159955635791
100
AcDbArc
 50
67.14595532463228
 51
76.50092797871226
  0
LINE
  5
273
330
1F
100
AcDbEntity
  8
IGES_LEVEL_0
 62
     7
100
AcDbLine
 10
18.22986200945022
 20
58.48603280963732
 30
0.0
 11
18.18392106950022
 21
58.49391208976732
 31
0.0
  0
SPLINE
  5
274
330
1F
100
AcDbEntity
  8
IGES_LEVEL_0
 62
     7
100
AcDbSpline
210
0.0
220
0.0
230
1.0
 70
     8
 71
     3
 72
    11
 73
     7
 74
     0
 42
0.0000000001
 43
0.0000000001
 40
0.0
 40
0.0
 40
0.0
 40
0.0
 40
0.2677462730081
 40
0.5960083980200001
 40
0.8361563306974
 40
1.0
 40
1.0
 40
1.0
 40
1.0
 10
18.18392106950022
 20
58.49391208976732
 30
0.0
 10
18.18050385682022
 20
58.49423705862732
 30
0.0
 10
18.17287819280022
 20
58.49476702129732
 30
0.0
 10
18.16211436840022
 20
58.49463767814732
 30
0.0
 10
18.15285299757022
 20
58.49311398085732
 30
0.0
 10
18.14803886419022
 20
58.49048205178733
 30
0.0
 10
18.14675340585022
 20
58.48882093671733
 30
0.0
  0
LINE
  5
275
330
1F
100
AcDbEntity
  8
IGES_LEVEL_0
 62
     7
100
AcDbLine
 10
18.14581254650022
 20
58.48704127921732
 30
0.0
 11
18.14675340585022
 21
58.48882093671733
 31
0.0
  0
SPLINE
  5
276
330
1F
100
AcDbEntity
  8
IGES_LEVEL_0
 62
     7
100
AcDbSpline
210
0.0
220
0.0
230
1.0
 70
     8
 71
     3
 72
    23
 73
    19
 74
     0
 42
0.0000000001
 43
0.0000000001
 40
0.0
 40
0.0
 40
0.0
 40
0.0
 40
0.02256848671311
 40
0.05903132801563
 40
0.1105148563647
 40
0.1758698005997
 40
0.2529732684608
 40
0.3390939962203
 40
0.4310869317167
 40
0.5255510738348
 40
0.6189799397444
 40
0.7079110972868
 40
0.7890759658347
 40
0.8595530602819
 40
0.9169407316188
 40
0.9596198814211
 40
0.9874692870956
 40
1.0
 40
1.0
 40
1.0
 40
1.0
 10
18.35670156770022
 20
58.35113631158733
 30
0.0
 10
18.35615262437022
 20
58.35042694744733
 30
0.0
 10
18.35378885001022
 20
58.34948440712732
 30
0.0
 10
18.34945104362022
 20
58.34923564048732
 30
0.0
 10
18.34333409018022
 20
58.34968190759732
 30
0.0
 10
18.33573445048022
 20
58.35094572545732
 30
0.0
 10
18.32686776575022
 20
58.35295731067733
 30
0.0
 10
18.31709034646022
 20
58.35566470621733
 30
0.0
 10
18.30676867540022
 20
58.35896392838733
 30
0.0
 10
18.29630035192022
 20
58.36273230281732
 30
0.0
 10
18.28608491359022
 20
58.36682511865732
 30
0.0
 10
18.27651536157022
 20
58.37108578689733
 30
0.0
 10
18.26794759540022
 20
58.37534530601732
 30
0.0
 10
18.26072805621022
 20
58.37944719664733
 30
0.0
 10
18.25504451679022
 20
58.38319857865732
 30
0.0
 10
18.25124733964022
 20
58.38653825642732
 30
0.0
 10
18.24902930455022
 20
58.38911725002733
 30
0.0
 10
18.24895645354022
 20
58.39091708902733
 30
0.0
 10
18.24910549646022
 20
58.39139802256732
 30
0.0
  0
LINE
  5
277
330
1F
100
AcDbEntity
  8
IGES_LEVEL_0
 62
     7
100
AcDbLine
 10
18.95676137439022
 20
40.46373884227732
 30
0.0
 11
18.95548329502022
 21
40.42845914871732
 31
0.0
  0
LINE
  5
278
330
1F
100
AcDbEntity
  8
IGES_LEVEL_0
 62
     7
100
AcDbLine
 10
18.95671193250022
 20
40.46357021113732
 30
0.0
 11
18.95566346876022
 21
40.44326563938732
 31
0.0
  0
LINE
  5
279
330
1F
100
AcDbEntity
  8
IGES_LEVEL_0
 62
     7
100
AcDbLine
 10
18.95566346876022
 20
40.44326563938732
 30
0.0
 11
18.95543177607022
 21
40.42831926594732
 31
0.0
  0
ARC
  5
27A
330
1F
100
AcDbEntity
  8
IGES_LEVEL_0
 62
     7
100
AcDbCircle
 10
19.44362719429092
 20
40.43078785632049
 30
0.0
 40
0.4856922111720509
100
AcDbArc
 50
359.9804088106249
 51
96.21550608214699
  0
ARC
  5
27B
330
1F
100
AcDbEntity
  8
IGES_LEVEL_0
 62
     7
100
AcDbCircle
 10
19.38678604592711
 20
40.4832705755319
 30
0.0
 40
0.3204541524956873
100
AcDbArc
 50
229.3306667311439
 51
0.0321893521649245
  0
LINE
  5
27C
330
1F
100
AcDbEntity
  8
IGES_LEVEL_0
 62
     7
100
AcDbLine
 10
19.17794846851022
 20
40.24021146726732
 30
0.0
 11
19.16490408912022
 21
40.25211362069732
 31
0.0
  0
ARC
  5
27D
330
1F
100
AcDbEntity
  8
IGES_LEVEL_0
 62
     7
100
AcDbCircle
 10
19.44237662727138
 20
40.42943808841224
 30
0.0
 40
0.4869451622190212
100
AcDbArc
 50
180.1316799065477
 51
0.1392442212088139
  0
ARC
  5
27E
330
1F
100
AcDbEntity
  8
IGES_LEVEL_0
 62
     7
100
AcDbCircle
 10
19.38764840991115
 20
40.48315202801221
 30
0.0
 40
0.3196977174399619
100
AcDbArc
 50
27.35480338571302
 51
45.9767408061761
  0
ARC
  5
27F
330
1F
100
AcDbEntity
  8
IGES_LEVEL_0
 62
     7
100
AcDbCircle
 10
19.38742031089548
 20
40.48332733925006
 30
0.0
 40
0.3198198607113332
100
AcDbArc
 50
0.022083962215852
 51
27.30813136934543
  0
ARC
  5
280
330
1F
100
AcDbEntity
  8
IGES_LEVEL_0
 62
     7
100
AcDbCircle
 10
19.39117334233873
 20
40.481006280486
 30
0.0
 40
0.3941324962060223
100
AcDbArc
 50
359.9866276426233
 51
36.97783674151055
  0
ARC
  5
281
330
1F
100
AcDbEntity
  8
IGES_LEVEL_0
 62
     7
100
AcDbCircle
 10
19.39145587001534
 20
40.48111759270913
 30
0.0
 40
0.3938398471745203
100
AcDbArc
 50
36.98962327621644
 51
83.89875926910878
  0
ARC
  5
282
330
1F
100
AcDbEntity
  8
IGES_LEVEL_0
 62
     7
100
AcDbCircle
 10
19.44350674119648
 20
40.43133459879841
 30
0.0
 40
0.4850913997947542
100
AcDbArc
 50
359.9755740398483
 51
96.19603734755796
  0
LINE
  5
283
330
1F
100
AcDbEntity
  8
IGES_LEVEL_0
 62
     7
100
AcDbLine
 10
19.16914599271022
 20
40.25869606546733
 30
0.0
 11
19.19048138662022
 21
40.22999184924733
 31
0.0
  0
ARC
  5
284
330
1F
100
AcDbEntity
  8
IGES_LEVEL_0
 62
     7
100
AcDbCircle
 10
19.38800398161327
 20
40.48296581026634
 30
0.0
 40
0.3195847460904569
100
AcDbArc
 50
46.04578027422949
 51
58.43798170309779
  0
LINE
  5
285
330
1F
100
AcDbEntity
  8
IGES_LEVEL_0
 62
     7
100
AcDbLine
 10
19.63308947099022
 20
40.68804877687732
 30
0.0
 11
19.62179383981022
 21
40.69643998466732
 31
0.0
  0
LINE
  5
286
330
1F
100
AcDbEntity
  8
IGES_LEVEL_0
 62
     7
100
AcDbLine
 10
19.62179383981022
 20
40.69643998466732
 30
0.0
 11
19.60415832603022
 21
40.70809556343733
 31
0.0
  0
ARC
  5
287
330
1F
100
AcDbEntity
  8
IGES_LEVEL_0
 62
     7
100
AcDbCircle
 10
19.38631894897206
 20
40.48134753295233
 30
0.0
 40
0.3187047641484912
100
AcDbArc
 50
213.406568415522
 51
225.9940196942023
  0
ARC
  5
288
330
1F
100
AcDbEntity
  8
IGES_LEVEL_0
 62
     7
100
AcDbCircle
 10
1.135040432945957
 20
40.43133105255406
 30
0.0
 40
0.4850932583987813
100
AcDbArc
 50
83.77837087111061
 51
180.3392109195824
  0
ARC
  5
289
330
1F
100
AcDbEntity
  8
IGES_LEVEL_0
 62
     7
100
AcDbCircle
 10
1.134918627041694
 20
40.43078756345271
 30
0.0
 40
0.4856921743401871
100
AcDbArc
 50
83.77907474465241
 51
180.3346143161191
  0
LINE
  5
28A
330
1F
100
AcDbEntity
  8
IGES_LEVEL_0
 62
     7
100
AcDbLine
 10
1.623108285055221
 20
40.43098997508732
 30
0.0
 11
1.62287372924922
 21
40.44360701313732
 31
0.0
  0
LINE
  5
28B
330
1F
100
AcDbEntity
  8
IGES_LEVEL_0
 62
     7
100
AcDbLine
 10
1.62287372924922
 20
40.44360701313732
 30
0.0
 11
1.62183608082022
 21
40.46356861902732
 31
0.0
  0
ARC
  5
28C
330
1F
100
AcDbEntity
  8
IGES_LEVEL_0
 62
     7
100
AcDbCircle
 10
1.190404150424622
 20
40.48351309101616
 30
0.0
 40
0.3190967907860353
100
AcDbArc
 50
136.5918679787899
 51
180.3262431022709
  0
LINE
  5
28D
330
1F
100
AcDbEntity
  8
IGES_LEVEL_0
 62
     7
100
AcDbLine
 10
0.9585876248922206
 20
40.70279341475732
 30
0.0
 11
0.9687258754412204
 21
40.71303287754732
 31
0.0
  0
ARC
  5
28E
330
1F
100
AcDbEntity
  8
IGES_LEVEL_0
 62
     7
100
AcDbCircle
 10
1.136172630789026
 20
40.42942610441779
 30
0.0
 40
0.4869391473300988
100
AcDbArc
 50
180.1735949573956
 51
0.1839790535971444
  0
ARC
  5
28F
330
1F
100
AcDbEntity
  8
IGES_LEVEL_0
 62
     7
100
AcDbCircle
 10
1.191545286704983
 20
40.48253801284219
 30
0.0
 40
0.3200359216727385
100
AcDbArc
 50
294.764117863868
 51
313.9459688656617
  0
ARC
  5
290
330
1F
100
AcDbEntity
  8
IGES_LEVEL_0
 62
     7
100
AcDbCircle
 10
1.192002626372732
 20
40.48347371467898
 30
0.0
 40
0.3206950202771797
100
AcDbArc
 50
180.3175820688002
 51
294.6198964815429
  0
ARC
  5
291
330
1F
100
AcDbEntity
  8
IGES_LEVEL_0
 62
     7
100
AcDbCircle
 10
1.187093135599801
 20
40.4811189533715
 30
0.0
 40
0.3938382172910896
100
AcDbArc
 50
96.11173865663433
 51
143.321484577142
  0
ARC
  5
292
330
1F
100
AcDbEntity
  8
IGES_LEVEL_0
 62
     7
100
AcDbCircle
 10
1.187369563239923
 20
40.48100866217256
 30
0.0
 40
0.3941257992576482
100
AcDbArc
 50
143.3326294808554
 51
180.3287529961374
  0
LINE
  5
293
330
1F
100
AcDbEntity
  8
IGES_LEVEL_0
 62
     7
100
AcDbLine
 10
1.623056425856221
 20
40.43112779782732
 30
0.0
 11
1.621777067868221
 21
40.46383217125732
 31
0.0
  0
LINE
  5
294
330
1F
100
AcDbEntity
  8
IGES_LEVEL_0
 62
     7
100
AcDbLine
 10
0.9745496801472203
 20
40.70819431399733
 30
0.0
 11
0.9456165475922206
 21
40.68817060188732
 31
0.0
  0
ARC
  5
295
330
1F
100
AcDbEntity
  8
IGES_LEVEL_0
 62
     7
100
AcDbCircle
 10
1.192381622950313
 20
40.48122219457731
 30
0.0
 40
0.3185082911267651
100
AcDbArc
 50
314.001912857882
 51
326.5395166566797
  0
LINE
  5
296
330
1F
100
AcDbEntity
  8
IGES_LEVEL_0
 62
     7
100
AcDbLine
 10
1.394827381040221
 20
40.23838113093732
 30
0.0
 11
1.40922543332622
 21
40.25842878144732
 31
0.0
  0
ARC
  5
297
330
1F
100
AcDbEntity
  8
IGES_LEVEL_0
 62
     7
100
AcDbCircle
 10
1.190628290608583
 20
40.48286345767195
 30
0.0
 40
0.3197165052087103
100
AcDbArc
 50
121.5315900916269
 51
133.9523530261918
  0
SPLINE
  5
298
330
1F
100
AcDbEntity
  8
IGES_LEVEL_0
 62
     7
100
AcDbSpline
210
0.0
220
0.0
230
1.0
 70
     8
 71
     3
 72
    17
 73
    13
 74
     0
 42
0.0000000001
 43
0.0000000001
 40
0.0
 40
0.0
 40
0.0
 40
0.0
 40
0.1056481919191
 40
0.2111971180022
 40
0.3163154666184
 40
0.4207202342532
 40
0.5242097215621
 40
0.6266888580304
 40
0.7281834578305
 40
0.8288404840415
 40
0.9289126826532
 40
1.0
 40
1.0
 40
1.0
 40
1.0
 10
20.02319994267022
 20
60.86360355794732
 30
0.0
 10
20.04181902489022
 20
60.86334271078732
 30
0.0
 10
20.07906883538022
 20
60.85973705402732
 30
0.0
 10
20.13316133427022
 20
60.84527136604732
 30
0.0
 10
20.18394949995022
 20
60.82217656886732
 30
0.0
 10
20.22987863294022
 20
60.79114203531732
 30
0.0
 10
20.26955997015022
 20
60.75309509852733
 30
0.0
 10
20.30177992191022
 20
60.70917681687732
 30
0.0
 10
20.32554613364022
 20
60.66071133264732
 30
0.0
 10
20.34011847873022
 20
60.60916932619733
 30
0.0
 10
20.34456710739022
 20
60.56119529546732
 30
0.0
 10
20.34257705725022
 20
60.53098451762732
 30
0.0
 10
20.34093270496022
 20
60.51854548031732
 30
0.0
  0
ARC
  5
299
330
1F
100
AcDbEntity
  8
IGES_LEVEL_0
 62
     7
100
AcDbCircle
 10
20.37669677183363
 20
61.30068332686236
 30
0.0
 40
0.0932319450462212
100
AcDbArc
 50
44.15264154389215
 51
108.250620439188
  0
LINE
  5
29A
330
1F
100
AcDbEntity
  8
IGES_LEVEL_0
 62
     7
100
AcDbLine
 10
20.34749894224022
 20
61.38922530743732
 30
0.0
 11
20.34622309206022
 21
61.38884970474732
 31
0.0
  0
ARC
  5
29B
330
1F
100
AcDbEntity
  8
IGES_LEVEL_0
 62
     7
100
AcDbCircle
 10
20.08197141682396
 20
62.09503386054179
 30
0.0
 40
0.7543842535327172
100
AcDbArc
 50
249.5473320886486
 51
269.4281676993673
  0
LINE
  5
29C
330
1F
100
AcDbEntity
  8
IGES_LEVEL_0
 62
     7
100
AcDbLine
 10
19.81836430471022
 20
61.38820510304733
 30
0.0
 11
19.80317347959022
 21
61.39418095288733
 31
0.0
  0
LINE
  5
29D
330
1F
100
AcDbEntity
  8
IGES_LEVEL_0
 62
     7
100
AcDbLine
 10
20.33796681425022
 20
61.38600887140732
 30
0.0
 11
20.32231447159022
 21
61.38007138546733
 31
0.0
  0
ARC
  5
29E
330
1F
100
AcDbEntity
  8
IGES_LEVEL_0
 62
     7
100
AcDbCircle
 10
20.09004781387376
 20
62.04217440800005
 30
0.0
 40
0.7016610383466834
100
AcDbArc
 50
268.725611013581
 51
289.3309411275311
  0
ARC
  5
29F
330
1F
100
AcDbEntity
  8
IGES_LEVEL_0
 62
     7
100
AcDbCircle
 10
20.37474560187033
 20
61.29299724169236
 30
0.0
 40
0.1000682968689461
100
AcDbArc
 50
29.58415156562527
 51
46.49828388154288
  0
LINE
  5
2A0
330
1F
100
AcDbEntity
  8
IGES_LEVEL_0
 62
     7
100
AcDbLine
 10
20.33795924086022
 20
61.38600447690732
 30
0.0
 11
20.34587568378022
 21
61.38876468196732
 31
0.0
  0
ARC
  5
2A1
330
1F
100
AcDbEntity
  8
IGES_LEVEL_0
 62
     7
100
AcDbCircle
 10
19.65619987946039
 20
60.9054497929009
 30
0.0
 40
0.9164439608237729
100
AcDbArc
 50
0.3071193894888394
 51
28.47416476238323
  0
LINE
  5
2A2
330
1F
100
AcDbEntity
  8
IGES_LEVEL_0
 62
     7
100
AcDbLine
 10
20.57262163643022
 20
60.88158990949732
 30
0.0
 11
20.57263099537022
 21
60.91035819812733
 31
0.0
  0
ARC
  5
2A3
330
1F
100
AcDbEntity
  8
IGES_LEVEL_0
 62
     7
100
AcDbCircle
 10
20.05809087875722
 20
60.89815200800157
 30
0.0
 40
0.5147951675940947
100
AcDbArc
 50
332.2229004561351
 51
357.9571532123345
  0
LINE
  5
2A4
330
1F
100
AcDbEntity
  8
IGES_LEVEL_0
 62
     7
100
AcDbLine
 10
20.57255886783022
 20
60.87980118247732
 30
0.0
 11
20.57261988533022
 21
60.88156465284732
 31
0.0
  0
LINE
  5
2A5
330
1F
100
AcDbEntity
  8
IGES_LEVEL_0
 62
     7
100
AcDbLine
 10
19.56099934051022
 20
60.89478794762732
 30
0.0
 11
19.56101165088022
 21
60.89400594740732
 31
0.0
  0
ARC
  5
2A6
330
1F
100
AcDbEntity
  8
IGES_LEVEL_0
 62
     7
100
AcDbCircle
 10
20.0792855280792
 20
60.90253542149608
 30
0.0
 40
0.5183440592069103
100
AcDbArc
 50
180.9428581566561
 51
192.7229732419608
  0
LINE
  5
2A7
330
1F
100
AcDbEntity
  8
IGES_LEVEL_0
 62
     7
100
AcDbLine
 10
19.56150473719022
 20
60.92342560605732
 30
0.0
 11
19.56139090203022
 21
60.91962214559732
 31
0.0
  0
LINE
  5
2A8
330
1F
100
AcDbEntity
  8
IGES_LEVEL_0
 62
     7
100
AcDbLine
 10
19.56139090203022
 20
60.91962214559732
 30
0.0
 11
19.56099859994022
 21
60.89481384307732
 31
0.0
  0
LINE
  5
2A9
330
1F
100
AcDbEntity
  8
IGES_LEVEL_0
 62
     7
100
AcDbLine
 10
19.67939323393022
 20
61.35254142158733
 30
0.0
 11
19.67706913135022
 21
61.34858790164732
 31
0.0
  0
ARC
  5
2AA
330
1F
100
AcDbEntity
  8
IGES_LEVEL_0
 62
     7
100
AcDbCircle
 10
20.47372523264107
 20
60.90376018590015
 30
0.0
 40
0.9124322662098151
100
AcDbArc
 50
150.8223825154889
 51
178.7648790954999
  0
LINE
  5
2AB
330
1F
100
AcDbEntity
  8
IGES_LEVEL_0
 62
     7
100
AcDbLine
 10
19.79377284270022
 20
61.39747645326732
 30
0.0
 11
19.80315403715022
 21
61.39418724085732
 31
0.0
  0
LINE
  5
2AC
330
1F
100
AcDbEntity
  8
IGES_LEVEL_0
 62
     7
100
AcDbLine
 10
19.67940528685022
 20
61.35256162672732
 30
0.0
 11
19.69287597657022
 21
61.37039311887732
 31
0.0
  0
SPLINE
  5
2AD
330
1F
100
AcDbEntity
  8
IGES_LEVEL_0
 62
     7
100
AcDbSpline
210
0.0
220
0.0
230
1.0
 70
     8
 71
     3
 72
    16
 73
    12
 74
     0
 42
0.0000000001
 43
0.0000000001
 40
0.0
 40
0.0
 40
0.0
 40
0.0
 40
0.03381602532119
 40
0.1514326409117
 40
0.2695823396858
 40
0.3886054895737
 40
0.5087310843072
 40
0.6300508945066
 40
0.7525120962032
 40
0.8759274365274
 40
1.0
 40
1.0
 40
1.0
 40
1.0
 10
19.70546718037022
 20
60.60258422860732
 30
0.0
 10
19.70613170506022
 20
60.60761116077732
 30
0.0
 10
19.70970565965022
 20
60.63004319315732
 30
0.0
 10
19.72081593320022
 20
60.66908917968733
 30
0.0
 10
19.74458611450022
 20
60.71693093766732
 30
0.0
 10
19.77682792710022
 20
60.75998740407732
 30
0.0
 10
19.81654391657022
 20
60.79695284877732
 30
0.0
 10
19.86251233724022
 20
60.82671514126732
 30
0.0
 10
19.91333573695022
 20
60.84838549135733
 30
0.0
 10
19.96745252531022
 20
60.86132145456732
 30
0.0
 10
20.00462370429022
 20
60.86386380486732
 30
0.0
 10
20.02319994267022
 20
60.86360355794732
 30
0.0
  0
ARC
  5
2AE
330
1F
100
AcDbEntity
  8
IGES_LEVEL_0
 62
     7
100
AcDbCircle
 10
19.76314607684112
 20
61.31008400002272
 30
0.0
 40
0.0925792448096121
100
AcDbArc
 50
70.78336634932461
 51
139.2897506928798
  0
ARC
  5
2AF
330
1F
100
AcDbEntity
  8
IGES_LEVEL_0
 62
     7
100
AcDbCircle
 10
20.00212703218786
 20
60.58730581461324
 30
0.0
 40
0.3733266474663288
100
AcDbArc
 50
192.8479096598955
 51
211.9400538409911
  0
ARC
  5
2B0
330
1F
100
AcDbEntity
  8
IGES_LEVEL_0
 62
     7
100
AcDbCircle
 10
20.05049702227011
 20
60.58091242977732
 30
0.0
 40
0.373326296643741
100
AcDbArc
 50
313.0014103705969
 51
332.0934282656535
  0
ARC
  5
2B1
330
1F
100
AcDbEntity
  8
IGES_LEVEL_0
 62
     7
100
AcDbCircle
 10
19.98961042626062
 20
60.56502870820281
 30
0.0
 40
0.2866143773399832
100
AcDbArc
 50
172.4707954519333
 51
185.9377127438283
  0
ARC
  5
2B2
330
1F
100
AcDbEntity
  8
IGES_LEVEL_0
 62
     7
100
AcDbCircle
 10
20.05658453205009
 20
60.55619706823401
 30
0.0
 40
0.2868301335459337
100
AcDbArc
 50
338.9157462563827
 51
352.457134733162
  0
SPLINE
  5
2B3
330
1F
100
AcDbEntity
  8
IGES_LEVEL_0
 62
     7
100
AcDbSpline
210
0.0
220
0.0
230
1.0
 70
     8
 71
     3
 72
    16
 73
    12
 74
     0
 42
0.0000000001
 43
0.0000000001
 40
0.0
 40
0.0
 40
0.0
 40
0.0
 40
0.1240725634726
 40
0.2474879037968
 40
0.3699491054934
 40
0.4912689156928
 40
0.6113945104263
 40
0.7304176603142
 40
0.8485673590883001
 40
0.9661839746788
 40
1.0
 40
1.0
 40
1.0
 40
1.0
 10
0.5553481227532208
 20
60.86360355794732
 30
0.0
 10
0.57392436112822
 20
60.86386380486732
 30
0.0
 10
0.6110955401082204
 20
60.86132145456732
 30
0.0
 10
0.6652123284652202
 20
60.84838549135733
 30
0.0
 10
0.7160357281762207
 20
60.82671514126732
 30
0.0
 10
0.7620041488502206
 20
60.79695284877732
 30
0.0
 10
0.8017201383162206
 20
60.75998740407732
 30
0.0
 10
0.8339619509162203
 20
60.71693093766732
 30
0.0
 10
0.8577321322242203
 20
60.66908917968733
 30
0.0
 10
0.8688424057672205
 20
60.63004319315732
 30
0.0
 10
0.8724163603562206
 20
60.60761116077732
 30
0.0
 10
0.8730808850462205
 20
60.60258422860732
 30
0.0
  0
ARC
  5
2B4
330
1F
100
AcDbEntity
  8
IGES_LEVEL_0
 62
     7
100
AcDbCircle
 10
0.8153999601634929
 20
61.310081224264
 30
0.0
 40
0.092583711308013
100
AcDbArc
 50
40.71310339866522
 51
109.2110655545886
  0
ARC
  5
2B5
330
1F
100
AcDbEntity
  8
IGES_LEVEL_0
 62
     7
100
AcDbCircle
 10
0.4884991346125287
 20
62.04217031729644
 30
0.0
 40
0.7016567215143423
100
AcDbArc
 50
250.669205105376
 51
271.2744873777186
  0
LINE
  5
2B6
330
1F
100
AcDbEntity
  8
IGES_LEVEL_0
 62
     7
100
AcDbLine
 10
0.2562355957112205
 20
61.38007077542732
 30
0.0
 11
0.2405810814582207
 21
61.38600901867732
 31
0.0
  0
LINE
  5
2B7
330
1F
100
AcDbEntity
  8
IGES_LEVEL_0
 62
     7
100
AcDbLine
 10
0.7753743876082203
 20
61.39418079646733
 30
0.0
 11
0.7601859629072204
 21
61.38820582813732
 31
0.0
  0
ARC
  5
2B8
330
1F
100
AcDbEntity
  8
IGES_LEVEL_0
 62
     7
100
AcDbCircle
 10
0.496575335574815
 20
62.0950383684071
 30
0.0
 40
0.7543890261839801
100
AcDbArc
 50
270.5719301444626
 51
290.4528176690129
  0
LINE
  5
2B9
330
1F
100
AcDbEntity
  8
IGES_LEVEL_0
 62
     7
100
AcDbLine
 10
0.7847777880732204
 20
61.39747721164732
 30
0.0
 11
0.7753937015922204
 21
61.39418710777732
 31
0.0
  0
LINE
  5
2BA
330
1F
100
AcDbEntity
  8
IGES_LEVEL_0
 62
     7
100
AcDbLine
 10
0.8991428830942202
 20
61.35256145037732
 30
0.0
 11
0.8856714411102206
 21
61.37039380182733
 31
0.0
  0
ARC
  5
2BB
330
1F
100
AcDbEntity
  8
IGES_LEVEL_0
 62
     7
100
AcDbCircle
 10
0.1048073892822966
 20
60.90375782822876
 30
0.0
 40
0.9124478150423935
100
AcDbArc
 50
1.234658105864991
 51
29.17719751556229
  0
LINE
  5
2BC
330
1F
100
AcDbEntity
  8
IGES_LEVEL_0
 62
     7
100
AcDbLine
 10
0.9014803270052204
 20
61.34858728484733
 30
0.0
 11
0.8991557035952206
 21
61.35254158496733
 31
0.0
  0
LINE
  5
2BD
330
1F
100
AcDbEntity
  8
IGES_LEVEL_0
 62
     7
100
AcDbLine
 10
1.017549466701221
 20
60.89481351859732
 30
0.0
 11
1.017525800483221
 21
60.89895687895732
 31
0.0
  0
LINE
  5
2BE
330
1F
100
AcDbEntity
  8
IGES_LEVEL_0
 62
     7
100
AcDbLine
 10
1.017525800483221
 20
60.89895687895732
 30
0.0
 11
1.017165846027221
 21
60.91931076501732
 31
0.0
  0
LINE
  5
2BF
330
1F
100
AcDbEntity
  8
IGES_LEVEL_0
 62
     7
100
AcDbLine
 10
1.017165846027221
 20
60.91931076501732
 30
0.0
 11
1.017043630594221
 21
60.92341611861733
 31
0.0
  0
LINE
  5
2C0
330
1F
100
AcDbEntity
  8
IGES_LEVEL_0
 62
     7
100
AcDbLine
 10
1.00471330239222
 20
60.78764465595732
 30
0.0
 11
1.00485765883922
 21
60.78828146267733
 31
0.0
  0
ARC
  5
2C1
330
1F
100
AcDbEntity
  8
IGES_LEVEL_0
 62
     7
100
AcDbCircle
 10
0.4992593081888612
 20
60.90253661044746
 30
0.0
 40
0.5183473072876327
100
AcDbArc
 50
347.2661799861193
 51
359.0569892136655
  0
ARC
  5
2C2
330
1F
100
AcDbEntity
  8
IGES_LEVEL_0
 62
     7
100
AcDbCircle
 10
0.520497092757493
 20
60.89816457222485
 30
0.0
 40
0.5148365951740132
100
AcDbArc
 50
181.8476596790636
 51
207.7850415979153
  0
LINE
  5
2C3
330
1F
100
AcDbEntity
  8
IGES_LEVEL_0
 62
     7
100
AcDbLine
 10
0.0059172012162202
 20
60.91036697096732
 30
0.0
 11
0.0059264219622207
 21
60.88159038853733
 31
0.0
  0
ARC
  5
2C4
330
1F
100
AcDbEntity
  8
IGES_LEVEL_0
 62
     7
100
AcDbCircle
 10
0.9223353185972315
 20
60.9054514982771
 30
0.0
 40
0.9164310540691111
100
AcDbArc
 50
151.5255261906823
 51
179.6924408898068
  0
ARC
  5
2C5
330
1F
100
AcDbEntity
  8
IGES_LEVEL_0
 62
     7
100
AcDbCircle
 10
0.20380248353583
 20
61.29299722705711
 30
0.0
 40
0.1000683214785433
100
AcDbArc
 50
133.5027005815765
 51
150.415709949121
  0
LINE
  5
2C6
330
1F
100
AcDbEntity
  8
IGES_LEVEL_0
 62
     7
100
AcDbLine
 10
0.2405885089052203
 20
61.38600460198732
 30
0.0
 11
0.23265688967022
 21
61.38876936464732
 31
0.0
  0
SPLINE
  5
2C7
330
1F
100
AcDbEntity
  8
IGES_LEVEL_0
 62
     7
100
AcDbSpline
210
0.0
220
0.0
230
1.0
 70
     8
 71
     3
 72
    17
 73
    13
 74
     0
 42
0.0000000001
 43
0.0000000001
 40
0.0
 40
0.0
 40
0.0
 40
0.0
 40
0.07108731734682
 40
0.1711595159585
 40
0.2718165421695
 40
0.3733111419696
 40
0.4757902784379
 40
0.5792797657468
 40
0.6836845333816
 40
0.7888028819978
 40
0.8943518080809
 40
1.0
 40
1.0
 40
1.0
 40
1.0
 10
0.2376153604612202
 20
60.51854548031732
 30
0.0
 10
0.2359710081692205
 20
60.53098451762732
 30
0.0
 10
0.2339809580342201
 20
60.56119529546732
 30
0.0
 10
0.2384295866922205
 20
60.60916932619733
 30
0.0
 10
0.2530019317832201
 20
60.66071133264732
 30
0.0
 10
0.2767681435072203
 20
60.70917681687732
 30
0.0
 10
0.3089880952652203
 20
60.75309509852733
 30
0.0
 10
0.3486694324822203
 20
60.79114203531732
 30
0.0
 10
0.3945985654662202
 20
60.82217656886732
 30
0.0
 10
0.4453867311492207
 20
60.84527136604732
 30
0.0
 10
0.4994792300362206
 20
60.85973705402732
 30
0.0
 10
0.53672904053322
 20
60.86334271078732
 30
0.0
 10
0.5553481227532208
 20
60.86360355794732
 30
0.0
  0
LINE
  5
2C8
330
1F
100
AcDbEntity
  8
IGES_LEVEL_0
 62
     7
100
AcDbLine
 10
0.2322827373352204
 20
61.38885953390732
 30
0.0
 11
0.2312509047562207
 21
61.38916388564732
 31
0.0
  0
ARC
  5
2C9
330
1F
100
AcDbEntity
  8
IGES_LEVEL_0
 62
     7
100
AcDbCircle
 10
0.2018602187678451
 20
61.30067716737433
 30
0.0
 40
0.0932400757914248
100
AcDbArc
 50
71.62619633348062
 51
135.8331124682523
  0
ARC
  5
2CA
330
1F
100
AcDbEntity
  8
IGES_LEVEL_0
 62
     7
100
AcDbCircle
 10
0.5280513349732315
 20
60.58091262791162
 30
0.0
 40
0.373326647264256
100
AcDbArc
 50
207.9065776396167
 51
226.9987218325438
  0
ARC
  5
2CB
330
1F
100
AcDbEntity
  8
IGES_LEVEL_0
 62
     7
100
AcDbCircle
 10
0.5764213665084007
 20
60.58730569907505
 30
0.0
 40
0.3733262968376672
100
AcDbArc
 50
328.060078364566
 51
347.1520962511975
  0
ARC
  5
2CC
330
1F
100
AcDbEntity
  8
IGES_LEVEL_0
 62
     7
100
AcDbCircle
 10
0.5219635329826885
 20
60.55619706813075
 30
0.0
 40
0.2868301331470788
100
AcDbArc
 50
187.5428652565819
 51
201.0842537522295
  0
ARC
  5
2CD
330
1F
100
AcDbEntity
  8
IGES_LEVEL_0
 62
     7
100
AcDbCircle
 10
0.5889376395985032
 20
60.56502870819624
 30
0.0
 40
0.2866143769019777
100
AcDbArc
 50
354.062287248386
 51
7.52920456096478
  0
LINE
  5
2CE
330
1F
100
AcDbEntity
  8
IGES_LEVEL_0
 62
     7
100
AcDbLine
 10
1.20703437513022
 20
55.95699144434732
 30
0.0
 11
1.20714138306922
 21
55.95396042032732
 31
0.0
  0
LINE
  5
2CF
330
1F
100
AcDbEntity
  8
IGES_LEVEL_0
 62
     7
100
AcDbLine
 10
1.20714138306922
 20
55.95396042032732
 30
0.0
 11
1.20717810480022
 21
55.95347074356732
 31
0.0
  0
LINE
  5
2D0
330
1F
100
AcDbEntity
  8
IGES_LEVEL_0
 62
     7
100
AcDbLine
 10
1.20717810480022
 20
55.95347074356732
 30
0.0
 11
1.207425737843221
 21
55.95114729515733
 31
0.0
  0
LINE
  5
2D1
330
1F
100
AcDbEntity
  8
IGES_LEVEL_0
 62
     7
100
AcDbLine
 10
2.219080654110221
 20
55.41926059043733
 30
0.0
 11
2.212040629141221
 21
55.42025254230732
 31
0.0
  0
LINE
  5
2D2
330
1F
100
AcDbEntity
  8
IGES_LEVEL_0
 62
     7
100
AcDbLine
 10
2.212040629141221
 20
55.42025254230732
 30
0.0
 11
2.07572470549722
 21
55.44207353864732
 31
0.0
  0
ARC
  5
2D3
330
1F
100
AcDbEntity
  8
IGES_LEVEL_0
 62
     7
100
AcDbCircle
 10
2.600901826602518
 20
58.41675678298809
 30
0.0
 40
3.020687241786902
100
AcDbArc
 50
254.5897559862439
 51
259.9876675931391
  0
ARC
  5
2D4
330
1F
100
AcDbEntity
  8
IGES_LEVEL_0
 62
     7
100
AcDbCircle
 10
2.273951030518779
 20
57.26517123165208
 30
0.0
 40
1.823646600026173
100
AcDbArc
 50
245.2343681699575
 51
254.8784012601124
  0
LINE
  5
2D5
330
1F
100
AcDbEntity
  8
IGES_LEVEL_0
 62
     7
100
AcDbLine
 10
1.510011814590221
 20
55.60924738190732
 30
0.0
 11
1.46707509904422
 21
55.63070256600732
 31
0.0
  0
LINE
  5
2D6
330
1F
100
AcDbEntity
  8
IGES_LEVEL_0
 62
     7
100
AcDbLine
 10
1.46707509904422
 20
55.63070256600732
 30
0.0
 11
1.427158133840221
 21
55.65289899583733
 31
0.0
  0
SPLINE
  5
2D7
330
1F
100
AcDbEntity
  8
IGES_LEVEL_0
 62
     7
100
AcDbSpline
210
0.0
220
0.0
230
1.0
 70
     8
 71
     3
 72
    11
 73
     7
 74
     0
 42
0.0000000001
 43
0.0000000001
 40
0.0
 40
0.0
 40
0.0
 40
0.0
 40
0.1280127294764
 40
0.4715179162089
 40
0.7577152830871
 40
1.0
 40
1.0
 40
1.0
 40
1.0
 10
1.427158133840221
 20
55.65289899583733
 30
0.0
 10
1.414706793622221
 20
55.66021952642733
 30
0.0
 10
1.36948644397022
 20
55.68828379853732
 30
0.0
 10
1.30136320929822
 20
55.74067568783732
 30
0.0
 10
1.238383644472221
 20
55.81775920732732
 30
0.0
 10
1.217592967899221
 20
55.87536124658733
 30
0.0
 10
1.213959357636221
 20
55.90243687406733
 30
0.0
  0
ARC
  5
2D8
330
1F
100
AcDbEntity
  8
IGES_LEVEL_0
 62
     7
100
AcDbCircle
 10
2.266042550456117
 20
55.69607552402842
 30
0.0
 40
0.2807702543496891
100
AcDbArc
 50
260.3714306209886
 51
276.1396189576296
  0
LINE
  5
2D9
330
1F
100
AcDbEntity
  8
IGES_LEVEL_0
 62
     7
100
AcDbLine
 10
2.305270799136221
 20
54.78414262533732
 30
0.0
 11
2.30783642506122
 21
54.78612027129732
 31
0.0
  0
LINE
  5
2DA
330
1F
100
AcDbEntity
  8
IGES_LEVEL_0
 62
     7
100
AcDbLine
 10
1.457424590532221
 20
56.02957464948732
 30
0.0
 11
1.44810158510722
 21
56.03268543322732
 31
0.0
  0
SPLINE
  5
2DB
330
1F
100
AcDbEntity
  8
IGES_LEVEL_0
 62
     7
100
AcDbSpline
210
0.0
220
0.0
230
1.0
 70
     8
 71
     3
 72
    16
 73
    12
 74
     0
 42
0.0000000001
 43
0.0000000001
 40
0.0
 40
0.0
 40
0.0
 40
0.0
 40
0.1225359233832
 40
0.295431942331
 40
0.4468437754758
 40
0.5723954925724
 40
0.6763926777271
 40
0.7692242349571
 40
0.8581536504449
 40
0.944831892859
 40
1.0
 40
1.0
 40
1.0
 40
1.0
 10
1.44810158510722
 20
56.03268543322732
 30
0.0
 10
1.43703660216022
 20
56.03621555080732
 30
0.0
 10
1.40994571749722
 20
56.04348130850732
 30
0.0
 10
1.36796930438322
 20
56.04977534583733
 30
0.0
 10
1.325223472325221
 20
56.05029438800732
 30
0.0
 10
1.28932403679522
 20
56.04543694438733
 30
0.0
 10
1.260032419836221
 20
56.03620983549732
 30
0.0
 10
1.236333814328221
 20
56.02258850149732
 30
0.0
 10
1.218398055686221
 20
56.00398177599733
 30
0.0
 10
1.20906644640622
 20
55.98373391987732
 30
0.0
 10
1.207198888187221
 20
55.97024311638732
 30
0.0
 10
1.207059587264221
 20
55.96499710583733
 30
0.0
  0
LINE
  5
2DC
330
1F
100
AcDbEntity
  8
IGES_LEVEL_0
 62
     7
100
AcDbLine
 10
1.207059587264221
 20
55.96499710583733
 30
0.0
 11
1.20703481430122
 21
55.96308464981733
 31
0.0
  0
LINE
  5
2DD
330
1F
100
AcDbEntity
  8
IGES_LEVEL_0
 62
     7
100
AcDbLine
 10
1.476575500554221
 20
56.02219065948732
 30
0.0
 11
1.472636905289221
 21
56.02382619478733
 31
0.0
  0
LINE
  5
2DE
330
1F
100
AcDbEntity
  8
IGES_LEVEL_0
 62
     7
100
AcDbLine
 10
1.472636905289221
 20
56.02382619478733
 30
0.0
 11
1.468909286073221
 21
56.02531801718732
 31
0.0
  0
LINE
  5
2DF
330
1F
100
AcDbEntity
  8
IGES_LEVEL_0
 62
     7
100
AcDbLine
 10
1.468909286073221
 20
56.02531801718732
 30
0.0
 11
1.46519797999522
 21
56.02674943897733
 31
0.0
  0
LINE
  5
2E0
330
1F
100
AcDbEntity
  8
IGES_LEVEL_0
 62
     7
100
AcDbLine
 10
1.46519797999522
 20
56.02674943897733
 30
0.0
 11
1.457423955915221
 21
56.02957473798733
 31
0.0
  0
ARC
  5
2E1
330
1F
100
AcDbEntity
  8
IGES_LEVEL_0
 62
     7
100
AcDbCircle
 10
1.347878818635955
 20
55.69910177168146
 30
0.0
 40
0.3477552791544004
100
AcDbArc
 50
33.39187025066172
 51
68.10233829275006
  0
LINE
  5
2E2
330
1F
100
AcDbEntity
  8
IGES_LEVEL_0
 62
     7
100
AcDbLine
 10
1.477574120933221
 20
56.02176702041732
 30
0.0
 11
1.47657874119222
 21
56.02218950286732
 31
0.0
  0
SPLINE
  5
2E3
330
1F
100
AcDbEntity
  8
IGES_LEVEL_0
 62
     7
100
AcDbSpline
210
0.0
220
0.0
230
1.0
 70
     8
 71
     3
 72
    12
 73
     8
 74
     0
 42
0.0000000001
 43
0.0000000001
 40
0.0
 40
0.0
 40
0.0
 40
0.0
 40
0.1419134979695
 40
0.3286327806201
 40
0.5372298801101
 40
0.7650834032335
 40
1.0
 40
1.0
 40
1.0
 40
1.0
 10
1.395882284310221
 20
55.00789830300732
 30
0.0
 10
1.42818060880722
 20
54.98612538343733
 30
0.0
 10
1.506697172614221
 20
54.94141787320732
 30
0.0
 10
1.642415247905221
 20
54.88348837756733
 30
0.0
 10
1.805228454174221
 20
54.83105471609732
 30
0.0
 10
1.984223205825221
 20
54.78755080479732
 30
0.0
 10
2.109163067499221
 20
54.76500397188732
 30
0.0
 10
2.172818552496221
 20
54.75516824221732
 30
0.0
  0
LINE
  5
2E4
330
1F
100
AcDbEntity
  8
IGES_LEVEL_0
 62
     7
100
AcDbLine
 10
2.172817833491221
 20
54.75516838404732
 30
0.0
 11
2.19773258061722
 21
54.75288632872732
 31
0.0
  0
ARC
  5
2E5
330
1F
100
AcDbEntity
  8
IGES_LEVEL_0
 62
     7
100
AcDbCircle
 10
2.204473218721092
 20
54.93030961915204
 30
0.0
 40
0.1775502576273309
100
AcDbArc
 50
267.8253892062965
 51
304.634302941707
  0
SPLINE
  5
2E6
330
1F
100
AcDbEntity
  8
IGES_LEVEL_0
 62
     7
100
AcDbSpline
210
0.0
220
0.0
230
1.0
 70
     8
 71
     3
 72
    13
 73
     9
 74
     0
 42
0.0000000001
 43
0.0000000001
 40
0.0
 40
0.0
 40
0.0
 40
0.0
 40
0.1587490136062
 40
0.3927940136174
 40
0.5973192914647
 40
0.7689872084145
 40
0.9049832995726
 40
1.0
 40
1.0
 40
1.0
 40
1.0
 10
2.217757879713221
 20
55.62108630422733
 30
0.0
 10
2.186146546614221
 20
55.62784113896733
 30
0.0
 10
2.108223685547221
 20
55.64594912350732
 30
0.0
 10
1.99122711228422
 20
55.67947481632732
 30
0.0
 10
1.874599584520221
 20
55.72269679706732
 30
0.0
 10
1.780471965260221
 20
55.76807232241733
 30
0.0
 10
1.711290330387221
 20
55.81244513631732
 30
0.0
 10
1.67583654461022
 20
55.84386042677733
 30
0.0
 10
1.663036591207221
 20
55.85836384050732
 30
0.0
  0
LINE
  5
2E7
330
1F
100
AcDbEntity
  8
IGES_LEVEL_0
 62
     7
100
AcDbLine
 10
1.663003061803221
 20
55.85840240039732
 30
0.0
 11
1.638093207829221
 21
55.89069645847732
 31
0.0
  0
ARC
  5
2E8
330
1F
100
AcDbEntity
  8
IGES_LEVEL_0
 62
     7
100
AcDbCircle
 10
2.174870280766641
 20
55.42382033239773
 30
0.0
 40
0.2018782464974744
100
AcDbArc
 50
355.3273321361336
 51
77.73565394718436
  0
LINE
  5
2E9
330
1F
100
AcDbEntity
  8
IGES_LEVEL_0
 62
     7
100
AcDbLine
 10
19.37124148786022
 20
55.95102881864732
 30
0.0
 11
19.37154902823022
 21
55.95415530971732
 31
0.0
  0
LINE
  5
2EA
330
1F
100
AcDbEntity
  8
IGES_LEVEL_0
 62
     7
100
AcDbLine
 10
19.37154902823022
 20
55.95415530971732
 30
0.0
 11
19.37163772263022
 21
55.95691052828732
 31
0.0
  0
LINE
  5
2EB
330
1F
100
AcDbEntity
  8
IGES_LEVEL_0
 62
     7
100
AcDbLine
 10
18.27037098182022
 20
54.78613737563732
 30
0.0
 11
18.27297060651022
 21
54.78413184132732
 31
0.0
  0
ARC
  5
2EC
330
1F
100
AcDbEntity
  8
IGES_LEVEL_0
 62
     7
100
AcDbCircle
 10
18.31192947088209
 20
55.69938739998145
 30
0.0
 40
0.2841115969237915
100
AcDbArc
 50
264.1192335921208
 51
279.5692185413834
  0
LINE
  5
2ED
330
1F
100
AcDbEntity
  8
IGES_LEVEL_0
 62
     7
100
AcDbLine
 10
18.35916021622022
 20
55.41922912698733
 30
0.0
 11
18.36619590925022
 21
55.42021982353732
 31
0.0
  0
LINE
  5
2EE
330
1F
100
AcDbEntity
  8
IGES_LEVEL_0
 62
     7
100
AcDbLine
 10
18.36619590925022
 20
55.42021982353732
 30
0.0
 11
18.50273405742022
 21
55.44206707567732
 31
0.0
  0
ARC
  5
2EF
330
1F
100
AcDbEntity
  8
IGES_LEVEL_0
 62
     7
100
AcDbCircle
 10
17.97751670061338
 20
58.4176363007031
 30
0.0
 40
3.021566726850771
100
AcDbArc
 50
280.0101628608317
 51
285.4051708168815
  0
ARC
  5
2F0
330
1F
100
AcDbEntity
  8
IGES_LEVEL_0
 62
     7
100
AcDbCircle
 10
18.30428527468158
 20
57.26628682203289
 30
0.0
 40
1.824802850440512
100
AcDbArc
 50
285.1169273256171
 51
294.7539584277048
  0
LINE
  5
2F1
330
1F
100
AcDbEntity
  8
IGES_LEVEL_0
 62
     7
100
AcDbLine
 10
19.06837124602022
 20
55.60915735473732
 30
0.0
 11
19.11132478781022
 21
55.63060842239732
 31
0.0
  0
LINE
  5
2F2
330
1F
100
AcDbEntity
  8
IGES_LEVEL_0
 62
     7
100
AcDbLine
 10
19.11132478781022
 20
55.63060842239732
 30
0.0
 11
19.15125928799022
 21
55.65280084864732
 31
0.0
  0
SPLINE
  5
2F3
330
1F
100
AcDbEntity
  8
IGES_LEVEL_0
 62
     7
100
AcDbSpline
210
0.0
220
0.0
230
1.0
 70
     8
 71
     3
 72
    11
 73
     7
 74
     0
 42
0.0000000001
 43
0.0000000001
 40
0.0
 40
0.0
 40
0.0
 40
0.0
 40
0.1280108874038
 40
0.4715216865294
 40
0.757731457677
 40
1.0
 40
1.0
 40
1.0
 40
1.0
 10
19.15125928799022
 20
55.65280084864732
 30
0.0
 10
19.16371658123022
 20
55.66012018542732
 30
0.0
 10
19.20896042497022
 20
55.68818043989732
 30
0.0
 10
19.27712617973022
 20
55.74056513085733
 30
0.0
 10
19.34016836928022
 20
55.81763712991732
 30
0.0
 10
19.36101087537022
 20
55.87523996566733
 30
0.0
 10
19.36466748602022
 20
55.90231971811733
 30
0.0
  0
ARC
  5
2F4
330
1F
100
AcDbEntity
  8
IGES_LEVEL_0
 62
     7
100
AcDbCircle
 10
18.37379805528779
 20
54.93031327944993
 30
0.0
 40
0.1775852351123356
100
AcDbArc
 50
235.3668230702795
 51
272.1700691152817
  0
LINE
  5
2F5
330
1F
100
AcDbEntity
  8
IGES_LEVEL_0
 62
     7
100
AcDbLine
 10
18.38052613102022
 20
54.75285438106732
 30
0.0
 11
18.40544278466022
 21
54.75513448590733
 31
0.0
  0
SPLINE
  5
2F6
330
1F
100
AcDbEntity
  8
IGES_LEVEL_0
 62
     7
100
AcDbSpline
210
0.0
220
0.0
230
1.0
 70
     8
 71
     3
 72
    12
 73
     8
 74
     0
 42
0.0000000001
 43
0.0000000001
 40
0.0
 40
0.0
 40
0.0
 40
0.0
 40
0.2356002442365
 40
0.4633025547817
 40
0.6717397801207
 40
0.8583075453178
 40
1.0
 40
1.0
 40
1.0
 40
1.0
 10
18.40544206586022
 20
54.75513437949732
 30
0.0
 10
18.46932258822022
 20
54.76499899760732
 30
0.0
 10
18.59448340389022
 20
54.78758369125733
 30
0.0
 10
18.77368218940022
 20
54.83115820115732
 30
0.0
 10
18.93646695110022
 20
54.88360705591732
 30
0.0
 10
19.07212384603022
 20
54.94153733897733
 30
0.0
 10
19.15059121421022
 20
54.98623570843732
 30
0.0
 10
19.18285579179022
 20
55.00799261441733
 30
0.0
  0
LINE
  5
2F7
330
1F
100
AcDbEntity
  8
IGES_LEVEL_0
 62
     7
100
AcDbLine
 10
19.10215061995022
 20
56.02210821530733
 30
0.0
 11
19.10115423888022
 21
56.02168539294733
 31
0.0
  0
ARC
  5
2F8
330
1F
100
AcDbEntity
  8
IGES_LEVEL_0
 62
     7
100
AcDbCircle
 10
19.23085455737283
 20
55.69897214933003
 30
0.0
 40
0.3478016823177818
100
AcDbArc
 50
111.8954797003323
 51
146.5767403117562
  0
LINE
  5
2F9
330
1F
100
AcDbEntity
  8
IGES_LEVEL_0
 62
     7
100
AcDbLine
 10
19.12130529077022
 20
56.02949194049732
 30
0.0
 11
19.11414660740022
 21
56.02689929253732
 31
0.0
  0
LINE
  5
2FA
330
1F
100
AcDbEntity
  8
IGES_LEVEL_0
 62
     7
100
AcDbLine
 10
19.11414660740022
 20
56.02689929253732
 30
0.0
 11
19.11043330655022
 21
56.02547624921732
 31
0.0
  0
LINE
  5
2FB
330
1F
100
AcDbEntity
  8
IGES_LEVEL_0
 62
     7
100
AcDbLine
 10
19.11043330655022
 20
56.02547624921732
 30
0.0
 11
19.10215412900022
 21
56.02210941118732
 31
0.0
  0
LINE
  5
2FC
330
1F
100
AcDbEntity
  8
IGES_LEVEL_0
 62
     7
100
AcDbLine
 10
19.37163721941022
 20
55.96300453807732
 30
0.0
 11
19.37161298148022
 21
55.96489576768732
 31
0.0
  0
SPLINE
  5
2FD
330
1F
100
AcDbEntity
  8
IGES_LEVEL_0
 62
     7
100
AcDbSpline
210
0.0
220
0.0
230
1.0
 70
     8
 71
     3
 72
    16
 73
    12
 74
     0
 42
0.0000000001
 43
0.0000000001
 40
0.0
 40
0.0
 40
0.0
 40
0.0
 40
0.05517263366779
 40
0.1419049980152
 40
0.230921010069
 40
0.323822646417
 40
0.4278371117635
 40
0.5533173295146
 40
0.704616326416
 40
0.8774443526532
 40
1.0
 40
1.0
 40
1.0
 40
1.0
 10
19.37161298148022
 20
55.96489576768732
 30
0.0
 10
19.37147550956022
 20
55.97012962675733
 30
0.0
 10
19.36961893546022
 20
55.98359397022733
 30
0.0
 10
19.36032654984022
 20
56.00381539939733
 30
0.0
 10
19.34244640990022
 20
56.02241789032733
 30
0.0
 10
19.31880906563022
 20
56.03604896359732
 30
0.0
 10
19.28959741766022
 20
56.04529217093732
 30
0.0
 10
19.25380519315022
 20
56.05017966075732
 30
0.0
 10
19.21118473656022
 20
56.04971662901733
 30
0.0
 10
19.16931484940022
 20
56.04349998751732
 30
0.0
 10
19.14228121496022
 20
56.03629771288733
 30
0.0
 10
19.13123462542022
 20
56.03279501246733
 30
0.0
  0
LINE
  5
2FE
330
1F
100
AcDbEntity
  8
IGES_LEVEL_0
 62
     7
100
AcDbLine
 10
19.13123462542022
 20
56.03279501246733
 30
0.0
 11
19.12130471999022
 21
56.02949184447732
 31
0.0
  0
SPLINE
  5
2FF
330
1F
100
AcDbEntity
  8
IGES_LEVEL_0
 62
     7
100
AcDbSpline
210
0.0
220
0.0
230
1.0
 70
     8
 71
     3
 72
    13
 73
     9
 74
     0
 42
0.0000000001
 43
0.0000000001
 40
0.0
 40
0.0
 40
0.0
 40
0.0
 40
0.09497236944571
 40
0.2310700182931
 40
0.4027831917145
 40
0.607254309285
 40
0.8412156765828001
 40
1.0
 40
1.0
 40
1.0
 40
1.0
 10
18.91570030878022
 20
55.85836574594732
 30
0.0
 10
18.90289412955022
 20
55.84386767011733
 30
0.0
 10
18.86740820917022
 20
55.81243854155732
 30
0.0
 10
18.79816607818022
 20
55.76804831881732
 30
0.0
 10
18.70396813889022
 20
55.72266216479732
 30
0.0
 10
18.58729658466022
 20
55.67944444944732
 30
0.0
 10
18.47026108524022
 20
55.64592203115733
 30
0.0
 10
18.39230906872022
 20
55.62781592003732
 30
0.0
 10
18.36067502629022
 20
55.62105981718732
 30
0.0
  0
LINE
  5
300
330
1F
100
AcDbEntity
  8
IGES_LEVEL_0
 62
     7
100
AcDbLine
 10
18.94070143494022
 20
55.89074341967732
 30
0.0
 11
18.91573356132022
 21
55.85840395848732
 31
0.0
  0
LINE
  5
301
330
1F
100
AcDbEntity
  8
IGES_LEVEL_0
 62
     7
100
AcDbLine
 10
18.20244730987022
 20
55.42571877753733
 30
0.0
 11
18.20227604242022
 21
55.40729125092732
 31
0.0
  0
ARC
  5
302
330
1F
100
AcDbEntity
  8
IGES_LEVEL_0
 62
     7
100
AcDbCircle
 10
18.4024469362178
 20
55.42547495295213
 30
0.0
 40
0.1999997749738684
100
AcDbArc
 50
102.0573483928236
 51
179.9301493057393
  0
SPLINE
  5
303
330
1F
100
AcDbEntity
  8
IGES_LEVEL_0
 62
     7
100
AcDbSpline
210
0.0
220
0.0
230
1.0
 70
     8
 71
     3
 72
    17
 73
    13
 74
     0
 42
0.0000000001
 43
0.0000000001
 40
0.0
 40
0.0
 40
0.0
 40
0.0
 40
0.05002667280087
 40
0.1058356292439
 40
0.1690653274417
 40
0.2460822232002
 40
0.3396466477945
 40
0.4503913634646
 40
0.5773230697156
 40
0.7183729437143001
 40
0.8707603463268
 40
1.0
 40
1.0
 40
1.0
 40
1.0
 10
19.26393079480022
 20
58.39927992724732
 30
0.0
 10
19.26387104501022
 20
58.41950569526733
 30
0.0
 10
19.25433556620022
 20
58.46205943757732
 30
0.0
 10
19.21824228110022
 20
58.52027213565732
 30
0.0
 10
19.16453786932022
 20
58.57798455687733
 30
0.0
 10
19.09310804706022
 20
58.63887014107733
 30
0.0
 10
19.00168540692022
 20
58.70503429213732
 30
0.0
 10
18.88955781135022
 20
58.77626895094733
 30
0.0
 10
18.75742609924022
 20
58.85113349609733
 30
0.0
 10
18.60716515383022
 20
58.92750886981732
 30
0.0
 10
18.45291793012022
 20
58.99772366043732
 30
0.0
 10
18.34839551447022
 20
59.04046234742732
 30
0.0
 10
18.30009239484022
 20
59.05919250800732
 30
0.0
  0
ARC
  5
304
330
1F
100
AcDbEntity
  8
IGES_LEVEL_0
 62
     7
100
AcDbCircle
 10
10.33299236747612
 20
38.5142143965464
 30
0.0
 40
22.03567065692633
100
AcDbArc
 50
68.80429475285901
 51
70.99822587455456
  0
SPLINE
  5
305
330
1F
100
AcDbEntity
  8
IGES_LEVEL_0
 62
     7
100
AcDbSpline
210
0.0
220
0.0
230
1.0
 70
     8
 71
     3
 72
    15
 73
    11
 74
     0
 42
0.0000000001
 43
0.0000000001
 40
0.0
 40
0.0
 40
0.0
 40
0.0
 40
0.1349059089426
 40
0.2591973927781
 40
0.3793905088595
 40
0.5002961223151
 40
0.6212462438739
 40
0.7415651153302
 40
0.8658512825481
 40
1.0
 40
1.0
 40
1.0
 40
1.0
 10
17.50778041740022
 20
59.34907303142732
 30
0.0
 10
16.88027062471022
 20
59.56429870371732
 30
0.0
 10
15.67084366758022
 20
59.97045756007732
 30
0.0
 10
13.84822016309522
 20
60.38271298291733
 30
0.0
 10
12.06565868611522
 20
60.62450471578732
 30
0.0
 10
10.28467756403922
 20
60.70399987950732
 30
0.0
 10
8.503112071202221
 20
60.62366429706732
 30
0.0
 10
6.719868451832221
 20
60.38083080852732
 30
0.0
 10
4.90052747781622
 20
59.96827614567732
 30
0.0
 10
3.694780175050221
 20
59.56302324518732
 30
0.0
 10
3.07076874330022
 20
59.34906921528732
 30
0.0
  0
ARC
  5
306
330
1F
100
AcDbEntity
  8
IGES_LEVEL_0
 62
     7
100
AcDbCircle
 10
10.24555572450357
 20
38.5142143258474
 30
0.0
 40
22.03567073244428
100
AcDbArc
 50
109.0017661560215
 51
111.1957052529679
  0
SPLINE
  5
307
330
1F
100
AcDbEntity
  8
IGES_LEVEL_0
 62
     7
100
AcDbSpline
210
0.0
220
0.0
230
1.0
 70
     8
 71
     3
 72
    17
 73
    13
 74
     0
 42
0.0000000001
 43
0.0000000001
 40
0.0
 40
0.0
 40
0.0
 40
0.0
 40
0.1314460844049
 40
0.2835004619081
 40
0.4242262846549
 40
0.5508474505106
 40
0.6613057664396
 40
0.7546120936284
 40
0.8314091296766
 40
0.8944777517006
 40
0.9501864269729
 40
1.0
 40
1.0
 40
1.0
 40
1.0
 10
2.278455758446221
 20
59.05919205689732
 30
0.0
 10
2.229327159958221
 20
59.04014157341732
 30
0.0
 10
2.124119427576221
 20
58.99708604078732
 30
0.0
 10
1.96934433140222
 20
58.92652270597733
 30
0.0
 10
1.819466795351221
 20
58.85024132555732
 30
0.0
 10
1.687692907695221
 20
58.77548768860732
 30
0.0
 10
1.575891299314221
 20
58.70437368155732
 30
0.0
 10
1.48475599743322
 20
58.63833114986733
 30
0.0
 10
1.413563715638221
 20
58.57755800784732
 30
0.0
 10
1.360047079767221
 20
58.51993233140733
 30
0.0
 10
1.32412927787122
 20
58.46183027145732
 30
0.0
 10
1.314676130661221
 20
58.41939666936732
 30
0.0
 10
1.31461914468222
 20
58.39925675999732
 30
0.0
  0
LINE
  5
308
330
1F
100
AcDbEntity
  8
IGES_LEVEL_0
 62
     7
100
AcDbLine
 10
17.61690587939022
 20
57.55030380080732
 30
0.0
 11
17.63679210316022
 21
57.54337638503733
 31
0.0
  0
SPLINE
  5
309
330
1F
100
AcDbEntity
  8
IGES_LEVEL_0
 62
     7
100
AcDbSpline
210
0.0
220
0.0
230
1.0
 70
     8
 71
     3
 72
    15
 73
    11
 74
     0
 42
0.0000000001
 43
0.0000000001
 40
0.0
 40
0.0
 40
0.0
 40
0.0
 40
0.1331454309841
 40
0.3216276616451
 40
0.4930833005639
 40
0.6447886791399
 40
0.7750926992173
 40
0.8840362840753
 40
0.9736563713582001
 40
1.0
 40
1.0
 40
1.0
 40
1.0
 10
17.63679210316022
 20
57.54337638503733
 30
0.0
 10
17.67220727109022
 20
57.53110431893732
 30
0.0
 10
17.75801756104022
 20
57.50220790064732
 30
0.0
 10
17.89051747417022
 20
57.46080309938732
 30
0.0
 10
18.02920008766022
 20
57.42184845546733
 30
0.0
 10
18.15321794997022
 20
57.39149411226732
 30
0.0
 10
18.26115641512022
 20
57.36981787694732
 30
0.0
 10
18.35283983842022
 20
57.35657158348732
 30
0.0
 10
18.41608682635022
 20
57.35224406892733
 30
0.0
 10
18.44876554229022
 20
57.35256358607732
 30
0.0
 10
18.45618294984022
 20
57.35280657836732
 30
0.0
  0
ARC
  5
30A
330
1F
100
AcDbEntity
  8
IGES_LEVEL_0
 62
     7
100
AcDbCircle
 10
18.45298866026138
 20
57.65459831895036
 30
0.0
 40
0.3018086449557917
100
AcDbArc
 50
270.6064197680557
 51
289.3210922843927
  0
ARC
  5
30B
330
1F
100
AcDbEntity
  8
IGES_LEVEL_0
 62
     7
100
AcDbCircle
 10
18.50100509710597
 20
57.51446299668856
 30
0.0
 40
0.1536826583607182
100
AcDbArc
 50
289.7137902670586
 51
323.8503442898532
  0
ARC
  5
30C
330
1F
100
AcDbEntity
  8
IGES_LEVEL_0
 62
     7
100
AcDbCircle
 10
10.32244013146806
 20
36.71835208556085
 30
0.0
 40
22.07214192111354
100
AcDbArc
 50
70.70190962786457
 51
72.9013781634708
  0
LINE
  5
30D
330
1F
100
AcDbEntity
  8
IGES_LEVEL_0
 62
     7
100
AcDbLine
 10
16.36237946257022
 20
57.95111017506732
 30
0.0
 11
16.36747407435022
 21
57.94954406069732
 31
0.0
  0
LINE
  5
30E
330
1F
100
AcDbEntity
  8
IGES_LEVEL_0
 62
     7
100
AcDbLine
 10
16.36747407435022
 20
57.94954406069732
 30
0.0
 11
16.81197866714022
 21
57.81494704035733
 31
0.0
  0
LINE
  5
30F
330
1F
100
AcDbEntity
  8
IGES_LEVEL_0
 62
     7
100
AcDbLine
 10
3.766572700593021
 20
57.81495548546732
 30
0.0
 11
4.21263214410062
 21
57.95003056255732
 31
0.0
  0
LINE
  5
310
330
1F
100
AcDbEntity
  8
IGES_LEVEL_0
 62
     7
100
AcDbLine
 10
4.21263214410062
 20
57.95003056255732
 30
0.0
 11
4.21616291699742
 21
57.95111603901732
 31
0.0
  0
ARC
  5
311
330
1F
100
AcDbEntity
  8
IGES_LEVEL_0
 62
     7
100
AcDbCircle
 10
10.25610795717678
 20
36.71835201555527
 30
0.0
 40
22.07214199486747
100
AcDbArc
 50
107.0986185860776
 51
109.2980904020953
  0
ARC
  5
312
330
1F
100
AcDbEntity
  8
IGES_LEVEL_0
 62
     7
100
AcDbCircle
 10
2.077072288538645
 20
57.51393536884606
 30
0.0
 40
0.1529861495163116
100
AcDbArc
 50
216.0999577218984
 51
249.615928834407
  0
ARC
  5
313
330
1F
100
AcDbEntity
  8
IGES_LEVEL_0
 62
     7
100
AcDbCircle
 10
2.124526600310711
 20
57.64876342149884
 30
0.0
 40
0.2959103846212862
100
AcDbArc
 50
250.096026248751
 51
269.1529901835024
  0
SPLINE
  5
314
330
1F
100
AcDbEntity
  8
IGES_LEVEL_0
 62
     7
100
AcDbSpline
210
0.0
220
0.0
230
1.0
 70
     8
 71
     3
 72
    15
 73
    11
 74
     0
 42
0.0000000001
 43
0.0000000001
 40
0.0
 40
0.0
 40
0.0
 40
0.0
 40
0.02627162677118
 40
0.1156303258516
 40
0.2243477408054
 40
0.3545276074911
 40
0.506244054601
 40
0.6778437792856
 40
0.8666082307844
 40
1.0
 40
1.0
 40
1.0
 40
1.0
 10
2.120152283848221
 20
57.35288537046733
 30
0.0
 10
2.12754072263122
 20
57.35260971851732
 30
0.0
 10
2.16009114789422
 20
57.35215602176732
 30
0.0
 10
2.22312958308222
 20
57.35628651425732
 30
0.0
 10
2.314572820564221
 20
57.36932403625733
 30
0.0
 10
2.422333537932221
 20
57.39082053675733
 30
0.0
 10
2.546258525094221
 20
57.42103214654733
 30
0.0
 10
2.684942033924221
 20
57.45988332054733
 30
0.0
 10
2.81750714956522
 20
57.50122829473732
 30
0.0
 10
2.90338313394322
 20
57.53009931092733
 30
0.0
 10
2.938832713080221
 20
57.54236416024732
 30
0.0
  0
LINE
  5
315
330
1F
100
AcDbEntity
  8
IGES_LEVEL_0
 62
     7
100
AcDbLine
 10
2.938832713080221
 20
57.54236416024732
 30
0.0
 11
2.961642053230221
 21
57.55030368623732
 31
0.0
  0
ARC
  5
316
330
1F
100
AcDbEntity
  8
IGES_LEVEL_0
 62
     7
100
AcDbCircle
 10
-71.6694313814486
 20
5.925830388864071
 30
0.0
 40
89.84631104246263
100
AcDbArc
 50
34.97271169865557
 51
35.64935165933341
  0
ARC
  5
317
330
1F
100
AcDbEntity
  8
IGES_LEVEL_0
 62
     7
100
AcDbCircle
 10
1.448451032410294
 20
58.36824205326386
 30
0.0
 40
0.1338313445181618
100
AcDbArc
 50
179.7209952318372
 51
215.2002982895698
  0
ARC
  5
318
330
1F
100
AcDbEntity
  8
IGES_LEVEL_0
 62
     7
100
AcDbCircle
 10
19.13004687483847
 20
58.36827091348381
 30
0.0
 40
0.133883800564752
100
AcDbArc
 50
324.8052138514514
 51
0.2737395521084049
  0
ARC
  5
319
330
1F
100
AcDbEntity
  8
IGES_LEVEL_0
 62
     7
100
AcDbCircle
 10
92.24797901312917
 20
5.925830690838964
 30
0.0
 40
89.84631051398327
100
AcDbArc
 50
144.3506483248886
 51
145.0272883153822
  0
LINE
  5
31A
330
1F
100
AcDbEntity
  8
IGES_LEVEL_0
 62
     7
100
AcDbLine
 10
4.21265185549422
 20
57.94996620221733
 30
0.0
 11
4.21618326952332
 21
57.95104946403733
 31
0.0
  0
ARC
  5
31B
330
1F
100
AcDbEntity
  8
IGES_LEVEL_0
 62
     7
100
AcDbCircle
 10
10.28927393287445
 20
38.158228514578
 30
0.0
 40
20.70357919159483
100
AcDbArc
 50
72.94226816261144
 51
107.0577416319647
  0
LINE
  5
31C
330
1F
100
AcDbEntity
  8
IGES_LEVEL_0
 62
     7
100
AcDbLine
 10
16.36236121269022
 20
57.95105050221732
 30
0.0
 11
16.36745667294022
 21
57.94948725040732
 31
0.0
  0
LINE
  5
31D
330
1F
100
AcDbEntity
  8
IGES_LEVEL_0
 62
     7
100
AcDbLine
 10
2.41183913271222
 20
41.66572391945732
 30
0.0
 11
2.376008471004221
 21
41.66655166337733
 31
0.0
  0
ARC
  5
31E
330
1F
100
AcDbEntity
  8
IGES_LEVEL_0
 62
     7
100
AcDbCircle
 10
2.422591607559077
 20
42.79737819588276
 30
0.0
 40
1.131785595963098
100
AcDbArc
 50
181.6329478127354
 51
267.6410980264852
  0
LINE
  5
31F
330
1F
100
AcDbEntity
  8
IGES_LEVEL_0
 62
     7
100
AcDbLine
 10
1.29126563709622
 20
42.76512631553732
 30
0.0
 11
1.29083913328722
 21
42.79603349808733
 31
0.0
  0
LINE
  5
320
330
1F
100
AcDbEntity
  8
IGES_LEVEL_0
 62
     7
100
AcDbLine
 10
2.479646018883221
 20
41.66519047968733
 30
0.0
 11
2.41183913271222
 21
41.66572391945732
 31
0.0
  0
LINE
  5
321
330
1F
100
AcDbEntity
  8
IGES_LEVEL_0
 62
     7
100
AcDbLine
 10
2.541348676016221
 20
41.66466770828733
 30
0.0
 11
2.500171286676221
 21
41.66501843057733
 31
0.0
  0
LINE
  5
322
330
1F
100
AcDbEntity
  8
IGES_LEVEL_0
 62
     7
100
AcDbLine
 10
2.500171286676221
 20
41.66501843057733
 30
0.0
 11
2.479646018883221
 21
41.66519047968733
 31
0.0
  0
ARC
  5
323
330
1F
100
AcDbEntity
  8
IGES_LEVEL_0
 62
     7
100
AcDbCircle
 10
10.56030208644619
 20
953.446442051253
 30
0.0
 40
911.8170362730702
100
AcDbArc
 50
269.4961071234553
 51
269.9829694300285
  0
ARC
  5
324
330
1F
100
AcDbEntity
  8
IGES_LEVEL_0
 62
     7
100
AcDbCircle
 10
10.01824597543169
 20
953.4464428296387
 30
0.0
 40
911.8170370514571
100
AcDbArc
 50
270.0170305701794
 51
270.5038928763369
  0
LINE
  5
325
330
1F
100
AcDbEntity
  8
IGES_LEVEL_0
 62
     7
100
AcDbLine
 10
18.09890204654022
 20
41.66519047968733
 30
0.0
 11
18.04750959364022
 21
41.66475621553732
 31
0.0
  0
LINE
  5
326
330
1F
100
AcDbEntity
  8
IGES_LEVEL_0
 62
     7
100
AcDbLine
 10
18.16670893271022
 20
41.66572391945732
 30
0.0
 11
18.14406408690022
 21
41.66555281740732
 31
0.0
  0
LINE
  5
327
330
1F
100
AcDbEntity
  8
IGES_LEVEL_0
 62
     7
100
AcDbLine
 10
18.14406408690022
 20
41.66555281740732
 30
0.0
 11
18.09890204654022
 21
41.66519047968733
 31
0.0
  0
LINE
  5
328
330
1F
100
AcDbEntity
  8
IGES_LEVEL_0
 62
     7
100
AcDbLine
 10
19.28770893213022
 20
42.79603349808733
 30
0.0
 11
19.28732518807022
 21
42.76671422471733
 31
0.0
  0
ARC
  5
329
330
1F
100
AcDbEntity
  8
IGES_LEVEL_0
 62
     7
100
AcDbCircle
 10
18.155953234285
 20
42.79737799561794
 30
0.0
 40
1.131787420259493
100
AcDbArc
 50
272.408618009836
 51
358.4474825955111
  0
LINE
  5
32A
330
1F
100
AcDbEntity
  8
IGES_LEVEL_0
 62
     7
100
AcDbLine
 10
18.20351765767022
 20
41.66659048671733
 30
0.0
 11
18.16670893271022
 21
41.66572391945732
 31
0.0
  0
LINE
  5
32B
330
1F
100
AcDbEntity
  8
IGES_LEVEL_0
 62
     7
100
AcDbLine
 10
19.28581646739022
 20
42.73604041805732
 30
0.0
 11
19.28769691185022
 21
42.79602513674733
 31
0.0
  0
LINE
  5
32C
330
1F
100
AcDbEntity
  8
IGES_LEVEL_0
 62
     7
100
AcDbLine
 10
19.28770892896022
 20
42.80117688297732
 30
0.0
 11
19.26427402990022
 21
43.04827334062733
 31
0.0
  0
LINE
  5
32D
330
1F
100
AcDbEntity
  8
IGES_LEVEL_0
 62
     7
100
AcDbLine
 10
19.26427403271022
 20
43.04827362064732
 30
0.0
 11
19.26374410007022
 21
43.05360159354732
 31
0.0
  0
LINE
  5
32E
330
1F
100
AcDbEntity
  8
IGES_LEVEL_0
 62
     7
100
AcDbLine
 10
19.26374410007022
 20
43.05360159354732
 30
0.0
 11
18.09146520266022
 21
54.83976632842732
 31
0.0
  0
LINE
  5
32F
330
1F
100
AcDbEntity
  8
IGES_LEVEL_0
 62
     7
100
AcDbLine
 10
18.09146520266022
 20
54.83976632842732
 30
0.0
 11
18.09105556968022
 21
54.84379683464732
 31
0.0
  0
ARC
  5
330
330
1F
100
AcDbEntity
  8
IGES_LEVEL_0
 62
     7
100
AcDbCircle
 10
17.09146100068125
 20
54.73955864914007
 30
0.0
 40
1.005014876352623
100
AcDbArc
 50
5.953313099239066
 51
61.92245923479466
  0
LINE
  5
331
330
1F
100
AcDbEntity
  8
IGES_LEVEL_0
 62
     7
100
AcDbLine
 10
17.56448739504022
 20
55.62629476091733
 30
0.0
 11
17.56031197269022
 21
55.62850577567733
 31
0.0
  0
ARC
  5
332
330
1F
100
AcDbEntity
  8
IGES_LEVEL_0
 62
     7
100
AcDbCircle
 10
11.0770682327111
 20
43.31765588698924
 30
0.0
 40
13.91364346150174
100
AcDbArc
 50
62.22743320692359
 51
65.25291746527361
  0
LINE
  5
333
330
1F
100
AcDbEntity
  8
IGES_LEVEL_0
 62
     7
100
AcDbLine
 10
16.90150714909022
 20
55.95353281275732
 30
0.0
 11
16.64435532287022
 21
56.06896171076733
 31
0.0
  0
LINE
  5
334
330
1F
100
AcDbEntity
  8
IGES_LEVEL_0
 62
     7
100
AcDbLine
 10
16.64435532287022
 20
56.06896171076733
 30
0.0
 11
16.62762315435022
 21
56.07626208253733
 31
0.0
  0
ARC
  5
335
330
1F
100
AcDbEntity
  8
IGES_LEVEL_0
 62
     7
100
AcDbCircle
 10
10.29363003972967
 20
41.51883953267819
 30
0.0
 40
15.875705340904
100
AcDbArc
 50
66.48594823733971
 51
90.01572092801652
  0
ARC
  5
336
330
1F
100
AcDbEntity
  8
IGES_LEVEL_0
 62
     7
100
AcDbCircle
 10
10.28491802760936
 20
41.51883952581388
 30
0.0
 40
15.87570534776778
100
AcDbArc
 50
89.98427907891454
 51
113.5140516555542
  0
LINE
  5
337
330
1F
100
AcDbEntity
  8
IGES_LEVEL_0
 62
     7
100
AcDbLine
 10
3.95092493746332
 20
56.07626209380732
 30
0.0
 11
3.934192742545621
 21
56.06896171076733
 31
0.0
  0
LINE
  5
338
330
1F
100
AcDbEntity
  8
IGES_LEVEL_0
 62
     7
100
AcDbLine
 10
3.934192742545621
 20
56.06896171076733
 30
0.0
 11
3.67704091633422
 21
55.95353281275732
 31
0.0
  0
ARC
  5
339
330
1F
100
AcDbEntity
  8
IGES_LEVEL_0
 62
     7
100
AcDbCircle
 10
9.501474716048605
 20
43.31766625801551
 30
0.0
 40
13.91363190099904
100
AcDbArc
 50
114.747081277424
 51
117.7725680501716
  0
LINE
  5
33A
330
1F
100
AcDbEntity
  8
IGES_LEVEL_0
 62
     7
100
AcDbLine
 10
3.01823609273122
 20
55.62850577567733
 30
0.0
 11
3.014060479797221
 21
55.62629466005733
 31
0.0
  0
ARC
  5
33B
330
1F
100
AcDbEntity
  8
IGES_LEVEL_0
 62
     7
100
AcDbCircle
 10
3.487087065700009
 20
54.73955864894146
 30
0.0
 40
1.005014877691133
100
AcDbArc
 50
118.0775531009581
 51
174.0466868807117
  0
LINE
  5
33C
330
1F
100
AcDbEntity
  8
IGES_LEVEL_0
 62
     7
100
AcDbLine
 10
2.487492495406221
 20
54.84379683493732
 30
0.0
 11
2.487082862754221
 21
54.83976632842732
 31
0.0
  0
LINE
  5
33D
330
1F
100
AcDbEntity
  8
IGES_LEVEL_0
 62
     7
100
AcDbLine
 10
2.487082862754221
 20
54.83976632842732
 30
0.0
 11
1.31480385125422
 21
43.05360044647733
 31
0.0
  0
LINE
  5
33E
330
1F
100
AcDbEntity
  8
IGES_LEVEL_0
 62
     7
100
AcDbLine
 10
1.31480385125422
 20
43.05360044647733
 30
0.0
 11
1.314274032710221
 21
43.04827362064732
 31
0.0
  0
LINE
  5
33F
330
1F
100
AcDbEntity
  8
IGES_LEVEL_0
 62
     7
100
AcDbLine
 10
1.290839135361221
 20
42.80117688307733
 30
0.0
 11
1.314274035253221
 21
43.04827334065733
 31
0.0
  0
LINE
  5
340
330
1F
100
AcDbEntity
  8
IGES_LEVEL_0
 62
     7
100
AcDbLine
 10
1.290851195407221
 20
42.79602526940732
 30
0.0
 11
1.291371198461221
 21
42.76666537123732
 31
0.0
  0
ARC
  5
341
330
1F
100
AcDbEntity
  8
IGES_LEVEL_0
 62
     7
100
AcDbCircle
 10
2.092481138127932
 20
58.83268508023772
 30
0.0
 40
0.305476653243942
100
AcDbArc
 50
50.49211812513672
 51
84.59041905996405
  0
LINE
  5
342
330
1F
100
AcDbEntity
  8
IGES_LEVEL_0
 62
     7
100
AcDbLine
 10
2.286820608042221
 20
59.06837164351732
 30
0.0
 11
2.291483633775221
 21
59.06443634423732
 31
0.0
  0
SPLINE
  5
343
330
1F
100
AcDbEntity
  8
IGES_LEVEL_0
 62
     7
100
AcDbSpline
210
0.0
220
0.0
230
1.0
 70
     8
 71
     3
 72
    15
 73
    11
 74
     0
 42
0.0000000001
 43
0.0000000001
 40
0.0
 40
0.0
 40
0.0
 40
0.0
 40
0.08983063631099
 40
0.35681903076
 40
0.5669205765373
 40
0.7290768898136
 40
0.8506855475841
 40
0.9375077090151001
 40
0.9934497362944
 40
1.0
 40
1.0
 40
1.0
 40
1.0
 10
18.78604626808022
 20
41.85719455865733
 30
0.0
 10
18.78810500602022
 20
41.84320666212732
 30
0.0
 10
18.79636388174022
 20
41.78764831745733
 30
0.0
 10
18.81004607228022
 20
41.69937880585732
 30
0.0
 10
18.82644644534022
 20
41.60051912832732
 30
0.0
 10
18.84059366985022
 20
41.52307547972733
 30
0.0
 10
18.85105164160022
 20
41.46819116563732
 30
0.0
 10
18.86181419436022
 20
41.42223769590732
 30
0.0
 10
18.86417277669022
 20
41.40849376924732
 30
0.0
 10
18.86914085025022
 20
41.39227567850733
 30
0.0
 10
18.86963805060022
 20
41.39065349553732
 30
0.0
  0
SPLINE
  5
344
330
1F
100
AcDbEntity
  8
IGES_LEVEL_0
 62
     7
100
AcDbSpline
210
0.0
220
0.0
230
1.0
 70
     8
 71
     3
 72
    15
 73
    11
 74
     0
 42
0.0000000001
 43
0.0000000001
 40
0.0
 40
0.0
 40
0.0
 40
0.0
 40
0.09037754573311
 40
0.3572055101849
 40
0.567180808563
 40
0.7292396841325
 40
0.8507752687769
 40
0.9375452598536
 40
0.9934536722662
 40
1.0
 40
1.0
 40
1.0
 40
1.0
 10
1.79254313283422
 20
41.85747542752733
 30
0.0
 10
1.790470891217221
 20
41.84339389647732
 30
0.0
 10
1.78219869435722
 20
41.78774193187732
 30
0.0
 10
1.76850199314422
 20
41.69937880585732
 30
0.0
 10
1.75210162008222
 20
41.60051912832732
 30
0.0
 10
1.737954395573221
 20
41.52307547972733
 30
0.0
 10
1.72749642381822
 20
41.46819116563732
 30
0.0
 10
1.716733871061221
 20
41.42223769590732
 30
0.0
 10
1.71437528873322
 20
41.40849376924732
 30
0.0
 10
1.70940721516522
 20
41.39227567850733
 30
0.0
 10
1.70891001481822
 20
41.39065349553732
 30
0.0
  0
ARC
  5
345
330
1F
100
AcDbEntity
  8
IGES_LEVEL_0
 62
     7
100
AcDbCircle
 10
18.48606692352287
 20
58.83268509157763
 30
0.0
 40
0.3054766415987746
100
AcDbArc
 50
95.4095804359138
 51
129.5079526604541
  0
LINE
  5
346
330
1F
100
AcDbEntity
  8
IGES_LEVEL_0
 62
     7
100
AcDbLine
 10
18.29172716984022
 20
59.06837140577732
 30
0.0
 11
18.28706443175022
 21
59.06443634432733
 31
0.0
  0
LINE
  5
347
330
1F
100
AcDbEntity
  8
IGES_LEVEL_0
 62
     7
100
AcDbLine
 10
18.09690075006022
 20
54.76996193111732
 30
0.0
 11
18.26310088607022
 21
54.78493943182733
 31
0.0
  0
LINE
  5
348
330
1F
100
AcDbEntity
  8
IGES_LEVEL_0
 62
     7
100
AcDbLine
 10
18.26310088607022
 20
54.78493943182733
 30
0.0
 11
18.27277246089022
 21
54.78598874987733
 31
0.0
  0
LINE
  5
349
330
1F
100
AcDbEntity
  8
IGES_LEVEL_0
 62
     7
100
AcDbLine
 10
18.27277246089022
 20
54.78598874987733
 30
0.0
 11
18.39920159452022
 21
54.80158615974732
 31
0.0
  0
LINE
  5
34A
330
1F
100
AcDbEntity
  8
IGES_LEVEL_0
 62
     7
100
AcDbLine
 10
18.39920159452022
 20
54.80158615974732
 30
0.0
 11
18.44870136541022
 21
54.80869114330732
 31
0.0
  0
SPLINE
  5
34B
330
1F
100
AcDbEntity
  8
IGES_LEVEL_0
 62
     7
100
AcDbSpline
210
0.0
220
0.0
230
1.0
 70
     8
 71
     3
 72
    13
 73
     9
 74
     0
 42
0.0000000001
 43
0.0000000001
 40
0.0
 40
0.0
 40
0.0
 40
0.0
 40
0.1674374842722
 40
0.402999816256
 40
0.5944483774726
 40
0.7478749171576
 40
0.8819107570038
 40
1.0
 40
1.0
 40
1.0
 40
1.0
 10
18.44870136541022
 20
54.80869114330732
 30
0.0
 10
18.53229190595022
 20
54.82118839078732
 30
0.0
 10
18.73257677693022
 20
54.85730506733732
 30
0.0
 10
19.02283346993022
 20
54.93592213685732
 30
0.0
 10
19.29298134392022
 20
55.05254551893732
 30
0.0
 10
19.49297688814022
 20
55.19223055969732
 30
0.0
 10
19.62351054012022
 20
55.35421706708733
 30
0.0
 10
19.66566892727022
 20
55.47767280942733
 30
0.0
 10
19.67434064941022
 20
55.53666273473733
 30
0.0
  0
LINE
  5
34C
330
1F
100
AcDbEntity
  8
IGES_LEVEL_0
 62
     7
100
AcDbLine
 10
19.67434064941022
 20
55.53666273473733
 30
0.0
 11
19.67530036095022
 21
55.54353787593733
 31
0.0
  0
ARC
  5
34D
330
1F
100
AcDbEntity
  8
IGES_LEVEL_0
 62
     7
100
AcDbCircle
 10
17.72038599109281
 20
59.89699164716327
 30
0.0
 40
4.515796730669865
100
AcDbArc
 50
271.7528691862509
 51
276.06937952723
  0
LINE
  5
34E
330
1F
100
AcDbEntity
  8
IGES_LEVEL_0
 62
     7
100
AcDbLine
 10
18.19785316471022
 20
55.40650779674732
 30
0.0
 11
18.20450398301022
 21
55.40722497316732
 31
0.0
  0
LINE
  5
34F
330
1F
100
AcDbEntity
  8
IGES_LEVEL_0
 62
     7
100
AcDbLine
 10
18.20450398301022
 20
55.40722497316732
 30
0.0
 11
18.26589622550022
 21
55.41437128993732
 31
0.0
  0
LINE
  5
350
330
1F
100
AcDbEntity
  8
IGES_LEVEL_0
 62
     7
100
AcDbLine
 10
18.26589622550022
 20
55.41437128993732
 30
0.0
 11
18.27256125609022
 21
55.41520618517733
 31
0.0
  0
LINE
  5
351
330
1F
100
AcDbEntity
  8
IGES_LEVEL_0
 62
     7
100
AcDbLine
 10
18.27256125609022
 20
55.41520618517733
 30
0.0
 11
18.28285370427022
 21
55.41651897096732
 31
0.0
  0
LINE
  5
352
330
1F
100
AcDbEntity
  8
IGES_LEVEL_0
 62
     7
100
AcDbLine
 10
0.9032477044712203
 20
55.54353787593733
 30
0.0
 11
0.9042130167282204
 21
55.53662480480733
 31
0.0
  0
SPLINE
  5
353
330
1F
100
AcDbEntity
  8
IGES_LEVEL_0
 62
     7
100
AcDbSpline
210
0.0
220
0.0
230
1.0
 70
     8
 71
     3
 72
    13
 73
     9
 74
     0
 42
0.0000000001
 43
0.0000000001
 40
0.0
 40
0.0
 40
0.0
 40
0.0
 40
0.1182360473614
 40
0.2530797068696
 40
0.4074522459292
 40
0.6003972016374
 40
0.8345181104892
 40
1.0
 40
1.0
 40
1.0
 40
1.0
 10
0.9042130167282204
 20
55.53662480480733
 30
0.0
 10
0.9129496888642205
 20
55.47722876233733
 30
0.0
 10
0.9556916858202204
 20
55.35262434894732
 30
0.0
 10
1.088309380743221
 20
55.18947824988732
 30
0.0
 10
1.29155702092022
 20
55.04914997249733
 30
0.0
 10
1.564270242012221
 20
54.93302295565732
 30
0.0
 10
1.855473702296221
 20
54.85521593814733
 30
0.0
 10
2.05527238495222
 20
54.81967776793732
 30
0.0
 10
2.138377011531221
 20
54.80742451061732
 30
0.0
  0
LINE
  5
354
330
1F
100
AcDbEntity
  8
IGES_LEVEL_0
 62
     7
100
AcDbLine
 10
2.138377011531221
 20
54.80742451061732
 30
0.0
 11
2.178974312475221
 21
54.80163663403732
 31
0.0
  0
LINE
  5
355
330
1F
100
AcDbEntity
  8
IGES_LEVEL_0
 62
     7
100
AcDbLine
 10
2.178974312475221
 20
54.80163663403732
 30
0.0
 11
2.305487608134221
 21
54.78602076221733
 31
0.0
  0
LINE
  5
356
330
1F
100
AcDbEntity
  8
IGES_LEVEL_0
 62
     7
100
AcDbLine
 10
2.305487608134221
 20
54.78602076221733
 30
0.0
 11
2.315181023511221
 21
54.78496862239732
 31
0.0
  0
LINE
  5
357
330
1F
100
AcDbEntity
  8
IGES_LEVEL_0
 62
     7
100
AcDbLine
 10
2.315181023511221
 20
54.78496862239732
 30
0.0
 11
2.48172909602122
 21
54.76995640307732
 31
0.0
  0
LINE
  5
358
330
1F
100
AcDbEntity
  8
IGES_LEVEL_0
 62
     7
100
AcDbLine
 10
2.29603731425322
 20
55.41667732252732
 30
0.0
 11
2.30590043351522
 21
55.41538358826733
 31
0.0
  0
LINE
  5
359
330
1F
100
AcDbEntity
  8
IGES_LEVEL_0
 62
     7
100
AcDbLine
 10
2.30590043351522
 20
55.41538358826733
 30
0.0
 11
2.311509915250221
 21
55.41465961407732
 31
0.0
  0
LINE
  5
35A
330
1F
100
AcDbEntity
  8
IGES_LEVEL_0
 62
     7
100
AcDbLine
 10
2.311509915250221
 20
55.41465961407732
 30
0.0
 11
2.338454052899221
 21
55.41130220181732
 31
0.0
  0
LINE
  5
35B
330
1F
100
AcDbEntity
  8
IGES_LEVEL_0
 62
     7
100
AcDbLine
 10
2.338454052899221
 20
55.41130220181732
 30
0.0
 11
2.38010022666322
 21
55.40650391978733
 31
0.0
  0
ARC
  5
35C
330
1F
100
AcDbEntity
  8
IGES_LEVEL_0
 62
     7
100
AcDbCircle
 10
2.845415037395499
 20
59.72653874862198
 30
0.0
 40
4.345022300912993
100
AcDbArc
 50
263.8523216709843
 51
268.3492410690077
  0
LINE
  5
35D
330
1F
100
AcDbEntity
  8
IGES_LEVEL_0
 62
     7
100
AcDbLine
 10
18.18279218095022
 20
41.66609903848732
 30
0.0
 11
18.18676959836022
 21
41.64053794804732
 31
0.0
  0
SPLINE
  5
35E
330
1F
100
AcDbEntity
  8
IGES_LEVEL_0
 62
     7
100
AcDbSpline
210
0.0
220
0.0
230
1.0
 70
     8
 71
     3
 72
    16
 73
    12
 74
     0
 42
0.0000000001
 43
0.0000000001
 40
0.0
 40
0.0
 40
0.0
 40
0.0
 40
0.2007474623101
 40
0.358061411217
 40
0.4811660728178
 40
0.5784117595377
 40
0.6578449127739
 40
0.7285357575808
 40
0.8018307041409
 40
0.8910914027019
 40
1.0
 40
1.0
 40
1.0
 40
1.0
 10
18.18676959836022
 20
41.64053794804732
 30
0.0
 10
18.19351534516022
 20
41.59748675409733
 30
0.0
 10
18.20596577809022
 20
41.52076386726733
 30
0.0
 10
18.22420747196022
 20
41.41791808969732
 30
0.0
 10
18.23998993286022
 20
41.33746643689732
 30
0.0
 10
18.25402196041022
 20
41.27391549328733
 30
0.0
 10
18.26730117025022
 20
41.22187338164732
 30
0.0
 10
18.28155512232022
 20
41.17549037681732
 30
0.0
 10
18.30020655822022
 20
41.12833159642732
 30
0.0
 10
18.32885242485022
 20
41.07658646758733
 30
0.0
 10
18.35661536430022
 20
41.04319994985733
 30
0.0
 10
18.37362452905022
 20
41.02678126751732
 30
0.0
  0
ARC
  5
35F
330
1F
100
AcDbEntity
  8
IGES_LEVEL_0
 62
     7
100
AcDbCircle
 10
17.59816375780199
 20
56.73571596531392
 30
0.0
 40
0.2787778251027935
100
AcDbArc
 50
162.8759331728218
 51
177.3817469403476
  0
SPLINE
  5
360
330
1F
100
AcDbEntity
  8
IGES_LEVEL_0
 62
     7
100
AcDbSpline
210
0.0
220
0.0
230
1.0
 70
     8
 71
     3
 72
    13
 73
     9
 74
     0
 42
0.0000000001
 43
0.0000000001
 40
0.0
 40
0.0
 40
0.0
 40
0.0
 40
0.09495484233189
 40
0.2300352200355
 40
0.4113196755184
 40
0.6453779765383
 40
0.9372446311846
 40
1.0
 40
1.0
 40
1.0
 40
1.0
 10
17.31967695792022
 20
56.74845088033732
 30
0.0
 10
17.31773336432022
 20
56.72229347224732
 30
0.0
 10
17.30751866549022
 20
56.63678693924732
 30
0.0
 10
17.30336309846022
 20
56.50442170511732
 30
0.0
 10
17.30145452922022
 20
56.31831940387733
 30
0.0
 10
17.30815409118022
 20
56.08277690285733
 30
0.0
 10
17.31949362340022
 20
55.88609146715732
 30
0.0
 10
17.32840756716022
 20
55.76785340565732
 30
0.0
 10
17.33004938522022
 20
55.74693669947732
 30
0.0
  0
SPLINE
  5
361
330
1F
100
AcDbEntity
  8
IGES_LEVEL_0
 62
     7
100
AcDbSpline
210
0.0
220
0.0
230
1.0
 70
     8
 71
     3
 72
    14
 73
    10
 74
     0
 42
0.0000000001
 43
0.0000000001
 40
0.0
 40
0.0
 40
0.0
 40
0.0
 40
0.09223599095559
 40
0.1812598305562
 40
0.2790972328683
 40
0.3985855563972
 40
0.5515097938720001
 40
0.7487199382519
 40
1.0
 40
1.0
 40
1.0
 40
1.0
 10
16.81533446076022
 20
57.17252497838732
 30
0.0
 10
16.79437357426022
 20
57.14543857395732
 30
0.0
 10
16.76026530032022
 20
57.08650918985732
 30
0.0
 10
16.72721420666022
 20
56.98790539037732
 30
0.0
 10
16.70487689004022
 20
56.87617021309733
 30
0.0
 10
16.68899111806022
 20
56.73951183153732
 30
0.0
 10
16.67890685924022
 20
56.56534694349733
 30
0.0
 10
16.67602394471022
 20
56.34198513770733
 30
0.0
 10
16.68016067980022
 20
56.17546510489732
 30
0.0
 10
16.68391121841022
 20
56.08222893827733
 30
0.0
  0
LINE
  5
362
330
1F
100
AcDbEntity
  8
IGES_LEVEL_0
 62
     7
100
AcDbLine
 10
16.68391121841022
 20
56.08222893827733
 30
0.0
 11
16.68437816101022
 21
56.07079941202732
 31
0.0
  0
LINE
  5
363
330
1F
100
AcDbEntity
  8
IGES_LEVEL_0
 62
     7
100
AcDbLine
 10
16.68437816101022
 20
56.07079941202732
 30
0.0
 11
16.68522273784022
 21
56.05095641478732
 31
0.0
  0
ARC
  5
364
330
1F
100
AcDbEntity
  8
IGES_LEVEL_0
 62
     7
100
AcDbCircle
 10
2.092006895865868
 20
58.82174151777946
 30
0.0
 40
0.316416679298152
100
AcDbArc
 50
84.69174471676553
 51
179.3866342077697
  0
ARC
  5
365
330
1F
100
AcDbEntity
  8
IGES_LEVEL_0
 62
     7
100
AcDbCircle
 10
18.48654112595183
 20
58.82174140391937
 30
0.0
 40
0.3164167886357061
100
AcDbArc
 50
0.6154031061951775
 51
95.30824551352096
  0
SPLINE
  5
366
330
1F
100
AcDbEntity
  8
IGES_LEVEL_0
 62
     7
100
AcDbSpline
210
0.0
220
0.0
230
1.0
 70
     8
 71
     3
 72
    14
 73
    10
 74
     0
 42
0.0000000001
 43
0.0000000001
 40
0.0
 40
0.0
 40
0.0
 40
0.0
 40
0.09223599095558
 40
0.1812598305562
 40
0.2790972328683
 40
0.3985855563972
 40
0.5515097938720001
 40
0.7487199382519
 40
1.0
 40
1.0
 40
1.0
 40
1.0
 10
3.763213604658021
 20
57.17252497838732
 30
0.0
 10
3.78417449115502
 20
57.14543857395732
 30
0.0
 10
3.81828276510272
 20
57.08650918985732
 30
0.0
 10
3.851333858760721
 20
56.98790539037732
 30
0.0
 10
3.87367117538172
 20
56.87617021309733
 30
0.0
 10
3.88955694736062
 20
56.73951183153732
 30
0.0
 10
3.899641206176821
 20
56.56534694349733
 30
0.0
 10
3.90252412071252
 20
56.34198513770733
 30
0.0
 10
3.898387385618621
 20
56.17546510489732
 30
0.0
 10
3.894636847004821
 20
56.08222893827733
 30
0.0
  0
LINE
  5
367
330
1F
100
AcDbEntity
  8
IGES_LEVEL_0
 62
     7
100
AcDbLine
 10
3.894636847004821
 20
56.08222893827733
 30
0.0
 11
3.89416990440742
 21
56.07079941202732
 31
0.0
  0
LINE
  5
368
330
1F
100
AcDbEntity
  8
IGES_LEVEL_0
 62
     7
100
AcDbLine
 10
3.89416990440742
 20
56.07079941202732
 30
0.0
 11
3.89332532750952
 21
56.05095641313732
 31
0.0
  0
ARC
  5
369
330
1F
100
AcDbEntity
  8
IGES_LEVEL_0
 62
     7
100
AcDbCircle
 10
2.980384307412547
 20
56.73571596530166
 30
0.0
 40
0.2787778253060431
100
AcDbArc
 50
2.618253060263879
 51
17.12406681694395
  0
SPLINE
  5
36A
330
1F
100
AcDbEntity
  8
IGES_LEVEL_0
 62
     7
100
AcDbSpline
210
0.0
220
0.0
230
1.0
 70
     8
 71
     3
 72
    13
 73
     9
 74
     0
 42
0.0000000001
 43
0.0000000001
 40
0.0
 40
0.0
 40
0.0
 40
0.0
 40
0.09444203700034
 40
0.2287929106979
 40
0.4090983362228
 40
0.641892601184
 40
0.9321830247195
 40
1.0
 40
1.0
 40
1.0
 40
1.0
 10
3.258871107497221
 20
56.74845088033732
 30
0.0
 10
3.26081470110022
 20
56.72229347224732
 30
0.0
 10
3.27102939992822
 20
56.63678693924732
 30
0.0
 10
3.275184966955221
 20
56.50442170511732
 30
0.0
 10
3.277093536202221
 20
56.31831940387733
 30
0.0
 10
3.270393974236221
 20
56.08277690285733
 30
0.0
 10
3.25894984897722
 20
55.88427728926732
 30
0.0
 10
3.249867035858221
 20
55.76423262785733
 30
0.0
 10
3.248071065346221
 20
55.74150747290732
 30
0.0
  0
LINE
  5
36B
330
1F
100
AcDbEntity
  8
IGES_LEVEL_0
 62
     7
100
AcDbLine
 10
2.395754796450221
 20
41.66609199790732
 30
0.0
 11
2.39177846706122
 21
41.64053794804732
 31
0.0
  0
SPLINE
  5
36C
330
1F
100
AcDbEntity
  8
IGES_LEVEL_0
 62
     7
100
AcDbSpline
210
0.0
220
0.0
230
1.0
 70
     8
 71
     3
 72
    16
 73
    12
 74
     0
 42
0.0000000001
 43
0.0000000001
 40
0.0
 40
0.0
 40
0.0
 40
0.0
 40
0.2007474623101
 40
0.358061411217
 40
0.4811660728178
 40
0.5784117595377
 40
0.657844912774
 40
0.7285357575809
 40
0.801830704141
 40
0.8910914027020001
 40
1.0
 40
1.0
 40
1.0
 40
1.0
 10
2.39177846706122
 20
41.64053794804732
 30
0.0
 10
2.385032720259221
 20
41.59748675409733
 30
0.0
 10
2.372582287326221
 20
41.52076386726733
 30
0.0
 10
2.354340593454221
 20
41.41791808969732
 30
0.0
 10
2.338558132555221
 20
41.33746643689732
 30
0.0
 10
2.32452610501222
 20
41.27391549328733
 30
0.0
 10
2.311246895173221
 20
41.22187338164732
 30
0.0
 10
2.296992943101221
 20
41.17549037681732
 30
0.0
 10
2.278341507200221
 20
41.12833159642732
 30
0.0
 10
2.24969564056922
 20
41.07658646758733
 30
0.0
 10
2.22193270112122
 20
41.04319994985733
 30
0.0
 10
2.204923536368221
 20
41.02678126751732
 30
0.0
  0
ENDSEC
  0
SECTION
  2
OBJECTS
  0
DICTIONARY
  5
C
330
0
100
AcDbDictionary
  3
ACAD_GROUP
350
D
  3
ACAD_LAYOUT
350
1A
  3
ACAD_MLINESTYLE
350
17
  3
ACAD_PLOTSETTINGS
350
19
  3
ACDBHEADERROUNDTRIPXREC
350
36D
  0
DICTIONARY
  5
38D
330
29
100
AcDbDictionary
280
     1
  3
ACAD_XREC_ROUNDTRIP
360
38E
  0
DICTIONARY
  5
D
102
{ACAD_REACTORS
330
C
102
}
330
C
100
AcDbDictionary
  0
DICTIONARY
  5
1A
102
{ACAD_REACTORS
330
C
102
}
330
C
100
AcDbDictionary
  0
DICTIONARY
  5
17
102
{ACAD_REACTORS
330
C
102
}
330
C
100
AcDbDictionary
  3
STANDARD
350
18
  0
DICTIONARY
  5
19
102
{ACAD_REACTORS
330
C
102
}
330
C
100
AcDbDictionary
  0
DICTIONARY
  5
36D
102
{ACAD_REACTORS
330
C
102
}
330
C
100
AcDbDictionary
  3
CEPSNTYPE
350
376
  3
DIMSTYLEDATA
350
38C
  3
FINGERPRINTGUID
350
377
  3
HYPERLINKBASE
350
370
  3
INSUNITS
350
375
  3
LAYOUTDICT
350
372
  3
LWETCUNION
350
374
  3
PLOTSETDICT
350
373
  3
PSVPSCALE
350
379
  3
PUCSBASE
350
37C
  3
PUCSORGBACK
350
382
  3
PUCSORGBOTTOM
350
37E
  3
PUCSORGFRONT
350
381
  3
PUCSORGLEFT
350
37F
  3
PUCSORGRIGHT
350
380
  3
PUCSORGTOP
350
37D
  3
PUCSORTHOREF
350
37A
  3
PUCSORTHOVIEW
350
37B
  3
STYLESHEET
350
371
  3
TSTACKALIGN
350
36E
  3
TSTACKSIZE
350
36F
  3
UCSBASE
350
385
  3
UCSORGBACK
350
38B
  3
UCSORGBOTTOM
350
387
  3
UCSORGFRONT
350
38A
  3
UCSORGLEFT
350
388
  3
UCSORGRIGHT
350
389
  3
UCSORGTOP
350
386
  3
UCSORTHOREF
350
383
  3
UCSORTHOVIEW
350
384
  3
VERSIONGUID
350
378
  0
XRECORD
  5
38E
102
{ACAD_REACTORS
330
38D
102
}
330
38D
100
AcDbXrecord
102
UCS
 74
     0
 71
     1
 10
0.0
 20
0.0
 30
0.0
 10
1.0
 20
0.0
 30
0.0
 10
0.0
 20
1.0
 30
0.0
146
0.0
 79
     0
102
VIEW
281
     0
  0
MLINESTYLE
  5
18
102
{ACAD_REACTORS
330
17
102
}
330
17
100
AcDbMlineStyle
  2
Standard
 70
     0
  3

 62
   256
 51
90.0
 52
90.0
 71
     2
 49
0.5
 62
   256
  6
BYLAYER
 49
-0.5
 62
   256
  6
BYLAYER
  0
XRECORD
  5
376
102
{ACAD_REACTORS
330
36D
102
}
330
36D
100
AcDbXrecord
 90
        0
  0
XRECORD
  5
38C
102
{ACAD_REACTORS
330
36D
102
}
330
36D
100
AcDbXrecord
1000
DSTYLE
1002
{
1070
   340
340
11
1002
}
  0
XRECORD
  5
377
102
{ACAD_REACTORS
330
36D
102
}
330
36D
100
AcDbXrecord
  1
{FAEB1C30-E019-11D5-929B-00C0DF256EC4}
  0
XRECORD
  5
370
102
{ACAD_REACTORS
330
36D
102
}
330
36D
100
AcDbXrecord
  1

  0
XRECORD
  5
375
102
{ACAD_REACTORS
330
36D
102
}
330
36D
100
AcDbXrecord
 90
        1
  0
XRECORD
  5
372
102
{ACAD_REACTORS
330
36D
102
}
330
36D
100
AcDbXrecord
340
1A
  0
XRECORD
  5
374
102
{ACAD_REACTORS
330
36D
102
}
330
36D
100
AcDbXrecord
 90
     2560
  0
XRECORD
  5
373
102
{ACAD_REACTORS
330
36D
102
}
330
36D
100
AcDbXrecord
340
19
  0
XRECORD
  5
379
102
{ACAD_REACTORS
330
36D
102
}
330
36D
100
AcDbXrecord
 40
0.0
  0
XRECORD
  5
37C
102
{ACAD_REACTORS
330
36D
102
}
330
36D
100
AcDbXrecord
340
0
  0
XRECORD
  5
382
102
{ACAD_REACTORS
330
36D
102
}
330
36D
100
AcDbXrecord
 10
0.0
 20
0.0
 30
0.0
  0
XRECORD
  5
37E
102
{ACAD_REACTORS
330
36D
102
}
330
36D
100
AcDbXrecord
 10
0.0
 20
0.0
 30
0.0
  0
XRECORD
  5
381
102
{ACAD_REACTORS
330
36D
102
}
330
36D
100
AcDbXrecord
 10
0.0
 20
0.0
 30
0.0
  0
XRECORD
  5
37F
102
{ACAD_REACTORS
330
36D
102
}
330
36D
100
AcDbXrecord
 10
0.0
 20
0.0
 30
0.0
  0
XRECORD
  5
380
102
{ACAD_REACTORS
330
36D
102
}
330
36D
100
AcDbXrecord
 10
0.0
 20
0.0
 30
0.0
  0
XRECORD
  5
37D
102
{ACAD_REACTORS
330
36D
102
}
330
36D
100
AcDbXrecord
 10
0.0
 20
0.0
 30
0.0
  0
XRECORD
  5
37A
102
{ACAD_REACTORS
330
36D
102
}
330
36D
100
AcDbXrecord
340
0
  0
XRECORD
  5
37B
102
{ACAD_REACTORS
330
36D
102
}
330
36D
100
AcDbXrecord
 70
     0
  0
XRECORD
  5
371
102
{ACAD_REACTORS
330
36D
102
}
330
36D
100
AcDbXrecord
  1

  0
XRECORD
  5
36E
102
{ACAD_REACTORS
330
36D
102
}
330
36D
100
AcDbXrecord
 90
        1
  0
XRECORD
  5
36F
102
{ACAD_REACTORS
330
36D
102
}
330
36D
100
AcDbXrecord
 90
       70
  0
XRECORD
  5
385
102
{ACAD_REACTORS
330
36D
102
}
330
36D
100
AcDbXrecord
340
0
  0
XRECORD
  5
38B
102
{ACAD_REACTORS
330
36D
102
}
330
36D
100
AcDbXrecord
 10
0.0
 20
0.0
 30
0.0
  0
XRECORD
  5
387
102
{ACAD_REACTORS
330
36D
102
}
330
36D
100
AcDbXrecord
 10
0.0
 20
0.0
 30
0.0
  0
XRECORD
  5
38A
102
{ACAD_REACTORS
330
36D
102
}
330
36D
100
AcDbXrecord
 10
0.0
 20
0.0
 30
0.0
  0
XRECORD
  5
388
102
{ACAD_REACTORS
330
36D
102
}
330
36D
100
AcDbXrecord
 10
0.0
 20
0.0
 30
0.0
  0
XRECORD
  5
389
102
{ACAD_REACTORS
330
36D
102
}
330
36D
100
AcDbXrecord
 10
0.0
 20
0.0
 30
0.0
  0
XRECORD
  5
386
102
{ACAD_REACTORS
330
36D
102
}
330
36D
100
AcDbXrecord
 10
0.0
 20
0.0
 30
0.0
  0
XRECORD
  5
383
102
{ACAD_REACTORS
330
36D
102
}
330
36D
100
AcDbXrecord
340
0
  0
XRECORD
  5
384
102
{ACAD_REACTORS
330
36D
102
}
330
36D
100
AcDbXrecord
 70
     0
  0
XRECORD
  5
378
102
{ACAD_REACTORS
330
36D
102
}
330
36D
100
AcDbXrecord
  1
{FAEB1C32-E019-11D5-929B-00C0DF256EC4}
  0
ENDSEC
  0
EOF
