  0
SECTION
  2
HEADER
  9
$ACADVER
  1
AC1014
  9
$ACADMAINTVER
 70
     9
  9
$DWGCODEPAGE
  3
ANSI_1252
  9
$INSBASE
 10
0.0
 20
0.0
 30
0.0
  9
$EXTMIN
 10
1.000000000000000E+20
 20
1.000000000000000E+20
 30
1.000000000000000E+20
  9
$EXTMAX
 10
-1.000000000000000E+20
 20
-1.000000000000000E+20
 30
-1.000000000000000E+20
  9
$LIMMIN
 10
0.0
 20
0.0
  9
$LIMMAX
 10
12.0
 20
9.0
  9
$ORTHOMODE
 70
     0
  9
$REGENMODE
 70
     1
  9
$FILLMODE
 70
     1
  9
$QTEXTMODE
 70
     0
  9
$MIRRTEXT
 70
     1
  9
$DRAGMODE
 70
     2
  9
$LTSCALE
 40
1.0
  9
$OSMODE
 70
    37
  9
$ATTMODE
 70
     1
  9
$TEXTSIZE
 40
0.2
  9
$TRACEWID
 40
0.05
  9
$TEXTSTYLE
  7
STANDARD
  9
$CLAYER
  8
DEFAULT
  9
$CELTYPE
  6
BYLAYER
  9
$CECOLOR
 62
   256
  9
$CELTSCALE
 40
1.0
  9
$DELOBJ
 70
     1
  9
$DISPSILH
 70
     0
  9
$DIMSCALE
 40
1.0
  9
$DIMASZ
 40
0.18
  9
$DIMEXO
 40
0.0625
  9
$DIMDLI
 40
0.38
  9
$DIMRND
 40
0.0
  9
$DIMDLE
 40
0.0
  9
$DIMEXE
 40
0.18
  9
$DIMTP
 40
0.0
  9
$DIMTM
 40
0.0
  9
$DIMTXT
 40
0.18
  9
$DIMCEN
 40
0.09
  9
$DIMTSZ
 40
0.0
  9
$DIMTOL
 70
     0
  9
$DIMLIM
 70
     0
  9
$DIMTIH
 70
     1
  9
$DIMTOH
 70
     1
  9
$DIMSE1
 70
     0
  9
$DIMSE2
 70
     0
  9
$DIMTAD
 70
     0
  9
$DIMZIN
 70
     0
  9
$DIMBLK
  1

  9
$DIMASO
 70
     1
  9
$DIMSHO
 70
     1
  9
$DIMPOST
  1

  9
$DIMAPOST
  1

  9
$DIMALT
 70
     0
  9
$DIMALTD
 70
     2
  9
$DIMALTF
 40
25.4
  9
$DIMLFAC
 40
1.0
  9
$DIMTOFL
 70
     0
  9
$DIMTVP
 40
0.0
  9
$DIMTIX
 70
     0
  9
$DIMSOXD
 70
     0
  9
$DIMSAH
 70
     0
  9
$DIMBLK1
  1

  9
$DIMBLK2
  1

  9
$DIMSTYLE
  2
STANDARD
  9
$DIMCLRD
 70
     0
  9
$DIMCLRE
 70
     0
  9
$DIMCLRT
 70
     0
  9
$DIMTFAC
 40
1.0
  9
$DIMGAP
 40
0.09
  9
$DIMJUST
 70
     0
  9
$DIMSD1
 70
     0
  9
$DIMSD2
 70
     0
  9
$DIMTOLJ
 70
     1
  9
$DIMTZIN
 70
     0
  9
$DIMALTZ
 70
     0
  9
$DIMALTTZ
 70
     0
  9
$DIMFIT
 70
     3
  9
$DIMUPT
 70
     0
  9
$DIMUNIT
 70
     2
  9
$DIMDEC
 70
     4
  9
$DIMTDEC
 70
     4
  9
$DIMALTU
 70
     2
  9
$DIMALTTD
 70
     2
  9
$DIMTXSTY
  7
STANDARD
  9
$DIMAUNIT
 70
     0
  9
$LUNITS
 70
     2
  9
$LUPREC
 70
     3
  9
$SKETCHINC
 40
0.1
  9
$FILLETRAD
 40
0.5
  9
$AUNITS
 70
     0
  9
$AUPREC
 70
     0
  9
$MENU
  1
.
  9
$ELEVATION
 40
0.0
  9
$PELEVATION
 40
0.0
  9
$THICKNESS
 40
0.0
  9
$LIMCHECK
 70
     0
  9
$CHAMFERA
 40
0.5
  9
$CHAMFERB
 40
0.5
  9
$CHAMFERC
 40
1.0
  9
$CHAMFERD
 40
0.0
  9
$SKPOLY
 70
     0
  9
$TDCREATE
 40
2453721.579322303
  9
$TDUPDATE
 40
2453721.579322315
  9
$TDINDWG
 40
0.0000000116
  9
$TDUSRTIMER
 40
0.0000000116
  9
$USRTIMER
 70
     1
  9
$ANGBASE
 50
0.0
  9
$ANGDIR
 70
     0
  9
$PDMODE
 70
     0
  9
$PDSIZE
 40
0.0
  9
$PLINEWID
 40
0.0
  9
$COORDS
 70
     1
  9
$SPLFRAME
 70
     0
  9
$SPLINETYPE
 70
     6
  9
$SPLINESEGS
 70
     8
  9
$ATTDIA
 70
     0
  9
$ATTREQ
 70
     1
  9
$HANDLING
 70
     1
  9
$HANDSEED
  5
367
  9
$SURFTAB1
 70
     6
  9
$SURFTAB2
 70
     6
  9
$SURFTYPE
 70
     6
  9
$SURFU
 70
     6
  9
$SURFV
 70
     6
  9
$UCSNAME
  2

  9
$UCSORG
 10
0.0
 20
0.0
 30
0.0
  9
$UCSXDIR
 10
1.0
 20
0.0
 30
0.0
  9
$UCSYDIR
 10
0.0
 20
1.0
 30
0.0
  9
$PUCSNAME
  2

  9
$PUCSORG
 10
0.0
 20
0.0
 30
0.0
  9
$PUCSXDIR
 10
1.0
 20
0.0
 30
0.0
  9
$PUCSYDIR
 10
0.0
 20
1.0
 30
0.0
  9
$USERI1
 70
     0
  9
$USERI2
 70
     0
  9
$USERI3
 70
     0
  9
$USERI4
 70
     0
  9
$USERI5
 70
     0
  9
$USERR1
 40
0.0
  9
$USERR2
 40
0.0
  9
$USERR3
 40
0.0
  9
$USERR4
 40
0.0
  9
$USERR5
 40
0.0
  9
$WORLDVIEW
 70
     1
  9
$SHADEDGE
 70
     3
  9
$SHADEDIF
 70
    70
  9
$TILEMODE
 70
     1
  9
$MAXACTVP
 70
    64
  9
$PINSBASE
 10
0.0
 20
0.0
 30
0.0
  9
$PLIMCHECK
 70
     0
  9
$PEXTMIN
 10
1.000000000000000E+20
 20
1.000000000000000E+20
 30
1.000000000000000E+20
  9
$PEXTMAX
 10
-1.000000000000000E+20
 20
-1.000000000000000E+20
 30
-1.000000000000000E+20
  9
$PLIMMIN
 10
0.0
 20
0.0
  9
$PLIMMAX
 10
12.0
 20
9.0
  9
$UNITMODE
 70
     0
  9
$VISRETAIN
 70
     1
  9
$PLINEGEN
 70
     0
  9
$PSLTSCALE
 70
     1
  9
$TREEDEPTH
 70
  3020
  9
$PICKSTYLE
 70
     1
  9
$CMLSTYLE
  2
STANDARD
  9
$CMLJUST
 70
     0
  9
$CMLSCALE
 40
1.0
  9
$PROXYGRAPHICS
 70
     1
  9
$MEASUREMENT
 70
     0
  0
ENDSEC
  0
SECTION
  2
CLASSES
  0
CLASS
  1
ACDBDICTIONARYWDFLT
  2
AcDbDictionaryWithDefault
  3
ObjectDBX Classes
 90
        0
280
     0
281
     0
  0
CLASS
  1
XRECORD
  2
AcDbXrecord
  3
AutoCAD 2000
 90
        0
280
     0
281
     0
  0
CLASS
  1
LWPOLYLINE
  2
AcDbPolyline
  3
AutoCAD 2000
 90
        0
280
     0
281
     1
  0
CLASS
  1
HATCH
  2
AcDbHatch
  3
AutoCAD 2000
 90
        0
280
     0
281
     1
  0
CLASS
  1
ACDBPLACEHOLDER
  2
AcDbPlaceHolder
  3
ObjectDBX Classes
 90
        0
280
     0
281
     0
  0
CLASS
  1
LAYOUT
  2
AcDbLayout
  3
ObjectDBX Classes
 90
        0
280
     0
281
     0
  0
ENDSEC
  0
SECTION
  2
TABLES
  0
TABLE
  2
VPORT
  5
8
330
0
100
AcDbSymbolTable
 70
     2
  0
VPORT
  5
29
102
{ACAD_XDICTIONARY
360
365
102
}
330
8
100
AcDbSymbolTableRecord
100
AcDbViewportTableRecord
  2
*ACTIVE
 70
     0
 10
0.0
 20
0.0
 11
1.0
 21
1.0
 12
28.08056689992519
 22
35.19781195170654
 13
0.0
 23
0.0
 14
0.5
 24
0.5
 15
0.5
 25
0.5
 16
0.0
 26
0.0
 36
80.21230066091221
 17
0.0
 27
0.0
 37
0.0
 40
70.3847635083421
 41
1.972972972850329
 42
50.0
 43
0.0
 44
0.0
 50
0.0
 51
0.0
 71
     0
 72
   100
 73
     1
 74
     3
 75
     0
 76
     0
 77
     0
 78
     0
  0
ENDTAB
  0
TABLE
  2
LTYPE
  5
5
330
0
100
AcDbSymbolTable
 70
     1
  0
LTYPE
  5
14
330
5
100
AcDbSymbolTableRecord
100
AcDbLinetypeTableRecord
  2
BYBLOCK
 70
     0
  3

 72
    65
 73
     0
 40
0.0
  0
LTYPE
  5
15
330
5
100
AcDbSymbolTableRecord
100
AcDbLinetypeTableRecord
  2
BYLAYER
 70
     0
  3

 72
    65
 73
     0
 40
0.0
  0
LTYPE
  5
16
330
5
100
AcDbSymbolTableRecord
100
AcDbLinetypeTableRecord
  2
CONTINUOUS
 70
     0
  3
Solid line
 72
    65
 73
     0
 40
0.0
  0
ENDTAB
  0
TABLE
  2
LAYER
  5
2
330
0
100
AcDbSymbolTable
 70
     3
  0
LAYER
  5
10
330
2
100
AcDbSymbolTableRecord
100
AcDbLayerTableRecord
  2
0
 70
     0
 62
     7
  6
CONTINUOUS
  0
LAYER
  5
2A
330
2
100
AcDbSymbolTableRecord
100
AcDbLayerTableRecord
  2
IGES_LEVEL_0
 70
     0
 62
   255
  6
CONTINUOUS
  0
LAYER
  5
68
330
2
100
AcDbSymbolTableRecord
100
AcDbLayerTableRecord
  2
DEFAULT
 70
     0
 62
     7
  6
CONTINUOUS
  0
ENDTAB
  0
TABLE
  2
STYLE
  5
3
330
0
100
AcDbSymbolTable
 70
     1
  0
STYLE
  5
11
330
3
100
AcDbSymbolTableRecord
100
AcDbTextStyleTableRecord
  2
STANDARD
 70
     0
 40
0.0
 41
1.0
 50
0.0
 71
     0
 42
0.2
  3
txt
  4

  0
ENDTAB
  0
TABLE
  2
VIEW
  5
6
330
0
100
AcDbSymbolTable
 70
     0
  0
ENDTAB
  0
TABLE
  2
UCS
  5
7
330
0
100
AcDbSymbolTable
 70
     0
  0
ENDTAB
  0
TABLE
  2
APPID
  5
9
330
0
100
AcDbSymbolTable
 70
     1
  0
APPID
  5
12
330
9
100
AcDbSymbolTableRecord
100
AcDbRegAppTableRecord
  2
ACAD
 70
     0
  0
ENDTAB
  0
TABLE
  2
DIMSTYLE
  5
A
330
0
100
AcDbSymbolTable
 70
     1
  0
DIMSTYLE
105
27
330
A
100
AcDbSymbolTableRecord
100
AcDbDimStyleTableRecord
  2
STANDARD
 70
     0
  3

  4

  5

  6

  7

 40
1.0
 41
0.18
 42
0.0625
 43
0.38
 44
0.18
 45
0.0
 46
0.0
 47
0.0
 48
0.0
140
0.18
141
0.09
142
0.0
143
25.4
144
1.0
145
0.0
146
1.0
147
0.09
 71
     0
 72
     0
 73
     1
 74
     1
 75
     0
 76
     0
 77
     0
 78
     0
170
     0
171
     2
172
     0
173
     0
174
     0
175
     0
176
     0
177
     0
178
     0
270
     2
271
     4
272
     4
273
     2
274
     2
340
11
275
     0
280
     0
281
     0
282
     0
283
     1
284
     0
285
     0
286
     0
287
     3
288
     0
  0
ENDTAB
  0
TABLE
  2
BLOCK_RECORD
  5
1
330
0
100
AcDbSymbolTable
 70
     1
  0
BLOCK_RECORD
  5
1F
330
1
100
AcDbSymbolTableRecord
100
AcDbBlockTableRecord
  2
*MODEL_SPACE
  0
BLOCK_RECORD
  5
1B
330
1
100
AcDbSymbolTableRecord
100
AcDbBlockTableRecord
  2
*PAPER_SPACE
  0
ENDTAB
  0
ENDSEC
  0
SECTION
  2
BLOCKS
  0
BLOCK
  5
20
330
1F
100
AcDbEntity
  8
0
100
AcDbBlockBegin
  2
*MODEL_SPACE
 70
     0
 71
     0
 10
0.0
 20
0.0
 30
0.0
  3
*MODEL_SPACE
  1

  0
ENDBLK
  5
21
330
1F
100
AcDbEntity
  8
0
100
AcDbBlockEnd
  0
BLOCK
  5
1C
330
1B
100
AcDbEntity
 67
     1
  8
0
100
AcDbBlockBegin
  2
*PAPER_SPACE
 70
     0
 71
     0
 10
0.0
 20
0.0
 30
0.0
  3
*PAPER_SPACE
  1

  0
ENDBLK
  5
1D
330
1B
100
AcDbEntity
 67
     1
  8
0
100
AcDbBlockEnd
  0
ENDSEC
  0
SECTION
  2
ENTITIES
  0
LINE
  5
2B
330
1F
100
AcDbEntity
  8
IGES_LEVEL_0
 62
     7
100
AcDbLine
 10
3.929763626517804
 20
63.01469035828826
 30
0.0
 11
3.929763626517804
 21
63.01608435828826
 31
0.0
  0
LINE
  5
2C
330
1F
100
AcDbEntity
  8
IGES_LEVEL_0
 62
     7
100
AcDbLine
 10
3.799763626517805
 20
63.01772735828826
 30
0.0
 11
3.799763626517805
 21
63.01774435828826
 31
0.0
  0
LINE
  5
2D
330
1F
100
AcDbEntity
  8
IGES_LEVEL_0
 62
     7
100
AcDbLine
 10
3.684763626517807
 20
63.01774735828826
 30
0.0
 11
3.684763626517807
 21
63.01773035828826
 31
0.0
  0
LINE
  5
2E
330
1F
100
AcDbEntity
  8
IGES_LEVEL_0
 62
     7
100
AcDbLine
 10
3.554763626517804
 20
63.01464835828826
 30
0.0
 11
3.554763626517804
 21
63.01604335828826
 31
0.0
  0
ARC
  5
2F
330
1F
100
AcDbEntity
  8
IGES_LEVEL_0
 62
     7
100
AcDbCircle
 10
3.742263676665225
 20
63.01581813926079
 30
0.0
 40
0.1875001956717631
100
AcDbArc
 50
0.0814678602029995
 51
179.9151229644865
  0
ARC
  5
30
330
1F
100
AcDbEntity
  8
IGES_LEVEL_0
 62
     7
100
AcDbCircle
 10
3.742267310020068
 20
62.98359442522171
 30
0.0
 40
0.0575266257538323
100
AcDbArc
 50
17.33993241500035
 51
162.673557166893
  0
ARC
  5
31
330
1F
100
AcDbEntity
  8
IGES_LEVEL_0
 62
     7
100
AcDbCircle
 10
3.742263499596746
 20
63.01782685737747
 30
0.0
 40
0.0575000826432459
100
AcDbArc
 50
180.095894546982
 51
359.9009092851501
  0
ARC
  5
32
330
1F
100
AcDbEntity
  8
IGES_LEVEL_0
 62
     7
100
AcDbCircle
 10
3.742263848067154
 20
63.01496171783294
 30
0.0
 40
0.1875002696895656
100
AcDbArc
 50
180.0958832890958
 51
359.9008351753125
  0
ARC
  5
33
330
1F
100
AcDbEntity
  8
IGES_LEVEL_0
 62
     7
100
AcDbCircle
 10
3.742263494593871
 20
63.01764763757407
 30
0.0
 40
0.0575000826382353
100
AcDbArc
 50
0.0958945419846262
 51
179.9009092901471
  0
LINE
  5
34
330
1F
100
AcDbEntity
  8
IGES_LEVEL_0
 62
     7
100
AcDbLine
 10
3.208888626517805
 20
66.06655935828826
 30
0.0
 11
3.208588626517805
 21
66.06710435828825
 31
0.0
  0
LINE
  5
35
330
1F
100
AcDbEntity
  8
IGES_LEVEL_0
 62
     7
100
AcDbLine
 10
3.100972626517805
 20
66.02683635828825
 30
0.0
 11
3.101272626517805
 21
66.02629135828826
 31
0.0
  0
LINE
  5
36
330
1F
100
AcDbEntity
  8
IGES_LEVEL_0
 62
     7
100
AcDbLine
 10
2.664532626517804
 20
66.80952335828826
 30
0.0
 11
2.664232626517805
 21
66.81006735828825
 31
0.0
  0
LINE
  5
37
330
1F
100
AcDbEntity
  8
IGES_LEVEL_0
 62
     7
100
AcDbLine
 10
2.556616626517805
 20
66.76980035828825
 30
0.0
 11
2.556916626517804
 21
66.76925535828825
 31
0.0
  0
LINE
  5
38
330
1F
100
AcDbEntity
  8
IGES_LEVEL_0
 62
     7
100
AcDbLine
 10
3.312202626517806
 20
66.16221835828824
 30
0.0
 11
3.320693626517805
 21
66.13915635828826
 31
0.0
  0
LINE
  5
39
330
1F
100
AcDbEntity
  8
IGES_LEVEL_0
 62
     7
100
AcDbLine
 10
2.767846626517805
 20
66.90518235828824
 30
0.0
 11
2.776337626517805
 21
66.88212035828826
 31
0.0
  0
LINE
  5
3A
330
1F
100
AcDbEntity
  8
IGES_LEVEL_0
 62
     7
100
AcDbLine
 10
2.960297626517807
 20
66.03265135828825
 30
0.0
 11
2.968788626517807
 21
66.00958835828826
 31
0.0
  0
LINE
  5
3B
330
1F
100
AcDbEntity
  8
IGES_LEVEL_0
 62
     7
100
AcDbLine
 10
2.415941626517807
 20
66.77561435828825
 30
0.0
 11
2.424432626517806
 21
66.75255235828826
 31
0.0
  0
SPLINE
  5
3C
330
1F
100
AcDbEntity
  8
IGES_LEVEL_0
 62
     7
100
AcDbSpline
210
0.0
220
0.0
230
1.0
 70
     8
 71
     3
 72
    32
 73
    28
 74
     0
 42
0.0000000001
 43
0.0000000001
 40
0.0
 40
0.0
 40
0.0
 40
0.0
 40
0.02233143812173
 40
0.0455605125134
 40
0.06935346600564
 40
0.09351200835787
 40
0.119201667014
 40
0.1485037854714
 40
0.1846982485659
 40
0.2311364066671
 40
0.2843191079859
 40
0.3410830608166
 40
0.4008759320949
 40
0.462741556868
 40
0.5255566636289
 40
0.5881230714012
 40
0.6492595502069
 40
0.7078924284856
 40
0.7631877999418
 40
0.8135191184264
 40
0.8536227936161001
 40
0.8852682036238
 40
0.9114692004214
 40
0.9348403655781
 40
0.9568765569156
 40
0.9785238719814
 40
1.0
 40
1.0
 40
1.0
 40
1.0
 10
3.320693796967806
 20
66.13915608929825
 30
0.0
 10
3.321753405237807
 20
66.13627819196825
 30
0.0
 10
3.323149892157804
 20
66.13009334837825
 30
0.0
 10
3.322747664907805
 20
66.12047105375825
 30
0.0
 10
3.319841955067805
 20
66.11103172036826
 30
0.0
 10
3.314710323127805
 20
66.10223481381826
 30
0.0
 10
3.307592283177804
 20
66.09396296471826
 30
0.0
 10
3.298219653347807
 20
66.08562037679826
 30
0.0
 10
3.285791620227805
 20
66.07654425708824
 30
0.0
 10
3.269949326457805
 20
66.06667553306825
 30
0.0
 10
3.251107331367805
 20
66.05635226707825
 30
0.0
 10
3.230193955787804
 20
66.04604355923826
 30
0.0
 10
3.207840324557807
 20
66.03599785458826
 30
0.0
 10
3.184414224087803
 20
66.02634340671825
 30
0.0
 10
3.160358500437805
 20
66.01724688716826
 30
0.0
 10
3.136144240957805
 20
66.00888287415825
 30
0.0
 10
3.112238063947807
 20
66.00141944944825
 30
0.0
 10
3.089061853957805
 20
65.99500882825825
 30
0.0
 10
3.067101288877804
 20
65.98982474645825
 30
0.0
 10
3.047419163907804
 20
65.98614646551826
 30
0.0
 10
3.030772375417804
 20
65.98405624203825
 30
0.0
 10
3.017322378647805
 20
65.98338143807825
 30
0.0
 10
3.006158696477804
 20
65.98390064688826
 30
0.0
 10
2.996441426197805
 20
65.98562815525825
 30
0.0
 10
2.987728845317804
 20
65.98877913789825
 30
0.0
 10
2.980065055527803
 20
65.99353339158824
 30
0.0
 10
2.975844840377803
 20
65.99778477948826
 30
0.0
 10
2.974039850187808
 20
66.00011725211826
 30
0.0
  0
LINE
  5
3D
330
1F
100
AcDbEntity
  8
IGES_LEVEL_0
 62
     7
100
AcDbLine
 10
2.974039850187808
 20
66.00011725211826
 30
0.0
 11
2.968788571157806
 21
66.00958868581824
 31
0.0
  0
SPLINE
  5
3E
330
1F
100
AcDbEntity
  8
IGES_LEVEL_0
 62
     7
100
AcDbSpline
210
0.0
220
0.0
230
1.0
 70
     8
 71
     3
 72
    23
 73
    19
 74
     0
 42
0.0000000001
 43
0.0000000001
 40
0.0
 40
0.0
 40
0.0
 40
0.0
 40
0.02256848671309
 40
0.05903132801562
 40
0.1105148563647
 40
0.1758698005997
 40
0.2529732684608
 40
0.3390939962203
 40
0.4310869317168
 40
0.5255510738349
 40
0.6189799397445001
 40
0.7079110972869001
 40
0.7890759658348
 40
0.859553060282
 40
0.9169407316189
 40
0.9596198814212
 40
0.9874692870956
 40
1.0
 40
1.0
 40
1.0
 40
1.0
 10
3.208588464847807
 20
66.06710385061825
 30
0.0
 10
3.208039521517804
 20
66.06781321474824
 30
0.0
 10
3.205675747167803
 20
66.06875575507826
 30
0.0
 10
3.201337940767807
 20
66.06900452171826
 30
0.0
 10
3.195220987327804
 20
66.06855825459826
 30
0.0
 10
3.187621347637805
 20
66.06729443673825
 30
0.0
 10
3.178754662897806
 20
66.06528285152825
 30
0.0
 10
3.168977243607806
 20
66.06257545598825
 30
0.0
 10
3.158655572547804
 20
66.05927623380825
 30
0.0
 10
3.148187249067803
 20
66.05550785938826
 30
0.0
 10
3.137971810737803
 20
66.05141504354825
 30
0.0
 10
3.128402258717806
 20
66.04715437530825
 30
0.0
 10
3.119834492547803
 20
66.04289485618826
 30
0.0
 10
3.112614953357806
 20
66.03879296555826
 30
0.0
 10
3.106931413937804
 20
66.03504158354825
 30
0.0
 10
3.103134236787803
 20
66.03170190577825
 30
0.0
 10
3.100916201697807
 20
66.02912291217825
 30
0.0
 10
3.100843350687804
 20
66.02732307317825
 30
0.0
 10
3.100992393607804
 20
66.02684213963826
 30
0.0
  0
LINE
  5
3F
330
1F
100
AcDbEntity
  8
IGES_LEVEL_0
 62
     7
100
AcDbLine
 10
3.196468553467803
 20
66.15313585834825
 30
0.0
 11
3.204649794607803
 21
66.15536863946825
 31
0.0
  0
LINE
  5
40
330
1F
100
AcDbEntity
  8
IGES_LEVEL_0
 62
     7
100
AcDbLine
 10
3.204649794607803
 20
66.15536863946825
 30
0.0
 11
3.214178481297807
 21
66.15784231582825
 31
0.0
  0
LINE
  5
41
330
1F
100
AcDbEntity
  8
IGES_LEVEL_0
 62
     7
100
AcDbLine
 10
3.214178481297807
 20
66.15784231582825
 30
0.0
 11
3.217080299557807
 21
66.15856672351825
 31
0.0
  0
SPLINE
  5
42
330
1F
100
AcDbEntity
  8
IGES_LEVEL_0
 62
     7
100
AcDbSpline
210
0.0
220
0.0
230
1.0
 70
     8
 71
     3
 72
    14
 73
    10
 74
     0
 42
0.0000000001
 43
0.0000000001
 40
0.0
 40
0.0
 40
0.0
 40
0.0
 40
0.1175800899288
 40
0.344230771645
 40
0.5422664374914
 40
0.7079740503935
 40
0.8388864039165001
 40
0.9346584368896
 40
1.0
 40
1.0
 40
1.0
 40
1.0
 10
3.217080299557807
 20
66.15856672351825
 30
0.0
 10
3.220749656117803
 20
66.15947385500826
 30
0.0
 10
3.231515281477805
 20
66.16203575245825
 30
0.0
 10
3.248585980977808
 20
66.16558708095826
 30
0.0
 10
3.267348497447806
 20
66.16852129465825
 30
0.0
 10
3.283194069647806
 20
66.16994519794825
 30
0.0
 10
3.295860067537806
 20
66.16979299738824
 30
0.0
 10
3.305121438367806
 20
66.16826930009825
 30
0.0
 10
3.309935571747808
 20
66.16563737102825
 30
0.0
 10
3.311221030087808
 20
66.16397625595826
 30
0.0
  0
SPLINE
  5
43
330
1F
100
AcDbEntity
  8
IGES_LEVEL_0
 62
     7
100
AcDbSpline
210
0.0
220
0.0
230
1.0
 70
     8
 71
     3
 72
    23
 73
    19
 74
     0
 42
0.0000000001
 43
0.0000000001
 40
0.0
 40
0.0
 40
0.0
 40
0.0
 40
0.02256848671309
 40
0.05903132801562
 40
0.1105148563647
 40
0.1758698005997
 40
0.2529732684608
 40
0.3390939962203
 40
0.4310869317168
 40
0.5255510738349
 40
0.6189799397445001
 40
0.7079110972869001
 40
0.7890759658348
 40
0.859553060282
 40
0.9169407316189
 40
0.9596198814212
 40
0.9874692870956
 40
1.0
 40
1.0
 40
1.0
 40
1.0
 10
3.101272868237807
 20
66.02629163082825
 30
0.0
 10
3.101821811567803
 20
66.02558226669825
 30
0.0
 10
3.104185585927805
 20
66.02463972636825
 30
0.0
 10
3.108523392317807
 20
66.02439095972825
 30
0.0
 10
3.114640345757806
 20
66.02483722684825
 30
0.0
 10
3.122239985457803
 20
66.02610104470824
 30
0.0
 10
3.131106670197806
 20
66.02811262991826
 30
0.0
 10
3.140884089477805
 20
66.03082002545825
 30
0.0
 10
3.151205760537806
 20
66.03411924763825
 30
0.0
 10
3.161674084017804
 20
66.03788762205825
 30
0.0
 10
3.171889522347804
 20
66.04198043789825
 30
0.0
 10
3.181459074367805
 20
66.04624110613825
 30
0.0
 10
3.190026840547805
 20
66.05050062525825
 30
0.0
 10
3.197246379737806
 20
66.05460251588825
 30
0.0
 10
3.202929919147806
 20
66.05835389789826
 30
0.0
 10
3.206727096297804
 20
66.06169357566824
 30
0.0
 10
3.208945131387807
 20
66.06427256927825
 30
0.0
 10
3.209017982397803
 20
66.06607240826826
 30
0.0
 10
3.208868939477803
 20
66.06655334180826
 30
0.0
  0
SPLINE
  5
44
330
1F
100
AcDbEntity
  8
IGES_LEVEL_0
 62
     7
100
AcDbSpline
210
0.0
220
0.0
230
1.0
 70
     8
 71
     3
 72
    32
 73
    28
 74
     0
 42
0.0000000001
 43
0.0000000001
 40
0.0
 40
0.0
 40
0.0
 40
0.0
 40
0.02233143812173
 40
0.0455605125134
 40
0.06935346600567
 40
0.09351200835787
 40
0.119201667014
 40
0.1485037854714
 40
0.1846982485659
 40
0.2311364066671
 40
0.2843191079859
 40
0.3410830608166
 40
0.400875932095
 40
0.462741556868
 40
0.5255566636289
 40
0.5881230714013001
 40
0.649259550207
 40
0.7078924284856
 40
0.7631877999418
 40
0.8135191184264
 40
0.8536227936161001
 40
0.8852682036238
 40
0.9114692004214
 40
0.9348403655781
 40
0.9568765569156
 40
0.9785238719814
 40
1.0
 40
1.0
 40
1.0
 40
1.0
 10
2.776337840607805
 20
66.88211996275825
 30
0.0
 10
2.777397448877807
 20
66.87924206541825
 30
0.0
 10
2.778793935797808
 20
66.87305722183825
 30
0.0
 10
2.778391708537804
 20
66.86343492720826
 30
0.0
 10
2.775485998697803
 20
66.85399559381825
 30
0.0
 10
2.770354366757807
 20
66.84519868727824
 30
0.0
 10
2.763236326817804
 20
66.83692683817824
 30
0.0
 10
2.753863696977803
 20
66.82858425025825
 30
0.0
 10
2.741435663857807
 20
66.81950813054826
 30
0.0
 10
2.725593370097805
 20
66.80963940652825
 30
0.0
 10
2.706751375007805
 20
66.79931614052825
 30
0.0
 10
2.685837999417807
 20
66.78900743268825
 30
0.0
 10
2.663484368197807
 20
66.77896172804825
 30
0.0
 10
2.640058267727806
 20
66.76930728017825
 30
0.0
 10
2.616002544077805
 20
66.76021076062825
 30
0.0
 10
2.591788284597804
 20
66.75184674760826
 30
0.0
 10
2.567882107587806
 20
66.74438332290825
 30
0.0
 10
2.544705897597805
 20
66.73797270170826
 30
0.0
 10
2.522745332517808
 20
66.73278861990825
 30
0.0
 10
2.503063207547804
 20
66.72911033897825
 30
0.0
 10
2.486416419057804
 20
66.72702011549825
 30
0.0
 10
2.472966422277807
 20
66.72634531153825
 30
0.0
 10
2.461802740117804
 20
66.72686452033825
 30
0.0
 10
2.452085469837805
 20
66.72859202871825
 30
0.0
 10
2.443372888957804
 20
66.73174301134824
 30
0.0
 10
2.435709099167806
 20
66.73649726504826
 30
0.0
 10
2.431488884007806
 20
66.74074865294824
 30
0.0
 10
2.429683893827807
 20
66.74308112557824
 30
0.0
  0
LINE
  5
45
330
1F
100
AcDbEntity
  8
IGES_LEVEL_0
 62
     7
100
AcDbLine
 10
2.429683893827807
 20
66.74308112557824
 30
0.0
 11
2.424432614797805
 21
66.75255255926825
 31
0.0
  0
SPLINE
  5
46
330
1F
100
AcDbEntity
  8
IGES_LEVEL_0
 62
     7
100
AcDbSpline
210
0.0
220
0.0
230
1.0
 70
     8
 71
     3
 72
    23
 73
    19
 74
     0
 42
0.0000000001
 43
0.0000000001
 40
0.0
 40
0.0
 40
0.0
 40
0.0
 40
0.02256848671311
 40
0.05903132801563
 40
0.1105148563647
 40
0.1758698005997
 40
0.2529732684608
 40
0.3390939962203
 40
0.4310869317168
 40
0.5255510738349
 40
0.6189799397445001
 40
0.7079110972868
 40
0.7890759658348
 40
0.8595530602819
 40
0.9169407316188
 40
0.9596198814212
 40
0.9874692870956
 40
1.0
 40
1.0
 40
1.0
 40
1.0
 10
2.664232508487807
 20
66.81006772407825
 30
0.0
 10
2.663683565157804
 20
66.81077708820826
 30
0.0
 10
2.661319790797805
 20
66.81171962852825
 30
0.0
 10
2.656981984407807
 20
66.81196839517826
 30
0.0
 10
2.650865030967808
 20
66.81152212805824
 30
0.0
 10
2.643265391267804
 20
66.81025831019825
 30
0.0
 10
2.634398706537805
 20
66.80824672497826
 30
0.0
 10
2.624621287247805
 20
66.80553932944825
 30
0.0
 10
2.614299616187807
 20
66.80224010726826
 30
0.0
 10
2.603831292707802
 20
66.79847173283825
 30
0.0
 10
2.593615854377806
 20
66.79437891700826
 30
0.0
 10
2.584046302357805
 20
66.79011824876825
 30
0.0
 10
2.575478536187806
 20
66.78585872964825
 30
0.0
 10
2.568258996997805
 20
66.78175683900825
 30
0.0
 10
2.562575457577808
 20
66.77800545700825
 30
0.0
 10
2.558778280427806
 20
66.77466577922826
 30
0.0
 10
2.556560245337806
 20
66.77208678562826
 30
0.0
 10
2.556487394327803
 20
66.77028694662826
 30
0.0
 10
2.556636437247803
 20
66.76980601308824
 30
0.0
  0
LINE
  5
47
330
1F
100
AcDbEntity
  8
IGES_LEVEL_0
 62
     7
100
AcDbLine
 10
2.652112597107806
 20
66.89609973180825
 30
0.0
 11
2.660293838247803
 21
66.89833251291825
 31
0.0
  0
LINE
  5
48
330
1F
100
AcDbEntity
  8
IGES_LEVEL_0
 62
     7
100
AcDbLine
 10
2.660293838247803
 20
66.89833251291825
 30
0.0
 11
2.672724343197807
 21
66.90153059697826
 31
0.0
  0
SPLINE
  5
49
330
1F
100
AcDbEntity
  8
IGES_LEVEL_0
 62
     7
100
AcDbSpline
210
0.0
220
0.0
230
1.0
 70
     8
 71
     3
 72
    14
 73
    10
 74
     0
 42
0.0000000001
 43
0.0000000001
 40
0.0
 40
0.0
 40
0.0
 40
0.0
 40
0.1175800899285
 40
0.3442307716449
 40
0.5422664374913
 40
0.7079740503934
 40
0.8388864039164
 40
0.9346584368895
 40
1.0
 40
1.0
 40
1.0
 40
1.0
 10
2.672724343197807
 20
66.90153059697826
 30
0.0
 10
2.676393699757803
 20
66.90243772845825
 30
0.0
 10
2.687159325117804
 20
66.90499962591825
 30
0.0
 10
2.704230024617807
 20
66.90855095440824
 30
0.0
 10
2.722992541087805
 20
66.91148516810824
 30
0.0
 10
2.738838113277804
 20
66.91290907140825
 30
0.0
 10
2.751504111177805
 20
66.91275687084826
 30
0.0
 10
2.760765482007805
 20
66.91123317355826
 30
0.0
 10
2.765579615387807
 20
66.90860124448825
 30
0.0
 10
2.766865073727807
 20
66.90694012941825
 30
0.0
  0
LINE
  5
4A
330
1F
100
AcDbEntity
  8
IGES_LEVEL_0
 62
     7
100
AcDbLine
 10
2.767805933077803
 20
66.90516047191825
 30
0.0
 11
2.766865073727807
 21
66.90694012941825
 31
0.0
  0
SPLINE
  5
4B
330
1F
100
AcDbEntity
  8
IGES_LEVEL_0
 62
     7
100
AcDbSpline
210
0.0
220
0.0
230
1.0
 70
     8
 71
     3
 72
    23
 73
    19
 74
     0
 42
0.0000000001
 43
0.0000000001
 40
0.0
 40
0.0
 40
0.0
 40
0.0
 40
0.02256848671311
 40
0.05903132801564
 40
0.1105148563647
 40
0.1758698005997
 40
0.2529732684608
 40
0.3390939962203
 40
0.4310869317168
 40
0.5255510738349
 40
0.6189799397445001
 40
0.7079110972868
 40
0.7890759658348
 40
0.8595530602819
 40
0.9169407316188
 40
0.9596198814212
 40
0.9874692870956
 40
1.0
 40
1.0
 40
1.0
 40
1.0
 10
2.556916911877806
 20
66.76925550427825
 30
0.0
 10
2.557465855207806
 20
66.76854614014826
 30
0.0
 10
2.559829629567805
 20
66.76760359982825
 30
0.0
 10
2.564167435957806
 20
66.76735483318825
 30
0.0
 10
2.570284389397806
 20
66.76780110029824
 30
0.0
 10
2.577884029097803
 20
66.76906491815825
 30
0.0
 10
2.586750713827804
 20
66.77107650337825
 30
0.0
 10
2.596528133117808
 20
66.77378389891825
 30
0.0
 10
2.606849804177806
 20
66.77708312108825
 30
0.0
 10
2.617318127657804
 20
66.78085149551825
 30
0.0
 10
2.627533565987804
 20
66.78494431135826
 30
0.0
 10
2.637103118007804
 20
66.78920497958825
 30
0.0
 10
2.645670884177804
 20
66.79346449871825
 30
0.0
 10
2.652890423367808
 20
66.79756638934825
 30
0.0
 10
2.658573962787806
 20
66.80131777135824
 30
0.0
 10
2.662371139937804
 20
66.80465744912826
 30
0.0
 10
2.664589175027807
 20
66.80723644272825
 30
0.0
 10
2.664662026037803
 20
66.80903628172825
 30
0.0
 10
2.664512983117803
 20
66.80951721526824
 30
0.0
  0
ARC
  5
4C
330
1F
100
AcDbEntity
  8
IGES_LEVEL_0
 62
     7
100
AcDbCircle
 10
2.527277674126423
 20
66.70414883626641
 30
0.0
 40
0.1322990413229182
100
AcDbArc
 50
117.8019918351219
 51
147.3039906916869
  0
LINE
  5
4D
330
1F
100
AcDbEntity
  8
IGES_LEVEL_0
 62
     7
100
AcDbLine
 10
2.465571100347809
 20
66.82117590615825
 30
0.0
 11
2.493399248077807
 21
66.83584926038826
 31
0.0
  0
LINE
  5
4E
330
1F
100
AcDbEntity
  8
IGES_LEVEL_0
 62
     7
100
AcDbLine
 10
2.493399248077807
 20
66.83584926038826
 30
0.0
 11
2.531473547067808
 21
66.85335616260825
 31
0.0
  0
ARC
  5
4F
330
1F
100
AcDbEntity
  8
IGES_LEVEL_0
 62
     7
100
AcDbCircle
 10
2.920396791720449
 20
65.94727988149799
 30
0.0
 40
0.9860200390568823
100
AcDbArc
 50
105.7885513153461
 51
113.2308948153867
  0
ARC
  5
50
330
1F
100
AcDbEntity
  8
IGES_LEVEL_0
 62
     7
100
AcDbCircle
 10
3.07163519571111
 20
65.96118199434375
 30
0.0
 40
0.1323023971684077
100
AcDbArc
 50
117.8019918351192
 51
147.3029464672286
  0
LINE
  5
51
330
1F
100
AcDbEntity
  8
IGES_LEVEL_0
 62
     7
100
AcDbLine
 10
3.009927056707806
 20
66.07821203269825
 30
0.0
 11
3.037755204437804
 21
66.09288538692826
 31
0.0
  0
LINE
  5
52
330
1F
100
AcDbEntity
  8
IGES_LEVEL_0
 62
     7
100
AcDbLine
 10
3.037755204437804
 20
66.09288538692826
 30
0.0
 11
3.075829503427805
 21
66.11039228914825
 31
0.0
  0
ARC
  5
53
330
1F
100
AcDbEntity
  8
IGES_LEVEL_0
 62
     7
100
AcDbCircle
 10
3.464752748080514
 20
65.20431600803779
 30
0.0
 40
0.9860200390570918
100
AcDbArc
 50
105.7885513153468
 51
113.2308948153857
  0
ARC
  5
54
330
1F
100
AcDbEntity
  8
IGES_LEVEL_0
 62
     7
100
AcDbCircle
 10
18.1261491703605
 20
65.96118199434376
 30
0.0
 40
0.132302397168394
100
AcDbArc
 50
32.69705353276689
 51
62.19800816487874
  0
LINE
  5
55
330
1F
100
AcDbEntity
  8
IGES_LEVEL_0
 62
     7
100
AcDbLine
 10
18.1878573093638
 20
66.07821203269825
 30
0.0
 11
18.1600291616338
 21
66.09288538692826
 31
0.0
  0
LINE
  5
56
330
1F
100
AcDbEntity
  8
IGES_LEVEL_0
 62
     7
100
AcDbLine
 10
18.1600291616338
 20
66.09288538692826
 30
0.0
 11
18.1219548626438
 21
66.11039228914825
 31
0.0
  0
ARC
  5
57
330
1F
100
AcDbEntity
  8
IGES_LEVEL_0
 62
     7
100
AcDbCircle
 10
17.73303161799107
 20
65.20431600803771
 30
0.0
 40
0.9860200390571799
100
AcDbArc
 50
66.76910518461494
 51
74.21144868465322
  0
ARC
  5
58
330
1F
100
AcDbEntity
  8
IGES_LEVEL_0
 62
     7
100
AcDbCircle
 10
18.67050669194519
 20
66.70414883626643
 30
0.0
 40
0.1322990413229054
100
AcDbArc
 50
32.69600930830956
 51
62.19800816487543
  0
LINE
  5
59
330
1F
100
AcDbEntity
  8
IGES_LEVEL_0
 62
     7
100
AcDbLine
 10
18.7322132657238
 20
66.82117590615825
 30
0.0
 11
18.7043851179938
 21
66.83584926038826
 31
0.0
  0
LINE
  5
5A
330
1F
100
AcDbEntity
  8
IGES_LEVEL_0
 62
     7
100
AcDbLine
 10
18.7043851179938
 20
66.83584926038826
 30
0.0
 11
18.6663108190038
 21
66.85335616260825
 31
0.0
  0
ARC
  5
5B
330
1F
100
AcDbEntity
  8
IGES_LEVEL_0
 62
     7
100
AcDbCircle
 10
18.27738757435127
 20
65.9472798814983
 30
0.0
 40
0.9860200390565516
100
AcDbArc
 50
66.76910518461207
 51
74.2114486846551
  0
LINE
  5
5C
330
1F
100
AcDbEntity
  8
IGES_LEVEL_0
 62
     7
100
AcDbLine
 10
3.248450863406802
 20
65.94292959923826
 30
0.0
 11
3.271260203555802
 21
65.95086912522825
 31
0.0
  0
LINE
  5
5D
330
1F
100
AcDbEntity
  8
IGES_LEVEL_0
 62
     7
100
AcDbLine
 10
2.743857626517805
 20
51.59207835828826
 30
0.0
 11
2.743857626517805
 21
51.59347335828826
 31
0.0
  0
LINE
  5
5E
330
1F
100
AcDbEntity
  8
IGES_LEVEL_0
 62
     7
100
AcDbLine
 10
2.368857626517805
 20
51.59203635828826
 30
0.0
 11
2.368857626517805
 21
51.59343135828826
 31
0.0
  0
LINE
  5
5F
330
1F
100
AcDbEntity
  8
IGES_LEVEL_0
 62
     7
100
AcDbLine
 10
2.613857626517806
 20
51.59511535828826
 30
0.0
 11
2.613857626517806
 21
51.59513235828826
 31
0.0
  0
LINE
  5
60
330
1F
100
AcDbEntity
  8
IGES_LEVEL_0
 62
     7
100
AcDbLine
 10
2.498857626517804
 20
51.59513535828826
 30
0.0
 11
2.498857626517804
 21
51.59511935828826
 31
0.0
  0
ARC
  5
61
330
1F
100
AcDbEntity
  8
IGES_LEVEL_0
 62
     7
100
AcDbCircle
 10
2.556357964950237
 20
51.593206532411
 30
0.0
 40
0.1875001956667599
100
AcDbArc
 50
0.0814678601400357
 51
179.9151229676044
  0
ARC
  5
62
330
1F
100
AcDbEntity
  8
IGES_LEVEL_0
 62
     7
100
AcDbCircle
 10
2.556361598311625
 20
51.56098281837382
 30
0.0
 40
0.057526625751718
100
AcDbArc
 50
17.33993241345595
 51
162.6735571788688
  0
ARC
  5
63
330
1F
100
AcDbEntity
  8
IGES_LEVEL_0
 62
     7
100
AcDbCircle
 10
2.556357787881751
 20
51.59521525052078
 30
0.0
 40
0.0575000826382431
100
AcDbArc
 50
180.0958945403208
 51
359.9009092918039
  0
ARC
  5
64
330
1F
100
AcDbEntity
  8
IGES_LEVEL_0
 62
     7
100
AcDbCircle
 10
2.556358136352145
 20
51.59235011097773
 30
0.0
 40
0.1875002696845643
100
AcDbArc
 50
180.0958832905639
 51
359.9008351769014
  0
ARC
  5
65
330
1F
100
AcDbEntity
  8
IGES_LEVEL_0
 62
     7
100
AcDbCircle
 10
2.556357782873853
 20
51.59503603072408
 30
0.0
 40
0.0575000826382495
100
AcDbArc
 50
0.0958945419704421
 51
179.9009092901542
  0
LINE
  5
66
330
1F
100
AcDbEntity
  8
IGES_LEVEL_0
 62
     7
100
AcDbLine
 10
1.602636739553802
 20
51.20403235828826
 30
0.0
 11
1.602637739553802
 21
51.21226835828826
 31
0.0
  0
LINE
  5
67
330
1F
100
AcDbEntity
  8
IGES_LEVEL_0
 62
     7
100
AcDbLine
 10
37.226773712005
 20
37.51662546268196
 30
0.0
 11
39.07412273955381
 21
25.58030035828826
 31
0.0
  0
LINE
  5
69
330
1F
100
AcDbEntity
  8
DEFAULT
 62
     7
100
AcDbLine
 10
1.624325883817802
 20
37.80760039987826
 30
0.0
 11
1.624239236553802
 21
37.82706168548826
 31
0.0
  0
ARC
  5
6A
330
1F
100
AcDbEntity
  8
IGES_LEVEL_0
 62
     7
100
AcDbCircle
 10
3.158181062866685
 20
32.6620694438579
 30
0.0
 40
0.0531586111606122
100
AcDbArc
 50
119.6162509690029
 51
188.2721775048581
  0
ARC
  5
6B
330
1F
100
AcDbEntity
  8
IGES_LEVEL_0
 62
     7
100
AcDbCircle
 10
3.155783205923054
 20
32.65618521406375
 30
0.0
 40
0.0573069857372442
100
AcDbArc
 50
4.777068157824433
 51
114.6183846564112
  0
ARC
  5
6C
330
1F
100
AcDbEntity
  8
IGES_LEVEL_0
 62
     7
100
AcDbCircle
 10
3.160285585883035
 20
32.65330945164392
 30
0.0
 40
0.0531586111691156
100
AcDbArc
 50
299.616250973581
 51
8.272177508648833
  0
ARC
  5
6D
330
1F
100
AcDbEntity
  8
IGES_LEVEL_0
 62
     7
100
AcDbCircle
 10
3.162683442842546
 20
32.65919368144544
 30
0.0
 40
0.0573069857454209
100
AcDbArc
 50
184.7770681598146
 51
294.6183846438736
  0
ARC
  5
6E
330
1F
100
AcDbEntity
  8
IGES_LEVEL_0
 62
     7
100
AcDbCircle
 10
3.131310130754255
 20
32.66472359518025
 30
0.0
 40
0.1680409583609109
100
AcDbArc
 50
118.374366298971
 51
189.5160423861254
  0
LINE
  5
6F
330
1F
100
AcDbEntity
  8
IGES_LEVEL_0
 62
     7
100
AcDbLine
 10
3.051451923048806
 20
32.81257632714326
 30
0.0
 11
3.059938912823807
 21
32.81716031949327
 31
0.0
  0
SPLINE
  5
70
330
1F
100
AcDbEntity
  8
IGES_LEVEL_0
 62
     7
100
AcDbSpline
210
0.0
220
0.0
230
1.0
 70
     8
 71
     3
 72
    20
 73
    16
 74
     0
 42
0.0000000001
 43
0.0000000001
 40
0.2182949725212871
 40
0.2182949725212871
 40
0.2182949725212871
 40
0.2182949725212871
 40
0.2916118227546869
 40
0.3652682106619938
 40
0.4394926753724169
 40
0.5145183272072587
 40
0.5903615621604612
 40
0.6672066441798357
 40
0.7448456122470517
 40
0.8232047569103431
 40
0.9021174616494789
 40
0.9813096627400222
 40
1.060574996396875
 40
1.139628829350238
 40
1.218294972521287
 40
1.218294972521287
 40
1.218294972521287
 40
1.218294972521287
 10
3.059938912823807
 20
32.81716031949327
 30
0.0
 10
3.067667432876451
 20
32.82133466750892
 30
0.0
 10
3.083864550711578
 20
32.82846722832019
 30
0.0
 10
3.109618713973806
 20
32.83515686743827
 30
0.0
 10
3.13631698397381
 20
32.83769708497826
 30
0.0
 10
3.16334113094381
 20
32.83600389046826
 30
0.0
 10
3.190085145073805
 20
32.83009622470826
 30
0.0
 10
3.215915457333804
 20
32.82009404966826
 30
0.0
 10
3.240231390533804
 20
32.80621570334827
 30
0.0
 10
3.262454267533808
 20
32.78878558458827
 30
0.0
 10
3.282066736583811
 20
32.76820740369826
 30
0.0
 10
3.298614303043809
 20
32.74496141142826
 30
0.0
 10
3.311714208233806
 20
32.71959171345826
 30
0.0
 10
3.321070639773804
 20
32.69268875045826
 30
0.0
 10
3.324322860139245
 20
32.67400908895465
 30
0.0
 10
3.325806675983809
 20
32.66470559491827
 30
0.0
  0
ARC
  5
71
330
1F
100
AcDbEntity
  8
IGES_LEVEL_0
 62
     7
100
AcDbCircle
 10
3.156843584578214
 20
32.63775764276248
 30
0.0
 40
0.1710985633567052
100
AcDbArc
 50
298.3721194388727
 51
9.061792683401068
  0
LINE
  5
72
330
1F
100
AcDbEntity
  8
IGES_LEVEL_0
 62
     7
100
AcDbLine
 10
3.238148956158806
 20
32.48721145405327
 30
0.0
 11
3.229649393983809
 21
32.48262110163827
 31
0.0
  0
SPLINE
  5
73
330
1F
100
AcDbEntity
  8
IGES_LEVEL_0
 62
     7
100
AcDbSpline
210
0.0
220
0.0
230
1.0
 70
     8
 71
     3
 72
    21
 73
    17
 74
     0
 42
0.0000000001
 43
0.0000000001
 40
1.439050738651754
 40
1.439050738651754
 40
1.439050738651754
 40
1.439050738651754
 40
1.453677283597954
 40
1.525874386220054
 40
1.598401969323954
 40
1.671500596675954
 40
1.745355248618954
 40
1.820079270465754
 40
1.895706259673954
 40
1.972189805136254
 40
2.049410114528854
 40
2.127186137102254
 40
2.205291706049154
 40
2.283474327860954
 40
2.361475398501644
 40
2.439050738651754
 40
2.439050738651754
 40
2.439050738651754
 40
2.439050738651754
 10
3.229649393983809
 20
32.48262110163827
 30
0.0
 10
3.228110182593806
 20
32.48178976593826
 30
0.0
 10
3.21889224570381
 20
32.47700522549826
 30
0.0
 10
3.201142134613807
 20
32.46989423301827
 30
0.0
 10
3.175633585693806
 20
32.46420257251826
 30
0.0
 10
3.149349994153806
 20
32.46262112605827
 30
0.0
 10
3.122883291213807
 20
32.46517958561827
 30
0.0
 10
3.096826259743811
 20
32.47181393622827
 30
0.0
 10
3.071759378043804
 20
32.48236952648826
 30
0.0
 10
3.048238612663806
 20
32.49660574999827
 30
0.0
 10
3.026784056423804
 20
32.51420199164826
 30
0.0
 10
3.007869321973811
 20
32.53476513393827
 30
0.0
 10
2.991911928273805
 20
32.55783727302827
 30
0.0
 10
2.979264270893804
 20
32.58290865376826
 30
0.0
 10
2.970207585763806
 20
32.60941677434826
 30
0.0
 10
2.966914557078876
 20
32.62777370246235
 30
0.0
 10
2.965581525073812
 20
32.63694243346826
 30
0.0
  0
ARC
  5
74
330
1F
100
AcDbEntity
  8
IGES_LEVEL_0
 62
     7
100
AcDbCircle
 10
2.613825106506678
 20
36.9603954825479
 30
0.0
 40
0.0531586111606122
100
AcDbArc
 50
119.6162509690029
 51
188.2721775048581
  0
ARC
  5
75
330
1F
100
AcDbEntity
  8
IGES_LEVEL_0
 62
     7
100
AcDbCircle
 10
2.611427249563047
 20
36.95451125275374
 30
0.0
 40
0.0573069857372442
100
AcDbArc
 50
4.777068157824433
 51
114.6183846564112
  0
ARC
  5
76
330
1F
100
AcDbEntity
  8
IGES_LEVEL_0
 62
     7
100
AcDbCircle
 10
2.615929629523027
 20
36.95163549033391
 30
0.0
 40
0.0531586111691156
100
AcDbArc
 50
299.616250973581
 51
8.272177508648833
  0
ARC
  5
77
330
1F
100
AcDbEntity
  8
IGES_LEVEL_0
 62
     7
100
AcDbCircle
 10
2.618327486482539
 20
36.95751972013544
 30
0.0
 40
0.0573069857454209
100
AcDbArc
 50
184.7770681598146
 51
294.6183846438736
  0
ARC
  5
78
330
1F
100
AcDbEntity
  8
IGES_LEVEL_0
 62
     7
100
AcDbCircle
 10
2.586954174394248
 20
36.96304963387024
 30
0.0
 40
0.1680409583609111
100
AcDbArc
 50
118.3743662989711
 51
189.5160423861254
  0
LINE
  5
79
330
1F
100
AcDbEntity
  8
IGES_LEVEL_0
 62
     7
100
AcDbLine
 10
2.507095966688798
 20
37.11090236583326
 30
0.0
 11
2.515582956463799
 21
37.11548635818326
 31
0.0
  0
SPLINE
  5
7A
330
1F
100
AcDbEntity
  8
IGES_LEVEL_0
 62
     7
100
AcDbSpline
210
0.0
220
0.0
230
1.0
 70
     8
 71
     3
 72
    20
 73
    16
 74
     0
 42
0.0000000001
 43
0.0000000001
 40
0.2182949725212871
 40
0.2182949725212871
 40
0.2182949725212871
 40
0.2182949725212871
 40
0.2916118227546869
 40
0.3652682106619938
 40
0.4394926753724169
 40
0.5145183272072587
 40
0.5903615621604612
 40
0.6672066441798357
 40
0.7448456122470517
 40
0.8232047569103431
 40
0.9021174616494789
 40
0.9813096627400222
 40
1.060574996396875
 40
1.139628829350238
 40
1.218294972521287
 40
1.218294972521287
 40
1.218294972521287
 40
1.218294972521287
 10
2.515582956463799
 20
37.11548635818326
 30
0.0
 10
2.523311476516444
 20
37.11966070619891
 30
0.0
 10
2.53950859435157
 20
37.12679326701019
 30
0.0
 10
2.565262757613798
 20
37.13348290612826
 30
0.0
 10
2.591961027613802
 20
37.13602312366825
 30
0.0
 10
2.618985174583802
 20
37.13432992915826
 30
0.0
 10
2.645729188713798
 20
37.12842226339826
 30
0.0
 10
2.671559500973796
 20
37.11842008835826
 30
0.0
 10
2.695875434173797
 20
37.10454174203826
 30
0.0
 10
2.718098311173801
 20
37.08711162327826
 30
0.0
 10
2.737710780223804
 20
37.06653344238826
 30
0.0
 10
2.754258346683802
 20
37.04328745011826
 30
0.0
 10
2.767358251873798
 20
37.01791775214826
 30
0.0
 10
2.776714683413797
 20
36.99101478914825
 30
0.0
 10
2.779966903779238
 20
36.97233512764464
 30
0.0
 10
2.781450719623802
 20
36.96303163360826
 30
0.0
  0
ARC
  5
7B
330
1F
100
AcDbEntity
  8
IGES_LEVEL_0
 62
     7
100
AcDbCircle
 10
2.612487628218206
 20
36.93608368145247
 30
0.0
 40
0.1710985633567052
100
AcDbArc
 50
298.3721194388727
 51
9.061792683401068
  0
LINE
  5
7C
330
1F
100
AcDbEntity
  8
IGES_LEVEL_0
 62
     7
100
AcDbLine
 10
2.693792999798799
 20
36.78553749274326
 30
0.0
 11
2.685293437623802
 21
36.78094714032826
 31
0.0
  0
SPLINE
  5
7D
330
1F
100
AcDbEntity
  8
IGES_LEVEL_0
 62
     7
100
AcDbSpline
210
0.0
220
0.0
230
1.0
 70
     8
 71
     3
 72
    21
 73
    17
 74
     0
 42
0.0000000001
 43
0.0000000001
 40
1.439050738651754
 40
1.439050738651754
 40
1.439050738651754
 40
1.439050738651754
 40
1.453677283597954
 40
1.525874386220054
 40
1.598401969323954
 40
1.671500596675954
 40
1.745355248618954
 40
1.820079270465754
 40
1.895706259673954
 40
1.972189805136254
 40
2.049410114528854
 40
2.127186137102254
 40
2.205291706049154
 40
2.283474327860954
 40
2.361475398501644
 40
2.439050738651754
 40
2.439050738651754
 40
2.439050738651754
 40
2.439050738651754
 10
2.685293437623802
 20
36.78094714032826
 30
0.0
 10
2.683754226233798
 20
36.78011580462825
 30
0.0
 10
2.674536289343802
 20
36.77533126418825
 30
0.0
 10
2.6567861782538
 20
36.76822027170826
 30
0.0
 10
2.631277629333798
 20
36.76252861120825
 30
0.0
 10
2.604994037793798
 20
36.76094716474826
 30
0.0
 10
2.578527334853799
 20
36.76350562430826
 30
0.0
 10
2.552470303383803
 20
36.77013997491826
 30
0.0
 10
2.527403421683797
 20
36.78069556517826
 30
0.0
 10
2.503882656303798
 20
36.79493178868826
 30
0.0
 10
2.482428100063796
 20
36.81252803033826
 30
0.0
 10
2.463513365613803
 20
36.83309117262826
 30
0.0
 10
2.447555971913797
 20
36.85616331171826
 30
0.0
 10
2.434908314533796
 20
36.88123469245826
 30
0.0
 10
2.425851629403798
 20
36.90774281303825
 30
0.0
 10
2.422558600718869
 20
36.92609974115234
 30
0.0
 10
2.421225568713805
 20
36.93526847215826
 30
0.0
  0
LINE
  5
7E
330
1F
100
AcDbEntity
  8
DEFAULT
 62
     7
100
AcDbLine
 10
19.5734925545838
 20
37.81088271729826
 30
0.0
 11
19.5735442337638
 21
37.82701949442826
 31
0.0
  0
ARC
  5
7F
330
1F
100
AcDbEntity
  8
IGES_LEVEL_0
 62
     7
100
AcDbCircle
 10
18.61513284951336
 20
36.96304963387024
 30
0.0
 40
0.1680409583609105
100
AcDbArc
 50
350.4839576138746
 51
61.62563370102928
  0
LINE
  5
80
330
1F
100
AcDbEntity
  8
IGES_LEVEL_0
 62
     7
100
AcDbLine
 10
18.69499105721881
 20
37.11090236583326
 30
0.0
 11
18.68650406744381
 21
37.11548635818326
 31
0.0
  0
SPLINE
  5
81
330
1F
100
AcDbEntity
  8
IGES_LEVEL_0
 62
     7
100
AcDbSpline
210
0.0
220
0.0
230
1.0
 70
     8
 71
     3
 72
    20
 73
    16
 74
     0
 42
0.0000000001
 43
0.0000000001
 40
0.2182949725212871
 40
0.2182949725212871
 40
0.2182949725212871
 40
0.2182949725212871
 40
0.2916118227546869
 40
0.3652682106619938
 40
0.4394926753724169
 40
0.5145183272072587
 40
0.5903615621604612
 40
0.6672066441798357
 40
0.7448456122470517
 40
0.8232047569103431
 40
0.9021174616494789
 40
0.9813096627400222
 40
1.060574996396875
 40
1.139628829350238
 40
1.218294972521287
 40
1.218294972521287
 40
1.218294972521287
 40
1.218294972521287
 10
18.68650406744381
 20
37.11548635818326
 30
0.0
 10
18.67877554739116
 20
37.11966070619891
 30
0.0
 10
18.66257842955604
 20
37.12679326701019
 30
0.0
 10
18.63682426629381
 20
37.13348290612826
 30
0.0
 10
18.6101259962938
 20
37.13602312366825
 30
0.0
 10
18.5831018493238
 20
37.13432992915826
 30
0.0
 10
18.55635783519381
 20
37.12842226339826
 30
0.0
 10
18.53052752293381
 20
37.11842008835826
 30
0.0
 10
18.50621158973381
 20
37.10454174203826
 30
0.0
 10
18.48398871273381
 20
37.08711162327826
 30
0.0
 10
18.4643762436838
 20
37.06653344238826
 30
0.0
 10
18.4478286772238
 20
37.04328745011826
 30
0.0
 10
18.43472877203381
 20
37.01791775214826
 30
0.0
 10
18.42537234049381
 20
36.99101478914825
 30
0.0
 10
18.42212012012837
 20
36.97233512764464
 30
0.0
 10
18.4206363042838
 20
36.96303163360826
 30
0.0
  0
ARC
  5
82
330
1F
100
AcDbEntity
  8
IGES_LEVEL_0
 62
     7
100
AcDbCircle
 10
18.5895993956894
 20
36.93608368145247
 30
0.0
 40
0.1710985633566981
100
AcDbArc
 50
170.9382073166011
 51
241.6278805611266
  0
LINE
  5
83
330
1F
100
AcDbEntity
  8
IGES_LEVEL_0
 62
     7
100
AcDbLine
 10
18.50829402410881
 20
36.78553749274326
 30
0.0
 11
18.5167935862838
 21
36.78094714032826
 31
0.0
  0
SPLINE
  5
84
330
1F
100
AcDbEntity
  8
IGES_LEVEL_0
 62
     7
100
AcDbSpline
210
0.0
220
0.0
230
1.0
 70
     8
 71
     3
 72
    21
 73
    17
 74
     0
 42
0.0000000001
 43
0.0000000001
 40
1.439050738651754
 40
1.439050738651754
 40
1.439050738651754
 40
1.439050738651754
 40
1.453677283597954
 40
1.525874386220054
 40
1.598401969323954
 40
1.671500596675954
 40
1.745355248618954
 40
1.820079270465754
 40
1.895706259673954
 40
1.972189805136254
 40
2.049410114528854
 40
2.127186137102254
 40
2.205291706049154
 40
2.283474327860954
 40
2.361475398501644
 40
2.439050738651754
 40
2.439050738651754
 40
2.439050738651754
 40
2.439050738651754
 10
18.5167935862838
 20
36.78094714032826
 30
0.0
 10
18.51833279767381
 20
36.78011580462825
 30
0.0
 10
18.5275507345638
 20
36.77533126418825
 30
0.0
 10
18.54530084565381
 20
36.76822027170826
 30
0.0
 10
18.57080939457381
 20
36.76252861120825
 30
0.0
 10
18.59709298611381
 20
36.76094716474826
 30
0.0
 10
18.62355968905381
 20
36.76350562430826
 30
0.0
 10
18.6496167205238
 20
36.77013997491826
 30
0.0
 10
18.67468360222381
 20
36.78069556517826
 30
0.0
 10
18.69820436760381
 20
36.79493178868826
 30
0.0
 10
18.71965892384381
 20
36.81252803033826
 30
0.0
 10
18.7385736582938
 20
36.83309117262826
 30
0.0
 10
18.75453105199381
 20
36.85616331171826
 30
0.0
 10
18.76717870937381
 20
36.88123469245826
 30
0.0
 10
18.77623539450381
 20
36.90774281303825
 30
0.0
 10
18.77952842318874
 20
36.92609974115234
 30
0.0
 10
18.7808614551938
 20
36.93526847215826
 30
0.0
  0
ARC
  5
85
330
1F
100
AcDbEntity
  8
IGES_LEVEL_0
 62
     7
100
AcDbCircle
 10
18.58826191740093
 20
36.9603954825479
 30
0.0
 40
0.0531586111606122
100
AcDbArc
 50
351.7278224951419
 51
60.38374903099925
  0
ARC
  5
86
330
1F
100
AcDbEntity
  8
IGES_LEVEL_0
 62
     7
100
AcDbCircle
 10
18.59065977434456
 20
36.95451125275374
 30
0.0
 40
0.0573069857372442
100
AcDbArc
 50
65.38161534358922
 51
175.2229318421755
  0
ARC
  5
87
330
1F
100
AcDbEntity
  8
IGES_LEVEL_0
 62
     7
100
AcDbCircle
 10
18.58615739438458
 20
36.95163549033391
 30
0.0
 40
0.0531586111691156
100
AcDbArc
 50
171.7278224913512
 51
240.3837490264186
  0
ARC
  5
88
330
1F
100
AcDbEntity
  8
IGES_LEVEL_0
 62
     7
100
AcDbCircle
 10
18.58375953742507
 20
36.95751972013544
 30
0.0
 40
0.0573069857454209
100
AcDbArc
 50
245.3816153561284
 51
355.2229318401855
  0
ARC
  5
89
330
1F
100
AcDbEntity
  8
IGES_LEVEL_0
 62
     7
100
AcDbCircle
 10
18.07077689315335
 20
32.66472359518025
 30
0.0
 40
0.1680409583609105
100
AcDbArc
 50
350.4839576138746
 51
61.62563370102928
  0
LINE
  5
8A
330
1F
100
AcDbEntity
  8
IGES_LEVEL_0
 62
     7
100
AcDbLine
 10
18.1506351008588
 20
32.81257632714326
 30
0.0
 11
18.1421481110838
 21
32.81716031949327
 31
0.0
  0
SPLINE
  5
8B
330
1F
100
AcDbEntity
  8
IGES_LEVEL_0
 62
     7
100
AcDbSpline
210
0.0
220
0.0
230
1.0
 70
     8
 71
     3
 72
    20
 73
    16
 74
     0
 42
0.0000000001
 43
0.0000000001
 40
0.2182949725212871
 40
0.2182949725212871
 40
0.2182949725212871
 40
0.2182949725212871
 40
0.2916118227546869
 40
0.3652682106619938
 40
0.4394926753724169
 40
0.5145183272072587
 40
0.5903615621604612
 40
0.6672066441798357
 40
0.7448456122470517
 40
0.8232047569103431
 40
0.9021174616494789
 40
0.9813096627400222
 40
1.060574996396875
 40
1.139628829350238
 40
1.218294972521287
 40
1.218294972521287
 40
1.218294972521287
 40
1.218294972521287
 10
18.1421481110838
 20
32.81716031949327
 30
0.0
 10
18.13441959103115
 20
32.82133466750892
 30
0.0
 10
18.11822247319603
 20
32.82846722832019
 30
0.0
 10
18.0924683099338
 20
32.83515686743827
 30
0.0
 10
18.0657700399338
 20
32.83769708497826
 30
0.0
 10
18.0387458929638
 20
32.83600389046826
 30
0.0
 10
18.0120018788338
 20
32.83009622470826
 30
0.0
 10
17.9861715665738
 20
32.82009404966826
 30
0.0
 10
17.9618556333738
 20
32.80621570334827
 30
0.0
 10
17.9396327563738
 20
32.78878558458827
 30
0.0
 10
17.92002028732379
 20
32.76820740369826
 30
0.0
 10
17.9034727208638
 20
32.74496141142826
 30
0.0
 10
17.8903728156738
 20
32.71959171345826
 30
0.0
 10
17.8810163841338
 20
32.69268875045826
 30
0.0
 10
17.87776416376836
 20
32.67400908895465
 30
0.0
 10
17.8762803479238
 20
32.66470559491827
 30
0.0
  0
ARC
  5
8C
330
1F
100
AcDbEntity
  8
IGES_LEVEL_0
 62
     7
100
AcDbCircle
 10
18.04524343932939
 20
32.63775764276248
 30
0.0
 40
0.171098563356706
100
AcDbArc
 50
170.9382073166014
 51
241.6278805611267
  0
LINE
  5
8D
330
1F
100
AcDbEntity
  8
IGES_LEVEL_0
 62
     7
100
AcDbLine
 10
17.9639380677488
 20
32.48721145405327
 30
0.0
 11
17.9724376299238
 21
32.48262110163827
 31
0.0
  0
SPLINE
  5
8E
330
1F
100
AcDbEntity
  8
IGES_LEVEL_0
 62
     7
100
AcDbSpline
210
0.0
220
0.0
230
1.0
 70
     8
 71
     3
 72
    21
 73
    17
 74
     0
 42
0.0000000001
 43
0.0000000001
 40
1.439050738651754
 40
1.439050738651754
 40
1.439050738651754
 40
1.439050738651754
 40
1.453677283597954
 40
1.525874386220054
 40
1.598401969323954
 40
1.671500596675954
 40
1.745355248618954
 40
1.820079270465754
 40
1.895706259673954
 40
1.972189805136254
 40
2.049410114528854
 40
2.127186137102254
 40
2.205291706049154
 40
2.283474327860954
 40
2.361475398501644
 40
2.439050738651754
 40
2.439050738651754
 40
2.439050738651754
 40
2.439050738651754
 10
17.9724376299238
 20
32.48262110163827
 30
0.0
 10
17.9739768413138
 20
32.48178976593826
 30
0.0
 10
17.9831947782038
 20
32.47700522549826
 30
0.0
 10
18.0009448892938
 20
32.46989423301827
 30
0.0
 10
18.0264534382138
 20
32.46420257251826
 30
0.0
 10
18.0527370297538
 20
32.46262112605827
 30
0.0
 10
18.0792037326938
 20
32.46517958561827
 30
0.0
 10
18.1052607641638
 20
32.47181393622827
 30
0.0
 10
18.1303276458638
 20
32.48236952648826
 30
0.0
 10
18.1538484112438
 20
32.49660574999827
 30
0.0
 10
18.1753029674838
 20
32.51420199164826
 30
0.0
 10
18.1942177019338
 20
32.53476513393827
 30
0.0
 10
18.2101750956338
 20
32.55783727302827
 30
0.0
 10
18.2228227530138
 20
32.58290865376826
 30
0.0
 10
18.2318794381438
 20
32.60941677434826
 30
0.0
 10
18.23517246682873
 20
32.62777370246235
 30
0.0
 10
18.23650549883379
 20
32.63694243346826
 30
0.0
  0
ARC
  5
8F
330
1F
100
AcDbEntity
  8
IGES_LEVEL_0
 62
     7
100
AcDbCircle
 10
18.04390596104092
 20
32.6620694438579
 30
0.0
 40
0.0531586111606122
100
AcDbArc
 50
351.7278224951419
 51
60.38374903099925
  0
ARC
  5
90
330
1F
100
AcDbEntity
  8
IGES_LEVEL_0
 62
     7
100
AcDbCircle
 10
18.04630381798455
 20
32.65618521406375
 30
0.0
 40
0.0573069857372442
100
AcDbArc
 50
65.38161534358922
 51
175.2229318421755
  0
ARC
  5
91
330
1F
100
AcDbEntity
  8
IGES_LEVEL_0
 62
     7
100
AcDbCircle
 10
18.04180143802457
 20
32.65330945164392
 30
0.0
 40
0.0531586111691156
100
AcDbArc
 50
171.7278224913512
 51
240.3837490264186
  0
ARC
  5
92
330
1F
100
AcDbEntity
  8
IGES_LEVEL_0
 62
     7
100
AcDbCircle
 10
18.03940358106506
 20
32.65919368144544
 30
0.0
 40
0.0573069857454209
100
AcDbArc
 50
245.3816153561284
 51
355.2229318401855
  0
SPLINE
  5
93
330
1F
100
AcDbEntity
  8
IGES_LEVEL_0
 62
     7
100
AcDbSpline
210
0.0
220
0.0
230
1.0
 70
     8
 71
     3
 72
    45
 73
    41
 74
     0
 42
0.0000000001
 43
0.0000000001
 40
0.0
 40
0.0
 40
0.0
 40
0.0
 40
0.01554061235451
 40
0.03213424163851
 40
0.04646160749557
 40
0.06425425805999
 40
0.07732472566079
 40
0.08900720836437
 40
0.1009361648834
 40
0.11459562146
 40
0.131472582029
 40
0.1530617155223
 40
0.1810405464575
 40
0.2173920027071
 40
0.2642549312782
 40
0.3186603676682
 40
0.3768993692335
 40
0.4377002527819
 40
0.4996879621076
 40
0.5614460616765
 40
0.6215672829016
 40
0.6786308555202
 40
0.7276072701731
 40
0.7665067250895
 40
0.7973028155993001
 40
0.821681647223
 40
0.8410364142763001
 40
0.8565270208799
 40
0.8691343263636
 40
0.8797243669486
 40
0.8891018243712
 40
0.8981032696889
 40
0.9076637840348
 40
0.9169366942247
 40
0.9282135343982
 40
0.940361642443
 40
0.9532329126175
 40
0.9673010765912
 40
0.9821496277104
 40
1.0
 40
1.0
 40
1.0
 40
1.0
 10
18.7983004767078
 20
25.80468436414826
 30
0.0
 10
18.79771415844435
 20
25.80669260161518
 30
0.0
 10
18.79607488688961
 20
25.8107182411881
 30
0.0
 10
18.79253324856595
 20
25.81591416043134
 30
0.0
 10
18.78782120406559
 20
25.8204996630426
 30
0.0
 10
18.78265977222858
 20
25.82378834811867
 30
0.0
 10
18.77735416968877
 20
25.82594988279978
 30
0.0
 10
18.7725998188812
 20
25.82726194064266
 30
0.0
 10
18.76768551604701
 20
25.82821972689348
 30
0.0
 10
18.76204046710452
 20
25.82902960426211
 30
0.0
 10
18.75508171572436
 20
25.82978143428688
 30
0.0
 10
18.74618990555721
 20
25.83050866540067
 30
0.0
 10
18.73467544330842
 20
25.83121294722191
 30
0.0
 10
18.71976085374812
 20
25.83187174188517
 30
0.0
 10
18.70129184022081
 20
25.8324177736515
 30
0.0
 10
18.67987941421278
 20
25.83278344942483
 30
0.0
 10
18.65659316280514
 20
25.83293294803868
 30
0.0
 10
18.63228861452042
 20
25.83285941891315
 30
0.0
 10
18.60751325279931
 20
25.83256555385339
 30
0.0
 10
18.58283260570545
 20
25.83205831533579
 30
0.0
 10
18.5588182928485
 20
25.83134911780147
 30
0.0
 10
18.53652668741147
 20
25.83047330754
 30
0.0
 10
18.51709143675042
 20
25.82949932843994
 30
0.0
 10
18.50118888666707
 20
25.82851471259709
 30
0.0
 10
18.48859348054992
 20
25.8275727622792
 30
0.0
 10
18.47862656133928
 20
25.82668286300001
 30
0.0
 10
18.47071924066687
 20
25.82584366278196
 30
0.0
 10
18.46439807494818
 20
25.82504529480141
 30
0.0
 10
18.45926171454946
 20
25.82426835065753
 30
0.0
 10
18.45495911830208
 20
25.82347955078208
 30
0.0
 10
18.45116433657413
 20
25.82262073761671
 30
0.0
 10
18.44755580628482
 20
25.82158714604668
 30
0.0
 10
18.44405021503775
 20
25.82027695427886
 30
0.0
 10
18.44041606338512
 20
25.81849043124534
 30
0.0
 10
18.43672652827205
 20
25.81608580808613
 30
0.0
 10
18.43306134835815
 20
25.81284494069442
 30
0.0
 10
18.4297225046359
 20
25.80876504539662
 30
0.0
 10
18.42696847248223
 20
25.80383941525586
 30
0.0
 10
18.42498321898292
 20
25.79784421796594
 30
0.0
 10
18.4245253486823
 20
25.79342766811831
 30
0.0
 10
18.42456085676588
 20
25.79103138352275
 30
0.0
  0
LINE
  5
94
330
1F
100
AcDbEntity
  8
IGES_LEVEL_0
 62
     7
100
AcDbLine
 10
18.42493109156228
 20
25.76607348198566
 30
0.0
 11
18.42456041651874
 21
25.7910317295606
 31
0.0
  0
ARC
  5
95
330
1F
100
AcDbEntity
  8
DEFAULT
 62
     7
100
AcDbCircle
 10
3.777910880898772
 20
24.34122788809498
 30
0.0
 40
0.3178705430568682
100
AcDbArc
 50
252.292825998026
 51
264.5735618909066
  0
LINE
  5
96
330
1F
100
AcDbEntity
  8
IGES_LEVEL_0
 62
     7
100
AcDbLine
 10
2.777560857691319
 20
25.76607348198566
 30
0.0
 11
2.777931532734863
 21
25.7910317295606
 31
0.0
  0
SPLINE
  5
97
330
1F
100
AcDbEntity
  8
IGES_LEVEL_0
 62
     7
100
AcDbSpline
210
0.0
220
0.0
230
1.0
 70
     8
 71
     3
 72
    45
 73
    41
 74
     0
 42
0.0000000001
 43
0.0000000001
 40
0.0
 40
0.0
 40
0.0
 40
0.0
 40
0.01554061235451
 40
0.03213424163851
 40
0.04646160749557
 40
0.06425425805999
 40
0.07732472566079
 40
0.08900720836437
 40
0.1009361648834
 40
0.11459562146
 40
0.131472582029
 40
0.1530617155223
 40
0.1810405464575
 40
0.2173920027071
 40
0.2642549312782
 40
0.3186603676682
 40
0.3768993692335
 40
0.4377002527819
 40
0.4996879621076
 40
0.5614460616765
 40
0.6215672829016
 40
0.6786308555202
 40
0.7276072701731
 40
0.7665067250895
 40
0.7973028155993001
 40
0.821681647223
 40
0.8410364142763001
 40
0.8565270208799
 40
0.8691343263636
 40
0.8797243669486
 40
0.8891018243712
 40
0.8981032696889
 40
0.9076637840348
 40
0.9169366942247
 40
0.9282135343982
 40
0.940361642443
 40
0.9532329126175
 40
0.9673010765912
 40
0.9821496277104
 40
1.0
 40
1.0
 40
1.0
 40
1.0
 10
2.404191472545802
 20
25.80468436414826
 30
0.0
 10
2.404777790809254
 20
25.80669260161518
 30
0.0
 10
2.40641706236399
 20
25.8107182411881
 30
0.0
 10
2.409958700687649
 20
25.81591416043134
 30
0.0
 10
2.414670745188011
 20
25.8204996630426
 30
0.0
 10
2.419832177025023
 20
25.82378834811867
 30
0.0
 10
2.425137779564833
 20
25.82594988279978
 30
0.0
 10
2.429892130372396
 20
25.82726194064266
 30
0.0
 10
2.434806433206596
 20
25.82821972689348
 30
0.0
 10
2.44045148214908
 20
25.82902960426211
 30
0.0
 10
2.447410233529246
 20
25.82978143428688
 30
0.0
 10
2.456302043696398
 20
25.83050866540067
 30
0.0
 10
2.467816505945187
 20
25.83121294722191
 30
0.0
 10
2.482731095505482
 20
25.83187174188517
 30
0.0
 10
2.50120010903279
 20
25.8324177736515
 30
0.0
 10
2.52261253504082
 20
25.83278344942483
 30
0.0
 10
2.54589878644846
 20
25.83293294803868
 30
0.0
 10
2.570203334733181
 20
25.83285941891315
 30
0.0
 10
2.594978696454292
 20
25.83256555385339
 30
0.0
 10
2.61965934354815
 20
25.83205831533579
 30
0.0
 10
2.643673656405106
 20
25.83134911780147
 30
0.0
 10
2.665965261842135
 20
25.83047330754
 30
0.0
 10
2.685400512503187
 20
25.82949932843994
 30
0.0
 10
2.70130306258653
 20
25.82851471259709
 30
0.0
 10
2.713898468703684
 20
25.8275727622792
 30
0.0
 10
2.72386538791432
 20
25.82668286300001
 30
0.0
 10
2.731772708586729
 20
25.82584366278196
 30
0.0
 10
2.738093874305422
 20
25.82504529480141
 30
0.0
 10
2.743230234704146
 20
25.82426835065753
 30
0.0
 10
2.747532830951522
 20
25.82347955078208
 30
0.0
 10
2.751327612679472
 20
25.82262073761671
 30
0.0
 10
2.754936142968783
 20
25.82158714604668
 30
0.0
 10
2.758441734215857
 20
25.82027695427886
 30
0.0
 10
2.762075885868489
 20
25.81849043124534
 30
0.0
 10
2.765765420981549
 20
25.81608580808613
 30
0.0
 10
2.76943060089545
 20
25.81284494069442
 30
0.0
 10
2.772769444617703
 20
25.80876504539662
 30
0.0
 10
2.775523476771372
 20
25.80383941525586
 30
0.0
 10
2.777508730270688
 20
25.79784421796594
 30
0.0
 10
2.777966600571307
 20
25.79342766811831
 30
0.0
 10
2.77793109248772
 20
25.79103138352275
 30
0.0
  0
ARC
  5
98
330
1F
100
AcDbEntity
  8
IGES_LEVEL_0
 62
     7
100
AcDbCircle
 10
2.74055864058824
 20
51.20676554220266
 30
0.0
 40
1.138029690508199
100
AcDbArc
 50
182.9200748512757
 51
267.3527307458215
  0
LINE
  5
99
330
1F
100
AcDbEntity
  8
IGES_LEVEL_0
 62
     7
100
AcDbLine
 10
1.132350205119801
 20
68.03801118671825
 30
0.0
 11
1.135528759735802
 21
68.02152896047825
 31
0.0
  0
ARC
  5
9A
330
1F
100
AcDbEntity
  8
IGES_LEVEL_0
 62
     7
100
AcDbCircle
 10
0.7081402752254784
 20
67.94323141715336
 30
0.0
 40
0.4346691492845134
100
AcDbArc
 50
12.59454770561194
 51
31.97056574496513
  0
SPLINE
  5
9B
330
1F
100
AcDbEntity
  8
IGES_LEVEL_0
 62
     7
100
AcDbSpline
210
0.0
220
0.0
230
1.0
 70
     8
 71
     3
 72
    18
 73
    14
 74
     0
 42
0.0000000001
 43
0.0000000001
 40
0.0
 40
0.0
 40
0.0
 40
0.0
 40
0.07177734748148
 40
0.1315562556677
 40
0.1616929920825
 40
0.2159840726922
 40
0.3004926911465
 40
0.4014563674472
 40
0.5160324187152
 40
0.64268516421
 40
0.7838830067871
 40
0.9425042945383
 40
1.0
 40
1.0
 40
1.0
 40
1.0
 10
0.9690489781628018
 20
68.32975888006826
 30
0.0
 10
0.9630559310518021
 20
68.33144841641826
 30
0.0
 10
0.9515515554108016
 20
68.33328681224825
 30
0.0
 10
0.9387582905438019
 20
68.33728749403825
 30
0.0
 10
0.923425088843802
 20
68.33079473559826
 30
0.0
 10
0.9430687895418015
 20
68.31877796539826
 30
0.0
 10
0.9554923411178016
 20
68.30730261408826
 30
0.0
 10
0.9771033028648017
 20
68.29033085192825
 30
0.0
 10
0.9986295479538021
 20
68.27053758924825
 30
0.0
 10
1.021993447895802
 20
68.24675642067825
 30
0.0
 10
1.045952224149802
 20
68.21857795680825
 30
0.0
 10
1.064162375979802
 20
68.19343710017824
 30
0.0
 10
1.074259608731802
 20
68.17762847897825
 30
0.0
 10
1.076878902197802
 20
68.17338157317826
 30
0.0
  0
ARC
  5
9C
330
1F
100
AcDbEntity
  8
IGES_LEVEL_0
 62
     7
100
AcDbCircle
 10
34.65755368967704
 20
90.70820032903588
 30
0.0
 40
33.99668516938262
100
AcDbArc
 50
224.953802830389
 51
225.5619763706835
  0
SPLINE
  5
9D
330
1F
100
AcDbEntity
  8
IGES_LEVEL_0
 62
     7
100
AcDbSpline
210
0.0
220
0.0
230
1.0
 70
     8
 71
     3
 72
    10
 73
     6
 74
     0
 42
0.0000000001
 43
0.0000000001
 40
0.0
 40
0.0
 40
0.0
 40
0.0
 40
0.193286375475
 40
0.7407214437176
 40
1.0
 40
1.0
 40
1.0
 40
1.0
 10
10.9088921830358
 20
66.37963490238826
 30
0.0
 10
10.9088921830358
 20
66.38459682962825
 30
0.0
 10
10.8870970691728
 20
66.39453008634825
 30
0.0
 10
10.8736219834888
 20
66.41458949473825
 30
0.0
 10
10.8598283169288
 20
66.42955677088825
 30
0.0
 10
10.8552050585528
 20
66.43428836271825
 30
0.0
  0
SPLINE
  5
9E
330
1F
100
AcDbEntity
  8
IGES_LEVEL_0
 62
     7
100
AcDbSpline
210
0.0
220
0.0
230
1.0
 70
     8
 71
     3
 72
    17
 73
    13
 74
     0
 42
0.0000000001
 43
0.0000000001
 40
0.0
 40
0.0
 40
0.0
 40
0.0
 40
0.01513651174646
 40
0.2027285685321
 40
0.3678260199305
 40
0.5128836945294
 40
0.6410205561458
 40
0.7549502974587
 40
0.8559861159246001
 40
0.9393191389131
 40
0.9905180024104
 40
1.0
 40
1.0
 40
1.0
 40
1.0
 10
1.667502662896802
 20
48.60971341277826
 30
0.0
 10
1.666716457146802
 20
48.60895548861826
 30
0.0
 10
1.656138761685802
 20
48.59885422822826
 30
0.0
 10
1.635799522788802
 20
48.58174841962826
 30
0.0
 10
1.605926584439802
 20
48.56171407312826
 30
0.0
 10
1.578190701438802
 20
48.54662217741826
 30
0.0
 10
1.552396828939802
 20
48.53534336957826
 30
0.0
 10
1.529805947517802
 20
48.52701964816826
 30
0.0
 10
1.506931795753802
 20
48.52099574034826
 30
0.0
 10
1.496260409611802
 20
48.51721709852826
 30
0.0
 10
1.475725109647802
 20
48.51481364085826
 30
0.0
 10
1.480049483883802
 20
48.51374721608826
 30
0.0
 10
1.480816237896802
 20
48.51360641528826
 30
0.0
  0
SPLINE
  5
9F
330
1F
100
AcDbEntity
  8
IGES_LEVEL_0
 62
     7
100
AcDbSpline
210
0.0
220
0.0
230
1.0
 70
     8
 71
     3
 72
    19
 73
    15
 74
     0
 42
0.0000000001
 43
0.0000000001
 40
0.0
 40
0.0
 40
0.0
 40
0.0
 40
0.1016505942579
 40
0.2410506992511
 40
0.3659946950385
 40
0.4777454401123
 40
0.5777740241234
 40
0.6669292489679
 40
0.7449799911798
 40
0.8062978892447
 40
0.8344412199608
 40
0.8720088857464
 40
0.9305019078989
 40
1.0
 40
1.0
 40
1.0
 40
1.0
 10
20.1286101012438
 20
68.18546379650826
 30
0.0
 10
20.1332035680238
 20
68.19243647609825
 30
0.0
 10
20.1445258758538
 20
68.20868767692825
 30
0.0
 10
20.1631818849038
 20
68.23227922885826
 30
0.0
 10
20.1838845833538
 20
68.25523355544826
 30
0.0
 10
20.2035638206338
 20
68.27464442578825
 30
0.0
 10
20.2219795601938
 20
68.29123821442826
 30
0.0
 10
20.2389365107938
 20
68.30485738063825
 30
0.0
 10
20.2536636730038
 20
68.31743352703825
 30
0.0
 10
20.2645646834638
 20
68.32354953594825
 30
0.0
 10
20.2715090571738
 20
68.33592387611824
 30
0.0
 10
20.2564048393738
 20
68.33512951413826
 30
0.0
 10
20.2451197562238
 20
68.33385350445826
 30
0.0
 10
20.2342283459838
 20
68.33130743319825
 30
0.0
 10
20.2287353654938
 20
68.32975887366825
 30
0.0
  0
LINE
  5
A0
330
1F
100
AcDbEntity
  8
IGES_LEVEL_0
 62
     7
100
AcDbLine
 10
20.1214245927538
 20
68.17421952897826
 30
0.0
 11
20.1286101012438
 21
68.18546379650826
 31
0.0
  0
ARC
  5
A1
330
1F
100
AcDbEntity
  8
IGES_LEVEL_0
 62
     7
100
AcDbCircle
 10
20.48431481417462
 20
67.94578881336553
 30
0.0
 40
0.4288005417885981
100
AcDbArc
 50
147.8105664786544
 51
169.8435652583442
  0
SPLINE
  5
A2
330
1F
100
AcDbEntity
  8
IGES_LEVEL_0
 62
     7
100
AcDbSpline
210
0.0
220
0.0
230
1.0
 70
     8
 71
     3
 72
     9
 73
     5
 74
     0
 42
0.0000000001
 43
0.0000000001
 40
0.0
 40
0.0
 40
0.0
 40
0.0
 40
0.7415264468341
 40
1.0
 40
1.0
 40
1.0
 40
1.0
 10
10.3288428068778
 20
66.41926576286825
 30
0.0
 10
10.3202156136698
 20
66.40894832086826
 30
0.0
 10
10.3103765222578
 20
66.39428836176825
 30
0.0
 10
10.2888921830358
 20
66.38448326846824
 30
0.0
 10
10.2888921830358
 20
66.37963490238826
 30
0.0
  0
ARC
  5
A3
330
1F
100
AcDbEntity
  8
IGES_LEVEL_0
 62
     7
100
AcDbCircle
 10
-1774.296632314475
 20
1858.020558730096
 30
0.0
 40
2528.779009604034
100
AcDbArc
 50
314.8882385149981
 51
314.8968753983116
  0
SPLINE
  5
A4
330
1F
100
AcDbEntity
  8
IGES_LEVEL_0
 62
     7
100
AcDbSpline
210
0.0
220
0.0
230
1.0
 70
     8
 71
     3
 72
    10
 73
     6
 74
     0
 42
0.0000000001
 43
0.0000000001
 40
0.0
 40
0.0
 40
0.0
 40
0.0
 40
0.256269708006
 40
0.5962082558403
 40
1.0
 40
1.0
 40
1.0
 40
1.0
 10
10.3436451222578
 20
49.07862438369826
 30
0.0
 10
10.3665948343208
 20
49.05959124295826
 30
0.0
 10
10.4154243944938
 20
49.00433029143826
 30
0.0
 10
10.5017303483578
 20
48.92187382666826
 30
0.0
 10
10.5640331972938
 20
48.85722195340826
 30
0.0
 10
10.5988921830358
 20
48.82337732291826
 30
0.0
  0
SPLINE
  5
A5
330
1F
100
AcDbEntity
  8
IGES_LEVEL_0
 62
     7
100
AcDbSpline
210
0.0
220
0.0
230
1.0
 70
     8
 71
     3
 72
     9
 73
     5
 74
     0
 42
0.0000000001
 43
0.0000000001
 40
0.0
 40
0.0
 40
0.0
 40
0.0
 40
0.2532460598128
 40
1.0
 40
1.0
 40
1.0
 40
1.0
 10
10.2888921830358
 20
49.13337732291826
 30
0.0
 10
10.2954286621498
 20
49.13337732291826
 30
0.0
 10
10.3090639250938
 20
49.10398354361826
 30
0.0
 10
10.3293000025158
 20
49.09052138188826
 30
0.0
 10
10.3436451222578
 20
49.07862438369826
 30
0.0
  0
SPLINE
  5
A6
330
1F
100
AcDbEntity
  8
IGES_LEVEL_0
 62
     7
100
AcDbSpline
210
0.0
220
0.0
230
1.0
 70
     8
 71
     3
 72
     9
 73
     5
 74
     0
 42
0.0000000001
 43
0.0000000001
 40
0.0
 40
0.0
 40
0.0
 40
0.0
 40
0.7470313714038001
 40
1.0
 40
1.0
 40
1.0
 40
1.0
 10
10.8705143555918
 20
49.09499949547826
 30
0.0
 10
10.8805776025928
 20
49.10333291450826
 30
0.0
 10
10.8947568533138
 20
49.11277742856826
 30
0.0
 10
10.9043156058078
 20
49.13337732291826
 30
0.0
 10
10.9088921830358
 20
49.13337732291826
 30
0.0
  0
ARC
  5
A7
330
1F
100
AcDbEntity
  8
IGES_LEVEL_0
 62
     7
100
AcDbCircle
 10
83.14331373577277
 20
-23.44942205619618
 30
0.0
 40
102.4014190747127
100
AcDbArc
 50
134.8925349782373
 51
135.1074650226051
  0
SPLINE
  5
A8
330
1F
100
AcDbEntity
  8
IGES_LEVEL_0
 62
     7
100
AcDbSpline
210
0.0
220
0.0
230
1.0
 70
     8
 71
     3
 72
    14
 73
    10
 74
     0
 42
0.0000000001
 43
0.0000000001
 40
0.0
 40
0.0
 40
0.0
 40
0.0
 40
0.00246457779557
 40
0.03494652125344
 40
0.1727753374268
 40
0.3417382602366
 40
0.5384733280601
 40
0.7630037431188
 40
1.0
 40
1.0
 40
1.0
 40
1.0
 10
19.7167879844838
 20
48.51323354598826
 30
0.0
 10
19.7167264392438
 20
48.51328095549826
 30
0.0
 10
19.7157234641238
 20
48.51398839332826
 30
0.0
 10
19.7013770623038
 20
48.52001580719826
 30
0.0
 10
19.6803370742338
 20
48.52225181360826
 30
0.0
 10
19.6454184441538
 20
48.53513933353826
 30
0.0
 10
19.6076677668338
 20
48.55211354043826
 30
0.0
 10
19.5677900007738
 20
48.57693186251826
 30
0.0
 10
19.5425653547838
 20
48.59789177038826
 30
0.0
 10
19.5304553849338
 20
48.60954647651826
 30
0.0
  0
SPLINE
  5
A9
330
1F
100
AcDbEntity
  8
IGES_LEVEL_0
 62
     7
100
AcDbSpline
210
0.0
220
0.0
230
1.0
 70
     8
 71
     3
 72
    13
 73
     9
 74
     0
 42
0.0000000001
 43
0.0000000001
 40
0.0
 40
0.0
 40
0.0
 40
0.0
 40
0.09621764177085
 40
0.2315844031683
 40
0.4114015362251
 40
0.6412142324759
 40
0.9251673699125
 40
1.0
 40
1.0
 40
1.0
 40
1.0
 10
3.568966703184802
 20
65.14517070324826
 30
0.0
 10
3.570788117942802
 20
65.11875022184825
 30
0.0
 10
3.581005452176802
 20
65.03221651457825
 30
0.0
 10
3.584899858650802
 20
64.89967929314825
 30
0.0
 10
3.586631575328802
 20
64.71500429550825
 30
0.0
 10
3.579964908937801
 20
64.48355758576825
 30
0.0
 10
3.568666934258802
 20
64.28650653546825
 30
0.0
 10
3.559633374410802
 20
64.16664435197825
 30
0.0
 10
3.557657361145802
 20
64.14165459381826
 30
0.0
  0
ARC
  5
AA
330
1F
100
AcDbEntity
  8
IGES_LEVEL_0
 62
     7
100
AcDbCircle
 10
3.28623982462671
 20
65.13389954885086
 30
0.0
 40
0.2829514565798366
100
AcDbArc
 50
2.282937480717734
 51
17.35363055843775
  0
LINE
  5
AB
330
1F
100
AcDbEntity
  8
IGES_LEVEL_0
 62
     7
100
AcDbLine
 10
4.203480990911802
 20
64.46390270556825
 30
0.0
 11
4.202969442463802
 21
64.45197392080826
 31
0.0
  0
SPLINE
  5
AC
330
1F
100
AcDbEntity
  8
IGES_LEVEL_0
 62
     7
100
AcDbSpline
210
0.0
220
0.0
230
1.0
 70
     8
 71
     3
 72
    14
 73
    10
 74
     0
 42
0.0000000001
 43
0.0000000001
 40
0.0
 40
0.0
 40
0.0
 40
0.0
 40
0.102954280963
 40
0.2029257186447
 40
0.3177383854245
 40
0.4644240016307
 40
0.6577814073233
 40
0.9106645374725
 40
1.0
 40
1.0
 40
1.0
 40
1.0
 10
4.072831754983803
 20
65.57309041737825
 30
0.0
 10
4.096622729004802
 20
65.54234687300826
 30
0.0
 10
4.134282771335802
 20
65.47435396207825
 30
0.0
 10
4.168581137851803
 20
65.35895418135826
 30
0.0
 10
4.190930019914802
 20
65.22409228065826
 30
0.0
 10
4.205658667625802
 20
65.05287019170825
 30
0.0
 10
4.212418527511803
 20
64.82900374112825
 30
0.0
 10
4.209632269697802
 20
64.62674384074825
 30
0.0
 10
4.204904048140802
 20
64.49760590908825
 30
0.0
 10
4.203480990911802
 20
64.46390270556825
 30
0.0
  0
SPLINE
  5
AD
330
1F
100
AcDbEntity
  8
IGES_LEVEL_0
 62
     7
100
AcDbSpline
210
0.0
220
0.0
230
1.0
 70
     8
 71
     3
 72
    16
 73
    12
 74
     0
 42
0.0000000001
 43
0.0000000001
 40
0.0
 40
0.0
 40
0.0
 40
0.0
 40
0.1996929613675
 40
0.3571711081395
 40
0.4809520658316
 40
0.5788873126051
 40
0.6587110239835
 40
0.7291693219581
 40
0.8016742998332
 40
0.8901542451379
 40
1.0
 40
1.0
 40
1.0
 40
1.0
 10
2.703744609890802
 20
50.05615048928826
 30
0.0
 10
2.696933375990802
 20
50.01231614006826
 30
0.0
 10
2.684332477907802
 20
49.93397841172826
 30
0.0
 10
2.665859625353802
 20
49.82874377124826
 30
0.0
 10
2.649831238487802
 20
49.74604243493826
 30
0.0
 10
2.635581006410802
 20
49.68058360454826
 30
0.0
 10
2.622155582795802
 20
49.62709050788826
 30
0.0
 10
2.607865682041802
 20
49.57968200636826
 30
0.0
 10
2.589272151864802
 20
49.53166157420826
 30
0.0
 10
2.560427208537802
 20
49.47861025813826
 30
0.0
 10
2.532098050326802
 20
49.44429359141826
 30
0.0
 10
2.514541686693802
 20
49.42734670650826
 30
0.0
  0
LINE
  5
AE
330
1F
100
AcDbEntity
  8
IGES_LEVEL_0
 62
     7
100
AcDbLine
 10
2.705790622337802
 20
50.06936410339826
 30
0.0
 11
2.703744609890802
 21
50.05615048928826
 31
0.0
  0
ARC
  5
AF
330
1F
100
AcDbEntity
  8
IGES_LEVEL_0
 62
     7
100
AcDbCircle
 10
2.401625046191512
 20
67.22230695677133
 30
0.0
 40
0.3164166792972048
100
AcDbArc
 50
84.69174471676108
 51
179.3866342079403
  0
ARC
  5
B0
330
1F
100
AcDbEntity
  8
IGES_LEVEL_0
 62
     7
100
AcDbCircle
 10
18.79617734340129
 20
67.22233704620192
 30
0.0
 40
0.3163883870167047
100
AcDbArc
 50
0.5999136682574076
 51
95.31200933009635
  0
LINE
  5
B1
330
1F
100
AcDbEntity
  8
IGES_LEVEL_0
 62
     7
100
AcDbLine
 10
16.9942116790438
 20
64.46608064199825
 30
0.0
 11
16.9948149236038
 21
64.45197392080826
 31
0.0
  0
SPLINE
  5
B2
330
1F
100
AcDbEntity
  8
IGES_LEVEL_0
 62
     7
100
AcDbSpline
210
0.0
220
0.0
230
1.0
 70
     8
 71
     3
 72
    14
 73
    10
 74
     0
 42
0.0000000001
 43
0.0000000001
 40
0.0
 40
0.0
 40
0.0
 40
0.0
 40
0.1031527786122
 40
0.2033169629691
 40
0.3183509905728
 40
0.4653194192051
 40
0.6590496213480001
 40
0.9124203145823
 40
1.0
 40
1.0
 40
1.0
 40
1.0
 10
17.1249526110838
 20
65.57309041737825
 30
0.0
 10
17.1011616370638
 20
65.54234687300826
 30
0.0
 10
17.0635015947338
 20
65.47435396207825
 30
0.0
 10
17.0292032282238
 20
65.35895418135826
 30
0.0
 10
17.0068543461538
 20
65.22409228065826
 30
0.0
 10
16.9921256984438
 20
65.05287019170825
 30
0.0
 10
16.9853658385638
 20
64.82900374112825
 30
0.0
 10
16.9881420854338
 20
64.62747055406825
 30
0.0
 10
16.9928272372238
 20
64.49905820665825
 30
0.0
 10
16.9942116790438
 20
64.46608064199825
 30
0.0
  0
SPLINE
  5
B3
330
1F
100
AcDbEntity
  8
IGES_LEVEL_0
 62
     7
100
AcDbSpline
210
0.0
220
0.0
230
1.0
 70
     8
 71
     3
 72
    13
 73
     9
 74
     0
 42
0.0000000001
 43
0.0000000001
 40
0.0
 40
0.0
 40
0.0
 40
0.0
 40
0.09645418643877
 40
0.2321537380089
 40
0.4124129395185
 40
0.6427906149864
 40
0.927441832311
 40
1.0
 40
1.0
 40
1.0
 40
1.0
 10
17.6288176628838
 20
65.14517070324826
 30
0.0
 10
17.6269962481238
 20
65.11875022184825
 30
0.0
 10
17.6167789138938
 20
65.03221651457825
 30
0.0
 10
17.6128845074238
 20
64.89967929314825
 30
0.0
 10
17.6111527907438
 20
64.71500429550825
 30
0.0
 10
17.6178194571338
 20
64.48355758576825
 30
0.0
 10
17.6290703586338
 20
64.28732755163824
 30
0.0
 10
17.6380275979738
 20
64.16828294905825
 30
0.0
 10
17.6399330280938
 20
64.14411150892826
 30
0.0
  0
ARC
  5
B4
330
1F
100
AcDbEntity
  8
IGES_LEVEL_0
 62
     7
100
AcDbCircle
 10
17.91154454192897
 20
65.13389954877395
 30
0.0
 40
0.2829514570695857
100
AcDbArc
 50
162.6463694562362
 51
177.7170625076499
  0
SPLINE
  5
B5
330
1F
100
AcDbEntity
  8
IGES_LEVEL_0
 62
     7
100
AcDbSpline
210
0.0
220
0.0
230
1.0
 70
     8
 71
     3
 72
    16
 73
    12
 74
     0
 42
0.0000000001
 43
0.0000000001
 40
0.0
 40
0.0
 40
0.0
 40
0.0
 40
0.1996929613676
 40
0.3571711081395
 40
0.4809520658316
 40
0.5788873126051
 40
0.6587110239835
 40
0.7291693219582
 40
0.8016742998333
 40
0.890154245138
 40
1.0
 40
1.0
 40
1.0
 40
1.0
 10
18.4940397561838
 20
50.05615048928826
 30
0.0
 10
18.5008509900838
 20
50.01231614006826
 30
0.0
 10
18.5134518881638
 20
49.93397841172826
 30
0.0
 10
18.5319247407138
 20
49.82874377124826
 30
0.0
 10
18.5479531275838
 20
49.74604243493826
 30
0.0
 10
18.5622033596638
 20
49.68058360454826
 30
0.0
 10
18.5756287832738
 20
49.62709050788826
 30
0.0
 10
18.5899186840338
 20
49.57968200636826
 30
0.0
 10
18.6085122142038
 20
49.53166157420826
 30
0.0
 10
18.6373571575338
 20
49.47861025813826
 30
0.0
 10
18.6656863157438
 20
49.44429359141826
 30
0.0
 10
18.6832426793738
 20
49.42734670650826
 30
0.0
  0
LINE
  5
B6
330
1F
100
AcDbEntity
  8
IGES_LEVEL_0
 62
     7
100
AcDbLine
 10
18.4915828797338
 20
50.07202870656826
 30
0.0
 11
18.4940397561838
 21
50.05615048928826
 31
0.0
  0
SPLINE
  5
B7
330
1F
100
AcDbEntity
  8
IGES_LEVEL_0
 62
     7
100
AcDbSpline
210
0.0
220
0.0
230
1.0
 70
     8
 71
     3
 72
    14
 73
    10
 74
     0
 42
0.0000000001
 43
0.0000000001
 40
0.0
 40
0.0
 40
0.0
 40
0.0
 40
0.03267070936588
 40
0.1185648037885
 40
0.2591847355337
 40
0.457426919293
 40
0.6969545346565
 40
0.9609154425698
 40
1.0
 40
1.0
 40
1.0
 40
1.0
 10
1.778183461791802
 20
64.02350531006826
 30
0.0
 10
1.777973926068802
 20
64.02667495109824
 30
0.0
 10
1.854448171177802
 20
63.96798692215825
 30
0.0
 10
1.929015051620802
 20
63.95515912046826
 30
0.0
 10
2.120962009675802
 20
63.88849568267826
 30
0.0
 10
2.358511670714802
 20
63.84869180358826
 30
0.0
 10
2.660932230995802
 20
63.81058712803826
 30
0.0
 10
2.893461148074802
 20
63.79805934860826
 30
0.0
 10
3.023697851253802
 20
63.79502321177826
 30
0.0
 10
3.040499298527802
 20
63.79469842653826
 30
0.0
  0
LINE
  5
B8
330
1F
100
AcDbEntity
  8
IGES_LEVEL_0
 62
     7
100
AcDbLine
 10
2.784557528133802
 20
63.17910293863826
 30
0.0
 11
2.794264900326802
 21
63.17855557539826
 31
0.0
  0
SPLINE
  5
B9
330
1F
100
AcDbEntity
  8
IGES_LEVEL_0
 62
     7
100
AcDbSpline
210
0.0
220
0.0
230
1.0
 70
     8
 71
     3
 72
    14
 73
    10
 74
     0
 42
0.0000000001
 43
0.0000000001
 40
0.0
 40
0.0
 40
0.0
 40
0.0
 40
0.03445327022797
 40
0.1425590622952
 40
0.2617443136921
 40
0.4088441367668
 40
0.6026053309914
 40
0.8358633669698
 40
1.0
 40
1.0
 40
1.0
 40
1.0
 10
1.232217253992802
 20
63.72731639826826
 30
0.0
 10
1.240509832266802
 20
63.70935669824826
 30
0.0
 10
1.279553850343802
 20
63.63720335372826
 30
0.0
 10
1.383229924428802
 20
63.52668566270826
 30
0.0
 10
1.567623564186802
 20
63.41651441276826
 30
0.0
 10
1.813728246617802
 20
63.32469402929826
 30
0.0
 10
2.132280034583802
 20
63.24935397499826
 30
0.0
 10
2.465768965864802
 20
63.20239817706826
 30
0.0
 10
2.691287299547802
 20
63.18443467929826
 30
0.0
 10
2.784557528133802
 20
63.17910293863826
 30
0.0
  0
ARC
  5
BA
330
1F
100
AcDbEntity
  8
IGES_LEVEL_0
 62
     7
100
AcDbCircle
 10
1.633742490143652
 20
63.91396491048825
 30
0.0
 40
0.4427868362767034
100
AcDbArc
 50
189.6264061855719
 51
204.9313028787558
  0
SPLINE
  5
BB
330
1F
100
AcDbEntity
  8
IGES_LEVEL_0
 62
     7
100
AcDbSpline
210
0.0
220
0.0
230
1.0
 70
     8
 71
     3
 72
    14
 73
    10
 74
     0
 42
0.0000000001
 43
0.0000000001
 40
0.0
 40
0.0
 40
0.0
 40
0.0
 40
0.0410405745764
 40
0.3137067031165
 40
0.5606372789302
 40
0.7626486556575
 40
0.9042983287628
 40
0.9901148293295
 40
1.0
 40
1.0
 40
1.0
 40
1.0
 10
18.1595340762038
 20
63.79474323369826
 30
0.0
 10
18.1767793809538
 20
63.79508326282826
 30
0.0
 10
18.3085639278238
 20
63.79822117013826
 30
0.0
 10
18.5434283400738
 20
63.81109102549826
 30
0.0
 10
18.8473059091138
 20
63.84986209269826
 30
0.0
 10
19.0844819445038
 20
63.89040222491826
 30
0.0
 10
19.2734930974638
 20
63.95652435011827
 30
0.0
 10
19.3409684047338
 20
63.96920011650827
 30
0.0
 10
19.3941389512838
 20
64.00721746431825
 30
0.0
 10
19.3992316105138
 20
64.01084893932824
 30
0.0
  0
ARC
  5
BC
330
1F
100
AcDbEntity
  8
IGES_LEVEL_0
 62
     7
100
AcDbCircle
 10
19.56416444456994
 20
63.91392056558761
 30
0.0
 40
0.4426585786320771
100
AcDbArc
 50
335.1535168484576
 51
350.3765998487558
  0
SPLINE
  5
BD
330
1F
100
AcDbEntity
  8
IGES_LEVEL_0
 62
     7
100
AcDbSpline
210
0.0
220
0.0
230
1.0
 70
     8
 71
     3
 72
    14
 73
    10
 74
     0
 42
0.0000000001
 43
0.0000000001
 40
0.0
 40
0.0
 40
0.0
 40
0.0
 40
0.1658634593855
 40
0.4009510344141
 40
0.5934228252006
 40
0.7395709418316
 40
0.8581440484875
 40
0.9656709043963
 40
1.0
 40
1.0
 40
1.0
 40
1.0
 10
18.4184996998538
 20
63.17940666281826
 30
0.0
 10
18.5124932834538
 20
63.18485888688826
 30
0.0
 10
18.7393998709738
 20
63.20317454849826
 30
0.0
 10
19.0731993615238
 20
63.25074651127826
 30
0.0
 10
19.3904719073538
 20
63.32666312304826
 30
0.0
 10
19.6341107941838
 20
63.41844101121826
 30
0.0
 10
19.8165442921938
 20
63.52839217772826
 30
0.0
 10
19.9190210872438
 20
63.63839910934826
 30
0.0
 10
19.9576352100138
 20
63.71006367577826
 30
0.0
 10
19.9658491663038
 20
63.72792056138826
 30
0.0
  0
LINE
  5
BE
330
1F
100
AcDbEntity
  8
IGES_LEVEL_0
 62
     7
100
AcDbLine
 10
18.4039016384838
 20
63.17857698729826
 30
0.0
 11
18.4184996998538
 21
63.17940666281826
 31
0.0
  0
ARC
  5
BF
330
1F
100
AcDbEntity
  8
IGES_LEVEL_0
 62
     7
100
AcDbCircle
 10
18.79575741008075
 20
67.23313947793534
 30
0.0
 40
0.3055940253073414
100
AcDbArc
 50
95.42111942444051
 51
130.617713520115
  0
SPLINE
  5
C0
330
1F
100
AcDbEntity
  8
IGES_LEVEL_0
 62
     7
100
AcDbSpline
210
0.0
220
0.0
230
1.0
 70
     8
 71
     3
 72
    15
 73
    11
 74
     0
 42
0.0000000001
 43
0.0000000001
 40
0.0
 40
0.0
 40
0.0
 40
0.0
 40
0.1608367293878
 40
0.4190618874041
 40
0.6192921772459
 40
0.7706859216939
 40
0.8806546807466
 40
0.9546135826166
 40
0.9954642535484
 40
1.0
 40
1.0
 40
1.0
 40
1.0
 10
2.103038654633802
 20
50.26402091881826
 30
0.0
 10
2.099249132166802
 20
50.23819097006826
 30
0.0
 10
2.089200042814802
 20
50.17091333423826
 30
0.0
 10
2.073558264835802
 20
50.07157802304826
 30
0.0
 10
2.056967296709802
 20
49.97409639342826
 30
0.0
 10
2.043171989393802
 20
49.90017020907826
 30
0.0
 10
2.032438707481802
 20
49.84745745849826
 30
0.0
 10
2.023797778534802
 20
49.81063774515826
 30
0.0
 10
2.019551274126802
 20
49.79379236298826
 30
0.0
 10
2.016981980916802
 20
49.78543547816826
 30
0.0
 10
2.016781500021802
 20
49.78476082091826
 30
0.0
  0
SPLINE
  5
C1
330
1F
100
AcDbEntity
  8
IGES_LEVEL_0
 62
     7
100
AcDbSpline
210
0.0
220
0.0
230
1.0
 70
     8
 71
     3
 72
    15
 73
    11
 74
     0
 42
0.0000000001
 43
0.0000000001
 40
0.0
 40
0.0
 40
0.0
 40
0.0
 40
0.1602687908402
 40
0.418668713442
 40
0.619034517437
 40
0.7705307238806
 40
0.880573908852
 40
0.9545828654762
 40
0.9954611837938
 40
1.0
 40
1.0
 40
1.0
 40
1.0
 10
19.0947935209138
 20
50.26369506710826
 30
0.0
 10
19.0985676722138
 20
50.23797380833826
 30
0.0
 10
19.1086014057638
 20
50.17080484937826
 30
0.0
 10
19.1242261012338
 20
50.07157802304826
 30
0.0
 10
19.1408170693638
 20
49.97409639342826
 30
0.0
 10
19.1546123766738
 20
49.90017020907826
 30
0.0
 10
19.1653456585938
 20
49.84745745849826
 30
0.0
 10
19.1739865875338
 20
49.81063774515826
 30
0.0
 10
19.1782330919438
 20
49.79379236298826
 30
0.0
 10
19.1808023851538
 20
49.78543547816826
 30
0.0
 10
19.1810028660538
 20
49.78476082091826
 30
0.0
  0
ARC
  5
C2
330
1F
100
AcDbEntity
  8
IGES_LEVEL_0
 62
     7
100
AcDbCircle
 10
2.402099288453375
 20
67.23325051922829
 30
0.0
 40
0.3054766532443087
100
AcDbArc
 50
50.49211812516003
 51
84.59041905994455
  0
LINE
  5
C3
330
1F
100
AcDbEntity
  8
IGES_LEVEL_0
 62
     7
100
AcDbLine
 10
2.797643977248802
 20
63.23373040340826
 30
0.0
 11
2.796809185372802
 21
63.22567684374826
 31
0.0
  0
LINE
  5
C4
330
1F
100
AcDbEntity
  8
IGES_LEVEL_0
 62
     7
100
AcDbLine
 10
2.805647984487802
 20
63.29186228173826
 30
0.0
 11
2.797643977248802
 21
63.23373040340826
 31
0.0
  0
ARC
  5
C5
330
1F
100
AcDbEntity
  8
IGES_LEVEL_0
 62
     7
100
AcDbCircle
 10
3.799146755308244
 20
63.12452152618667
 30
0.0
 40
1.007493293322747
100
AcDbArc
 50
121.6773398934702
 51
170.4390821300801
  0
LINE
  5
C6
330
1F
100
AcDbEntity
  8
IGES_LEVEL_0
 62
     7
100
AcDbLine
 10
2.723827037615802
 20
50.06897675822826
 30
0.0
 11
2.687996318248802
 21
50.06995035108826
 31
0.0
  0
ARC
  5
C7
330
1F
100
AcDbEntity
  8
IGES_LEVEL_0
 62
     7
100
AcDbCircle
 10
10.60836347959912
 20
49.7668606693026
 30
0.0
 40
16.00908944064399
100
AcDbArc
 50
66.70971288690235
 51
90.03510198148113
  0
LINE
  5
C8
330
1F
100
AcDbEntity
  8
IGES_LEVEL_0
 62
     7
100
AcDbLine
 10
16.9534536531838
 20
64.46483342309824
 30
0.0
 11
16.9381941540338
 21
64.47142419058825
 31
0.0
  0
LINE
  5
C9
330
1F
100
AcDbEntity
  8
IGES_LEVEL_0
 62
     7
100
AcDbLine
 10
4.259380571451802
 20
64.46925434340825
 30
0.0
 11
4.244126633812802
 21
64.46265973643826
 31
0.0
  0
ARC
  5
CA
330
1F
100
AcDbEntity
  8
IGES_LEVEL_0
 62
     7
100
AcDbCircle
 10
10.59421420791077
 20
49.76700235913213
 30
0.0
 40
16.00894533099427
100
AcDbArc
 50
89.98446226013225
 51
113.3100046234928
  0
LINE
  5
CB
330
1F
100
AcDbEntity
  8
IGES_LEVEL_0
 62
     7
100
AcDbLine
 10
18.4792885795438
 20
50.07160105252826
 30
0.0
 11
18.5162994177038
 21
50.07266373376826
 31
0.0
  0
ARC
  5
CC
330
1F
100
AcDbEntity
  8
IGES_LEVEL_0
 62
     7
100
AcDbCircle
 10
18.46160123104017
 20
51.20937936452643
 30
0.0
 40
1.13795649987274
100
AcDbArc
 50
272.71506918427
 51
358.6320920492777
  0
LINE
  5
CD
330
1F
100
AcDbEntity
  8
IGES_LEVEL_0
 62
     7
100
AcDbLine
 10
18.4115558029438
 20
50.07073376333826
 30
0.0
 11
18.4792880168038
 21
50.07159702758826
 31
0.0
  0
ARC
  5
CE
330
1F
100
AcDbEntity
  8
IGES_LEVEL_0
 62
     7
100
AcDbCircle
 10
17.39888566455625
 20
63.12684614407986
 30
0.0
 40
1.007496050201474
100
AcDbArc
 50
9.580565569356004
 51
58.3421472055742
  0
LINE
  5
CF
330
1F
100
AcDbEntity
  8
IGES_LEVEL_0
 62
     7
100
AcDbLine
 10
18.4003537950538
 20
63.23639828744826
 30
0.0
 11
18.3923297113938
 21
63.29452803628826
 31
0.0
  0
LINE
  5
D0
330
1F
100
AcDbEntity
  8
IGES_LEVEL_0
 62
     7
100
AcDbLine
 10
18.4011912951238
 20
63.22834562597826
 30
0.0
 11
18.4003537950538
 21
63.23639828744826
 31
0.0
  0
LINE
  5
D1
330
1F
100
AcDbEntity
  8
IGES_LEVEL_0
 62
     7
100
AcDbLine
 10
18.3915388479938
 20
50.07046219193826
 30
0.0
 11
18.4115557986738
 21
50.07073376314826
 31
0.0
  0
LINE
  5
D2
330
1F
100
AcDbEntity
  8
IGES_LEVEL_0
 62
     7
100
AcDbLine
 10
18.3498746088438
 20
50.06988793700826
 30
0.0
 11
18.3915388479938
 21
50.07046219193826
 31
0.0
  0
ARC
  5
D3
330
1F
100
AcDbEntity
  8
IGES_LEVEL_0
 62
     7
100
AcDbCircle
 10
10.23262930023516
 20
620.5602723112659
 30
0.0
 40
570.5481297346768
100
AcDbArc
 50
270.037018290435
 51
270.8151802875565
  0
LINE
  5
D4
330
1F
100
AcDbEntity
  8
IGES_LEVEL_0
 62
     7
100
AcDbLine
 10
1.602637359685802
 20
51.21225344152826
 30
0.0
 11
1.626029895045802
 21
51.45924602235826
 31
0.0
  0
LINE
  5
D5
330
1F
100
AcDbEntity
  8
IGES_LEVEL_0
 62
     7
100
AcDbLine
 10
1.626660036793802
 20
51.46558386007826
 30
0.0
 11
1.626029892552802
 21
51.45924646973826
 31
0.0
  0
LINE
  5
D6
330
1F
100
AcDbEntity
  8
IGES_LEVEL_0
 62
     7
100
AcDbLine
 10
2.796810097787802
 20
63.23384765396826
 30
0.0
 11
1.626660036793802
 21
51.46558386007826
 31
0.0
  0
LINE
  5
D7
330
1F
100
AcDbEntity
  8
IGES_LEVEL_0
 62
     7
100
AcDbLine
 10
2.797323898531802
 20
63.23887909955826
 30
0.0
 11
2.796810097787802
 21
63.23384765396826
 31
0.0
  0
ARC
  5
D8
330
1F
100
AcDbEntity
  8
IGES_LEVEL_0
 62
     7
100
AcDbCircle
 10
3.799133016177124
 20
63.13289580560051
 30
0.0
 40
1.007399606310942
100
AcDbArc
 50
118.1355585473117
 51
173.9610327757957
  0
LINE
  5
D9
330
1F
100
AcDbEntity
  8
IGES_LEVEL_0
 62
     7
100
AcDbLine
 10
3.327828623365802
 20
64.02324254844825
 30
0.0
 11
3.324084412851802
 21
64.02125541255825
 31
0.0
  0
ARC
  5
DA
330
1F
100
AcDbEntity
  8
IGES_LEVEL_0
 62
     7
100
AcDbCircle
 10
9.418585725756977
 20
52.49385225980859
 30
0.0
 40
13.03933136737107
100
AcDbArc
 50
114.619260045339
 51
117.8466398234274
  0
LINE
  5
DB
330
1F
100
AcDbEntity
  8
IGES_LEVEL_0
 62
     7
100
AcDbLine
 10
4.243709009672802
 20
64.46240561981824
 30
0.0
 11
3.986577488501802
 21
64.34785787050825
 31
0.0
  0
ARC
  5
DC
330
1F
100
AcDbEntity
  8
IGES_LEVEL_0
 62
     7
100
AcDbCircle
 10
10.77470087916715
 20
620.5527338870713
 30
0.0
 40
570.5404985882497
100
AcDbArc
 50
269.2044127474952
 51
269.9825819570387
  0
LINE
  5
DD
330
1F
100
AcDbEntity
  8
IGES_LEVEL_0
 62
     7
100
AcDbLine
 10
17.2110435261938
 20
64.35011962106825
 30
0.0
 11
16.9538714025238
 21
64.46457941018825
 31
0.0
  0
ARC
  5
DE
330
1F
100
AcDbEntity
  8
IGES_LEVEL_0
 62
     7
100
AcDbCircle
 10
11.78334579646551
 20
52.49475863380619
 30
0.0
 40
13.03876860687361
100
AcDbArc
 50
62.17291808415739
 51
65.40044074216468
  0
LINE
  5
DF
330
1F
100
AcDbEntity
  8
IGES_LEVEL_0
 62
     7
100
AcDbLine
 10
17.8736503122138
 20
64.02374318352825
 30
0.0
 11
17.8699042888238
 21
64.02572964680826
 31
0.0
  0
ARC
  5
E0
330
1F
100
AcDbEntity
  8
IGES_LEVEL_0
 62
     7
100
AcDbCircle
 10
17.39890128816699
 20
63.13522037150685
 30
0.0
 40
1.007402314527729
100
AcDbArc
 50
6.058620521693835
 51
61.88384372301674
  0
LINE
  5
E1
330
1F
100
AcDbEntity
  8
IGES_LEVEL_0
 62
     7
100
AcDbLine
 10
18.4011922075338
 20
63.23651643619826
 30
0.0
 11
18.4006766861338
 21
63.24154758036826
 31
0.0
  0
LINE
  5
E2
330
1F
100
AcDbEntity
  8
IGES_LEVEL_0
 62
     7
100
AcDbLine
 10
19.5753971856538
 20
51.46865473656826
 30
0.0
 11
18.4011922075338
 21
63.23651643619826
 31
0.0
  0
LINE
  5
E3
330
1F
100
AcDbEntity
  8
IGES_LEVEL_0
 62
     7
100
AcDbLine
 10
19.5760296277938
 20
51.46231641765826
 30
0.0
 11
19.5753971856538
 21
51.46865473656826
 31
0.0
  0
LINE
  5
E4
330
1F
100
AcDbEntity
  8
IGES_LEVEL_0
 62
     7
100
AcDbLine
 10
19.5995068878338
 20
51.21533140537826
 30
0.0
 11
19.5760296249338
 21
51.46231597024826
 31
0.0
  0
LINE
  5
E5
330
1F
100
AcDbEntity
  8
IGES_LEVEL_0
 62
     7
100
AcDbLine
 10
2.846919600338802
 20
50.06731519926826
 30
0.0
 11
2.852648591633802
 21
50.06723748148826
 31
0.0
  0
LINE
  5
E6
330
1F
100
AcDbEntity
  8
IGES_LEVEL_0
 62
     7
100
AcDbLine
 10
2.790967588763802
 20
50.06806220924826
 30
0.0
 11
2.846919600338802
 21
50.06731519926826
 31
0.0
  0
LINE
  5
E7
330
1F
100
AcDbEntity
  8
IGES_LEVEL_0
 62
     7
100
AcDbLine
 10
2.750813020822802
 20
50.06857247150826
 30
0.0
 11
2.790967581494802
 21
50.06806220934826
 31
0.0
  0
LINE
  5
E8
330
1F
100
AcDbEntity
  8
IGES_LEVEL_0
 62
     7
100
AcDbLine
 10
2.723235559780802
 20
50.06890230551826
 30
0.0
 11
2.750813020822802
 21
50.06857247150826
 31
0.0
  0
LINE
  5
E9
330
1F
100
AcDbEntity
  8
IGES_LEVEL_0
 62
     7
100
AcDbLine
 10
2.689856442536802
 20
50.06980000890826
 30
0.0
 11
2.723234956831802
 21
50.06890727350826
 31
0.0
  0
LINE
  5
EA
330
1F
100
AcDbEntity
  8
IGES_LEVEL_0
 62
     7
100
AcDbLine
 10
1.603068219826802
 20
51.17312419879826
 30
0.0
 11
1.602636439603802
 21
51.20403253937826
 31
0.0
  0
LINE
  5
EB
330
1F
100
AcDbEntity
  8
IGES_LEVEL_0
 62
     7
100
AcDbLine
 10
1.604006594856802
 20
51.14879120945826
 30
0.0
 11
1.603068219826802
 21
51.17312419879826
 31
0.0
  0
LINE
  5
EC
330
1F
100
AcDbEntity
  8
IGES_LEVEL_0
 62
     7
100
AcDbLine
 10
16.6719793630238
 20
66.35161594120825
 30
0.0
 11
16.6770748232638
 21
66.35005268940824
 31
0.0
  0
ARC
  5
ED
330
1F
100
AcDbEntity
  8
IGES_LEVEL_0
 62
     7
100
AcDbCircle
 10
10.59889208318784
 20
46.55879395343429
 30
0.0
 40
20.70357919172947
100
AcDbArc
 50
72.94226816266732
 51
107.0577416318145
  0
LINE
  5
EE
330
1F
100
AcDbEntity
  8
IGES_LEVEL_0
 62
     7
100
AcDbLine
 10
4.522270005820002
 20
66.35053164120825
 30
0.0
 11
4.525801419849103
 21
66.35161490303825
 31
0.0
  0
ARC
  5
EF
330
1F
100
AcDbEntity
  8
IGES_LEVEL_0
 62
     7
100
AcDbCircle
 10
92.55759753340381
 20
14.32639586778385
 30
0.0
 40
89.84631096733165
100
AcDbArc
 50
144.3506483265961
 51
145.0272883136755
  0
ARC
  5
F0
330
1F
100
AcDbEntity
  8
IGES_LEVEL_0
 62
     7
100
AcDbCircle
 10
19.4396650252264
 20
66.76883635245449
 30
0.0
 40
0.1338838005004935
100
AcDbArc
 50
324.8052138426612
 51
0.2737395609000285
  0
ARC
  5
F1
330
1F
100
AcDbEntity
  8
IGES_LEVEL_0
 62
     7
100
AcDbCircle
 10
1.758069182742104
 20
66.76880749225673
 30
0.0
 40
0.133831344524381
100
AcDbArc
 50
179.7209952326837
 51
215.2002982887139
  0
ARC
  5
F2
330
1F
100
AcDbEntity
  8
IGES_LEVEL_0
 62
     7
100
AcDbCircle
 10
-71.35981323122537
 20
14.32639582778209
 30
0.0
 40
89.84631104258831
100
AcDbArc
 50
34.97271169865626
 51
35.64935165933315
  0
SPLINE
  5
F3
330
1F
100
AcDbEntity
  8
IGES_LEVEL_0
 62
     7
100
AcDbSpline
210
0.0
220
0.0
230
1.0
 70
     8
 71
     3
 72
    15
 73
    11
 74
     0
 42
0.0000000001
 43
0.0000000001
 40
0.0
 40
0.0
 40
0.0
 40
0.0
 40
0.02627162677118
 40
0.1156303258516
 40
0.2243477408054
 40
0.3545276074911
 40
0.506244054601
 40
0.6778437792856
 40
0.8666082307844
 40
1.0
 40
1.0
 40
1.0
 40
1.0
 10
2.429770434173802
 20
65.75345080945826
 30
0.0
 10
2.437158872956802
 20
65.75317515750825
 30
0.0
 10
2.469709298219802
 20
65.75272146075825
 30
0.0
 10
2.532747733407802
 20
65.75685195324826
 30
0.0
 10
2.624190970889802
 20
65.76988947524825
 30
0.0
 10
2.731951688258802
 20
65.79138597574826
 30
0.0
 10
2.855876675419802
 20
65.82159758553826
 30
0.0
 10
2.994560184249802
 20
65.86044875954825
 30
0.0
 10
3.127125299890802
 20
65.90179373372826
 30
0.0
 10
3.213001284269802
 20
65.93066474991825
 30
0.0
 10
3.248450863406802
 20
65.94292959923826
 30
0.0
  0
ARC
  5
F4
330
1F
100
AcDbEntity
  8
IGES_LEVEL_0
 62
     7
100
AcDbCircle
 10
2.434144750664438
 20
66.04932886064349
 30
0.0
 40
0.2959103847754045
100
AcDbArc
 50
250.0960262537597
 51
269.1529901784933
  0
ARC
  5
F5
330
1F
100
AcDbEntity
  8
IGES_LEVEL_0
 62
     7
100
AcDbCircle
 10
2.386690438862296
 20
65.91450080783213
 30
0.0
 40
0.1529861495110844
100
AcDbArc
 50
216.0999577210765
 51
249.6159288344515
  0
ARC
  5
F6
330
1F
100
AcDbEntity
  8
IGES_LEVEL_0
 62
     7
100
AcDbCircle
 10
10.56572609991606
 20
45.11891747761979
 30
0.0
 40
22.07214197058319
100
AcDbArc
 50
107.0986185848652
 51
109.2980904033034
  0
LINE
  5
F7
330
1F
100
AcDbEntity
  8
IGES_LEVEL_0
 62
     7
100
AcDbLine
 10
4.522250294426402
 20
66.35059600154825
 30
0.0
 11
4.525781067323202
 21
66.35168147800826
 31
0.0
  0
LINE
  5
F8
330
1F
100
AcDbEntity
  8
IGES_LEVEL_0
 62
     7
100
AcDbLine
 10
4.076190850918803
 20
66.21552092445825
 30
0.0
 11
4.522250294426402
 21
66.35059600154825
 31
0.0
  0
LINE
  5
F9
330
1F
100
AcDbEntity
  8
IGES_LEVEL_0
 62
     7
100
AcDbLine
 10
16.6770922246738
 20
66.35010949968824
 30
0.0
 11
17.1215968174738
 21
66.21551247934825
 31
0.0
  0
LINE
  5
FA
330
1F
100
AcDbEntity
  8
IGES_LEVEL_0
 62
     7
100
AcDbLine
 10
16.6719976128938
 20
66.35167561405825
 30
0.0
 11
16.6770922246738
 21
66.35010949968824
 31
0.0
  0
ARC
  5
FB
330
1F
100
AcDbEntity
  8
IGES_LEVEL_0
 62
     7
100
AcDbCircle
 10
10.63205828236607
 20
45.11891752654429
 30
0.0
 40
22.07214191904314
100
AcDbArc
 50
70.70190962756259
 51
72.90137816335049
  0
ARC
  5
FC
330
1F
100
AcDbEntity
  8
IGES_LEVEL_0
 62
     7
100
AcDbCircle
 10
18.8106232474683
 20
65.91502843562763
 30
0.0
 40
0.1536826582988401
100
AcDbArc
 50
289.7137902599817
 51
323.8503442969457
  0
ARC
  5
FD
330
1F
100
AcDbEntity
  8
IGES_LEVEL_0
 62
     7
100
AcDbCircle
 10
18.7626068104949
 20
66.0551637584542
 30
0.0
 40
0.3018086454696214
100
AcDbArc
 50
270.6064197841222
 51
289.3210922683106
  0
SPLINE
  5
FE
330
1F
100
AcDbEntity
  8
IGES_LEVEL_0
 62
     7
100
AcDbSpline
210
0.0
220
0.0
230
1.0
 70
     8
 71
     3
 72
    15
 73
    11
 74
     0
 42
0.0000000001
 43
0.0000000001
 40
0.0
 40
0.0
 40
0.0
 40
0.0
 40
0.1331454309841
 40
0.3216276616451
 40
0.4930833005639
 40
0.6447886791399
 40
0.7750926992173
 40
0.8840362840753
 40
0.9736563713582001
 40
1.0
 40
1.0
 40
1.0
 40
1.0
 10
17.9464102534838
 20
65.94394182402826
 30
0.0
 10
17.9818254214138
 20
65.93166975792826
 30
0.0
 10
18.0676357113738
 20
65.90277333963826
 30
0.0
 10
18.2001356244938
 20
65.86136853837826
 30
0.0
 10
18.3388182379838
 20
65.82241389445825
 30
0.0
 10
18.4628361002938
 20
65.79205955125826
 30
0.0
 10
18.5707745654438
 20
65.77038331593826
 30
0.0
 10
18.6624579887438
 20
65.75713702248825
 30
0.0
 10
18.7257049766738
 20
65.75280950791824
 30
0.0
 10
18.7583836926138
 20
65.75312902506826
 30
0.0
 10
18.7658011001638
 20
65.75337201735826
 30
0.0
  0
LINE
  5
FF
330
1F
100
AcDbEntity
  8
IGES_LEVEL_0
 62
     7
100
AcDbLine
 10
17.9265240297138
 20
65.95086923979825
 30
0.0
 11
17.9464102534838
 21
65.94394182402826
 31
0.0
  0
SPLINE
  5
100
330
1F
100
AcDbEntity
  8
IGES_LEVEL_0
 62
     7
100
AcDbSpline
210
0.0
220
0.0
230
1.0
 70
     8
 71
     3
 72
    17
 73
    13
 74
     0
 42
0.0000000001
 43
0.0000000001
 40
0.0
 40
0.0
 40
0.0
 40
0.0
 40
0.1314460844049
 40
0.2835004619081
 40
0.4242262846549
 40
0.5508474505106
 40
0.6613057664396
 40
0.7546120936284
 40
0.8314091296766
 40
0.8944777517006
 40
0.9501864269729
 40
1.0
 40
1.0
 40
1.0
 40
1.0
 10
2.588073908771802
 20
67.45975749588826
 30
0.0
 10
2.538945310283802
 20
67.44070701240825
 30
0.0
 10
2.433737577901802
 20
67.39765147977826
 30
0.0
 10
2.278962481727802
 20
67.32708814496826
 30
0.0
 10
2.129084945676802
 20
67.25080676454826
 30
0.0
 10
1.997311058020802
 20
67.17605312760824
 30
0.0
 10
1.885509449639802
 20
67.10493912054825
 30
0.0
 10
1.794374147759802
 20
67.03889658885825
 30
0.0
 10
1.723181865964802
 20
66.97812344683825
 30
0.0
 10
1.669665230092802
 20
66.92049777039824
 30
0.0
 10
1.633747428196802
 20
66.86239571044825
 30
0.0
 10
1.624294280986802
 20
66.81996210835825
 30
0.0
 10
1.624237295007802
 20
66.79982219898825
 30
0.0
  0
ARC
  5
101
330
1F
100
AcDbEntity
  8
IGES_LEVEL_0
 62
     7
100
AcDbCircle
 10
10.55517388338394
 20
46.91477974075127
 30
0.0
 40
22.03567075800422
100
AcDbArc
 50
109.001766156661
 51
111.1957052510533
  0
SPLINE
  5
102
330
1F
100
AcDbEntity
  8
IGES_LEVEL_0
 62
     7
100
AcDbSpline
210
0.0
220
0.0
230
1.0
 70
     8
 71
     3
 72
    15
 73
    11
 74
     0
 42
0.0000000001
 43
0.0000000001
 40
0.0
 40
0.0
 40
0.0
 40
0.0
 40
0.1349059089426
 40
0.2591973927781
 40
0.3793905088595
 40
0.5002961223151
 40
0.6212462438739
 40
0.7415651153302
 40
0.8658512825481
 40
1.0
 40
1.0
 40
1.0
 40
1.0
 10
17.8173985677238
 20
67.74963847041826
 30
0.0
 10
17.1898887750438
 20
67.96486414271826
 30
0.0
 10
15.9804618179038
 20
68.37102299906826
 30
0.0
 10
14.1578383134208
 20
68.78327842190825
 30
0.0
 10
12.3752768364408
 20
69.02507015477825
 30
0.0
 10
10.5942957143648
 20
69.10456531849826
 30
0.0
 10
8.812730221528803
 20
69.02422973605826
 30
0.0
 10
7.029486602157802
 20
68.78139624751825
 30
0.0
 10
5.210145628142002
 20
68.36884158466825
 30
0.0
 10
4.004398325375802
 20
67.96358868417826
 30
0.0
 10
3.380386893625802
 20
67.74963465427825
 30
0.0
  0
ARC
  5
103
330
1F
100
AcDbEntity
  8
IGES_LEVEL_0
 62
     7
100
AcDbCircle
 10
10.64261050556994
 20
46.91477980308148
 30
0.0
 40
22.03567069160829
100
AcDbArc
 50
68.8042947537226
 51
70.99822587194925
  0
SPLINE
  5
104
330
1F
100
AcDbEntity
  8
IGES_LEVEL_0
 62
     7
100
AcDbSpline
210
0.0
220
0.0
230
1.0
 70
     8
 71
     3
 72
    17
 73
    13
 74
     0
 42
0.0000000001
 43
0.0000000001
 40
0.0
 40
0.0
 40
0.0
 40
0.0
 40
0.05002667280088
 40
0.105835629244
 40
0.1690653274417
 40
0.2460822232003
 40
0.3396466477945
 40
0.4503913634647
 40
0.5773230697156
 40
0.7183729437143001
 40
0.8707603463268
 40
1.0
 40
1.0
 40
1.0
 40
1.0
 10
19.5735489451238
 20
66.79984536623826
 30
0.0
 10
19.5734891953338
 20
66.82007113425826
 30
0.0
 10
19.5639537165238
 20
66.86262487656825
 30
0.0
 10
19.5278604314238
 20
66.92083757465825
 30
0.0
 10
19.4741560196438
 20
66.97854999586825
 30
0.0
 10
19.4027261973838
 20
67.03943558006824
 30
0.0
 10
19.3113035572438
 20
67.10559973112825
 30
0.0
 10
19.1991759616738
 20
67.17683438993825
 30
0.0
 10
19.0670442495638
 20
67.25169893508826
 30
0.0
 10
18.9167833041538
 20
67.32807430880826
 30
0.0
 10
18.7625360804438
 20
67.39828909942825
 30
0.0
 10
18.6580136648038
 20
67.44102778641826
 30
0.0
 10
18.6097105451638
 20
67.45975794699825
 30
0.0
  0
ARC
  5
105
330
1F
100
AcDbEntity
  8
IGES_LEVEL_0
 62
     7
100
AcDbCircle
 10
20.62225533580068
 20
69.61558729913308
 30
0.0
 40
0.2989799367123815
100
AcDbArc
 50
170.5625401088509
 51
183.8001790568916
  0
ARC
  5
106
330
1F
100
AcDbEntity
  8
IGES_LEVEL_0
 62
     7
100
AcDbCircle
 10
20.66462711769454
 20
69.608550777669
 30
0.0
 40
0.2990677836880252
100
AcDbArc
 50
337.3892963489466
 51
350.5495510893155
  0
ARC
  5
107
330
1F
100
AcDbEntity
  8
IGES_LEVEL_0
 62
     7
100
AcDbCircle
 10
20.66056932498562
 20
69.62866153499402
 30
0.0
 40
0.3835801302923277
100
AcDbArc
 50
311.6420003808808
 51
324.7774887820022
  0
ARC
  5
108
330
1F
100
AcDbEntity
  8
IGES_LEVEL_0
 62
     7
100
AcDbCircle
 10
20.63269055285044
 20
69.63329689912632
 30
0.0
 40
0.3835805230195221
100
AcDbArc
 50
196.3431368003862
 51
209.4787455404336
  0
ARC
  5
109
330
1F
100
AcDbEntity
  8
IGES_LEVEL_0
 62
     7
100
AcDbCircle
 10
20.63870889383703
 20
69.59883510390124
 30
0.0
 40
0.3228077651745429
100
AcDbArc
 50
89.15331491225948
 51
131.7498288171268
  0
ARC
  5
10A
330
1F
100
AcDbEntity
  8
IGES_LEVEL_0
 62
     7
100
AcDbCircle
 10
20.62550435123091
 20
69.6144395509821
 30
0.0
 40
0.3023737688550124
100
AcDbArc
 50
131.8520204710574
 51
170.4489486047219
  0
ARC
  5
10B
330
1F
100
AcDbEntity
  8
IGES_LEVEL_0
 62
     7
100
AcDbCircle
 10
20.38230628261674
 20
70.30044929359535
 30
0.0
 40
0.0893916910464435
100
AcDbArc
 50
65.40810438666625
 51
144.3978565375859
  0
LINE
  5
10C
330
1F
100
AcDbEntity
  8
IGES_LEVEL_0
 62
     7
100
AcDbLine
 10
20.4211805391138
 20
70.38110738225825
 30
0.0
 11
20.4195068295638
 21
70.38173270970825
 31
0.0
  0
LINE
  5
10D
330
1F
100
AcDbEntity
  8
IGES_LEVEL_0
 62
     7
100
AcDbLine
 10
20.4219688769938
 20
70.38082437436825
 30
0.0
 11
20.4209406279138
 21
70.38121806781825
 31
0.0
  0
LINE
  5
10E
330
1F
100
AcDbEntity
  8
IGES_LEVEL_0
 62
     7
100
AcDbLine
 10
20.4266057838338
 20
70.37888471194825
 30
0.0
 11
20.4219688769938
 21
70.38082437436825
 31
0.0
  0
LINE
  5
10F
330
1F
100
AcDbEntity
  8
IGES_LEVEL_0
 62
     7
100
AcDbLine
 10
20.3096864773438
 20
70.35259349373825
 30
0.0
 11
20.2994608467038
 21
70.33823647377825
 31
0.0
  0
ARC
  5
110
330
1F
100
AcDbEntity
  8
IGES_LEVEL_0
 62
     7
100
AcDbCircle
 10
21.10639192024057
 20
69.88650666253319
 30
0.0
 40
0.9248176694009335
100
AcDbArc
 50
150.9127678875279
 51
178.781905142599
  0
LINE
  5
111
330
1F
100
AcDbEntity
  8
IGES_LEVEL_0
 62
     7
100
AcDbLine
 10
20.2994548386838
 20
70.33822632427825
 30
0.0
 11
20.2982117215638
 21
70.33609813053826
 31
0.0
  0
LINE
  5
112
330
1F
100
AcDbEntity
  8
IGES_LEVEL_0
 62
     7
100
AcDbLine
 10
20.1817830735438
 20
69.90616603048825
 30
0.0
 11
20.1812776430038
 21
69.87741616760826
 31
0.0
  0
ARC
  5
113
330
1F
100
AcDbEntity
  8
IGES_LEVEL_0
 62
     7
100
AcDbCircle
 10
20.70409854722351
 20
69.88513395324893
 30
0.0
 40
0.5228773030987335
100
AcDbArc
 50
180.8462286584024
 51
196.1932689059544
  0
ARC
  5
114
330
1F
100
AcDbEntity
  8
IGES_LEVEL_0
 62
     7
100
AcDbCircle
 10
20.67388651371721
 20
69.88294466135575
 30
0.0
 40
0.5192717828579697
100
AcDbArc
 50
324.8736330834508
 51
358.107081108961
  0
LINE
  5
115
330
1F
100
AcDbEntity
  8
IGES_LEVEL_0
 62
     7
100
AcDbLine
 10
21.1929008153638
 20
69.86653424740825
 30
0.0
 11
21.1929101903138
 21
69.89544133651825
 31
0.0
  0
ARC
  5
116
330
1F
100
AcDbEntity
  8
IGES_LEVEL_0
 62
     7
100
AcDbCircle
 10
20.26648832559283
 20
69.89074033746093
 30
0.0
 40
0.9264335212698799
100
AcDbArc
 50
0.2908034665352791
 51
28.29939554540961
  0
LINE
  5
117
330
1F
100
AcDbEntity
  8
IGES_LEVEL_0
 62
     7
100
AcDbLine
 10
21.0683422333338
 20
70.34890674714825
 30
0.0
 11
21.0821808968938
 21
70.32996904438825
 31
0.0
  0
ARC
  5
118
330
1F
100
AcDbEntity
  8
IGES_LEVEL_0
 62
     7
100
AcDbCircle
 10
20.7063591946815
 20
70.95306249189625
 30
0.0
 40
0.6317933981725742
100
AcDbArc
 50
268.9185087638264
 51
291.7359762549814
  0
LINE
  5
119
330
1F
100
AcDbEntity
  8
IGES_LEVEL_0
 62
     7
100
AcDbLine
 10
20.9431240076738
 20
70.36734414826825
 30
0.0
 11
20.9403313010038
 21
70.36618946351825
 31
0.0
  0
LINE
  5
11A
330
1F
100
AcDbEntity
  8
IGES_LEVEL_0
 62
     7
100
AcDbLine
 10
20.9544822898638
 20
70.37223225157825
 30
0.0
 11
20.9431240076738
 21
70.36734414826825
 31
0.0
  0
LINE
  5
11B
330
1F
100
AcDbEntity
  8
IGES_LEVEL_0
 62
     7
100
AcDbLine
 10
20.4380661688038
 20
70.37389049293824
 30
0.0
 11
20.4265970733438
 21
70.37889000769826
 31
0.0
  0
LINE
  5
11C
330
1F
100
AcDbEntity
  8
IGES_LEVEL_0
 62
     7
100
AcDbLine
 10
20.4413829577238
 20
70.37249551457825
 30
0.0
 11
20.4380661688038
 21
70.37389049293824
 31
0.0
  0
ARC
  5
11D
330
1F
100
AcDbEntity
  8
IGES_LEVEL_0
 62
     7
100
AcDbCircle
 10
20.69988675074057
 20
71.00033042514811
 30
0.0
 40
0.6789704602810933
100
AcDbArc
 50
247.6211496576719
 51
269.5398916064424
  0
ARC
  5
11E
330
1F
100
AcDbEntity
  8
IGES_LEVEL_0
 62
     7
100
AcDbCircle
 10
20.99771577966451
 20
70.29243689932486
 30
0.0
 40
0.0904037461038192
100
AcDbArc
 50
38.73554835714898
 51
115.6231565257732
  0
SPLINE
  5
11F
330
1F
100
AcDbEntity
  8
IGES_LEVEL_0
 62
     7
100
AcDbSpline
210
0.0
220
0.0
230
1.0
 70
     8
 71
     3
 72
    17
 73
    13
 74
     0
 42
0.0000000001
 43
0.0000000001
 40
0.0
 40
0.0
 40
0.0
 40
0.0
 40
0.1024932644424
 40
0.2049676394362
 40
0.3072148669734
 40
0.4090528368497
 40
0.5103469699333
 40
0.6110266987927
 40
0.7110949697152
 40
0.8106291842335001
 40
0.9097728590550001
 40
1.0
 40
1.0
 40
1.0
 40
1.0
 10
20.6434789934138
 20
69.92160762349826
 30
0.0
 10
20.6620968206738
 20
69.92140027010825
 30
0.0
 10
20.6993695160938
 20
69.91783243205825
 30
0.0
 10
20.7534901644638
 20
69.90321193357825
 30
0.0
 10
20.8042974618838
 20
69.87975866120826
 30
0.0
 10
20.8502326847938
 20
69.84817735510825
 30
0.0
 10
20.8899068612038
 20
69.80941747807825
 30
0.0
 10
20.9221090828638
 20
69.76464711503826
 30
0.0
 10
20.9458528287738
 20
69.71521999064825
 30
0.0
 10
20.9604055878438
 20
69.66263646198826
 30
0.0
 10
20.9651709701338
 20
69.61008464208825
 30
0.0
 10
20.9623281540538
 20
69.57563608278825
 30
0.0
 10
20.9596359446738
 20
69.55944546996825
 30
0.0
  0
ARC
  5
120
330
1F
100
AcDbEntity
  8
IGES_LEVEL_0
 62
     7
100
AcDbCircle
 10
0.5331572485713968
 20
69.60855077773883
 30
0.0
 40
0.2990677838961134
100
AcDbArc
 50
189.4504489176113
 51
202.6107036489425
  0
ARC
  5
121
330
1F
100
AcDbEntity
  8
IGES_LEVEL_0
 62
     7
100
AcDbCircle
 10
0.5755290300409801
 20
69.61558729909601
 30
0.0
 40
0.2989799369403576
100
AcDbArc
 50
356.1998209531312
 51
9.437459891089731
  0
ARC
  5
122
330
1F
100
AcDbEntity
  8
IGES_LEVEL_0
 62
     7
100
AcDbCircle
 10
0.5650941754177201
 20
69.63329674054363
 30
0.0
 40
0.3835801308324004
100
AcDbArc
 50
330.5213823187913
 51
343.656870701757
  0
ARC
  5
123
330
1F
100
AcDbEntity
  8
IGES_LEVEL_0
 62
     7
100
AcDbCircle
 10
0.5372153324222952
 20
69.62866180212673
 30
0.0
 40
0.3835805223582054
100
AcDbArc
 50
215.2225187105872
 51
228.3581274735059
  0
SPLINE
  5
124
330
1F
100
AcDbEntity
  8
IGES_LEVEL_0
 62
     7
100
AcDbSpline
210
0.0
220
0.0
230
1.0
 70
     8
 71
     3
 72
    17
 73
    13
 74
     0
 42
0.0000000001
 43
0.0000000001
 40
0.0
 40
0.0
 40
0.0
 40
0.0
 40
0.09022714094502
 40
0.1893708157665
 40
0.2889050302848
 40
0.3889733012073
 40
0.4896530300667
 40
0.5909471631504
 40
0.6927851330266001
 40
0.7950323605638
 40
0.8975067355576
 40
1.0
 40
1.0
 40
1.0
 40
1.0
 10
0.2381484213928019
 20
69.55944546996825
 30
0.0
 10
0.2354562120198014
 20
69.57563608278825
 30
0.0
 10
0.2326133959368018
 20
69.61008464208825
 30
0.0
 10
0.237378778223802
 20
69.66263646198826
 30
0.0
 10
0.2519315372978013
 20
69.71521999064825
 30
0.0
 10
0.2756752832118017
 20
69.76464711503826
 30
0.0
 10
0.3078775048718022
 20
69.80941747807825
 30
0.0
 10
0.3475516812808013
 20
69.84817735510825
 30
0.0
 10
0.3934869041878018
 20
69.87975866120826
 30
0.0
 10
0.4442942016028018
 20
69.90321193357825
 30
0.0
 10
0.4984148499748016
 20
69.91783243205825
 30
0.0
 10
0.5356875453978014
 20
69.92140027010825
 30
0.0
 10
0.5543053726528018
 20
69.92160762349826
 30
0.0
  0
ARC
  5
125
330
1F
100
AcDbEntity
  8
IGES_LEVEL_0
 62
     7
100
AcDbCircle
 10
0.2000651385291663
 20
70.2924427123335
 30
0.0
 40
0.0903966937331992
100
AcDbArc
 50
64.38380297901527
 51
141.2716570206618
  0
LINE
  5
126
330
1F
100
AcDbEntity
  8
IGES_LEVEL_0
 62
     7
100
AcDbLine
 10
0.129441485782802
 20
70.34890605075825
 30
0.0
 11
0.1156035780258021
 21
70.32996923735826
 31
0.0
  0
ARC
  5
127
330
1F
100
AcDbEntity
  8
IGES_LEVEL_0
 62
     7
100
AcDbCircle
 10
0.9312826117075788
 20
69.89074210374281
 30
0.0
 40
0.9264200504252589
100
AcDbArc
 50
151.7002915792318
 51
179.7087579209884
  0
LINE
  5
128
330
1F
100
AcDbEntity
  8
IGES_LEVEL_0
 62
     7
100
AcDbLine
 10
0.004874306868802
 20
69.89545016885825
 30
0.0
 11
0.0048835436568014
 21
69.86653473073825
 31
0.0
  0
ARC
  5
129
330
1F
100
AcDbEntity
  8
IGES_LEVEL_0
 62
     7
100
AcDbCircle
 10
0.5239335874018225
 20
69.88295525492617
 30
0.0
 40
0.5193086089194662
100
AcDbArc
 50
181.8124825243681
 51
215.0272643136032
  0
ARC
  5
12A
330
1F
100
AcDbEntity
  8
IGES_LEVEL_0
 62
     7
100
AcDbCircle
 10
0.4936848017649554
 20
69.88513437107402
 30
0.0
 40
0.5228782873516822
100
AcDbArc
 50
343.7805345085134
 51
359.119044706994
  0
LINE
  5
12B
330
1F
100
AcDbEntity
  8
IGES_LEVEL_0
 62
     7
100
AcDbLine
 10
1.016506724274802
 20
69.87741584201825
 30
0.0
 11
1.016001595016802
 21
69.90615647039826
 31
0.0
  0
LINE
  5
12C
330
1F
100
AcDbEntity
  8
IGES_LEVEL_0
 62
     7
100
AcDbLine
 10
0.8995738953818013
 20
70.33609776016826
 30
0.0
 11
0.898330396689802
 21
70.33822654212825
 31
0.0
  0
ARC
  5
12D
330
1F
100
AcDbEntity
  8
IGES_LEVEL_0
 62
     7
100
AcDbCircle
 10
0.0913769527974588
 20
69.88650430119674
 30
0.0
 40
0.9248332694884264
100
AcDbArc
 50
1.217630794708901
 51
29.08683561446046
  0
LINE
  5
12E
330
1F
100
AcDbEntity
  8
IGES_LEVEL_0
 62
     7
100
AcDbLine
 10
0.775815499503802
 20
70.38082437841825
 30
0.0
 11
0.7768349711888019
 21
70.38121476574825
 31
0.0
  0
LINE
  5
12F
330
1F
100
AcDbEntity
  8
IGES_LEVEL_0
 62
     7
100
AcDbLine
 10
0.7711783194198021
 20
70.37888459419825
 30
0.0
 11
0.775815499503802
 21
70.38082437841825
 31
0.0
  0
LINE
  5
130
330
1F
100
AcDbEntity
  8
IGES_LEVEL_0
 62
     7
100
AcDbLine
 10
0.8881030292028016
 20
70.35258747525825
 30
0.0
 11
0.8983236129158017
 21
70.33823631434825
 31
0.0
  0
ARC
  5
131
330
1F
100
AcDbEntity
  8
IGES_LEVEL_0
 62
     7
100
AcDbCircle
 10
0.4978905202048205
 20
71.00038015385918
 30
0.0
 40
0.6790204608673368
100
AcDbArc
 50
270.4606750702454
 51
292.3561228661396
  0
LINE
  5
132
330
1F
100
AcDbEntity
  8
IGES_LEVEL_0
 62
     7
100
AcDbLine
 10
0.759718996453802
 20
70.37389070527826
 30
0.0
 11
0.7561642683978014
 21
70.37239650974826
 31
0.0
  0
LINE
  5
133
330
1F
100
AcDbEntity
  8
IGES_LEVEL_0
 62
     7
100
AcDbLine
 10
0.771187121059802
 20
70.37888984223825
 30
0.0
 11
0.759718996453802
 21
70.37389070527826
 31
0.0
  0
LINE
  5
134
330
1F
100
AcDbEntity
  8
IGES_LEVEL_0
 62
     7
100
AcDbLine
 10
0.2546610195678017
 20
70.36734400671824
 30
0.0
 11
0.2433019244798014
 21
70.37223241263826
 31
0.0
  0
LINE
  5
135
330
1F
100
AcDbEntity
  8
IGES_LEVEL_0
 62
     7
100
AcDbLine
 10
0.2572294133778015
 20
70.36628139820826
 30
0.0
 11
0.2546610195678017
 21
70.36734400671824
 31
0.0
  0
ARC
  5
136
330
1F
100
AcDbEntity
  8
IGES_LEVEL_0
 62
     7
100
AcDbCircle
 10
0.491414576967224
 20
70.95297190715237
 30
0.0
 40
0.6317028131412042
100
AcDbArc
 50
248.2399426284874
 51
271.082606677871
  0
LINE
  5
137
330
1F
100
AcDbEntity
  8
IGES_LEVEL_0
 62
     7
100
AcDbLine
 10
0.7782888934118017
 20
70.38173933429826
 30
0.0
 11
0.776605706287802
 21
70.38111056443825
 31
0.0
  0
ARC
  5
138
330
1F
100
AcDbEntity
  8
IGES_LEVEL_0
 62
     7
100
AcDbCircle
 10
0.8154773885016056
 20
70.30044699420279
 30
0.0
 40
0.0893947913764624
100
AcDbArc
 50
35.60221862834735
 51
114.5824916178954
  0
ARC
  5
139
330
1F
100
AcDbEntity
  8
IGES_LEVEL_0
 62
     7
100
AcDbCircle
 10
0.5722800148600219
 20
69.61443955100241
 30
0.0
 40
0.3023737688276525
100
AcDbArc
 50
9.551051392248368
 51
48.14797952896223
  0
ARC
  5
13A
330
1F
100
AcDbEntity
  8
IGES_LEVEL_0
 62
     7
100
AcDbCircle
 10
0.5590754722372857
 20
69.59883510390618
 30
0.0
 40
0.3228077651697129
100
AcDbArc
 50
48.25017118251567
 51
90.84668508912242
  0
SPLINE
  5
13B
330
1F
100
AcDbEntity
  8
IGES_LEVEL_0
 62
     7
100
AcDbSpline
210
0.0
220
0.0
230
1.0
 70
     8
 71
     3
 72
    23
 73
    19
 74
     0
 42
0.0000000001
 43
0.0000000001
 40
0.0
 40
0.0
 40
0.0
 40
0.0
 40
0.02256848671311
 40
0.05903132801564
 40
0.1105148563647
 40
0.1758698005997
 40
0.2529732684608
 40
0.3390939962203
 40
0.4310869317168
 40
0.5255510738349
 40
0.6189799397445001
 40
0.7079110972868
 40
0.7890759658348
 40
0.8595530602819
 40
0.9169407316188
 40
0.9596198814212
 40
0.9874692870956
 40
1.0
 40
1.0
 40
1.0
 40
1.0
 10
18.6408674541938
 20
66.76925550427825
 30
0.0
 10
18.6403185108638
 20
66.76854614014826
 30
0.0
 10
18.6379547365038
 20
66.76760359982825
 30
0.0
 10
18.6336169301138
 20
66.76735483318825
 30
0.0
 10
18.6274999766738
 20
66.76780110029824
 30
0.0
 10
18.6199003369738
 20
66.76906491815825
 30
0.0
 10
18.6110336522438
 20
66.77107650337825
 30
0.0
 10
18.6012562329538
 20
66.77378389891825
 30
0.0
 10
18.5909345618938
 20
66.77708312108825
 30
0.0
 10
18.5804662384138
 20
66.78085149551825
 30
0.0
 10
18.5702508000838
 20
66.78494431135826
 30
0.0
 10
18.5606812480638
 20
66.78920497958825
 30
0.0
 10
18.5521134818938
 20
66.79346449871825
 30
0.0
 10
18.5448939427038
 20
66.79756638934825
 30
0.0
 10
18.5392104032838
 20
66.80131777135824
 30
0.0
 10
18.5354132261338
 20
66.80465744912826
 30
0.0
 10
18.5331951910438
 20
66.80723644272825
 30
0.0
 10
18.5331223400338
 20
66.80903628172825
 30
0.0
 10
18.5332713829538
 20
66.80951721526824
 30
0.0
  0
LINE
  5
13C
330
1F
100
AcDbEntity
  8
IGES_LEVEL_0
 62
     7
100
AcDbLine
 10
18.4299784329938
 20
66.90516047191825
 30
0.0
 11
18.4309192923438
 21
66.90694012941825
 31
0.0
  0
SPLINE
  5
13D
330
1F
100
AcDbEntity
  8
IGES_LEVEL_0
 62
     7
100
AcDbSpline
210
0.0
220
0.0
230
1.0
 70
     8
 71
     3
 72
    14
 73
    10
 74
     0
 42
0.0000000001
 43
0.0000000001
 40
0.0
 40
0.0
 40
0.0
 40
0.0
 40
0.1175800899285
 40
0.3442307716449
 40
0.5422664374913
 40
0.7079740503934
 40
0.8388864039164
 40
0.9346584368895
 40
1.0
 40
1.0
 40
1.0
 40
1.0
 10
18.5250600228738
 20
66.90153059697826
 30
0.0
 10
18.5213906663138
 20
66.90243772845825
 30
0.0
 10
18.5106250409538
 20
66.90499962591825
 30
0.0
 10
18.4935543414538
 20
66.90855095440824
 30
0.0
 10
18.4747918249838
 20
66.91148516810824
 30
0.0
 10
18.4589462527938
 20
66.91290907140825
 30
0.0
 10
18.4462802548938
 20
66.91275687084826
 30
0.0
 10
18.4370188840638
 20
66.91123317355826
 30
0.0
 10
18.4322047506838
 20
66.90860124448825
 30
0.0
 10
18.4309192923438
 20
66.90694012941825
 30
0.0
  0
LINE
  5
13E
330
1F
100
AcDbEntity
  8
IGES_LEVEL_0
 62
     7
100
AcDbLine
 10
18.5374905278238
 20
66.89833251291825
 30
0.0
 11
18.5250600228738
 21
66.90153059697826
 31
0.0
  0
LINE
  5
13F
330
1F
100
AcDbEntity
  8
IGES_LEVEL_0
 62
     7
100
AcDbLine
 10
18.5456717689638
 20
66.89609973180825
 30
0.0
 11
18.5374905278238
 21
66.89833251291825
 31
0.0
  0
SPLINE
  5
140
330
1F
100
AcDbEntity
  8
IGES_LEVEL_0
 62
     7
100
AcDbSpline
210
0.0
220
0.0
230
1.0
 70
     8
 71
     3
 72
    23
 73
    19
 74
     0
 42
0.0000000001
 43
0.0000000001
 40
0.0
 40
0.0
 40
0.0
 40
0.0
 40
0.02256848671311
 40
0.05903132801563
 40
0.1105148563647
 40
0.1758698005997
 40
0.2529732684608
 40
0.3390939962203
 40
0.4310869317168
 40
0.5255510738349
 40
0.6189799397445001
 40
0.7079110972868
 40
0.7890759658348
 40
0.8595530602819
 40
0.9169407316188
 40
0.9596198814212
 40
0.9874692870956
 40
1.0
 40
1.0
 40
1.0
 40
1.0
 10
18.5335518575838
 20
66.81006772407825
 30
0.0
 10
18.5341008009138
 20
66.81077708820826
 30
0.0
 10
18.5364645752738
 20
66.81171962852825
 30
0.0
 10
18.5408023816638
 20
66.81196839517826
 30
0.0
 10
18.5469193351038
 20
66.81152212805824
 30
0.0
 10
18.5545189748038
 20
66.81025831019825
 30
0.0
 10
18.5633856595338
 20
66.80824672497826
 30
0.0
 10
18.5731630788238
 20
66.80553932944825
 30
0.0
 10
18.5834847498838
 20
66.80224010726826
 30
0.0
 10
18.5939530733638
 20
66.79847173283825
 30
0.0
 10
18.6041685116938
 20
66.79437891700826
 30
0.0
 10
18.6137380637138
 20
66.79011824876825
 30
0.0
 10
18.6223058298838
 20
66.78585872964825
 30
0.0
 10
18.6295253690738
 20
66.78175683900825
 30
0.0
 10
18.6352089084938
 20
66.77800545700825
 30
0.0
 10
18.6390060856438
 20
66.77466577922826
 30
0.0
 10
18.6412241207338
 20
66.77208678562826
 30
0.0
 10
18.6412969717438
 20
66.77028694662826
 30
0.0
 10
18.6411479288238
 20
66.76980601308824
 30
0.0
  0
LINE
  5
141
330
1F
100
AcDbEntity
  8
IGES_LEVEL_0
 62
     7
100
AcDbLine
 10
18.7681004722438
 20
66.74308112557824
 30
0.0
 11
18.7733517512738
 21
66.75255255926825
 31
0.0
  0
SPLINE
  5
142
330
1F
100
AcDbEntity
  8
IGES_LEVEL_0
 62
     7
100
AcDbSpline
210
0.0
220
0.0
230
1.0
 70
     8
 71
     3
 72
    32
 73
    28
 74
     0
 42
0.0000000001
 43
0.0000000001
 40
0.0
 40
0.0
 40
0.0
 40
0.0
 40
0.02233143812173
 40
0.0455605125134
 40
0.06935346600567
 40
0.09351200835787
 40
0.119201667014
 40
0.1485037854714
 40
0.1846982485659
 40
0.2311364066671
 40
0.2843191079859
 40
0.3410830608166
 40
0.400875932095
 40
0.462741556868
 40
0.5255566636289
 40
0.5881230714013001
 40
0.649259550207
 40
0.7078924284856
 40
0.7631877999418
 40
0.8135191184264
 40
0.8536227936161001
 40
0.8852682036238
 40
0.9114692004214
 40
0.9348403655781
 40
0.9568765569156
 40
0.9785238719814
 40
1.0
 40
1.0
 40
1.0
 40
1.0
 10
18.4214465254638
 20
66.88211996275825
 30
0.0
 10
18.4203869171938
 20
66.87924206541825
 30
0.0
 10
18.4189904302738
 20
66.87305722183825
 30
0.0
 10
18.4193926575338
 20
66.86343492720826
 30
0.0
 10
18.4222983673738
 20
66.85399559381825
 30
0.0
 10
18.4274299993138
 20
66.84519868727824
 30
0.0
 10
18.4345480392538
 20
66.83692683817824
 30
0.0
 10
18.4439206690938
 20
66.82858425025825
 30
0.0
 10
18.4563487022138
 20
66.81950813054826
 30
0.0
 10
18.4721909959738
 20
66.80963940652825
 30
0.0
 10
18.4910329910638
 20
66.79931614052825
 30
0.0
 10
18.5119463666538
 20
66.78900743268825
 30
0.0
 10
18.5342999978738
 20
66.77896172804825
 30
0.0
 10
18.5577260983438
 20
66.76930728017825
 30
0.0
 10
18.5817818219938
 20
66.76021076062825
 30
0.0
 10
18.6059960814738
 20
66.75184674760826
 30
0.0
 10
18.6299022584838
 20
66.74438332290825
 30
0.0
 10
18.6530784684738
 20
66.73797270170826
 30
0.0
 10
18.6750390335538
 20
66.73278861990825
 30
0.0
 10
18.6947211585238
 20
66.72911033897825
 30
0.0
 10
18.7113679470138
 20
66.72702011549825
 30
0.0
 10
18.7248179437938
 20
66.72634531153825
 30
0.0
 10
18.7359816259538
 20
66.72686452033825
 30
0.0
 10
18.7456988962338
 20
66.72859202871825
 30
0.0
 10
18.7544114771138
 20
66.73174301134824
 30
0.0
 10
18.7620752669038
 20
66.73649726504826
 30
0.0
 10
18.7662954820638
 20
66.74074865294824
 30
0.0
 10
18.7681004722438
 20
66.74308112557824
 30
0.0
  0
ARC
  5
143
330
1F
100
AcDbEntity
  8
IGES_LEVEL_0
 62
     7
100
AcDbCircle
 10
1.13529876646691
 20
48.53115057865993
 30
0.0
 40
0.3197165057938577
100
AcDbArc
 50
121.5315900970372
 51
133.9523530076761
  0
LINE
  5
144
330
1F
100
AcDbEntity
  8
IGES_LEVEL_0
 62
     7
100
AcDbLine
 10
1.332611578219801
 20
48.27812709195826
 30
0.0
 11
1.353895908852802
 21
48.30671590291826
 31
0.0
  0
ARC
  5
145
330
1F
100
AcDbEntity
  8
IGES_LEVEL_0
 62
     7
100
AcDbCircle
 10
1.1370520990116
 20
48.52950931564256
 30
0.0
 40
0.3185082904570033
100
AcDbArc
 50
314.0019128407681
 51
326.5395166645276
  0
LINE
  5
146
330
1F
100
AcDbEntity
  8
IGES_LEVEL_0
 62
     7
100
AcDbLine
 10
0.9192201556738016
 20
48.75648143546826
 30
0.0
 11
0.8902870231198015
 21
48.73645772336826
 31
0.0
  0
LINE
  5
147
330
1F
100
AcDbEntity
  8
IGES_LEVEL_0
 62
     7
100
AcDbLine
 10
1.567726901383802
 20
48.47941491930826
 30
0.0
 11
1.566353797502802
 21
48.51338396231826
 31
0.0
  0
ARC
  5
148
330
1F
100
AcDbEntity
  8
IGES_LEVEL_0
 62
     7
100
AcDbCircle
 10
1.136673101889577
 20
48.53176083614466
 30
0.0
 40
0.320695020267361
100
AcDbArc
 50
180.3175820660843
 51
294.6198964842603
  0
ARC
  5
149
330
1F
100
AcDbEntity
  8
IGES_LEVEL_0
 62
     7
100
AcDbCircle
 10
1.136215762575453
 20
48.53082513382374
 30
0.0
 40
0.3200359210752217
100
AcDbArc
 50
294.7641178454138
 51
313.9459688835088
  0
ARC
  5
14A
330
1F
100
AcDbEntity
  8
IGES_LEVEL_0
 62
     7
100
AcDbCircle
 10
1.080843106316123
 20
48.4777132258892
 30
0.0
 40
0.4869391473305854
100
AcDbArc
 50
180.1735949562751
 51
0.1839790535409442
  0
LINE
  5
14B
330
1F
100
AcDbEntity
  8
IGES_LEVEL_0
 62
     7
100
AcDbLine
 10
0.9032581004188018
 20
48.75108053622826
 30
0.0
 11
0.9133963509678016
 21
48.76131999902826
 31
0.0
  0
ARC
  5
14C
330
1F
100
AcDbEntity
  8
IGES_LEVEL_0
 62
     7
100
AcDbCircle
 10
1.135074625961535
 20
48.53180021248309
 30
0.0
 40
0.3190967907962867
100
AcDbArc
 50
136.5918679795426
 51
180.326243099747
  0
LINE
  5
14D
330
1F
100
AcDbEntity
  8
IGES_LEVEL_0
 62
     7
100
AcDbLine
 10
1.567544204775802
 20
48.49189413460826
 30
0.0
 11
1.566391553400802
 21
48.51340832752826
 31
0.0
  0
LINE
  5
14E
330
1F
100
AcDbEntity
  8
IGES_LEVEL_0
 62
     7
100
AcDbLine
 10
1.567778760581802
 20
48.47927709655826
 30
0.0
 11
1.567544204775802
 21
48.49189413460826
 31
0.0
  0
ARC
  5
14F
330
1F
100
AcDbEntity
  8
IGES_LEVEL_0
 62
     7
100
AcDbCircle
 10
1.079589102569402
 20
48.47907468493344
 30
0.0
 40
0.4856921743403782
100
AcDbArc
 50
83.77907474466993
 51
180.3346143172749
  0
ARC
  5
150
330
1F
100
AcDbEntity
  8
IGES_LEVEL_0
 62
     7
100
AcDbCircle
 10
20.06088477452405
 20
48.52963465477892
 30
0.0
 40
0.3187047647019339
100
AcDbArc
 50
213.4065684264942
 51
225.9940196832275
  0
LINE
  5
151
330
1F
100
AcDbEntity
  8
IGES_LEVEL_0
 62
     7
100
AcDbLine
 10
20.3076552961138
 20
48.73633589835826
 30
0.0
 11
20.2787241511538
 21
48.75638268490826
 31
0.0
  0
ARC
  5
152
330
1F
100
AcDbEntity
  8
IGES_LEVEL_0
 62
     7
100
AcDbCircle
 10
20.06256980755731
 20
48.53125293279663
 30
0.0
 40
0.3195847447583657
100
AcDbArc
 50
46.04578024829885
 51
58.43798172902387
  0
LINE
  5
153
330
1F
100
AcDbEntity
  8
IGES_LEVEL_0
 62
     7
100
AcDbLine
 10
19.8437118178338
 20
48.30698318693826
 30
0.0
 11
19.8650472117438
 21
48.27827897072826
 31
0.0
  0
ARC
  5
154
330
1F
100
AcDbEntity
  8
IGES_LEVEL_0
 62
     7
100
AcDbCircle
 10
20.11807256634208
 20
48.47962172029386
 30
0.0
 40
0.4850913997727478
100
AcDbArc
 50
359.9755740381326
 51
96.19603735045503
  0
ARC
  5
155
330
1F
100
AcDbEntity
  8
IGES_LEVEL_0
 62
     7
100
AcDbCircle
 10
20.06198613593852
 20
48.5316144607114
 30
0.0
 40
0.3198198607918908
100
AcDbArc
 50
0.0220839657210538
 51
27.30813136584507
  0
ARC
  5
156
330
1F
100
AcDbEntity
  8
IGES_LEVEL_0
 62
     7
100
AcDbCircle
 10
20.06221423508811
 20
48.5314391495052
 30
0.0
 40
0.3196977173870069
100
AcDbArc
 50
27.35480338818897
 51
45.97674081030811
  0
ARC
  5
157
330
1F
100
AcDbEntity
  8
IGES_LEVEL_0
 62
     7
100
AcDbCircle
 10
20.11694245239496
 20
48.47772520988815
 30
0.0
 40
0.4869451622190362
100
AcDbArc
 50
180.1316799071329
 51
0.1392442217998992
  0
LINE
  5
158
330
1F
100
AcDbEntity
  8
IGES_LEVEL_0
 62
     7
100
AcDbLine
 10
19.8525142936338
 20
48.28849858873826
 30
0.0
 11
19.8394699142438
 21
48.30040074216826
 31
0.0
  0
ARC
  5
159
330
1F
100
AcDbEntity
  8
IGES_LEVEL_0
 62
     7
100
AcDbCircle
 10
20.06135187104825
 20
48.53155769700818
 30
0.0
 40
0.3204541524981341
100
AcDbArc
 50
229.3306667320981
 51
0.0321893529968032
  0
LINE
  5
15A
330
1F
100
AcDbEntity
  8
IGES_LEVEL_0
 62
     7
100
AcDbLine
 10
19.6302292938838
 20
48.49155276085826
 30
0.0
 11
19.6299976011938
 21
48.47660638742826
 31
0.0
  0
LINE
  5
15B
330
1F
100
AcDbEntity
  8
IGES_LEVEL_0
 62
     7
100
AcDbLine
 10
19.6313926356238
 20
48.51340811514826
 30
0.0
 11
19.6302292938838
 21
48.49155276085826
 31
0.0
  0
LINE
  5
15C
330
1F
100
AcDbEntity
  8
IGES_LEVEL_0
 62
     7
100
AcDbLine
 10
19.6314281503638
 20
48.51339069158826
 30
0.0
 11
19.6300491201438
 21
48.47674627018826
 31
0.0
  0
SPLINE
  5
15D
330
1F
100
AcDbEntity
  8
IGES_LEVEL_0
 62
     7
100
AcDbSpline
210
0.0
220
0.0
230
1.0
 70
     8
 71
     3
 72
    23
 73
    19
 74
     0
 42
0.0000000001
 43
0.0000000001
 40
0.0
 40
0.0
 40
0.0
 40
0.0
 40
0.02256848671309
 40
0.05903132801562
 40
0.1105148563647
 40
0.1758698005997
 40
0.2529732684608
 40
0.3390939962203
 40
0.4310869317168
 40
0.5255510738349
 40
0.6189799397445001
 40
0.7079110972869001
 40
0.7890759658348
 40
0.859553060282
 40
0.9169407316189
 40
0.9596198814212
 40
0.9874692870956
 40
1.0
 40
1.0
 40
1.0
 40
1.0
 10
18.0965114978338
 20
66.02629163082825
 30
0.0
 10
18.0959625545038
 20
66.02558226669825
 30
0.0
 10
18.0935987801438
 20
66.02463972636825
 30
0.0
 10
18.0892609737538
 20
66.02439095972825
 30
0.0
 10
18.0831440203138
 20
66.02483722684825
 30
0.0
 10
18.0755443806138
 20
66.02610104470824
 30
0.0
 10
18.0666776958738
 20
66.02811262991826
 30
0.0
 10
18.0569002765938
 20
66.03082002545825
 30
0.0
 10
18.0465786055338
 20
66.03411924763825
 30
0.0
 10
18.0361102820538
 20
66.03788762205825
 30
0.0
 10
18.0258948437238
 20
66.04198043789825
 30
0.0
 10
18.0163252917038
 20
66.04624110613825
 30
0.0
 10
18.0077575255238
 20
66.05050062525825
 30
0.0
 10
18.0005379863338
 20
66.05460251588825
 30
0.0
 10
17.9948544469238
 20
66.05835389789826
 30
0.0
 10
17.9910572697738
 20
66.06169357566824
 30
0.0
 10
17.9888392346838
 20
66.06427256927825
 30
0.0
 10
17.9887663836738
 20
66.06607240826826
 30
0.0
 10
17.9889154265938
 20
66.06655334180826
 30
0.0
  0
SPLINE
  5
15E
330
1F
100
AcDbEntity
  8
IGES_LEVEL_0
 62
     7
100
AcDbSpline
210
0.0
220
0.0
230
1.0
 70
     8
 71
     3
 72
    14
 73
    10
 74
     0
 42
0.0000000001
 43
0.0000000001
 40
0.0
 40
0.0
 40
0.0
 40
0.0
 40
0.1175800899288
 40
0.344230771645
 40
0.5422664374914
 40
0.7079740503935
 40
0.8388864039165001
 40
0.9346584368896
 40
1.0
 40
1.0
 40
1.0
 40
1.0
 10
17.9807040665138
 20
66.15856672351825
 30
0.0
 10
17.9770347099538
 20
66.15947385500826
 30
0.0
 10
17.9662690845938
 20
66.16203575245825
 30
0.0
 10
17.9491983850938
 20
66.16558708095826
 30
0.0
 10
17.9304358686238
 20
66.16852129465825
 30
0.0
 10
17.9145902964238
 20
66.16994519794825
 30
0.0
 10
17.9019242985338
 20
66.16979299738824
 30
0.0
 10
17.8926629277038
 20
66.16826930009825
 30
0.0
 10
17.8878487943238
 20
66.16563737102825
 30
0.0
 10
17.8865633359838
 20
66.16397625595826
 30
0.0
  0
LINE
  5
15F
330
1F
100
AcDbEntity
  8
IGES_LEVEL_0
 62
     7
100
AcDbLine
 10
17.9836058847738
 20
66.15784231582825
 30
0.0
 11
17.9807040665138
 21
66.15856672351825
 31
0.0
  0
LINE
  5
160
330
1F
100
AcDbEntity
  8
IGES_LEVEL_0
 62
     7
100
AcDbLine
 10
17.9931345714638
 20
66.15536863946825
 30
0.0
 11
17.9836058847738
 21
66.15784231582825
 31
0.0
  0
LINE
  5
161
330
1F
100
AcDbEntity
  8
IGES_LEVEL_0
 62
     7
100
AcDbLine
 10
18.0013158126038
 20
66.15313585834825
 30
0.0
 11
17.9931345714638
 21
66.15536863946825
 31
0.0
  0
SPLINE
  5
162
330
1F
100
AcDbEntity
  8
IGES_LEVEL_0
 62
     7
100
AcDbSpline
210
0.0
220
0.0
230
1.0
 70
     8
 71
     3
 72
    23
 73
    19
 74
     0
 42
0.0000000001
 43
0.0000000001
 40
0.0
 40
0.0
 40
0.0
 40
0.0
 40
0.02256848671309
 40
0.05903132801562
 40
0.1105148563647
 40
0.1758698005997
 40
0.2529732684608
 40
0.3390939962203
 40
0.4310869317168
 40
0.5255510738349
 40
0.6189799397445001
 40
0.7079110972869001
 40
0.7890759658348
 40
0.859553060282
 40
0.9169407316189
 40
0.9596198814212
 40
0.9874692870956
 40
1.0
 40
1.0
 40
1.0
 40
1.0
 10
17.9891959012238
 20
66.06710385061825
 30
0.0
 10
17.9897448445538
 20
66.06781321474824
 30
0.0
 10
17.9921086189038
 20
66.06875575507826
 30
0.0
 10
17.9964464253038
 20
66.06900452171826
 30
0.0
 10
18.0025633787438
 20
66.06855825459826
 30
0.0
 10
18.0101630184338
 20
66.06729443673825
 30
0.0
 10
18.0190297031738
 20
66.06528285152825
 30
0.0
 10
18.0288071224638
 20
66.06257545598825
 30
0.0
 10
18.0391287935238
 20
66.05927623380825
 30
0.0
 10
18.0495971170038
 20
66.05550785938826
 30
0.0
 10
18.0598125553338
 20
66.05141504354825
 30
0.0
 10
18.0693821073538
 20
66.04715437530825
 30
0.0
 10
18.0779498735238
 20
66.04289485618826
 30
0.0
 10
18.0851694127138
 20
66.03879296555826
 30
0.0
 10
18.0908529521338
 20
66.03504158354825
 30
0.0
 10
18.0946501292838
 20
66.03170190577825
 30
0.0
 10
18.0968681643738
 20
66.02912291217825
 30
0.0
 10
18.0969410153838
 20
66.02732307317825
 30
0.0
 10
18.0967919724638
 20
66.02684213963826
 30
0.0
  0
LINE
  5
163
330
1F
100
AcDbEntity
  8
IGES_LEVEL_0
 62
     7
100
AcDbLine
 10
18.2237445158838
 20
66.00011725211826
 30
0.0
 11
18.2289957949138
 21
66.00958868581824
 31
0.0
  0
SPLINE
  5
164
330
1F
100
AcDbEntity
  8
IGES_LEVEL_0
 62
     7
100
AcDbSpline
210
0.0
220
0.0
230
1.0
 70
     8
 71
     3
 72
    32
 73
    28
 74
     0
 42
0.0000000001
 43
0.0000000001
 40
0.0
 40
0.0
 40
0.0
 40
0.0
 40
0.02233143812173
 40
0.0455605125134
 40
0.06935346600564
 40
0.09351200835787
 40
0.119201667014
 40
0.1485037854714
 40
0.1846982485659
 40
0.2311364066671
 40
0.2843191079859
 40
0.3410830608166
 40
0.4008759320949
 40
0.462741556868
 40
0.5255566636289
 40
0.5881230714012
 40
0.6492595502069
 40
0.7078924284856
 40
0.7631877999418
 40
0.8135191184264
 40
0.8536227936161001
 40
0.8852682036238
 40
0.9114692004214
 40
0.9348403655781
 40
0.9568765569156
 40
0.9785238719814
 40
1.0
 40
1.0
 40
1.0
 40
1.0
 10
17.8770905691038
 20
66.13915608929825
 30
0.0
 10
17.8760309608338
 20
66.13627819196825
 30
0.0
 10
17.8746344739138
 20
66.13009334837825
 30
0.0
 10
17.8750367011638
 20
66.12047105375825
 30
0.0
 10
17.8779424110038
 20
66.11103172036826
 30
0.0
 10
17.8830740429438
 20
66.10223481381826
 30
0.0
 10
17.8901920828938
 20
66.09396296471826
 30
0.0
 10
17.8995647127238
 20
66.08562037679826
 30
0.0
 10
17.9119927458438
 20
66.07654425708824
 30
0.0
 10
17.9278350396138
 20
66.06667553306825
 30
0.0
 10
17.9466770347038
 20
66.05635226707825
 30
0.0
 10
17.9675904102838
 20
66.04604355923826
 30
0.0
 10
17.9899440415138
 20
66.03599785458826
 30
0.0
 10
18.0133701419838
 20
66.02634340671825
 30
0.0
 10
18.0374258656338
 20
66.01724688716826
 30
0.0
 10
18.0616401251138
 20
66.00888287415825
 30
0.0
 10
18.0855463021238
 20
66.00141944944825
 30
0.0
 10
18.1087225121138
 20
65.99500882825825
 30
0.0
 10
18.1306830771938
 20
65.98982474645825
 30
0.0
 10
18.1503652021638
 20
65.98614646551826
 30
0.0
 10
18.1670119906538
 20
65.98405624203825
 30
0.0
 10
18.1804619874238
 20
65.98338143807825
 30
0.0
 10
18.1916256695938
 20
65.98390064688826
 30
0.0
 10
18.2013429398738
 20
65.98562815525825
 30
0.0
 10
18.2100555207538
 20
65.98877913789825
 30
0.0
 10
18.2177193105438
 20
65.99353339158824
 30
0.0
 10
18.2219395256938
 20
65.99778477948826
 30
0.0
 10
18.2237445158838
 20
66.00011725211826
 30
0.0
  0
ARC
  5
165
330
1F
100
AcDbEntity
  8
IGES_LEVEL_0
 62
     7
100
AcDbCircle
 10
18.64142658319776
 20
51.59503603072408
 30
0.0
 40
0.057500082638253
100
AcDbArc
 50
0.0990907098457643
 51
179.9041054580296
  0
ARC
  5
166
330
1F
100
AcDbEntity
  8
IGES_LEVEL_0
 62
     7
100
AcDbCircle
 10
18.64142622971946
 20
51.59235011097774
 30
0.0
 40
0.1875002696845608
100
AcDbArc
 50
180.0991648231008
 51
359.9041167094339
  0
ARC
  5
167
330
1F
100
AcDbEntity
  8
IGES_LEVEL_0
 62
     7
100
AcDbCircle
 10
18.64142657818985
 20
51.59521525052077
 30
0.0
 40
0.0575000826382467
100
AcDbArc
 50
180.099090708189
 51
359.9041054596863
  0
ARC
  5
168
330
1F
100
AcDbEntity
  8
IGES_LEVEL_0
 62
     7
100
AcDbCircle
 10
18.64142276775998
 20
51.56098281837382
 30
0.0
 40
0.0575266257517235
100
AcDbArc
 50
17.32644282113652
 51
162.6600675865384
  0
ARC
  5
169
330
1F
100
AcDbEntity
  8
IGES_LEVEL_0
 62
     7
100
AcDbCircle
 10
18.64142640112137
 20
51.59320653241102
 30
0.0
 40
0.1875001956667564
100
AcDbArc
 50
0.0848770323913037
 51
179.9185321398643
  0
ARC
  5
16A
330
1F
100
AcDbEntity
  8
IGES_LEVEL_0
 62
     7
100
AcDbCircle
 10
17.45552087147773
 20
63.01764763757407
 30
0.0
 40
0.0575000826382317
100
AcDbArc
 50
0.0990907098599614
 51
179.9041054580083
  0
ARC
  5
16B
330
1F
100
AcDbEntity
  8
IGES_LEVEL_0
 62
     7
100
AcDbCircle
 10
17.45552051800446
 20
63.01496171783295
 30
0.0
 40
0.1875002696895621
100
AcDbArc
 50
180.0991648246897
 51
359.904116710902
  0
ARC
  5
16C
330
1F
100
AcDbEntity
  8
IGES_LEVEL_0
 62
     7
100
AcDbCircle
 10
17.45552086647484
 20
63.01782685737746
 30
0.0
 40
0.0575000826432637
100
AcDbArc
 50
180.0990907148428
 51
359.9041054530252
  0
ARC
  5
16D
330
1F
100
AcDbEntity
  8
IGES_LEVEL_0
 62
     7
100
AcDbCircle
 10
17.45551705605154
 20
62.9835944252217
 30
0.0
 40
0.0575266257538379
100
AcDbArc
 50
17.32644283311311
 51
162.660067584994
  0
ARC
  5
16E
330
1F
100
AcDbEntity
  8
IGES_LEVEL_0
 62
     7
100
AcDbCircle
 10
17.45552068940638
 20
63.01581813926079
 30
0.0
 40
0.1875001956717666
100
AcDbArc
 50
0.084877035513477
 51
179.918532139797
  0
ARC
  5
16F
330
1F
100
AcDbEntity
  8
IGES_LEVEL_0
 62
     7
100
AcDbCircle
 10
37.37639578976418
 20
6.676803260220829
 30
0.0
 40
1.012560655409182
100
AcDbArc
 50
161.0623390219203
 51
168.9382642599202
  0
SPLINE
  5
170
330
1F
100
AcDbEntity
  8
IGES_LEVEL_0
 62
     7
100
AcDbSpline
210
0.0
220
0.0
230
1.0
 70
     8
 71
     3
 72
    10
 73
     6
 74
     0
 42
0.0000000001
 43
0.0000000001
 40
0.0
 40
0.0
 40
0.0
 40
0.0
 40
0.1923521248373
 40
0.6080277790053
 40
1.0
 40
1.0
 40
1.0
 40
1.0
 10
52.69525055536381
 20
24.67897283961826
 30
0.0
 10
52.69477034515381
 20
24.67553743213826
 30
0.0
 10
52.6807418457638
 20
24.67167372220826
 30
0.0
 10
52.6645569158238
 20
24.67433675105826
 30
0.0
 10
52.6502995205338
 20
24.67830097686826
 30
0.0
 10
52.64353323174381
 20
24.68066926729826
 30
0.0
  0
ARC
  5
171
330
1F
100
AcDbEntity
  8
IGES_LEVEL_0
 62
     7
100
AcDbCircle
 10
52.83658387084289
 20
25.0014513517109
 30
0.0
 40
0.3157834987001882
100
AcDbArc
 50
259.0666755980194
 51
270.6308924032271
  0
ARC
  5
172
330
1F
100
AcDbEntity
  8
IGES_LEVEL_0
 62
     7
100
AcDbCircle
 10
52.68759216950569
 20
25.00023368381488
 30
0.0
 40
0.3213946283362092
100
AcDbArc
 50
273.3214563716594
 51
284.2953245785376
  0
LINE
  5
173
330
1F
100
AcDbEntity
  8
IGES_LEVEL_0
 62
     7
100
AcDbLine
 10
52.7766903077838
 20
24.69139977671826
 30
0.0
 11
52.7669509114538
 21
24.68879075613826
 31
0.0
  0
ARC
  5
174
330
1F
100
AcDbEntity
  8
IGES_LEVEL_0
 62
     7
100
AcDbCircle
 10
37.45904037147677
 20
7.008256930112967
 30
0.0
 40
0.3079308043723487
100
AcDbArc
 50
269.9617179009583
 51
306.2319967720366
  0
ARC
  5
175
330
1F
100
AcDbEntity
  8
IGES_LEVEL_0
 62
     7
100
AcDbCircle
 10
37.45766640337017
 20
7.009500845753397
 30
0.0
 40
0.3097465015529513
100
AcDbArc
 50
306.3010041266695
 51
340.2627645804261
  0
ARC
  5
176
330
1F
100
AcDbEntity
  8
IGES_LEVEL_0
 62
     7
100
AcDbCircle
 10
37.44709544680835
 20
7.01160528804734
 30
0.0
 40
0.3204110533816447
100
AcDbArc
 50
340.5469239388714
 51
359.7712723789585
  0
SPLINE
  5
177
330
1F
100
AcDbEntity
  8
IGES_LEVEL_0
 62
     7
100
AcDbSpline
210
0.0
220
0.0
230
1.0
 70
     8
 71
     3
 72
    16
 73
    12
 74
     0
 42
0.0000000001
 43
0.0000000001
 40
0.0
 40
0.0
 40
0.0
 40
0.0
 40
0.05277219673111
 40
0.1566768354917
 40
0.3009072071899
 40
0.4686020455466
 40
0.6398589704716
 40
0.7943244431968
 40
0.9137927369769
 40
0.9848844276819
 40
1.0
 40
1.0
 40
1.0
 40
1.0
 10
37.2246793341938
 20
37.51685817333826
 30
0.0
 10
37.2182493388738
 20
37.50783946881825
 30
0.0
 10
37.18469314340381
 20
37.49597051222826
 30
0.0
 10
37.1265462383538
 20
37.47662892018825
 30
0.0
 10
37.04034991058381
 20
37.45769664805826
 30
0.0
 10
36.94099869142381
 20
37.43912439446826
 30
0.0
 10
36.83800225001381
 20
37.42550479682826
 30
0.0
 10
36.74604852677381
 20
37.41353011771826
 30
0.0
 10
36.6710271565038
 20
37.41731643834826
 30
0.0
 10
36.6322728177038
 20
37.40796478788825
 30
0.0
 10
36.61083461197381
 20
37.42339046058826
 30
0.0
 10
36.60953209925381
 20
37.42610838883826
 30
0.0
  0
ARC
  5
178
330
1F
100
AcDbEntity
  8
IGES_LEVEL_0
 62
     7
100
AcDbCircle
 10
37.44862235907493
 20
7.009302248282948
 30
0.0
 40
0.3188832319781993
100
AcDbArc
 50
0.183979244268662
 51
19.33515530964608
  0
ARC
  5
179
330
1F
100
AcDbEntity
  8
IGES_LEVEL_0
 62
     7
100
AcDbCircle
 10
37.45701997582266
 20
7.010824139950442
 30
0.0
 40
0.3104582801075744
100
AcDbArc
 50
19.58325740890433
 51
34.08151553240777
  0
ARC
  5
17A
330
1F
100
AcDbEntity
  8
IGES_LEVEL_0
 62
     7
100
AcDbCircle
 10
37.45910013063396
 20
7.012567960463424
 30
0.0
 40
0.3077583485352595
100
AcDbArc
 50
34.02964004199177
 51
90.04942899559802
  0
ARC
  5
17B
330
1F
100
AcDbEntity
  8
IGES_LEVEL_0
 62
     7
100
AcDbCircle
 10
52.85698003576096
 20
23.35842504341186
 30
0.0
 40
1.952307586405265
100
AcDbArc
 50
2.739791351525038
 51
93.15532488268686
  0
LINE
  5
17C
330
1F
100
AcDbEntity
  8
IGES_LEVEL_0
 62
     7
100
AcDbLine
 10
52.6557471644338
 20
25.30303975071826
 30
0.0
 11
52.64527848699381
 21
25.29940157582826
 31
0.0
  0
ARC
  5
17D
330
1F
100
AcDbEntity
  8
IGES_LEVEL_0
 62
     7
100
AcDbCircle
 10
40.21171617194894
 20
25.76094355998652
 30
0.0
 40
1.776843137625192
100
AcDbArc
 50
188.9436893644653
 51
273.1220849802125
  0
ARC
  5
17E
330
1F
100
AcDbEntity
  8
IGES_LEVEL_0
 62
     7
100
AcDbCircle
 10
40.21172030865248
 20
25.76095139860148
 30
0.0
 40
1.151851582186849
100
AcDbArc
 50
189.0232569898954
 51
273.0808292291941
  0
LINE
  5
17F
330
1F
100
AcDbEntity
  8
IGES_LEVEL_0
 62
     7
100
AcDbLine
 10
41.10071005356381
 20
24.03090455119826
 30
0.0
 11
41.1005987225738
 21
24.03066012065826
 31
0.0
  0
SPLINE
  5
180
330
1F
100
AcDbEntity
  8
IGES_LEVEL_0
 62
     7
100
AcDbSpline
210
0.0
220
0.0
230
1.0
 70
     8
 71
     3
 72
    12
 73
     8
 74
     0
 42
0.0000000001
 43
0.0000000001
 40
0.0
 40
0.0
 40
0.0
 40
0.0
 40
0.4219755678809
 40
0.770142610595
 40
0.9766346389989
 40
0.9964146597869
 40
1.0
 40
1.0
 40
1.0
 40
1.0
 10
41.17674989869381
 20
24.04504600966826
 30
0.0
 10
41.1657707135138
 20
24.04472235437826
 30
0.0
 10
41.1454464693438
 20
24.04382271505826
 30
0.0
 10
41.1214415175038
 20
24.03637870274826
 30
0.0
 10
41.1054472604938
 20
24.03638945964826
 30
0.0
 10
41.10097403548381
 20
24.03133531068826
 30
0.0
 10
41.1007407852538
 20
24.03095913088826
 30
0.0
 10
41.10071005356381
 20
24.03090455119826
 30
0.0
  0
SPLINE
  5
181
330
1F
100
AcDbEntity
  8
IGES_LEVEL_0
 62
     7
100
AcDbSpline
210
0.0
220
0.0
230
1.0
 70
     8
 71
     3
 72
     9
 73
     5
 74
     0
 42
0.0000000001
 43
0.0000000001
 40
0.0
 40
0.0
 40
0.0
 40
0.0
 40
0.9131767054607
 40
1.0
 40
1.0
 40
1.0
 40
1.0
 10
41.2528920501638
 20
24.03949730721826
 30
0.0
 10
41.2545856733738
 20
24.03931844403826
 30
0.0
 10
41.25560201506381
 20
24.03931194483826
 30
0.0
 10
41.25488153349381
 20
24.03969243845826
 30
0.0
 10
41.25480712857381
 20
24.03972802372826
 30
0.0
  0
ARC
  5
182
330
1F
100
AcDbEntity
  8
IGES_LEVEL_0
 62
     7
100
AcDbCircle
 10
41.18389944067737
 20
23.61795045401707
 30
0.0
 40
0.427155392811058
100
AcDbArc
 50
80.70507442386155
 51
90.95903672729081
  0
LINE
  5
183
330
1F
100
AcDbEntity
  8
IGES_LEVEL_0
 62
     7
100
AcDbLine
 10
52.54086999564381
 20
24.67004811846826
 30
0.0
 11
52.5407586646538
 21
24.66980368793826
 31
0.0
  0
ARC
  5
184
330
1F
100
AcDbEntity
  8
IGES_LEVEL_0
 62
     7
100
AcDbCircle
 10
52.56404561828201
 20
24.63693500409987
 30
0.0
 40
0.0404176672736309
100
AcDbArc
 50
88.14451510973959
 51
124.9878888355539
  0
LINE
  5
185
330
1F
100
AcDbEntity
  8
IGES_LEVEL_0
 62
     7
100
AcDbLine
 10
52.58407730068381
 20
24.68138785410826
 30
0.0
 11
52.5653542882038
 21
24.67733147932826
 31
0.0
  0
ARC
  5
186
330
1F
100
AcDbEntity
  8
IGES_LEVEL_0
 62
     7
100
AcDbCircle
 10
52.61880931151902
 20
24.46815210508023
 30
0.0
 40
0.216045822084578
100
AcDbArc
 50
90.50374988755034
 51
99.25114225687065
  0
LINE
  5
187
330
1F
100
AcDbEntity
  8
IGES_LEVEL_0
 62
     7
100
AcDbLine
 10
52.69323891756381
 20
24.67862695079826
 30
0.0
 11
52.69481714555381
 21
24.67845682707826
 31
0.0
  0
LINE
  5
188
330
1F
100
AcDbEntity
  8
IGES_LEVEL_0
 62
     7
100
AcDbLine
 10
52.68591202048381
 20
24.67985641705826
 30
0.0
 11
52.69323891756381
 21
24.67862695079826
 31
0.0
  0
ARC
  5
189
330
1F
100
AcDbEntity
  8
IGES_LEVEL_0
 62
     7
100
AcDbCircle
 10
52.62259938705763
 20
24.22322171624107
 30
0.0
 40
0.4610029712938499
100
AcDbArc
 50
82.10623744526734
 51
90.70714352238745
  0
LINE
  5
18A
330
1F
100
AcDbEntity
  8
IGES_LEVEL_0
 62
     7
100
AcDbLine
 10
52.5956490047738
 20
25.28995863599826
 30
0.0
 11
52.5831380624038
 21
25.28867746648826
 31
0.0
  0
LINE
  5
18B
330
1F
100
AcDbEntity
  8
IGES_LEVEL_0
 62
     7
100
AcDbLine
 10
52.60728630226381
 20
25.29158423770826
 30
0.0
 11
52.5956490047738
 21
25.28995863599826
 31
0.0
  0
LINE
  5
18C
330
1F
100
AcDbEntity
  8
IGES_LEVEL_0
 62
     7
100
AcDbLine
 10
52.64527848699381
 20
25.29940157582826
 30
0.0
 11
52.60728630226381
 21
25.29158423770826
 31
0.0
  0
ARC
  5
18D
330
1F
100
AcDbEntity
  8
IGES_LEVEL_0
 62
     7
100
AcDbCircle
 10
52.55961306880719
 20
25.55126730186341
 30
0.0
 40
0.2636415122207927
100
AcDbArc
 50
259.6003280433516
 51
275.1193681633176
  0
LINE
  5
18E
330
1F
100
AcDbEntity
  8
IGES_LEVEL_0
 62
     7
100
AcDbLine
 10
41.25506275921381
 20
24.03958268752826
 30
0.0
 11
41.2478657480738
 21
24.04176671671826
 31
0.0
  0
ARC
  5
18F
330
1F
100
AcDbEntity
  8
IGES_LEVEL_0
 62
     7
100
AcDbCircle
 10
41.09906639267975
 20
24.06535216821353
 30
0.0
 40
0.0347054016715891
100
AcDbArc
 50
272.5422246127518
 51
296.6063191621287
  0
ARC
  5
190
330
1F
100
AcDbEntity
  8
IGES_LEVEL_0
 62
     7
100
AcDbCircle
 10
52.53922633475337
 20
24.70449573555064
 30
0.0
 40
0.0347054017389272
100
AcDbArc
 50
272.5422246183485
 51
296.6063191366578
  0
ARC
  5
191
330
1F
100
AcDbEntity
  8
IGES_LEVEL_0
 62
     7
100
AcDbCircle
 10
52.85680339162354
 20
23.35828829135434
 30
0.0
 40
1.327493514765948
100
AcDbArc
 50
2.675267547905391
 51
90.72107836423324
  0
LINE
  5
192
330
1F
100
AcDbEntity
  8
IGES_LEVEL_0
 62
     7
100
AcDbLine
 10
52.51202221303381
 20
25.29195675943826
 30
0.0
 11
52.5048234740538
 21
25.29413691370826
 31
0.0
  0
LINE
  5
193
330
1F
100
AcDbEntity
  8
IGES_LEVEL_0
 62
     7
100
AcDbLine
 10
52.5819886089938
 20
24.67942520587826
 30
0.0
 11
52.5547694161938
 21
24.67346546759826
 31
0.0
  0
SPLINE
  5
194
330
1F
100
AcDbEntity
  8
IGES_LEVEL_0
 62
     7
100
AcDbSpline
210
0.0
220
0.0
230
1.0
 70
     8
 71
     3
 72
    16
 73
    12
 74
     0
 42
0.0000000001
 43
0.0000000001
 40
0.0
 40
0.0
 40
0.0
 40
0.0
 40
0.05277219673111
 40
0.1566768354917
 40
0.3009072071899
 40
0.4686020455467
 40
0.6398589704716
 40
0.7943244431968
 40
0.9137927369769
 40
0.9848844276819
 40
1.0
 40
1.0
 40
1.0
 40
1.0
 10
36.6097722046438
 20
37.43015719139826
 30
0.0
 10
36.6162021999638
 20
37.43917589591826
 30
0.0
 10
36.6497583954338
 20
37.45104485250825
 30
0.0
 10
36.70790530048381
 20
37.47038644454826
 30
0.0
 10
36.79410162825381
 20
37.48931871667826
 30
0.0
 10
36.89345284741381
 20
37.50789097026826
 30
0.0
 10
36.9964492888238
 20
37.52151056790826
 30
0.0
 10
37.0884030120638
 20
37.53348524701826
 30
0.0
 10
37.16342438233381
 20
37.52969892639826
 30
0.0
 10
37.20217872113381
 20
37.53905057684826
 30
0.0
 10
37.22361692686381
 20
37.52362490414826
 30
0.0
 10
37.22491943958381
 20
37.52090697590825
 30
0.0
  0
ARC
  5
195
330
1F
100
AcDbEntity
  8
IGES_LEVEL_0
 62
     7
100
AcDbCircle
 10
52.8265196520562
 20
22.71045249404798
 30
0.0
 40
3.097501699499679
100
AcDbArc
 50
70.45493381351433
 51
92.65535008763008
  0
LINE
  5
196
330
1F
100
AcDbEntity
  8
IGES_LEVEL_0
 62
     7
100
AcDbLine
 10
40.16247600101381
 20
24.82879662882826
 30
0.0
 11
40.0041796615638
 21
24.81657502169826
 31
0.0
  0
ARC
  5
197
330
1F
100
AcDbEntity
  8
IGES_LEVEL_0
 62
     7
100
AcDbCircle
 10
-744.0644779060813
 20
10167.5018744628
 30
0.0
 40
10172.94593906074
100
AcDbArc
 50
274.421287478917
 51
274.4902519709683
  0
LINE
  5
198
330
1F
100
AcDbEntity
  8
IGES_LEVEL_0
 62
     7
100
AcDbLine
 10
52.44868422785381
 20
25.78624130164826
 30
0.0
 11
52.3702090087338
 21
25.78008432620826
 31
0.0
  0
LINE
  5
199
330
1F
100
AcDbEntity
  8
IGES_LEVEL_0
 62
     7
100
AcDbLine
 10
52.5570713151838
 20
25.79474574090826
 30
0.0
 11
52.44868422785381
 21
25.78624130164826
 31
0.0
  0
LINE
  5
19A
330
1F
100
AcDbEntity
  8
IGES_LEVEL_0
 62
     7
100
AcDbLine
 10
52.6660252486138
 20
25.80329541272826
 30
0.0
 11
52.5570713151838
 21
25.79474574090826
 31
0.0
  0
LINE
  5
19B
330
1F
100
AcDbEntity
  8
IGES_LEVEL_0
 62
     7
100
AcDbLine
 10
52.6830185935738
 20
25.80462895725826
 30
0.0
 11
52.6660252486138
 21
25.80329541272826
 31
0.0
  0
ARC
  5
19C
330
1F
100
AcDbEntity
  8
IGES_LEVEL_0
 62
     7
100
AcDbCircle
 10
52.85396606616907
 20
22.67501566340607
 30
0.0
 40
1.971896478745182
100
AcDbArc
 50
73.97088868574515
 51
83.4334929543663
  0
LINE
  5
19D
330
1F
100
AcDbEntity
  8
IGES_LEVEL_0
 62
     7
100
AcDbLine
 10
39.8385821250238
 20
24.78589603257826
 30
0.0
 11
39.82687952544381
 21
24.78221526928826
 31
0.0
  0
LINE
  5
19E
330
1F
100
AcDbEntity
  8
IGES_LEVEL_0
 62
     7
100
AcDbLine
 10
39.87664562227381
 20
24.79639225151826
 30
0.0
 11
39.8385821250238
 21
24.78589603257826
 31
0.0
  0
ARC
  5
19F
330
1F
100
AcDbEntity
  8
IGES_LEVEL_0
 62
     7
100
AcDbCircle
 10
40.05874222885948
 20
24.05605028135921
 30
0.0
 40
0.7624076382808627
100
AcDbArc
 50
95.4644248785835
 51
103.8183313832193
  0
LINE
  5
1A0
330
1F
100
AcDbEntity
  8
IGES_LEVEL_0
 62
     7
100
AcDbLine
 10
39.72285355008381
 20
24.74189953068826
 30
0.0
 11
39.70662254229381
 21
24.73432338955826
 31
0.0
  0
LINE
  5
1A1
330
1F
100
AcDbEntity
  8
IGES_LEVEL_0
 62
     7
100
AcDbLine
 10
39.77408674104381
 20
24.76346117379826
 30
0.0
 11
39.72285355008381
 21
24.74189953068826
 31
0.0
  0
LINE
  5
1A2
330
1F
100
AcDbEntity
  8
IGES_LEVEL_0
 62
     7
100
AcDbLine
 10
39.7916917813638
 20
24.77008963783826
 30
0.0
 11
39.77408674104381
 21
24.76346117379826
 31
0.0
  0
LINE
  5
1A3
330
1F
100
AcDbEntity
  8
IGES_LEVEL_0
 62
     7
100
AcDbLine
 10
39.80956139463381
 20
24.77643092280826
 30
0.0
 11
39.7916917813638
 21
24.77008963783826
 31
0.0
  0
LINE
  5
1A4
330
1F
100
AcDbEntity
  8
IGES_LEVEL_0
 62
     7
100
AcDbLine
 10
39.82686823125381
 20
24.78221299552826
 30
0.0
 11
39.80956139463381
 21
24.77643092280826
 31
0.0
  0
LINE
  5
1A5
330
1F
100
AcDbEntity
  8
IGES_LEVEL_0
 62
     7
100
AcDbLine
 10
38.43508253663381
 20
24.10726837443826
 30
0.0
 11
38.3984929796538
 21
24.08861098423826
 31
0.0
  0
ARC
  5
1A6
330
1F
100
AcDbEntity
  8
IGES_LEVEL_0
 62
     7
100
AcDbCircle
 10
64.60103841778204
 20
-27.37161850808695
 30
0.0
 40
57.74714747793195
100
AcDbArc
 50
116.2586797009139
 51
116.9435564647994
  0
LINE
  5
1A7
330
1F
100
AcDbEntity
  8
IGES_LEVEL_0
 62
     7
100
AcDbLine
 10
39.7066214799838
 20
24.73432303911826
 30
0.0
 11
39.69878807375381
 21
24.73057545189826
 31
0.0
  0
LINE
  5
1A8
330
1F
100
AcDbEntity
  8
IGES_LEVEL_0
 62
     7
100
AcDbLine
 10
38.3718961071438
 20
24.05244682723826
 30
0.0
 11
38.37140576577381
 21
24.04873251600826
 31
0.0
  0
LINE
  5
1A9
330
1F
100
AcDbEntity
  8
IGES_LEVEL_0
 62
     7
100
AcDbLine
 10
38.3730575003538
 20
24.05758519141826
 30
0.0
 11
38.3718961071438
 21
24.05244682723826
 31
0.0
  0
LINE
  5
1AA
330
1F
100
AcDbEntity
  8
IGES_LEVEL_0
 62
     7
100
AcDbLine
 10
38.3740756578538
 20
24.06077027422826
 30
0.0
 11
38.3730575003538
 21
24.05758519141826
 31
0.0
  0
LINE
  5
1AB
330
1F
100
AcDbEntity
  8
IGES_LEVEL_0
 62
     7
100
AcDbLine
 10
38.3753209771838
 20
24.06392161195826
 30
0.0
 11
38.3740756578538
 21
24.06077027422826
 31
0.0
  0
LINE
  5
1AC
330
1F
100
AcDbEntity
  8
IGES_LEVEL_0
 62
     7
100
AcDbLine
 10
38.3775595761638
 20
24.06844780183826
 30
0.0
 11
38.3753209771838
 21
24.06392161195826
 31
0.0
  0
LINE
  5
1AD
330
1F
100
AcDbEntity
  8
IGES_LEVEL_0
 62
     7
100
AcDbLine
 10
38.3801550108038
 20
24.07261280878826
 30
0.0
 11
38.3775595761638
 21
24.06844780183826
 31
0.0
  0
LINE
  5
1AE
330
1F
100
AcDbEntity
  8
IGES_LEVEL_0
 62
     7
100
AcDbLine
 10
38.3836041760538
 20
24.07703284716826
 30
0.0
 11
38.3801550108038
 21
24.07261280878826
 31
0.0
  0
LINE
  5
1AF
330
1F
100
AcDbEntity
  8
IGES_LEVEL_0
 62
     7
100
AcDbLine
 10
38.4351832360738
 20
24.10720228584826
 30
0.0
 11
38.3984926735638
 21
24.08861083504826
 31
0.0
  0
ARC
  5
1B0
330
1F
100
AcDbEntity
  8
IGES_LEVEL_0
 62
     7
100
AcDbCircle
 10
66.8130608594139
 20
-31.87908285254579
 30
0.0
 40
62.76757173893879
100
AcDbArc
 50
116.2489233686781
 51
116.8791716420416
  0
LINE
  5
1B1
330
1F
100
AcDbEntity
  8
IGES_LEVEL_0
 62
     7
100
AcDbLine
 10
39.70879951573381
 20
24.73452844909826
 30
0.0
 11
39.6996283508138
 21
24.73014347489826
 31
0.0
  0
LINE
  5
1B2
330
1F
100
AcDbEntity
  8
IGES_LEVEL_0
 62
     7
100
AcDbLine
 10
38.3998861057938
 20
24.08930623355826
 30
0.0
 11
38.3992191543938
 21
24.08897150584826
 31
0.0
  0
LINE
  5
1B3
330
1F
100
AcDbEntity
  8
IGES_LEVEL_0
 62
     7
100
AcDbLine
 10
39.7403420093438
 20
24.74890660966826
 30
0.0
 11
39.70880062627381
 21
24.73452884664826
 31
0.0
  0
LINE
  5
1B4
330
1F
100
AcDbEntity
  8
IGES_LEVEL_0
 62
     7
100
AcDbLine
 10
39.77476173374381
 20
24.76306735443826
 30
0.0
 11
39.7403420093438
 21
24.74890660966826
 31
0.0
  0
LINE
  5
1B5
330
1F
100
AcDbEntity
  8
IGES_LEVEL_0
 62
     7
100
AcDbLine
 10
39.82913024594381
 20
24.78242362659826
 30
0.0
 11
39.77476173374381
 21
24.76306735443826
 31
0.0
  0
ARC
  5
1B6
330
1F
100
AcDbEntity
  8
IGES_LEVEL_0
 62
     7
100
AcDbCircle
 10
40.06023844940351
 20
24.06357024525184
 30
0.0
 40
0.7550886508614817
100
AcDbArc
 50
94.26504597542791
 51
107.8214460006601
  0
SPLINE
  5
1B7
330
1F
100
AcDbEntity
  8
IGES_LEVEL_0
 62
     7
100
AcDbSpline
210
0.0
220
0.0
230
1.0
 70
     8
 71
     3
 72
    11
 73
     7
 74
     0
 42
0.0000000001
 43
0.0000000001
 40
0.0
 40
0.0
 40
0.0
 40
0.0
 40
0.07593971615977
 40
0.3229767079578
 40
0.6231463337498
 40
1.0
 40
1.0
 40
1.0
 40
1.0
 10
54.06641925536381
 20
25.47804059673826
 30
0.0
 10
54.0645710237738
 20
25.48453379261826
 30
0.0
 10
54.05432125913381
 20
25.51147652858826
 30
0.0
 10
54.0173900547938
 20
25.55330832063826
 30
0.0
 10
53.9483662514838
 20
25.59609496718826
 30
0.0
 10
53.89353748461381
 20
25.61860998070826
 30
0.0
 10
53.8624995171838
 20
25.62961683394826
 30
0.0
  0
LINE
  5
1B8
330
1F
100
AcDbEntity
  8
IGES_LEVEL_0
 62
     7
100
AcDbLine
 10
54.07019955223381
 20
25.45831014313826
 30
0.0
 11
54.06641925536381
 21
25.47804059673826
 31
0.0
  0
LINE
  5
1B9
330
1F
100
AcDbEntity
  8
IGES_LEVEL_0
 62
     7
100
AcDbLine
 10
54.0704715197838
 20
25.45504794453826
 30
0.0
 11
54.07019955223381
 21
25.45831014313826
 31
0.0
  0
ARC
  5
1BA
330
1F
100
AcDbEntity
  8
IGES_LEVEL_0
 62
     7
100
AcDbCircle
 10
40.08090877962859
 20
23.74686965191564
 30
0.0
 40
0.8224997497682645
100
AcDbArc
 50
83.70255126194493
 51
94.21728676897151
  0
LINE
  5
1BB
330
1F
100
AcDbEntity
  8
IGES_LEVEL_0
 62
     7
100
AcDbLine
 10
40.14100354837381
 20
24.56786666903826
 30
0.0
 11
40.1712737682738
 21
24.56551875525826
 31
0.0
  0
ARC
  5
1BC
330
1F
100
AcDbEntity
  8
IGES_LEVEL_0
 62
     7
100
AcDbCircle
 10
40.0859412608979
 20
23.69817924995526
 30
0.0
 40
0.8714287477547035
100
AcDbArc
 50
86.37728299481942
 51
94.31149867039602
  0
ARC
  5
1BD
330
1F
100
AcDbEntity
  8
IGES_LEVEL_0
 62
     7
100
AcDbCircle
 10
40.64097230472006
 20
28.28138551788013
 30
0.0
 40
3.746330859121474
100
AcDbArc
 50
262.9789382429937
 51
274.4303354054553
  0
LINE
  5
1BE
330
1F
100
AcDbEntity
  8
IGES_LEVEL_0
 62
     7
100
AcDbLine
 10
40.1711809053238
 20
24.56441070258826
 30
0.0
 11
40.18304257860381
 21
24.56314732325826
 31
0.0
  0
LINE
  5
1BF
330
1F
100
AcDbEntity
  8
IGES_LEVEL_0
 62
     7
100
AcDbLine
 10
41.22614975426381
 20
24.56984831190826
 30
0.0
 11
52.69811516551381
 21
25.48562591282826
 31
0.0
  0
LINE
  5
1C0
330
1F
100
AcDbEntity
  8
IGES_LEVEL_0
 62
     7
100
AcDbLine
 10
40.93036435176381
 20
24.54624687645826
 30
0.0
 11
41.22614975426381
 21
24.56984831190826
 31
0.0
  0
ARC
  5
1C1
330
1F
100
AcDbEntity
  8
IGES_LEVEL_0
 62
     7
100
AcDbCircle
 10
52.91125967288138
 20
22.66354508487305
 30
0.0
 40
2.830119458885574
100
AcDbArc
 50
89.31224362547812
 51
94.18564698471512
  0
LINE
  5
1C2
330
1F
100
AcDbEntity
  8
IGES_LEVEL_0
 62
     7
100
AcDbLine
 10
52.6981131462038
 20
25.48562575580826
 30
0.0
 11
52.7044772754138
 21
25.48610017054826
 31
0.0
  0
SPLINE
  5
1C3
330
1F
100
AcDbEntity
  8
IGES_LEVEL_0
 62
     7
100
AcDbSpline
210
0.0
220
0.0
230
1.0
 70
     8
 71
     3
 72
    12
 73
     8
 74
     0
 42
0.0000000001
 43
0.0000000001
 40
0.0
 40
0.0
 40
0.0
 40
0.0
 40
0.2052589708052
 40
0.4494131648012
 40
0.6734555819944
 40
0.8658092317714
 40
1.0
 40
1.0
 40
1.0
 40
1.0
 10
52.9452323007438
 20
25.49346096983826
 30
0.0
 10
53.00713927585381
 20
25.49393681856826
 30
0.0
 10
53.14271382565381
 20
25.49281850636826
 30
0.0
 10
53.3456246779938
 20
25.48244645022826
 30
0.0
 10
53.54389411694381
 20
25.46086748052826
 30
0.0
 10
53.70722063959381
 20
25.43132230609826
 30
0.0
 10
53.80289691043381
 20
25.40556074611826
 30
0.0
 10
53.8410215305238
 20
25.39238749703826
 30
0.0
  0
SPLINE
  5
1C4
330
1F
100
AcDbEntity
  8
IGES_LEVEL_0
 62
     7
100
AcDbSpline
210
0.0
220
0.0
230
1.0
 70
     8
 71
     3
 72
     9
 73
     5
 74
     0
 42
0.0000000001
 43
0.0000000001
 40
0.0
 40
0.0
 40
0.0
 40
0.0
 40
0.2134548764036
 40
1.0
 40
1.0
 40
1.0
 40
1.0
 10
35.09076833640381
 20
38.19738750010826
 30
0.0
 10
35.1178446246438
 20
38.16308647131826
 30
0.0
 10
35.2322814278638
 20
37.99582162912826
 30
0.0
 10
35.29650064235381
 20
37.79929764026826
 30
0.0
 10
35.3340130030838
 20
37.63009031578826
 30
0.0
  0
SPLINE
  5
1C5
330
1F
100
AcDbEntity
  8
IGES_LEVEL_0
 62
     7
100
AcDbSpline
210
0.0
220
0.0
230
1.0
 70
     8
 71
     3
 72
     9
 73
     5
 74
     0
 42
0.0000000001
 43
0.0000000001
 40
0.0
 40
0.0
 40
0.0
 40
0.0
 40
0.7855972930412
 40
1.0
 40
1.0
 40
1.0
 40
1.0
 10
36.56671440236381
 20
32.06953155054826
 30
0.0
 10
36.60328865588381
 20
31.90260197630826
 30
0.0
 10
36.62975945554381
 20
31.70072666636826
 30
0.0
 10
36.59691536427381
 20
31.50363746256826
 30
0.0
 10
36.58672349453381
 20
31.46149158790826
 30
0.0
  0
LINE
  5
1C6
330
1F
100
AcDbEntity
  8
IGES_LEVEL_0
 62
     7
100
AcDbLine
 10
36.5649754666338
 20
32.07742132436826
 30
0.0
 11
36.56671440236381
 21
32.06953155054826
 31
0.0
  0
LINE
  5
1C7
330
1F
100
AcDbEntity
  8
IGES_LEVEL_0
 62
     7
100
AcDbLine
 10
38.3625548040938
 20
32.62325417472826
 30
0.0
 11
38.26996538107381
 21
33.16405438089826
 31
0.0
  0
LINE
  5
1C8
330
1F
100
AcDbEntity
  8
IGES_LEVEL_0
 62
     7
100
AcDbLine
 10
38.3633108085538
 20
32.61884440146826
 30
0.0
 11
38.3625548040938
 21
32.62325417472826
 31
0.0
  0
SPLINE
  5
1C9
330
1F
100
AcDbEntity
  8
IGES_LEVEL_0
 62
     7
100
AcDbSpline
210
0.0
220
0.0
230
1.0
 70
     8
 71
     3
 72
    15
 73
    11
 74
     0
 42
0.0000000001
 43
0.0000000001
 40
0.0
 40
0.0
 40
0.0
 40
0.0
 40
0.1399775042816
 40
0.2987579745442
 40
0.4520502365751
 40
0.6005174084696
 40
0.7351456383285
 40
0.8446947671011
 40
0.9361524374699
 40
1.0
 40
1.0
 40
1.0
 40
1.0
 10
37.4965803395638
 20
37.73970743005826
 30
0.0
 10
37.48653607174381
 20
37.79985686898826
 30
0.0
 10
37.45948384695381
 20
37.92736513739826
 30
0.0
 10
37.40101214122381
 20
38.11570444143826
 30
0.0
 10
37.3218203558938
 20
38.30044864204826
 30
0.0
 10
37.2260987298638
 20
38.46532871671825
 30
0.0
 10
37.1176001866938
 20
38.59877875761826
 30
0.0
 10
37.00146966939381
 20
38.69032992334826
 30
0.0
 10
36.8905133304438
 20
38.73054121109826
 30
0.0
 10
36.82098739312381
 20
38.72774943940826
 30
0.0
 10
36.79367026097381
 20
38.72184824057826
 30
0.0
  0
ARC
  5
1CA
330
1F
100
AcDbEntity
  8
IGES_LEVEL_0
 62
     7
100
AcDbCircle
 10
1235.934129701052
 20
237.9473513981696
 30
0.0
 40
1215.04553908414
100
AcDbArc
 50
189.4840930329514
 51
189.7290031845018
  0
SPLINE
  5
1CB
330
1F
100
AcDbEntity
  8
IGES_LEVEL_0
 62
     7
100
AcDbSpline
210
0.0
220
0.0
230
1.0
 70
     8
 71
     3
 72
    14
 73
    10
 74
     0
 42
0.0000000001
 43
0.0000000001
 40
0.0
 40
0.0
 40
0.0
 40
0.0
 40
0.06553684697934
 40
0.1715605378805
 40
0.2989391518959
 40
0.4570995303157
 40
0.6398452283324
 40
0.8365894933672
 40
1.0
 40
1.0
 40
1.0
 40
1.0
 10
38.13360245955381
 20
31.65728564950826
 30
0.0
 10
38.15602938106381
 20
31.66347819386826
 30
0.0
 10
38.21258583387381
 20
31.68910812739826
 30
0.0
 10
38.2870439956238
 20
31.76718955678826
 30
0.0
 10
38.3463489722238
 20
31.89348166695826
 30
0.0
 10
38.38346236095381
 20
32.05513240302826
 30
0.0
 10
38.3977299396138
 20
32.24460262207825
 30
0.0
 10
38.3897510709538
 20
32.43609933105826
 30
0.0
 10
38.37304382573381
 20
32.56208109365826
 30
0.0
 10
38.36330923290381
 20
32.61884903624826
 30
0.0
  0
LINE
  5
1CC
330
1F
100
AcDbEntity
  8
IGES_LEVEL_0
 62
     7
100
AcDbLine
 10
38.3689936960938
 20
32.58408668898826
 30
0.0
 11
38.3633107509138
 21
32.61884868024826
 31
0.0
  0
ARC
  5
1CD
330
1F
100
AcDbEntity
  8
IGES_LEVEL_0
 62
     7
100
AcDbCircle
 10
34.25320569184335
 20
1.429594936036177
 30
0.0
 40
1.423849374873275
100
AcDbArc
 50
255.6864822895639
 51
265.2405901552017
  0
LINE
  5
1CE
330
1F
100
AcDbEntity
  8
IGES_LEVEL_0
 62
     7
100
AcDbLine
 10
33.90000101034381
 20
0.0502504024882565
 30
0.0
 11
33.9011907934938
 21
0.0499455045982579
 31
0.0
  0
LINE
  5
1CF
330
1F
100
AcDbEntity
  8
IGES_LEVEL_0
 62
     7
100
AcDbLine
 10
34.7066674944538
 20
0.0832163698282574
 30
0.0
 11
34.7078127564338
 21
0.0836139548182565
 31
0.0
  0
ARC
  5
1D0
330
1F
100
AcDbEntity
  8
IGES_LEVEL_0
 62
     7
100
AcDbCircle
 10
34.24877804239671
 20
1.402562435129855
 30
0.0
 40
1.396544589453541
100
AcDbArc
 50
265.3312218943717
 51
289.1397341512949
  0
SPLINE
  5
1D1
330
1F
100
AcDbEntity
  8
IGES_LEVEL_0
 62
     7
100
AcDbSpline
210
0.0
220
0.0
230
1.0
 70
     8
 71
     3
 72
    19
 73
    15
 74
     0
 42
0.0000000001
 43
0.0000000001
 40
0.0
 40
0.0
 40
0.0
 40
0.0
 40
0.03070176962959
 40
0.1116949815658
 40
0.180829167673
 40
0.2442795293547
 40
0.3090252169199
 40
0.3821627579656
 40
0.4633596205304
 40
0.5469619908295
 40
0.6582804305382
 40
0.746583056582
 40
0.8593398829993
 40
1.0
 40
1.0
 40
1.0
 40
1.0
 10
34.8449227038838
 20
1.105636118028258
 30
0.0
 10
34.84593297752381
 20
1.105245325338258
 30
0.0
 10
34.8496034371338
 20
1.103810718918258
 30
0.0
 10
34.8555123234238
 20
1.101402860218258
 30
0.0
 10
34.8624018303038
 20
1.098346829958257
 30
0.0
 10
34.86864346814381
 20
1.095256209208257
 30
0.0
 10
34.8748106021338
 20
1.091719246598258
 30
0.0
 10
34.8811616727838
 20
1.087289914878257
 30
0.0
 10
34.88745553140381
 20
1.081698215598257
 30
0.0
 10
34.89381921711381
 20
1.074283269288257
 30
0.0
 10
34.89902397292381
 20
1.065675980428257
 30
0.0
 10
34.9030381733538
 20
1.055368675918258
 30
0.0
 10
34.9054145091038
 20
1.043474840408257
 30
0.0
 10
34.9051922389338
 20
1.034425947638257
 30
0.0
 10
34.9044627669738
 20
1.029517145078258
 30
0.0
  0
LINE
  5
1D2
330
1F
100
AcDbEntity
  8
IGES_LEVEL_0
 62
     7
100
AcDbLine
 10
34.8384576551238
 20
1.108086617228257
 30
0.0
 11
34.8449227038838
 21
1.105636118028258
 31
0.0
  0
ARC
  5
1D3
330
1F
100
AcDbEntity
  8
IGES_LEVEL_0
 62
     7
100
AcDbCircle
 10
33.41783749542189
 20
-3.108357647939542
 30
0.0
 40
4.449332970167317
100
AcDbArc
 50
71.3801075350532
 51
75.40527961763857
  0
SPLINE
  5
1D4
330
1F
100
AcDbEntity
  8
IGES_LEVEL_0
 62
     7
100
AcDbSpline
210
0.0
220
0.0
230
1.0
 70
     8
 71
     3
 72
    20
 73
    16
 74
     0
 42
0.0000000001
 43
0.0000000001
 40
0.0
 40
0.0
 40
0.0
 40
0.0
 40
0.05292267451186
 40
0.1323031046609
 40
0.2026595224031
 40
0.2656567944833
 40
0.3239055392536
 40
0.3820664883922
 40
0.445648292436
 40
0.5230341676007
 40
0.6190031870016
 40
0.7288375944771
 40
0.8491253534622
 40
0.9804765075092
 40
1.0
 40
1.0
 40
1.0
 40
1.0
 10
34.2349239683338
 20
1.270483459408258
 30
0.0
 10
34.2329973852838
 20
1.270833370098258
 30
0.0
 10
34.2281779933238
 20
1.271691223148258
 30
0.0
 10
34.22078220036381
 20
1.272927952928257
 30
0.0
 10
34.21299790118381
 20
1.274095863358257
 30
0.0
 10
34.20596523171381
 20
1.274994422518257
 30
0.0
 10
34.1993575844838
 20
1.275640649768257
 30
0.0
 10
34.1927053327238
 20
1.276007199398258
 30
0.0
 10
34.1853307725438
 20
1.275937124778258
 30
0.0
 10
34.1765956982638
 20
1.274984944798258
 30
0.0
 10
34.1664009210438
 20
1.272367127148258
 30
0.0
 10
34.1553763798338
 20
1.267277061498258
 30
0.0
 10
34.1445658123638
 20
1.259219657188258
 30
0.0
 10
34.1380362453738
 20
1.251483351318257
 30
0.0
 10
34.1350503550938
 20
1.246740848218258
 30
0.0
 10
34.1346750488938
 20
1.246120333808257
 30
0.0
  0
ARC
  5
1D5
330
1F
100
AcDbEntity
  8
IGES_LEVEL_0
 62
     7
100
AcDbCircle
 10
33.24565956258724
 20
-3.514694054949735
 30
0.0
 40
4.886365511133448
100
AcDbArc
 50
74.65207891952386
 51
78.3194989725656
  0
LINE
  5
1D6
330
1F
100
AcDbEntity
  8
IGES_LEVEL_0
 62
     7
100
AcDbLine
 10
34.09740844045381
 20
1.178734656568257
 30
0.0
 11
33.77421711066381
 21
0.326031834348257
 31
0.0
  0
LINE
  5
1D7
330
1F
100
AcDbEntity
  8
IGES_LEVEL_0
 62
     7
100
AcDbLine
 10
34.0986512625338
 20
1.181926125218258
 30
0.0
 11
34.09740844045381
 21
1.178734656568257
 31
0.0
  0
LINE
  5
1D8
330
1F
100
AcDbEntity
  8
IGES_LEVEL_0
 62
     7
100
AcDbLine
 10
34.10676490951381
 20
1.200019675198258
 30
0.0
 11
34.0986512625338
 21
1.181926125218258
 31
0.0
  0
ARC
  5
1D9
330
1F
100
AcDbEntity
  8
IGES_LEVEL_0
 62
     7
100
AcDbCircle
 10
33.94881279029553
 20
0.2660915624064706
 30
0.0
 40
0.1845978663586632
100
AcDbArc
 50
161.0531862679228
 51
192.2643346361141
  0
ARC
  5
1DA
330
1F
100
AcDbEntity
  8
IGES_LEVEL_0
 62
     7
100
AcDbCircle
 10
33.86627828328249
 20
0.247428796439797
 30
0.0
 40
0.0999813373661483
100
AcDbArc
 50
191.8689931022142
 51
213.441085912251
  0
LINE
  5
1DB
330
1F
100
AcDbEntity
  8
IGES_LEVEL_0
 62
     7
100
AcDbLine
 10
34.77364964209381
 20
0.1536562797782576
 30
0.0
 11
34.77596860184381
 21
0.1648485611582572
 31
0.0
  0
ARC
  5
1DC
330
1F
100
AcDbEntity
  8
IGES_LEVEL_0
 62
     7
100
AcDbCircle
 10
34.67530746899971
 20
0.1801741914942951
 30
0.0
 40
0.1018536695115725
100
AcDbArc
 50
290.8900548137506
 51
344.7112315615545
  0
LINE
  5
1DD
330
1F
100
AcDbEntity
  8
IGES_LEVEL_0
 62
     7
100
AcDbLine
 10
34.7078304202138
 20
0.0836176643982579
 30
0.0
 11
34.71162602658381
 21
0.0850157322382582
 31
0.0
  0
ARC
  5
1DE
330
1F
100
AcDbEntity
  8
IGES_LEVEL_0
 62
     7
100
AcDbCircle
 10
33.85949657640925
 20
0.2221011241357633
 30
0.0
 40
0.0999864173072654
100
AcDbArc
 50
192.5487282560544
 51
218.4474330483778
  0
SPLINE
  5
1DF
330
1F
100
AcDbEntity
  8
IGES_LEVEL_0
 62
     7
100
AcDbSpline
210
0.0
220
0.0
230
1.0
 70
     8
 71
     3
 72
    24
 73
    20
 74
     0
 42
0.0000000001
 43
0.0000000001
 40
0.0
 40
0.0
 40
0.0
 40
0.0
 40
0.0782080763261
 40
0.1624739589173
 40
0.239272705796
 40
0.3089458547121
 40
0.3718999134701
 40
0.4286684764586
 40
0.4797866396549
 40
0.5260080812713001
 40
0.5683491512805
 40
0.6086032626506001
 40
0.6498644496162001
 40
0.6952472468026
 40
0.7489950398155
 40
0.8147004783353
 40
0.8950715853154
 40
0.9917527937758
 40
1.0
 40
1.0
 40
1.0
 40
1.0
 10
33.78119528403381
 20
0.1599216278782571
 30
0.0
 10
33.78386224634381
 20
0.1565629641582568
 30
0.0
 10
33.78941922878381
 20
0.1495985503782581
 30
0.0
 10
33.7976578787238
 20
0.1393862741182574
 30
0.0
 10
33.8056623293838
 20
0.1295866995682577
 30
0.0
 10
33.81298511201381
 20
0.1207396404382578
 30
0.0
 10
33.8196646952138
 20
0.1127863889082569
 30
0.0
 10
33.8257477554338
 20
0.1056612792582573
 30
0.0
 10
33.83129579833381
 20
0.0992863519682569
 30
0.0
 10
33.8363906538838
 20
0.0935664437182581
 30
0.0
 10
33.8411653533638
 20
0.0883600541182567
 30
0.0
 10
33.8458501529038
 20
0.0834416263082577
 30
0.0
 10
33.8507858608038
 20
0.0785344526282582
 30
0.0
 10
33.8564645912538
 20
0.0733316703582577
 30
0.0
 10
33.86349217481381
 20
0.0676344455082582
 30
0.0
 10
33.8725736214238
 20
0.0614717239982582
 30
0.0
 10
33.8843892835238
 20
0.0552610264082571
 30
0.0
 10
33.8939941389938
 20
0.0518305650982573
 30
0.0
 10
33.89956761845381
 20
0.0503608451982579
 30
0.0
 10
33.90000646767381
 20
0.0502482581582576
 30
0.0
  0
LINE
  5
1E0
330
1F
100
AcDbEntity
  8
IGES_LEVEL_0
 62
     7
100
AcDbLine
 10
33.7828379794738
 20
0.1923459603082577
 30
0.0
 11
33.8323257943638
 21
0.113634000208258
 31
0.0
  0
ARC
  5
1E1
330
1F
100
AcDbEntity
  8
IGES_LEVEL_0
 62
     7
100
AcDbCircle
 10
33.94005941338288
 20
0.2408680888515558
 30
0.0
 40
0.1827086474692125
100
AcDbArc
 50
161.3159520864663
 51
192.7973929553019
  0
ARC
  5
1E2
330
1F
100
AcDbEntity
  8
IGES_LEVEL_0
 62
     7
100
AcDbCircle
 10
55.60055165890525
 20
1.524785033773805
 30
0.0
 40
1.500000266766065
100
AcDbArc
 50
256.1701626126865
 51
272.8725366151568
  0
ARC
  5
1E3
330
1F
100
AcDbEntity
  8
IGES_LEVEL_0
 62
     7
100
AcDbCircle
 10
55.60055159422166
 20
1.524784961376917
 30
0.0
 40
1.500000197701717
100
AcDbArc
 50
272.8725392213669
 51
289.6068886253816
  0
ARC
  5
1E4
330
1F
100
AcDbEntity
  8
IGES_LEVEL_0
 62
     7
100
AcDbCircle
 10
56.08271806369052
 20
0.1821984517416624
 30
0.0
 40
0.0735530602309267
100
AcDbArc
 50
286.7382035030392
 51
7.469177449388008
  0
ARC
  5
1E5
330
1F
100
AcDbEntity
  8
IGES_LEVEL_0
 62
     7
100
AcDbCircle
 10
55.25599375601596
 20
0.1404929907675871
 30
0.0
 40
0.0735681263469433
100
AcDbArc
 50
178.3052739423025
 51
259.0453557324446
  0
ARC
  5
1E6
330
1F
100
AcDbEntity
  8
IGES_LEVEL_0
 62
     7
100
AcDbCircle
 10
55.83166690705676
 20
-2.416587207275771
 30
0.0
 40
3.653655507981577
100
AcDbArc
 50
88.48865601501683
 51
93.3649833595904
  0
SPLINE
  5
1E7
330
1F
100
AcDbEntity
  8
IGES_LEVEL_0
 62
     7
100
AcDbSpline
210
0.0
220
0.0
230
1.0
 70
     8
 71
     3
 72
    14
 73
    10
 74
     0
 42
0.0000000001
 43
0.0000000001
 40
0.0
 40
0.0
 40
0.0
 40
0.0
 40
0.1790350616752
 40
0.3850446849425
 40
0.5564976706562
 40
0.6808061709202
 40
0.7840312790255
 40
0.8921830902920001
 40
1.0
 40
1.0
 40
1.0
 40
1.0
 10
56.0141429734938
 20
1.178780373458258
 30
0.0
 10
56.0131696855938
 20
1.185498165958258
 30
0.0
 10
56.0086485569638
 20
1.199708547788257
 30
0.0
 10
55.9953138031638
 20
1.216525607658257
 30
0.0
 10
55.97901420015381
 20
1.226692124898257
 30
0.0
 10
55.96463174689381
 20
1.231335508598257
 30
0.0
 10
55.95216599059381
 20
1.233590507958257
 30
0.0
 10
55.9402056204738
 20
1.234931194518258
 30
0.0
 10
55.9320873334938
 20
1.235539810868258
 30
0.0
 10
55.9280315955038
 20
1.235797276568258
 30
0.0
  0
SPLINE
  5
1E8
330
1F
100
AcDbEntity
  8
IGES_LEVEL_0
 62
     7
100
AcDbSpline
210
0.0
220
0.0
230
1.0
 70
     8
 71
     3
 72
    15
 73
    11
 74
     0
 42
0.0000000001
 43
0.0000000001
 40
0.0
 40
0.0
 40
0.0
 40
0.0
 40
0.0430020497928
 40
0.1688901804738
 40
0.2791643298607
 40
0.3994869309504
 40
0.5570810214412
 40
0.7568446340022
 40
0.989262878305
 40
1.0
 40
1.0
 40
1.0
 40
1.0
 10
55.3038246998938
 20
1.204301519898257
 30
0.0
 10
55.3022255565538
 20
1.204036094598257
 30
0.0
 10
55.29594974313381
 20
1.202964445458257
 30
0.0
 10
55.28561293690381
 20
1.200976679668257
 30
0.0
 10
55.27256831293381
 20
1.197705787578258
 30
0.0
 10
55.2587993108338
 20
1.192599711328257
 30
0.0
 10
55.24344989096381
 20
1.182781031488258
 30
0.0
 10
55.2291357217238
 20
1.165108429468257
 30
0.0
 10
55.22436898649381
 20
1.148564628258257
 30
0.0
 10
55.2239004992638
 20
1.139319357708257
 30
0.0
 10
55.2238839819638
 20
1.138910887678258
 30
0.0
  0
ARC
  5
1E9
330
1F
100
AcDbEntity
  8
IGES_LEVEL_0
 62
     7
100
AcDbCircle
 10
55.77036831647509
 20
-2.451234661520294
 30
0.0
 40
3.685187609855551
100
AcDbArc
 50
92.38191445759694
 51
97.27314537116109
  0
ARC
  5
1EA
330
1F
100
AcDbEntity
  8
IGES_LEVEL_0
 62
     7
100
AcDbCircle
 10
34.24872619504664
 20
1.40278701955836
 30
0.0
 40
1.396773758811876
100
AcDbArc
 50
265.4302553428981
 51
289.138722847129
  0
ARC
  5
1EB
330
1F
100
AcDbEntity
  8
IGES_LEVEL_0
 62
     7
100
AcDbCircle
 10
34.25320460886114
 20
1.429587659291545
 30
0.0
 40
1.423842031123623
100
AcDbArc
 50
255.6847890975798
 51
265.2406123593834
  0
LINE
  5
1EC
330
1F
100
AcDbEntity
  8
IGES_LEVEL_0
 62
     7
100
AcDbLine
 10
33.90000101034381
 20
0.0502504024882565
 30
0.0
 11
33.90115075536381
 21
0.0499557468482571
 31
0.0
  0
LINE
  5
1ED
330
1F
100
AcDbEntity
  8
IGES_LEVEL_0
 62
     7
100
AcDbLine
 10
34.13583065807381
 20
1.247955903198257
 30
0.0
 11
34.1346750422338
 21
1.246120368888257
 31
0.0
  0
LINE
  5
1EE
330
1F
100
AcDbEntity
  8
IGES_LEVEL_0
 62
     7
100
AcDbLine
 10
34.2349239736238
 20
1.270483457648258
 30
0.0
 11
34.2057571382238
 21
1.274984414808257
 31
0.0
  0
LINE
  5
1EF
330
1F
100
AcDbEntity
  8
IGES_LEVEL_0
 62
     7
100
AcDbLine
 10
33.7759677720838
 20
0.330605245718257
 30
0.0
 11
33.77421069187381
 21
0.3260150505282574
 31
0.0
  0
LINE
  5
1F0
330
1F
100
AcDbEntity
  8
IGES_LEVEL_0
 62
     7
100
AcDbLine
 10
34.0974083698138
 20
1.178734684038258
 30
0.0
 11
33.7759677720838
 21
0.330605245718257
 31
0.0
  0
LINE
  5
1F1
330
1F
100
AcDbEntity
  8
IGES_LEVEL_0
 62
     7
100
AcDbLine
 10
34.0990461873538
 20
1.182937580218257
 30
0.0
 11
34.0986125737138
 21
1.181826756238257
 31
0.0
  0
LINE
  5
1F2
330
1F
100
AcDbEntity
  8
IGES_LEVEL_0
 62
     7
100
AcDbLine
 10
34.10146196845381
 20
1.189072052178258
 30
0.0
 11
34.0990461873538
 21
1.182937580218257
 31
0.0
  0
LINE
  5
1F3
330
1F
100
AcDbEntity
  8
IGES_LEVEL_0
 62
     7
100
AcDbLine
 10
34.1067629923838
 20
1.200016677038257
 30
0.0
 11
34.10146196845381
 21
1.189072052178258
 31
0.0
  0
LINE
  5
1F4
330
1F
100
AcDbEntity
  8
IGES_LEVEL_0
 62
     7
100
AcDbLine
 10
33.75753145202381
 20
0.235830067858258
 30
0.0
 11
33.7577410566638
 21
0.2310801780582569
 31
0.0
  0
LINE
  5
1F5
330
1F
100
AcDbEntity
  8
IGES_LEVEL_0
 62
     7
100
AcDbLine
 10
33.7586515317638
 20
0.2638749966082571
 30
0.0
 11
33.75753145202381
 21
0.235830067858258
 31
0.0
  0
LINE
  5
1F6
330
1F
100
AcDbEntity
  8
IGES_LEVEL_0
 62
     7
100
AcDbLine
 10
33.7595148078038
 20
0.2702739246882565
 30
0.0
 11
33.7586515317638
 21
0.2638749966082571
 31
0.0
  0
LINE
  5
1F7
330
1F
100
AcDbEntity
  8
IGES_LEVEL_0
 62
     7
100
AcDbLine
 10
33.75991468662381
 20
0.2727408952982579
 30
0.0
 11
33.7595148078038
 21
0.2702739246882565
 31
0.0
  0
LINE
  5
1F8
330
1F
100
AcDbEntity
  8
IGES_LEVEL_0
 62
     7
100
AcDbLine
 10
33.78119509680381
 20
0.1599219433082574
 30
0.0
 11
33.7821019954938
 21
0.1587804636382572
 31
0.0
  0
LINE
  5
1F9
330
1F
100
AcDbEntity
  8
IGES_LEVEL_0
 62
     7
100
AcDbLine
 10
33.76713163783381
 20
0.300269258208257
 30
0.0
 11
33.7669770297038
 21
0.299400782078257
 31
0.0
  0
LINE
  5
1FA
330
1F
100
AcDbEntity
  8
IGES_LEVEL_0
 62
     7
100
AcDbLine
 10
33.7674808289238
 20
0.3021371818482578
 30
0.0
 11
33.76713163783381
 21
0.300269258208257
 31
0.0
  0
LINE
  5
1FB
330
1F
100
AcDbEntity
  8
IGES_LEVEL_0
 62
     7
100
AcDbLine
 10
33.77421007941381
 20
0.3260117730782571
 30
0.0
 11
33.7674808289238
 21
0.3021371818482578
 31
0.0
  0
LINE
  5
1FC
330
1F
100
AcDbEntity
  8
IGES_LEVEL_0
 62
     7
100
AcDbLine
 10
56.15636281964381
 20
0.1822556707882569
 30
0.0
 11
56.15564597597381
 21
0.1917741184682566
 31
0.0
  0
SPLINE
  5
1FD
330
1F
100
AcDbEntity
  8
IGES_LEVEL_0
 62
     7
100
AcDbSpline
210
0.0
220
0.0
230
1.0
 70
     8
 71
     3
 72
    14
 73
    10
 74
     0
 42
0.0000000001
 43
0.0000000001
 40
0.0
 40
0.0
 40
0.0
 40
0.0
 40
0.06595618639965
 40
0.1870026257211
 40
0.2967107066134
 40
0.4196503467609
 40
0.5920755486012
 40
0.8074390146809
 40
1.0
 40
1.0
 40
1.0
 40
1.0
 10
55.3038242542738
 20
1.204301456518258
 30
0.0
 10
55.3014238990938
 20
1.203903294898258
 30
0.0
 10
55.2946262764138
 20
1.202726402978258
 30
0.0
 10
55.2838881866138
 20
1.200589176018257
 30
0.0
 10
55.2712503190538
 20
1.197297221458257
 30
0.0
 10
55.25726467965381
 20
1.191877280298258
 30
0.0
 10
55.2414686893838
 20
1.181117635908257
 30
0.0
 10
55.2285359068638
 20
1.163403777448258
 30
0.0
 10
55.22462277860381
 20
1.148414884188258
 30
0.0
 10
55.22403493248381
 20
1.141297865338258
 30
0.0
  0
LINE
  5
1FE
330
1F
100
AcDbEntity
  8
IGES_LEVEL_0
 62
     7
100
AcDbLine
 10
19.5731452446638
 20
37.85476726307826
 30
0.0
 11
19.5731409837238
 21
37.85491387063826
 31
0.0
  0
SPLINE
  5
1FF
330
1F
100
AcDbEntity
  8
IGES_LEVEL_0
 62
     7
100
AcDbSpline
210
0.0
220
0.0
230
1.0
 70
     8
 71
     3
 72
    13
 73
     9
 74
     0
 42
0.0000000001
 43
0.0000000001
 40
0.0
 40
0.0
 40
0.0
 40
0.0
 40
0.07082831415375
 40
0.2864691708136
 40
0.5027460262692
 40
0.7178715071951
 40
0.9257787893704
 40
1.0
 40
1.0
 40
1.0
 40
1.0
 10
2.760467744974802
 20
25.21601794803826
 30
0.0
 10
2.767015537368802
 20
25.20803270587826
 30
0.0
 10
2.791733171607802
 20
25.17428193657826
 30
0.0
 10
2.822550609107802
 20
25.10713388274826
 30
0.0
 10
2.838868871266802
 20
25.01368373043826
 30
0.0
 10
2.831738555838802
 20
24.92015219025826
 30
0.0
 10
2.807067311875802
 20
24.85130857713826
 30
0.0
 10
2.785527897773802
 20
24.81621215839826
 30
0.0
 10
2.779367199661802
 20
24.80732237564826
 30
0.0
  0
LINE
  5
200
330
1F
100
AcDbEntity
  8
IGES_LEVEL_0
 62
     7
100
AcDbLine
 10
2.751624467813802
 20
25.22628377437826
 30
0.0
 11
2.760467744974802
 21
25.21601794803826
 31
0.0
  0
LINE
  5
201
330
1F
100
AcDbEntity
  8
IGES_LEVEL_0
 62
     7
100
AcDbLine
 10
2.739719720530802
 20
25.23861408482826
 30
0.0
 11
2.751624467813802
 21
25.22628377437826
 31
0.0
  0
LINE
  5
202
330
1F
100
AcDbEntity
  8
IGES_LEVEL_0
 62
     7
100
AcDbLine
 10
2.716365023509802
 20
25.25863535178826
 30
0.0
 11
2.739719720530802
 21
25.23861408482826
 31
0.0
  0
LINE
  5
203
330
1F
100
AcDbEntity
  8
IGES_LEVEL_0
 62
     7
100
AcDbLine
 10
2.698391238937802
 20
25.27091189546826
 30
0.0
 11
2.716365023509802
 21
25.25863535178826
 31
0.0
  0
SPLINE
  5
204
330
1F
100
AcDbEntity
  8
IGES_LEVEL_0
 62
     7
100
AcDbSpline
210
0.0
220
0.0
230
1.0
 70
     8
 71
     3
 72
    16
 73
    12
 74
     0
 42
0.0000000001
 43
0.0000000001
 40
0.0
 40
0.0
 40
0.0
 40
0.0
 40
0.03801353359638
 40
0.1589103254514
 40
0.2920758814205
 40
0.4234067964712
 40
0.5481022051166
 40
0.6641516996632
 40
0.7742727847898
 40
0.8776101197243
 40
1.0
 40
1.0
 40
1.0
 40
1.0
 10
20.1223614018538
 20
6.699927608571257
 30
0.0
 10
20.1287516599138
 20
6.700124531777257
 30
0.0
 10
20.1564374247238
 20
6.704869681734257
 30
0.0
 10
20.1979667554738
 20
6.722814795791257
 30
0.0
 10
20.2516041125138
 20
6.755094215122257
 30
0.0
 10
20.3015256743638
 20
6.792138454206257
 30
0.0
 10
20.3475702307638
 20
6.830717909871257
 30
0.0
 10
20.3860951520838
 20
6.870318374431257
 30
0.0
 10
20.4253621704638
 20
6.910710859002257
 30
0.0
 10
20.4168956231238
 20
6.970794036394257
 30
0.0
 10
20.3895425971238
 20
6.995836525635257
 30
0.0
 10
20.3763212419338
 20
7.010331346229257
 30
0.0
  0
ARC
  5
205
330
1F
100
AcDbEntity
  8
IGES_LEVEL_0
 62
     7
100
AcDbCircle
 10
6.084797466833556
 20
1.899084219663254
 30
0.0
 40
7.336725043166736
100
AcDbArc
 50
133.1422664827619
 51
135.8399285676885
  0
SPLINE
  5
206
330
1F
100
AcDbEntity
  8
IGES_LEVEL_0
 62
     7
100
AcDbSpline
210
0.0
220
0.0
230
1.0
 70
     8
 71
     3
 72
    10
 73
     6
 74
     0
 42
0.0000000001
 43
0.0000000001
 40
0.0
 40
0.0
 40
0.0
 40
0.0
 40
0.1287455363637
 40
0.5015969050544
 40
1.0
 40
1.0
 40
1.0
 40
1.0
 10
1.140469645765802
 20
7.320212907339257
 30
0.0
 10
1.142582071193802
 20
7.324012189834257
 30
0.0
 10
1.117404320349802
 20
7.297470825153257
 30
0.0
 10
1.104584572298802
 20
7.288129516126257
 30
0.0
 10
1.080510717441802
 20
7.264574979116257
 30
0.0
 10
1.067855223077802
 20
7.252384592503257
 30
0.0
  0
ARC
  5
207
330
1F
100
AcDbEntity
  8
IGES_LEVEL_0
 62
     7
100
AcDbCircle
 10
17.41953533010615
 20
24.34376739137989
 30
0.0
 40
0.3204318387382813
100
AcDbArc
 50
262.9238832014874
 51
281.3082587801704
  0
ARC
  5
208
330
1F
100
AcDbEntity
  8
IGES_LEVEL_0
 62
     7
100
AcDbCircle
 10
17.41992062505158
 20
24.34086012057915
 30
0.0
 40
0.3175055152114811
100
AcDbArc
 50
281.3429540587282
 51
298.3711763690075
  0
ARC
  5
209
330
1F
100
AcDbEntity
  8
IGES_LEVEL_0
 62
     7
100
AcDbCircle
 10
18.62905779566023
 20
25.06229552724424
 30
0.0
 40
0.2456374740929068
100
AcDbArc
 50
122.6474319449306
 51
137.4084513501012
  0
LINE
  5
20A
330
1F
100
AcDbEntity
  8
IGES_LEVEL_0
 62
     7
100
AcDbLine
 10
18.4371326934638
 20
25.21579424895826
 30
0.0
 11
18.4482202435638
 21
25.22853495827826
 31
0.0
  0
ARC
  5
20B
330
1F
100
AcDbEntity
  8
IGES_LEVEL_0
 62
     7
100
AcDbCircle
 10
18.72169373988125
 20
24.99644520877504
 30
0.0
 40
0.3592895636773947
100
AcDbArc
 50
142.3737789616259
 51
202.0515237146548
  0
ARC
  5
20C
330
1F
100
AcDbEntity
  8
IGES_LEVEL_0
 62
     7
100
AcDbCircle
 10
18.66413150630676
 20
24.97728762784609
 30
0.0
 40
0.2987705479720205
100
AcDbArc
 50
202.7908321088685
 51
214.6790324080212
  0
SPLINE
  5
20D
330
1F
100
AcDbEntity
  8
IGES_LEVEL_0
 62
     7
100
AcDbSpline
210
0.0
220
0.0
230
1.0
 70
     8
 71
     3
 72
    11
 73
     7
 74
     0
 42
0.0000000001
 43
0.0000000001
 40
0.0
 40
0.0
 40
0.0
 40
0.0
 40
0.2355459758285
 40
0.5836336319996001
 40
0.8665049523941
 40
1.0
 40
1.0
 40
1.0
 40
1.0
 10
19.5550532077938
 20
7.211962346260257
 30
0.0
 10
19.5455281180438
 20
7.220746917977257
 30
0.0
 10
19.5218494777538
 20
7.242489942793257
 30
0.0
 10
19.4868039512338
 20
7.276274229721257
 30
0.0
 10
19.4538860982138
 20
7.298917393139258
 30
0.0
 10
19.4375550613938
 20
7.320326194474257
 30
0.0
 10
19.4301944558538
 20
7.320326194474257
 30
0.0
  0
SPLINE
  5
20E
330
1F
100
AcDbEntity
  8
IGES_LEVEL_0
 62
     7
100
AcDbSpline
210
0.0
220
0.0
230
1.0
 70
     8
 71
     3
 72
    18
 73
    14
 74
     0
 42
0.0000000001
 43
0.0000000001
 40
0.0
 40
0.0
 40
0.0
 40
0.0
 40
0.03480627196469
 40
0.1442456881218
 40
0.2526870014713
 40
0.3558686448174
 40
0.4500225898566
 40
0.5402857096755001
 40
0.6347388324913
 40
0.7358324352989
 40
0.845236011046
 40
0.9602478081612
 40
1.0
 40
1.0
 40
1.0
 40
1.0
 10
19.5795457568538
 20
6.838574303852257
 30
0.0
 10
19.5833255371038
 20
6.842791279923257
 30
0.0
 10
19.5990111578038
 20
6.860283366768258
 30
0.0
 10
19.6261203513738
 20
6.890726951882257
 30
0.0
 10
19.6609617821738
 20
6.929737338117257
 30
0.0
 10
19.6913834921838
 20
6.967745653970257
 30
0.0
 10
19.7230502485038
 20
7.005687668647257
 30
0.0
 10
19.7137087239038
 20
7.055257456308257
 30
0.0
 10
19.6808442733838
 20
7.088542534848257
 30
0.0
 10
19.6471553344638
 20
7.124495869364257
 30
0.0
 10
19.6091281850238
 20
7.161073700105257
 30
0.0
 10
19.5781316458038
 20
7.190641523073257
 30
0.0
 10
19.5597757343038
 20
7.207606967581257
 30
0.0
 10
19.5550532077938
 20
7.211962346260257
 30
0.0
  0
SPLINE
  5
20F
330
1F
100
AcDbEntity
  8
IGES_LEVEL_0
 62
     7
100
AcDbSpline
210
0.0
220
0.0
230
1.0
 70
     8
 71
     3
 72
    12
 73
     8
 74
     0
 42
0.0000000001
 43
0.0000000001
 40
0.0
 40
0.0
 40
0.0
 40
0.0
 40
0.07597226645264
 40
0.2785840514882
 40
0.5402025280249
 40
0.8154002035851
 40
1.0
 40
1.0
 40
1.0
 40
1.0
 10
19.4620046558338
 20
6.700357857398257
 30
0.0
 10
19.4582963720238
 20
6.700861341769257
 30
0.0
 10
19.4822224338538
 20
6.724367459106257
 30
0.0
 10
19.4918073125838
 20
6.740871005394257
 30
0.0
 10
19.5259739291838
 20
6.778016864811257
 30
0.0
 10
19.5535538712538
 20
6.809557653741257
 30
0.0
 10
19.5720856108938
 20
6.830251265247257
 30
0.0
 10
19.5795457568538
 20
6.838574303852257
 30
0.0
  0
LINE
  5
210
330
1F
100
AcDbEntity
  8
IGES_LEVEL_0
 62
     7
100
AcDbLine
 10
3.636868805878802
 20
24.05637569188826
 30
0.0
 11
3.626861993148802
 21
24.06156002517826
 31
0.0
  0
LINE
  5
211
330
1F
100
AcDbEntity
  8
IGES_LEVEL_0
 62
     7
100
AcDbLine
 10
3.650033859867802
 20
24.05022252504826
 30
0.0
 11
3.636868805878802
 21
24.05637569188826
 31
0.0
  0
LINE
  5
212
330
1F
100
AcDbEntity
  8
IGES_LEVEL_0
 62
     7
100
AcDbLine
 10
3.681229811015802
 20
24.03841696875826
 30
0.0
 11
3.650033859867802
 21
24.05022252504826
 31
0.0
  0
LINE
  5
213
330
1F
100
AcDbEntity
  8
IGES_LEVEL_0
 62
     7
100
AcDbLine
 10
3.782561562226802
 20
24.02336232310826
 30
0.0
 11
3.747850598722802
 21
24.02478190284826
 31
0.0
  0
LINE
  5
214
330
1F
100
AcDbEntity
  8
IGES_LEVEL_0
 62
     7
100
AcDbLine
 10
3.817722336241802
 20
24.02577616218826
 30
0.0
 11
3.782561562226802
 21
24.02336232310826
 31
0.0
  0
LINE
  5
215
330
1F
100
AcDbEntity
  8
IGES_LEVEL_0
 62
     7
100
AcDbLine
 10
3.836276421241802
 20
24.02865572087826
 30
0.0
 11
3.817722336241802
 21
24.02577616218826
 31
0.0
  0
ARC
  5
216
330
1F
100
AcDbEntity
  8
IGES_LEVEL_0
 62
     7
100
AcDbCircle
 10
3.767757958068991
 20
24.37096640916311
 30
0.0
 40
0.3491008265667806
100
AcDbArc
 50
281.3189973165734
 51
330.0269620620546
  0
ARC
  5
217
330
1F
100
AcDbEntity
  8
IGES_LEVEL_0
 62
     7
100
AcDbCircle
 10
3.194462405129121
 20
24.69945913554266
 30
0.0
 40
1.009838349548703
100
AcDbArc
 50
330.1321424520007
 51
335.2654704863163
  0
ARC
  5
218
330
1F
100
AcDbEntity
  8
IGES_LEVEL_0
 62
     7
100
AcDbCircle
 10
4.127770182719344
 20
24.26660779741448
 30
0.0
 40
0.0191371268300951
100
AcDbArc
 50
107.2700779824254
 51
147.3651961735374
  0
ARC
  5
219
330
1F
100
AcDbEntity
  8
IGES_LEVEL_0
 62
     7
100
AcDbCircle
 10
17.07047950425408
 20
24.26674127189484
 30
0.0
 40
0.0186738019307524
100
AcDbArc
 50
33.05987363322739
 51
73.87681775958484
  0
SPLINE
  5
21A
330
1F
100
AcDbEntity
  8
IGES_LEVEL_0
 62
     7
100
AcDbSpline
210
0.0
220
0.0
230
1.0
 70
     8
 71
     3
 72
    13
 73
     9
 74
     0
 42
0.0000000001
 43
0.0000000001
 40
0.0
 40
0.0
 40
0.0
 40
0.0
 40
0.2196407767171
 40
0.4262035749743
 40
0.6133137449186
 40
0.7768033144521001
 40
0.9101237569118
 40
1.0
 40
1.0
 40
1.0
 40
1.0
 10
17.3800620298338
 20
24.02577616218826
 30
0.0
 10
17.3506190917138
 20
24.02945571309826
 30
0.0
 10
17.2941848777738
 20
24.04471628645826
 30
0.0
 10
17.2219323554038
 20
24.08689419645826
 30
0.0
 10
17.1668146544538
 20
24.13899353168826
 30
0.0
 10
17.1285769917038
 20
24.19240081530826
 30
0.0
 10
17.1041240470038
 20
24.23863190659826
 30
0.0
 10
17.0922656991538
 20
24.26645081927826
 30
0.0
 10
17.0861300357038
 20
24.27692811359826
 30
0.0
  0
SPLINE
  5
21B
330
1F
100
AcDbEntity
  8
IGES_LEVEL_0
 62
     7
100
AcDbSpline
210
0.0
220
0.0
230
1.0
 70
     8
 71
     3
 72
    10
 73
     6
 74
     0
 42
0.0000000001
 43
0.0000000001
 40
0.0
 40
0.0
 40
0.0
 40
0.0
 40
0.256071626961
 40
0.8059866899966
 40
1.0
 40
1.0
 40
1.0
 40
1.0
 10
20.1068393455138
 20
7.274594377383257
 30
0.0
 10
20.1025855870138
 20
7.278612464887257
 30
0.0
 10
20.0901166025538
 20
7.290150958221257
 30
0.0
 10
20.0811503932338
 20
7.296676901428257
 30
0.0
 10
20.0550794623638
 20
7.324219285120257
 30
0.0
 10
20.0573248606738
 20
7.320194691333257
 30
0.0
  0
ARC
  5
21C
330
1F
100
AcDbEntity
  8
IGES_LEVEL_0
 62
     7
100
AcDbCircle
 10
14.29634919090652
 20
1.079820859835488
 30
0.0
 40
8.493351209652131
100
AcDbArc
 50
44.28703323786458
 51
46.83338743262433
  0
SPLINE
  5
21D
330
1F
100
AcDbEntity
  8
IGES_LEVEL_0
 62
     7
100
AcDbSpline
210
0.0
220
0.0
230
1.0
 70
     8
 71
     3
 72
    21
 73
    17
 74
     0
 42
0.0000000001
 43
0.0000000001
 40
0.0
 40
0.0
 40
0.0
 40
0.0
 40
0.06971454499191
 40
0.1321283942172
 40
0.1897649157585
 40
0.2511301193364
 40
0.3167848421088
 40
0.38719619349
 40
0.4635866267608
 40
0.5459558417643
 40
0.6333995874346
 40
0.7247497973444
 40
0.8181469971681
 40
0.9096691306011
 40
0.991300560623
 40
1.0
 40
1.0
 40
1.0
 40
1.0
 10
0.8214582324788018
 20
7.010326188415257
 30
0.0
 10
0.8138770808268014
 20
7.002015242773257
 30
0.0
 10
0.7998568672038018
 20
6.985893928559257
 30
0.0
 10
0.781547600857802
 20
6.961454047353257
 30
0.0
 10
0.7718275789738018
 20
6.931989343191257
 30
0.0
 10
0.7843791912108018
 20
6.903052313832257
 30
0.0
 10
0.8039942695358016
 20
6.878219341596257
 30
0.0
 10
0.8275499819388021
 20
6.853163178945257
 30
0.0
 10
0.8544586231808018
 20
6.827809744756257
 30
0.0
 10
0.8846009321508013
 20
6.801898972688257
 30
0.0
 10
0.9177980277828017
 20
6.775920513713257
 30
0.0
 10
0.9538034736918015
 20
6.750704084078257
 30
0.0
 10
0.9919103992288014
 20
6.727573630506258
 30
0.0
 10
1.031127941877802
 20
6.709182056613257
 30
0.0
 10
1.058907529031802
 20
6.700776662154257
 30
0.0
 10
1.074244280222802
 20
6.700364183297257
 30
0.0
 10
1.075724436426802
 20
6.700367184060257
 30
0.0
  0
SPLINE
  5
21E
330
1F
100
AcDbEntity
  8
IGES_LEVEL_0
 62
     7
100
AcDbSpline
210
0.0
220
0.0
230
1.0
 70
     8
 71
     3
 72
    13
 73
     9
 74
     0
 42
0.0000000001
 43
0.0000000001
 40
0.0
 40
0.0
 40
0.0
 40
0.0
 40
0.1437037293482
 40
0.365039162421
 40
0.5868188299477
 40
0.7907099129917
 40
0.9448385241998
 40
1.0
 40
1.0
 40
1.0
 40
1.0
 10
1.612559347634802
 20
6.844899679640257
 30
0.0
 10
1.618594408867802
 20
6.838153284966257
 30
0.0
 10
1.633935022946802
 20
6.821006416532257
 30
0.0
 10
1.658860952938802
 20
6.793149841609257
 30
0.0
 10
1.684653465076802
 20
6.763523729869257
 30
0.0
 10
1.712403001748802
 20
6.732796847621257
 30
0.0
 10
1.720316777800802
 20
6.719695176773257
 30
0.0
 10
1.738362277405802
 20
6.700945098540257
 30
0.0
 10
1.735824247111802
 20
6.700379655630257
 30
0.0
  0
SPLINE
  5
21F
330
1F
100
AcDbEntity
  8
IGES_LEVEL_0
 62
     7
100
AcDbSpline
210
0.0
220
0.0
230
1.0
 70
     8
 71
     3
 72
    22
 73
    18
 74
     0
 42
0.0000000001
 43
0.0000000001
 40
0.0
 40
0.0
 40
0.0
 40
0.0
 40
0.08717781019901
 40
0.1689700790967
 40
0.2450770468447
 40
0.3160390975828
 40
0.3826939926378
 40
0.4440716084856
 40
0.5007798396949
 40
0.5549515033112
 40
0.614474968074
 40
0.6765645251585
 40
0.7421882387341
 40
0.8129864178716
 40
0.8894686748496
 40
0.9715172353113
 40
1.0
 40
1.0
 40
1.0
 40
1.0
 10
1.634084664056802
 20
7.204004704042257
 30
0.0
 10
1.624166071611802
 20
7.194728720728257
 30
0.0
 10
1.605003656591802
 20
7.176714431212257
 30
0.0
 10
1.577449900032802
 20
7.150312543547257
 30
0.0
 10
1.551996762981802
 20
7.125364344811257
 30
0.0
 10
1.528655839284802
 20
7.101672886873257
 30
0.0
 10
1.507560001928802
 20
7.078865990510257
 30
0.0
 10
1.489632543427802
 20
7.056636701025257
 30
0.0
 10
1.476173415058802
 20
7.032136791835257
 30
0.0
 10
1.480718481458802
 20
7.004367719403257
 30
0.0
 10
1.495726935509802
 20
6.981297212208257
 30
0.0
 10
1.513381554884802
 20
6.958118454902257
 30
0.0
 10
1.533280436576802
 20
6.934448673194257
 30
0.0
 10
1.555034254522802
 20
6.909437098457257
 30
0.0
 10
1.578725666429802
 20
6.882728650916257
 30
0.0
 10
1.598149476303802
 20
6.861008689803257
 30
0.0
 10
1.609606125115802
 20
6.848200989091257
 30
0.0
 10
1.612559347634802
 20
6.844899679640257
 30
0.0
  0
SPLINE
  5
220
330
1F
100
AcDbEntity
  8
IGES_LEVEL_0
 62
     7
100
AcDbSpline
210
0.0
220
0.0
230
1.0
 70
     8
 71
     3
 72
    12
 73
     8
 74
     0
 42
0.0000000001
 43
0.0000000001
 40
0.0
 40
0.0
 40
0.0
 40
0.0
 40
0.09595257403952
 40
0.2860846946771
 40
0.51814469254
 40
0.761221014789
 40
1.0
 40
1.0
 40
1.0
 40
1.0
 10
1.767589910217802
 20
7.320326194474257
 30
0.0
 10
1.761921550327802
 20
7.320326194474257
 30
0.0
 10
1.749587999454802
 20
7.304982023488257
 30
0.0
 10
1.725634216649802
 20
7.288485722763257
 30
0.0
 10
1.696529945863802
 20
7.261056940935257
 30
0.0
 10
1.665261986319802
 20
7.233057110251257
 30
0.0
 10
1.644392020771802
 20
7.213644264236257
 30
0.0
 10
1.634084664056802
 20
7.204004704042257
 30
0.0
  0
LINE
  5
221
330
1F
100
AcDbEntity
  8
IGES_LEVEL_0
 62
     7
100
AcDbLine
 10
2.518366425566802
 20
25.30977437497826
 30
0.0
 11
2.500198046512802
 21
25.30783457199826
 31
0.0
  0
SPLINE
  5
222
330
1F
100
AcDbEntity
  8
IGES_LEVEL_0
 62
     7
100
AcDbSpline
210
0.0
220
0.0
230
1.0
 70
     8
 71
     3
 72
    16
 73
    12
 74
     0
 42
0.0000000001
 43
0.0000000001
 40
0.0
 40
0.0
 40
0.0
 40
0.0
 40
0.00553843445468
 40
0.01804457067015
 40
0.05666498410994
 40
0.1220624658721
 40
0.2174920089992
 40
0.3478195527453
 40
0.5186883734218
 40
0.7354071543761001
 40
1.0
 40
1.0
 40
1.0
 40
1.0
 10
2.780693883693802
 20
24.81346865451826
 30
0.0
 10
2.781906809275802
 20
24.81547017798826
 30
0.0
 10
2.784411294479802
 20
24.81912828164826
 30
0.0
 10
2.768605835209802
 20
24.78119828494826
 30
0.0
 10
2.759814158612802
 20
24.73940551067826
 30
0.0
 10
2.735805408928802
 20
24.64073959732826
 30
0.0
 10
2.713297990527802
 20
24.50833575016826
 30
0.0
 10
2.685882076332802
 20
24.32145993899826
 30
0.0
 10
2.658186318588802
 20
24.07878330559826
 30
0.0
 10
2.630690557489802
 20
23.77154126289826
 30
0.0
 10
2.616109721793802
 20
23.54456409044826
 30
0.0
 10
2.609581918748802
 20
23.41968455011826
 30
0.0
  0
LINE
  5
223
330
1F
100
AcDbEntity
  8
IGES_LEVEL_0
 62
     7
100
AcDbLine
 10
4.199162061589802
 20
24.34325569316826
 30
0.0
 11
4.188350047081802
 21
24.28026858962826
 31
0.0
  0
LINE
  5
224
330
1F
100
AcDbEntity
  8
IGES_LEVEL_0
 62
     7
100
AcDbLine
 10
4.135972381974803
 20
25.56966624229826
 30
0.0
 11
4.145083715175803
 21
25.49188498124826
 31
0.0
  0
LINE
  5
225
330
1F
100
AcDbEntity
  8
IGES_LEVEL_0
 62
     7
100
AcDbLine
 10
16.9986223044838
 20
24.34325569316826
 30
0.0
 11
17.0094343188638
 21
24.28026859018826
 31
0.0
  0
LINE
  5
226
330
1F
100
AcDbEntity
  8
IGES_LEVEL_0
 62
     7
100
AcDbLine
 10
17.0618119840938
 20
25.56966624229826
 30
0.0
 11
17.0525839518938
 21
25.49086523114826
 31
0.0
  0
SPLINE
  5
227
330
1F
100
AcDbEntity
  8
IGES_LEVEL_0
 62
     7
100
AcDbSpline
210
0.0
220
0.0
230
1.0
 70
     8
 71
     3
 72
    16
 73
    12
 74
     0
 42
0.0000000001
 43
0.0000000001
 40
0.0
 40
0.0
 40
0.0
 40
0.0
 40
0.00553843445468
 40
0.01804457067015
 40
0.05666498410994
 40
0.1220624658721
 40
0.2174920089992
 40
0.3478195527453
 40
0.5186883734218
 40
0.7354071543761001
 40
1.0
 40
1.0
 40
1.0
 40
1.0
 10
18.4170904823738
 20
24.81346865451826
 30
0.0
 10
18.4158775567938
 20
24.81547017798826
 30
0.0
 10
18.4133730715938
 20
24.81912828164826
 30
0.0
 10
18.4291785308638
 20
24.78119828494826
 30
0.0
 10
18.4379702074538
 20
24.73940551067826
 30
0.0
 10
18.4619789571438
 20
24.64073959732826
 30
0.0
 10
18.4844863755438
 20
24.50833575016826
 30
0.0
 10
18.5119022897338
 20
24.32145993899826
 30
0.0
 10
18.5395980474838
 20
24.07878330559826
 30
0.0
 10
18.5670938085838
 20
23.77154126289826
 30
0.0
 10
18.5816746442738
 20
23.54456409044826
 30
0.0
 10
18.5882024473238
 20
23.41968455011826
 30
0.0
  0
LINE
  5
228
330
1F
100
AcDbEntity
  8
IGES_LEVEL_0
 62
     7
100
AcDbLine
 10
18.6839298318538
 20
25.30938668196826
 30
0.0
 11
18.6975863195538
 21
25.30783457199826
 31
0.0
  0
ARC
  5
229
330
1F
100
AcDbEntity
  8
IGES_LEVEL_0
 62
     7
100
AcDbCircle
 10
3.158945609627156
 20
22.3578402121026
 30
0.0
 40
2.019307281774394
100
AcDbArc
 50
93.11379685250937
 51
103.5284873094782
  0
ARC
  5
22A
330
1F
100
AcDbEntity
  8
IGES_LEVEL_0
 62
     7
100
AcDbCircle
 10
3.089773172092094
 20
22.45536501616549
 30
0.0
 40
1.898756707323178
100
AcDbArc
 50
124.0791172198977
 51
177.2091608089247
  0
ARC
  5
22B
330
1F
100
AcDbEntity
  8
IGES_LEVEL_0
 62
     7
100
AcDbCircle
 10
3.159844419042678
 20
22.35610398940133
 30
0.0
 40
1.396151661704063
100
AcDbArc
 50
83.59003608380546
 51
112.6217712066723
  0
ARC
  5
22C
330
1F
100
AcDbEntity
  8
IGES_LEVEL_0
 62
     7
100
AcDbCircle
 10
3.061284812882288
 20
22.4634695327362
 30
0.0
 40
1.24491972903077
100
AcDbArc
 50
151.8606053255095
 51
177.397373743552
  0
ARC
  5
22D
330
1F
100
AcDbEntity
  8
IGES_LEVEL_0
 62
     7
100
AcDbCircle
 10
10.60283241748986
 20
88.81460869867203
 30
0.0
 40
64.85196854666025
100
AcDbArc
 50
274.9096983211637
 51
275.7285608379609
  0
ARC
  5
22E
330
1F
100
AcDbEntity
  8
IGES_LEVEL_0
 62
     7
100
AcDbCircle
 10
10.59495194619359
 20
88.81460865886372
 30
0.0
 40
64.85196850681216
100
AcDbArc
 50
264.2714391606297
 51
265.090301538689
  0
ARC
  5
22F
330
1F
100
AcDbEntity
  8
IGES_LEVEL_0
 62
     7
100
AcDbCircle
 10
10.5988921830373
 20
88.8568457038653
 30
0.0
 40
65.51937793826468
100
AcDbArc
 50
263.6177716968236
 51
276.3822283031764
  0
ARC
  5
230
330
1F
100
AcDbEntity
  8
IGES_LEVEL_0
 62
     7
100
AcDbCircle
 10
18.10801096074533
 20
22.45536494175098
 30
0.0
 40
1.898756943901983
100
AcDbArc
 50
2.790841091225878
 51
55.92100980778283
  0
ARC
  5
231
330
1F
100
AcDbEntity
  8
IGES_LEVEL_0
 62
     7
100
AcDbCircle
 10
18.03884094289209
 20
22.35785067668046
 30
0.0
 40
2.019296614715963
100
AcDbArc
 50
76.47147798711798
 51
86.88603932550436
  0
ARC
  5
232
330
1F
100
AcDbEntity
  8
IGES_LEVEL_0
 62
     7
100
AcDbCircle
 10
18.13650155770799
 20
22.46347006196216
 30
0.0
 40
1.244917702551351
100
AcDbArc
 50
2.60260611381161
 51
28.13933661205258
  0
ARC
  5
233
330
1F
100
AcDbEntity
  8
IGES_LEVEL_0
 62
     7
100
AcDbCircle
 10
18.0379399441706
 20
22.35610427837283
 30
0.0
 40
1.396151374219629
100
AcDbArc
 50
67.37831831652981
 51
96.40996512345514
  0
SPLINE
  5
234
330
1F
100
AcDbEntity
  8
IGES_LEVEL_0
 62
     7
100
AcDbSpline
210
0.0
220
0.0
230
1.0
 70
     8
 71
     3
 72
    18
 73
    14
 74
     0
 42
0.0000000001
 43
0.0000000001
 40
0.0
 40
0.0
 40
0.0
 40
0.0
 40
0.01961761910772
 40
0.08257506828583
 40
0.1404675430374
 40
0.1912621679537
 40
0.2427326930698
 40
0.3045162384386
 40
0.3846277914942
 40
0.4900627058151
 40
0.6273384557499
 40
0.8019539272751
 40
1.0
 40
1.0
 40
1.0
 40
1.0
 10
2.500198046512802
 20
25.30783457199826
 30
0.0
 10
2.486974273140802
 20
25.30605427747826
 30
0.0
 10
2.431769725322802
 20
25.29521178702826
 30
0.0
 10
2.343998574124802
 20
25.25307074317826
 30
0.0
 10
2.261995536759802
 20
25.16814967946826
 30
0.0
 10
2.209681428187802
 20
25.07249076370826
 30
0.0
 10
2.172348991722802
 20
24.96779389529826
 30
0.0
 10
2.139552940710802
 20
24.84111583865826
 30
0.0
 10
2.107076008382802
 20
24.67698897038826
 30
0.0
 10
2.073736667373802
 20
24.46120738087826
 30
0.0
 10
2.039999920229802
 20
24.18098940303826
 30
0.0
 10
2.008701196628802
 20
23.83754912391826
 30
0.0
 10
1.992424853412802
 20
23.58604720178826
 30
0.0
 10
1.985434062025802
 20
23.45231050524826
 30
0.0
  0
SPLINE
  5
235
330
1F
100
AcDbEntity
  8
IGES_LEVEL_0
 62
     7
100
AcDbSpline
210
0.0
220
0.0
230
1.0
 70
     8
 71
     3
 72
    18
 73
    14
 74
     0
 42
0.0000000001
 43
0.0000000001
 40
0.0
 40
0.0
 40
0.0
 40
0.0
 40
0.01961761910772
 40
0.08257506828584
 40
0.1404675430374
 40
0.1912621679537
 40
0.2427326930698
 40
0.3045162384386
 40
0.3846277914942
 40
0.4900627058151
 40
0.6273384557499
 40
0.8019539272751
 40
1.0
 40
1.0
 40
1.0
 40
1.0
 10
18.6975863195538
 20
25.30783457199826
 30
0.0
 10
18.7108100929338
 20
25.30605427747826
 30
0.0
 10
18.7660146407438
 20
25.29521178702826
 30
0.0
 10
18.8537857919438
 20
25.25307074317826
 30
0.0
 10
18.9357888293138
 20
25.16814967946826
 30
0.0
 10
18.9881029378838
 20
25.07249076370826
 30
0.0
 10
19.0254353743438
 20
24.96779389529826
 30
0.0
 10
19.0582314253638
 20
24.84111583865826
 30
0.0
 10
19.0907083576838
 20
24.67698897038826
 30
0.0
 10
19.1240476986938
 20
24.46120738087826
 30
0.0
 10
19.1577844458438
 20
24.18098940303826
 30
0.0
 10
19.1890831694438
 20
23.83754912391826
 30
0.0
 10
19.2053595126538
 20
23.58604720178826
 30
0.0
 10
19.2123503040438
 20
23.45231050524826
 30
0.0
  0
SPLINE
  5
236
330
1F
100
AcDbEntity
  8
IGES_LEVEL_0
 62
     7
100
AcDbSpline
210
0.0
220
0.0
230
1.0
 70
     8
 71
     3
 72
    20
 73
    16
 74
     0
 42
0.0000000001
 43
0.0000000001
 40
0.0
 40
0.0
 40
0.0
 40
0.0
 40
0.05513917373704
 40
0.1200277218822
 40
0.1916900433131
 40
0.2698784535197
 40
0.3556808891814
 40
0.4502258186604
 40
0.5492295036796
 40
0.6438225095172
 40
0.729690170021
 40
0.807943817135
 40
0.8796639871119
 40
0.9446022192271
 40
1.0
 40
1.0
 40
1.0
 40
1.0
 10
17.8429516262538
 20
38.66551923281826
 30
0.0
 10
17.5771458022738
 20
38.64507260613826
 30
0.0
 10
16.9985697833538
 20
38.60012402888826
 30
0.0
 10
16.0740484478038
 20
38.53495602545826
 30
0.0
 10
15.0374988725468
 20
38.47523631556826
 30
0.0
 10
13.8992478453988
 20
38.42437523331826
 30
0.0
 10
12.6498047951568
 20
38.38601102529826
 30
0.0
 10
11.2992920772528
 20
38.36465573178825
 30
0.0
 10
9.906102181925801
 20
38.36459458475826
 30
0.0
 10
8.555039850762801
 20
38.38584402008826
 30
0.0
 10
7.304731006096803
 20
38.42413917757826
 30
0.0
 10
6.165566773233602
 20
38.47496178215826
 30
0.0
 10
5.128180068218902
 20
38.53467344095826
 30
0.0
 10
4.201888333272802
 20
38.59990420660826
 30
0.0
 10
3.621828347457802
 20
38.64499612439825
 30
0.0
 10
3.354774872172802
 20
38.66552563242826
 30
0.0
  0
LINE
  5
237
330
1F
100
AcDbEntity
  8
IGES_LEVEL_0
 62
     7
100
AcDbLine
 10
18.5650789694438
 20
38.72378219325826
 30
0.0
 11
17.8437212611338
 21
38.66558734363826
 31
0.0
  0
LINE
  5
238
330
1F
100
AcDbEntity
  8
IGES_LEVEL_0
 62
     7
100
AcDbLine
 10
3.354070775819802
 20
38.66558675800826
 30
0.0
 11
2.632705406470802
 21
38.72378219241826
 31
0.0
  0
SPLINE
  5
239
330
1F
100
AcDbEntity
  8
IGES_LEVEL_0
 62
     7
100
AcDbSpline
210
0.0
220
0.0
230
1.0
 70
     8
 71
     3
 72
    15
 73
    11
 74
     0
 42
0.0000000001
 43
0.0000000001
 40
0.0
 40
0.0
 40
0.0
 40
0.0
 40
0.07502996271619
 40
0.2055804330498
 40
0.3362174612895
 40
0.4675426220152
 40
0.6005699117448
 40
0.7366058528329
 40
0.876951444216
 40
1.0
 40
1.0
 40
1.0
 40
1.0
 10
19.5731309481438
 20
37.85491357819826
 30
0.0
 10
19.5720413644438
 20
37.89230073632826
 30
0.0
 10
19.5630263575638
 20
37.99464087964826
 30
0.0
 10
19.5205285253838
 20
38.15774055003826
 30
0.0
 10
19.4304473371638
 20
38.33287643985826
 30
0.0
 10
19.3026211532938
 20
38.48436834757826
 30
0.0
 10
19.1418967855938
 20
38.60490954563826
 30
0.0
 10
18.9543327015838
 20
38.68859990486826
 30
0.0
 10
18.7581341226238
 20
38.72855446433826
 30
0.0
 10
18.6261473577638
 20
38.72896490718826
 30
0.0
 10
18.5650838996038
 20
38.72377926758826
 30
0.0
  0
LINE
  5
23A
330
1F
100
AcDbEntity
  8
IGES_LEVEL_0
 62
     7
100
AcDbLine
 10
19.5734737690138
 20
37.83879028644826
 30
0.0
 11
19.5731452446638
 21
37.85476726307826
 31
0.0
  0
LINE
  5
23B
330
1F
100
AcDbEntity
  8
IGES_LEVEL_0
 62
     7
100
AcDbLine
 10
19.5735442337638
 20
37.82701949442826
 30
0.0
 11
19.5734737690138
 21
37.83879028644826
 31
0.0
  0
SPLINE
  5
23C
330
1F
100
AcDbEntity
  8
IGES_LEVEL_0
 62
     7
100
AcDbSpline
210
0.0
220
0.0
230
1.0
 70
     8
 71
     3
 72
    15
 73
    11
 74
     0
 42
0.0000000001
 43
0.0000000001
 40
0.0
 40
0.0
 40
0.0
 40
0.0
 40
0.1216800870614
 40
0.2627638941799
 40
0.3995019335028
 40
0.5332015828310001
 40
0.6651802664145
 40
0.7964606298234001
 40
0.9276493310042
 40
1.0
 40
1.0
 40
1.0
 40
1.0
 10
2.632700012394802
 20
38.72377768105826
 30
0.0
 10
2.572506688914802
 20
38.72888875357825
 30
0.0
 10
2.441278845775802
 20
38.72864969721826
 30
0.0
 10
2.245578282759802
 20
38.68930333504826
 30
0.0
 10
2.057468923002802
 20
38.60586611322826
 30
0.0
 10
1.896225299475802
 20
38.48540373189826
 30
0.0
 10
1.767947654761802
 20
38.33383745714826
 30
0.0
 10
1.677519578179802
 20
38.15850327213826
 30
0.0
 10
1.635219693139802
 20
37.99663301835826
 30
0.0
 10
1.626037582470802
 20
37.89567793419825
 30
0.0
 10
1.624808031633802
 20
37.85974619562825
 30
0.0
  0
LINE
  5
23D
330
1F
100
AcDbEntity
  8
IGES_LEVEL_0
 62
     7
100
AcDbLine
 10
1.624789761436802
 20
37.85957319464826
 30
0.0
 11
1.624239236553802
 21
37.82706168548826
 31
0.0
  0
LINE
  5
23E
330
1F
100
AcDbEntity
  8
IGES_LEVEL_0
 62
     7
100
AcDbLine
 10
18.9535384616238
 20
32.59036424420826
 30
0.0
 11
19.5666059128438
 21
37.70465365884826
 31
0.0
  0
LINE
  5
23F
330
1F
100
AcDbEntity
  8
IGES_LEVEL_0
 62
     7
100
AcDbLine
 10
18.9526234871738
 20
32.58273501989826
 30
0.0
 11
18.9535384616238
 21
32.59036424420826
 31
0.0
  0
LINE
  5
240
330
1F
100
AcDbEntity
  8
IGES_LEVEL_0
 62
     7
100
AcDbLine
 10
18.9489077980838
 20
32.55512157703826
 30
0.0
 11
18.9526190915738
 21
32.58273448517826
 31
0.0
  0
SPLINE
  5
241
330
1F
100
AcDbEntity
  8
IGES_LEVEL_0
 62
     7
100
AcDbSpline
210
0.0
220
0.0
230
1.0
 70
     8
 71
     3
 72
    14
 73
    10
 74
     0
 42
0.0000000001
 43
0.0000000001
 40
0.0
 40
0.0
 40
0.0
 40
0.0
 40
0.1072752276073
 40
0.2687240843471
 40
0.4301933613878
 40
0.590511605541
 40
0.7481386355088
 40
0.9012554352034
 40
1.0
 40
1.0
 40
1.0
 40
1.0
 10
18.0074623150038
 20
31.64850674907826
 30
0.0
 10
18.0572452613838
 20
31.65439506081826
 30
0.0
 10
18.1810478449238
 20
31.67825339717826
 30
0.0
 10
18.3695365895238
 20
31.75108875855826
 30
0.0
 10
18.5600357173638
 20
31.87455751931826
 30
0.0
 10
18.7204380950938
 20
32.03255707525826
 30
0.0
 10
18.8437860730938
 20
32.21624219938826
 30
0.0
 10
18.9166991872938
 20
32.39415949717826
 30
0.0
 10
18.9421213650538
 20
32.50949060059826
 30
0.0
 10
18.9489077980838
 20
32.55512157703826
 30
0.0
  0
LINE
  5
242
330
1F
100
AcDbEntity
  8
IGES_LEVEL_0
 62
     7
100
AcDbLine
 10
17.9673964115338
 20
31.64456162744826
 30
0.0
 11
18.0074623150038
 21
31.64850674907826
 31
0.0
  0
LINE
  5
243
330
1F
100
AcDbEntity
  8
IGES_LEVEL_0
 62
     7
100
AcDbLine
 10
17.1117232119238
 20
31.58177785320826
 30
0.0
 11
16.8651042673138
 21
31.56526896131826
 31
0.0
  0
LINE
  5
244
330
1F
100
AcDbEntity
  8
IGES_LEVEL_0
 62
     7
100
AcDbLine
 10
17.1518290697838
 20
31.58452873265826
 30
0.0
 11
17.1117232119238
 21
31.58177785320826
 31
0.0
  0
ARC
  5
245
330
1F
100
AcDbEntity
  8
IGES_LEVEL_0
 62
     7
100
AcDbCircle
 10
11.28414745265447
 20
116.8798203773747
 30
0.0
 40
85.49687985135613
100
AcDbArc
 50
273.9353234015745
 51
274.4786572846189
  0
LINE
  5
246
330
1F
100
AcDbEntity
  8
IGES_LEVEL_0
 62
     7
100
AcDbLine
 10
17.9673935546838
 20
31.64455392065826
 30
0.0
 11
17.9604054006238
 21
31.64400604953826
 31
0.0
  0
LINE
  5
247
330
1F
100
AcDbEntity
  8
IGES_LEVEL_0
 62
     7
100
AcDbLine
 10
16.8587340885538
 20
31.56486101730826
 30
0.0
 11
16.8652644112038
 21
31.56528664151826
 31
0.0
  0
SPLINE
  5
248
330
1F
100
AcDbEntity
  8
IGES_LEVEL_0
 62
     7
100
AcDbSpline
210
0.0
220
0.0
230
1.0
 70
     8
 71
     3
 72
    14
 73
    10
 74
     0
 42
0.0000000001
 43
0.0000000001
 40
0.0
 40
0.0
 40
0.0
 40
0.0
 40
0.1438366747102
 40
0.2958584494
 40
0.4347722569979
 40
0.5654757140547
 40
0.7047315538888
 40
0.8570662179718001
 40
1.0
 40
1.0
 40
1.0
 40
1.0
 10
4.339047897108802
 20
31.56486001321826
 30
0.0
 10
4.938550563055702
 20
31.52577035010826
 30
0.0
 10
6.171707913750002
 20
31.44510769629826
 30
0.0
 10
7.986362541486802
 20
31.37146051015826
 30
0.0
 10
9.747216063561803
 20
31.33663265033826
 30
0.0
 10
11.4551018394738
 20
31.33666327081826
 30
0.0
 10
13.2186888550878
 20
31.37165419233826
 30
0.0
 10
15.0323013208738
 20
31.44545774621826
 30
0.0
 10
16.2629935575438
 20
31.52603200635826
 30
0.0
 10
16.8587340885538
 20
31.56486101730826
 30
0.0
  0
LINE
  5
249
330
1F
100
AcDbEntity
  8
IGES_LEVEL_0
 62
     7
100
AcDbLine
 10
4.332528631469803
 20
31.56528508678826
 30
0.0
 11
4.339047897108802
 21
31.56486001321826
 31
0.0
  0
LINE
  5
24A
330
1F
100
AcDbEntity
  8
IGES_LEVEL_0
 62
     7
100
AcDbLine
 10
3.237378965428802
 20
31.64400604953826
 30
0.0
 11
3.230390817312802
 21
31.64455392018826
 31
0.0
  0
ARC
  5
24B
330
1F
100
AcDbEntity
  8
IGES_LEVEL_0
 62
     7
100
AcDbCircle
 10
9.913637216603163
 20
116.879824413874
 30
0.0
 40
85.49688389920662
100
AcDbArc
 50
265.5213427240407
 51
266.0646779573027
  0
LINE
  5
24C
330
1F
100
AcDbEntity
  8
IGES_LEVEL_0
 62
     7
100
AcDbLine
 10
4.086059108409803
 20
31.58177799305826
 30
0.0
 11
4.045957344606802
 21
31.58452859168826
 31
0.0
  0
LINE
  5
24D
330
1F
100
AcDbEntity
  8
IGES_LEVEL_0
 62
     7
100
AcDbLine
 10
4.332677630806803
 20
31.56526912304826
 30
0.0
 11
4.086059108409803
 21
31.58177799305826
 31
0.0
  0
LINE
  5
24E
330
1F
100
AcDbEntity
  8
IGES_LEVEL_0
 62
     7
100
AcDbLine
 10
3.193588435310802
 20
31.64812319216826
 30
0.0
 11
3.230388271975802
 21
31.64455932903826
 31
0.0
  0
SPLINE
  5
24F
330
1F
100
AcDbEntity
  8
IGES_LEVEL_0
 62
     7
100
AcDbSpline
210
0.0
220
0.0
230
1.0
 70
     8
 71
     3
 72
    14
 73
    10
 74
     0
 42
0.0000000001
 43
0.0000000001
 40
0.0
 40
0.0
 40
0.0
 40
0.0
 40
0.09897725585731
 40
0.252337742321
 40
0.4100618775419
 40
0.5703483956193
 40
0.7316787346107
 40
0.8929018278773
 40
1.0
 40
1.0
 40
1.0
 40
1.0
 10
2.249398877032802
 20
32.55168855625826
 30
0.0
 10
2.256359775676802
 20
32.50597957469826
 30
0.0
 10
2.282227335918802
 20
32.39053387844826
 30
0.0
 10
2.355911130744802
 20
32.21266629481826
 30
0.0
 10
2.480013803422802
 20
32.02935105090825
 30
0.0
 10
2.640963031487802
 20
31.87200137040826
 30
0.0
 10
2.831722853938802
 20
31.74933741336826
 30
0.0
 10
3.020200015181802
 20
31.67726385544826
 30
0.0
 10
3.143875955182802
 20
31.65384265160826
 30
0.0
 10
3.193588435310802
 20
31.64812319216826
 30
0.0
  0
LINE
  5
250
330
1F
100
AcDbEntity
  8
IGES_LEVEL_0
 62
     7
100
AcDbLine
 10
2.245170192936802
 20
32.58273449127826
 30
0.0
 11
2.249398877032802
 21
32.55168855625826
 31
0.0
  0
LINE
  5
251
330
1F
100
AcDbEntity
  8
IGES_LEVEL_0
 62
     7
100
AcDbLine
 10
2.244245904450802
 20
32.59036424417825
 30
0.0
 11
2.245160879351802
 21
32.58273501610826
 31
0.0
  0
LINE
  5
252
330
1F
100
AcDbEntity
  8
IGES_LEVEL_0
 62
     7
100
AcDbLine
 10
1.631178453289802
 20
37.70465365829826
 30
0.0
 11
2.244245904450802
 21
32.59036424417825
 31
0.0
  0
LINE
  5
253
330
1F
100
AcDbEntity
  8
IGES_LEVEL_0
 62
     7
100
AcDbLine
 10
1.630368754934802
 20
37.71167354512826
 30
0.0
 11
1.631183124838802
 21
37.70465429897826
 31
0.0
  0
LINE
  5
254
330
1F
100
AcDbEntity
  8
IGES_LEVEL_0
 62
     7
100
AcDbLine
 10
1.627927563229802
 20
37.73613698649826
 30
0.0
 11
1.630368754934802
 21
37.71167354512826
 31
0.0
  0
LINE
  5
255
330
1F
100
AcDbEntity
  8
IGES_LEVEL_0
 62
     7
100
AcDbLine
 10
1.625817715343802
 20
37.76537831933826
 30
0.0
 11
1.627927563229802
 21
37.73613698649826
 31
0.0
  0
LINE
  5
256
330
1F
100
AcDbEntity
  8
IGES_LEVEL_0
 62
     7
100
AcDbLine
 10
1.624783679523802
 20
37.78817140893826
 30
0.0
 11
1.625817715343802
 21
37.76537831933826
 31
0.0
  0
LINE
  5
257
330
1F
100
AcDbEntity
  8
IGES_LEVEL_0
 62
     7
100
AcDbLine
 10
1.624325883817802
 20
37.80760039987826
 30
0.0
 11
1.624783679523802
 21
37.78817140893826
 31
0.0
  0
LINE
  5
258
330
1F
100
AcDbEntity
  8
IGES_LEVEL_0
 62
     7
100
AcDbLine
 10
19.5731156031338
 20
37.79198373567826
 30
0.0
 11
19.5734925545838
 21
37.81088271729826
 31
0.0
  0
LINE
  5
259
330
1F
100
AcDbEntity
  8
IGES_LEVEL_0
 62
     7
100
AcDbLine
 10
19.5720469916538
 20
37.76692389001826
 30
0.0
 11
19.5731156031338
 21
37.79198373567826
 31
0.0
  0
LINE
  5
25A
330
1F
100
AcDbEntity
  8
IGES_LEVEL_0
 62
     7
100
AcDbLine
 10
19.5701310813038
 20
37.73942663733826
 30
0.0
 11
19.5720469916538
 21
37.76692389001826
 31
0.0
  0
LINE
  5
25B
330
1F
100
AcDbEntity
  8
IGES_LEVEL_0
 62
     7
100
AcDbLine
 10
19.5674095974538
 20
37.71167522604826
 30
0.0
 11
19.5701310813038
 21
37.73942663733826
 31
0.0
  0
LINE
  5
25C
330
1F
100
AcDbEntity
  8
IGES_LEVEL_0
 62
     7
100
AcDbLine
 10
19.5665955314938
 20
37.70465502219826
 30
0.0
 11
19.5674095974538
 21
37.71167522604826
 31
0.0
  0
LINE
  5
25D
330
1F
100
AcDbEntity
  8
IGES_LEVEL_0
 62
     7
100
AcDbLine
 10
1.624795687063802
 20
37.85974661855826
 30
0.0
 11
1.624789761436802
 21
37.85957319464826
 31
0.0
  0
ARC
  5
25E
330
1F
100
AcDbEntity
  8
IGES_LEVEL_0
 62
     7
100
AcDbCircle
 10
18.92316023620743
 20
22.79893528505938
 30
0.0
 40
3.00877666681844
100
AcDbArc
 50
77.78417910187622
 51
101.1321907573514
  0
LINE
  5
25F
330
1F
100
AcDbEntity
  8
IGES_LEVEL_0
 62
     7
100
AcDbLine
 10
18.3422505950038
 20
25.75110148886826
 30
0.0
 11
18.2806146350338
 21
25.73809358832826
 31
0.0
  0
ARC
  5
260
330
1F
100
AcDbEntity
  8
IGES_LEVEL_0
 62
     7
100
AcDbCircle
 10
10.6035464289995
 20
60.33724636146754
 30
0.0
 40
35.44063694807079
100
AcDbArc
 50
269.9959536115697
 51
282.5104587021269
  0
ARC
  5
261
330
1F
100
AcDbEntity
  8
IGES_LEVEL_0
 62
     7
100
AcDbCircle
 10
10.59967816862561
 20
60.33772963230943
 30
0.0
 40
35.44112015582059
100
AcDbArc
 50
257.487785690471
 51
270.0022072774486
  0
LINE
  5
262
330
1F
100
AcDbEntity
  8
IGES_LEVEL_0
 62
     7
100
AcDbLine
 10
2.921444654314802
 20
25.73834048622826
 30
0.0
 11
2.859812929131802
 21
25.75134951396826
 31
0.0
  0
ARC
  5
263
330
1F
100
AcDbEntity
  8
IGES_LEVEL_0
 62
     7
100
AcDbCircle
 10
2.278861610760591
 20
22.79955140228679
 30
0.0
 40
3.008423428681484
100
AcDbArc
 50
78.86566963323179
 51
102.2148043853399
  0
ARC
  5
264
330
1F
100
AcDbEntity
  8
IGES_LEVEL_0
 62
     7
100
AcDbCircle
 10
1.652785841060997
 20
25.69081905704151
 30
0.0
 40
0.0501464304174684
100
AcDbArc
 50
102.0043580038317
 51
178.6791903532332
  0
ARC
  5
265
330
1F
100
AcDbEntity
  8
IGES_LEVEL_0
 62
     7
100
AcDbCircle
 10
19.54937459387293
 20
25.6905511468889
 30
0.0
 40
0.0501314177131245
100
AcDbArc
 50
0.0274950935877645
 51
77.99523605476247
  0
LINE
  5
266
330
1F
100
AcDbEntity
  8
IGES_LEVEL_0
 62
     7
100
AcDbLine
 10
19.5512036173838
 20
25.49164665998826
 30
0.0
 11
19.5536308520638
 21
25.49358920971826
 31
0.0
  0
LINE
  5
267
330
1F
100
AcDbEntity
  8
IGES_LEVEL_0
 62
     7
100
AcDbLine
 10
19.5472439449938
 20
25.48847768437826
 30
0.0
 11
19.5512036173838
 21
25.49164665998826
 31
0.0
  0
LINE
  5
268
330
1F
100
AcDbEntity
  8
IGES_LEVEL_0
 62
     7
100
AcDbLine
 10
19.5451553794038
 20
25.48680618176826
 30
0.0
 11
19.5472439449938
 21
25.48847768437826
 31
0.0
  0
LINE
  5
269
330
1F
100
AcDbEntity
  8
IGES_LEVEL_0
 62
     7
100
AcDbLine
 10
19.5271790523438
 20
25.47241960162826
 30
0.0
 11
19.5451553794038
 21
25.48680618176826
 31
0.0
  0
LINE
  5
26A
330
1F
100
AcDbEntity
  8
IGES_LEVEL_0
 62
     7
100
AcDbLine
 10
19.5265242789138
 20
25.47189558449826
 30
0.0
 11
19.5271790523438
 21
25.47241960162826
 31
0.0
  0
LINE
  5
26B
330
1F
100
AcDbEntity
  8
IGES_LEVEL_0
 62
     7
100
AcDbLine
 10
18.9957396860138
 20
25.04717260173826
 30
0.0
 11
19.5265242789138
 21
25.47189558449826
 31
0.0
  0
ARC
  5
26C
330
1F
100
AcDbEntity
  8
IGES_LEVEL_0
 62
     7
100
AcDbCircle
 10
19.54958472139648
 20
25.54312856779418
 30
0.0
 40
0.0499217692866177
100
AcDbArc
 50
269.3989018875224
 51
359.7385290775352
  0
LINE
  5
26D
330
1F
100
AcDbEntity
  8
IGES_LEVEL_0
 62
     7
100
AcDbLine
 10
1.675474755217802
 20
25.47213894939826
 30
0.0
 11
2.202715851593802
 21
25.04877251561826
 31
0.0
  0
LINE
  5
26E
330
1F
100
AcDbEntity
  8
IGES_LEVEL_0
 62
     7
100
AcDbLine
 10
1.674813883012802
 20
25.47266970110826
 30
0.0
 11
1.675474755217802
 21
25.47213894939826
 31
0.0
  0
LINE
  5
26F
330
1F
100
AcDbEntity
  8
IGES_LEVEL_0
 62
     7
100
AcDbLine
 10
1.656927161963802
 20
25.48703474057826
 30
0.0
 11
1.674813883012802
 21
25.47266970110826
 31
0.0
  0
LINE
  5
270
330
1F
100
AcDbEntity
  8
IGES_LEVEL_0
 62
     7
100
AcDbLine
 10
1.654867112640802
 20
25.48868919967826
 30
0.0
 11
1.656927161963802
 21
25.48703474057826
 31
0.0
  0
LINE
  5
271
330
1F
100
AcDbEntity
  8
IGES_LEVEL_0
 62
     7
100
AcDbLine
 10
1.650361881868802
 20
25.49230743008826
 30
0.0
 11
1.654867112640802
 21
25.48868919967826
 31
0.0
  0
LINE
  5
272
330
1F
100
AcDbEntity
  8
IGES_LEVEL_0
 62
     7
100
AcDbLine
 10
1.648401582070802
 20
25.49388178420826
 30
0.0
 11
1.650361881868802
 21
25.49230743008826
 31
0.0
  0
ARC
  5
273
330
1F
100
AcDbEntity
  8
IGES_LEVEL_0
 62
     7
100
AcDbCircle
 10
1.652732228899446
 20
25.54349685806672
 30
0.0
 40
0.0500967606896867
100
AcDbArc
 50
180.3566898879687
 51
236.571944144321
  0
ARC
  5
274
330
1F
100
AcDbEntity
  8
IGES_LEVEL_0
 62
     7
100
AcDbCircle
 10
1.652247690819629
 20
25.542810476533
 30
0.0
 40
0.0492570016928644
100
AcDbArc
 50
236.6024951046148
 51
259.5149741028296
  0
LINE
  5
275
330
1F
100
AcDbEntity
  8
IGES_LEVEL_0
 62
     7
100
AcDbLine
 10
1.653380381747802
 20
25.49349486005826
 30
0.0
 11
1.643283973164802
 21
25.49437594358826
 31
0.0
  0
LINE
  5
276
330
1F
100
AcDbEntity
  8
IGES_LEVEL_0
 62
     7
100
AcDbLine
 10
19.5487856349738
 20
25.49320766709826
 30
0.0
 11
19.5498589536638
 21
25.49332505350826
 31
0.0
  0
SPLINE
  5
277
330
1F
100
AcDbEntity
  8
IGES_LEVEL_0
 62
     7
100
AcDbSpline
210
0.0
220
0.0
230
1.0
 70
     8
 71
     3
 72
    45
 73
    41
 74
     0
 42
0.0000000001
 43
0.0000000001
 40
0.0
 40
0.0
 40
0.0
 40
0.0
 40
0.03382041109306
 40
0.083666931661
 40
0.1324116597357
 40
0.1800115505052
 40
0.2264267642557
 40
0.2716216085548
 40
0.3155637658052
 40
0.3582237648547
 40
0.3995748220272
 40
0.4395940443873
 40
0.4782620188052
 40
0.5155615352227
 40
0.5514774595186001
 40
0.5859974656514
 40
0.6191135926577001
 40
0.6508199383037
 40
0.6811121016324
 40
0.7099871974984
 40
0.7374462208647
 40
0.7634931200595
 40
0.788132654638
 40
0.8113703410219
 40
0.8332124930725
 40
0.8536596263299
 40
0.8727111411189
 40
0.8903703094873
 40
0.9066463179814001
 40
0.921557823885
 40
0.9351244929657
 40
0.9473683906729
 40
0.9583169071936
 40
0.9680046877524
 40
0.9764576428047
 40
0.9836987057560001
 40
0.9897563684849
 40
0.9946567255291
 40
0.9984041179304
 40
1.0
 40
1.0
 40
1.0
 40
1.0
 10
18.7938214739838
 20
25.33254942267826
 30
0.0
 10
18.8023273104438
 20
25.33439766938826
 30
0.0
 10
18.8233687604838
 20
25.33897361101826
 30
0.0
 10
18.8566660945238
 20
25.34622911027826
 30
0.0
 10
18.8934249734538
 20
25.35425596327826
 30
0.0
 10
18.9293179560238
 20
25.36210866550826
 30
0.0
 10
18.9643157188738
 20
25.36977843263826
 30
0.0
 10
18.9983918007138
 20
25.37725632838826
 30
0.0
 10
19.0315223308638
 20
25.38453407239826
 30
0.0
 10
19.0636856502338
 20
25.39160401089826
 30
0.0
 10
19.0948624276738
 20
25.39845920310826
 30
0.0
 10
19.1250359112538
 20
25.40509303452826
 30
0.0
 10
19.1541917574538
 20
25.41149941005826
 30
0.0
 10
19.1823175273538
 20
25.41767286631826
 30
0.0
 10
19.2094025289338
 20
25.42360848025826
 30
0.0
 10
19.2354383592738
 20
25.42930198999826
 30
0.0
 10
19.2604188282238
 20
25.43475012030826
 30
0.0
 10
19.2843397064338
 20
25.43995015827826
 30
0.0
 10
19.3071980044638
 20
25.44489981399826
 30
0.0
 10
19.3289924504138
 20
25.44959722486826
 30
0.0
 10
19.3497237809538
 20
25.45404137359826
 30
0.0
 10
19.3693945030338
 20
25.45823233857826
 30
0.0
 10
19.3880082569138
 20
25.46217043060826
 30
0.0
 10
19.4055692408038
 20
25.46585622542826
 30
0.0
 10
19.4220805747538
 20
25.46929006728826
 30
0.0
 10
19.4375435482638
 20
25.47247332117826
 30
0.0
 10
19.4519586386038
 20
25.47540739167826
 30
0.0
 10
19.4653284651038
 20
25.47809429614826
 30
0.0
 10
19.4776605191538
 20
25.48053697573826
 30
0.0
 10
19.4889661144238
 20
25.48274053325826
 30
0.0
 10
19.4992598672938
 20
25.48471113908826
 30
0.0
 10
19.5085581630038
 20
25.48645539312826
 30
0.0
 10
19.5168825543938
 20
25.48798064086826
 30
0.0
 10
19.5242510273438
 20
25.48929530743826
 30
0.0
 10
19.5306936916638
 20
25.49040897905826
 30
0.0
 10
19.5361988709038
 20
25.49132817152826
 30
0.0
 10
19.5408727215638
 20
25.49206874312826
 30
0.0
 10
19.5444841934938
 20
25.49262253164826
 30
0.0
 10
19.5473938095738
 20
25.49301056652826
 30
0.0
 10
19.5483729130938
 20
25.49315712086826
 30
0.0
 10
19.5487856349738
 20
25.49320766709826
 30
0.0
  0
LINE
  5
278
330
1F
100
AcDbEntity
  8
IGES_LEVEL_0
 62
     7
100
AcDbLine
 10
18.5075457596238
 20
25.27102301084826
 30
0.0
 11
18.7938214739838
 21
25.33254942267826
 31
0.0
  0
LINE
  5
279
330
1F
100
AcDbEntity
  8
IGES_LEVEL_0
 62
     7
100
AcDbLine
 10
18.4890447649238
 20
25.26710187106826
 30
0.0
 11
18.5075457596238
 21
25.27102301084826
 31
0.0
  0
LINE
  5
27A
330
1F
100
AcDbEntity
  8
IGES_LEVEL_0
 62
     7
100
AcDbLine
 10
18.4224806086438
 20
25.25212146388826
 30
0.0
 11
18.4890447655638
 21
25.26710189469826
 31
0.0
  0
LINE
  5
27B
330
1F
100
AcDbEntity
  8
IGES_LEVEL_0
 62
     7
100
AcDbLine
 10
18.3611319988638
 20
25.23725224950826
 30
0.0
 11
18.4224806086638
 21
25.25212146472826
 31
0.0
  0
SPLINE
  5
27C
330
1F
100
AcDbEntity
  8
IGES_LEVEL_0
 62
     7
100
AcDbSpline
210
0.0
220
0.0
230
1.0
 70
     8
 71
     3
 72
    11
 73
     7
 74
     0
 42
0.0000000001
 43
0.0000000001
 40
0.0
 40
0.0
 40
0.0
 40
0.0
 40
0.2304780166854
 40
0.4775257753356
 40
0.735928204435
 40
1.0
 40
1.0
 40
1.0
 40
1.0
 10
10.6012459746268
 20
24.22826554191826
 30
0.0
 10
11.2037815173258
 20
24.22826681828826
 30
0.0
 10
12.4525290868578
 20
24.27071345653826
 30
0.0
 10
14.3681210210088
 20
24.46208847410826
 30
0.0
 10
16.3554246518838
 20
24.78131483082826
 30
0.0
 10
17.6907953952638
 20
25.07220254550826
 30
0.0
 10
18.3611320245338
 20
25.23725214795826
 30
0.0
  0
SPLINE
  5
27D
330
1F
100
AcDbEntity
  8
IGES_LEVEL_0
 62
     7
100
AcDbSpline
210
0.0
220
0.0
230
1.0
 70
     8
 71
     3
 72
    11
 73
     7
 74
     0
 42
0.0000000001
 43
0.0000000001
 40
0.0
 40
0.0
 40
0.0
 40
0.0
 40
0.2645408480595
 40
0.5229429686202
 40
0.7699911301809
 40
1.0
 40
1.0
 40
1.0
 40
1.0
 10
2.841372599513802
 20
25.23749726171826
 30
0.0
 10
3.512895966075802
 20
25.07213392611826
 30
0.0
 10
4.849474561630702
 20
24.78100561491826
 30
0.0
 10
6.838017870332802
 20
24.46172689638826
 30
0.0
 10
8.752410982718802
 20
24.27064172122826
 30
0.0
 10
9.999934786530803
 20
24.22828676273826
 30
0.0
 10
10.6012459746428
 20
24.22826560919826
 30
0.0
  0
LINE
  5
27E
330
1F
100
AcDbEntity
  8
IGES_LEVEL_0
 62
     7
100
AcDbLine
 10
2.780024193097802
 20
25.25236850575826
 30
0.0
 11
2.841372622075802
 21
25.23749735149826
 31
0.0
  0
LINE
  5
27F
330
1F
100
AcDbEntity
  8
IGES_LEVEL_0
 62
     7
100
AcDbLine
 10
2.713460207800802
 20
25.26735104308826
 30
0.0
 11
2.780024193054802
 21
25.25236850396826
 31
0.0
  0
LINE
  5
280
330
1F
100
AcDbEntity
  8
IGES_LEVEL_0
 62
     7
100
AcDbLine
 10
2.403374157534802
 20
25.33395901135826
 30
0.0
 11
2.713206626223802
 21
25.26740471027826
 31
0.0
  0
SPLINE
  5
281
330
1F
100
AcDbEntity
  8
IGES_LEVEL_0
 62
     7
100
AcDbSpline
210
0.0
220
0.0
230
1.0
 70
     8
 71
     3
 72
    50
 73
    46
 74
     0
 42
0.0000000001
 43
0.0000000001
 40
0.0
 40
0.0
 40
0.0
 40
0.0
 40
0.000446406162341
 40
0.00337262134333
 40
0.007143353362044
 40
0.011730511442
 40
0.01712291740067
 40
0.02332348811364
 40
0.03034445872428
 40
0.0382059631912
 40
0.04693321769625
 40
0.05654891566898
 40
0.06707740583608
 40
0.07854340683317
 40
0.09097463406513
 40
0.1044000220604
 40
0.1188446568879
 40
0.1343341896089
 40
0.150894916899
 40
0.1685539384508
 40
0.1873392238139
 40
0.2072758881548
 40
0.2283930385392
 40
0.250721851497
 40
0.2742943771854
 40
0.2991435717249
 40
0.325300734975
 40
0.3527958937438
 40
0.3816591173746
 40
0.4119203523462
 40
0.443608684982
 40
0.476740269579
 40
0.5113164584909
 40
0.5473345373809
 40
0.5847882117221001
 40
0.6236675260903
 40
0.6639582476628
 40
0.7056407400939
 40
0.7486910554182
 40
0.7930803805418
 40
0.8387757194358
 40
0.8857390483597
 40
0.9339271378893
 40
0.9832923460518001
 40
1.0
 40
1.0
 40
1.0
 40
1.0
 10
1.653380907270802
 20
25.49348616414826
 30
0.0
 10
1.653477387030802
 20
25.49347334260826
 30
0.0
 10
1.654199376506802
 20
25.49337570357826
 30
0.0
 10
1.656166199444802
 20
25.49312164294826
 30
0.0
 10
1.658945638935802
 20
25.49271369387826
 30
0.0
 10
1.662447146868802
 20
25.49217902521826
 30
0.0
 10
1.666521754750802
 20
25.49152440064826
 30
0.0
 10
1.671218419445802
 20
25.49074243336826
 30
0.0
 10
1.676528954648802
 20
25.48982946568826
 30
0.0
 10
1.682472533137802
 20
25.48877938660826
 30
0.0
 10
1.689064004893802
 20
25.48758675627826
 30
0.0
 10
1.696321565186802
 20
25.48624593290826
 30
0.0
 10
1.704262559192802
 20
25.48475125298826
 30
0.0
 10
1.712905810688802
 20
25.48309678296826
 30
0.0
 10
1.722271191061802
 20
25.48127619642826
 30
0.0
 10
1.732378813226802
 20
25.47928381585826
 30
0.0
 10
1.743248310694802
 20
25.47711427458826
 30
0.0
 10
1.754898639350802
 20
25.47476223253826
 30
0.0
 10
1.767349263562802
 20
25.47222226121826
 30
0.0
 10
1.780620200401802
 20
25.46948867090826
 30
0.0
 10
1.794731266451802
 20
25.46655629211826
 30
0.0
 10
1.809702909942802
 20
25.46342045434826
 30
0.0
 10
1.825556363323802
 20
25.46007620909826
 30
0.0
 10
1.842314608919802
 20
25.45651829761826
 30
0.0
 10
1.860001597267802
 20
25.45274126781826
 30
0.0
 10
1.878641314296802
 20
25.44873966987826
 30
0.0
 10
1.898257392145802
 20
25.44450885516826
 30
0.0
 10
1.918872769286802
 20
25.44004443871826
 30
0.0
 10
1.940510069538802
 20
25.43534220027826
 30
0.0
 10
1.963191711341802
 20
25.43039809135826
 30
0.0
 10
1.986936661225802
 20
25.42520891571826
 30
0.0
 10
2.011756809244802
 20
25.41977332075826
 30
0.0
 10
2.037656198141802
 20
25.41409210896826
 30
0.0
 10
2.064633302571802
 20
25.40816747180826
 30
0.0
 10
2.092683824133802
 20
25.40200244211826
 30
0.0
 10
2.121800636025802
 20
25.39560089540826
 30
0.0
 10
2.151973326323802
 20
25.38896764575826
 30
0.0
 10
2.183187954547802
 20
25.38210811602826
 30
0.0
 10
2.215426980608802
 20
25.37502871672826
 30
0.0
 10
2.248669560375802
 20
25.36773673980826
 30
0.0
 10
2.282891391132802
 20
25.36024051146826
 30
0.0
 10
2.318064519523802
 20
25.35254892545826
 30
0.0
 10
2.354157226164802
 20
25.34467118962826
 30
0.0
 10
2.382696389934802
 20
25.33845530667826
 30
0.0
 10
2.399200687611802
 20
25.33486622369826
 30
0.0
 10
2.403374157534802
 20
25.33395901135826
 30
0.0
  0
ARC
  5
282
330
1F
100
AcDbEntity
  8
IGES_LEVEL_0
 62
     7
100
AcDbCircle
 10
1.646834798597145
 20
25.44289034834677
 30
0.0
 40
0.0510175275310945
100
AcDbArc
 50
82.62799912030235
 51
84.77668348453709
  0
ARC
  5
283
330
1F
100
AcDbEntity
  8
IGES_LEVEL_0
 62
     7
100
AcDbCircle
 10
20.0456367844754
 20
1.524784769136045
 30
0.0
 40
1.500000003604344
100
AcDbArc
 50
256.2561213784233
 51
289.7284636417932
  0
LINE
  5
284
330
1F
100
AcDbEntity
  8
IGES_LEVEL_0
 62
     7
100
AcDbLine
 10
20.6038912081438
 20
0.1822966195282575
 30
0.0
 11
20.6031540261438
 21
0.1926358229982576
 31
0.0
  0
LINE
  5
285
330
1F
100
AcDbEntity
  8
IGES_LEVEL_0
 62
     7
100
AcDbLine
 10
19.6865176392438
 20
0.0684433949182569
 30
0.0
 11
19.6892636906138
 21
0.067734285478258
 31
0.0
  0
ARC
  5
286
330
1F
100
AcDbEntity
  8
IGES_LEVEL_0
 62
     7
100
AcDbCircle
 10
19.70333583095408
 20
0.1399336701657088
 30
0.0
 40
0.0734418887785473
100
AcDbArc
 50
187.7479523186942
 51
256.761795932066
  0
LINE
  5
287
330
1F
100
AcDbEntity
  8
IGES_LEVEL_0
 62
     7
100
AcDbLine
 10
19.6299940843638
 20
0.1389760422482581
 30
0.0
 11
19.6305644140238
 21
0.1300325638982582
 31
0.0
  0
ARC
  5
288
330
1F
100
AcDbEntity
  8
IGES_LEVEL_0
 62
     7
100
AcDbCircle
 10
20.53242054750603
 20
0.1824911739681592
 30
0.0
 40
0.0714646624324788
100
AcDbArc
 50
334.8850998562552
 51
359.4086027271159
  0
ARC
  5
289
330
1F
100
AcDbEntity
  8
IGES_LEVEL_0
 62
     7
100
AcDbCircle
 10
20.53114054721272
 20
0.1833213878890909
 30
0.0
 40
0.0729763189881876
100
AcDbArc
 50
305.1848003241845
 51
334.7214416583441
  0
ARC
  5
28A
330
1F
100
AcDbEntity
  8
IGES_LEVEL_0
 62
     7
100
AcDbCircle
 10
20.5234495080734
 20
0.1947783333103196
 30
0.0
 40
0.0867723259232372
100
AcDbArc
 50
289.1978035418282
 51
304.9762767552899
  0
SPLINE
  5
28B
330
1F
100
AcDbEntity
  8
IGES_LEVEL_0
 62
     7
100
AcDbSpline
210
0.0
220
0.0
230
1.0
 70
     8
 71
     3
 72
    14
 73
    10
 74
     0
 42
0.0000000001
 43
0.0000000001
 40
0.0
 40
0.0
 40
0.0
 40
0.0
 40
0.06414864036583
 40
0.1800178875137
 40
0.2840217392538
 40
0.3998153624215
 40
0.5710024487673
 40
0.7836084079642
 40
1.0
 40
1.0
 40
1.0
 40
1.0
 10
19.7495049664738
 20
1.203479216278258
 30
0.0
 10
19.7471202268338
 20
1.203087705258258
 30
0.0
 10
19.7404355862638
 20
1.201943162548258
 30
0.0
 10
19.7299331809638
 20
1.199883508678257
 30
0.0
 10
19.7176680985038
 20
1.196762548608258
 30
0.0
 10
19.7038262721538
 20
1.191589120148257
 30
0.0
 10
19.6878670013238
 20
1.181101450868257
 30
0.0
 10
19.6739766786538
 20
1.162533749478258
 30
0.0
 10
19.6699935999338
 20
1.146328938578258
 30
0.0
 10
19.6696696262338
 20
1.138182020228257
 30
0.0
  0
LINE
  5
28C
330
1F
100
AcDbEntity
  8
IGES_LEVEL_0
 62
     7
100
AcDbLine
 10
19.7824465456438
 20
1.208133916738257
 30
0.0
 11
19.7495049664738
 21
1.203479216278258
 31
0.0
  0
ARC
  5
28D
330
1F
100
AcDbEntity
  8
IGES_LEVEL_0
 62
     7
100
AcDbCircle
 10
20.33426885811876
 20
-4.021466846286114
 30
0.0
 40
5.258634043662888
100
AcDbArc
 50
89.85996145530018
 51
96.02350435462063
  0
LINE
  5
28E
330
1F
100
AcDbEntity
  8
IGES_LEVEL_0
 62
     7
100
AcDbLine
 10
20.3736542311938
 20
1.236105198018257
 30
0.0
 11
20.3471216499238
 21
1.237151490398258
 31
0.0
  0
ARC
  5
28F
330
1F
100
AcDbEntity
  8
IGES_LEVEL_0
 62
     7
100
AcDbCircle
 10
20.36999091728846
 20
1.065668089040109
 30
0.0
 40
0.1704764734079108
100
AcDbArc
 50
73.59935782630269
 51
88.76869471544373
  0
ARC
  5
290
330
1F
100
AcDbEntity
  8
IGES_LEVEL_0
 62
     7
100
AcDbCircle
 10
20.39829318847784
 20
1.170185581998082
 30
0.0
 40
0.0622652473239673
100
AcDbArc
 50
8.594462114642536
 51
71.42712736417531
  0
ARC
  5
291
330
1F
100
AcDbEntity
  8
IGES_LEVEL_0
 62
     7
100
AcDbCircle
 10
1.15214758160788
 20
1.524784769188082
 30
0.0
 40
1.500000003651219
100
AcDbArc
 50
250.2715467830127
 51
283.7438890451567
  0
LINE
  5
292
330
1F
100
AcDbEntity
  8
IGES_LEVEL_0
 62
     7
100
AcDbLine
 10
1.567390751214802
 20
0.1314091760282569
 30
0.0
 11
1.567735559552802
 21
0.1417688899682567
 31
0.0
  0
LINE
  5
293
330
1F
100
AcDbEntity
  8
IGES_LEVEL_0
 62
     7
100
AcDbLine
 10
0.6431464493688019
 20
0.1138224712282575
 30
0.0
 11
0.6458036025088014
 21
0.1128309211682574
 31
0.0
  0
ARC
  5
294
330
1F
100
AcDbEntity
  8
IGES_LEVEL_0
 62
     7
100
AcDbCircle
 10
0.6686273598664468
 20
0.1847339001299285
 30
0.0
 40
0.0753505643553234
100
AcDbArc
 50
203.4365733622333
 51
250.2348952544348
  0
ARC
  5
295
330
1F
100
AcDbEntity
  8
IGES_LEVEL_0
 62
     7
100
AcDbCircle
 10
0.6651903304002963
 20
0.1824364992867196
 30
0.0
 40
0.071287182721358
100
AcDbArc
 50
181.2272292099824
 51
202.8411217724242
  0
LINE
  5
296
330
1F
100
AcDbEntity
  8
IGES_LEVEL_0
 62
     7
100
AcDbLine
 10
0.5942847317258013
 20
0.1898639016782568
 30
0.0
 11
0.5939194996818018
 21
0.180909702298257
 31
0.0
  0
ARC
  5
297
330
1F
100
AcDbEntity
  8
IGES_LEVEL_0
 62
     7
100
AcDbCircle
 10
1.495883620529199
 20
0.1392252287609224
 30
0.0
 40
0.0719276742163087
100
AcDbArc
 50
298.9918293969359
 51
353.3294388998413
  0
ARC
  5
298
330
1F
100
AcDbEntity
  8
IGES_LEVEL_0
 62
     7
100
AcDbCircle
 10
1.488688810611853
 20
0.1522097734960934
 30
0.0
 40
0.0867723261723367
100
AcDbArc
 50
283.213228955355
 51
298.9917021216618
  0
ARC
  5
299
330
1F
100
AcDbEntity
  8
IGES_LEVEL_0
 62
     7
100
AcDbCircle
 10
0.799484466726306
 20
1.170185278232753
 30
0.0
 40
0.0622613421416673
100
AcDbArc
 50
108.6148153724645
 51
171.407391276414
  0
ARC
  5
29A
330
1F
100
AcDbEntity
  8
IGES_LEVEL_0
 62
     7
100
AcDbCircle
 10
0.827761462311047
 20
1.065974624381562
 30
0.0
 40
0.1701693702479766
100
AcDbArc
 50
91.22275489883303
 51
106.4369335157013
  0
LINE
  5
29B
330
1F
100
AcDbEntity
  8
IGES_LEVEL_0
 62
     7
100
AcDbLine
 10
0.8505079634788015
 20
1.237147566708258
 30
0.0
 11
0.8241301366038019
 21
1.236105244918257
 31
0.0
  0
ARC
  5
29C
330
1F
100
AcDbEntity
  8
IGES_LEVEL_0
 62
     7
100
AcDbCircle
 10
0.8635864360804729
 20
-4.021322071267918
 30
0.0
 40
5.25848590185073
100
AcDbArc
 50
83.97893642893048
 51
90.14250148599463
  0
LINE
  5
29D
330
1F
100
AcDbEntity
  8
IGES_LEVEL_0
 62
     7
100
AcDbLine
 10
1.448279396428802
 20
1.203479169458257
 30
0.0
 11
1.415170429384802
 21
1.208154869908258
 31
0.0
  0
SPLINE
  5
29E
330
1F
100
AcDbEntity
  8
IGES_LEVEL_0
 62
     7
100
AcDbSpline
210
0.0
220
0.0
230
1.0
 70
     8
 71
     3
 72
    14
 73
    10
 74
     0
 42
0.0000000001
 43
0.0000000001
 40
0.0
 40
0.0
 40
0.0
 40
0.0
 40
0.2165224034109
 40
0.4292855080397
 40
0.6006268904108
 40
0.7165298997796
 40
0.8205573658458
 40
0.9366330639508
 40
1.0
 40
1.0
 40
1.0
 40
1.0
 10
1.528111906669802
 20
1.138185211768257
 30
0.0
 10
1.527787563598802
 20
1.146336707178258
 30
0.0
 10
1.523799819499802
 20
1.162551777548258
 30
0.0
 10
1.509892497804802
 20
1.181127742438257
 30
0.0
 10
1.493913724009802
 20
1.191614461648257
 30
0.0
 10
1.480058212946802
 20
1.196780253618258
 30
0.0
 10
1.467780098852802
 20
1.199899076358257
 30
0.0
 10
1.457298084473802
 20
1.201952336038258
 30
0.0
 10
1.450634980852802
 20
1.203092490988258
 30
0.0
 10
1.448279396428802
 20
1.203479169458257
 30
0.0
  0
ARC
  5
29F
330
1F
100
AcDbEntity
  8
IGES_LEVEL_0
 62
     7
100
AcDbCircle
 10
0.2637032062770806
 20
1.19450063790386
 30
0.0
 40
0.0297406579582639
100
AcDbArc
 50
134.4940919284014
 51
173.9276707084826
  0
ARC
  5
2A0
330
1F
100
AcDbEntity
  8
IGES_LEVEL_0
 62
     7
100
AcDbCircle
 10
0.6039209630360739
 20
2.174670544074102
 30
0.0
 40
1.075380180780929
100
AcDbArc
 50
267.3555645665153
 51
276.5887214623203
  0
LINE
  5
2A1
330
1F
100
AcDbEntity
  8
IGES_LEVEL_0
 62
     7
100
AcDbLine
 10
0.1554565231878021
 20
1.148605348278258
 30
0.0
 11
0.0061297511448016
 21
0.2380091522482569
 31
0.0
  0
LINE
  5
2A2
330
1F
100
AcDbEntity
  8
IGES_LEVEL_0
 62
     7
100
AcDbLine
 10
0.1561607820488021
 20
1.152900791848257
 30
0.0
 11
0.1554565231878021
 21
1.148605348278258
 31
0.0
  0
ARC
  5
2A3
330
1F
100
AcDbEntity
  8
IGES_LEVEL_0
 62
     7
100
AcDbCircle
 10
0.5339145734233197
 20
0.9722366245391353
 30
0.0
 40
0.9658234781983605
100
AcDbArc
 50
240.456319097187
 51
268.1186481741541
  0
ARC
  5
2A4
330
1F
100
AcDbEntity
  8
IGES_LEVEL_0
 62
     7
100
AcDbCircle
 10
0.5497260988699904
 20
0.9867272419917664
 30
0.0
 40
0.9809451241579288
100
AcDbArc
 50
267.223362063983
 51
288.1342950494457
  0
SPLINE
  5
2A5
330
1F
100
AcDbEntity
  8
IGES_LEVEL_0
 62
     7
100
AcDbSpline
210
0.0
220
0.0
230
1.0
 70
     8
 71
     3
 72
    12
 73
     8
 74
     0
 42
0.0000000001
 43
0.0000000001
 40
0.0
 40
0.0
 40
0.0
 40
0.0
 40
0.2281760453319
 40
0.4453371392875
 40
0.649534236593
 40
0.8496977995307
 40
1.0
 40
1.0
 40
1.0
 40
1.0
 10
0.2440219046528021
 20
1.240493634598258
 30
0.0
 10
0.2347992322218021
 20
1.236932141718257
 30
0.0
 10
0.2171453788858018
 20
1.229062418498258
 30
0.0
 10
0.1933055950738019
 20
1.213878514198257
 30
0.0
 10
0.1738709726648016
 20
1.194914547718258
 30
0.0
 10
0.1614040856648021
 20
1.174035673708258
 30
0.0
 10
0.157203732572802
 20
1.159254882358257
 30
0.0
 10
0.1561504205128022
 20
1.152817333868257
 30
0.0
  0
ARC
  5
2A6
330
1F
100
AcDbEntity
  8
IGES_LEVEL_0
 62
     7
100
AcDbCircle
 10
0.106908183635248
 20
0.221387635959702
 30
0.0
 40
0.1021372034286827
100
AcDbArc
 50
172.0402163496543
 51
198.1821434556286
  0
LINE
  5
2A7
330
1F
100
AcDbEntity
  8
IGES_LEVEL_0
 62
     7
100
AcDbLine
 10
0.0061308513268022
 20
0.2380133052482577
 30
0.0
 11
0.0057550199218013
 21
0.2355313905882571
 31
0.0
  0
LINE
  5
2A8
330
1F
100
AcDbEntity
  8
IGES_LEVEL_0
 62
     7
100
AcDbLine
 10
0.0098716766818022
 20
0.1895171621882582
 30
0.0
 11
0.0187702087318021
 21
0.1698966107282573
 31
0.0
  0
ARC
  5
2A9
330
1F
100
AcDbEntity
  8
IGES_LEVEL_0
 62
     7
100
AcDbCircle
 10
0.1090346136234236
 20
0.2236235435860372
 30
0.0
 40
0.1050441612080659
100
AcDbArc
 50
210.7618383499595
 51
240.7292109658454
  0
ARC
  5
2AA
330
1F
100
AcDbEntity
  8
IGES_LEVEL_0
 62
     7
100
AcDbCircle
 10
0.2632448495105145
 20
1.197982702361801
 30
0.0
 40
0.0291173692651004
100
AcDbArc
 50
180.6611464995144
 51
220.7534166177036
  0
SPLINE
  5
2AB
330
1F
100
AcDbEntity
  8
IGES_LEVEL_0
 62
     7
100
AcDbSpline
210
0.0
220
0.0
230
1.0
 70
     8
 71
     3
 72
    15
 73
    11
 74
     0
 42
0.0000000001
 43
0.0000000001
 40
0.0
 40
0.0
 40
0.0
 40
0.0
 40
0.1698204372162
 40
0.3351512005854
 40
0.4913500725732
 40
0.6341247400062
 40
0.7597348535444
 40
0.8652507723099
 40
0.9489878682039
 40
1.0
 40
1.0
 40
1.0
 40
1.0
 10
0.5543053726528018
 20
1.100435548178258
 30
0.0
 10
0.535748941809802
 20
1.101206849618258
 30
0.0
 10
0.4991551649628022
 20
1.103547175788258
 30
0.0
 10
0.4457215635868015
 20
1.109424367608258
 30
0.0
 10
0.395561113450802
 20
1.117471780968258
 30
0.0
 10
0.3501740572438022
 20
1.127427758358258
 30
0.0
 10
0.310909905584802
 20
1.138988159308257
 30
0.0
 10
0.2788387223628016
 20
1.151734834028258
 30
0.0
 10
0.2559197880318017
 20
1.164814606368257
 30
0.0
 10
0.2446564927488014
 20
1.174549443458258
 30
0.0
 10
0.2411876835468019
 20
1.178974740278257
 30
0.0
  0
ARC
  5
2AC
330
1F
100
AcDbEntity
  8
IGES_LEVEL_0
 62
     7
100
AcDbCircle
 10
20.93408115984137
 20
1.194500637932373
 30
0.0
 40
0.0297406579036892
100
AcDbArc
 50
6.072329247460689
 51
45.5059081002312
  0
SPLINE
  5
2AD
330
1F
100
AcDbEntity
  8
IGES_LEVEL_0
 62
     7
100
AcDbSpline
210
0.0
220
0.0
230
1.0
 70
     8
 71
     3
 72
    15
 73
    11
 74
     0
 42
0.0000000001
 43
0.0000000001
 40
0.0
 40
0.0
 40
0.0
 40
0.0
 40
0.05101213179606
 40
0.1347492276901
 40
0.2402651464556
 40
0.3658752599938
 40
0.5086499274268
 40
0.6648487994146
 40
0.8301795627838
 40
1.0
 40
1.0
 40
1.0
 40
1.0
 10
20.9565966825238
 20
1.178974740278257
 30
0.0
 10
20.9531278733238
 20
1.174549443458258
 30
0.0
 10
20.9418645780438
 20
1.164814606368257
 30
0.0
 10
20.9189456437038
 20
1.151734834028258
 30
0.0
 10
20.8868744604838
 20
1.138988159308257
 30
0.0
 10
20.8476103088238
 20
1.127427758358258
 30
0.0
 10
20.8022232526238
 20
1.117471780968258
 30
0.0
 10
20.7520628024838
 20
1.109424367608258
 30
0.0
 10
20.6986292011038
 20
1.103547175788258
 30
0.0
 10
20.6620354242638
 20
1.101206849618258
 30
0.0
 10
20.6434789934138
 20
1.100435548178258
 30
0.0
  0
ARC
  5
2AE
330
1F
100
AcDbEntity
  8
IGES_LEVEL_0
 62
     7
100
AcDbCircle
 10
20.93453951659511
 20
1.197982702342332
 30
0.0
 40
0.0291173692258595
100
AcDbArc
 50
319.2465833663291
 51
359.3388535379078
  0
LINE
  5
2AF
330
1F
100
AcDbEntity
  8
IGES_LEVEL_0
 62
     7
100
AcDbLine
 10
21.0423278446838
 20
1.148605337308258
 30
0.0
 11
21.0416235840138
 21
1.152900791898258
 31
0.0
  0
LINE
  5
2B0
330
1F
100
AcDbEntity
  8
IGES_LEVEL_0
 62
     7
100
AcDbLine
 10
21.1916546112938
 20
0.238009174388257
 30
0.0
 11
21.0423278446838
 21
1.148605337308258
 31
0.0
  0
ARC
  5
2B1
330
1F
100
AcDbEntity
  8
IGES_LEVEL_0
 62
     7
100
AcDbCircle
 10
20.64805842116916
 20
0.9867287969188577
 30
0.0
 40
0.9809466730573044
100
AcDbArc
 50
251.8664413515764
 51
272.7766250031093
  0
ARC
  5
2B2
330
1F
100
AcDbEntity
  8
IGES_LEVEL_0
 62
     7
100
AcDbCircle
 10
20.6638698185583
 20
0.9722365533719227
 30
0.0
 40
0.9658234031072527
100
AcDbArc
 50
271.8813501753082
 51
299.5437131566138
  0
SPLINE
  5
2B3
330
1F
100
AcDbEntity
  8
IGES_LEVEL_0
 62
     7
100
AcDbSpline
210
0.0
220
0.0
230
1.0
 70
     8
 71
     3
 72
    12
 73
     8
 74
     0
 42
0.0000000001
 43
0.0000000001
 40
0.0
 40
0.0
 40
0.0
 40
0.0
 40
0.1504559340702
 40
0.3507248969628
 40
0.5550096095294
 40
0.7722836657662
 40
1.0
 40
1.0
 40
1.0
 40
1.0
 10
21.0416339163938
 20
1.152817452858257
 30
0.0
 10
21.0405795177138
 20
1.159261560268258
 30
0.0
 10
21.0363742412138
 20
1.174053043748258
 30
0.0
 10
21.0238932383238
 20
1.194941268408258
 30
0.0
 10
21.0044425022738
 20
1.213907618378258
 30
0.0
 10
20.9806073746238
 20
1.229077405918258
 30
0.0
 10
20.9629668863238
 20
1.236939241798258
 30
0.0
 10
20.9537628239338
 20
1.240493520128258
 30
0.0
  0
ARC
  5
2B4
330
1F
100
AcDbEntity
  8
IGES_LEVEL_0
 62
     7
100
AcDbCircle
 10
21.08875531905773
 20
0.223619002883911
 30
0.0
 40
0.1050368464892665
100
AcDbArc
 50
299.271117977423
 51
329.2138518399219
  0
LINE
  5
2B5
330
1F
100
AcDbEntity
  8
IGES_LEVEL_0
 62
     7
100
AcDbLine
 10
21.1919693712238
 20
0.2359572250882568
 30
0.0
 11
21.1916537045738
 21
0.238012523728257
 31
0.0
  0
ARC
  5
2B6
330
1F
100
AcDbEntity
  8
IGES_LEVEL_0
 62
     7
100
AcDbCircle
 10
21.09085018369125
 20
0.221389476383674
 30
0.0
 40
0.1021631508400378
100
AcDbArc
 50
341.8016837464692
 51
8.197919060098858
  0
LINE
  5
2B7
330
1F
100
AcDbEntity
  8
IGES_LEVEL_0
 62
     7
100
AcDbLine
 10
21.1879016787038
 20
0.1894837277182568
 30
0.0
 11
21.1789909199038
 21
0.169857352928258
 31
0.0
  0
ARC
  5
2B8
330
1F
100
AcDbEntity
  8
IGES_LEVEL_0
 62
     7
100
AcDbCircle
 10
20.59386340955672
 20
2.174671948583718
 30
0.0
 40
1.075381583493765
100
AcDbArc
 50
263.4113266350727
 51
272.6444316335857
  0
LINE
  5
2B9
330
1F
100
AcDbEntity
  8
IGES_LEVEL_0
 62
     7
100
AcDbLine
 10
18.7135232746638
 20
25.80048149452826
 30
0.0
 11
18.7099576374238
 21
25.80056193483826
 31
0.0
  0
LINE
  5
2BA
330
1F
100
AcDbEntity
  8
IGES_LEVEL_0
 62
     7
100
AcDbLine
 10
18.7354231932338
 20
25.30065461056826
 30
0.0
 11
18.7338567112138
 21
25.30070470659826
 31
0.0
  0
ARC
  5
2BB
330
1F
100
AcDbEntity
  8
IGES_LEVEL_0
 62
     7
100
AcDbCircle
 10
10.5988917395538
 20
102.4883043582883
 30
0.0
 40
36.10999988817891
100
AcDbArc
 50
262.3779061238947
 51
269.5081165885761
  0
ARC
  5
2BC
330
1F
100
AcDbEntity
  8
IGES_LEVEL_0
 62
     7
100
AcDbCircle
 10
10.5988917395538
 20
102.4883043582883
 30
0.0
 40
36.11000018516288
100
AcDbArc
 50
254.9126817946072
 51
256.4380626119759
  0
ARC
  5
2BD
330
1F
100
AcDbEntity
  8
IGES_LEVEL_0
 62
     7
100
AcDbCircle
 10
10.5988917395538
 20
102.4883043582883
 30
0.0
 40
36.11000012757886
100
AcDbArc
 50
283.5617449597214
 51
285.0873262784365
  0
ARC
  5
2BE
330
1F
100
AcDbEntity
  8
IGES_LEVEL_0
 62
     7
100
AcDbCircle
 10
10.5988917395538
 20
102.4883043582883
 30
0.0
 40
36.11000009319231
100
AcDbArc
 50
270.4918834114239
 51
277.6219192969213
  0
ARC
  5
2BF
330
1F
100
AcDbEntity
  8
IGES_LEVEL_0
 62
     7
100
AcDbCircle
 10
10.5988917395538
 20
102.4883043582883
 30
0.0
 40
35.49000006938509
100
AcDbArc
 50
281.7588208334154
 51
285.7439991388454
  0
ARC
  5
2C0
330
1F
100
AcDbEntity
  8
IGES_LEVEL_0
 62
     7
100
AcDbCircle
 10
10.5988917395538
 20
102.4883043582883
 30
0.0
 40
35.49000013989442
100
AcDbArc
 50
265.8275698130145
 51
274.1723655463988
  0
ARC
  5
2C1
330
1F
100
AcDbEntity
  8
IGES_LEVEL_0
 62
     7
100
AcDbCircle
 10
10.5988917395538
 20
102.4883043582883
 30
0.0
 40
35.48999960401312
100
AcDbArc
 50
254.2560024150078
 51
258.2411129839098
  0
ARC
  5
2C2
330
1F
100
AcDbEntity
  8
IGES_LEVEL_0
 62
     7
100
AcDbCircle
 10
52.7669507395538
 20
24.08015135828826
 30
0.0
 40
0.3125
100
AcDbArc
 50
180.0
 51
0.0
  0
ARC
  5
2C3
330
1F
100
AcDbEntity
  8
IGES_LEVEL_0
 62
     7
100
AcDbCircle
 10
40.6661427395538
 20
24.06471235828826
 30
0.0
 40
0.312499702741087
100
AcDbArc
 50
344.9999999351323
 51
164.9999524814488
  0
ARC
  5
2C4
330
1F
100
AcDbEntity
  8
IGES_LEVEL_0
 62
     7
100
AcDbCircle
 10
38.42955873955381
 20
23.89429335828826
 30
0.0
 40
0.0499998460497608
100
AcDbArc
 50
183.1976280838284
 51
273.1976280838282
  0
ARC
  5
2C5
330
1F
100
AcDbEntity
  8
IGES_LEVEL_0
 62
     7
100
AcDbCircle
 10
36.6839227395538
 20
31.43798635828826
 30
0.0
 40
0.1000004174363522
100
AcDbArc
 50
166.405520373841
 51
282.4994127040397
  0
ARC
  5
2C6
330
1F
100
AcDbEntity
  8
IGES_LEVEL_0
 62
     7
100
AcDbCircle
 10
35.1692607395538
 20
38.25934735828826
 30
0.0
 40
0.0999999083245909
100
AcDbArc
 50
102.5006554689235
 51
218.2868495845835
  0
ARC
  5
2C7
330
1F
100
AcDbEntity
  8
IGES_LEVEL_0
 62
     7
100
AcDbCircle
 10
52.7147627395538
 20
25.80535435828826
 30
0.0
 40
0.0300002406365472
100
AcDbArc
 50
3.198793531816288
 51
93.19868696335799
  0
ARC
  5
2C8
330
1F
100
AcDbEntity
  8
IGES_LEVEL_0
 62
     7
100
AcDbCircle
 10
52.4002527395538
 20
25.78778335828826
 30
0.0
 40
0.0300001848536095
100
AcDbArc
 50
93.19678012301348
 51
183.1968866281899
  0
ARC
  5
2C9
330
1F
100
AcDbEntity
  8
IGES_LEVEL_0
 62
     7
100
AcDbCircle
 10
41.29161073955381
 20
24.91878135828826
 30
0.0
 40
0.0300001848536089
100
AcDbArc
 50
3.196780123020257
 51
93.19688662820349
  0
ARC
  5
2CA
330
1F
100
AcDbEntity
  8
IGES_LEVEL_0
 62
     7
100
AcDbCircle
 10
40.97710173955381
 20
24.90121035828826
 30
0.0
 40
0.0300002406365501
100
AcDbArc
 50
93.19879353181591
 51
183.1986869633715
  0
ARC
  5
2CB
330
1F
100
AcDbEntity
  8
IGES_LEVEL_0
 62
     7
100
AcDbCircle
 10
10.5988917395538
 20
59.88015135828826
 30
0.0
 40
36.11249999440629
100
AcDbArc
 50
257.4241619837035
 51
282.5758380162965
  0
LINE
  5
2CC
330
1F
100
AcDbEntity
  8
IGES_LEVEL_0
 62
     7
100
AcDbLine
 10
20.2022677395538
 20
69.73827735828826
 30
0.0
 11
20.2646087395538
 21
69.52536135828825
 31
0.0
  0
LINE
  5
2CD
330
1F
100
AcDbEntity
  8
IGES_LEVEL_0
 62
     7
100
AcDbLine
 10
20.0005937395538
 20
63.83992035828826
 30
0.0
 11
20.9629707395538
 21
69.62828135828825
 31
0.0
  0
LINE
  5
2CE
330
1F
100
AcDbEntity
  8
IGES_LEVEL_0
 62
     7
100
AcDbLine
 10
19.5995057395538
 20
51.20684235828826
 30
0.0
 11
19.5992337395538
 21
51.18221335828826
 31
0.0
  0
LINE
  5
2CF
330
1F
100
AcDbEntity
  8
IGES_LEVEL_0
 62
     7
100
AcDbLine
 10
19.5995057395538
 20
51.20684235828826
 30
0.0
 11
19.5995067395538
 21
51.21534635828826
 31
0.0
  0
LINE
  5
2D0
330
1F
100
AcDbEntity
  8
IGES_LEVEL_0
 62
     7
100
AcDbLine
 10
19.5735547395538
 20
66.77114935828826
 30
0.0
 11
19.5735547395538
 21
66.80149535828825
 31
0.0
  0
LINE
  5
2D1
330
1F
100
AcDbEntity
  8
IGES_LEVEL_0
 62
     7
100
AcDbLine
 10
20.1082337395538
 20
68.29809535828825
 30
0.0
 11
20.3463757395538
 21
69.73043535828825
 31
0.0
  0
LINE
  5
2D2
330
1F
100
AcDbEntity
  8
IGES_LEVEL_0
 62
     7
100
AcDbLine
 10
19.3946547395538
 20
64.00616935828825
 30
0.0
 11
20.0620927395538
 21
68.02057535828826
 31
0.0
  0
LINE
  5
2D3
330
1F
100
AcDbEntity
  8
IGES_LEVEL_0
 62
     7
100
AcDbLine
 10
18.6989267395538
 20
51.59513535828826
 30
0.0
 11
18.6989267395538
 21
51.59511935828826
 31
0.0
  0
LINE
  5
2D4
330
1F
100
AcDbEntity
  8
IGES_LEVEL_0
 62
     7
100
AcDbLine
 10
18.5839267395538
 20
51.59511535828826
 30
0.0
 11
18.5839267395538
 21
51.59513235828826
 31
0.0
  0
LINE
  5
2D5
330
1F
100
AcDbEntity
  8
IGES_LEVEL_0
 62
     7
100
AcDbLine
 10
18.8289267395538
 20
51.59203635828826
 30
0.0
 11
18.8289267395538
 21
51.59343135828826
 31
0.0
  0
LINE
  5
2D6
330
1F
100
AcDbEntity
  8
IGES_LEVEL_0
 62
     7
100
AcDbLine
 10
18.4539267395538
 20
51.59207835828826
 30
0.0
 11
18.4539267395538
 21
51.59347335828826
 31
0.0
  0
LINE
  5
2D7
330
1F
100
AcDbEntity
  8
IGES_LEVEL_0
 62
     7
100
AcDbLine
 10
17.6430207395538
 20
63.01464835828826
 30
0.0
 11
17.6430207395538
 21
63.01604335828826
 31
0.0
  0
LINE
  5
2D8
330
1F
100
AcDbEntity
  8
IGES_LEVEL_0
 62
     7
100
AcDbLine
 10
0.2433297395538019
 20
70.37222035828825
 30
0.0
 11
0.2390017395538018
 21
70.37402335828824
 31
0.0
  0
LINE
  5
2D9
330
1F
100
AcDbEntity
  8
IGES_LEVEL_0
 62
     7
100
AcDbLine
 10
17.5130207395538
 20
63.01774735828826
 30
0.0
 11
17.5130207395538
 21
63.01773035828826
 31
0.0
  0
LINE
  5
2DA
330
1F
100
AcDbEntity
  8
IGES_LEVEL_0
 62
     7
100
AcDbLine
 10
17.3980207395538
 20
63.01772735828826
 30
0.0
 11
17.3980207395538
 21
63.01774435828826
 31
0.0
  0
LINE
  5
2DB
330
1F
100
AcDbEntity
  8
IGES_LEVEL_0
 62
     7
100
AcDbLine
 10
17.2680207395538
 20
63.01469035828826
 30
0.0
 11
17.2680207395538
 21
63.01608435828826
 31
0.0
  0
LINE
  5
2DC
330
1F
100
AcDbEntity
  8
IGES_LEVEL_0
 62
     7
100
AcDbLine
 10
18.7818427395538
 20
66.77561435828825
 30
0.0
 11
18.7733517395538
 21
66.75255235828826
 31
0.0
  0
LINE
  5
2DD
330
1F
100
AcDbEntity
  8
IGES_LEVEL_0
 62
     7
100
AcDbLine
 10
18.2374867395538
 20
66.03265135828825
 30
0.0
 11
18.2289957395538
 21
66.00958835828826
 31
0.0
  0
LINE
  5
2DE
330
1F
100
AcDbEntity
  8
IGES_LEVEL_0
 62
     7
100
AcDbLine
 10
18.4299377395538
 20
66.90518235828824
 30
0.0
 11
18.4214467395538
 21
66.88212035828826
 31
0.0
  0
LINE
  5
2DF
330
1F
100
AcDbEntity
  8
IGES_LEVEL_0
 62
     7
100
AcDbLine
 10
17.8855817395538
 20
66.16221835828824
 30
0.0
 11
17.8770907395538
 21
66.13915635828826
 31
0.0
  0
LINE
  5
2E0
330
1F
100
AcDbEntity
  8
IGES_LEVEL_0
 62
     7
100
AcDbLine
 10
18.6411677395538
 20
66.76980035828825
 30
0.0
 11
18.6408677395538
 21
66.76925535828825
 31
0.0
  0
LINE
  5
2E1
330
1F
100
AcDbEntity
  8
IGES_LEVEL_0
 62
     7
100
AcDbLine
 10
18.5332517395538
 20
66.80952335828826
 30
0.0
 11
18.5335517395538
 21
66.81006735828825
 31
0.0
  0
LINE
  5
2E2
330
1F
100
AcDbEntity
  8
IGES_LEVEL_0
 62
     7
100
AcDbLine
 10
18.0968117395538
 20
66.02683635828825
 30
0.0
 11
18.0965117395538
 21
66.02629135828826
 31
0.0
  0
LINE
  5
2E3
330
1F
100
AcDbEntity
  8
IGES_LEVEL_0
 62
     7
100
AcDbLine
 10
17.9888957395538
 20
66.06655935828826
 30
0.0
 11
17.9891957395538
 21
66.06710435828825
 31
0.0
  0
LINE
  5
2E4
330
1F
100
AcDbEntity
  8
IGES_LEVEL_0
 62
     7
100
AcDbLine
 10
1.567702739553802
 20
48.51337735828826
 30
0.0
 11
1.304011739553802
 21
48.25884135828826
 31
0.0
  0
LINE
  5
2E5
330
1F
100
AcDbEntity
  8
IGES_LEVEL_0
 62
     7
100
AcDbLine
 10
2.514541739553802
 20
49.42734635828826
 30
0.0
 11
1.667665739553802
 21
48.60987035828826
 31
0.0
  0
LINE
  5
2E6
330
1F
100
AcDbEntity
  8
IGES_LEVEL_0
 62
     7
100
AcDbLine
 10
17.6192367395538
 20
65.19058735828826
 30
0.0
 11
18.1505347395538
 21
65.87715035828825
 31
0.0
  0
LINE
  5
2E7
330
1F
100
AcDbEntity
  8
IGES_LEVEL_0
 62
     7
100
AcDbLine
 10
21.0985917395538
 20
69.58416435828825
 30
0.0
 11
20.9739227395538
 21
69.40743035828825
 31
0.0
  0
LINE
  5
2E8
330
1F
100
AcDbEntity
  8
IGES_LEVEL_0
 62
     7
100
AcDbLine
 10
2.027326739553802
 20
49.82572235828826
 30
0.0
 11
0.869944739553802
 21
48.70851935828826
 31
0.0
  0
LINE
  5
2E9
330
1F
100
AcDbEntity
  8
IGES_LEVEL_0
 62
     7
100
AcDbLine
 10
17.1249527395538
 20
65.57309035828826
 30
0.0
 11
17.5231817395538
 21
66.08769535828824
 31
0.0
  0
LINE
  5
2EA
330
1F
100
AcDbEntity
  8
IGES_LEVEL_0
 62
     7
100
AcDbLine
 10
10.9088917395538
 20
50.01249435828826
 30
0.0
 11
10.9088917395538
 21
49.13337735828826
 31
0.0
  0
LINE
  5
2EB
330
1F
100
AcDbEntity
  8
IGES_LEVEL_0
 62
     7
100
AcDbLine
 10
10.9088917395538
 20
66.37963535828826
 30
0.0
 11
10.9088917395538
 21
65.77112535828826
 31
0.0
  0
LINE
  5
2EC
330
1F
100
AcDbEntity
  8
IGES_LEVEL_0
 62
     7
100
AcDbLine
 10
20.3278397395538
 20
48.70851935828826
 30
0.0
 11
19.1704577395538
 21
49.82572235828826
 31
0.0
  0
LINE
  5
2ED
330
1F
100
AcDbEntity
  8
IGES_LEVEL_0
 62
     7
100
AcDbLine
 10
10.2888917395538
 20
50.01239035828826
 30
0.0
 11
10.2888917395538
 21
49.13337735828826
 31
0.0
  0
LINE
  5
2EE
330
1F
100
AcDbEntity
  8
IGES_LEVEL_0
 62
     7
100
AcDbLine
 10
10.2888917395538
 20
66.37963535828826
 30
0.0
 11
10.2888917395538
 21
65.77106535828825
 31
0.0
  0
LINE
  5
2EF
330
1F
100
AcDbEntity
  8
IGES_LEVEL_0
 62
     7
100
AcDbLine
 10
3.674602739553802
 20
66.08769535828824
 30
0.0
 11
4.072831739553802
 21
65.57309035828826
 31
0.0
  0
LINE
  5
2F0
330
1F
100
AcDbEntity
  8
IGES_LEVEL_0
 62
     7
100
AcDbLine
 10
3.047241739553802
 20
65.87715935828825
 30
0.0
 11
3.578547739553802
 21
65.19058735828826
 31
0.0
  0
LINE
  5
2F1
330
1F
100
AcDbEntity
  8
IGES_LEVEL_0
 62
     7
100
AcDbLine
 10
19.5301237395538
 20
48.60986535828826
 30
0.0
 11
18.6832427395538
 21
49.42734635828826
 31
0.0
  0
LINE
  5
2F2
330
1F
100
AcDbEntity
  8
IGES_LEVEL_0
 62
     7
100
AcDbLine
 10
19.8937727395538
 20
48.25884135828826
 30
0.0
 11
19.6300817395538
 21
48.51337735828826
 31
0.0
  0
LINE
  5
2F3
330
1F
100
AcDbEntity
  8
IGES_LEVEL_0
 62
     7
100
AcDbLine
 10
0.0991957395538017
 20
69.58415935828825
 30
0.0
 11
0.2238617395538021
 21
69.40743035828825
 31
0.0
  0
LINE
  5
2F4
330
1F
100
AcDbEntity
  8
IGES_LEVEL_0
 62
     7
100
AcDbLine
 10
20.9544547395538
 20
70.37221935828825
 30
0.0
 11
20.9587827395538
 21
70.37402435828825
 31
0.0
  0
LINE
  5
2F5
330
1F
100
AcDbEntity
  8
IGES_LEVEL_0
 62
     7
100
AcDbLine
 10
1.135679739553801
 20
68.02064235828826
 30
0.0
 11
1.803125739553802
 21
64.00619335828824
 31
0.0
  0
LINE
  5
2F6
330
1F
100
AcDbEntity
  8
IGES_LEVEL_0
 62
     7
100
AcDbLine
 10
0.8514087395538019
 20
69.73043535828825
 30
0.0
 11
1.089550739553802
 21
68.29809535828825
 31
0.0
  0
LINE
  5
2F7
330
1F
100
AcDbEntity
  8
IGES_LEVEL_0
 62
     7
100
AcDbLine
 10
0.2348137395538018
 20
69.62828135828825
 30
0.0
 11
1.197190739553802
 21
63.83992035828826
 31
0.0
  0
LINE
  5
2F8
330
1F
100
AcDbEntity
  8
IGES_LEVEL_0
 62
     7
100
AcDbLine
 10
1.624229739553802
 20
66.77105535828825
 30
0.0
 11
1.624229739553802
 21
66.80138135828825
 31
0.0
  0
LINE
  5
2F9
330
1F
100
AcDbEntity
  8
IGES_LEVEL_0
 62
     7
100
AcDbLine
 10
10.9088917395538
 20
49.13337735828826
 30
0.0
 11
18.9877847395538
 21
49.13337735828826
 31
0.0
  0
LINE
  5
2FA
330
1F
100
AcDbEntity
  8
IGES_LEVEL_0
 62
     7
100
AcDbLine
 10
2.209999739553802
 20
49.13337735828826
 30
0.0
 11
10.2888917395538
 21
49.13337735828826
 31
0.0
  0
LINE
  5
2FB
330
1F
100
AcDbEntity
  8
IGES_LEVEL_0
 62
     7
100
AcDbLine
 10
1.481568739553802
 20
48.51337735828826
 30
0.0
 11
19.7162967395538
 21
48.51337735828826
 31
0.0
  0
LINE
  5
2FC
330
1F
100
AcDbEntity
  8
IGES_LEVEL_0
 62
     7
100
AcDbLine
 10
0.9955187395538014
 20
69.73828535828825
 30
0.0
 11
0.9331757395538021
 21
69.52536135828825
 31
0.0
  0
LINE
  5
2FD
330
1F
100
AcDbEntity
  8
IGES_LEVEL_0
 62
     7
100
AcDbLine
 10
35.1476127395538
 20
38.35697635828826
 30
0.0
 11
36.7930997395538
 21
38.72177135828826
 31
0.0
  0
LINE
  5
2FE
330
1F
100
AcDbEntity
  8
IGES_LEVEL_0
 62
     7
100
AcDbLine
 10
36.7055467395538
 20
31.34035235828826
 30
0.0
 11
37.5221957395538
 21
31.52139935828826
 31
0.0
  0
LINE
  5
2FF
330
1F
100
AcDbEntity
  8
IGES_LEVEL_0
 62
     7
100
AcDbLine
 10
55.2238787395538
 20
1.138914358288258
 30
0.0
 11
55.1824547395538
 21
0.1426613582882567
 31
0.0
  0
LINE
  5
300
330
1F
100
AcDbEntity
  8
IGES_LEVEL_0
 62
     7
100
AcDbLine
 10
54.80705573955381
 20
23.45174535828826
 30
0.0
 11
55.92803173955381
 21
1.235791358288257
 31
0.0
  0
LINE
  5
301
330
1F
100
AcDbEntity
  8
IGES_LEVEL_0
 62
     7
100
AcDbLine
 10
56.1556497395538
 20
0.1917673582882568
 30
0.0
 11
56.0141527395538
 21
1.178790358288258
 31
0.0
  0
LINE
  5
302
330
1F
100
AcDbEntity
  8
IGES_LEVEL_0
 62
     7
100
AcDbLine
 10
52.69528973955381
 20
24.67886835828826
 30
0.0
 11
52.69525073955381
 21
24.67897235828826
 31
0.0
  0
LINE
  5
303
330
1F
100
AcDbEntity
  8
IGES_LEVEL_0
 62
     7
100
AcDbLine
 10
53.0794507395538
 20
24.66597435828826
 30
0.0
 11
53.0794507395538
 21
24.08015135828826
 31
0.0
  0
LINE
  5
304
330
1F
100
AcDbEntity
  8
IGES_LEVEL_0
 62
     7
100
AcDbLine
 10
54.18284973955381
 20
23.42024935828826
 30
0.0
 11
55.30382473955381
 21
1.204298358288259
 31
0.0
  0
LINE
  5
305
330
1F
100
AcDbEntity
  8
IGES_LEVEL_0
 62
     7
100
AcDbLine
 10
54.0798277395538
 20
25.28883635828826
 30
0.0
 11
54.07900273955381
 21
25.30379335828826
 31
0.0
  0
LINE
  5
306
330
1F
100
AcDbEntity
  8
IGES_LEVEL_0
 62
     7
100
AcDbLine
 10
54.07900273955381
 20
25.30379335828826
 30
0.0
 11
54.0784317395538
 21
25.31415935828826
 31
0.0
  0
LINE
  5
307
330
1F
100
AcDbEntity
  8
IGES_LEVEL_0
 62
     7
100
AcDbLine
 10
54.10339773955381
 20
24.86093335828826
 30
0.0
 11
54.0798277395538
 21
25.28883635828826
 31
0.0
  0
LINE
  5
308
330
1F
100
AcDbEntity
  8
IGES_LEVEL_0
 62
     7
100
AcDbLine
 10
54.0784317395538
 20
25.31415935828826
 30
0.0
 11
54.0781617395538
 21
25.31905535828826
 31
0.0
  0
LINE
  5
309
330
1F
100
AcDbEntity
  8
IGES_LEVEL_0
 62
     7
100
AcDbLine
 10
54.0781597395538
 20
25.31909535828826
 30
0.0
 11
54.0705917395538
 21
25.45456035828826
 31
0.0
  0
LINE
  5
30A
330
1F
100
AcDbEntity
  8
IGES_LEVEL_0
 62
     7
100
AcDbLine
 10
52.4544507395538
 20
24.66531335828826
 30
0.0
 11
52.4544507395538
 21
24.08015135828826
 31
0.0
  0
LINE
  5
30B
330
1F
100
AcDbEntity
  8
IGES_LEVEL_0
 62
     7
100
AcDbLine
 10
52.3706337395538
 20
25.78013135828826
 30
0.0
 11
52.37029973955381
 21
25.78611035828826
 31
0.0
  0
LINE
  5
30C
330
1F
100
AcDbEntity
  8
IGES_LEVEL_0
 62
     7
100
AcDbLine
 10
52.94525073955381
 20
25.49346035828826
 30
0.0
 11
52.9452487395538
 21
25.49346035828826
 31
0.0
  0
LINE
  5
30D
330
1F
100
AcDbEntity
  8
IGES_LEVEL_0
 62
     7
100
AcDbLine
 10
52.7126507395538
 20
25.83528335828826
 30
0.0
 11
52.71292873955381
 21
25.83529935828826
 31
0.0
  0
LINE
  5
30E
330
1F
100
AcDbEntity
  8
IGES_LEVEL_0
 62
     7
100
AcDbLine
 10
40.9754277395538
 20
24.93116335828826
 30
0.0
 11
41.28977773955381
 21
24.94872535828826
 31
0.0
  0
LINE
  5
30F
330
1F
100
AcDbEntity
  8
IGES_LEVEL_0
 62
     7
100
AcDbLine
 10
52.3985797395538
 20
25.81773735828826
 30
0.0
 11
52.7126507395538
 21
25.83528335828826
 31
0.0
  0
LINE
  5
310
330
1F
100
AcDbEntity
  8
IGES_LEVEL_0
 62
     7
100
AcDbLine
 10
52.3678757395538
 20
25.78036835828826
 30
0.0
 11
52.3706117395538
 21
25.78052135828826
 31
0.0
  0
LINE
  5
311
330
1F
100
AcDbEntity
  8
IGES_LEVEL_0
 62
     7
100
AcDbLine
 10
52.6588317395538
 20
25.30270635828826
 30
0.0
 11
52.7495187395538
 21
25.30777335828826
 31
0.0
  0
LINE
  5
312
330
1F
100
AcDbEntity
  8
IGES_LEVEL_0
 62
     7
100
AcDbLine
 10
45.1584377395538
 20
24.88367135828826
 30
0.0
 11
52.4914747395538
 21
25.29335635828826
 31
0.0
  0
LINE
  5
313
330
1F
100
AcDbEntity
  8
IGES_LEVEL_0
 62
     7
100
AcDbLine
 10
40.02036373955381
 20
24.56713735828826
 30
0.0
 11
40.0204277395538
 21
24.56714235828826
 31
0.0
  0
LINE
  5
314
330
1F
100
AcDbEntity
  8
IGES_LEVEL_0
 62
     7
100
AcDbLine
 10
52.69346673955381
 20
24.67866635828826
 30
0.0
 11
52.70638873955381
 21
24.67938835828826
 31
0.0
  0
LINE
  5
315
330
1F
100
AcDbEntity
  8
IGES_LEVEL_0
 62
     7
100
AcDbLine
 10
41.2541167395538
 20
24.03956835828826
 30
0.0
 11
52.54119573955381
 21
24.67015935828826
 31
0.0
  0
LINE
  5
316
330
1F
100
AcDbEntity
  8
IGES_LEVEL_0
 62
     7
100
AcDbLine
 10
40.9754797395538
 20
24.02400135828826
 30
0.0
 11
41.1010357395538
 21
24.03101635828826
 31
0.0
  0
LINE
  5
317
330
1F
100
AcDbEntity
  8
IGES_LEVEL_0
 62
     7
100
AcDbLine
 10
40.3084897395538
 20
23.98673735828826
 30
0.0
 11
40.32192673955381
 21
23.98748835828826
 31
0.0
  0
LINE
  5
318
330
1F
100
AcDbEntity
  8
IGES_LEVEL_0
 62
     7
100
AcDbLine
 10
40.31058073955381
 20
23.94930535828826
 30
0.0
 11
38.4323477395538
 21
23.84437135828826
 31
0.0
  0
LINE
  5
319
330
1F
100
AcDbEntity
  8
IGES_LEVEL_0
 62
     7
100
AcDbLine
 10
52.4544507395538
 20
24.62776435828826
 30
0.0
 11
40.96852373955381
 21
23.98606335828826
 31
0.0
  0
LINE
  5
31A
330
1F
100
AcDbEntity
  8
IGES_LEVEL_0
 62
     7
100
AcDbLine
 10
34.13467473955381
 20
1.246122358288258
 30
0.0
 11
34.10676373955381
 21
1.200020358288257
 31
0.0
  0
LINE
  5
31B
330
1F
100
AcDbEntity
  8
IGES_LEVEL_0
 62
     7
100
AcDbLine
 10
41.3216777395538
 20
24.91842935828826
 30
0.0
 11
41.3215647395538
 21
24.92045435828826
 31
0.0
  0
LINE
  5
31C
330
1F
100
AcDbEntity
  8
IGES_LEVEL_0
 62
     7
100
AcDbLine
 10
36.4186507395538
 20
7.005446358288257
 30
0.0
 11
40.9677007395538
 21
23.98273335828826
 31
0.0
  0
LINE
  5
31D
330
1F
100
AcDbEntity
  8
IGES_LEVEL_0
 62
     7
100
AcDbLine
 10
34.8384577395538
 20
1.108085358288257
 30
0.0
 11
36.3826417395538
 21
6.871059358288257
 31
0.0
  0
LINE
  5
31E
330
1F
100
AcDbEntity
  8
IGES_LEVEL_0
 62
     7
100
AcDbLine
 10
40.94770973955381
 20
24.88948435828826
 30
0.0
 11
40.94714773955381
 21
24.89953635828826
 31
0.0
  0
LINE
  5
31F
330
1F
100
AcDbEntity
  8
IGES_LEVEL_0
 62
     7
100
AcDbLine
 10
36.6084027395538
 20
37.42571235828826
 30
0.0
 11
38.4564767395538
 21
25.48470935828826
 31
0.0
  0
LINE
  5
320
330
1F
100
AcDbEntity
  8
IGES_LEVEL_0
 62
     7
100
AcDbLine
 10
36.5650087395538
 20
32.07742835828826
 30
0.0
 11
35.33401273955381
 21
37.63009035828826
 31
0.0
  0
LINE
  5
321
330
1F
100
AcDbEntity
  8
IGES_LEVEL_0
 62
     7
100
AcDbLine
 10
34.2349237395538
 20
1.270482358288258
 30
0.0
 11
40.36399673955381
 21
24.14449435828826
 31
0.0
  0
LINE
  5
322
330
1F
100
AcDbEntity
  8
IGES_LEVEL_0
 62
     7
100
AcDbLine
 10
38.3796337395538
 20
23.89154835828826
 30
0.0
 11
38.37126673955381
 21
24.04131435828826
 31
0.0
  0
LINE
  5
323
330
1F
100
AcDbEntity
  8
IGES_LEVEL_0
 62
     7
100
AcDbLine
 10
34.77596473955381
 20
0.1648233582882583
 30
0.0
 11
34.9044627395538
 21
1.029517358288257
 31
0.0
  0
LINE
  5
324
330
1F
100
AcDbEntity
  8
IGES_LEVEL_0
 62
     7
100
AcDbLine
 10
36.50302173955381
 20
7.320326358288257
 30
0.0
 11
54.99522173955381
 21
7.320326358288257
 31
0.0
  0
LINE
  5
325
330
1F
100
AcDbEntity
  8
IGES_LEVEL_0
 62
     7
100
AcDbLine
 10
36.33689373955381
 20
6.700326358288257
 30
0.0
 11
55.02650573955381
 21
6.700326358288257
 31
0.0
  0
LINE
  5
326
330
1F
100
AcDbEntity
  8
IGES_LEVEL_0
 62
     7
100
AcDbLine
 10
36.60855673955381
 20
37.42564135828826
 30
0.0
 11
36.6097717395538
 21
37.43015735828826
 31
0.0
  0
LINE
  5
327
330
1F
100
AcDbEntity
  8
IGES_LEVEL_0
 62
     7
100
AcDbLine
 10
19.6696637395538
 20
1.138154358288258
 30
0.0
 11
19.6300477395538
 21
0.1417253582882573
 31
0.0
  0
LINE
  5
328
330
1F
100
AcDbEntity
  8
IGES_LEVEL_0
 62
     7
100
AcDbLine
 10
19.6300517395538
 20
0.1417663582882568
 30
0.0
 11
19.6299957395538
 21
0.139302358288257
 31
0.0
  0
LINE
  5
329
330
1F
100
AcDbEntity
  8
IGES_LEVEL_0
 62
     7
100
AcDbLine
 10
19.5995057395538
 20
25.54316235828826
 30
0.0
 11
19.5995067395538
 21
25.69057335828826
 31
0.0
  0
LINE
  5
32A
330
1F
100
AcDbEntity
  8
IGES_LEVEL_0
 62
     7
100
AcDbLine
 10
20.0045157395538
 20
22.54781535828826
 30
0.0
 11
20.9564817395538
 21
1.179065358288259
 31
0.0
  0
LINE
  5
32B
330
1F
100
AcDbEntity
  8
IGES_LEVEL_0
 62
     7
100
AcDbLine
 10
19.3801347395538
 20
22.51999935828826
 30
0.0
 11
20.0572937395538
 21
7.319826358288257
 31
0.0
  0
LINE
  5
32C
330
1F
100
AcDbEntity
  8
IGES_LEVEL_0
 62
     7
100
AcDbLine
 10
20.3736537395538
 20
1.236098358288258
 30
0.0
 11
19.2123507395538
 21
23.45231035828826
 31
0.0
  0
LINE
  5
32D
330
1F
100
AcDbEntity
  8
IGES_LEVEL_0
 62
     7
100
AcDbLine
 10
19.4298797395538
 20
7.318055358288257
 30
0.0
 11
18.5882027395538
 21
23.41968435828826
 31
0.0
  0
LINE
  5
32E
330
1F
100
AcDbEntity
  8
IGES_LEVEL_0
 62
     7
100
AcDbLine
 10
19.7495057395538
 20
1.203473358288257
 30
0.0
 11
19.4620657395538
 21
6.702316358288257
 31
0.0
  0
LINE
  5
32F
330
1F
100
AcDbEntity
  8
IGES_LEVEL_0
 62
     7
100
AcDbLine
 10
20.6031537395538
 20
0.1926393582882579
 30
0.0
 11
20.4598657395538
 21
1.179498358288257
 31
0.0
  0
LINE
  5
330
330
1F
100
AcDbEntity
  8
IGES_LEVEL_0
 62
     7
100
AcDbLine
 10
17.6967707395538
 20
25.61552635828826
 30
0.0
 11
18.4372317395538
 21
31.79804035828826
 31
0.0
  0
LINE
  5
331
330
1F
100
AcDbEntity
  8
IGES_LEVEL_0
 62
     7
100
AcDbLine
 10
17.0618117395538
 20
25.56966635828826
 30
0.0
 11
17.7877207395538
 21
31.63067535828826
 31
0.0
  0
LINE
  5
332
330
1F
100
AcDbEntity
  8
IGES_LEVEL_0
 62
     7
100
AcDbLine
 10
3.627095739553802
 20
24.06143435828826
 30
0.0
 11
2.720917739553802
 21
24.55057635828826
 31
0.0
  0
LINE
  5
333
330
1F
100
AcDbEntity
  8
IGES_LEVEL_0
 62
     7
100
AcDbLine
 10
18.4768667395538
 20
24.55057635828826
 30
0.0
 11
17.5706997395538
 21
24.06144035828826
 31
0.0
  0
LINE
  5
334
330
1F
100
AcDbEntity
  8
IGES_LEVEL_0
 62
     7
100
AcDbLine
 10
3.410063739553802
 20
31.63067535828826
 30
0.0
 11
4.135972739553802
 21
25.56966635828826
 31
0.0
  0
LINE
  5
335
330
1F
100
AcDbEntity
  8
IGES_LEVEL_0
 62
     7
100
AcDbLine
 10
2.760536739553802
 20
31.79817635828826
 30
0.0
 11
3.500870739553802
 21
25.61671335828826
 31
0.0
  0
LINE
  5
336
330
1F
100
AcDbEntity
  8
IGES_LEVEL_0
 62
     7
100
AcDbLine
 10
0.7379137395538016
 20
1.179460358288257
 30
0.0
 11
0.5946247395538014
 21
0.1925933582882567
 31
0.0
  0
LINE
  5
337
330
1F
100
AcDbEntity
  8
IGES_LEVEL_0
 62
     7
100
AcDbLine
 10
0.5946327395538016
 20
0.192633358288257
 30
0.0
 11
0.5943207395538015
 21
0.190187358288258
 31
0.0
  0
LINE
  5
338
330
1F
100
AcDbEntity
  8
IGES_LEVEL_0
 62
     7
100
AcDbLine
 10
1.735706739553802
 20
6.702096358288257
 30
0.0
 11
1.448278739553802
 21
1.203473358288257
 31
0.0
  0
LINE
  5
339
330
1F
100
AcDbEntity
  8
IGES_LEVEL_0
 62
     7
100
AcDbLine
 10
2.609581739553802
 20
23.41968435828826
 30
0.0
 11
1.767913739553802
 21
7.318220358288258
 31
0.0
  0
LINE
  5
33A
330
1F
100
AcDbEntity
  8
IGES_LEVEL_0
 62
     7
100
AcDbLine
 10
1.985433739553802
 20
23.45231035828826
 30
0.0
 11
0.824130739553802
 21
1.236099358288257
 31
0.0
  0
LINE
  5
33B
330
1F
100
AcDbEntity
  8
IGES_LEVEL_0
 62
     7
100
AcDbLine
 10
1.140490739553802
 20
7.319838358288257
 30
0.0
 11
1.817648739553802
 21
22.51999935828826
 31
0.0
  0
LINE
  5
33C
330
1F
100
AcDbEntity
  8
IGES_LEVEL_0
 62
     7
100
AcDbLine
 10
1.602637739553802
 20
25.69059435828826
 30
0.0
 11
1.602649739553802
 21
25.69197535828826
 31
0.0
  0
LINE
  5
33D
330
1F
100
AcDbEntity
  8
IGES_LEVEL_0
 62
     7
100
AcDbLine
 10
2.496589739553802
 20
25.30712935828826
 30
0.0
 11
2.496589739553802
 21
25.31376035828826
 31
0.0
  0
LINE
  5
33E
330
1F
100
AcDbEntity
  8
IGES_LEVEL_0
 62
     7
100
AcDbLine
 10
1.602636739553802
 20
25.54344635828826
 30
0.0
 11
1.602637739553802
 21
25.69085735828826
 31
0.0
  0
LINE
  5
33F
330
1F
100
AcDbEntity
  8
IGES_LEVEL_0
 62
     7
100
AcDbLine
 10
0.2413027395538019
 20
1.179065358288258
 30
0.0
 11
1.193268739553802
 21
22.54781535828826
 31
0.0
  0
LINE
  5
340
330
1F
100
AcDbEntity
  8
IGES_LEVEL_0
 62
     7
100
AcDbLine
 10
1.567735739553802
 20
0.1417723582882577
 30
0.0
 11
1.528119739553802
 21
1.138192358288258
 31
0.0
  0
LINE
  5
341
330
1F
100
AcDbEntity
  8
IGES_LEVEL_0
 62
     7
100
AcDbLine
 10
1.767589739553802
 20
7.320326358288257
 30
0.0
 11
19.4301947395538
 21
7.320326358288257
 31
0.0
  0
LINE
  5
342
330
1F
100
AcDbEntity
  8
IGES_LEVEL_0
 62
     7
100
AcDbLine
 10
20.0880237395538
 20
6.700326358288257
 30
0.0
 11
20.1246037395538
 21
6.700326358288257
 31
0.0
  0
LINE
  5
343
330
1F
100
AcDbEntity
  8
IGES_LEVEL_0
 62
     7
100
AcDbLine
 10
1.735262739553802
 20
6.700326358288257
 30
0.0
 11
19.4625217395538
 21
6.700326358288257
 31
0.0
  0
LINE
  5
344
330
1F
100
AcDbEntity
  8
IGES_LEVEL_0
 62
     7
100
AcDbLine
 10
1.075121739553802
 20
6.700326358288257
 30
0.0
 11
1.109760739553801
 21
6.700326358288257
 31
0.0
  0
ENDSEC
  0
SECTION
  2
OBJECTS
  0
DICTIONARY
  5
C
330
0
100
AcDbDictionary
  3
ACAD_GROUP
350
D
  3
ACAD_LAYOUT
350
1A
  3
ACAD_MLINESTYLE
350
17
  3
ACAD_PLOTSETTINGS
350
19
  3
ACDBHEADERROUNDTRIPXREC
350
345
  0
DICTIONARY
  5
365
330
29
100
AcDbDictionary
280
     1
  3
ACAD_XREC_ROUNDTRIP
360
366
  0
DICTIONARY
  5
D
102
{ACAD_REACTORS
330
C
102
}
330
C
100
AcDbDictionary
  0
DICTIONARY
  5
1A
102
{ACAD_REACTORS
330
C
102
}
330
C
100
AcDbDictionary
  0
DICTIONARY
  5
17
102
{ACAD_REACTORS
330
C
102
}
330
C
100
AcDbDictionary
  3
STANDARD
350
18
  0
DICTIONARY
  5
19
102
{ACAD_REACTORS
330
C
102
}
330
C
100
AcDbDictionary
  0
DICTIONARY
  5
345
102
{ACAD_REACTORS
330
C
102
}
330
C
100
AcDbDictionary
  3
CEPSNTYPE
350
34E
  3
DIMSTYLEDATA
350
364
  3
FINGERPRINTGUID
350
34F
  3
HYPERLINKBASE
350
348
  3
INSUNITS
350
34D
  3
LAYOUTDICT
350
34A
  3
LWETCUNION
350
34C
  3
PLOTSETDICT
350
34B
  3
PSVPSCALE
350
351
  3
PUCSBASE
350
354
  3
PUCSORGBACK
350
35A
  3
PUCSORGBOTTOM
350
356
  3
PUCSORGFRONT
350
359
  3
PUCSORGLEFT
350
357
  3
PUCSORGRIGHT
350
358
  3
PUCSORGTOP
350
355
  3
PUCSORTHOREF
350
352
  3
PUCSORTHOVIEW
350
353
  3
STYLESHEET
350
349
  3
TSTACKALIGN
350
346
  3
TSTACKSIZE
350
347
  3
UCSBASE
350
35D
  3
UCSORGBACK
350
363
  3
UCSORGBOTTOM
350
35F
  3
UCSORGFRONT
350
362
  3
UCSORGLEFT
350
360
  3
UCSORGRIGHT
350
361
  3
UCSORGTOP
350
35E
  3
UCSORTHOREF
350
35B
  3
UCSORTHOVIEW
350
35C
  3
VERSIONGUID
350
350
  0
XRECORD
  5
366
102
{ACAD_REACTORS
330
365
102
}
330
365
100
AcDbXrecord
102
UCS
 74
     0
 71
     1
 10
0.0
 20
0.0
 30
0.0
 10
1.0
 20
0.0
 30
0.0
 10
0.0
 20
1.0
 30
0.0
146
0.0
 79
     0
102
VIEW
281
     0
  0
MLINESTYLE
  5
18
102
{ACAD_REACTORS
330
17
102
}
330
17
100
AcDbMlineStyle
  2
Standard
 70
     0
  3

 62
   256
 51
90.0
 52
90.0
 71
     2
 49
0.5
 62
   256
  6
BYLAYER
 49
-0.5
 62
   256
  6
BYLAYER
  0
XRECORD
  5
34E
102
{ACAD_REACTORS
330
345
102
}
330
345
100
AcDbXrecord
 90
        0
  0
XRECORD
  5
364
102
{ACAD_REACTORS
330
345
102
}
330
345
100
AcDbXrecord
1000
DSTYLE
1002
{
1070
   340
340
11
1002
}
  0
XRECORD
  5
34F
102
{ACAD_REACTORS
330
345
102
}
330
345
100
AcDbXrecord
  1
{FAEB1C30-E019-11D5-929B-00C0DF256EC4}
  0
XRECORD
  5
348
102
{ACAD_REACTORS
330
345
102
}
330
345
100
AcDbXrecord
  1

  0
XRECORD
  5
34D
102
{ACAD_REACTORS
330
345
102
}
330
345
100
AcDbXrecord
 90
        1
  0
XRECORD
  5
34A
102
{ACAD_REACTORS
330
345
102
}
330
345
100
AcDbXrecord
340
1A
  0
XRECORD
  5
34C
102
{ACAD_REACTORS
330
345
102
}
330
345
100
AcDbXrecord
 90
     2560
  0
XRECORD
  5
34B
102
{ACAD_REACTORS
330
345
102
}
330
345
100
AcDbXrecord
340
19
  0
XRECORD
  5
351
102
{ACAD_REACTORS
330
345
102
}
330
345
100
AcDbXrecord
 40
0.0
  0
XRECORD
  5
354
102
{ACAD_REACTORS
330
345
102
}
330
345
100
AcDbXrecord
340
0
  0
XRECORD
  5
35A
102
{ACAD_REACTORS
330
345
102
}
330
345
100
AcDbXrecord
 10
0.0
 20
0.0
 30
0.0
  0
XRECORD
  5
356
102
{ACAD_REACTORS
330
345
102
}
330
345
100
AcDbXrecord
 10
0.0
 20
0.0
 30
0.0
  0
XRECORD
  5
359
102
{ACAD_REACTORS
330
345
102
}
330
345
100
AcDbXrecord
 10
0.0
 20
0.0
 30
0.0
  0
XRECORD
  5
357
102
{ACAD_REACTORS
330
345
102
}
330
345
100
AcDbXrecord
 10
0.0
 20
0.0
 30
0.0
  0
XRECORD
  5
358
102
{ACAD_REACTORS
330
345
102
}
330
345
100
AcDbXrecord
 10
0.0
 20
0.0
 30
0.0
  0
XRECORD
  5
355
102
{ACAD_REACTORS
330
345
102
}
330
345
100
AcDbXrecord
 10
0.0
 20
0.0
 30
0.0
  0
XRECORD
  5
352
102
{ACAD_REACTORS
330
345
102
}
330
345
100
AcDbXrecord
340
0
  0
XRECORD
  5
353
102
{ACAD_REACTORS
330
345
102
}
330
345
100
AcDbXrecord
 70
     0
  0
XRECORD
  5
349
102
{ACAD_REACTORS
330
345
102
}
330
345
100
AcDbXrecord
  1

  0
XRECORD
  5
346
102
{ACAD_REACTORS
330
345
102
}
330
345
100
AcDbXrecord
 90
        1
  0
XRECORD
  5
347
102
{ACAD_REACTORS
330
345
102
}
330
345
100
AcDbXrecord
 90
       70
  0
XRECORD
  5
35D
102
{ACAD_REACTORS
330
345
102
}
330
345
100
AcDbXrecord
340
0
  0
XRECORD
  5
363
102
{ACAD_REACTORS
330
345
102
}
330
345
100
AcDbXrecord
 10
0.0
 20
0.0
 30
0.0
  0
XRECORD
  5
35F
102
{ACAD_REACTORS
330
345
102
}
330
345
100
AcDbXrecord
 10
0.0
 20
0.0
 30
0.0
  0
XRECORD
  5
362
102
{ACAD_REACTORS
330
345
102
}
330
345
100
AcDbXrecord
 10
0.0
 20
0.0
 30
0.0
  0
XRECORD
  5
360
102
{ACAD_REACTORS
330
345
102
}
330
345
100
AcDbXrecord
 10
0.0
 20
0.0
 30
0.0
  0
XRECORD
  5
361
102
{ACAD_REACTORS
330
345
102
}
330
345
100
AcDbXrecord
 10
0.0
 20
0.0
 30
0.0
  0
XRECORD
  5
35E
102
{ACAD_REACTORS
330
345
102
}
330
345
100
AcDbXrecord
 10
0.0
 20
0.0
 30
0.0
  0
XRECORD
  5
35B
102
{ACAD_REACTORS
330
345
102
}
330
345
100
AcDbXrecord
340
0
  0
XRECORD
  5
35C
102
{ACAD_REACTORS
330
345
102
}
330
345
100
AcDbXrecord
 70
     0
  0
XRECORD
  5
350
102
{ACAD_REACTORS
330
345
102
}
330
345
100
AcDbXrecord
  1
{FAEB1C32-E019-11D5-929B-00C0DF256EC4}
  0
ENDSEC
  0
EOF
