  0
SECTION
  2
HEADER
  9
$ACADVER
  1
AC1014
  9
$ACADMAINTVER
 70
     9
  9
$DWGCODEPAGE
  3
ANSI_1252
  9
$INSBASE
 10
0.0
 20
0.0
 30
0.0
  9
$EXTMIN
 10
1.000000000000000E+20
 20
1.000000000000000E+20
 30
1.000000000000000E+20
  9
$EXTMAX
 10
-1.000000000000000E+20
 20
-1.000000000000000E+20
 30
-1.000000000000000E+20
  9
$LIMMIN
 10
0.0
 20
0.0
  9
$LIMMAX
 10
12.0
 20
9.0
  9
$ORTHOMODE
 70
     0
  9
$REGENMODE
 70
     1
  9
$FILLMODE
 70
     1
  9
$QTEXTMODE
 70
     0
  9
$MIRRTEXT
 70
     1
  9
$DRAGMODE
 70
     2
  9
$LTSCALE
 40
1.0
  9
$OSMODE
 70
    37
  9
$ATTMODE
 70
     1
  9
$TEXTSIZE
 40
0.2
  9
$TRACEWID
 40
0.05
  9
$TEXTSTYLE
  7
STANDARD
  9
$CLAYER
  8
DEFAULT
  9
$CELTYPE
  6
BYLAYER
  9
$CECOLOR
 62
   256
  9
$CELTSCALE
 40
1.0
  9
$DELOBJ
 70
     1
  9
$DISPSILH
 70
     0
  9
$DIMSCALE
 40
1.0
  9
$DIMASZ
 40
0.18
  9
$DIMEXO
 40
0.0625
  9
$DIMDLI
 40
0.38
  9
$DIMRND
 40
0.0
  9
$DIMDLE
 40
0.0
  9
$DIMEXE
 40
0.18
  9
$DIMTP
 40
0.0
  9
$DIMTM
 40
0.0
  9
$DIMTXT
 40
0.18
  9
$DIMCEN
 40
0.09
  9
$DIMTSZ
 40
0.0
  9
$DIMTOL
 70
     0
  9
$DIMLIM
 70
     0
  9
$DIMTIH
 70
     1
  9
$DIMTOH
 70
     1
  9
$DIMSE1
 70
     0
  9
$DIMSE2
 70
     0
  9
$DIMTAD
 70
     0
  9
$DIMZIN
 70
     0
  9
$DIMBLK
  1

  9
$DIMASO
 70
     1
  9
$DIMSHO
 70
     1
  9
$DIMPOST
  1

  9
$DIMAPOST
  1

  9
$DIMALT
 70
     0
  9
$DIMALTD
 70
     2
  9
$DIMALTF
 40
25.4
  9
$DIMLFAC
 40
1.0
  9
$DIMTOFL
 70
     0
  9
$DIMTVP
 40
0.0
  9
$DIMTIX
 70
     0
  9
$DIMSOXD
 70
     0
  9
$DIMSAH
 70
     0
  9
$DIMBLK1
  1

  9
$DIMBLK2
  1

  9
$DIMSTYLE
  2
STANDARD
  9
$DIMCLRD
 70
     0
  9
$DIMCLRE
 70
     0
  9
$DIMCLRT
 70
     0
  9
$DIMTFAC
 40
1.0
  9
$DIMGAP
 40
0.09
  9
$DIMJUST
 70
     0
  9
$DIMSD1
 70
     0
  9
$DIMSD2
 70
     0
  9
$DIMTOLJ
 70
     1
  9
$DIMTZIN
 70
     0
  9
$DIMALTZ
 70
     0
  9
$DIMALTTZ
 70
     0
  9
$DIMFIT
 70
     3
  9
$DIMUPT
 70
     0
  9
$DIMUNIT
 70
     2
  9
$DIMDEC
 70
     4
  9
$DIMTDEC
 70
     4
  9
$DIMALTU
 70
     2
  9
$DIMALTTD
 70
     2
  9
$DIMTXSTY
  7
STANDARD
  9
$DIMAUNIT
 70
     0
  9
$LUNITS
 70
     2
  9
$LUPREC
 70
     3
  9
$SKETCHINC
 40
0.1
  9
$FILLETRAD
 40
0.5
  9
$AUNITS
 70
     0
  9
$AUPREC
 70
     0
  9
$MENU
  1
.
  9
$ELEVATION
 40
0.0
  9
$PELEVATION
 40
0.0
  9
$THICKNESS
 40
0.0
  9
$LIMCHECK
 70
     0
  9
$CHAMFERA
 40
0.5
  9
$CHAMFERB
 40
0.5
  9
$CHAMFERC
 40
1.0
  9
$CHAMFERD
 40
0.0
  9
$SKPOLY
 70
     0
  9
$TDCREATE
 40
2453721.587095822
  9
$TDUPDATE
 40
2453721.587095833
  9
$TDINDWG
 40
0.0000000116
  9
$TDUSRTIMER
 40
0.0000000116
  9
$USRTIMER
 70
     1
  9
$ANGBASE
 50
0.0
  9
$ANGDIR
 70
     0
  9
$PDMODE
 70
     0
  9
$PDSIZE
 40
0.0
  9
$PLINEWID
 40
0.0
  9
$COORDS
 70
     1
  9
$SPLFRAME
 70
     0
  9
$SPLINETYPE
 70
     6
  9
$SPLINESEGS
 70
     8
  9
$ATTDIA
 70
     0
  9
$ATTREQ
 70
     1
  9
$HANDLING
 70
     1
  9
$HANDSEED
  5
364
  9
$SURFTAB1
 70
     6
  9
$SURFTAB2
 70
     6
  9
$SURFTYPE
 70
     6
  9
$SURFU
 70
     6
  9
$SURFV
 70
     6
  9
$UCSNAME
  2

  9
$UCSORG
 10
0.0
 20
0.0
 30
0.0
  9
$UCSXDIR
 10
1.0
 20
0.0
 30
0.0
  9
$UCSYDIR
 10
0.0
 20
1.0
 30
0.0
  9
$PUCSNAME
  2

  9
$PUCSORG
 10
0.0
 20
0.0
 30
0.0
  9
$PUCSXDIR
 10
1.0
 20
0.0
 30
0.0
  9
$PUCSYDIR
 10
0.0
 20
1.0
 30
0.0
  9
$USERI1
 70
     0
  9
$USERI2
 70
     0
  9
$USERI3
 70
     0
  9
$USERI4
 70
     0
  9
$USERI5
 70
     0
  9
$USERR1
 40
0.0
  9
$USERR2
 40
0.0
  9
$USERR3
 40
0.0
  9
$USERR4
 40
0.0
  9
$USERR5
 40
0.0
  9
$WORLDVIEW
 70
     1
  9
$SHADEDGE
 70
     3
  9
$SHADEDIF
 70
    70
  9
$TILEMODE
 70
     1
  9
$MAXACTVP
 70
    64
  9
$PINSBASE
 10
0.0
 20
0.0
 30
0.0
  9
$PLIMCHECK
 70
     0
  9
$PEXTMIN
 10
1.000000000000000E+20
 20
1.000000000000000E+20
 30
1.000000000000000E+20
  9
$PEXTMAX
 10
-1.000000000000000E+20
 20
-1.000000000000000E+20
 30
-1.000000000000000E+20
  9
$PLIMMIN
 10
0.0
 20
0.0
  9
$PLIMMAX
 10
12.0
 20
9.0
  9
$UNITMODE
 70
     0
  9
$VISRETAIN
 70
     1
  9
$PLINEGEN
 70
     0
  9
$PSLTSCALE
 70
     1
  9
$TREEDEPTH
 70
  3020
  9
$PICKSTYLE
 70
     1
  9
$CMLSTYLE
  2
STANDARD
  9
$CMLJUST
 70
     0
  9
$CMLSCALE
 40
1.0
  9
$PROXYGRAPHICS
 70
     1
  9
$MEASUREMENT
 70
     0
  0
ENDSEC
  0
SECTION
  2
CLASSES
  0
CLASS
  1
ACDBDICTIONARYWDFLT
  2
AcDbDictionaryWithDefault
  3
ObjectDBX Classes
 90
        0
280
     0
281
     0
  0
CLASS
  1
XRECORD
  2
AcDbXrecord
  3
AutoCAD 2000
 90
        0
280
     0
281
     0
  0
CLASS
  1
LWPOLYLINE
  2
AcDbPolyline
  3
AutoCAD 2000
 90
        0
280
     0
281
     1
  0
CLASS
  1
HATCH
  2
AcDbHatch
  3
AutoCAD 2000
 90
        0
280
     0
281
     1
  0
CLASS
  1
ACDBPLACEHOLDER
  2
AcDbPlaceHolder
  3
ObjectDBX Classes
 90
        0
280
     0
281
     0
  0
CLASS
  1
LAYOUT
  2
AcDbLayout
  3
ObjectDBX Classes
 90
        0
280
     0
281
     0
  0
ENDSEC
  0
SECTION
  2
TABLES
  0
TABLE
  2
VPORT
  5
8
330
0
100
AcDbSymbolTable
 70
     2
  0
VPORT
  5
29
102
{ACAD_XDICTIONARY
360
362
102
}
330
8
100
AcDbSymbolTableRecord
100
AcDbViewportTableRecord
  2
*ACTIVE
 70
     0
 10
0.0
 20
0.0
 11
1.0
 21
1.0
 12
28.91909021312655
 22
37.64497696899901
 13
0.0
 23
0.0
 14
0.5
 24
0.5
 15
0.5
 25
0.5
 16
0.0
 26
0.0
 36
1.0
 17
0.0
 27
0.0
 37
0.0
 40
75.27463794144305
 41
1.972972972850329
 42
50.0
 43
0.0
 44
0.0
 50
0.0
 51
0.0
 71
     0
 72
   100
 73
     1
 74
     3
 75
     0
 76
     0
 77
     0
 78
     0
  0
ENDTAB
  0
TABLE
  2
LTYPE
  5
5
330
0
100
AcDbSymbolTable
 70
     1
  0
LTYPE
  5
14
330
5
100
AcDbSymbolTableRecord
100
AcDbLinetypeTableRecord
  2
BYBLOCK
 70
     0
  3

 72
    65
 73
     0
 40
0.0
  0
LTYPE
  5
15
330
5
100
AcDbSymbolTableRecord
100
AcDbLinetypeTableRecord
  2
BYLAYER
 70
     0
  3

 72
    65
 73
     0
 40
0.0
  0
LTYPE
  5
16
330
5
100
AcDbSymbolTableRecord
100
AcDbLinetypeTableRecord
  2
CONTINUOUS
 70
     0
  3
Solid line
 72
    65
 73
     0
 40
0.0
  0
ENDTAB
  0
TABLE
  2
LAYER
  5
2
330
0
100
AcDbSymbolTable
 70
     3
  0
LAYER
  5
10
330
2
100
AcDbSymbolTableRecord
100
AcDbLayerTableRecord
  2
0
 70
     0
 62
     7
  6
CONTINUOUS
  0
LAYER
  5
2A
330
2
100
AcDbSymbolTableRecord
100
AcDbLayerTableRecord
  2
IGES_LEVEL_0
 70
     0
 62
   255
  6
CONTINUOUS
  0
LAYER
  5
69
330
2
100
AcDbSymbolTableRecord
100
AcDbLayerTableRecord
  2
DEFAULT
 70
     0
 62
     7
  6
CONTINUOUS
  0
ENDTAB
  0
TABLE
  2
STYLE
  5
3
330
0
100
AcDbSymbolTable
 70
     1
  0
STYLE
  5
11
330
3
100
AcDbSymbolTableRecord
100
AcDbTextStyleTableRecord
  2
STANDARD
 70
     0
 40
0.0
 41
1.0
 50
0.0
 71
     0
 42
0.2
  3
txt
  4

  0
ENDTAB
  0
TABLE
  2
VIEW
  5
6
330
0
100
AcDbSymbolTable
 70
     0
  0
ENDTAB
  0
TABLE
  2
UCS
  5
7
330
0
100
AcDbSymbolTable
 70
     0
  0
ENDTAB
  0
TABLE
  2
APPID
  5
9
330
0
100
AcDbSymbolTable
 70
     1
  0
APPID
  5
12
330
9
100
AcDbSymbolTableRecord
100
AcDbRegAppTableRecord
  2
ACAD
 70
     0
  0
ENDTAB
  0
TABLE
  2
DIMSTYLE
  5
A
330
0
100
AcDbSymbolTable
 70
     1
  0
DIMSTYLE
105
27
330
A
100
AcDbSymbolTableRecord
100
AcDbDimStyleTableRecord
  2
STANDARD
 70
     0
  3

  4

  5

  6

  7

 40
1.0
 41
0.18
 42
0.0625
 43
0.38
 44
0.18
 45
0.0
 46
0.0
 47
0.0
 48
0.0
140
0.18
141
0.09
142
0.0
143
25.4
144
1.0
145
0.0
146
1.0
147
0.09
 71
     0
 72
     0
 73
     1
 74
     1
 75
     0
 76
     0
 77
     0
 78
     0
170
     0
171
     2
172
     0
173
     0
174
     0
175
     0
176
     0
177
     0
178
     0
270
     2
271
     4
272
     4
273
     2
274
     2
340
11
275
     0
280
     0
281
     0
282
     0
283
     1
284
     0
285
     0
286
     0
287
     3
288
     0
  0
ENDTAB
  0
TABLE
  2
BLOCK_RECORD
  5
1
330
0
100
AcDbSymbolTable
 70
     1
  0
BLOCK_RECORD
  5
1F
330
1
100
AcDbSymbolTableRecord
100
AcDbBlockTableRecord
  2
*MODEL_SPACE
  0
BLOCK_RECORD
  5
1B
330
1
100
AcDbSymbolTableRecord
100
AcDbBlockTableRecord
  2
*PAPER_SPACE
  0
ENDTAB
  0
ENDSEC
  0
SECTION
  2
BLOCKS
  0
BLOCK
  5
20
330
1F
100
AcDbEntity
  8
0
100
AcDbBlockBegin
  2
*MODEL_SPACE
 70
     0
 71
     0
 10
0.0
 20
0.0
 30
0.0
  3
*MODEL_SPACE
  1

  0
ENDBLK
  5
21
330
1F
100
AcDbEntity
  8
0
100
AcDbBlockEnd
  0
BLOCK
  5
1C
330
1B
100
AcDbEntity
 67
     1
  8
0
100
AcDbBlockBegin
  2
*PAPER_SPACE
 70
     0
 71
     0
 10
0.0
 20
0.0
 30
0.0
  3
*PAPER_SPACE
  1

  0
ENDBLK
  5
1D
330
1B
100
AcDbEntity
 67
     1
  8
0
100
AcDbBlockEnd
  0
ENDSEC
  0
SECTION
  2
ENTITIES
  0
LINE
  5
2B
330
1F
100
AcDbEntity
  8
IGES_LEVEL_0
 62
     7
100
AcDbLine
 10
18.59776922019643
 20
29.71524792327166
 30
0.0
 11
18.59776922019643
 21
29.71524592327166
 31
0.0
  0
LINE
  5
2C
330
1F
100
AcDbEntity
  8
IGES_LEVEL_0
 62
     7
100
AcDbLine
 10
18.59821156494574
 20
29.71058002089831
 30
0.0
 11
18.59789977108576
 21
29.73553907347626
 31
0.0
  0
SPLINE
  5
2D
330
1F
100
AcDbEntity
  8
IGES_LEVEL_0
 62
     7
100
AcDbSpline
210
0.0
220
0.0
230
1.0
 70
     8
 71
     3
 72
    45
 73
    41
 74
     0
 42
0.0000000001
 43
0.0000000001
 40
0.0
 40
0.0
 40
0.0
 40
0.0
 40
0.0155406123545
 40
0.0321342416385
 40
0.04646160749556
 40
0.06425425805999
 40
0.07732472566079
 40
0.08900720836436
 40
0.1009361648834
 40
0.1145956214599
 40
0.131472582029
 40
0.1530617155223
 40
0.1810405464575
 40
0.2173920027071
 40
0.2642549312782
 40
0.3186603676682
 40
0.3768993692335
 40
0.4377002527819
 40
0.4996879621076
 40
0.5614460616765
 40
0.6215672829016
 40
0.6786308555202
 40
0.7276072701731
 40
0.7665067250895
 40
0.7973028155993001
 40
0.821681647223
 40
0.8410364142763001
 40
0.8565270208799
 40
0.8691343263636
 40
0.8797243669486
 40
0.8891018243712
 40
0.8981032696889
 40
0.9076637840348
 40
0.9169366942247
 40
0.9282135343982
 40
0.940361642443
 40
0.9532329126175
 40
0.9673010765912
 40
0.9821496277104
 40
1.0
 40
1.0
 40
1.0
 40
1.0
 10
18.97166986772544
 20
29.74832498554166
 30
0.0
 10
18.97108820830926
 20
29.75033457733939
 30
0.0
 10
18.96945827695785
 20
29.75436400768498
 30
0.0
 10
18.96592869793036
 20
29.75956812632166
 30
0.0
 10
18.96122730026436
 20
29.76416454422767
 30
0.0
 10
18.95607350904375
 20
29.76746519025258
 30
0.0
 10
18.95077293355094
 20
29.76963902325746
 30
0.0
 10
18.94602163830014
 20
29.77096210330953
 30
0.0
 10
18.94110956986635
 20
29.7719312836643
 30
0.0
 10
18.93546641427724
 20
29.77275425019602
 30
0.0
 10
18.92850942516657
 20
29.77352221611587
 30
0.0
 10
18.91961932542
 20
29.77427006612598
 30
0.0
 10
18.90810652742286
 20
29.77500104906493
 30
0.0
 10
18.89319350576902
 20
29.77569443013798
 30
0.0
 10
18.87472580819982
 20
29.77628329161398
 30
0.0
 10
18.85331428780408
 20
29.77669862362184
 30
0.0
 10
18.83002844571478
 20
29.77690212459944
 30
0.0
 10
18.8057237922667
 20
29.77688495995309
 30
0.0
 10
18.7809478156708
 20
29.77664855182076
 30
0.0
 10
18.75626605861656
 20
29.77619855115323
 30
0.0
 10
18.73225016564754
 20
29.7755450467272
 30
0.0
 10
18.70995658907709
 20
29.77472093491938
 30
0.0
 10
18.6905191319399
 20
29.77379203041119
 30
0.0
 10
18.67461434121335
 20
29.77284429655052
 30
0.0
 10
18.66201678450448
 20
29.77193155857648
 30
0.0
 10
18.6520478283459
 20
29.77106477580006
 30
0.0
 10
18.64413858276135
 20
29.77024391557707
 30
0.0
 10
18.63781558255749
 20
29.76946020906568
 30
0.0
 10
18.63267743417235
 20
29.76869517866068
 30
0.0
 10
18.62837302020319
 20
29.76791635897715
 30
0.0
 10
18.62457625701998
 20
29.7670663485476
 30
0.0
 10
18.62096533944894
 20
29.76604112824071
 30
0.0
 10
18.61745671918344
 20
29.76473906974555
 30
0.0
 10
18.61381843420691
 20
29.76296097941795
 30
0.0
 10
18.61012333249283
 20
29.76056491907564
 30
0.0
 10
18.60645064659218
 20
29.75733256025784
 30
0.0
 10
18.60310235023083
 20
29.75326041897921
 30
0.0
 10
18.60033690253334
 20
29.74834118892489
 30
0.0
 10
18.59833775100829
 20
29.74235061172553
 30
0.0
 10
18.59786963959022
 20
29.73793513559389
 30
0.0
 10
18.5978995903948
 20
29.73553877509593
 30
0.0
  0
SPLINE
  5
2E
330
1F
100
AcDbEntity
  8
IGES_LEVEL_0
 62
     7
100
AcDbSpline
210
0.0
220
0.0
230
1.0
 70
     8
 71
     3
 72
    45
 73
    41
 74
     0
 42
0.0000000001
 43
0.0000000001
 40
0.0
 40
0.0
 40
0.0
 40
0.0
 40
0.0155406123545
 40
0.0321342416385
 40
0.04646160749556
 40
0.06425425805999
 40
0.07732472566079
 40
0.08900720836436
 40
0.1009361648834
 40
0.1145956214599
 40
0.131472582029
 40
0.1530617155223
 40
0.1810405464575
 40
0.2173920027071
 40
0.2642549312782
 40
0.3186603676682
 40
0.3768993692335
 40
0.4377002527819
 40
0.4996879621076
 40
0.5614460616765
 40
0.6215672829016
 40
0.6786308555202
 40
0.7276072701731
 40
0.7665067250895
 40
0.7973028155993001
 40
0.821681647223
 40
0.8410364142763001
 40
0.8565270208799
 40
0.8691343263636
 40
0.8797243669486
 40
0.8891018243712
 40
0.8981032696889
 40
0.9076637840348
 40
0.9169366942247
 40
0.9282135343982
 40
0.940361642443
 40
0.9532329126175
 40
0.9673010765912
 40
0.9821496277104
 40
1.0
 40
1.0
 40
1.0
 40
1.0
 10
2.577965789783431
 20
29.74832498554166
 30
0.0
 10
2.578547449199604
 20
29.75033457733939
 30
0.0
 10
2.580177380551022
 20
29.75436400768498
 30
0.0
 10
2.583706959578507
 20
29.75956812632166
 30
0.0
 10
2.58840835724451
 20
29.76416454422767
 30
0.0
 10
2.593562148465116
 20
29.76746519025258
 30
0.0
 10
2.598862723957928
 20
29.76963902325746
 30
0.0
 10
2.603614019208731
 20
29.77096210330953
 30
0.0
 10
2.608526087642516
 20
29.7719312836643
 30
0.0
 10
2.614169243231628
 20
29.77275425019602
 30
0.0
 10
2.621126232342296
 20
29.77352221611587
 30
0.0
 10
2.630016332088863
 20
29.77427006612598
 30
0.0
 10
2.641529130086004
 20
29.77500104906493
 30
0.0
 10
2.656442151739845
 20
29.77569443013798
 30
0.0
 10
2.674909849309045
 20
29.77628329161398
 30
0.0
 10
2.696321369704792
 20
29.77669862362184
 30
0.0
 10
2.719607211794084
 20
29.77690212459944
 30
0.0
 10
2.74391186524217
 20
29.77688495995309
 30
0.0
 10
2.768687841838062
 20
29.77664855182076
 30
0.0
 10
2.793369598892302
 20
29.77619855115323
 30
0.0
 10
2.817385491861326
 20
29.7755450467272
 30
0.0
 10
2.839679068431775
 20
29.77472093491938
 30
0.0
 10
2.859116525568962
 20
29.77379203041119
 30
0.0
 10
2.875021316295518
 20
29.77284429655052
 30
0.0
 10
2.887618873004381
 20
29.77193155857648
 30
0.0
 10
2.897587829162969
 20
29.77106477580006
 30
0.0
 10
2.905497074747511
 20
29.77024391557707
 30
0.0
 10
2.911820074951379
 20
29.76946020906568
 30
0.0
 10
2.916958223336517
 20
29.76869517866068
 30
0.0
 10
2.921262637305675
 20
29.76791635897715
 30
0.0
 10
2.925059400488886
 20
29.7670663485476
 30
0.0
 10
2.928670318059928
 20
29.76604112824071
 30
0.0
 10
2.932178938325424
 20
29.76473906974555
 30
0.0
 10
2.935817223301961
 20
29.76296097941795
 30
0.0
 10
2.93951232501604
 20
29.76056491907564
 30
0.0
 10
2.943185010916685
 20
29.75733256025784
 30
0.0
 10
2.946533307278032
 20
29.75326041897921
 30
0.0
 10
2.949298754975527
 20
29.74834118892489
 30
0.0
 10
2.951297906500575
 20
29.74235061172553
 30
0.0
 10
2.95176601791865
 20
29.73793513559389
 30
0.0
 10
2.951736067114063
 20
29.73553877509593
 30
0.0
  0
LINE
  5
2F
330
1F
100
AcDbEntity
  8
IGES_LEVEL_0
 62
     7
100
AcDbLine
 10
2.951424092563128
 20
29.71058002089831
 30
0.0
 11
2.951735886423106
 21
29.73553907347626
 31
0.0
  0
LINE
  5
30
330
1F
100
AcDbEntity
  8
IGES_LEVEL_0
 62
     7
100
AcDbLine
 10
2.833623767990435
 20
40.77453717908166
 30
0.0
 11
2.842114767990434
 21
40.77912317908166
 31
0.0
  0
LINE
  5
31
330
1F
100
AcDbEntity
  8
IGES_LEVEL_0
 62
     7
100
AcDbLine
 10
2.655413767990435
 20
41.10448617908166
 30
0.0
 11
2.663904767990434
 21
41.10907217908166
 31
0.0
  0
ARC
  5
32
330
1F
100
AcDbEntity
  8
IGES_LEVEL_0
 62
     7
100
AcDbCircle
 10
2.755974458035825
 20
40.93205751424361
 30
0.0
 40
0.1755250438333132
100
AcDbArc
 50
299.390491618372
 51
8.043347487986665
  0
SPLINE
  5
33
330
1F
100
AcDbEntity
  8
IGES_LEVEL_0
 62
     7
100
AcDbSpline
210
0.0
220
0.0
230
1.0
 70
     8
 71
     3
 72
    20
 73
    16
 74
     0
 42
0.0000000001
 43
0.0000000001
 40
0.0
 40
0.0
 40
0.0
 40
0.0
 40
0.07331710124584
 40
0.1469734692017
 40
0.2211979138068
 40
0.2962235453193
 40
0.3720667597287
 40
0.4489118209329
 40
0.5265507679699
 40
0.6049098914079
 40
0.6838225747718
 40
0.7630147544114
 40
0.8422800665975
 40
0.9213338781374
 40
1.0
 40
1.0
 40
1.0
 40
1.0
 10
2.663904895610436
 20
41.10907210539166
 30
0.0
 10
2.671633470220435
 20
41.11324642044166
 30
0.0
 10
2.687830616220435
 20
41.12037899935167
 30
0.0
 10
2.713584811020436
 20
41.12706864665166
 30
0.0
 10
2.740283081020436
 20
41.12960886420166
 30
0.0
 10
2.767307227990436
 20
41.12791566968166
 30
0.0
 10
2.794051242120435
 20
41.12200800392166
 30
0.0
 10
2.819881554380434
 20
41.11200582888166
 30
0.0
 10
2.844197487580434
 20
41.09812748257166
 30
0.0
 10
2.866420364570434
 20
41.08069736380166
 30
0.0
 10
2.886032833630434
 20
41.06011918292166
 30
0.0
 10
2.902580400090436
 20
41.03687319064166
 30
0.0
 10
2.915680305270438
 20
41.01150349267166
 30
0.0
 10
2.925036736810437
 20
40.98460052968166
 30
0.0
 10
2.928652017550437
 20
40.96597517948166
 30
0.0
 10
2.929772773030436
 20
40.95661737413166
 30
0.0
  0
ARC
  5
34
330
1F
100
AcDbEntity
  8
IGES_LEVEL_0
 62
     7
100
AcDbCircle
 10
2.766649539881182
 20
40.95110546065617
 30
0.0
 40
0.0573069857372388
100
AcDbArc
 50
184.7770681578178
 51
294.6183846564214
  0
ARC
  5
35
330
1F
100
AcDbEntity
  8
IGES_LEVEL_0
 62
     7
100
AcDbCircle
 10
2.741086728032812
 20
40.95379435002402
 30
0.0
 40
0.1733426528797067
100
AcDbArc
 50
119.6165827319797
 51
188.2722930581588
  0
SPLINE
  5
36
330
1F
100
AcDbEntity
  8
IGES_LEVEL_0
 62
     7
100
AcDbSpline
210
0.0
220
0.0
230
1.0
 70
     8
 71
     3
 72
    21
 73
    17
 74
     0
 42
0.0000000001
 43
0.0000000001
 40
0.0
 40
0.0
 40
0.0
 40
0.0
 40
0.0775753401501
 40
0.1555764107908
 40
0.2337590326026
 40
0.3118646015495
 40
0.3896406241229
 40
0.4668609335156
 40
0.5433444789778
 40
0.6189714681861001
 40
0.6936954900328
 40
0.7675501419758
 40
0.8406487693278
 40
0.9131763524317
 40
0.9853734550538
 40
1.0
 40
1.0
 40
1.0
 40
1.0
 10
2.569547622120435
 20
40.92885421269166
 30
0.0
 10
2.570649753370436
 20
40.91965191126166
 30
0.0
 10
2.574173682800435
 20
40.90132855356166
 30
0.0
 10
2.583230367940434
 20
40.87482043299166
 30
0.0
 10
2.595878025320435
 20
40.84974905224166
 30
0.0
 10
2.611835419020434
 20
40.82667691316166
 30
0.0
 10
2.630750153460436
 20
40.80611377086166
 30
0.0
 10
2.652204709710436
 20
40.78851752922166
 30
0.0
 10
2.675725475090435
 20
40.77428130570166
 30
0.0
 10
2.700792356790434
 20
40.76372571545166
 30
0.0
 10
2.726849388260437
 20
40.75709136484166
 30
0.0
 10
2.753316091200436
 20
40.75453290527166
 30
0.0
 10
2.779599682740436
 20
40.75611435173166
 30
0.0
 10
2.805108231660437
 20
40.76180601224166
 30
0.0
 10
2.822858342750436
 20
40.76891700472167
 30
0.0
 10
2.832076279640436
 20
40.77370154516166
 30
0.0
 10
2.833615491030436
 20
40.77453288086166
 30
0.0
  0
ARC
  5
37
330
1F
100
AcDbEntity
  8
IGES_LEVEL_0
 62
     7
100
AcDbCircle
 10
2.762147159916485
 20
40.95398122307832
 30
0.0
 40
0.0531586111647762
100
AcDbArc
 50
119.6162509703848
 51
188.2721775118517
  0
ARC
  5
38
330
1F
100
AcDbEntity
  8
IGES_LEVEL_0
 62
     7
100
AcDbCircle
 10
2.759749302969728
 20
40.94809699328824
 30
0.0
 40
0.0573069857362726
100
AcDbArc
 50
4.777068146770429
 51
114.618384656901
  0
ARC
  5
39
330
1F
100
AcDbEntity
  8
IGES_LEVEL_0
 62
     7
100
AcDbCircle
 10
2.764251682901026
 20
40.94522123087989
 30
0.0
 40
0.0531586111941988
100
AcDbArc
 50
299.6162509937213
 51
8.272177480131504
  0
ARC
  5
3A
330
1F
100
AcDbEntity
  8
IGES_LEVEL_0
 62
     7
100
AcDbCircle
 10
3.306639135106985
 20
36.64583197506991
 30
0.0
 40
0.053158611194236
100
AcDbArc
 50
299.6162509937453
 51
8.272177480102501
  0
ARC
  5
3B
330
1F
100
AcDbEntity
  8
IGES_LEVEL_0
 62
     7
100
AcDbCircle
 10
3.302136755175725
 20
36.64870773747824
 30
0.0
 40
0.0573069857362726
100
AcDbArc
 50
4.777068146770429
 51
114.618384656901
  0
ARC
  5
3C
330
1F
100
AcDbEntity
  8
IGES_LEVEL_0
 62
     7
100
AcDbCircle
 10
3.304534612122495
 20
36.65459196726831
 30
0.0
 40
0.0531586111647887
100
AcDbArc
 50
119.616250970393
 51
188.272177511842
  0
SPLINE
  5
3D
330
1F
100
AcDbEntity
  8
IGES_LEVEL_0
 62
     7
100
AcDbSpline
210
0.0
220
0.0
230
1.0
 70
     8
 71
     3
 72
    21
 73
    17
 74
     0
 42
0.0000000001
 43
0.0000000001
 40
0.0
 40
0.0
 40
0.0
 40
0.0
 40
0.0775753401501
 40
0.1555764107908
 40
0.2337590326026
 40
0.3118646015495
 40
0.3896406241229
 40
0.4668609335156
 40
0.5433444789778
 40
0.6189714681861001
 40
0.6936954900328
 40
0.7675501419758
 40
0.8406487693278
 40
0.9131763524317
 40
0.9853734550538
 40
1.0
 40
1.0
 40
1.0
 40
1.0
 10
3.111935074326432
 20
36.62946495688166
 30
0.0
 10
3.113037205576433
 20
36.62026265545166
 30
0.0
 10
3.116561135006432
 20
36.60193929775166
 30
0.0
 10
3.125617820146431
 20
36.57543117718166
 30
0.0
 10
3.138265477526431
 20
36.55035979643166
 30
0.0
 10
3.15422287122643
 20
36.52728765735166
 30
0.0
 10
3.173137605666433
 20
36.50672451505167
 30
0.0
 10
3.194592161916432
 20
36.48912827341166
 30
0.0
 10
3.218112927296431
 20
36.47489204989166
 30
0.0
 10
3.24317980899643
 20
36.46433645964167
 30
0.0
 10
3.269236840466434
 20
36.45770210903167
 30
0.0
 10
3.295703543406432
 20
36.45514364946166
 30
0.0
 10
3.321987134946433
 20
36.45672509592166
 30
0.0
 10
3.347495683866434
 20
36.46241675643166
 30
0.0
 10
3.365245794956433
 20
36.46952774891167
 30
0.0
 10
3.374463731846433
 20
36.47431228935167
 30
0.0
 10
3.376002943236433
 20
36.47514362505167
 30
0.0
  0
ARC
  5
3E
330
1F
100
AcDbEntity
  8
IGES_LEVEL_0
 62
     7
100
AcDbCircle
 10
3.28347418023883
 20
36.65440509421401
 30
0.0
 40
0.1733426528797268
100
AcDbArc
 50
119.616582731984
 51
188.2722930581555
  0
ARC
  5
3F
330
1F
100
AcDbEntity
  8
IGES_LEVEL_0
 62
     7
100
AcDbCircle
 10
3.309036992087179
 20
36.65171620484617
 30
0.0
 40
0.0573069857372388
100
AcDbArc
 50
184.7770681578178
 51
294.6183846564214
  0
SPLINE
  5
40
330
1F
100
AcDbEntity
  8
IGES_LEVEL_0
 62
     7
100
AcDbSpline
210
0.0
220
0.0
230
1.0
 70
     8
 71
     3
 72
    20
 73
    16
 74
     0
 42
0.0000000001
 43
0.0000000001
 40
0.0
 40
0.0
 40
0.0
 40
0.0
 40
0.07331710124584
 40
0.1469734692017
 40
0.2211979138068
 40
0.2962235453193
 40
0.3720667597287
 40
0.4489118209329
 40
0.5265507679699
 40
0.6049098914079
 40
0.6838225747718
 40
0.7630147544114
 40
0.8422800665975
 40
0.9213338781374
 40
1.0
 40
1.0
 40
1.0
 40
1.0
 10
3.206292347816433
 20
36.80968284958166
 30
0.0
 10
3.214020922426432
 20
36.81385716463166
 30
0.0
 10
3.230218068426431
 20
36.82098974354167
 30
0.0
 10
3.255972263226433
 20
36.82767939084166
 30
0.0
 10
3.282670533226433
 20
36.83021960839167
 30
0.0
 10
3.309694680196433
 20
36.82852641387166
 30
0.0
 10
3.336438694326432
 20
36.82261874811166
 30
0.0
 10
3.362269006586431
 20
36.81261657307166
 30
0.0
 10
3.386584939786431
 20
36.79873822676166
 30
0.0
 10
3.408807816776431
 20
36.78130810799166
 30
0.0
 10
3.428420285836431
 20
36.76072992711166
 30
0.0
 10
3.444967852296433
 20
36.73748393483167
 30
0.0
 10
3.458067757476435
 20
36.71211423686166
 30
0.0
 10
3.467424189016434
 20
36.68521127387167
 30
0.0
 10
3.471039469756434
 20
36.66658592367166
 30
0.0
 10
3.472160225236433
 20
36.65722811832166
 30
0.0
  0
ARC
  5
41
330
1F
100
AcDbEntity
  8
IGES_LEVEL_0
 62
     7
100
AcDbCircle
 10
3.298361910241818
 20
36.63266825843361
 30
0.0
 40
0.1755250438333172
100
AcDbArc
 50
299.3904916183734
 51
8.043347487986482
  0
LINE
  5
42
330
1F
100
AcDbEntity
  8
IGES_LEVEL_0
 62
     7
100
AcDbLine
 10
3.197801220196432
 20
36.80509692327166
 30
0.0
 11
3.206292220196431
 21
36.80968292327166
 31
0.0
  0
LINE
  5
43
330
1F
100
AcDbEntity
  8
IGES_LEVEL_0
 62
     7
100
AcDbLine
 10
3.376011220196432
 20
36.47514792327166
 30
0.0
 11
3.384502220196431
 21
36.47973392327166
 31
0.0
  0
ARC
  5
44
330
1F
100
AcDbEntity
  8
IGES_LEVEL_0
 62
     7
100
AcDbCircle
 10
18.78538397548184
 20
40.94522123087989
 30
0.0
 40
0.0531586111941968
100
AcDbArc
 50
171.7278225198682
 51
240.3837490062825
  0
ARC
  5
45
330
1F
100
AcDbEntity
  8
IGES_LEVEL_0
 62
     7
100
AcDbCircle
 10
18.78988635541314
 20
40.94809699328823
 30
0.0
 40
0.0573069857362776
100
AcDbArc
 50
65.38161534310684
 51
175.2229318532229
  0
ARC
  5
46
330
1F
100
AcDbEntity
  8
IGES_LEVEL_0
 62
     7
100
AcDbCircle
 10
18.78748849846641
 20
40.95398122307834
 30
0.0
 40
0.0531586111647432
100
AcDbArc
 50
351.7278224881201
 51
60.38374902963136
  0
SPLINE
  5
47
330
1F
100
AcDbEntity
  8
IGES_LEVEL_0
 62
     7
100
AcDbSpline
210
0.0
220
0.0
230
1.0
 70
     8
 71
     3
 72
    21
 73
    17
 74
     0
 42
0.0000000001
 43
0.0000000001
 40
0.0
 40
0.0
 40
0.0
 40
0.0
 40
0.0775753401501
 40
0.1555764107908
 40
0.2337590326026
 40
0.3118646015495
 40
0.3896406241229
 40
0.4668609335156
 40
0.5433444789778
 40
0.6189714681861001
 40
0.6936954900328
 40
0.7675501419758
 40
0.8406487693278
 40
0.9131763524317
 40
0.9853734550538
 40
1.0
 40
1.0
 40
1.0
 40
1.0
 10
18.98008803626243
 20
40.92885421269166
 30
0.0
 10
18.97898590501243
 20
40.91965191126166
 30
0.0
 10
18.97546197558243
 20
40.90132855356166
 30
0.0
 10
18.96640529044243
 20
40.87482043299166
 30
0.0
 10
18.95375763306243
 20
40.84974905224166
 30
0.0
 10
18.93780023936243
 20
40.82667691316166
 30
0.0
 10
18.91888550492243
 20
40.80611377086166
 30
0.0
 10
18.89743094867243
 20
40.78851752922166
 30
0.0
 10
18.87391018329243
 20
40.77428130570166
 30
0.0
 10
18.84884330159243
 20
40.76372571545166
 30
0.0
 10
18.82278627012243
 20
40.75709136484166
 30
0.0
 10
18.79631956718243
 20
40.75453290527166
 30
0.0
 10
18.77003597564243
 20
40.75611435173166
 30
0.0
 10
18.74452742672243
 20
40.76180601224166
 30
0.0
 10
18.72677731563243
 20
40.76891700472167
 30
0.0
 10
18.71755937874243
 20
40.77370154516166
 30
0.0
 10
18.71602016735243
 20
40.77453288086166
 30
0.0
  0
ARC
  5
48
330
1F
100
AcDbEntity
  8
IGES_LEVEL_0
 62
     7
100
AcDbCircle
 10
18.80854893035003
 20
40.95379435002401
 30
0.0
 40
0.1733426528797268
100
AcDbArc
 50
351.7277069418445
 51
60.38341726801585
  0
ARC
  5
49
330
1F
100
AcDbEntity
  8
IGES_LEVEL_0
 62
     7
100
AcDbCircle
 10
18.78298611850169
 20
40.95110546065616
 30
0.0
 40
0.0573069857372355
100
AcDbArc
 50
245.3816153435736
 51
355.2229318421891
  0
SPLINE
  5
4A
330
1F
100
AcDbEntity
  8
IGES_LEVEL_0
 62
     7
100
AcDbSpline
210
0.0
220
0.0
230
1.0
 70
     8
 71
     3
 72
    20
 73
    16
 74
     0
 42
0.0000000001
 43
0.0000000001
 40
0.0
 40
0.0
 40
0.0
 40
0.0
 40
0.07331710124584
 40
0.1469734692017
 40
0.2211979138068
 40
0.2962235453193
 40
0.3720667597287
 40
0.4489118209329
 40
0.5265507679699
 40
0.6049098914079
 40
0.6838225747718
 40
0.7630147544114
 40
0.8422800665975
 40
0.9213338781374
 40
1.0
 40
1.0
 40
1.0
 40
1.0
 10
18.88573076277243
 20
41.10907210539166
 30
0.0
 10
18.87800218816243
 20
41.11324642044166
 30
0.0
 10
18.86180504216243
 20
41.12037899935167
 30
0.0
 10
18.83605084736243
 20
41.12706864665166
 30
0.0
 10
18.80935257736243
 20
41.12960886420166
 30
0.0
 10
18.78232843039243
 20
41.12791566968166
 30
0.0
 10
18.75558441626243
 20
41.12200800392166
 30
0.0
 10
18.72975410400243
 20
41.11200582888166
 30
0.0
 10
18.70543817080243
 20
41.09812748257166
 30
0.0
 10
18.68321529381243
 20
41.08069736380166
 30
0.0
 10
18.66360282475243
 20
41.06011918292166
 30
0.0
 10
18.64705525829243
 20
41.03687319064166
 30
0.0
 10
18.63395535311243
 20
41.01150349267166
 30
0.0
 10
18.62459892157243
 20
40.98460052968166
 30
0.0
 10
18.62098364083243
 20
40.96597517948166
 30
0.0
 10
18.61986288535243
 20
40.95661737413166
 30
0.0
  0
ARC
  5
4B
330
1F
100
AcDbEntity
  8
IGES_LEVEL_0
 62
     7
100
AcDbCircle
 10
18.79366120034702
 20
40.9320575142436
 30
0.0
 40
0.1755250438332932
100
AcDbArc
 50
171.9566525120077
 51
240.6095083816331
  0
LINE
  5
4C
330
1F
100
AcDbEntity
  8
IGES_LEVEL_0
 62
     7
100
AcDbLine
 10
18.89422189039243
 20
41.10448617908166
 30
0.0
 11
18.88573089039243
 21
41.10907217908166
 31
0.0
  0
LINE
  5
4D
330
1F
100
AcDbEntity
  8
IGES_LEVEL_0
 62
     7
100
AcDbLine
 10
18.71601189039243
 20
40.77453717908166
 30
0.0
 11
18.70752089039243
 21
40.77912317908166
 31
0.0
  0
SPLINE
  5
4E
330
1F
100
AcDbEntity
  8
IGES_LEVEL_0
 62
     7
100
AcDbSpline
210
0.0
220
0.0
230
1.0
 70
     8
 71
     3
 72
    23
 73
    19
 74
     0
 42
0.0000000001
 43
0.0000000001
 40
0.0
 40
0.0
 40
0.0
 40
0.0
 40
0.02256848671311
 40
0.05903132801563
 40
0.1105148563647
 40
0.1758698005997
 40
0.2529732684608
 40
0.3390939962203
 40
0.4310869317167
 40
0.5255510738348
 40
0.6189799397444
 40
0.7079110972868
 40
0.7890759658347
 40
0.8595530602819
 40
0.9169407316187
 40
0.9596198814211
 40
0.9874692870955
 40
1.0
 40
1.0
 40
1.0
 40
1.0
 10
2.705238965284433
 20
71.60336660183165
 30
0.0
 10
2.705787908614433
 20
71.60265723770166
 30
0.0
 10
2.708151682964431
 20
71.60171469738165
 30
0.0
 10
2.712489489364433
 20
71.60146593073165
 30
0.0
 10
2.718606442804433
 20
71.60191219785165
 30
0.0
 10
2.726206082494432
 20
71.60317601571165
 30
0.0
 10
2.735072767234431
 20
71.60518760092165
 30
0.0
 10
2.744850186524435
 20
71.60789499646165
 30
0.0
 10
2.755171857584433
 20
71.61119421864166
 30
0.0
 10
2.76564018106443
 20
71.61496259307165
 30
0.0
 10
2.775855619394431
 20
71.61905540890166
 30
0.0
 10
2.785425171414435
 20
71.62331607714165
 30
0.0
 10
2.793992937584431
 20
71.62757559626166
 30
0.0
 10
2.801212476774435
 20
71.63167748689165
 30
0.0
 10
2.806896016194433
 20
71.63542886890166
 30
0.0
 10
2.810693193344431
 20
71.63876854668166
 30
0.0
 10
2.812911228434434
 20
71.64134754028166
 30
0.0
 10
2.81298407944443
 20
71.64314737928166
 30
0.0
 10
2.812835036524433
 20
71.64362831282165
 30
0.0
  0
SPLINE
  5
4F
330
1F
100
AcDbEntity
  8
IGES_LEVEL_0
 62
     7
100
AcDbSpline
210
0.0
220
0.0
230
1.0
 70
     8
 71
     3
 72
    15
 73
    11
 74
     0
 42
0.0000000001
 43
0.0000000001
 40
0.0
 40
0.0
 40
0.0
 40
0.0
 40
0.07959777124392
 40
0.3031614667321
 40
0.5001478852657
 40
0.6667720932189
 40
0.8003445946846
 40
0.8999398904877
 40
0.9684993187758
 40
1.0
 40
1.0
 40
1.0
 40
1.0
 10
2.640775764254432
 20
71.66949247794165
 30
0.0
 10
2.638391424714431
 20
71.66831028384166
 30
0.0
 10
2.62933741949443
 20
71.66375312707166
 30
0.0
 10
2.614587181944433
 20
71.65586891068165
 30
0.0
 10
2.597713963204431
 20
71.64580775952166
 30
0.0
 10
2.58399456459443
 20
71.63642182511165
 30
0.0
 10
2.573615478464433
 20
71.62790173525166
 30
0.0
 10
2.566874997714432
 20
71.62043200554166
 30
0.0
 10
2.56356851999443
 20
71.61432057387165
 30
0.0
 10
2.563955889004433
 20
71.61076661403166
 30
0.0
 10
2.564304104934433
 20
71.60974755905166
 30
0.0
  0
LINE
  5
50
330
1F
100
AcDbEntity
  8
IGES_LEVEL_0
 62
     7
100
AcDbLine
 10
2.671619387414435
 20
71.68390495803166
 30
0.0
 11
2.640775764254432
 21
71.66949247794165
 31
0.0
  0
LINE
  5
51
330
1F
100
AcDbEntity
  8
IGES_LEVEL_0
 62
     7
100
AcDbLine
 10
2.74009792759443
 20
71.71103868425166
 30
0.0
 11
2.671619387414435
 21
71.68390495803166
 31
0.0
  0
LINE
  5
52
330
1F
100
AcDbEntity
  8
IGES_LEVEL_0
 62
     7
100
AcDbLine
 10
2.74890308146443
 20
71.71411291391166
 30
0.0
 11
2.74009792759443
 21
71.71103868425166
 31
0.0
  0
LINE
  5
53
330
1F
100
AcDbEntity
  8
IGES_LEVEL_0
 62
     7
100
AcDbLine
 10
2.800434650514433
 20
71.73021082936165
 30
0.0
 11
2.74890308146443
 21
71.71411291391166
 31
0.0
  0
LINE
  5
54
330
1F
100
AcDbEntity
  8
IGES_LEVEL_0
 62
     7
100
AcDbLine
 10
2.818144578344434
 20
71.73491728683166
 30
0.0
 11
2.800434650514433
 21
71.73021082936165
 31
0.0
  0
LINE
  5
55
330
1F
100
AcDbEntity
  8
IGES_LEVEL_0
 62
     7
100
AcDbLine
 10
2.832078523524434
 20
71.73826309989165
 30
0.0
 11
2.818144578344434
 21
71.73491728683166
 31
0.0
  0
LINE
  5
56
330
1F
100
AcDbEntity
  8
IGES_LEVEL_0
 62
     7
100
AcDbLine
 10
2.878019463484431
 20
71.74614238001166
 30
0.0
 11
2.832078523524434
 21
71.73826309989165
 31
0.0
  0
SPLINE
  5
57
330
1F
100
AcDbEntity
  8
IGES_LEVEL_0
 62
     7
100
AcDbSpline
210
0.0
220
0.0
230
1.0
 70
     8
 71
     3
 72
    11
 73
     7
 74
     0
 42
0.0000000001
 43
0.0000000001
 40
0.0
 40
0.0
 40
0.0
 40
0.0
 40
0.1638436693025
 40
0.4039916019799
 40
0.7322537269918
 40
1.0
 40
1.0
 40
1.0
 40
1.0
 10
2.915187127134434
 20
71.74105122696165
 30
0.0
 10
2.913901668794434
 20
71.74271234204166
 30
0.0
 10
2.909087535414432
 20
71.74534427110166
 30
0.0
 10
2.899826164584432
 20
71.74686796840166
 30
0.0
 10
2.889062340184434
 20
71.74699731155165
 30
0.0
 10
2.88143667616443
 20
71.74646734888165
 30
0.0
 10
2.878019463484431
 20
71.74614238001166
 30
0.0
  0
LINE
  5
58
330
1F
100
AcDbEntity
  8
IGES_LEVEL_0
 62
     7
100
AcDbLine
 10
2.915187127134434
 20
71.74105122696165
 30
0.0
 11
2.91612798648443
 21
71.73927156947165
 31
0.0
  0
SPLINE
  5
59
330
1F
100
AcDbEntity
  8
IGES_LEVEL_0
 62
     7
100
AcDbSpline
210
0.0
220
0.0
230
1.0
 70
     8
 71
     3
 72
    23
 73
    19
 74
     0
 42
0.0000000001
 43
0.0000000001
 40
0.0
 40
0.0
 40
0.0
 40
0.0
 40
0.02256848671311
 40
0.05903132801563
 40
0.1105148563647
 40
0.1758698005997
 40
0.2529732684608
 40
0.3390939962203
 40
0.4310869317167
 40
0.5255510738349
 40
0.6189799397444
 40
0.7079110972868
 40
0.7890759658347
 40
0.8595530602819
 40
0.9169407316188
 40
0.9596198814212
 40
0.9874692870956
 40
1.0
 40
1.0
 40
1.0
 40
1.0
 10
2.812554561894434
 20
71.64417882162167
 30
0.0
 10
2.812005618564431
 20
71.64488818575165
 30
0.0
 10
2.809641844204432
 20
71.64583072608166
 30
0.0
 10
2.805304037814434
 20
71.64607949272165
 30
0.0
 10
2.799187084374434
 20
71.64563322561165
 30
0.0
 10
2.79158744467443
 20
71.64436940774166
 30
0.0
 10
2.782720759934431
 20
71.64235782253167
 30
0.0
 10
2.772943340654432
 20
71.63965042699167
 30
0.0
 10
2.762621669594434
 20
71.63635120482167
 30
0.0
 10
2.752153346114433
 20
71.63258283039166
 30
0.0
 10
2.741937907784433
 20
71.62849001455166
 30
0.0
 10
2.732368355764432
 20
71.62422934631165
 30
0.0
 10
2.723800589584432
 20
71.61996982719165
 30
0.0
 10
2.716581050394431
 20
71.61586793656166
 30
0.0
 10
2.710897510984434
 20
71.61211655455165
 30
0.0
 10
2.707100333834433
 20
71.60877687678166
 30
0.0
 10
2.704882298744433
 20
71.60619788318167
 30
0.0
 10
2.70480944773443
 20
71.60439804418166
 30
0.0
 10
2.70495849065443
 20
71.60391711064165
 30
0.0
  0
SPLINE
  5
5A
330
1F
100
AcDbEntity
  8
IGES_LEVEL_0
 62
     7
100
AcDbSpline
210
0.0
220
0.0
230
1.0
 70
     8
 71
     3
 72
    32
 73
    28
 74
     0
 42
0.0000000001
 43
0.0000000001
 40
0.0
 40
0.0
 40
0.0
 40
0.0
 40
0.02233143812176
 40
0.0455605125134
 40
0.06935346600567
 40
0.09351200835789
 40
0.119201667014
 40
0.1485037854714
 40
0.1846982485659
 40
0.2311364066671
 40
0.2843191079859
 40
0.3410830608166
 40
0.400875932095
 40
0.462741556868
 40
0.5255566636289
 40
0.5881230714012
 40
0.649259550207
 40
0.7078924284856
 40
0.7631877999418
 40
0.8135191184264
 40
0.8536227936161001
 40
0.8852682036238
 40
0.9114692004214
 40
0.9348403655781
 40
0.9568765569156
 40
0.9785238719814
 40
1.0
 40
1.0
 40
1.0
 40
1.0
 10
2.924659894014432
 20
71.71623106031166
 30
0.0
 10
2.925719502274433
 20
71.71335316297166
 30
0.0
 10
2.927115989204435
 20
71.70716831938165
 30
0.0
 10
2.926713761944431
 20
71.69754602476166
 30
0.0
 10
2.92380805210443
 20
71.68810669137164
 30
0.0
 10
2.918676420164434
 20
71.67930978483165
 30
0.0
 10
2.911558380224431
 20
71.67103793572166
 30
0.0
 10
2.902185750384433
 20
71.66269534780165
 30
0.0
 10
2.889757717264434
 20
71.65361922810166
 30
0.0
 10
2.873915423494434
 20
71.64375050408165
 30
0.0
 10
2.855073428414432
 20
71.63342723808165
 30
0.0
 10
2.834160052824434
 20
71.62311853024166
 30
0.0
 10
2.811806421604434
 20
71.61307282560165
 30
0.0
 10
2.788380321134433
 20
71.60341837773166
 30
0.0
 10
2.764324597474431
 20
71.59432185818164
 30
0.0
 10
2.740110337994434
 20
71.58595784516166
 30
0.0
 10
2.716204160984432
 20
71.57849442045165
 30
0.0
 10
2.693027951004432
 20
71.57208379926166
 30
0.0
 10
2.671067385924435
 20
71.56689971746165
 30
0.0
 10
2.651385260954431
 20
71.56322143653165
 30
0.0
 10
2.634738472464431
 20
71.56113121305165
 30
0.0
 10
2.621288475684434
 20
71.56045640909166
 30
0.0
 10
2.610124793524431
 20
71.56097561789166
 30
0.0
 10
2.600407523244432
 20
71.56270312626165
 30
0.0
 10
2.59169494236443
 20
71.56585410890165
 30
0.0
 10
2.584031152574433
 20
71.57060836260166
 30
0.0
 10
2.579810937414433
 20
71.57485975049166
 30
0.0
 10
2.578005947234434
 20
71.57719222313165
 30
0.0
  0
LINE
  5
5B
330
1F
100
AcDbEntity
  8
IGES_LEVEL_0
 62
     7
100
AcDbLine
 10
2.578005947234434
 20
71.57719222313165
 30
0.0
 11
2.572754668204432
 21
71.58666365682166
 31
0.0
  0
LINE
  5
5C
330
1F
100
AcDbEntity
  8
IGES_LEVEL_0
 62
     7
100
AcDbLine
 10
2.56426356323443
 20
71.60972592327165
 30
0.0
 11
2.572754563234433
 21
71.58666392327166
 31
0.0
  0
LINE
  5
5D
330
1F
100
AcDbEntity
  8
IGES_LEVEL_0
 62
     7
100
AcDbLine
 10
2.916168563234432
 20
71.73929292327165
 30
0.0
 11
2.924659563234432
 21
71.71623092327165
 31
0.0
  0
LINE
  5
5E
330
1F
100
AcDbEntity
  8
IGES_LEVEL_0
 62
     7
100
AcDbLine
 10
2.704938563234432
 20
71.60391092327166
 30
0.0
 11
2.705238563234435
 21
71.60336692327167
 31
0.0
  0
LINE
  5
5F
330
1F
100
AcDbEntity
  8
IGES_LEVEL_0
 62
     7
100
AcDbLine
 10
2.812854563234435
 20
71.64363392327167
 30
0.0
 11
2.812554563234432
 21
71.64417892327165
 31
0.0
  0
ARC
  5
60
330
1F
100
AcDbEntity
  8
IGES_LEVEL_0
 62
     7
100
AcDbCircle
 10
2.734858365423492
 20
56.44389200175079
 30
0.0
 40
0.0575000826432522
100
AcDbArc
 50
0.095894548638719
 51
179.9009092834933
  0
ARC
  5
61
330
1F
100
AcDbEntity
  8
IGES_LEVEL_0
 62
     7
100
AcDbCircle
 10
2.734862180856247
 20
56.40983878940722
 30
0.0
 40
0.0575266257517269
100
AcDbArc
 50
17.33993241346059
 51
162.6735571788639
  0
ARC
  5
62
330
1F
100
AcDbEntity
  8
IGES_LEVEL_0
 62
     7
100
AcDbCircle
 10
2.734858718896767
 20
56.44120608201114
 30
0.0
 40
0.1875002696845743
100
AcDbArc
 50
180.0958832905661
 51
359.9008351768992
  0
ARC
  5
63
330
1F
100
AcDbEntity
  8
IGES_LEVEL_0
 62
     7
100
AcDbCircle
 10
2.734858370426373
 20
56.44407122155418
 30
0.0
 40
0.057500082638236
100
AcDbArc
 50
180.0958945403137
 51
359.900909291818
  0
ARC
  5
64
330
1F
100
AcDbEntity
  8
IGES_LEVEL_0
 62
     7
100
AcDbCircle
 10
2.734858547494852
 20
56.44206250344442
 30
0.0
 40
0.1875001956667457
100
AcDbArc
 50
0.0814678601356993
 51
179.9151229676087
  0
LINE
  5
65
330
1F
100
AcDbEntity
  8
IGES_LEVEL_0
 62
     7
100
AcDbLine
 10
2.677358828542435
 20
56.44399192327166
 30
0.0
 11
2.677358828542435
 21
56.44397492327166
 31
0.0
  0
LINE
  5
66
330
1F
100
AcDbEntity
  8
IGES_LEVEL_0
 62
     7
100
AcDbLine
 10
2.792358828542433
 20
56.44397192327166
 30
0.0
 11
2.792357828542432
 21
56.44398792327166
 31
0.0
  0
LINE
  5
67
330
1F
100
AcDbEntity
  8
IGES_LEVEL_0
 62
     7
100
AcDbLine
 10
2.547358828542432
 20
56.44089292327166
 30
0.0
 11
2.547358828542432
 21
56.44228692327166
 31
0.0
  0
LINE
  5
68
330
1F
100
AcDbEntity
  8
IGES_LEVEL_0
 62
     7
100
AcDbLine
 10
2.922358828542432
 20
56.44093492327166
 30
0.0
 11
2.922358828542432
 21
56.44232892327166
 31
0.0
  0
ARC
  5
6A
330
1F
100
AcDbEntity
  8
DEFAULT
 62
     7
100
AcDbCircle
 10
19.53024178147921
 20
56.04963424127229
 30
0.0
 40
0.2434747526190607
100
AcDbArc
 50
355.6270668202209
 51
3.426764085869933
  0
LINE
  5
6B
330
1F
100
AcDbEntity
  8
IGES_LEVEL_0
 62
     7
100
AcDbLine
 10
1.532968437312432
 20
0.1462049232716608
 30
0.0
 11
1.493352437312432
 21
1.142624923271661
 31
0.0
  0
LINE
  5
6C
330
1F
100
AcDbEntity
  8
IGES_LEVEL_0
 62
     7
100
AcDbLine
 10
1.253091437312432
 20
10.69424392327166
 30
0.0
 11
1.283535437312432
 21
10.69424392327166
 31
0.0
  0
LINE
  5
6D
330
1F
100
AcDbEntity
  8
IGES_LEVEL_0
 62
     7
100
AcDbLine
 10
1.909037437312432
 20
10.69424392327166
 30
0.0
 11
19.63629543731243
 21
10.69424392327166
 31
0.0
  0
LINE
  5
6E
330
1F
100
AcDbEntity
  8
IGES_LEVEL_0
 62
     7
100
AcDbLine
 10
20.26179743731243
 20
10.69424392327166
 30
0.0
 11
20.29262043731243
 21
10.69424392327166
 31
0.0
  0
LINE
  5
6F
330
1F
100
AcDbEntity
  8
IGES_LEVEL_0
 62
     7
100
AcDbLine
 10
1.941364437312432
 20
11.31424392327166
 30
0.0
 11
19.60396843731243
 21
11.31424392327166
 31
0.0
  0
LINE
  5
70
330
1F
100
AcDbEntity
  8
IGES_LEVEL_0
 62
     7
100
AcDbLine
 10
1.776410437312432
 20
29.48708692327166
 30
0.0
 11
1.776411437312432
 21
29.63449792327166
 31
0.0
  0
LINE
  5
71
330
1F
100
AcDbEntity
  8
IGES_LEVEL_0
 62
     7
100
AcDbLine
 10
1.798004437312432
 20
41.82065392327166
 30
0.0
 11
1.798004437312432
 21
41.81393092327166
 31
0.0
  0
LINE
  5
72
330
1F
100
AcDbEntity
  8
IGES_LEVEL_0
 62
     7
100
AcDbLine
 10
1.776411437312432
 20
29.63423492327166
 30
0.0
 11
1.776423437312432
 21
29.63561592327166
 31
0.0
  0
LINE
  5
73
330
1F
100
AcDbEntity
  8
IGES_LEVEL_0
 62
     7
100
AcDbLine
 10
0.2415934373124313
 20
1.193657923271662
 30
0.0
 11
1.358431437312432
 21
26.48244792327166
 31
0.0
  0
LINE
  5
74
330
1F
100
AcDbEntity
  8
IGES_LEVEL_0
 62
     7
100
AcDbLine
 10
1.314107437312432
 20
11.31300692327166
 30
0.0
 11
1.982822437312432
 21
26.45487292327166
 31
0.0
  0
LINE
  5
75
330
1F
100
AcDbEntity
  8
IGES_LEVEL_0
 62
     7
100
AcDbLine
 10
2.159208437312432
 20
27.44622792327166
 30
0.0
 11
0.7893634373124321
 21
1.240531923271661
 31
0.0
  0
LINE
  5
76
330
1F
100
AcDbEntity
  8
IGES_LEVEL_0
 62
     7
100
AcDbLine
 10
2.783356437312432
 20
27.41360192327166
 30
0.0
 11
1.941679437312432
 21
11.31198892327166
 31
0.0
  0
LINE
  5
77
330
1F
100
AcDbEntity
  8
IGES_LEVEL_0
 62
     7
100
AcDbLine
 10
1.909480437312432
 20
10.69599692327166
 30
0.0
 11
1.413511437312432
 21
1.207905923271662
 31
0.0
  0
LINE
  5
78
330
1F
100
AcDbEntity
  8
IGES_LEVEL_0
 62
     7
100
AcDbLine
 10
2.951866437312432
 20
29.71524792327166
 30
0.0
 11
2.951866437312432
 21
29.71524592327166
 31
0.0
  0
LINE
  5
79
330
1F
100
AcDbEntity
  8
IGES_LEVEL_0
 62
     7
100
AcDbLine
 10
0.5598654373124317
 20
0.197065923271662
 30
0.0
 11
0.5595534373124316
 21
0.1946209232716621
 31
0.0
  0
LINE
  5
7A
330
1F
100
AcDbEntity
  8
IGES_LEVEL_0
 62
     7
100
AcDbLine
 10
0.7031464373124317
 20
1.183892923271662
 30
0.0
 11
0.5598574373124314
 21
0.1970259232716617
 31
0.0
  0
LINE
  5
7B
330
1F
100
AcDbEntity
  8
IGES_LEVEL_0
 62
     7
100
AcDbLine
 10
2.934310437312432
 20
35.79209392327166
 30
0.0
 11
3.680822437312431
 21
29.55905692327166
 31
0.0
  0
LINE
  5
7C
330
1F
100
AcDbEntity
  8
IGES_LEVEL_0
 62
     7
100
AcDbLine
 10
3.583838437312431
 20
35.62459292327166
 30
0.0
 11
4.309746437312431
 21
29.56358392327166
 31
0.0
  0
LINE
  5
7D
330
1F
100
AcDbEntity
  8
IGES_LEVEL_0
 62
     7
100
AcDbLine
 10
18.65064243731244
 20
28.54449492327166
 30
0.0
 11
17.74221643731243
 21
28.05413992327166
 31
0.0
  0
LINE
  5
7E
330
1F
100
AcDbEntity
  8
IGES_LEVEL_0
 62
     7
100
AcDbLine
 10
3.803130437312432
 20
28.05413192327166
 30
0.0
 11
2.894690437312431
 21
28.54449492327166
 31
0.0
  0
LINE
  5
7F
330
1F
100
AcDbEntity
  8
IGES_LEVEL_0
 62
     7
100
AcDbLine
 10
17.23558643731244
 20
29.56358392327166
 30
0.0
 11
17.96149443731243
 21
35.62459292327166
 31
0.0
  0
LINE
  5
80
330
1F
100
AcDbEntity
  8
IGES_LEVEL_0
 62
     7
100
AcDbLine
 10
17.86436843731243
 20
29.55786992327166
 30
0.0
 11
18.61100643731243
 21
35.79195792327166
 31
0.0
  0
LINE
  5
81
330
1F
100
AcDbEntity
  8
IGES_LEVEL_0
 62
     7
100
AcDbLine
 10
20.13182143731243
 20
1.207905923271662
 30
0.0
 11
19.63584143731243
 21
10.69621492327166
 31
0.0
  0
LINE
  5
82
330
1F
100
AcDbEntity
  8
IGES_LEVEL_0
 62
     7
100
AcDbLine
 10
19.60365343731243
 20
11.31198392327166
 30
0.0
 11
18.76197643731243
 21
27.41360192327166
 31
0.0
  0
LINE
  5
83
330
1F
100
AcDbEntity
  8
IGES_LEVEL_0
 62
     7
100
AcDbLine
 10
20.98546943731243
 20
0.197071923271661
 30
0.0
 11
20.84218243731243
 21
1.183930923271662
 31
0.0
  0
LINE
  5
84
330
1F
100
AcDbEntity
  8
IGES_LEVEL_0
 62
     7
100
AcDbLine
 10
20.75596943731243
 20
1.240531923271661
 30
0.0
 11
19.38612443731243
 21
27.44622792327166
 31
0.0
  0
LINE
  5
85
330
1F
100
AcDbEntity
  8
IGES_LEVEL_0
 62
     7
100
AcDbLine
 10
19.56251043731243
 20
26.45487292327166
 30
0.0
 11
20.23122543731243
 21
11.31300692327166
 31
0.0
  0
LINE
  5
86
330
1F
100
AcDbEntity
  8
IGES_LEVEL_0
 62
     7
100
AcDbLine
 10
20.18690143731243
 20
26.48244792327166
 30
0.0
 11
21.30373943731243
 21
1.193657923271662
 31
0.0
  0
LINE
  5
87
330
1F
100
AcDbEntity
  8
IGES_LEVEL_0
 62
     7
100
AcDbLine
 10
19.74732843731243
 20
41.82063292327166
 30
0.0
 11
19.74732843731243
 21
41.81390592327166
 31
0.0
  0
LINE
  5
88
330
1F
100
AcDbEntity
  8
IGES_LEVEL_0
 62
     7
100
AcDbLine
 10
19.77328043731243
 20
29.48680292327166
 30
0.0
 11
19.77328143731243
 21
29.63421392327166
 31
0.0
  0
LINE
  5
89
330
1F
100
AcDbEntity
  8
IGES_LEVEL_0
 62
     7
100
AcDbLine
 10
20.01236743731244
 20
0.1461989232716617
 30
0.0
 11
20.01231243731243
 21
0.1437349232716619
 31
0.0
  0
LINE
  5
8A
330
1F
100
AcDbEntity
  8
IGES_LEVEL_0
 62
     7
100
AcDbLine
 10
20.05197943731243
 20
1.142586923271661
 30
0.0
 11
20.01236343731243
 21
0.1461589232716615
 31
0.0
  0
LINE
  5
8B
330
1F
100
AcDbEntity
  8
IGES_LEVEL_0
 62
     7
100
AcDbLine
 10
18.17362443731243
 20
36.47514792327166
 30
0.0
 11
18.16513343731243
 21
36.47973392327166
 31
0.0
  0
LINE
  5
8C
330
1F
100
AcDbEntity
  8
IGES_LEVEL_0
 62
     7
100
AcDbLine
 10
18.35183443731243
 20
36.80509692327166
 30
0.0
 11
18.34334343731243
 21
36.80968292327166
 31
0.0
  0
LINE
  5
8D
330
1F
100
AcDbEntity
  8
IGES_LEVEL_0
 62
     7
100
AcDbLine
 10
38.17682943731243
 20
41.43697592327166
 30
0.0
 11
38.17603943731243
 21
41.43378992327166
 31
0.0
  0
LINE
  5
8E
330
1F
100
AcDbEntity
  8
IGES_LEVEL_0
 62
     7
100
AcDbLine
 10
38.08411643731242
 20
41.41955892327166
 30
0.0
 11
38.08533143731243
 21
41.42407492327166
 31
0.0
  0
LINE
  5
8F
330
1F
100
AcDbEntity
  8
IGES_LEVEL_0
 62
     7
100
AcDbLine
 10
38.45074943731243
 20
10.69424392327166
 30
0.0
 11
56.50206543731242
 21
10.69424392327166
 31
0.0
  0
LINE
  5
90
330
1F
100
AcDbEntity
  8
IGES_LEVEL_0
 62
     7
100
AcDbLine
 10
38.59388743731243
 20
11.31424392327166
 30
0.0
 11
56.47078143731243
 21
11.31424392327166
 31
0.0
  0
LINE
  5
91
330
1F
100
AcDbEntity
  8
IGES_LEVEL_0
 62
     7
100
AcDbLine
 10
36.21337743731242
 20
0.1861819232716612
 30
0.0
 11
36.31161943731242
 21
1.054832923271661
 31
0.0
  0
LINE
  5
92
330
1F
100
AcDbEntity
  8
IGES_LEVEL_0
 62
     7
100
AcDbLine
 10
39.85800243731243
 20
27.83518892327166
 30
0.0
 11
39.84963443731242
 21
27.98495492327166
 31
0.0
  0
LINE
  5
93
330
1F
100
AcDbEntity
  8
IGES_LEVEL_0
 62
     7
100
AcDbLine
 10
35.63407843731243
 20
1.272284923271661
 30
0.0
 11
41.82359543731243
 21
28.08202892327167
 31
0.0
  0
LINE
  5
94
330
1F
100
AcDbEntity
  8
IGES_LEVEL_0
 62
     7
100
AcDbLine
 10
36.24291243731243
 20
1.131049923271661
 30
0.0
 11
38.49206343731242
 21
10.87319492327166
 31
0.0
  0
LINE
  5
95
330
1F
100
AcDbEntity
  8
IGES_LEVEL_0
 62
     7
100
AcDbLine
 10
38.52387943731243
 20
11.01100792327166
 30
0.0
 11
42.43257643731243
 21
27.94143392327166
 31
0.0
  0
LINE
  5
96
330
1F
100
AcDbEntity
  8
IGES_LEVEL_0
 62
     7
100
AcDbLine
 10
38.52385843731243
 20
11.01091392327166
 30
0.0
 11
38.52225943731243
 21
11.00424392327166
 31
0.0
  0
LINE
  5
97
330
1F
100
AcDbEntity
  8
IGES_LEVEL_0
 62
     7
100
AcDbLine
 10
38.04056743731243
 20
36.07134592327166
 30
0.0
 11
36.80957243731243
 21
41.62400792327166
 31
0.0
  0
LINE
  5
98
330
1F
100
AcDbEntity
  8
IGES_LEVEL_0
 62
     7
100
AcDbLine
 10
38.08396143731243
 20
41.41962892327167
 30
0.0
 11
39.93203543731243
 21
29.47862592327166
 31
0.0
  0
LINE
  5
99
330
1F
100
AcDbEntity
  8
IGES_LEVEL_0
 62
     7
100
AcDbLine
 10
39.60931043731243
 20
35.65026192327166
 30
0.0
 11
40.54968243731243
 21
29.57421792327166
 31
0.0
  0
LINE
  5
9A
330
1F
100
AcDbEntity
  8
IGES_LEVEL_0
 62
     7
100
AcDbLine
 10
42.42362943731243
 20
28.83484392327166
 30
0.0
 11
42.42223543731243
 21
28.85980492327166
 31
0.0
  0
LINE
  5
9B
330
1F
100
AcDbEntity
  8
IGES_LEVEL_0
 62
     7
100
AcDbLine
 10
42.42597543731243
 20
28.83505992327166
 30
0.0
 11
42.42458043731243
 21
28.86002092327166
 31
0.0
  0
LINE
  5
9C
330
1F
100
AcDbEntity
  8
IGES_LEVEL_0
 62
     7
100
AcDbLine
 10
42.80005043731243
 20
28.86207092327166
 30
0.0
 11
42.79899643731243
 21
28.88093892327166
 31
0.0
  0
LINE
  5
9D
330
1F
100
AcDbEntity
  8
IGES_LEVEL_0
 62
     7
100
AcDbLine
 10
35.53474143731243
 20
1.244440923271661
 30
0.0
 11
35.50845543731243
 21
1.197392923271661
 31
0.0
  0
LINE
  5
9E
330
1F
100
AcDbEntity
  8
IGES_LEVEL_0
 62
     7
100
AcDbLine
 10
53.93001043731243
 20
28.57124792327166
 30
0.0
 11
42.43052343731243
 21
27.92878992327166
 31
0.0
  0
LINE
  5
9F
330
1F
100
AcDbEntity
  8
IGES_LEVEL_0
 62
     7
100
AcDbLine
 10
41.77982443731243
 20
27.89243592327166
 30
0.0
 11
39.91071643731243
 21
27.78801192327166
 31
0.0
  0
LINE
  5
A0
330
1F
100
AcDbEntity
  8
IGES_LEVEL_0
 62
     7
100
AcDbLine
 10
41.78404843731243
 20
27.98065492327166
 30
0.0
 11
41.80339443731243
 21
27.98173592327166
 31
0.0
  0
LINE
  5
A1
330
1F
100
AcDbEntity
  8
IGES_LEVEL_0
 62
     7
100
AcDbLine
 10
42.44045743731243
 20
28.01732792327166
 30
0.0
 11
54.18202243731243
 21
28.67330992327166
 31
0.0
  0
LINE
  5
A2
330
1F
100
AcDbEntity
  8
IGES_LEVEL_0
 62
     7
100
AcDbLine
 10
53.84624143731243
 20
29.72400892327166
 30
0.0
 11
53.84484643731243
 21
29.74896992327166
 31
0.0
  0
LINE
  5
A3
330
1F
100
AcDbEntity
  8
IGES_LEVEL_0
 62
     7
100
AcDbLine
 10
53.84900143731243
 20
29.72377192327166
 30
0.0
 11
53.84866743731243
 21
29.72975092327166
 31
0.0
  0
LINE
  5
A4
330
1F
100
AcDbEntity
  8
IGES_LEVEL_0
 62
     7
100
AcDbLine
 10
53.96703343731243
 20
29.28727392327166
 30
0.0
 11
53.96006643731243
 21
29.41198492327166
 31
0.0
  0
LINE
  5
A5
330
1F
100
AcDbEntity
  8
IGES_LEVEL_0
 62
     7
100
AcDbLine
 10
54.15474143731242
 20
29.29776092327166
 30
0.0
 11
54.14752343731243
 21
29.42695392327166
 31
0.0
  0
LINE
  5
A6
330
1F
100
AcDbEntity
  8
IGES_LEVEL_0
 62
     7
100
AcDbLine
 10
54.21964843731243
 20
29.76298992327166
 30
0.0
 11
54.21926243731243
 21
29.76988792327166
 31
0.0
  0
LINE
  5
A7
330
1F
100
AcDbEntity
  8
IGES_LEVEL_0
 62
     7
100
AcDbLine
 10
54.42147443731243
 20
29.48708692327166
 30
0.0
 11
54.41323843731243
 21
29.63449792327166
 31
0.0
  0
LINE
  5
A8
330
1F
100
AcDbEntity
  8
IGES_LEVEL_0
 62
     7
100
AcDbLine
 10
54.18043343731243
 20
29.36792892327166
 30
0.0
 11
54.17704643731243
 21
29.42941992327166
 31
0.0
  0
LINE
  5
A9
330
1F
100
AcDbEntity
  8
IGES_LEVEL_0
 62
     7
100
AcDbLine
 10
53.93001043731243
 20
28.65923092327166
 30
0.0
 11
53.93001043731243
 21
28.07406892327166
 31
0.0
  0
LINE
  5
AA
330
1F
100
AcDbEntity
  8
IGES_LEVEL_0
 62
     7
100
AcDbLine
 10
54.55501043731243
 20
28.65989192327166
 30
0.0
 11
54.55501043731243
 21
28.07406892327166
 31
0.0
  0
LINE
  5
AB
330
1F
100
AcDbEntity
  8
IGES_LEVEL_0
 62
     7
100
AcDbLine
 10
42.45051543731243
 20
28.89143192327166
 30
0.0
 11
42.45061343731243
 21
28.89143692327166
 31
0.0
  0
LINE
  5
AC
330
1F
100
AcDbEntity
  8
IGES_LEVEL_0
 62
     7
100
AcDbLine
 10
48.74208343731243
 20
28.99536392327166
 30
0.0
 11
53.96703343731243
 21
29.28727392327166
 31
0.0
  0
LINE
  5
AD
330
1F
100
AcDbEntity
  8
IGES_LEVEL_0
 62
     7
100
AcDbLine
 10
54.13439143731243
 20
29.29662392327166
 30
0.0
 11
54.22507843731243
 21
29.30168992327166
 31
0.0
  0
LINE
  5
AE
330
1F
100
AcDbEntity
  8
IGES_LEVEL_0
 62
     7
100
AcDbLine
 10
42.42648243731243
 20
28.83500292327166
 30
0.0
 11
42.51279043731243
 21
28.83982592327166
 31
0.0
  0
LINE
  5
AF
330
1F
100
AcDbEntity
  8
IGES_LEVEL_0
 62
     7
100
AcDbLine
 10
42.51675743731243
 20
28.84013292327166
 30
0.0
 11
42.42597743731243
 21
28.83505992327166
 31
0.0
  0
LINE
  5
B0
330
1F
100
AcDbEntity
  8
IGES_LEVEL_0
 62
     7
100
AcDbLine
 10
42.42415543731243
 20
28.83487292327166
 30
0.0
 11
42.42648243731243
 21
28.83500292327166
 31
0.0
  0
LINE
  5
B1
330
1F
100
AcDbEntity
  8
IGES_LEVEL_0
 62
     7
100
AcDbLine
 10
42.42363143731243
 20
28.83484392327166
 30
0.0
 11
42.42415543731243
 21
28.83487292327166
 31
0.0
  0
LINE
  5
B2
330
1F
100
AcDbEntity
  8
IGES_LEVEL_0
 62
     7
100
AcDbLine
 10
53.84897943731243
 20
29.72416192327166
 30
0.0
 11
53.84624343731243
 21
29.72400892327166
 31
0.0
  0
LINE
  5
B3
330
1F
100
AcDbEntity
  8
IGES_LEVEL_0
 62
     7
100
AcDbLine
 10
53.87694743731243
 20
29.76137792327166
 30
0.0
 11
54.19101943731243
 21
29.77892392327166
 31
0.0
  0
LINE
  5
B4
330
1F
100
AcDbEntity
  8
IGES_LEVEL_0
 62
     7
100
AcDbLine
 10
53.87312643731243
 20
29.78059592327166
 30
0.0
 11
54.18719843731243
 21
29.79814292327166
 31
0.0
  0
LINE
  5
B5
330
1F
100
AcDbEntity
  8
IGES_LEVEL_0
 62
     7
100
AcDbLine
 10
42.45286043731243
 20
28.89164792327166
 30
0.0
 11
42.76720943731243
 21
28.90920992327166
 31
0.0
  0
LINE
  5
B6
330
1F
100
AcDbEntity
  8
IGES_LEVEL_0
 62
     7
100
AcDbLine
 10
54.19101943731243
 20
29.77892392327166
 30
0.0
 11
54.19129743731243
 21
29.77893992327166
 31
0.0
  0
LINE
  5
B7
330
1F
100
AcDbEntity
  8
IGES_LEVEL_0
 62
     7
100
AcDbLine
 10
54.18719843731243
 20
29.79814292327166
 30
0.0
 11
54.18747643731243
 21
29.79815892327166
 31
0.0
  0
LINE
  5
B8
330
1F
100
AcDbEntity
  8
IGES_LEVEL_0
 62
     7
100
AcDbLine
 10
54.42361843731243
 20
29.43710092327166
 30
0.0
 11
54.42361643731243
 21
29.43710092327166
 31
0.0
  0
LINE
  5
B9
330
1F
100
AcDbEntity
  8
IGES_LEVEL_0
 62
     7
100
AcDbLine
 10
57.83251043731243
 20
0.1961999232716617
 30
0.0
 11
57.69101443731243
 21
1.183222923271661
 31
0.0
  0
LINE
  5
BA
330
1F
100
AcDbEntity
  8
IGES_LEVEL_0
 62
     7
100
AcDbLine
 10
55.55652843731243
 20
29.26273592327166
 30
0.0
 11
55.54895943731243
 21
29.39820092327166
 31
0.0
  0
LINE
  5
BB
330
1F
100
AcDbEntity
  8
IGES_LEVEL_0
 62
     7
100
AcDbLine
 10
55.55679943731243
 20
29.25779992327166
 30
0.0
 11
55.55653043731243
 21
29.26269592327166
 31
0.0
  0
LINE
  5
BC
330
1F
100
AcDbEntity
  8
IGES_LEVEL_0
 62
     7
100
AcDbLine
 10
55.57900343731243
 20
28.85481392327166
 30
0.0
 11
55.55819643731243
 21
29.23247692327166
 31
0.0
  0
LINE
  5
BD
330
1F
100
AcDbEntity
  8
IGES_LEVEL_0
 62
     7
100
AcDbLine
 10
55.55737143731243
 20
29.24743392327166
 30
0.0
 11
55.55679943731243
 21
29.25779992327166
 31
0.0
  0
LINE
  5
BE
330
1F
100
AcDbEntity
  8
IGES_LEVEL_0
 62
     7
100
AcDbLine
 10
55.55819643731243
 20
29.23247692327166
 30
0.0
 11
55.55737143731243
 21
29.24743392327166
 31
0.0
  0
LINE
  5
BF
330
1F
100
AcDbEntity
  8
IGES_LEVEL_0
 62
     7
100
AcDbLine
 10
55.65840943731243
 20
27.41416692327166
 30
0.0
 11
56.98068643731243
 21
1.208730923271663
 31
0.0
  0
LINE
  5
C0
330
1F
100
AcDbEntity
  8
IGES_LEVEL_0
 62
     7
100
AcDbLine
 10
56.28261543731243
 20
27.44566292327166
 30
0.0
 11
57.60489243731243
 21
1.240223923271664
 31
0.0
  0
LINE
  5
C1
330
1F
100
AcDbEntity
  8
IGES_LEVEL_0
 62
     7
100
AcDbLine
 10
56.90073943731242
 20
1.143346923271661
 30
0.0
 11
56.85931543731243
 21
0.1470939232716616
 31
0.0
  0
LINE
  5
C2
330
1F
100
AcDbEntity
  8
IGES_LEVEL_0
 62
     7
100
AcDbLine
 10
38.18110543731243
 20
35.33426992327166
 30
0.0
 11
38.99775443731243
 21
35.51531692327166
 31
0.0
  0
LINE
  5
C3
330
1F
100
AcDbEntity
  8
IGES_LEVEL_0
 62
     7
100
AcDbLine
 10
36.62317143731243
 20
42.35089292327167
 30
0.0
 11
38.26865843731243
 21
42.71568892327166
 31
0.0
  0
LINE
  5
C4
330
1F
100
AcDbEntity
  8
IGES_LEVEL_0
 62
     7
100
AcDbLine
 10
0.7698974373124317
 20
75.26946792327166
 30
0.0
 11
0.7739384373124316
 21
75.27124992327165
 31
0.0
  0
LINE
  5
C5
330
1F
100
AcDbEntity
  8
IGES_LEVEL_0
 62
     7
100
AcDbLine
 10
0.9881824373124315
 20
74.60482292327166
 30
0.0
 11
0.9276284373124317
 21
74.42925192327166
 31
0.0
  0
LINE
  5
C6
330
1F
100
AcDbEntity
  8
IGES_LEVEL_0
 62
     7
100
AcDbLine
 10
1.655548437312432
 20
53.36504192327166
 30
0.0
 11
19.88746743731243
 21
53.36504192327166
 31
0.0
  0
LINE
  5
C7
330
1F
100
AcDbEntity
  8
IGES_LEVEL_0
 62
     7
100
AcDbLine
 10
2.383774437312431
 20
53.98504192327166
 30
0.0
 11
10.46266643731243
 21
53.98504192327166
 31
0.0
  0
LINE
  5
C8
330
1F
100
AcDbEntity
  8
IGES_LEVEL_0
 62
     7
100
AcDbLine
 10
11.08266643731243
 20
53.98504192327166
 30
0.0
 11
19.16155843731243
 21
53.98504192327166
 31
0.0
  0
LINE
  5
C9
330
1F
100
AcDbEntity
  8
IGES_LEVEL_0
 62
     7
100
AcDbLine
 10
1.798004437312432
 20
71.62271992327166
 30
0.0
 11
1.798004437312432
 21
71.65304592327166
 31
0.0
  0
LINE
  5
CA
330
1F
100
AcDbEntity
  8
IGES_LEVEL_0
 62
     7
100
AcDbLine
 10
1.776410437312432
 20
56.05288892327166
 30
0.0
 11
1.776411437312432
 21
56.06112392327166
 31
0.0
  0
LINE
  5
CB
330
1F
100
AcDbEntity
  8
IGES_LEVEL_0
 62
     7
100
AcDbLine
 10
0.2346434373124315
 20
74.54602292327166
 30
0.0
 11
1.363692437312432
 21
68.64380892327165
 31
0.0
  0
LINE
  5
CC
330
1F
100
AcDbEntity
  8
IGES_LEVEL_0
 62
     7
100
AcDbLine
 10
3.728837437312432
 20
67.86120092327165
 30
0.0
 11
3.728837437312432
 21
67.86259592327166
 31
0.0
  0
LINE
  5
CD
330
1F
100
AcDbEntity
  8
IGES_LEVEL_0
 62
     7
100
AcDbLine
 10
4.103837437312431
 20
67.86115892327166
 30
0.0
 11
4.103837437312431
 21
67.86255392327166
 31
0.0
  0
LINE
  5
CE
330
1F
100
AcDbEntity
  8
IGES_LEVEL_0
 62
     7
100
AcDbLine
 10
3.858837437312432
 20
67.86423792327165
 30
0.0
 11
3.858837437312432
 21
67.86425492327166
 31
0.0
  0
LINE
  5
CF
330
1F
100
AcDbEntity
  8
IGES_LEVEL_0
 62
     7
100
AcDbLine
 10
3.973837437312432
 20
67.86425792327165
 30
0.0
 11
3.973837437312432
 21
67.86424092327165
 31
0.0
  0
LINE
  5
D0
330
1F
100
AcDbEntity
  8
IGES_LEVEL_0
 62
     7
100
AcDbLine
 10
0.8484174373124318
 20
74.66394492327166
 30
0.0
 11
1.258250437312432
 21
72.52150692327166
 31
0.0
  0
LINE
  5
D1
330
1F
100
AcDbEntity
  8
IGES_LEVEL_0
 62
     7
100
AcDbLine
 10
1.307856437312432
 20
72.26218692327166
 30
0.0
 11
1.962171437312432
 21
68.84169292327165
 31
0.0
  0
LINE
  5
D2
330
1F
100
AcDbEntity
  8
IGES_LEVEL_0
 62
     7
100
AcDbLine
 10
3.115128437312432
 20
70.84906392327166
 30
0.0
 11
3.106636437312432
 21
70.87212692327165
 31
0.0
  0
LINE
  5
D3
330
1F
100
AcDbEntity
  8
IGES_LEVEL_0
 62
     7
100
AcDbLine
 10
3.467033437312432
 20
70.97863192327165
 30
0.0
 11
3.458542437312432
 21
71.00169392327166
 31
0.0
  0
LINE
  5
D4
330
1F
100
AcDbEntity
  8
IGES_LEVEL_0
 62
     7
100
AcDbLine
 10
3.247312437312432
 20
70.86631192327165
 30
0.0
 11
3.247620437312432
 21
70.86575592327165
 31
0.0
  0
LINE
  5
D5
330
1F
100
AcDbEntity
  8
IGES_LEVEL_0
 62
     7
100
AcDbLine
 10
3.355228437312432
 20
70.90603492327165
 30
0.0
 11
3.354919437312432
 21
70.90659092327167
 31
0.0
  0
LINE
  5
D6
330
1F
100
AcDbEntity
  8
IGES_LEVEL_0
 62
     7
100
AcDbLine
 10
20.27608843731243
 20
52.90920392327166
 30
0.0
 11
19.80385643731243
 21
53.36504192327166
 31
0.0
  0
LINE
  5
D7
330
1F
100
AcDbEntity
  8
IGES_LEVEL_0
 62
     7
100
AcDbLine
 10
19.70389043731243
 20
53.46153792327166
 30
0.0
 11
18.85701743731243
 21
54.27901192327166
 31
0.0
  0
LINE
  5
D8
330
1F
100
AcDbEntity
  8
IGES_LEVEL_0
 62
     7
100
AcDbLine
 10
0.1298754373124315
 20
74.43602492327165
 30
0.0
 11
0.2475514373124318
 21
74.29915792327165
 31
0.0
  0
LINE
  5
D9
330
1F
100
AcDbEntity
  8
IGES_LEVEL_0
 62
     7
100
AcDbLine
 10
3.221016437312432
 20
70.72882492327165
 30
0.0
 11
3.752322437312432
 21
70.04225192327166
 31
0.0
  0
LINE
  5
DA
330
1F
100
AcDbEntity
  8
IGES_LEVEL_0
 62
     7
100
AcDbLine
 10
3.848377437312431
 20
70.93936092327166
 30
0.0
 11
4.246606437312432
 21
70.42475492327165
 31
0.0
  0
LINE
  5
DB
330
1F
100
AcDbEntity
  8
IGES_LEVEL_0
 62
     7
100
AcDbLine
 10
10.46266643731243
 20
54.86124592327166
 30
0.0
 11
10.46266643731243
 21
53.98504192327166
 31
0.0
  0
LINE
  5
DC
330
1F
100
AcDbEntity
  8
IGES_LEVEL_0
 62
     7
100
AcDbLine
 10
20.71015543731243
 20
53.35888292327167
 30
0.0
 11
19.34423543731244
 21
54.67738392327166
 31
0.0
  0
LINE
  5
DD
330
1F
100
AcDbEntity
  8
IGES_LEVEL_0
 62
     7
100
AcDbLine
 10
11.08266643731243
 20
54.86135092327166
 30
0.0
 11
11.08266643731243
 21
53.98504192327166
 31
0.0
  0
LINE
  5
DE
330
1F
100
AcDbEntity
  8
IGES_LEVEL_0
 62
     7
100
AcDbLine
 10
17.29872743731243
 20
70.42475492327165
 30
0.0
 11
17.69695543731243
 21
70.93936092327166
 31
0.0
  0
LINE
  5
DF
330
1F
100
AcDbEntity
  8
IGES_LEVEL_0
 62
     7
100
AcDbLine
 10
21.41546943731243
 20
74.43603992327167
 30
0.0
 11
21.29778143731243
 21
74.29915792327165
 31
0.0
  0
LINE
  5
E0
330
1F
100
AcDbEntity
  8
IGES_LEVEL_0
 62
     7
100
AcDbLine
 10
2.201097437312432
 20
54.67738392327166
 30
0.0
 11
0.8351774373124321
 21
53.35888292327167
 31
0.0
  0
LINE
  5
E1
330
1F
100
AcDbEntity
  8
IGES_LEVEL_0
 62
     7
100
AcDbLine
 10
17.79301043731243
 20
70.04225192327166
 30
0.0
 11
18.32430843731243
 21
70.72881492327166
 31
0.0
  0
LINE
  5
E2
330
1F
100
AcDbEntity
  8
IGES_LEVEL_0
 62
     7
100
AcDbLine
 10
2.688316437312432
 20
54.27901192327166
 30
0.0
 11
1.841440437312432
 21
53.46153592327166
 31
0.0
  0
LINE
  5
E3
330
1F
100
AcDbEntity
  8
IGES_LEVEL_0
 62
     7
100
AcDbLine
 10
1.741476437312432
 20
53.36504192327166
 30
0.0
 11
1.269244437312432
 21
52.90920392327166
 31
0.0
  0
LINE
  5
E4
330
1F
100
AcDbEntity
  8
IGES_LEVEL_0
 62
     7
100
AcDbLine
 10
18.19009043731244
 20
70.90601692327167
 30
0.0
 11
18.19039143731244
 21
70.90656092327166
 31
0.0
  0
LINE
  5
E5
330
1F
100
AcDbEntity
  8
IGES_LEVEL_0
 62
     7
100
AcDbLine
 10
18.29800643731243
 20
70.86629392327166
 30
0.0
 11
18.29770643731244
 21
70.86574892327165
 31
0.0
  0
LINE
  5
E6
330
1F
100
AcDbEntity
  8
IGES_LEVEL_0
 62
     7
100
AcDbLine
 10
18.73247843731243
 20
71.64363392327167
 30
0.0
 11
18.73277843731243
 21
71.64417892327165
 31
0.0
  0
LINE
  5
E7
330
1F
100
AcDbEntity
  8
IGES_LEVEL_0
 62
     7
100
AcDbLine
 10
18.84039443731243
 20
71.60391092327166
 30
0.0
 11
18.84009443731243
 21
71.60336692327167
 31
0.0
  0
LINE
  5
E8
330
1F
100
AcDbEntity
  8
IGES_LEVEL_0
 62
     7
100
AcDbLine
 10
18.08677643731243
 20
71.00167592327165
 30
0.0
 11
18.07828543731243
 21
70.97861392327165
 31
0.0
  0
LINE
  5
E9
330
1F
100
AcDbEntity
  8
IGES_LEVEL_0
 62
     7
100
AcDbLine
 10
18.62916443731243
 20
71.73929292327165
 30
0.0
 11
18.62067343731243
 21
71.71623092327165
 31
0.0
  0
LINE
  5
EA
330
1F
100
AcDbEntity
  8
IGES_LEVEL_0
 62
     7
100
AcDbLine
 10
18.43868243731243
 20
70.87210892327165
 30
0.0
 11
18.43019043731243
 21
70.84904592327166
 31
0.0
  0
LINE
  5
EB
330
1F
100
AcDbEntity
  8
IGES_LEVEL_0
 62
     7
100
AcDbLine
 10
18.98106943731244
 20
71.60972592327165
 30
0.0
 11
18.97257843731243
 21
71.58666392327166
 31
0.0
  0
LINE
  5
EC
330
1F
100
AcDbEntity
  8
IGES_LEVEL_0
 62
     7
100
AcDbLine
 10
17.44179443731243
 20
67.86354592327166
 30
0.0
 11
17.44179543731243
 21
67.86494092327166
 31
0.0
  0
LINE
  5
ED
330
1F
100
AcDbEntity
  8
IGES_LEVEL_0
 62
     7
100
AcDbLine
 10
17.57179543731243
 20
67.86658292327167
 30
0.0
 11
17.57179543731243
 21
67.86659992327165
 31
0.0
  0
LINE
  5
EE
330
1F
100
AcDbEntity
  8
IGES_LEVEL_0
 62
     7
100
AcDbLine
 10
17.68679543731243
 20
67.86660292327166
 30
0.0
 11
17.68679543731243
 21
67.86658692327166
 31
0.0
  0
LINE
  5
EF
330
1F
100
AcDbEntity
  8
IGES_LEVEL_0
 62
     7
100
AcDbLine
 10
17.81679443731243
 20
67.86350392327165
 30
0.0
 11
17.81679543731243
 21
67.86489892327165
 31
0.0
  0
LINE
  5
F0
330
1F
100
AcDbEntity
  8
IGES_LEVEL_0
 62
     7
100
AcDbLine
 10
18.62770043731243
 20
56.44093492327166
 30
0.0
 11
18.62770043731243
 21
56.44232892327166
 31
0.0
  0
LINE
  5
F1
330
1F
100
AcDbEntity
  8
IGES_LEVEL_0
 62
     7
100
AcDbLine
 10
19.00270043731243
 20
56.44089292327166
 30
0.0
 11
19.00270043731243
 21
56.44228692327166
 31
0.0
  0
LINE
  5
F2
330
1F
100
AcDbEntity
  8
IGES_LEVEL_0
 62
     7
100
AcDbLine
 10
18.75770043731243
 20
56.44397192327166
 30
0.0
 11
18.75770143731243
 21
56.44398792327166
 31
0.0
  0
LINE
  5
F3
330
1F
100
AcDbEntity
  8
IGES_LEVEL_0
 62
     7
100
AcDbLine
 10
18.87270043731243
 20
56.44399192327166
 30
0.0
 11
18.87270043731243
 21
56.44397492327166
 31
0.0
  0
LINE
  5
F4
330
1F
100
AcDbEntity
  8
IGES_LEVEL_0
 62
     7
100
AcDbLine
 10
19.58316543731243
 20
68.84171192327165
 30
0.0
 11
20.23748443731243
 21
72.26222692327166
 31
0.0
  0
LINE
  5
F5
330
1F
100
AcDbEntity
  8
IGES_LEVEL_0
 62
     7
100
AcDbLine
 10
20.28708243731244
 20
72.52150692327166
 30
0.0
 11
20.69691543731243
 21
74.66394492327166
 31
0.0
  0
LINE
  5
F6
330
1F
100
AcDbEntity
  8
IGES_LEVEL_0
 62
     7
100
AcDbLine
 10
19.74732843731243
 20
71.62281392327165
 30
0.0
 11
19.74732843731243
 21
71.65315992327166
 31
0.0
  0
LINE
  5
F7
330
1F
100
AcDbEntity
  8
IGES_LEVEL_0
 62
     7
100
AcDbLine
 10
20.18164043731243
 20
68.64380892327165
 30
0.0
 11
21.31068943731243
 21
74.54602292327166
 31
0.0
  0
LINE
  5
F8
330
1F
100
AcDbEntity
  8
IGES_LEVEL_0
 62
     7
100
AcDbLine
 10
20.55714843731244
 20
74.60482792327166
 30
0.0
 11
20.61770443731243
 21
74.42925192327166
 31
0.0
  0
LINE
  5
F9
330
1F
100
AcDbEntity
  8
IGES_LEVEL_0
 62
     7
100
AcDbLine
 10
20.77543543731243
 20
75.26946792327166
 30
0.0
 11
20.77139443731243
 21
75.27124992327165
 31
0.0
  0
ARC
  5
FA
330
1F
100
AcDbEntity
  8
IGES_LEVEL_0
 62
     7
100
AcDbCircle
 10
10.77266643731243
 20
63.87406892327167
 30
0.0
 40
36.11250021970711
100
AcDbArc
 50
257.4241458075323
 51
282.5758541924677
  0
ARC
  5
FB
330
1F
100
AcDbEntity
  8
IGES_LEVEL_0
 62
     7
100
AcDbCircle
 10
53.87480043731243
 20
29.75064292327166
 30
0.0
 40
0.0300002127455453
100
AcDbArc
 50
93.19879353181834
 51
183.1967801230163
  0
ARC
  5
FC
330
1F
100
AcDbEntity
  8
IGES_LEVEL_0
 62
     7
100
AcDbCircle
 10
54.18930943731242
 20
29.76821392327166
 30
0.0
 40
0.0300002127455461
100
AcDbArc
 50
3.198793531811178
 51
93.19678012301634
  0
ARC
  5
FD
330
1F
100
AcDbEntity
  8
IGES_LEVEL_0
 62
     7
100
AcDbCircle
 10
42.45218843731243
 20
28.86147792327166
 30
0.0
 40
0.0300001848536097
100
AcDbArc
 50
93.19678012302703
 51
183.1968866281899
  0
ARC
  5
FE
330
1F
100
AcDbEntity
  8
IGES_LEVEL_0
 62
     7
100
AcDbCircle
 10
42.45453343731243
 20
28.86169492327166
 30
0.0
 40
0.0299997135236181
100
AcDbArc
 50
93.19688662818476
 51
183.1987935318172
  0
ARC
  5
FF
330
1F
100
AcDbEntity
  8
IGES_LEVEL_0
 62
     7
100
AcDbCircle
 10
42.76904343731243
 20
28.87926592327166
 30
0.0
 40
0.0299997135236183
100
AcDbArc
 50
3.196886628191528
 51
93.19879353182367
  0
ARC
  5
100
330
1F
100
AcDbEntity
  8
IGES_LEVEL_0
 62
     7
100
AcDbCircle
 10
53.87862043731243
 20
29.73142392327166
 30
0.0
 40
0.0300001848536095
100
AcDbArc
 50
93.19678012301348
 51
183.1968866281899
  0
ARC
  5
101
330
1F
100
AcDbEntity
  8
IGES_LEVEL_0
 62
     7
100
AcDbCircle
 10
54.19313043731243
 20
29.74899492327166
 30
0.0
 40
0.0300002127455425
100
AcDbArc
 50
3.198793531811935
 51
93.19678012300317
  0
ARC
  5
102
330
1F
100
AcDbEntity
  8
IGES_LEVEL_0
 62
     7
100
AcDbCircle
 10
36.64482043731243
 20
42.25326492327167
 30
0.0
 40
0.1000000165523685
100
AcDbArc
 50
102.501214844725
 51
218.286849584578
  0
ARC
  5
103
330
1F
100
AcDbEntity
  8
IGES_LEVEL_0
 62
     7
100
AcDbCircle
 10
38.15948143731243
 20
35.43190392327166
 30
0.0
 40
0.0999999314446618
100
AcDbArc
 50
166.4053857005608
 51
282.4994127040396
  0
ARC
  5
104
330
1F
100
AcDbEntity
  8
IGES_LEVEL_0
 62
     7
100
AcDbCircle
 10
39.90792743731243
 20
27.83793392327166
 30
0.0
 40
0.0500003452713157
100
AcDbArc
 50
183.1975641655373
 51
273.1976280838317
  0
ARC
  5
105
330
1F
100
AcDbEntity
  8
IGES_LEVEL_0
 62
     7
100
AcDbCircle
 10
42.12834343731243
 20
28.01284692327166
 30
0.0
 40
0.3124999249549663
100
AcDbArc
 50
347.0000511616916
 51
166.9998312701756
  0
ARC
  5
106
330
1F
100
AcDbEntity
  8
IGES_LEVEL_0
 62
     7
100
AcDbCircle
 10
54.24251043731243
 20
28.07406892327166
 30
0.0
 40
0.3125
100
AcDbArc
 50
180.0
 51
0.0
  0
ARC
  5
107
330
1F
100
AcDbEntity
  8
IGES_LEVEL_0
 62
     7
100
AcDbCircle
 10
10.77266643731243
 20
106.7102609232717
 30
0.0
 40
35.49000014485327
100
AcDbArc
 50
254.244366496949
 51
256.2040420669127
  0
ARC
  5
108
330
1F
100
AcDbEntity
  8
IGES_LEVEL_0
 62
     7
100
AcDbCircle
 10
10.77266643731243
 20
106.7102609232717
 30
0.0
 40
35.49000022876193
100
AcDbArc
 50
262.2312733081659
 51
277.7688897073252
  0
ARC
  5
109
330
1F
100
AcDbEntity
  8
IGES_LEVEL_0
 62
     7
100
AcDbCircle
 10
10.77266643731243
 20
106.7102609232717
 30
0.0
 40
35.49000001395054
100
AcDbArc
 50
283.7956854070132
 51
285.755633503051
  0
ARC
  5
10A
330
1F
100
AcDbEntity
  8
IGES_LEVEL_0
 62
     7
100
AcDbCircle
 10
10.77266643731243
 20
106.7102609232717
 30
0.0
 40
36.11000035775211
100
AcDbArc
 50
271.1075975153951
 51
279.9678378876275
  0
ARC
  5
10B
330
1F
100
AcDbEntity
  8
IGES_LEVEL_0
 62
     7
100
AcDbCircle
 10
10.77266643731243
 20
106.7102609232717
 30
0.0
 40
36.11000057656275
100
AcDbArc
 50
284.3579604916632
 51
285.0667162943105
  0
ARC
  5
10C
330
1F
100
AcDbEntity
  8
IGES_LEVEL_0
 62
     7
100
AcDbCircle
 10
10.77266643731243
 20
106.7102609232717
 30
0.0
 40
36.11000042344022
100
AcDbArc
 50
254.9332852378459
 51
255.6420525924035
  0
ARC
  5
10D
330
1F
100
AcDbEntity
  8
IGES_LEVEL_0
 62
     7
100
AcDbCircle
 10
10.77266643731243
 20
106.7102609232717
 30
0.0
 40
36.11000060514954
100
AcDbArc
 50
260.0321540239719
 51
268.896546151481
  0
ARC
  5
10E
330
1F
100
AcDbEntity
  8
IGES_LEVEL_0
 62
     7
100
AcDbCircle
 10
18.25127374726703
 20
36.6326682584336
 30
0.0
 40
0.1755250438332993
100
AcDbArc
 50
171.9566525120104
 51
240.609508381631
  0
SPLINE
  5
10F
330
1F
100
AcDbEntity
  8
IGES_LEVEL_0
 62
     7
100
AcDbSpline
210
0.0
220
0.0
230
1.0
 70
     8
 71
     3
 72
    20
 73
    16
 74
     0
 42
0.0000000001
 43
0.0000000001
 40
0.0
 40
0.0
 40
0.0
 40
0.0
 40
0.07331710124584
 40
0.1469734692017
 40
0.2211979138068
 40
0.2962235453193
 40
0.3720667597287
 40
0.4489118209329
 40
0.5265507679699
 40
0.6049098914079
 40
0.6838225747718
 40
0.7630147544114
 40
0.8422800665975
 40
0.9213338781374
 40
1.0
 40
1.0
 40
1.0
 40
1.0
 10
18.34334330969243
 20
36.80968284958166
 30
0.0
 10
18.33561473508243
 20
36.81385716463166
 30
0.0
 10
18.31941758908243
 20
36.82098974354167
 30
0.0
 10
18.29366339428243
 20
36.82767939084166
 30
0.0
 10
18.26696512428243
 20
36.83021960839167
 30
0.0
 10
18.23994097731243
 20
36.82852641387166
 30
0.0
 10
18.21319696318243
 20
36.82261874811166
 30
0.0
 10
18.18736665092244
 20
36.81261657307166
 30
0.0
 10
18.16305071772244
 20
36.79873822676166
 30
0.0
 10
18.14082784073244
 20
36.78130810799166
 30
0.0
 10
18.12121537167243
 20
36.76072992711166
 30
0.0
 10
18.10466780521243
 20
36.73748393483167
 30
0.0
 10
18.09156790003243
 20
36.71211423686166
 30
0.0
 10
18.08221146849243
 20
36.68521127387167
 30
0.0
 10
18.07859618775243
 20
36.66658592367166
 30
0.0
 10
18.07747543227243
 20
36.65722811832166
 30
0.0
  0
ARC
  5
110
330
1F
100
AcDbEntity
  8
IGES_LEVEL_0
 62
     7
100
AcDbCircle
 10
18.24059866542169
 20
36.65171620484617
 30
0.0
 40
0.0573069857372361
100
AcDbArc
 50
245.3816153435798
 51
355.2229318421821
  0
ARC
  5
111
330
1F
100
AcDbEntity
  8
IGES_LEVEL_0
 62
     7
100
AcDbCircle
 10
18.26616147727004
 20
36.65440509421402
 30
0.0
 40
0.1733426528797208
100
AcDbArc
 50
351.7277069418419
 51
60.38341726801789
  0
SPLINE
  5
112
330
1F
100
AcDbEntity
  8
IGES_LEVEL_0
 62
     7
100
AcDbSpline
210
0.0
220
0.0
230
1.0
 70
     8
 71
     3
 72
    21
 73
    17
 74
     0
 42
0.0000000001
 43
0.0000000001
 40
0.0
 40
0.0
 40
0.0
 40
0.0
 40
0.0775753401501
 40
0.1555764107908
 40
0.2337590326026
 40
0.3118646015495
 40
0.3896406241229
 40
0.4668609335156
 40
0.5433444789778
 40
0.6189714681861001
 40
0.6936954900328
 40
0.7675501419758
 40
0.8406487693278
 40
0.9131763524317
 40
0.9853734550538
 40
1.0
 40
1.0
 40
1.0
 40
1.0
 10
18.43770058318243
 20
36.62946495688166
 30
0.0
 10
18.43659845193243
 20
36.62026265545166
 30
0.0
 10
18.43307452250243
 20
36.60193929775166
 30
0.0
 10
18.42401783736244
 20
36.57543117718166
 30
0.0
 10
18.41137017998243
 20
36.55035979643166
 30
0.0
 10
18.39541278628244
 20
36.52728765735166
 30
0.0
 10
18.37649805184243
 20
36.50672451505167
 30
0.0
 10
18.35504349559243
 20
36.48912827341166
 30
0.0
 10
18.33152273021243
 20
36.47489204989166
 30
0.0
 10
18.30645584851244
 20
36.46433645964167
 30
0.0
 10
18.28039881704243
 20
36.45770210903167
 30
0.0
 10
18.25393211410243
 20
36.45514364946166
 30
0.0
 10
18.22764852256243
 20
36.45672509592166
 30
0.0
 10
18.20213997364243
 20
36.46241675643166
 30
0.0
 10
18.18438986255243
 20
36.46952774891167
 30
0.0
 10
18.17517192566243
 20
36.47431228935167
 30
0.0
 10
18.17363271427243
 20
36.47514362505167
 30
0.0
  0
ARC
  5
113
330
1F
100
AcDbEntity
  8
IGES_LEVEL_0
 62
     7
100
AcDbCircle
 10
18.24510104538637
 20
36.65459196726832
 30
0.0
 40
0.053158611164781
100
AcDbArc
 50
351.7278224881494
 51
60.38374902960609
  0
ARC
  5
114
330
1F
100
AcDbEntity
  8
IGES_LEVEL_0
 62
     7
100
AcDbCircle
 10
18.24749890233314
 20
36.64870773747825
 30
0.0
 40
0.0573069857362658
100
AcDbArc
 50
65.38161534308827
 51
175.2229318532361
  0
ARC
  5
115
330
1F
100
AcDbEntity
  8
IGES_LEVEL_0
 62
     7
100
AcDbCircle
 10
18.24299652240187
 20
36.6458319750699
 30
0.0
 40
0.0531586111942232
100
AcDbArc
 50
171.7278225198878
 51
240.3837490062634
  0
SPLINE
  5
116
330
1F
100
AcDbEntity
  8
IGES_LEVEL_0
 62
     7
100
AcDbSpline
210
0.0
220
0.0
230
1.0
 70
     8
 71
     3
 72
    15
 73
    11
 74
     0
 42
0.0000000001
 43
0.0000000001
 40
0.0
 40
0.0
 40
0.0
 40
0.0
 40
0.171491266743
 40
0.3383224931536
 40
0.4957163679829
 40
0.6392393137445001
 40
0.7649935024962
 40
0.8698542661915
 40
0.9518603009849
 40
1.0
 40
1.0
 40
1.0
 40
1.0
 10
0.5544892156924319
 20
1.123622034071662
 30
0.0
 10
0.5359360925134318
 20
1.124399939641661
 30
0.0
 10
0.4993596351384315
 20
1.126645036211661
 30
0.0
 10
0.4459416274764318
 20
1.132060162891662
 30
0.0
 10
0.395801421019432
 20
1.139341678031661
 30
0.0
 10
0.350442028659432
 20
1.148245533381662
 30
0.0
 10
0.3112212182414315
 20
1.158513272521661
 30
0.0
 10
0.2792151343454321
 20
1.169709148581662
 30
0.0
 10
0.2563909977364315
 20
1.181199740701661
 30
0.0
 10
0.2449961185684317
 20
1.189630159571662
 30
0.0
 10
0.2414783809334319
 20
1.193554438991662
 30
0.0
  0
ARC
  5
117
330
1F
100
AcDbEntity
  8
IGES_LEVEL_0
 62
     7
100
AcDbCircle
 10
0.2584441716973949
 20
1.210744472173064
 30
0.0
 40
0.0241523352292131
100
AcDbArc
 50
182.1081835858703
 51
225.37615721217
  0
LINE
  5
118
330
1F
100
AcDbEntity
  8
IGES_LEVEL_0
 62
     7
100
AcDbLine
 10
0.0509901008454318
 20
0.1405935181016619
 30
0.0
 11
0.0548788833814313
 21
0.1382167488616622
 31
0.0
  0
LINE
  5
119
330
1F
100
AcDbEntity
  8
IGES_LEVEL_0
 62
     7
100
AcDbLine
 10
0.0062574449144319
 20
0.2409913546116619
 30
0.0
 11
0.0058181217114314
 21
0.2380029685116617
 31
0.0
  0
ARC
  5
11A
330
1F
100
AcDbEntity
  8
IGES_LEVEL_0
 62
     7
100
AcDbCircle
 10
0.1051541077031863
 20
0.2248907967114688
 30
0.0
 40
0.1001976405025183
100
AcDbArc
 50
172.4805307836237
 51
234.2280259933823
  0
SPLINE
  5
11B
330
1F
100
AcDbEntity
  8
IGES_LEVEL_0
 62
     7
100
AcDbSpline
210
0.0
220
0.0
230
1.0
 70
     8
 71
     3
 72
    13
 73
     9
 74
     0
 42
0.0000000001
 43
0.0000000001
 40
0.0
 40
0.0
 40
0.0
 40
0.0
 40
0.1122247735252
 40
0.3157932867627
 40
0.4999714418574
 40
0.6790403366928
 40
0.8601277999387
 40
1.0
 40
1.0
 40
1.0
 40
1.0
 10
0.2438979607614315
 20
1.246214320951662
 30
0.0
 10
0.2394190511804319
 20
1.244681542561661
 30
0.0
 10
0.2269219491434319
 20
1.240060793371661
 30
0.0
 10
0.2077642732684317
 20
1.231117989831661
 30
0.0
 10
0.1878149547444321
 20
1.217737591791662
 30
0.0
 10
0.1715826759574319
 20
1.201228480991661
 30
0.0
 10
0.1608808974474313
 20
1.182774851211661
 30
0.0
 10
0.1571890234244317
 20
1.169583185511662
 30
0.0
 10
0.1562415782374315
 20
1.163747533751662
 30
0.0
  0
ARC
  5
11C
330
1F
100
AcDbEntity
  8
IGES_LEVEL_0
 62
     7
100
AcDbCircle
 10
0.5477853484724016
 20
0.9737321240967998
 30
0.0
 40
0.965697754398224
100
AcDbArc
 50
267.2755271577073
 51
287.834067071332
  0
ARC
  5
11D
330
1F
100
AcDbEntity
  8
IGES_LEVEL_0
 62
     7
100
AcDbCircle
 10
0.535788863475434
 20
0.965001657607298
 30
0.0
 40
0.9564768832791728
100
AcDbArc
 50
239.8150510344216
 51
267.9684991293038
  0
LINE
  5
11E
330
1F
100
AcDbEntity
  8
IGES_LEVEL_0
 62
     7
100
AcDbLine
 10
0.1562483051474321
 20
1.163806581261662
 30
0.0
 11
0.1557301145404321
 21
1.160617527281662
 31
0.0
  0
LINE
  5
11F
330
1F
100
AcDbEntity
  8
IGES_LEVEL_0
 62
     7
100
AcDbLine
 10
0.1557301145404321
 20
1.160617527281662
 30
0.0
 11
0.0062568464274315
 21
0.2409902648616614
 31
0.0
  0
ARC
  5
120
330
1F
100
AcDbEntity
  8
IGES_LEVEL_0
 62
     7
100
AcDbCircle
 10
0.6116259490664009
 20
2.423293066232125
 30
0.0
 40
1.300926361535383
100
AcDbArc
 50
267.4827575450137
 51
273.6569660305991
  0
ARC
  5
121
330
1F
100
AcDbEntity
  8
IGES_LEVEL_0
 62
     7
100
AcDbCircle
 10
0.2589923457837206
 20
1.206533809051412
 30
0.0
 40
0.0249067210704905
100
AcDbArc
 50
130.1982829734693
 51
172.3347535929783
  0
ARC
  5
122
330
1F
100
AcDbEntity
  8
IGES_LEVEL_0
 62
     7
100
AcDbCircle
 10
20.93370703883944
 20
2.423294377782076
 30
0.0
 40
1.300927672374861
100
AcDbArc
 50
266.3430706212499
 51
272.5172404741206
  0
ARC
  5
123
330
1F
100
AcDbEntity
  8
IGES_LEVEL_0
 62
     7
100
AcDbCircle
 10
21.44017888571639
 20
0.2248908001695589
 30
0.0
 40
0.1001976486394182
100
AcDbArc
 50
305.7645407087463
 51
7.519288409095501
  0
LINE
  5
124
330
1F
100
AcDbEntity
  8
IGES_LEVEL_0
 62
     7
100
AcDbLine
 10
21.53951492115243
 20
0.2380026595616619
 30
0.0
 11
21.53907555235244
 21
0.2409913881716611
 31
0.0
  0
LINE
  5
125
330
1F
100
AcDbEntity
  8
IGES_LEVEL_0
 62
     7
100
AcDbLine
 10
21.49045578386243
 20
0.1382177903316623
 30
0.0
 11
21.49431323151244
 21
0.1405745114716622
 31
0.0
  0
SPLINE
  5
126
330
1F
100
AcDbEntity
  8
IGES_LEVEL_0
 62
     7
100
AcDbSpline
210
0.0
220
0.0
230
1.0
 70
     8
 71
     3
 72
    13
 73
     9
 74
     0
 42
0.0000000001
 43
0.0000000001
 40
0.0
 40
0.0
 40
0.0
 40
0.0
 40
0.1400062464833
 40
0.3211817921586
 40
0.5003064503268
 40
0.6845497855835
 40
0.8882255950339
 40
1.0
 40
1.0
 40
1.0
 40
1.0
 10
21.38909139411243
 20
1.163747645751661
 30
0.0
 10
21.38814303051243
 20
1.169588886351662
 30
0.0
 10
21.38444710838243
 20
1.182789528661662
 30
0.0
 10
21.37373420317243
 20
1.201250546761662
 30
0.0
 10
21.35749040437244
 20
1.217760694891661
 30
0.0
 10
21.33752911013243
 20
1.231140383781662
 30
0.0
 10
21.31837983788243
 20
1.240073186121661
 30
0.0
 10
21.30589593546243
 20
1.244687703631662
 30
0.0
 10
21.30143502038244
 20
1.246214338601662
 30
0.0
  0
ARC
  5
127
330
1F
100
AcDbEntity
  8
IGES_LEVEL_0
 62
     7
100
AcDbCircle
 10
21.00954414456294
 20
0.9650016400156996
 30
0.0
 40
0.956476864218301
100
AcDbArc
 50
272.0315002838283
 51
300.1849407312187
  0
ARC
  5
128
330
1F
100
AcDbEntity
  8
IGES_LEVEL_0
 62
     7
100
AcDbCircle
 10
20.99754764051583
 20
0.9737319456959888
 30
0.0
 40
0.9656975779924811
100
AcDbArc
 50
252.1656802001318
 51
272.7244743332294
  0
LINE
  5
129
330
1F
100
AcDbEntity
  8
IGES_LEVEL_0
 62
     7
100
AcDbLine
 10
21.53907615398244
 20
0.2409902656716606
 30
0.0
 11
21.38960288785243
 21
1.160617515891662
 31
0.0
  0
LINE
  5
12A
330
1F
100
AcDbEntity
  8
IGES_LEVEL_0
 62
     7
100
AcDbLine
 10
21.38960288785243
 20
1.160617515891662
 30
0.0
 11
21.38908469532243
 21
1.163806581701662
 31
0.0
  0
ARC
  5
12B
330
1F
100
AcDbEntity
  8
IGES_LEVEL_0
 62
     7
100
AcDbCircle
 10
21.28688882887265
 20
1.210744472160946
 30
0.0
 40
0.0241523352036034
100
AcDbArc
 50
314.6238427671947
 51
357.8918164406601
  0
SPLINE
  5
12C
330
1F
100
AcDbEntity
  8
IGES_LEVEL_0
 62
     7
100
AcDbSpline
210
0.0
220
0.0
230
1.0
 70
     8
 71
     3
 72
    15
 73
    11
 74
     0
 42
0.0000000001
 43
0.0000000001
 40
0.0
 40
0.0
 40
0.0
 40
0.0
 40
0.04813969901508
 40
0.1301457338085
 40
0.2350064975038
 40
0.3607606862555
 40
0.5042836320171
 40
0.6616775068464
 40
0.828508733257
 40
1.0
 40
1.0
 40
1.0
 40
1.0
 10
21.30385461961243
 20
1.193554438991662
 30
0.0
 10
21.30033688197243
 20
1.189630159571662
 30
0.0
 10
21.28894200281243
 20
1.181199740701661
 30
0.0
 10
21.26611786620244
 20
1.169709148581662
 30
0.0
 10
21.23411178230244
 20
1.158513272521661
 30
0.0
 10
21.19489097188243
 20
1.148245533381662
 30
0.0
 10
21.14953157952243
 20
1.139341678031661
 30
0.0
 10
21.09939137307243
 20
1.132060162891662
 30
0.0
 10
21.04597336541243
 20
1.126645036211661
 30
0.0
 10
21.00939690803243
 20
1.124399939641661
 30
0.0
 10
20.99084378485243
 20
1.123622034071662
 30
0.0
  0
ARC
  5
12D
330
1F
100
AcDbEntity
  8
IGES_LEVEL_0
 62
     7
100
AcDbCircle
 10
21.28634065475787
 20
1.206533809053713
 30
0.0
 40
0.0249067210734265
100
AcDbArc
 50
7.66524640077035
 51
49.80171701033518
  0
SPLINE
  5
12E
330
1F
100
AcDbEntity
  8
IGES_LEVEL_0
 62
     7
100
AcDbSpline
210
0.0
220
0.0
230
1.0
 70
     8
 71
     3
 72
    14
 73
    10
 74
     0
 42
0.0000000001
 43
0.0000000001
 40
0.0
 40
0.0
 40
0.0
 40
0.0
 40
0.2165224034109
 40
0.4292855080397
 40
0.6006268904109
 40
0.7165298997796
 40
0.8205573658458
 40
0.9366330639509
 40
1.0
 40
1.0
 40
1.0
 40
1.0
 10
1.493344695450432
 20
1.142617872591661
 30
0.0
 10
1.493020352380432
 20
1.150769368001662
 30
0.0
 10
1.489032608280432
 20
1.166984438371662
 30
0.0
 10
1.475125286585432
 20
1.185560403261661
 30
0.0
 10
1.459146512790432
 20
1.196047122471661
 30
0.0
 10
1.445291001727432
 20
1.201212914441662
 30
0.0
 10
1.433012887634432
 20
1.204331737171662
 30
0.0
 10
1.422530873254432
 20
1.206384996861662
 30
0.0
 10
1.415867769633432
 20
1.207525151801661
 30
0.0
 10
1.413512185209432
 20
1.207911830271662
 30
0.0
  0
LINE
  5
12F
330
1F
100
AcDbEntity
  8
IGES_LEVEL_0
 62
     7
100
AcDbLine
 10
1.413512185209432
 20
1.207911830271662
 30
0.0
 11
1.380403218165432
 21
1.212587530731662
 31
0.0
  0
ARC
  5
130
330
1F
100
AcDbEntity
  8
IGES_LEVEL_0
 62
     7
100
AcDbCircle
 10
0.828819224698466
 20
-4.016889413612032
 30
0.0
 40
5.258485905017833
100
AcDbArc
 50
83.97893643078838
 51
90.14250148413673
  0
LINE
  5
131
330
1F
100
AcDbEntity
  8
IGES_LEVEL_0
 62
     7
100
AcDbLine
 10
0.8157407522594313
 20
1.241580227531662
 30
0.0
 11
0.7893629253844317
 21
1.240537905741661
 31
0.0
  0
ARC
  5
132
330
1F
100
AcDbEntity
  8
IGES_LEVEL_0
 62
     7
100
AcDbCircle
 10
0.7929942511113951
 20
1.070407285314014
 30
0.0
 40
0.1701693701393743
100
AcDbArc
 50
91.22275490625417
 51
106.436933533411
  0
ARC
  5
133
330
1F
100
AcDbEntity
  8
IGES_LEVEL_0
 62
     7
100
AcDbCircle
 10
0.7647172554909384
 20
1.174617939058943
 30
0.0
 40
0.0622613421244444
100
AcDbArc
 50
108.6148153622687
 51
171.4073912766122
  0
ARC
  5
134
330
1F
100
AcDbEntity
  8
IGES_LEVEL_0
 62
     7
100
AcDbCircle
 10
1.453921599245992
 20
0.1566424346006011
 30
0.0
 40
0.0867723264892173
100
AcDbArc
 50
283.2132290055872
 51
298.9917021163061
  0
ARC
  5
135
330
1F
100
AcDbEntity
  8
IGES_LEVEL_0
 62
     7
100
AcDbCircle
 10
1.46111640931198
 20
0.1436578895844161
 30
0.0
 40
0.071927674215345
100
AcDbArc
 50
298.991829395403
 51
353.3294388916603
  0
LINE
  5
136
330
1F
100
AcDbEntity
  8
IGES_LEVEL_0
 62
     7
100
AcDbLine
 10
0.559517520506432
 20
0.1942965624916616
 30
0.0
 11
0.5591522884624316
 21
0.1853423631116619
 31
0.0
  0
ARC
  5
137
330
1F
100
AcDbEntity
  8
IGES_LEVEL_0
 62
     7
100
AcDbCircle
 10
0.6304231192163579
 20
0.186869160118263
 30
0.0
 40
0.0712871827571701
100
AcDbArc
 50
181.2272292239477
 51
202.841121767399
  0
ARC
  5
138
330
1F
100
AcDbEntity
  8
IGES_LEVEL_0
 62
     7
100
AcDbCircle
 10
0.6338601486434314
 20
0.1891665609500668
 30
0.0
 40
0.0753505643506793
100
AcDbArc
 50
203.4365733610577
 51
250.2348952569192
  0
LINE
  5
139
330
1F
100
AcDbEntity
  8
IGES_LEVEL_0
 62
     7
100
AcDbLine
 10
0.6083792381504318
 20
0.1182551320516615
 30
0.0
 11
0.6110363912894321
 21
0.1172635819916613
 31
0.0
  0
LINE
  5
13A
330
1F
100
AcDbEntity
  8
IGES_LEVEL_0
 62
     7
100
AcDbLine
 10
1.532623539995432
 20
0.1358418368416617
 30
0.0
 11
1.532968348334432
 21
0.1462015507816615
 31
0.0
  0
ARC
  5
13B
330
1F
100
AcDbEntity
  8
IGES_LEVEL_0
 62
     7
100
AcDbCircle
 10
1.11738037037755
 20
1.529217429801814
 30
0.0
 40
1.500000003450154
100
AcDbArc
 50
250.2715467807032
 51
283.7438890474662
  0
ARC
  5
13C
330
1F
100
AcDbEntity
  8
IGES_LEVEL_0
 62
     7
100
AcDbCircle
 10
20.78060903417884
 20
1.174618242835857
 30
0.0
 40
0.0622652473095881
100
AcDbArc
 50
8.594462103267949
 51
71.42712736203313
  0
ARC
  5
13D
330
1F
100
AcDbEntity
  8
IGES_LEVEL_0
 62
     7
100
AcDbCircle
 10
20.75230676291336
 20
1.070100749388053
 30
0.0
 40
0.170476473884845
100
AcDbArc
 50
73.59935784764825
 51
88.76869469410104
  0
LINE
  5
13E
330
1F
100
AcDbEntity
  8
IGES_LEVEL_0
 62
     7
100
AcDbLine
 10
20.75597007689243
 20
1.240537858841661
 30
0.0
 11
20.72943749562244
 21
1.241584151221662
 31
0.0
  0
ARC
  5
13F
330
1F
100
AcDbEntity
  8
IGES_LEVEL_0
 62
     7
100
AcDbCircle
 10
20.71658470396603
 20
-4.01703418835509
 30
0.0
 40
5.258634046554895
100
AcDbArc
 50
89.8599614569967
 51
96.02350435292422
  0
LINE
  5
140
330
1F
100
AcDbEntity
  8
IGES_LEVEL_0
 62
     7
100
AcDbLine
 10
20.16476239134244
 20
1.212566577561661
 30
0.0
 11
20.13182081216243
 21
1.207911877101662
 31
0.0
  0
SPLINE
  5
141
330
1F
100
AcDbEntity
  8
IGES_LEVEL_0
 62
     7
100
AcDbSpline
210
0.0
220
0.0
230
1.0
 70
     8
 71
     3
 72
    14
 73
    10
 74
     0
 42
0.0000000001
 43
0.0000000001
 40
0.0
 40
0.0
 40
0.0
 40
0.0
 40
0.06414864036583
 40
0.1800178875137
 40
0.2840217392538
 40
0.3998153624215
 40
0.5710024487673
 40
0.7836084079642
 40
1.0
 40
1.0
 40
1.0
 40
1.0
 10
20.13182081216243
 20
1.207911877101662
 30
0.0
 10
20.12943607252243
 20
1.207520366081662
 30
0.0
 10
20.12275143195243
 20
1.206375823371662
 30
0.0
 10
20.11224902665244
 20
1.204316169501661
 30
0.0
 10
20.09998394420244
 20
1.201195209421661
 30
0.0
 10
20.08614211784244
 20
1.196021780961662
 30
0.0
 10
20.07018284701243
 20
1.185534111691661
 30
0.0
 10
20.05629252435243
 20
1.166966410301662
 30
0.0
 10
20.05230944563243
 20
1.150761599391661
 30
0.0
 10
20.05198547192244
 20
1.142614681051661
 30
0.0
  0
ARC
  5
142
330
1F
100
AcDbEntity
  8
IGES_LEVEL_0
 62
     7
100
AcDbCircle
 10
20.90576535359569
 20
0.1992109944685393
 30
0.0
 40
0.0867723263068621
100
AcDbArc
 50
289.1978035769212
 51
304.9762767201802
  0
ARC
  5
143
330
1F
100
AcDbEntity
  8
IGES_LEVEL_0
 62
     7
100
AcDbCircle
 10
20.91345639279299
 20
0.1877540487788121
 30
0.0
 40
0.0729763191187623
100
AcDbArc
 50
305.1848003656068
 51
334.721441640492
  0
ARC
  5
144
330
1F
100
AcDbEntity
  8
IGES_LEVEL_0
 62
     7
100
AcDbCircle
 10
20.91473639312651
 20
0.1869238348210125
 30
0.0
 40
0.0714646625109346
100
AcDbArc
 50
334.885099850809
 51
359.4086027041533
  0
LINE
  5
145
330
1F
100
AcDbEntity
  8
IGES_LEVEL_0
 62
     7
100
AcDbLine
 10
20.01230993006243
 20
0.1434087030716621
 30
0.0
 11
20.01288025972243
 21
0.1344652247116612
 31
0.0
  0
ARC
  5
146
330
1F
100
AcDbEntity
  8
IGES_LEVEL_0
 62
     7
100
AcDbCircle
 10
20.0856516766611
 20
0.1443663309840044
 30
0.0
 40
0.0734418887875147
100
AcDbArc
 50
187.7479523215945
 51
256.7617959189769
  0
LINE
  5
147
330
1F
100
AcDbEntity
  8
IGES_LEVEL_0
 62
     7
100
AcDbLine
 10
20.06883348493243
 20
0.0728760557316618
 30
0.0
 11
20.07157953630243
 21
0.072166946301662
 31
0.0
  0
LINE
  5
148
330
1F
100
AcDbEntity
  8
IGES_LEVEL_0
 62
     7
100
AcDbLine
 10
20.98620705384244
 20
0.1867292803516615
 30
0.0
 11
20.98546987184243
 21
0.1970684838216615
 31
0.0
  0
ARC
  5
149
330
1F
100
AcDbEntity
  8
IGES_LEVEL_0
 62
     7
100
AcDbCircle
 10
20.42795263016962
 20
1.529217429931533
 30
0.0
 40
1.500000003576179
100
AcDbArc
 50
256.2561213783338
 51
289.7284636419522
  0
ARC
  5
14A
330
1F
100
AcDbEntity
  8
IGES_LEVEL_0
 62
     7
100
AcDbCircle
 10
1.820609122001327
 20
29.38653102559404
 30
0.0
 40
0.0510174713476763
100
AcDbArc
 50
82.62799793986851
 51
84.77668467175342
  0
SPLINE
  5
14B
330
1F
100
AcDbEntity
  8
IGES_LEVEL_0
 62
     7
100
AcDbSpline
210
0.0
220
0.0
230
1.0
 70
     8
 71
     3
 72
    50
 73
    46
 74
     0
 42
0.0000000001
 43
0.0000000001
 40
0.0
 40
0.0
 40
0.0
 40
0.0
 40
0.0004464061623483
 40
0.003372621343335
 40
0.007143353362052
 40
0.01173051144201
 40
0.01712291740067
 40
0.02332348811365
 40
0.03034445872429
 40
0.03820596319121
 40
0.04693321769626
 40
0.05654891566899
 40
0.06707740583609
 40
0.07854340683318
 40
0.09097463406514
 40
0.1044000220604
 40
0.1188446568879
 40
0.1343341896089
 40
0.1508949168991
 40
0.1685539384508
 40
0.1873392238139
 40
0.2072758881548
 40
0.2283930385392
 40
0.250721851497
 40
0.2742943771854
 40
0.299143571725
 40
0.325300734975
 40
0.3527958937438
 40
0.3816591173746
 40
0.4119203523462
 40
0.443608684982
 40
0.4767402695791
 40
0.5113164584909
 40
0.5473345373809
 40
0.5847882117221001
 40
0.6236675260903
 40
0.6639582476629
 40
0.7056407400939
 40
0.7486910554182
 40
0.7930803805418
 40
0.8387757194358
 40
0.8857390483597
 40
0.9339271378893
 40
0.9832923460518001
 40
1.0
 40
1.0
 40
1.0
 40
1.0
 10
1.827155224508432
 20
29.43712678554166
 30
0.0
 10
1.827251704268432
 20
29.43711396401166
 30
0.0
 10
1.827973693743432
 20
29.43701632497166
 30
0.0
 10
1.829940516682432
 20
29.43676226434166
 30
0.0
 10
1.832719956173432
 20
29.43635431527166
 30
0.0
 10
1.836221464106432
 20
29.43581964661166
 30
0.0
 10
1.840296071988432
 20
29.43516502204166
 30
0.0
 10
1.844992736683432
 20
29.43438305476166
 30
0.0
 10
1.850303271886432
 20
29.43347008709166
 30
0.0
 10
1.856246850375432
 20
29.43242000800166
 30
0.0
 10
1.862838322131432
 20
29.43122737768166
 30
0.0
 10
1.870095882424432
 20
29.42988655430166
 30
0.0
 10
1.878036876430432
 20
29.42839187438166
 30
0.0
 10
1.886680127926432
 20
29.42673740436166
 30
0.0
 10
1.896045508298432
 20
29.42491681783166
 30
0.0
 10
1.906153130464432
 20
29.42292443726166
 30
0.0
 10
1.917022627931432
 20
29.42075489599166
 30
0.0
 10
1.928672956588432
 20
29.41840285393166
 30
0.0
 10
1.941123580799432
 20
29.41586288262166
 30
0.0
 10
1.954394517639432
 20
29.41312929230166
 30
0.0
 10
1.968505583689432
 20
29.41019691352166
 30
0.0
 10
1.983477227180432
 20
29.40706107575166
 30
0.0
 10
1.999330680561432
 20
29.40371683050166
 30
0.0
 10
2.016088926157432
 20
29.40015891901166
 30
0.0
 10
2.033775914505432
 20
29.39638188921166
 30
0.0
 10
2.052415631533432
 20
29.39238029127166
 30
0.0
 10
2.072031709383432
 20
29.38814947656166
 30
0.0
 10
2.092647086524432
 20
29.38368506011166
 30
0.0
 10
2.114284386776431
 20
29.37898282168166
 30
0.0
 10
2.136966028579431
 20
29.37403871275166
 30
0.0
 10
2.160710978462431
 20
29.36884953711166
 30
0.0
 10
2.185531126482432
 20
29.36341394216166
 30
0.0
 10
2.211430515379432
 20
29.35773273037166
 30
0.0
 10
2.238407619809431
 20
29.35180809321166
 30
0.0
 10
2.266458141371432
 20
29.34564306352166
 30
0.0
 10
2.295574953263432
 20
29.33924151680166
 30
0.0
 10
2.325747643561432
 20
29.33260826716166
 30
0.0
 10
2.356962271785432
 20
29.32574873743166
 30
0.0
 10
2.389201297846431
 20
29.31866933812166
 30
0.0
 10
2.422443877613432
 20
29.31137736120166
 30
0.0
 10
2.456665708370432
 20
29.30388113286166
 30
0.0
 10
2.491838836760432
 20
29.29618954685166
 30
0.0
 10
2.527931543401432
 20
29.28831181102166
 30
0.0
 10
2.556470707172432
 20
29.28209592807166
 30
0.0
 10
2.572975004848431
 20
29.27850684509166
 30
0.0
 10
2.577148474772431
 20
29.27759963276166
 30
0.0
  0
LINE
  5
14C
330
1F
100
AcDbEntity
  8
IGES_LEVEL_0
 62
     7
100
AcDbLine
 10
2.577148474772431
 20
29.27759963276166
 30
0.0
 11
2.886980943461432
 21
29.21104533167166
 31
0.0
  0
LINE
  5
14D
330
1F
100
AcDbEntity
  8
IGES_LEVEL_0
 62
     7
100
AcDbLine
 10
2.887234525038432
 20
29.21099166449166
 30
0.0
 11
2.953798510292431
 21
29.19600912537166
 31
0.0
  0
LINE
  5
14E
330
1F
100
AcDbEntity
  8
IGES_LEVEL_0
 62
     7
100
AcDbLine
 10
2.953798510335432
 20
29.19600912715166
 30
0.0
 11
3.015146939313432
 21
29.18113797289166
 31
0.0
  0
SPLINE
  5
14F
330
1F
100
AcDbEntity
  8
IGES_LEVEL_0
 62
     7
100
AcDbSpline
210
0.0
220
0.0
230
1.0
 70
     8
 71
     3
 72
    11
 73
     7
 74
     0
 42
0.0000000001
 43
0.0000000001
 40
0.0
 40
0.0
 40
0.0
 40
0.0
 40
0.2645408480595
 40
0.5229429686202
 40
0.7699911301809
 40
1.0
 40
1.0
 40
1.0
 40
1.0
 10
3.015146916751431
 20
29.18113788311166
 30
0.0
 10
3.686670283313431
 20
29.01577454751166
 30
0.0
 10
5.023248878868132
 20
28.72464623632166
 30
0.0
 10
7.011792187570431
 20
28.40536751778166
 30
0.0
 10
8.926185299956433
 20
28.21428234263166
 30
0.0
 10
10.17370910376843
 20
28.17192738414166
 30
0.0
 10
10.77502029188043
 20
28.17190623060166
 30
0.0
  0
SPLINE
  5
150
330
1F
100
AcDbEntity
  8
IGES_LEVEL_0
 62
     7
100
AcDbSpline
210
0.0
220
0.0
230
1.0
 70
     8
 71
     3
 72
    11
 73
     7
 74
     0
 42
0.0000000001
 43
0.0000000001
 40
0.0
 40
0.0
 40
0.0
 40
0.0
 40
0.2304780166854
 40
0.4775257753356
 40
0.735928204435
 40
1.0
 40
1.0
 40
1.0
 40
1.0
 10
10.77502029186443
 20
28.17190616332166
 30
0.0
 10
11.37755583456343
 20
28.17190743969166
 30
0.0
 10
12.62630340409443
 20
28.21435407793166
 30
0.0
 10
14.54189533824543
 20
28.40572909551166
 30
0.0
 10
16.52919896912243
 20
28.72495545223166
 30
0.0
 10
17.86456971250243
 20
29.01584316691166
 30
0.0
 10
18.53490634177243
 20
29.18089276936166
 30
0.0
  0
LINE
  5
151
330
1F
100
AcDbEntity
  8
IGES_LEVEL_0
 62
     7
100
AcDbLine
 10
18.53490631610243
 20
29.18089287091166
 30
0.0
 11
18.59625492590243
 21
29.19576208613166
 31
0.0
  0
LINE
  5
152
330
1F
100
AcDbEntity
  8
IGES_LEVEL_0
 62
     7
100
AcDbLine
 10
18.59625492588243
 20
29.19576208529166
 30
0.0
 11
18.66281908280243
 21
29.21074251609166
 31
0.0
  0
LINE
  5
153
330
1F
100
AcDbEntity
  8
IGES_LEVEL_0
 62
     7
100
AcDbLine
 10
18.66281908216243
 20
29.21074249247166
 30
0.0
 11
18.68132007686243
 21
29.21466363224166
 31
0.0
  0
LINE
  5
154
330
1F
100
AcDbEntity
  8
IGES_LEVEL_0
 62
     7
100
AcDbLine
 10
18.68132007686243
 20
29.21466363224166
 30
0.0
 11
18.96759579121243
 21
29.27619004407166
 31
0.0
  0
SPLINE
  5
155
330
1F
100
AcDbEntity
  8
IGES_LEVEL_0
 62
     7
100
AcDbSpline
210
0.0
220
0.0
230
1.0
 70
     8
 71
     3
 72
    45
 73
    41
 74
     0
 42
0.0000000001
 43
0.0000000001
 40
0.0
 40
0.0
 40
0.0
 40
0.0
 40
0.03382041109306
 40
0.083666931661
 40
0.1324116597357
 40
0.1800115505052
 40
0.2264267642557
 40
0.2716216085548
 40
0.3155637658052
 40
0.3582237648547
 40
0.3995748220272
 40
0.4395940443873
 40
0.4782620188052
 40
0.5155615352228
 40
0.5514774595186001
 40
0.5859974656514
 40
0.6191135926577001
 40
0.6508199383037
 40
0.6811121016324
 40
0.7099871974984
 40
0.7374462208647
 40
0.7634931200596
 40
0.788132654638
 40
0.8113703410219
 40
0.8332124930725
 40
0.8536596263299
 40
0.8727111411189999
 40
0.8903703094873
 40
0.9066463179814001
 40
0.921557823885
 40
0.9351244929657
 40
0.9473683906729
 40
0.9583169071936
 40
0.9680046877524
 40
0.9764576428047
 40
0.9836987057560001
 40
0.9897563684849
 40
0.9946567255291
 40
0.9984041179305
 40
1.0
 40
1.0
 40
1.0
 40
1.0
 10
18.96759579121243
 20
29.27619004407166
 30
0.0
 10
18.97610162768243
 20
29.27803829078166
 30
0.0
 10
18.99714307772243
 20
29.28261423242166
 30
0.0
 10
19.03044041176243
 20
29.28986973167166
 30
0.0
 10
19.06719929069243
 20
29.29789658468166
 30
0.0
 10
19.10309227326243
 20
29.30574928691166
 30
0.0
 10
19.13809003611243
 20
29.31341905404166
 30
0.0
 10
19.17216611795243
 20
29.32089694979166
 30
0.0
 10
19.20529664810243
 20
29.32817469380166
 30
0.0
 10
19.23745996747243
 20
29.33524463230166
 30
0.0
 10
19.26863674491244
 20
29.34209982451166
 30
0.0
 10
19.29881022849244
 20
29.34873365593166
 30
0.0
 10
19.32796607469243
 20
29.35514003145166
 30
0.0
 10
19.35609184459243
 20
29.36131348771166
 30
0.0
 10
19.38317684617243
 20
29.36724910166166
 30
0.0
 10
19.40921267651243
 20
29.37294261140166
 30
0.0
 10
19.43419314545243
 20
29.37839074171166
 30
0.0
 10
19.45811402367243
 20
29.38359077968166
 30
0.0
 10
19.48097232169243
 20
29.38854043540166
 30
0.0
 10
19.50276676764243
 20
29.39323784627166
 30
0.0
 10
19.52349809819243
 20
29.39768199499166
 30
0.0
 10
19.54316882026243
 20
29.40187295998166
 30
0.0
 10
19.56178257414243
 20
29.40581105200166
 30
0.0
 10
19.57934355804243
 20
29.40949684682166
 30
0.0
 10
19.59585489199243
 20
29.41293068869166
 30
0.0
 10
19.61131786550243
 20
29.41611394258166
 30
0.0
 10
19.62573295584243
 20
29.41904801308166
 30
0.0
 10
19.63910278234243
 20
29.42173491755166
 30
0.0
 10
19.65143483639243
 20
29.42417759714166
 30
0.0
 10
19.66274043166244
 20
29.42638115465166
 30
0.0
 10
19.67303418453243
 20
29.42835176048166
 30
0.0
 10
19.68233248024243
 20
29.43009601453166
 30
0.0
 10
19.69065687163243
 20
29.43162126226166
 30
0.0
 10
19.69802534458243
 20
29.43293592884166
 30
0.0
 10
19.70446800890243
 20
29.43404960046166
 30
0.0
 10
19.70997318814244
 20
29.43496879292166
 30
0.0
 10
19.71464703880243
 20
29.43570936453166
 30
0.0
 10
19.71825851073243
 20
29.43626315304166
 30
0.0
 10
19.72116812681243
 20
29.43665118793166
 30
0.0
 10
19.72214723033243
 20
29.43679774227166
 30
0.0
 10
19.72255995221244
 20
29.43684828850166
 30
0.0
  0
LINE
  5
156
330
1F
100
AcDbEntity
  8
IGES_LEVEL_0
 62
     7
100
AcDbLine
 10
19.72255995221244
 20
29.43684828850166
 30
0.0
 11
19.72363327090243
 21
29.43696567490166
 31
0.0
  0
LINE
  5
157
330
1F
100
AcDbEntity
  8
IGES_LEVEL_0
 62
     7
100
AcDbLine
 10
1.827154698985432
 20
29.43713548145166
 30
0.0
 11
1.817058290402432
 21
29.43801656499166
 31
0.0
  0
ARC
  5
158
330
1F
100
AcDbEntity
  8
IGES_LEVEL_0
 62
     7
100
AcDbCircle
 10
1.826022008116218
 20
29.48645109813903
 30
0.0
 40
0.0492570019028357
100
AcDbArc
 50
236.6024951835012
 51
259.5149740782851
  0
ARC
  5
159
330
1F
100
AcDbEntity
  8
IGES_LEVEL_0
 62
     7
100
AcDbCircle
 10
1.82650654614442
 20
29.4871374794641
 30
0.0
 40
0.0500967606970559
100
AcDbArc
 50
180.3566898924713
 51
236.5719441398209
  0
LINE
  5
15A
330
1F
100
AcDbEntity
  8
IGES_LEVEL_0
 62
     7
100
AcDbLine
 10
1.822175899308432
 20
29.43752240560166
 30
0.0
 11
1.824136199106432
 21
29.43594805149166
 31
0.0
  0
LINE
  5
15B
330
1F
100
AcDbEntity
  8
IGES_LEVEL_0
 62
     7
100
AcDbLine
 10
1.824136199106432
 20
29.43594805149166
 30
0.0
 11
1.828641429877432
 21
29.43232982107166
 31
0.0
  0
LINE
  5
15C
330
1F
100
AcDbEntity
  8
IGES_LEVEL_0
 62
     7
100
AcDbLine
 10
1.828641429877432
 20
29.43232982107166
 30
0.0
 11
1.830701479201432
 21
29.43067536198166
 31
0.0
  0
LINE
  5
15D
330
1F
100
AcDbEntity
  8
IGES_LEVEL_0
 62
     7
100
AcDbLine
 10
1.830701479201432
 20
29.43067536198166
 30
0.0
 11
1.848588200250432
 21
29.41631032251166
 31
0.0
  0
LINE
  5
15E
330
1F
100
AcDbEntity
  8
IGES_LEVEL_0
 62
     7
100
AcDbLine
 10
1.848588200250432
 20
29.41631032251166
 30
0.0
 11
1.849249072455432
 21
29.41577957079166
 31
0.0
  0
LINE
  5
15F
330
1F
100
AcDbEntity
  8
IGES_LEVEL_0
 62
     7
100
AcDbLine
 10
1.849249072455432
 20
29.41577957079166
 30
0.0
 11
2.361861519211431
 21
29.00415783501166
 31
0.0
  0
ARC
  5
160
330
1F
100
AcDbEntity
  8
IGES_LEVEL_0
 62
     7
100
AcDbCircle
 10
19.72335903865059
 20
29.48676918918187
 30
0.0
 40
0.0499217692710706
100
AcDbArc
 50
269.3989018695768
 51
359.7385290954805
  0
LINE
  5
161
330
1F
100
AcDbEntity
  8
IGES_LEVEL_0
 62
     7
100
AcDbLine
 10
19.18409093416243
 20
29.00247550991166
 30
0.0
 11
19.70029859615243
 21
29.41553620589166
 31
0.0
  0
LINE
  5
162
330
1F
100
AcDbEntity
  8
IGES_LEVEL_0
 62
     7
100
AcDbLine
 10
19.70029859615243
 20
29.41553620589166
 30
0.0
 11
19.70095336958243
 21
29.41606022302166
 31
0.0
  0
LINE
  5
163
330
1F
100
AcDbEntity
  8
IGES_LEVEL_0
 62
     7
100
AcDbLine
 10
19.70095336958243
 20
29.41606022302166
 30
0.0
 11
19.71892969664243
 21
29.43044680317166
 31
0.0
  0
LINE
  5
164
330
1F
100
AcDbEntity
  8
IGES_LEVEL_0
 62
     7
100
AcDbLine
 10
19.71892969664243
 20
29.43044680317166
 30
0.0
 11
19.72101826222243
 21
29.43211830577166
 31
0.0
  0
LINE
  5
165
330
1F
100
AcDbEntity
  8
IGES_LEVEL_0
 62
     7
100
AcDbLine
 10
19.72101826222243
 20
29.43211830577166
 30
0.0
 11
19.72497793462243
 21
29.43528728138166
 31
0.0
  0
LINE
  5
166
330
1F
100
AcDbEntity
  8
IGES_LEVEL_0
 62
     7
100
AcDbLine
 10
19.72497793462243
 20
29.43528728138166
 30
0.0
 11
19.72740516930243
 21
29.43722983112166
 31
0.0
  0
ARC
  5
167
330
1F
100
AcDbEntity
  8
IGES_LEVEL_0
 62
     7
100
AcDbCircle
 10
19.72314891110819
 20
29.63419176828745
 30
0.0
 40
0.0501314177164865
100
AcDbArc
 50
0.0274950877023457
 51
77.99523606333031
  0
ARC
  5
168
330
1F
100
AcDbEntity
  8
IGES_LEVEL_0
 62
     7
100
AcDbCircle
 10
1.826560158290217
 20
29.63445967844188
 30
0.0
 40
0.0501464304089046
100
AcDbArc
 50
102.0043579960882
 51
178.6791903609658
  0
ARC
  5
169
330
1F
100
AcDbEntity
  8
IGES_LEVEL_0
 62
     7
100
AcDbCircle
 10
2.452635927999302
 20
26.74319202346946
 30
0.0
 40
3.008423428897661
100
AcDbArc
 50
78.86566963408249
 51
102.2148043844892
  0
LINE
  5
16A
330
1F
100
AcDbEntity
  8
IGES_LEVEL_0
 62
     7
100
AcDbLine
 10
3.095218971552431
 20
29.68198110762166
 30
0.0
 11
3.033587246369431
 21
29.69499013537166
 31
0.0
  0
ARC
  5
16B
330
1F
100
AcDbEntity
  8
IGES_LEVEL_0
 62
     7
100
AcDbCircle
 10
10.77345248573065
 20
64.28137025291409
 30
0.0
 40
35.44112015502184
100
AcDbArc
 50
257.4877856904039
 51
270.002207277663
  0
ARC
  5
16C
330
1F
100
AcDbEntity
  8
IGES_LEVEL_0
 62
     7
100
AcDbCircle
 10
10.77732074624868
 20
64.28088698277485
 30
0.0
 40
35.44063694797469
100
AcDbArc
 50
269.995953611551
 51
282.5104587021439
  0
LINE
  5
16D
330
1F
100
AcDbEntity
  8
IGES_LEVEL_0
 62
     7
100
AcDbLine
 10
18.51602491224243
 20
29.69474211027166
 30
0.0
 11
18.45438895227243
 21
29.68173420972166
 31
0.0
  0
ARC
  5
16E
330
1F
100
AcDbEntity
  8
IGES_LEVEL_0
 62
     7
100
AcDbCircle
 10
19.09693455344817
 20
26.74257590667426
 30
0.0
 40
3.008776666601533
100
AcDbArc
 50
77.78417910102301
 51
101.132190758205
  0
LINE
  5
16F
330
1F
100
AcDbEntity
  8
IGES_LEVEL_0
 62
     7
100
AcDbLine
 10
19.74039723289243
 20
41.70567360644166
 30
0.0
 11
19.74543001650243
 21
41.76086134227166
 31
0.0
  0
LINE
  5
170
330
1F
100
AcDbEntity
  8
IGES_LEVEL_0
 62
     7
100
AcDbLine
 10
19.74543001650243
 20
41.76086134227166
 30
0.0
 11
19.74591723878243
 21
41.76922375882166
 31
0.0
  0
LINE
  5
171
330
1F
100
AcDbEntity
  8
IGES_LEVEL_0
 62
     7
100
AcDbLine
 10
19.74591723878243
 20
41.76922375882166
 30
0.0
 11
19.74667277284243
 21
41.78590549440166
 31
0.0
  0
LINE
  5
172
330
1F
100
AcDbEntity
  8
IGES_LEVEL_0
 62
     7
100
AcDbLine
 10
19.74667277284243
 20
41.78590549440166
 30
0.0
 11
19.74729385120243
 21
41.81422766267166
 31
0.0
  0
LINE
  5
173
330
1F
100
AcDbEntity
  8
IGES_LEVEL_0
 62
     7
100
AcDbLine
 10
19.74729385120243
 20
41.81422766267166
 30
0.0
 11
19.74731855100243
 21
41.82093683095166
 31
0.0
  0
LINE
  5
174
330
1F
100
AcDbEntity
  8
IGES_LEVEL_0
 62
     7
100
AcDbLine
 10
1.798570004300432
 20
41.85366395508166
 30
0.0
 11
1.798564078674432
 21
41.85349053118166
 31
0.0
  0
LINE
  5
175
330
1F
100
AcDbEntity
  8
IGES_LEVEL_0
 62
     7
100
AcDbLine
 10
19.74036984873244
 20
41.69857235872166
 30
0.0
 11
19.74118391469244
 21
41.70559256257166
 31
0.0
  0
LINE
  5
176
330
1F
100
AcDbEntity
  8
IGES_LEVEL_0
 62
     7
100
AcDbLine
 10
19.74118391469244
 20
41.70559256257166
 30
0.0
 11
19.74390539854243
 21
41.73334397387166
 31
0.0
  0
LINE
  5
177
330
1F
100
AcDbEntity
  8
IGES_LEVEL_0
 62
     7
100
AcDbLine
 10
19.74390539854243
 20
41.73334397387166
 30
0.0
 11
19.74582130889243
 21
41.76084122655166
 31
0.0
  0
LINE
  5
178
330
1F
100
AcDbEntity
  8
IGES_LEVEL_0
 62
     7
100
AcDbLine
 10
19.74582130889243
 20
41.76084122655166
 30
0.0
 11
19.74688992037243
 21
41.78590107220166
 31
0.0
  0
LINE
  5
179
330
1F
100
AcDbEntity
  8
IGES_LEVEL_0
 62
     7
100
AcDbLine
 10
19.74688992037243
 20
41.78590107220166
 30
0.0
 11
19.74726687181244
 21
41.80480005383166
 31
0.0
  0
LINE
  5
17A
330
1F
100
AcDbEntity
  8
IGES_LEVEL_0
 62
     7
100
AcDbLine
 10
1.798100201055432
 20
41.80151773640166
 30
0.0
 11
1.798557996761432
 21
41.78208874546166
 31
0.0
  0
LINE
  5
17B
330
1F
100
AcDbEntity
  8
IGES_LEVEL_0
 62
     7
100
AcDbLine
 10
1.798557996761432
 20
41.78208874546166
 30
0.0
 11
1.799592032581432
 21
41.75929565586166
 31
0.0
  0
LINE
  5
17C
330
1F
100
AcDbEntity
  8
IGES_LEVEL_0
 62
     7
100
AcDbLine
 10
1.799592032581432
 20
41.75929565586166
 30
0.0
 11
1.801701880467432
 21
41.73005432302166
 31
0.0
  0
LINE
  5
17D
330
1F
100
AcDbEntity
  8
IGES_LEVEL_0
 62
     7
100
AcDbLine
 10
1.801701880467432
 20
41.73005432302166
 30
0.0
 11
1.804143072172432
 21
41.70559088165167
 31
0.0
  0
LINE
  5
17E
330
1F
100
AcDbEntity
  8
IGES_LEVEL_0
 62
     7
100
AcDbLine
 10
1.804143072172432
 20
41.70559088165167
 30
0.0
 11
1.804957442076432
 21
41.69857163550166
 31
0.0
  0
LINE
  5
17F
330
1F
100
AcDbEntity
  8
IGES_LEVEL_0
 62
     7
100
AcDbLine
 10
1.804952770526432
 20
41.69857099482166
 30
0.0
 11
2.418020221688431
 21
36.58428158070166
 31
0.0
  0
LINE
  5
180
330
1F
100
AcDbEntity
  8
IGES_LEVEL_0
 62
     7
100
AcDbLine
 10
2.418020221688431
 20
36.58428158070166
 30
0.0
 11
2.418935196589432
 21
36.57665235263166
 31
0.0
  0
LINE
  5
181
330
1F
100
AcDbEntity
  8
IGES_LEVEL_0
 62
     7
100
AcDbLine
 10
2.418944510174431
 20
36.57665182781167
 30
0.0
 11
2.423173194270432
 21
36.54560589278166
 31
0.0
  0
SPLINE
  5
182
330
1F
100
AcDbEntity
  8
IGES_LEVEL_0
 62
     7
100
AcDbSpline
210
0.0
220
0.0
230
1.0
 70
     8
 71
     3
 72
    14
 73
    10
 74
     0
 42
0.0000000001
 43
0.0000000001
 40
0.0
 40
0.0
 40
0.0
 40
0.0
 40
0.09897725585731
 40
0.252337742321
 40
0.4100618775419
 40
0.5703483956193
 40
0.7316787346107
 40
0.8929018278773
 40
1.0
 40
1.0
 40
1.0
 40
1.0
 10
2.423173194270432
 20
36.54560589278166
 30
0.0
 10
2.430134092914432
 20
36.49989691122166
 30
0.0
 10
2.456001653156432
 20
36.38445121497166
 30
0.0
 10
2.529685447982431
 20
36.20658363135166
 30
0.0
 10
2.653788120660432
 20
36.02326838743166
 30
0.0
 10
2.814737348725432
 20
35.86591870693166
 30
0.0
 10
3.005497171176431
 20
35.74325474989166
 30
0.0
 10
3.193974332418431
 20
35.67118119197166
 30
0.0
 10
3.317650272420432
 20
35.64775998813166
 30
0.0
 10
3.367362752548431
 20
35.64204052870166
 30
0.0
  0
LINE
  5
183
330
1F
100
AcDbEntity
  8
IGES_LEVEL_0
 62
     7
100
AcDbLine
 10
3.367362752548431
 20
35.64204052870166
 30
0.0
 11
3.404162589213432
 21
35.63847666556166
 31
0.0
  0
LINE
  5
184
330
1F
100
AcDbEntity
  8
IGES_LEVEL_0
 62
     7
100
AcDbLine
 10
4.506451948043933
 20
35.55918645957166
 30
0.0
 11
4.259833425647531
 21
35.57569532958166
 31
0.0
  0
LINE
  5
185
330
1F
100
AcDbEntity
  8
IGES_LEVEL_0
 62
     7
100
AcDbLine
 10
4.259833425647531
 20
35.57569532958166
 30
0.0
 11
4.219731661844432
 21
35.57844592821166
 31
0.0
  0
ARC
  5
186
330
1F
100
AcDbEntity
  8
IGES_LEVEL_0
 62
     7
100
AcDbCircle
 10
10.08741150234444
 20
120.8737413078767
 30
0.0
 40
85.49688345556768
100
AcDbArc
 50
265.5213427219257
 51
266.0646779580076
  0
LINE
  5
187
330
1F
100
AcDbEntity
  8
IGES_LEVEL_0
 62
     7
100
AcDbLine
 10
3.411153282666432
 20
35.63792338607166
 30
0.0
 11
3.404165134549432
 21
35.63847125672167
 31
0.0
  0
LINE
  5
188
330
1F
100
AcDbEntity
  8
IGES_LEVEL_0
 62
     7
100
AcDbLine
 10
4.506302948707231
 20
35.55920242331166
 30
0.0
 11
4.512822214346332
 21
35.55877734974166
 31
0.0
  0
SPLINE
  5
189
330
1F
100
AcDbEntity
  8
IGES_LEVEL_0
 62
     7
100
AcDbSpline
210
0.0
220
0.0
230
1.0
 70
     8
 71
     3
 72
    14
 73
    10
 74
     0
 42
0.0000000001
 43
0.0000000001
 40
0.0
 40
0.0
 40
0.0
 40
0.0
 40
0.1438366747101
 40
0.2958584494
 40
0.4347722569977
 40
0.5654757140543
 40
0.7047315538884
 40
0.8570662179717
 40
1.0
 40
1.0
 40
1.0
 40
1.0
 10
4.512822214346332
 20
35.55877734974166
 30
0.0
 10
5.112324880292731
 20
35.51968768664166
 30
0.0
 10
6.345482230987432
 20
35.43902503283166
 30
0.0
 10
8.160136858723433
 20
35.36537784669167
 30
0.0
 10
9.920990380797433
 20
35.33054998687167
 30
0.0
 10
11.62887615670743
 20
35.33058060734167
 30
0.0
 10
13.39246317232143
 20
35.36557152886166
 30
0.0
 10
15.20607563810943
 20
35.43937508274166
 30
0.0
 10
16.43676787478243
 20
35.51994934288167
 30
0.0
 10
17.03250840579243
 20
35.55877835383166
 30
0.0
  0
LINE
  5
18A
330
1F
100
AcDbEntity
  8
IGES_LEVEL_0
 62
     7
100
AcDbLine
 10
17.03250840579243
 20
35.55877835383166
 30
0.0
 11
17.03903872843243
 21
35.55920397804166
 31
0.0
  0
LINE
  5
18B
330
1F
100
AcDbEntity
  8
IGES_LEVEL_0
 62
     7
100
AcDbLine
 10
18.14116787192243
 20
35.63847125718166
 30
0.0
 11
18.13417971786243
 21
35.63792338606167
 31
0.0
  0
ARC
  5
18C
330
1F
100
AcDbEntity
  8
IGES_LEVEL_0
 62
     7
100
AcDbCircle
 10
11.45792177223087
 20
120.8737376830925
 30
0.0
 40
85.49687982046206
100
AcDbArc
 50
273.9353234014216
 51
274.4786572846691
  0
LINE
  5
18D
330
1F
100
AcDbEntity
  8
IGES_LEVEL_0
 62
     7
100
AcDbLine
 10
17.32560338701244
 20
35.57844606918166
 30
0.0
 11
17.28549752916243
 21
35.57569518973166
 31
0.0
  0
LINE
  5
18E
330
1F
100
AcDbEntity
  8
IGES_LEVEL_0
 62
     7
100
AcDbLine
 10
17.28549752916243
 20
35.57569518973166
 30
0.0
 11
17.03887858455244
 21
35.55918629785166
 31
0.0
  0
LINE
  5
18F
330
1F
100
AcDbEntity
  8
IGES_LEVEL_0
 62
     7
100
AcDbLine
 10
18.14117072877243
 20
35.63847896397166
 30
0.0
 11
18.18123663224243
 21
35.64242408560166
 31
0.0
  0
SPLINE
  5
190
330
1F
100
AcDbEntity
  8
IGES_LEVEL_0
 62
     7
100
AcDbSpline
210
0.0
220
0.0
230
1.0
 70
     8
 71
     3
 72
    14
 73
    10
 74
     0
 42
0.0000000001
 43
0.0000000001
 40
0.0
 40
0.0
 40
0.0
 40
0.0
 40
0.1072752276073
 40
0.2687240843471
 40
0.4301933613878
 40
0.590511605541
 40
0.7481386355088
 40
0.9012554352034
 40
1.0
 40
1.0
 40
1.0
 40
1.0
 10
18.18123663224243
 20
35.64242408560166
 30
0.0
 10
18.23101957862243
 20
35.64831239734166
 30
0.0
 10
18.35482216216244
 20
35.67217073370166
 30
0.0
 10
18.54331090676243
 20
35.74500609508166
 30
0.0
 10
18.73381003460244
 20
35.86847485584166
 30
0.0
 10
18.89421241233243
 20
36.02647441179166
 30
0.0
 10
19.01756039033243
 20
36.21015953591166
 30
0.0
 10
19.09047350453243
 20
36.38807683370166
 30
0.0
 10
19.11589568229243
 20
36.50340793712166
 30
0.0
 10
19.12268211531243
 20
36.54903891357166
 30
0.0
  0
LINE
  5
191
330
1F
100
AcDbEntity
  8
IGES_LEVEL_0
 62
     7
100
AcDbLine
 10
19.12268211531243
 20
36.54903891357166
 30
0.0
 11
19.12639340881243
 21
36.57665182170167
 31
0.0
  0
LINE
  5
192
330
1F
100
AcDbEntity
  8
IGES_LEVEL_0
 62
     7
100
AcDbLine
 10
19.12639780441243
 20
36.57665235642166
 30
0.0
 11
19.12731277886243
 21
36.58428158073166
 31
0.0
  0
LINE
  5
193
330
1F
100
AcDbEntity
  8
IGES_LEVEL_0
 62
     7
100
AcDbLine
 10
19.12731277886243
 20
36.58428158073166
 30
0.0
 11
19.74038023008243
 21
41.69857099537166
 31
0.0
  0
LINE
  5
194
330
1F
100
AcDbEntity
  8
IGES_LEVEL_0
 62
     7
100
AcDbLine
 10
1.798564078674432
 20
41.85349053118166
 30
0.0
 11
1.798013553790432
 21
41.82097902202166
 31
0.0
  0
SPLINE
  5
195
330
1F
100
AcDbEntity
  8
IGES_LEVEL_0
 62
     7
100
AcDbSpline
210
0.0
220
0.0
230
1.0
 70
     8
 71
     3
 72
    15
 73
    11
 74
     0
 42
0.0000000001
 43
0.0000000001
 40
0.0
 40
0.0
 40
0.0
 40
0.0
 40
0.1216800870614
 40
0.2627638941798
 40
0.3995019335028
 40
0.5332015828309
 40
0.6651802664144
 40
0.7964606298233
 40
0.9276493310041
 40
1.0
 40
1.0
 40
1.0
 40
1.0
 10
2.806474329632432
 20
42.71769501758166
 30
0.0
 10
2.746281006151432
 20
42.72280609010166
 30
0.0
 10
2.615053163013432
 20
42.72256703374166
 30
0.0
 10
2.419352599996432
 20
42.68322067157166
 30
0.0
 10
2.231243240240432
 20
42.59978344975166
 30
0.0
 10
2.069999616712432
 20
42.47932106843167
 30
0.0
 10
1.941721971998432
 20
42.32775479367167
 30
0.0
 10
1.851293895417432
 20
42.15242060866166
 30
0.0
 10
1.808994010377432
 20
41.99055035488166
 30
0.0
 10
1.799811899707432
 20
41.88959527073166
 30
0.0
 10
1.798582348871432
 20
41.85366353215166
 30
0.0
  0
LINE
  5
196
330
1F
100
AcDbEntity
  8
IGES_LEVEL_0
 62
     7
100
AcDbLine
 10
19.74731855100243
 20
41.82093683095166
 30
0.0
 11
19.74724808624243
 21
41.83270762298167
 31
0.0
  0
LINE
  5
197
330
1F
100
AcDbEntity
  8
IGES_LEVEL_0
 62
     7
100
AcDbLine
 10
19.74724808624243
 20
41.83270762298167
 30
0.0
 11
19.74691956190243
 21
41.84868459961167
 31
0.0
  0
LINE
  5
198
330
1F
100
AcDbEntity
  8
IGES_LEVEL_0
 62
     7
100
AcDbLine
 10
1.798013553790432
 20
41.82097902202166
 30
0.0
 11
1.798038297456432
 21
41.81422695839166
 31
0.0
  0
LINE
  5
199
330
1F
100
AcDbEntity
  8
IGES_LEVEL_0
 62
     7
100
AcDbLine
 10
1.798038297456432
 20
41.81422695839166
 30
0.0
 11
1.798806781126432
 21
41.78209517240166
 31
0.0
  0
LINE
  5
19A
330
1F
100
AcDbEntity
  8
IGES_LEVEL_0
 62
     7
100
AcDbLine
 10
1.798806781126432
 20
41.78209517240166
 30
0.0
 11
1.799485721871432
 21
41.76793404437166
 31
0.0
  0
LINE
  5
19B
330
1F
100
AcDbEntity
  8
IGES_LEVEL_0
 62
     7
100
AcDbLine
 10
1.799485721871432
 20
41.76793404437166
 30
0.0
 11
1.800000488650432
 21
41.75931734740166
 31
0.0
  0
LINE
  5
19C
330
1F
100
AcDbEntity
  8
IGES_LEVEL_0
 62
     7
100
AcDbLine
 10
1.800000488650432
 20
41.75931734740166
 30
0.0
 11
1.804935767652432
 21
41.70567360644166
 31
0.0
  0
SPLINE
  5
19D
330
1F
100
AcDbEntity
  8
IGES_LEVEL_0
 62
     7
100
AcDbSpline
210
0.0
220
0.0
230
1.0
 70
     8
 71
     3
 72
    15
 73
    11
 74
     0
 42
0.0000000001
 43
0.0000000001
 40
0.0
 40
0.0
 40
0.0
 40
0.0
 40
0.07502996271625
 40
0.2055804330499
 40
0.3362174612895
 40
0.4675426220152
 40
0.6005699117448
 40
0.7366058528329
 40
0.876951444216
 40
1.0
 40
1.0
 40
1.0
 40
1.0
 10
19.74690526538243
 20
41.84883091472167
 30
0.0
 10
19.74581568168243
 20
41.88621807285166
 30
0.0
 10
19.73680067480243
 20
41.98855821618167
 30
0.0
 10
19.69430284262243
 20
42.15165788656166
 30
0.0
 10
19.60422165440243
 20
42.32679377638166
 30
0.0
 10
19.47639547053243
 20
42.47828568410166
 30
0.0
 10
19.31567110283243
 20
42.59882688216166
 30
0.0
 10
19.12810701882243
 20
42.68251724139166
 30
0.0
 10
18.93190843986243
 20
42.72247180086166
 30
0.0
 10
18.79992167500243
 20
42.72288224372166
 30
0.0
 10
18.73885821684243
 20
42.71769660411166
 30
0.0
  0
SPLINE
  5
19E
330
1F
100
AcDbEntity
  8
IGES_LEVEL_0
 62
     7
100
AcDbSpline
210
0.0
220
0.0
230
1.0
 70
     8
 71
     3
 72
    16
 73
    12
 74
     0
 42
0.0000000001
 43
0.0000000001
 40
0.0
 40
0.0
 40
0.0
 40
0.0
 40
0.03169861711778
 40
0.158402097651
 40
0.286785002138
 40
0.4144669087974
 40
0.5377073045398
 40
0.656751388279
 40
0.7729989727978001
 40
0.8872260031182
 40
1.0
 40
1.0
 40
1.0
 40
1.0
 10
19.74691530096244
 20
41.84883120717166
 30
0.0
 10
19.74645794032243
 20
41.86452591418166
 30
0.0
 10
19.74222244739243
 20
41.94289962814166
 30
0.0
 10
19.71663769851243
 20
42.08329694039166
 30
0.0
 10
19.64373880700244
 20
42.25950846796166
 30
0.0
 10
19.53526572619244
 20
42.41426626820167
 30
0.0
 10
19.39975862749243
 20
42.53904270568166
 30
0.0
 10
19.24684437876243
 20
42.63083171379166
 30
0.0
 10
19.08364257473243
 20
42.69041286078166
 30
0.0
 10
18.91568600464243
 20
42.71953421323166
 30
0.0
 10
18.80290499290243
 20
42.71994213178166
 30
0.0
 10
18.74732877594244
 20
42.71568894742166
 30
0.0
  0
LINE
  5
19F
330
1F
100
AcDbEntity
  8
IGES_LEVEL_0
 62
     7
100
AcDbLine
 10
3.527845093056432
 20
42.65950409453166
 30
0.0
 11
2.806479723708431
 21
42.71769952894166
 31
0.0
  0
LINE
  5
1A0
330
1F
100
AcDbEntity
  8
IGES_LEVEL_0
 62
     7
100
AcDbLine
 10
18.73885328668244
 20
42.71769952978166
 30
0.0
 11
18.01749557837243
 21
42.65950468017166
 31
0.0
  0
SPLINE
  5
1A1
330
1F
100
AcDbEntity
  8
IGES_LEVEL_0
 62
     7
100
AcDbSpline
210
0.0
220
0.0
230
1.0
 70
     8
 71
     3
 72
    20
 73
    16
 74
     0
 42
0.0000000001
 43
0.0000000001
 40
0.0
 40
0.0
 40
0.0
 40
0.0
 40
0.05513917373704
 40
0.1200277218822
 40
0.1916900433131
 40
0.2698784535197
 40
0.3556808891814
 40
0.4502258186604
 40
0.5492295036796
 40
0.6438225095172
 40
0.729690170021
 40
0.807943817135
 40
0.8796639871119
 40
0.9446022192271
 40
1.0
 40
1.0
 40
1.0
 40
1.0
 10
18.01672594349243
 20
42.65943656934166
 30
0.0
 10
17.75092011951243
 20
42.63898994266166
 30
0.0
 10
17.17234410059243
 20
42.59404136541166
 30
0.0
 10
16.24782276503243
 20
42.52887336198166
 30
0.0
 10
15.21127318978443
 20
42.46915365210166
 30
0.0
 10
14.07302216263643
 20
42.41829256984166
 30
0.0
 10
12.82357911239443
 20
42.37992836182166
 30
0.0
 10
11.47306639449043
 20
42.35857306832166
 30
0.0
 10
10.07987649916243
 20
42.35851192128166
 30
0.0
 10
8.728814168000433
 20
42.37976135661166
 30
0.0
 10
7.478505323334432
 20
42.41805651410166
 30
0.0
 10
6.339341090471431
 20
42.46887911868166
 30
0.0
 10
5.301954385456301
 20
42.52859077748166
 30
0.0
 10
4.375662650510031
 20
42.59382154313166
 30
0.0
 10
3.795602664695431
 20
42.63891346092166
 30
0.0
 10
3.528549189410432
 20
42.65944296895166
 30
0.0
  0
SPLINE
  5
1A2
330
1F
100
AcDbEntity
  8
IGES_LEVEL_0
 62
     7
100
AcDbSpline
210
0.0
220
0.0
230
1.0
 70
     8
 71
     3
 72
    17
 73
    13
 74
     0
 42
0.0000000001
 43
0.0000000001
 40
0.0
 40
0.0
 40
0.0
 40
0.0
 40
0.03801835260649
 40
0.09881252238155
 40
0.1521150620352
 40
0.2061930414483
 40
0.2711276315448
 40
0.3552471907953
 40
0.4657697382772
 40
0.6093749343573
 40
0.7916786247666
 40
1.0
 40
1.0
 40
1.0
 40
1.0
 10
18.96300512938243
 20
29.27561486791166
 30
0.0
 10
18.98551641778244
 20
29.26555397956166
 30
0.0
 10
19.04120333471244
 20
29.23306925547166
 30
0.0
 10
19.11024460056243
 20
29.16112481812166
 30
0.0
 10
19.16236944936243
 20
29.06526673199166
 30
0.0
 10
19.19960070067243
 20
28.96040000339166
 30
0.0
 10
19.23233878759243
 20
28.83353556824166
 30
0.0
 10
19.26474983571243
 20
28.66933999351166
 30
0.0
 10
19.29798882748244
 20
28.45383539317166
 30
0.0
 10
19.33158624036243
 20
28.17451918881166
 30
0.0
 10
19.36284687453243
 20
27.83158082585166
 30
0.0
 10
19.37911574243243
 20
27.58031055889166
 30
0.0
 10
19.38612462128243
 20
27.44622784177166
 30
0.0
  0
SPLINE
  5
1A3
330
1F
100
AcDbEntity
  8
IGES_LEVEL_0
 62
     7
100
AcDbSpline
210
0.0
220
0.0
230
1.0
 70
     8
 71
     3
 72
    17
 73
    13
 74
     0
 42
0.0000000001
 43
0.0000000001
 40
0.0
 40
0.0
 40
0.0
 40
0.0
 40
0.03902289809555
 40
0.09975358380189
 40
0.1530004624916
 40
0.2070219711909
 40
0.2718887536014
 40
0.3559204713384
 40
0.4663276060921
 40
0.6097828430203
 40
0.7918961635297001
 40
1.0
 40
1.0
 40
1.0
 40
1.0
 10
2.584187207038432
 20
29.27643922298166
 30
0.0
 10
2.560996019432432
 20
29.26623969654166
 30
0.0
 10
2.504604118719432
 20
29.23356365901166
 30
0.0
 10
2.435088399982432
 20
29.16112481812166
 30
0.0
 10
2.382963551180432
 20
29.06526673199166
 30
0.0
 10
2.345732299871432
 20
28.96040000339166
 30
0.0
 10
2.312994212954432
 20
28.83353556824166
 30
0.0
 10
2.280583164830432
 20
28.66933999351166
 30
0.0
 10
2.247344173065431
 20
28.45383539317166
 30
0.0
 10
2.213746760180432
 20
28.17451918881166
 30
0.0
 10
2.182486126017432
 20
27.83158082585166
 30
0.0
 10
2.166217258113432
 20
27.58031055889166
 30
0.0
 10
2.159208379263431
 20
27.44622784177166
 30
0.0
  0
ARC
  5
1A4
330
1F
100
AcDbEntity
  8
IGES_LEVEL_0
 62
     7
100
AcDbCircle
 10
18.22029864648987
 20
26.31759670299863
 30
0.0
 40
1.382783096468369
100
AcDbArc
 50
67.39976769881777
 51
96.46627721443997
  0
ARC
  5
1A5
330
1F
100
AcDbEntity
  8
IGES_LEVEL_0
 62
     7
100
AcDbCircle
 10
18.29443819873869
 20
26.39798173351654
 30
0.0
 40
1.269347734304391
100
AcDbArc
 50
2.568791084176552
 51
28.48003212098594
  0
ARC
  5
1A6
330
1F
100
AcDbEntity
  8
IGES_LEVEL_0
 62
     7
100
AcDbCircle
 10
18.2208313405721
 20
26.31813022717066
 30
0.0
 40
2.007179644313984
100
AcDbArc
 50
76.46054507278053
 51
89.40031768415102
  0
ARC
  5
1A7
330
1F
100
AcDbEntity
  8
IGES_LEVEL_0
 62
     7
100
AcDbCircle
 10
18.27305707432836
 20
26.39190877337962
 30
0.0
 40
1.915985098927917
100
AcDbArc
 50
2.708490681829215
 51
55.80415116758663
  0
ARC
  5
1A8
330
1F
100
AcDbEntity
  8
IGES_LEVEL_0
 62
     7
100
AcDbCircle
 10
10.77266650027394
 20
92.2387982356596
 30
0.0
 40
64.9577930846272
100
AcDbArc
 50
263.5546165848396
 51
276.4453834151604
  0
ARC
  5
1A9
330
1F
100
AcDbEntity
  8
IGES_LEVEL_0
 62
     7
100
AcDbCircle
 10
10.77118141390136
 20
92.22457498855067
 30
0.0
 40
64.31849911653174
100
AcDbArc
 50
264.2153184395164
 51
265.6921068758874
  0
ARC
  5
1AA
330
1F
100
AcDbEntity
  8
IGES_LEVEL_0
 62
     7
100
AcDbCircle
 10
10.77415157991002
 20
92.22457507216696
 30
0.0
 40
64.31849920040081
100
AcDbArc
 50
274.3078931820544
 51
275.784681558943
  0
ARC
  5
1AB
330
1F
100
AcDbEntity
  8
IGES_LEVEL_0
 62
     7
100
AcDbCircle
 10
3.2508959671783
 20
26.39798141661824
 30
0.0
 40
1.269348912705515
100
AcDbArc
 50
151.51999522547
 51
177.4311969836408
  0
ARC
  5
1AC
330
1F
100
AcDbEntity
  8
IGES_LEVEL_0
 62
     7
100
AcDbCircle
 10
3.325034354369253
 20
26.31759641074984
 30
0.0
 40
1.38278338682279
100
AcDbArc
 50
83.53372416215294
 51
112.6002812847012
  0
ARC
  5
1AD
330
1F
100
AcDbEntity
  8
IGES_LEVEL_0
 62
     7
100
AcDbCircle
 10
3.272275787321259
 20
26.39190881486737
 30
0.0
 40
1.915984958229342
100
AcDbArc
 50
124.1959542734546
 51
177.2915103611679
  0
ARC
  5
1AE
330
1F
100
AcDbEntity
  8
IGES_LEVEL_0
 62
     7
100
AcDbCircle
 10
3.324502112481927
 20
26.31812947215425
 30
0.0
 40
2.007180469860105
100
AcDbArc
 50
90.59982170826635
 51
103.5394463674209
  0
SPLINE
  5
1AF
330
1F
100
AcDbEntity
  8
IGES_LEVEL_0
 62
     7
100
AcDbSpline
210
0.0
220
0.0
230
1.0
 70
     8
 71
     3
 72
    10
 73
     6
 74
     0
 42
0.0000000001
 43
0.0000000001
 40
0.0
 40
0.0
 40
0.0
 40
0.0
 40
0.09029788492584
 40
0.3173833946293
 40
1.0
 40
1.0
 40
1.0
 40
1.0
 10
18.59070675186243
 20
28.80759950219166
 30
0.0
 10
18.58960702881243
 20
28.80941182918166
 30
0.0
 10
18.58713150321243
 20
28.81301548385166
 30
0.0
 10
18.60332292340243
 20
28.77412405030166
 30
0.0
 10
18.60715630462244
 20
28.75558465929166
 30
0.0
 10
18.61071569792243
 20
28.73963173052166
 30
0.0
  0
SPLINE
  5
1B0
330
1F
100
AcDbEntity
  8
IGES_LEVEL_0
 62
     7
100
AcDbSpline
210
0.0
220
0.0
230
1.0
 70
     8
 71
     3
 72
    13
 73
     9
 74
     0
 42
0.0000000001
 43
0.0000000001
 40
0.0
 40
0.0
 40
0.0
 40
0.0
 40
0.06987392622915
 40
0.1715116685274
 40
0.3099660075238
 40
0.4910644722808
 40
0.7202327614039
 40
1.0
 40
1.0
 40
1.0
 40
1.0
 10
18.61071569792243
 20
28.73963173052166
 30
0.0
 10
18.61670820152244
 20
28.71277378731166
 30
0.0
 10
18.63616866411243
 20
28.63264551255166
 30
0.0
 10
18.65862896174243
 20
28.49988593426166
 30
0.0
 10
18.68600150975243
 20
28.31282903400166
 30
0.0
 10
18.71358121472243
 20
28.07054504823166
 30
0.0
 10
18.74095363066243
 20
27.76420016980166
 30
0.0
 10
18.75547246067243
 20
27.53803187845166
 30
0.0
 10
18.76197676456243
 20
27.41360188664166
 30
0.0
  0
LINE
  5
1B1
330
1F
100
AcDbEntity
  8
IGES_LEVEL_0
 62
     7
100
AcDbLine
 10
4.309746699212531
 20
29.56358357883166
 30
0.0
 11
4.324645322978632
 21
29.43443683679166
 31
0.0
  0
ARC
  5
1B2
330
1F
100
AcDbEntity
  8
IGES_LEVEL_0
 62
     7
100
AcDbCircle
 10
3.74179399229068
 20
28.41363776955213
 30
0.0
 40
0.6357700065271448
100
AcDbArc
 50
343.002993994206
 51
353.2080787884663
  0
LINE
  5
1B3
330
1F
100
AcDbEntity
  8
IGES_LEVEL_0
 62
     7
100
AcDbLine
 10
17.23558630133243
 20
29.56358357883166
 30
0.0
 11
17.22057485367243
 21
29.43341867680166
 31
0.0
  0
ARC
  5
1B4
330
1F
100
AcDbEntity
  8
IGES_LEVEL_0
 62
     7
100
AcDbCircle
 10
17.80353900993105
 20
28.41363776991372
 30
0.0
 40
0.6357700082378868
100
AcDbArc
 50
186.7919212259888
 51
196.9970059559908
  0
SPLINE
  5
1B5
330
1F
100
AcDbEntity
  8
IGES_LEVEL_0
 62
     7
100
AcDbSpline
210
0.0
220
0.0
230
1.0
 70
     8
 71
     3
 72
    10
 73
     6
 74
     0
 42
0.0000000001
 43
0.0000000001
 40
0.0
 40
0.0
 40
0.0
 40
0.0
 40
0.09029788492576
 40
0.3173833946292
 40
1.0
 40
1.0
 40
1.0
 40
1.0
 10
2.954626248687432
 20
28.80759950219166
 30
0.0
 10
2.955725971735431
 20
28.80941182918166
 30
0.0
 10
2.958201497334432
 20
28.81301548385166
 30
0.0
 10
2.942010077140432
 20
28.77412405030166
 30
0.0
 10
2.938176695920431
 20
28.75558465929166
 30
0.0
 10
2.934617302621432
 20
28.73963173052166
 30
0.0
  0
SPLINE
  5
1B6
330
1F
100
AcDbEntity
  8
IGES_LEVEL_0
 62
     7
100
AcDbSpline
210
0.0
220
0.0
230
1.0
 70
     8
 71
     3
 72
    13
 73
     9
 74
     0
 42
0.0000000001
 43
0.0000000001
 40
0.0
 40
0.0
 40
0.0
 40
0.0
 40
0.06987392622915
 40
0.1715116685274
 40
0.3099660075238
 40
0.4910644722808
 40
0.7202327614039
 40
1.0
 40
1.0
 40
1.0
 40
1.0
 10
2.934617302621432
 20
28.73963173052166
 30
0.0
 10
2.928624799023432
 20
28.71277378731166
 30
0.0
 10
2.909164336433431
 20
28.63264551255166
 30
0.0
 10
2.886704038807431
 20
28.49988593426166
 30
0.0
 10
2.859331490794431
 20
28.31282903400166
 30
0.0
 10
2.831751785826432
 20
28.07054504823166
 30
0.0
 10
2.804379369883431
 20
27.76420016980166
 30
0.0
 10
2.789860539872432
 20
27.53803187845166
 30
0.0
 10
2.783356235986432
 20
27.41360188664166
 30
0.0
  0
SPLINE
  5
1B7
330
1F
100
AcDbEntity
  8
IGES_LEVEL_0
 62
     7
100
AcDbSpline
210
0.0
220
0.0
230
1.0
 70
     8
 71
     3
 72
    13
 73
     9
 74
     0
 42
0.0000000001
 43
0.0000000001
 40
0.0
 40
0.0
 40
0.0
 40
0.0
 40
0.08875803720655
 40
0.2645162611648
 40
0.4797015939284
 40
0.7055321405222
 40
0.9275499632904
 40
1.0
 40
1.0
 40
1.0
 40
1.0
 10
1.941364227454432
 20
11.31424353099966
 30
0.0
 10
1.935713369252432
 20
11.31424353099966
 30
0.0
 10
1.923419484798432
 20
11.29895909002266
 30
0.0
 10
1.899519041566432
 20
11.28249755339266
 30
0.0
 10
1.870437144759432
 20
11.25509354559566
 30
0.0
 10
1.839139640134432
 20
11.22706995014766
 30
0.0
 10
1.814852748287432
 20
11.20447956382266
 30
0.0
 10
1.801168440507432
 20
11.19165945608866
 30
0.0
 10
1.797805756460432
 20
11.18850187589466
 30
0.0
  0
SPLINE
  5
1B8
330
1F
100
AcDbEntity
  8
IGES_LEVEL_0
 62
     7
100
AcDbSpline
210
0.0
220
0.0
230
1.0
 70
     8
 71
     3
 72
    21
 73
    17
 74
     0
 42
0.0000000001
 43
0.0000000001
 40
0.0
 40
0.0
 40
0.0
 40
0.0
 40
0.06116751060734
 40
0.1480311599991
 40
0.2289335984923
 40
0.3044285125304
 40
0.3754241504778
 40
0.440863400858
 40
0.5013288902548
 40
0.5589129204822
 40
0.6218832050551
 40
0.6877474275948
 40
0.757366823619
 40
0.832400055032
 40
0.9133382193111
 40
1.0
 40
1.0
 40
1.0
 40
1.0
 10
1.797805756460432
 20
11.18850187589466
 30
0.0
 10
1.791241676059432
 20
11.18233816560166
 30
0.0
 10
1.775394381637432
 20
11.16739044439166
 30
0.0
 10
1.751061303674432
 20
11.14407357048166
 30
0.0
 10
1.725487321158432
 20
11.11899943403266
 30
0.0
 10
1.702013600633432
 20
11.09516533290866
 30
0.0
 10
1.680803969141432
 20
11.07216956311766
 30
0.0
 10
1.662772245586432
 20
11.04975562850766
 30
0.0
 10
1.649614315762432
 20
11.02474908982666
 30
0.0
 10
1.655162343215432
 20
10.99705405763966
 30
0.0
 10
1.670305402173432
 20
10.97408047232266
 30
0.0
 10
1.688086398556432
 20
10.95089719827166
 30
0.0
 10
1.708059636349432
 20
10.92719462699066
 30
0.0
 10
1.729868562358432
 20
10.90215185586366
 30
0.0
 10
1.753572580498432
 20
10.87544340648766
 30
0.0
 10
1.770031437129432
 20
10.85704210377166
 30
0.0
 10
1.778528367455432
 20
10.84754315625066
 30
0.0
  0
SPLINE
  5
1B9
330
1F
100
AcDbEntity
  8
IGES_LEVEL_0
 62
     7
100
AcDbSpline
210
0.0
220
0.0
230
1.0
 70
     8
 71
     3
 72
    13
 73
     9
 74
     0
 42
0.0000000001
 43
0.0000000001
 40
0.0
 40
0.0
 40
0.0
 40
0.0
 40
0.2008345706038
 40
0.4081804391167
 40
0.6155518392565
 40
0.8058006463916
 40
0.9491897282549
 40
1.0
 40
1.0
 40
1.0
 40
1.0
 10
1.778528367455432
 20
10.84754315625066
 30
0.0
 10
1.787487428024432
 20
10.83752758087066
 30
0.0
 10
1.805665426082432
 20
10.81720766281466
 30
0.0
 10
1.833428547628432
 20
10.78617140107066
 30
0.0
 10
1.859034067806432
 20
10.75675511982266
 30
0.0
 10
1.886517788470432
 20
10.72628314605866
 30
0.0
 10
1.894351882576432
 20
10.71335826963366
 30
0.0
 10
1.912061395748432
 20
10.69486583030966
 30
0.0
 10
1.909599081149432
 20
10.69429861767466
 30
0.0
  0
SPLINE
  5
1BA
330
1F
100
AcDbEntity
  8
IGES_LEVEL_0
 62
     7
100
AcDbSpline
210
0.0
220
0.0
230
1.0
 70
     8
 71
     3
 72
    21
 73
    17
 74
     0
 42
0.0000000001
 43
0.0000000001
 40
0.0
 40
0.0
 40
0.0
 40
0.0
 40
0.07287909992312
 40
0.1388998270629
 40
0.1983278777742
 40
0.2597506399519
 40
0.3269729334236
 40
0.3988696704863
 40
0.4752786347588
 40
0.5568643073363
 40
0.6431785444108
 40
0.7326907829806
 40
0.8235386477327
 40
0.9119019432465
 40
0.9893667860067
 40
1.0
 40
1.0
 40
1.0
 40
1.0
 10
0.9847862177444318
 20
11.00424360025366
 30
0.0
 10
0.977082041025432
 20
10.99546819200666
 30
0.0
 10
0.9631019885494314
 20
10.97847855120266
 30
0.0
 10
0.9457448035934319
 20
10.95027131490266
 30
0.0
 10
0.9497806946464313
 20
10.91854062525966
 30
0.0
 10
0.9671583701314315
 20
10.89350551116266
 30
0.0
 10
0.9879674613704317
 20
10.86907615603466
 30
0.0
 10
1.012299603046432
 20
10.84450871203466
 30
0.0
 10
1.039336053195431
 20
10.81948917556766
 30
0.0
 10
1.069142959326432
 20
10.79409156814266
 30
0.0
 10
1.101628772178432
 20
10.76866296431166
 30
0.0
 10
1.136575102218431
 20
10.74401369998566
 30
0.0
 10
1.173214873401432
 20
10.72143080738466
 30
0.0
 10
1.210545665211432
 20
10.70341810814066
 30
0.0
 10
1.237091692178432
 20
10.69492768970666
 30
0.0
 10
1.252028344712432
 20
10.69427986606866
 30
0.0
 10
1.253831731712432
 20
10.69427261837666
 30
0.0
  0
ARC
  5
1BB
330
1F
100
AcDbEntity
  8
IGES_LEVEL_0
 62
     7
100
AcDbCircle
 10
16.96093033335579
 20
7.552564255709863
 30
0.0
 40
4.98711629431537
100
AcDbArc
 50
43.79810604110528
 51
48.22399028276822
  0
SPLINE
  5
1BC
330
1F
100
AcDbEntity
  8
IGES_LEVEL_0
 62
     7
100
AcDbSpline
210
0.0
220
0.0
230
1.0
 70
     8
 71
     3
 72
    10
 73
     6
 74
     0
 42
0.0000000001
 43
0.0000000001
 40
0.0
 40
0.0
 40
0.0
 40
0.0
 40
0.2219620411742
 40
0.8207571729799
 40
1.0
 40
1.0
 40
1.0
 40
1.0
 10
20.28344831745243
 20
11.27173125631366
 30
0.0
 10
20.27982875272243
 20
11.27493948006166
 30
0.0
 10
20.26726622475243
 20
11.28586654044266
 30
0.0
 10
20.25760713667243
 20
11.29285898965266
 30
0.0
 10
20.23065256277243
 20
11.31753463951966
 30
0.0
 10
20.23115859716243
 20
11.31399270065666
 30
0.0
  0
SPLINE
  5
1BD
330
1F
100
AcDbEntity
  8
IGES_LEVEL_0
 62
     7
100
AcDbSpline
210
0.0
220
0.0
230
1.0
 70
     8
 71
     3
 72
    11
 73
     7
 74
     0
 42
0.0000000001
 43
0.0000000001
 40
0.0
 40
0.0
 40
0.0
 40
0.0
 40
0.2939187536803
 40
0.5691053191078001
 40
0.8099814170791
 40
1.0
 40
1.0
 40
1.0
 40
1.0
 10
17.55195413084243
 20
28.01867750533166
 30
0.0
 10
17.52030066578243
 20
28.02256518807166
 30
0.0
 10
17.45978976927243
 20
28.03933069184166
 30
0.0
 10
17.38381934419243
 20
28.08532717647166
 30
0.0
 10
17.32878997372243
 20
28.13940720193166
 30
0.0
 10
17.30093245731244
 20
28.17701255607166
 30
0.0
 10
17.28963212889244
 20
28.19431958992166
 30
0.0
  0
ARC
  5
1BE
330
1F
100
AcDbEntity
  8
IGES_LEVEL_0
 62
     7
100
AcDbCircle
 10
17.03128007497682
 20
28.03805179687322
 30
0.0
 40
0.3019360973892485
100
AcDbArc
 50
31.16822320724515
 51
38.66016337995494
  0
ARC
  5
1BF
330
1F
100
AcDbEntity
  8
IGES_LEVEL_0
 62
     7
100
AcDbCircle
 10
17.25433117961909
 20
28.21477808914722
 30
0.0
 40
0.0174140970903778
100
AcDbArc
 50
43.07548240565703
 51
82.16348332261076
  0
ARC
  5
1C0
330
1F
100
AcDbEntity
  8
IGES_LEVEL_0
 62
     7
100
AcDbCircle
 10
4.291635922390192
 20
28.21446524355465
 30
0.0
 40
0.0180920971720554
100
AcDbArc
 50
99.58594588714014
 51
137.572311116094
  0
ARC
  5
1C1
330
1F
100
AcDbEntity
  8
IGES_LEVEL_0
 62
     7
100
AcDbCircle
 10
4.514052925984653
 20
28.03805179659107
 30
0.0
 40
0.3019360978937081
100
AcDbArc
 50
141.3398366280621
 51
148.8317767880839
  0
LINE
  5
1C2
330
1F
100
AcDbEntity
  8
IGES_LEVEL_0
 62
     7
100
AcDbLine
 10
4.255700871650132
 20
28.19431958992166
 30
0.0
 11
4.233035844126431
 21
28.16238023248166
 31
0.0
  0
ARC
  5
1C3
330
1F
100
AcDbEntity
  8
IGES_LEVEL_0
 62
     7
100
AcDbCircle
 10
3.944454158969817
 20
28.37196319966586
 30
0.0
 40
0.3566572712585054
100
AcDbArc
 50
277.8844489408198
 51
324.0109041185729
  0
ARC
  5
1C4
330
1F
100
AcDbEntity
  8
IGES_LEVEL_0
 62
     7
100
AcDbCircle
 10
3.954042136319874
 20
28.33617767804692
 30
0.0
 40
0.3199277078771216
100
AcDbArc
 50
244.6552816425059
 51
277.0626788813167
  0
LINE
  5
1C5
330
1F
100
AcDbEntity
  8
IGES_LEVEL_0
 62
     7
100
AcDbLine
 10
3.817092808703432
 20
28.04704341869166
 30
0.0
 11
3.802642246629432
 21
28.05439347913166
 31
0.0
  0
SPLINE
  5
1C6
330
1F
100
AcDbEntity
  8
IGES_LEVEL_0
 62
     7
100
AcDbSpline
210
0.0
220
0.0
230
1.0
 70
     8
 71
     3
 72
    12
 73
     8
 74
     0
 42
0.0000000001
 43
0.0000000001
 40
0.0
 40
0.0
 40
0.0
 40
0.0
 40
0.06911995570085
 40
0.2542089440777
 40
0.493610395863
 40
0.7458088964089
 40
1.0
 40
1.0
 40
1.0
 40
1.0
 10
19.63577707279243
 20
10.69427626650366
 30
0.0
 10
19.63216653231243
 20
10.69478269488866
 30
0.0
 10
19.65559533007243
 20
10.71789439805566
 30
0.0
 10
19.66504030384243
 20
10.73411271030366
 30
0.0
 10
19.69867123679244
 20
10.77072343256866
 30
0.0
 10
19.72935244621243
 20
10.80582188626266
 30
0.0
 10
19.75154120723244
 20
10.83049211669866
 30
0.0
 10
19.76257986766243
 20
10.84282209963666
 30
0.0
  0
SPLINE
  5
1C7
330
1F
100
AcDbEntity
  8
IGES_LEVEL_0
 62
     7
100
AcDbSpline
210
0.0
220
0.0
230
1.0
 70
     8
 71
     3
 72
    16
 73
    12
 74
     0
 42
0.0000000001
 43
0.0000000001
 40
0.0
 40
0.0
 40
0.0
 40
0.0
 40
0.1155181137961
 40
0.2295955440153
 40
0.3380601775013
 40
0.4390294817043
 40
0.5351286000304
 40
0.6393418083087
 40
0.7511039174906
 40
0.8725378276251
 40
1.0
 40
1.0
 40
1.0
 40
1.0
 10
19.76257986766243
 20
10.84282209963666
 30
0.0
 10
19.77414723342243
 20
10.85574263679866
 30
0.0
 10
19.79692081771243
 20
10.88130543923966
 30
0.0
 10
19.83073557167244
 20
10.91909955700366
 30
0.0
 10
19.86100512695244
 20
10.95645561216966
 30
0.0
 10
19.89165841608243
 20
10.99181402619566
 30
0.0
 10
19.89353556580243
 20
11.04196648602266
 30
0.0
 10
19.85944143918243
 20
11.07704113479166
 30
0.0
 10
19.82572174923243
 20
11.11372813760866
 30
0.0
 10
19.78672991331244
 20
11.15130843053366
 30
0.0
 10
19.75981174497243
 20
11.17705017192266
 30
0.0
 10
19.74590370098243
 20
11.19003254202266
 30
0.0
  0
SPLINE
  5
1C8
330
1F
100
AcDbEntity
  8
IGES_LEVEL_0
 62
     7
100
AcDbSpline
210
0.0
220
0.0
230
1.0
 70
     8
 71
     3
 72
    11
 73
     7
 74
     0
 42
0.0000000001
 43
0.0000000001
 40
0.0
 40
0.0
 40
0.0
 40
0.0
 40
0.3146280014228
 40
0.6266854321366
 40
0.8804501330744
 40
1.0
 40
1.0
 40
1.0
 40
1.0
 10
19.74590370098243
 20
11.19003254202266
 30
0.0
 10
19.73146512655243
 20
11.20351013219466
 30
0.0
 10
19.70244194217244
 20
11.22992536038066
 30
0.0
 10
19.66183845148243
 20
11.26913023793566
 30
0.0
 10
19.62816401626243
 20
11.29229089366066
 30
0.0
 10
19.61149063888243
 20
11.31424353099966
 30
0.0
 10
19.60396877309243
 20
11.31424353099966
 30
0.0
  0
ARC
  5
1C9
330
1F
100
AcDbEntity
  8
IGES_LEVEL_0
 62
     7
100
AcDbCircle
 10
18.83790389868494
 20
28.97120398739049
 30
0.0
 40
0.2987683949443311
100
AcDbArc
 50
202.7908023702067
 51
214.6821884838298
  0
ARC
  5
1CA
330
1F
100
AcDbEntity
  8
IGES_LEVEL_0
 62
     7
100
AcDbCircle
 10
18.89755675059633
 20
28.99096411328791
 30
0.0
 40
0.3614513860079867
100
AcDbArc
 50
162.5016205336018
 51
202.0156011185513
  0
ARC
  5
1CB
330
1F
100
AcDbEntity
  8
IGES_LEVEL_0
 62
     7
100
AcDbCircle
 10
18.87046586292408
 20
29.00283904218149
 30
0.0
 40
0.3320588020872282
100
AcDbArc
 50
144.1575014488819
 51
163.0502882326674
  0
ARC
  5
1CC
330
1F
100
AcDbEntity
  8
IGES_LEVEL_0
 62
     7
100
AcDbCircle
 10
17.59276203406853
 20
28.33144631497654
 30
0.0
 40
0.3150184477493527
100
AcDbArc
 50
282.6020344338838
 51
298.401732408902
  0
ARC
  5
1CD
330
1F
100
AcDbEntity
  8
IGES_LEVEL_0
 62
     7
100
AcDbCircle
 10
17.59120776614649
 20
28.33964112815158
 30
0.0
 40
0.3233550603566806
100
AcDbArc
 50
263.027390500836
 51
282.5539972715333
  0
SPLINE
  5
1CE
330
1F
100
AcDbEntity
  8
IGES_LEVEL_0
 62
     7
100
AcDbSpline
210
0.0
220
0.0
230
1.0
 70
     8
 71
     3
 72
    10
 73
     6
 74
     0
 42
0.0000000001
 43
0.0000000001
 40
0.0
 40
0.0
 40
0.0
 40
0.0
 40
0.1349670089254
 40
0.5844849330808
 40
1.0
 40
1.0
 40
1.0
 40
1.0
 10
1.314172861463432
 20
11.31398345270266
 30
0.0
 10
1.314674194543432
 20
11.31746861921966
 30
0.0
 10
1.288225629638432
 20
11.29335404944666
 30
0.0
 10
1.275642224933432
 20
11.28421278894666
 30
0.0
 10
1.255774114738432
 20
11.26630536400866
 30
0.0
 10
1.245946929436432
 20
11.25732018083766
 30
0.0
  0
ARC
  5
1CF
330
1F
100
AcDbEntity
  8
IGES_LEVEL_0
 62
     7
100
AcDbCircle
 10
4.467901583407935
 20
7.671155452113993
 30
0.0
 40
4.820951073573588
100
AcDbArc
 50
131.9377993814141
 51
136.2608981882607
  0
SPLINE
  5
1D0
330
1F
100
AcDbEntity
  8
IGES_LEVEL_0
 62
     7
100
AcDbSpline
210
0.0
220
0.0
230
1.0
 70
     8
 71
     3
 72
    21
 73
    17
 74
     0
 42
0.0000000001
 43
0.0000000001
 40
0.0
 40
0.0
 40
0.0
 40
0.0
 40
0.01552437553583
 40
0.09750916853203
 40
0.1898658282058
 40
0.2837641136422
 40
0.375524620871
 40
0.4629309969419
 40
0.5448651579079
 40
0.6212340016097
 40
0.692264188936
 40
0.7581113744052
 40
0.8178607669324
 40
0.873772792534
 40
0.9344890854811
 40
1.0
 40
1.0
 40
1.0
 40
1.0
 10
20.29162455106243
 20
10.69422630449566
 30
0.0
 10
20.29426093358243
 20
10.69426606344166
 30
0.0
 10
20.31089924964243
 20
10.69548823089966
 30
0.0
 10
20.33912515877243
 20
10.70513815754166
 30
0.0
 10
20.37783905961243
 20
10.72464047924366
 30
0.0
 10
20.41541910371243
 20
10.74845697583966
 30
0.0
 10
20.45091270467243
 20
10.77408065249466
 30
0.0
 10
20.48358904839243
 20
10.80019105603266
 30
0.0
 10
20.51329794293243
 20
10.82602869211066
 30
0.0
 10
20.53997101582243
 20
10.85126971482466
 30
0.0
 10
20.56366635617243
 20
10.87598701279266
 30
0.0
 10
20.58339550765243
 20
10.90033219878966
 30
0.0
 10
20.59866243103243
 20
10.92610644680166
 30
0.0
 10
20.59670678237243
 20
10.95607109006466
 30
0.0
 10
20.58024589647243
 20
10.98080335563366
 30
0.0
 10
20.56746917199244
 20
10.99635866242966
 30
0.0
 10
20.56054662755243
 20
11.00424376974066
 30
0.0
  0
LINE
  5
1D1
330
1F
100
AcDbEntity
  8
IGES_LEVEL_0
 62
     7
100
AcDbLine
 10
2.942839862305432
 20
29.19891274277166
 30
0.0
 11
2.952574972936432
 21
29.18498482005166
 31
0.0
  0
LINE
  5
1D2
330
1F
100
AcDbEntity
  8
IGES_LEVEL_0
 62
     7
100
AcDbLine
 10
2.952574972936432
 20
29.18498482005166
 30
0.0
 11
2.968439291085431
 21
29.15806100983166
 31
0.0
  0
ARC
  5
1D3
330
1F
100
AcDbEntity
  8
IGES_LEVEL_0
 62
     7
100
AcDbCircle
 10
2.661595155770459
 20
28.99750704155132
 30
0.0
 40
0.3463104100482105
100
AcDbArc
 50
17.2091316353229
 51
27.62048722672056
  0
ARC
  5
1D4
330
1F
100
AcDbEntity
  8
IGES_LEVEL_0
 62
     7
100
AcDbCircle
 10
2.660098104777299
 20
28.99169679088938
 30
0.0
 40
0.3494967803681439
100
AcDbArc
 50
326.9763480614584
 51
18.04642768446301
  0
LINE
  5
1D5
330
1F
100
AcDbEntity
  8
IGES_LEVEL_0
 62
     7
100
AcDbLine
 10
19.74691956190243
 20
41.84868459961167
 30
0.0
 11
19.74691530096244
 21
41.84883120717166
 31
0.0
  0
SPLINE
  5
1D6
330
1F
100
AcDbEntity
  8
IGES_LEVEL_0
 62
     7
100
AcDbSpline
210
0.0
220
0.0
230
1.0
 70
     8
 71
     3
 72
    14
 73
    10
 74
     0
 42
0.0000000001
 43
0.0000000001
 40
0.0
 40
0.0
 40
0.0
 40
0.0
 40
0.06595618639975
 40
0.1870026257212
 40
0.2967107066136
 40
0.4196503467611
 40
0.5920755486014
 40
0.8074390146811
 40
1.0
 40
1.0
 40
1.0
 40
1.0
 10
56.98068539369243
 20
1.208734117331662
 30
0.0
 10
56.97828503851243
 20
1.208335955721662
 30
0.0
 10
56.97148741582243
 20
1.207159063801662
 30
0.0
 10
56.96074932603243
 20
1.205021836841661
 30
0.0
 10
56.94811145846243
 20
1.201729882271662
 30
0.0
 10
56.93412581907243
 20
1.196309941111661
 30
0.0
 10
56.91832982879243
 20
1.185550296721662
 30
0.0
 10
56.90539704627243
 20
1.167836438271662
 30
0.0
 10
56.90148391801242
 20
1.152847545011662
 30
0.0
 10
56.90089607190243
 20
1.145730526161662
 30
0.0
  0
LINE
  5
1D7
330
1F
100
AcDbEntity
  8
IGES_LEVEL_0
 62
     7
100
AcDbLine
 10
57.83322395905243
 20
0.1866883316116609
 30
0.0
 11
57.83250711539242
 21
0.1962067792916623
 31
0.0
  0
LINE
  5
1D8
330
1F
100
AcDbEntity
  8
IGES_LEVEL_0
 62
     7
100
AcDbLine
 10
35.20660706463243
 20
0.312310817701661
 30
0.0
 11
35.20071512463242
 21
0.2882159228016618
 31
0.0
  0
LINE
  5
1D9
330
1F
100
AcDbEntity
  8
IGES_LEVEL_0
 62
     7
100
AcDbLine
 10
35.20071512463242
 20
0.2882159228016618
 30
0.0
 11
35.20043133585243
 21
0.2863369504216616
 31
0.0
  0
LINE
  5
1DA
330
1F
100
AcDbEntity
  8
IGES_LEVEL_0
 62
     7
100
AcDbLine
 10
35.20043133585243
 20
0.2863369504216616
 30
0.0
 11
35.20030713129243
 21
0.2854636076016613
 31
0.0
  0
LINE
  5
1DB
330
1F
100
AcDbEntity
  8
IGES_LEVEL_0
 62
     7
100
AcDbLine
 10
35.21938427840242
 20
0.146565938961661
 30
0.0
 11
35.22033046167243
 21
0.1454568049916619
 31
0.0
  0
LINE
  5
1DC
330
1F
100
AcDbEntity
  8
IGES_LEVEL_0
 62
     7
100
AcDbLine
 10
35.19417950702243
 20
0.2585734890916615
 30
0.0
 11
35.19386596783242
 21
0.2560940656916609
 31
0.0
  0
LINE
  5
1DD
330
1F
100
AcDbEntity
  8
IGES_LEVEL_0
 62
     7
100
AcDbLine
 10
35.19386596783242
 20
0.2560940656916609
 30
0.0
 11
35.19322653704243
 21
0.249668907791662
 31
0.0
  0
LINE
  5
1DE
330
1F
100
AcDbEntity
  8
IGES_LEVEL_0
 62
     7
100
AcDbLine
 10
35.19322653704243
 20
0.249668907791662
 30
0.0
 11
35.19308589353243
 21
0.2216019730416611
 31
0.0
  0
LINE
  5
1DF
330
1F
100
AcDbEntity
  8
IGES_LEVEL_0
 62
     7
100
AcDbLine
 10
35.19308589353243
 20
0.2216019730416611
 30
0.0
 11
35.19346113925243
 21
0.2168622918216608
 31
0.0
  0
LINE
  5
1E0
330
1F
100
AcDbEntity
  8
IGES_LEVEL_0
 62
     7
100
AcDbLine
 10
35.50845506408243
 20
1.197389230781662
 30
0.0
 11
35.50353923130243
 21
1.186266270021662
 31
0.0
  0
LINE
  5
1E1
330
1F
100
AcDbEntity
  8
IGES_LEVEL_0
 62
     7
100
AcDbLine
 10
35.50353923130243
 20
1.186266270021662
 30
0.0
 11
35.50133901181243
 21
1.180051225471662
 31
0.0
  0
LINE
  5
1E2
330
1F
100
AcDbEntity
  8
IGES_LEVEL_0
 62
     7
100
AcDbLine
 10
35.50133901181243
 20
1.180051225471662
 30
0.0
 11
35.50094442951242
 21
1.178925945281662
 31
0.0
  0
LINE
  5
1E3
330
1F
100
AcDbEntity
  8
IGES_LEVEL_0
 62
     7
100
AcDbLine
 10
35.49984887094242
 20
1.175793730571662
 30
0.0
 11
35.20820337668243
 21
0.3169628347416608
 31
0.0
  0
LINE
  5
1E4
330
1F
100
AcDbEntity
  8
IGES_LEVEL_0
 62
     7
100
AcDbLine
 10
35.20820337668243
 20
0.3169628347416608
 30
0.0
 11
35.20660756234243
 21
0.3123141145316611
 31
0.0
  0
LINE
  5
1E5
330
1F
100
AcDbEntity
  8
IGES_LEVEL_0
 62
     7
100
AcDbLine
 10
35.63407871793243
 20
1.272285838671662
 30
0.0
 11
35.60477256905243
 21
1.275766146091662
 31
0.0
  0
LINE
  5
1E6
330
1F
100
AcDbEntity
  8
IGES_LEVEL_0
 62
     7
100
AcDbLine
 10
35.53583196767243
 20
1.246313700561661
 30
0.0
 11
35.53474111502243
 21
1.244438953991661
 31
0.0
  0
LINE
  5
1E7
330
1F
100
AcDbEntity
  8
IGES_LEVEL_0
 62
     7
100
AcDbLine
 10
35.34194530016243
 20
0.0411074736616611
 30
0.0
 11
35.34310462813242
 21
0.0408531230416606
 31
0.0
  0
ARC
  5
1E8
330
1F
100
AcDbEntity
  8
IGES_LEVEL_0
 62
     7
100
AcDbCircle
 10
35.64679556056466
 20
1.431931103565889
 30
0.0
 40
1.42384203138583
100
AcDbArc
 50
257.6847890995018
 51
267.2406123590708
  0
ARC
  5
1E9
330
1F
100
AcDbEntity
  8
IGES_LEVEL_0
 62
     7
100
AcDbCircle
 10
35.64325520370844
 20
1.404990495329054
 30
0.0
 40
1.396773758737273
100
AcDbArc
 50
267.4302553427345
 51
291.1387228480763
  0
ARC
  5
1EA
330
1F
100
AcDbEntity
  8
IGES_LEVEL_0
 62
     7
100
AcDbCircle
 10
57.44722945575125
 20
-2.446801999196308
 30
0.0
 40
3.685187608340355
100
AcDbArc
 50
92.38191445635995
 51
97.27314537209153
  0
SPLINE
  5
1EB
330
1F
100
AcDbEntity
  8
IGES_LEVEL_0
 62
     7
100
AcDbSpline
210
0.0
220
0.0
230
1.0
 70
     8
 71
     3
 72
    15
 73
    11
 74
     0
 42
0.0000000001
 43
0.0000000001
 40
0.0
 40
0.0
 40
0.0
 40
0.0
 40
0.0430020497928
 40
0.1688901804738
 40
0.2791643298607
 40
0.3994869309504
 40
0.5570810214412
 40
0.7568446340022
 40
0.989262878305
 40
1.0
 40
1.0
 40
1.0
 40
1.0
 10
56.98068583930242
 20
1.208734180711662
 30
0.0
 10
56.97908669597243
 20
1.208468755421661
 30
0.0
 10
56.97281088255243
 20
1.207397106281661
 30
0.0
 10
56.96247407632243
 20
1.205409340491661
 30
0.0
 10
56.94942945235243
 20
1.202138448401662
 30
0.0
 10
56.93566045024243
 20
1.197032372151661
 30
0.0
 10
56.92031103037242
 20
1.187213692311662
 30
0.0
 10
56.90599686114243
 20
1.169541090291661
 30
0.0
 10
56.90123012590243
 20
1.152997289071662
 30
0.0
 10
56.90076163867243
 20
1.143752018531661
 30
0.0
 10
56.90074512138243
 20
1.143343548491661
 30
0.0
  0
SPLINE
  5
1EC
330
1F
100
AcDbEntity
  8
IGES_LEVEL_0
 62
     7
100
AcDbSpline
210
0.0
220
0.0
230
1.0
 70
     8
 71
     3
 72
    14
 73
    10
 74
     0
 42
0.0000000001
 43
0.0000000001
 40
0.0
 40
0.0
 40
0.0
 40
0.0
 40
0.1790350616752
 40
0.3850446849425
 40
0.5564976706561
 40
0.6808061709202
 40
0.7840312790254
 40
0.8921830902919
 40
1.0
 40
1.0
 40
1.0
 40
1.0
 10
57.69100411291243
 20
1.183213034271661
 30
0.0
 10
57.69003082501243
 20
1.189930826781662
 30
0.0
 10
57.68550969638243
 20
1.204141208611661
 30
0.0
 10
57.67217494257243
 20
1.220958268481661
 30
0.0
 10
57.65587533957243
 20
1.231124785721661
 30
0.0
 10
57.64149288631243
 20
1.235768169421661
 30
0.0
 10
57.62902713000243
 20
1.238023168771662
 30
0.0
 10
57.61706675988243
 20
1.239363855341662
 30
0.0
 10
57.60894847290243
 20
1.239972471681661
 30
0.0
 10
57.60489273492243
 20
1.240229937391662
 30
0.0
  0
ARC
  5
1ED
330
1F
100
AcDbEntity
  8
IGES_LEVEL_0
 62
     7
100
AcDbCircle
 10
57.50852804647364
 20
-2.412154546344725
 30
0.0
 40
3.653655507874018
100
AcDbArc
 50
88.48865601494502
 51
93.36498335966223
  0
ARC
  5
1EE
330
1F
100
AcDbEntity
  8
IGES_LEVEL_0
 62
     7
100
AcDbCircle
 10
56.93285489541092
 20
0.1449256515701656
 30
0.0
 40
0.0735681263239014
100
AcDbArc
 50
178.3052739255453
 51
259.0453557398101
  0
ARC
  5
1EF
330
1F
100
AcDbEntity
  8
IGES_LEVEL_0
 62
     7
100
AcDbCircle
 10
57.75957920312759
 20
0.1866311125545916
 30
0.0
 40
0.0735530602127022
100
AcDbArc
 50
286.7382034841663
 51
7.469177451623462
  0
ARC
  5
1F0
330
1F
100
AcDbEntity
  8
IGES_LEVEL_0
 62
     7
100
AcDbCircle
 10
57.27741273359366
 20
1.52921762260095
 30
0.0
 40
1.500000198104178
100
AcDbArc
 50
272.8725392223787
 51
289.6068886217958
  0
ARC
  5
1F1
330
1F
100
AcDbEntity
  8
IGES_LEVEL_0
 62
     7
100
AcDbCircle
 10
57.27741279832191
 20
1.529217694662854
 30
0.0
 40
1.50000026683173
100
AcDbArc
 50
256.1701626129876
 51
272.8725366151062
  0
ARC
  5
1F2
330
1F
100
AcDbEntity
  8
IGES_LEVEL_0
 62
     7
100
AcDbCircle
 10
35.37532683945315
 20
0.2330070590060958
 30
0.0
 40
0.1827086475275861
100
AcDbArc
 50
163.3159520983743
 51
194.7973929550584
  0
LINE
  5
1F3
330
1F
100
AcDbEntity
  8
IGES_LEVEL_0
 62
     7
100
AcDbLine
 10
35.21989457839243
 20
0.1790275399016607
 30
0.0
 11
35.27209925443243
 21
0.1020906288316609
 31
0.0
  0
SPLINE
  5
1F4
330
1F
100
AcDbEntity
  8
IGES_LEVEL_0
 62
     7
100
AcDbSpline
210
0.0
220
0.0
230
1.0
 70
     8
 71
     3
 72
    24
 73
    20
 74
     0
 42
0.0000000001
 43
0.0000000001
 40
0.0
 40
0.0
 40
0.0
 40
0.0
 40
0.0782080763261
 40
0.1624739589173
 40
0.239272705796
 40
0.3089458547121
 40
0.3718999134701
 40
0.4286684764586
 40
0.479786639655
 40
0.5260080812713001
 40
0.5683491512805
 40
0.6086032626506001
 40
0.6498644496162001
 40
0.6952472468026
 40
0.7489950398155
 40
0.8147004783353
 40
0.8950715853154
 40
0.9917527937758
 40
1.0
 40
1.0
 40
1.0
 40
1.0
 10
35.21938447652243
 20
0.1465656302616621
 30
0.0
 10
35.22216702986243
 20
0.1433020881816612
 30
0.0
 10
35.22796368168243
 20
0.1365358528216606
 30
0.0
 10
35.23655371615243
 20
0.1266173223416621
 30
0.0
 10
35.24489529094242
 20
0.1171030687316622
 30
0.0
 10
35.25252237064242
 20
0.108516960411661
 30
0.0
 10
35.25947544929242
 20
0.1008016678916607
 30
0.0
 10
35.26580346662242
 20
0.0938931944016622
 30
0.0
 10
35.27157061155243
 20
0.0877157744516611
 30
0.0
 10
35.27686198538243
 20
0.0821771585016612
 30
0.0
 10
35.28181547661242
 20
0.0771405751116613
 30
0.0
 10
35.28666907296243
 20
0.0723886406216606
 30
0.0
 10
35.29177303205243
 20
0.0676567099816622
 30
0.0
 10
35.29762987766242
 20
0.0626552819316614
 30
0.0
 10
35.30485201048243
 20
0.0572067868116618
 30
0.0
 10
35.31414300080242
 20
0.0513647573816608
 30
0.0
 10
35.32616821533242
 20
0.0455702038416613
 30
0.0
 10
35.33588694115242
 20
0.0424770369016619
 30
0.0
 10
35.34150831788243
 20
0.0412027239416622
 30
0.0
 10
35.34195082901243
 20
0.0411055211016612
 30
0.0
  0
ARC
  5
1F5
330
1F
100
AcDbEntity
  8
IGES_LEVEL_0
 62
     7
100
AcDbCircle
 10
35.29546803681667
 20
0.2114399241711862
 30
0.0
 40
0.0999864173844901
100
AcDbArc
 50
194.548728261309
 51
220.4474330294518
  0
LINE
  5
1F6
330
1F
100
AcDbEntity
  8
IGES_LEVEL_0
 62
     7
100
AcDbLine
 10
36.14811810153243
 20
0.102647248971662
 30
0.0
 11
36.15186260387242
 21
0.1041769299016621
 31
0.0
  0
ARC
  5
1F7
330
1F
100
AcDbEntity
  8
IGES_LEVEL_0
 62
     7
100
AcDbCircle
 10
36.11224518823302
 20
0.1980099218042462
 30
0.0
 40
0.1018536695035373
100
AcDbArc
 50
292.8900548182644
 51
346.7112315668725
  0
LINE
  5
1F8
330
1F
100
AcDbEntity
  8
IGES_LEVEL_0
 62
     7
100
AcDbLine
 10
36.21145291570242
 20
0.174940256431661
 30
0.0
 11
36.21337985781243
 21
0.1862066503116607
 31
0.0
  0
ARC
  5
1F9
330
1F
100
AcDbEntity
  8
IGES_LEVEL_0
 62
     7
100
AcDbCircle
 10
35.3013616894565
 20
0.2369888456816156
 30
0.0
 40
0.0999813374506382
100
AcDbArc
 50
193.8689931039328
 51
215.4410858892153
  0
ARC
  5
1FA
330
1F
100
AcDbEntity
  8
IGES_LEVEL_0
 62
     7
100
AcDbCircle
 10
35.38319459730173
 20
0.25852065553828
 30
0.0
 40
0.184597866214246
100
AcDbArc
 50
163.0531862550606
 51
194.2643346487233
  0
LINE
  5
1FB
330
1F
100
AcDbEntity
  8
IGES_LEVEL_0
 62
     7
100
AcDbLine
 10
35.50845687541243
 20
1.197392294021661
 30
0.0
 11
35.50097962683243
 21
1.179026603941662
 31
0.0
  0
LINE
  5
1FC
330
1F
100
AcDbEntity
  8
IGES_LEVEL_0
 62
     7
100
AcDbLine
 10
35.50097962683243
 20
1.179026603941662
 30
0.0
 11
35.49984894249243
 21
1.175793705591662
 31
0.0
  0
LINE
  5
1FD
330
1F
100
AcDbEntity
  8
IGES_LEVEL_0
 62
     7
100
AcDbLine
 10
35.49984894249243
 20
1.175793705591662
 30
0.0
 11
35.20661339147242
 21
0.3123311121416615
 31
0.0
  0
ARC
  5
1FE
330
1F
100
AcDbEntity
  8
IGES_LEVEL_0
 62
     7
100
AcDbCircle
 10
34.81241722754837
 20
-3.544501500532383
 30
0.0
 40
4.886365508457784
100
AcDbArc
 50
76.652078920249
 51
80.3194989752113
  0
SPLINE
  5
1FF
330
1F
100
AcDbEntity
  8
IGES_LEVEL_0
 62
     7
100
AcDbSpline
210
0.0
220
0.0
230
1.0
 70
     8
 71
     3
 72
    20
 73
    16
 74
     0
 42
0.0000000001
 43
0.0000000001
 40
0.0
 40
0.0
 40
0.0
 40
0.0
 40
0.05292267451195
 40
0.132303104661
 40
0.2026595224032
 40
0.2656567944834
 40
0.3239055392537
 40
0.3820664883922
 40
0.4456482924361
 40
0.5230341676008
 40
0.6190031870017
 40
0.7288375944772
 40
0.8491253534622
 40
0.9804765075092
 40
1.0
 40
1.0
 40
1.0
 40
1.0
 10
35.63407871259243
 20
1.272285840241661
 30
0.0
 10
35.63214109145243
 20
1.272568301001662
 30
0.0
 10
35.62729469670243
 20
1.273257437121661
 30
0.0
 10
35.61986024781243
 20
1.274235304071661
 30
0.0
 10
35.61203993112243
 20
1.275130834911662
 30
0.0
 10
35.60498018651243
 20
1.275783410071661
 30
0.0
 10
35.59835401147242
 20
1.276198640091662
 30
0.0
 10
35.59169301968242
 20
1.276332806191661
 30
0.0
 10
35.58432539746243
 20
1.276005405821662
 30
0.0
 10
35.57562887495243
 20
1.274748956181661
 30
0.0
 10
35.56553166863242
 20
1.271776940641662
 30
0.0
 10
35.55469148400243
 20
1.266305224781661
 30
0.0
 10
35.54416870139242
 20
1.257875445461661
 30
0.0
 10
35.53791310522242
 20
1.249915973741661
 30
0.0
 10
35.53509454484242
 20
1.245072153581662
 30
0.0
 10
35.53474112291243
 20
1.244438919171662
 30
0.0
  0
ARC
  5
200
330
1F
100
AcDbEntity
  8
IGES_LEVEL_0
 62
     7
100
AcDbCircle
 10
34.97030933592444
 20
-3.132403707383918
 30
0.0
 40
4.449332975690365
100
AcDbArc
 50
73.38010753542572
 51
77.40527961317881
  0
LINE
  5
201
330
1F
100
AcDbEntity
  8
IGES_LEVEL_0
 62
     7
100
AcDbLine
 10
36.24291231103243
 20
1.131050947741661
 30
0.0
 11
36.24945894264243
 21
1.128827568271662
 31
0.0
  0
SPLINE
  5
202
330
1F
100
AcDbEntity
  8
IGES_LEVEL_0
 62
     7
100
AcDbSpline
210
0.0
220
0.0
230
1.0
 70
     8
 71
     3
 72
    19
 73
    15
 74
     0
 42
0.0000000001
 43
0.0000000001
 40
0.0
 40
0.0
 40
0.0
 40
0.0
 40
0.03070176962963
 40
0.1116949815658
 40
0.180829167673
 40
0.2442795293547
 40
0.3090252169199
 40
0.3821627579656
 40
0.4633596205304
 40
0.5469619908295
 40
0.6582804305382
 40
0.746583056582
 40
0.8593398829992001
 40
1.0
 40
1.0
 40
1.0
 40
1.0
 10
36.24945894264243
 20
1.128827568271662
 30
0.0
 10
36.25048223931243
 20
1.128472271691662
 30
0.0
 10
36.25420053002242
 20
1.127166636381661
 30
0.0
 10
36.26018984984243
 20
1.124966461641662
 30
0.0
 10
36.26718181373243
 20
1.122152733361661
 30
0.0
 10
36.27352751044243
 20
1.119281825341661
 30
0.0
 10
36.27981432580243
 20
1.115962247231662
 30
0.0
 10
36.28631610899242
 20
1.111757262911661
 30
0.0
 10
36.29280128106242
 20
1.106388622441662
 30
0.0
 10
36.29941986807243
 20
1.099200282541661
 30
0.0
 10
36.30492184334243
 20
1.090779880371661
 30
0.0
 10
36.30929331817243
 20
1.080618948361662
 30
0.0
 10
36.31208329519242
 20
1.068815291181661
 30
0.0
 10
36.31217696222242
 20
1.059764153631662
 30
0.0
 10
36.31161924938242
 20
1.054832883181662
 30
0.0
  0
ARC
  5
203
330
1F
100
AcDbEntity
  8
IGES_LEVEL_0
 62
     7
100
AcDbCircle
 10
35.64331485735522
 20
1.404767856975667
 30
0.0
 40
1.396544589200687
100
AcDbArc
 50
267.3312218940556
 51
291.1397341551783
  0
LINE
  5
204
330
1F
100
AcDbEntity
  8
IGES_LEVEL_0
 62
     7
100
AcDbLine
 10
36.14696988918242
 20
0.1022056133416615
 30
0.0
 11
36.14810057798243
 21
0.1026429251916613
 31
0.0
  0
LINE
  5
205
330
1F
100
AcDbEntity
  8
IGES_LEVEL_0
 62
     7
100
AcDbLine
 10
35.34194530016243
 20
0.0411074736616611
 30
0.0
 11
35.34314499932243
 21
0.0408442843416611
 31
0.0
  0
ARC
  5
206
330
1F
100
AcDbEntity
  8
IGES_LEVEL_0
 62
     7
100
AcDbCircle
 10
35.64679638926962
 20
1.431938415898721
 30
0.0
 40
1.423849377381383
100
AcDbArc
 50
257.686482297357
 51
267.2405901459285
  0
LINE
  5
207
330
1F
100
AcDbEntity
  8
IGES_LEVEL_0
 62
     7
100
AcDbLine
 10
39.84455293979243
 20
36.57800402552166
 30
0.0
 11
39.83886999461243
 21
36.61276601677167
 31
0.0
  0
SPLINE
  5
208
330
1F
100
AcDbEntity
  8
IGES_LEVEL_0
 62
     7
100
AcDbSpline
210
0.0
220
0.0
230
1.0
 70
     8
 71
     3
 72
    14
 73
    10
 74
     0
 42
0.0000000001
 43
0.0000000001
 40
0.0
 40
0.0
 40
0.0
 40
0.0
 40
0.06553684697944
 40
0.1715605378806
 40
0.2989391518959
 40
0.4570995303158
 40
0.6398452283324
 40
0.8365894933673
 40
1.0
 40
1.0
 40
1.0
 40
1.0
 10
39.60916170324243
 20
35.65120298604166
 30
0.0
 10
39.63158862475243
 20
35.65739553040167
 30
0.0
 10
39.68814507757243
 20
35.68302546392166
 30
0.0
 10
39.76260323931243
 20
35.76110689331166
 30
0.0
 10
39.82190821591243
 20
35.88739900348166
 30
0.0
 10
39.85902160464243
 20
36.04904973956166
 30
0.0
 10
39.87328918331243
 20
36.23851995861166
 30
0.0
 10
39.86531031464243
 20
36.43001666759167
 30
0.0
 10
39.84860306942242
 20
36.55599843018166
 30
0.0
 10
39.83886847660243
 20
36.61276637277167
 30
0.0
  0
ARC
  5
209
330
1F
100
AcDbEntity
  8
IGES_LEVEL_0
 62
     7
100
AcDbCircle
 10
1237.409688366406
 20
241.9412686368134
 30
0.0
 40
1215.045538497581
100
AcDbArc
 50
189.4840930328922
 51
189.7290031845608
  0
SPLINE
  5
20A
330
1F
100
AcDbEntity
  8
IGES_LEVEL_0
 62
     7
100
AcDbSpline
210
0.0
220
0.0
230
1.0
 70
     8
 71
     3
 72
    15
 73
    11
 74
     0
 42
0.0000000001
 43
0.0000000001
 40
0.0
 40
0.0
 40
0.0
 40
0.0
 40
0.1399775042816
 40
0.2987579745442
 40
0.4520502365751
 40
0.6005174084696
 40
0.7351456383285
 40
0.8446947671011
 40
0.9361524374699
 40
1.0
 40
1.0
 40
1.0
 40
1.0
 10
38.97213958326243
 20
41.73362476659166
 30
0.0
 10
38.96209531543243
 20
41.79377420551166
 30
0.0
 10
38.93504309064243
 20
41.92128247392166
 30
0.0
 10
38.87657138492243
 20
42.10962177796166
 30
0.0
 10
38.79737959958243
 20
42.29436597857166
 30
0.0
 10
38.70165797355243
 20
42.45924605324166
 30
0.0
 10
38.59315943039243
 20
42.59269609414167
 30
0.0
 10
38.47702891308243
 20
42.68424725987166
 30
0.0
 10
38.36607257413242
 20
42.72445854762166
 30
0.0
 10
38.29654663682243
 20
42.72166677593166
 30
0.0
 10
38.26922950467242
 20
42.71576557710166
 30
0.0
  0
LINE
  5
20B
330
1F
100
AcDbEntity
  8
IGES_LEVEL_0
 62
     7
100
AcDbLine
 10
39.83887005224243
 20
36.61276173799166
 30
0.0
 11
39.83811404779243
 21
36.61717151126167
 31
0.0
  0
LINE
  5
20C
330
1F
100
AcDbEntity
  8
IGES_LEVEL_0
 62
     7
100
AcDbLine
 10
39.83811404779243
 20
36.61717151126167
 30
0.0
 11
39.74552462476243
 21
37.15797171743166
 31
0.0
  0
LINE
  5
20D
330
1F
100
AcDbEntity
  8
IGES_LEVEL_0
 62
     7
100
AcDbLine
 10
38.04053471032243
 20
36.07133866089166
 30
0.0
 11
38.04227364605243
 21
36.06344888708166
 31
0.0
  0
SPLINE
  5
20E
330
1F
100
AcDbEntity
  8
IGES_LEVEL_0
 62
     7
100
AcDbSpline
210
0.0
220
0.0
230
1.0
 70
     8
 71
     3
 72
     9
 73
     5
 74
     0
 42
0.0000000001
 43
0.0000000001
 40
0.0
 40
0.0
 40
0.0
 40
0.0
 40
0.7855972930412
 40
1.0
 40
1.0
 40
1.0
 40
1.0
 10
38.04227364605243
 20
36.06344888708166
 30
0.0
 10
38.07884789957243
 20
35.89651931283166
 30
0.0
 10
38.10531869923243
 20
35.69464400289166
 30
0.0
 10
38.07247460796243
 20
35.49755479909167
 30
0.0
 10
38.06228273822243
 20
35.45540892443166
 30
0.0
  0
SPLINE
  5
20F
330
1F
100
AcDbEntity
  8
IGES_LEVEL_0
 62
     7
100
AcDbSpline
210
0.0
220
0.0
230
1.0
 70
     8
 71
     3
 72
     9
 73
     5
 74
     0
 42
0.0000000001
 43
0.0000000001
 40
0.0
 40
0.0
 40
0.0
 40
0.0
 40
0.2134548764036
 40
1.0
 40
1.0
 40
1.0
 40
1.0
 10
36.56632758009243
 20
42.19130483664166
 30
0.0
 10
36.59340386833242
 20
42.15700380784166
 30
0.0
 10
36.70784067155243
 20
41.98973896565166
 30
0.0
 10
36.77205988605243
 20
41.79321497679166
 30
0.0
 10
36.80957224677243
 20
41.62400765231166
 30
0.0
  0
SPLINE
  5
210
330
1F
100
AcDbEntity
  8
IGES_LEVEL_0
 62
     7
100
AcDbSpline
210
0.0
220
0.0
230
1.0
 70
     8
 71
     3
 72
    12
 73
     8
 74
     0
 42
0.0000000001
 43
0.0000000001
 40
0.0
 40
0.0
 40
0.0
 40
0.0
 40
0.2052589708052
 40
0.4494131648011
 40
0.6734555819943
 40
0.8658092317713
 40
1.0
 40
1.0
 40
1.0
 40
1.0
 10
54.42360042466243
 20
29.43710159123166
 30
0.0
 10
54.48550739977243
 20
29.43757743997166
 30
0.0
 10
54.62108194957243
 20
29.43645912776166
 30
0.0
 10
54.82399280191243
 20
29.42608707162166
 30
0.0
 10
55.02226224086243
 20
29.40450810193166
 30
0.0
 10
55.18558876351243
 20
29.37496292750166
 30
0.0
 10
55.28126503435243
 20
29.34920136752166
 30
0.0
 10
55.31938965444243
 20
29.33602811844166
 30
0.0
  0
LINE
  5
211
330
1F
100
AcDbEntity
  8
IGES_LEVEL_0
 62
     7
100
AcDbLine
 10
54.17648127012243
 20
29.42926637720166
 30
0.0
 11
54.18284535699243
 21
29.42974078884166
 31
0.0
  0
ARC
  5
212
330
1F
100
AcDbEntity
  8
IGES_LEVEL_0
 62
     7
100
AcDbCircle
 10
54.38962779691777
 20
26.60718570626278
 30
0.0
 40
2.830119458897834
100
AcDbArc
 50
89.31224362786543
 51
94.18564698708779
  0
LINE
  5
213
330
1F
100
AcDbEntity
  8
IGES_LEVEL_0
 62
     7
100
AcDbLine
 10
42.40873247568243
 20
28.48988749786166
 30
0.0
 11
54.17648328943243
 21
29.42926653423166
 31
0.0
  0
LINE
  5
214
330
1F
100
AcDbEntity
  8
IGES_LEVEL_0
 62
     7
100
AcDbLine
 10
41.64954902924243
 20
28.50805132398166
 30
0.0
 11
41.66141070252242
 21
28.50678794465166
 31
0.0
  0
ARC
  5
215
330
1F
100
AcDbEntity
  8
IGES_LEVEL_0
 62
     7
100
AcDbCircle
 10
42.11934042861146
 20
32.22502614027859
 30
0.0
 40
3.74633086011566
100
AcDbArc
 50
262.9789382452856
 51
274.4303354046948
  0
ARC
  5
216
330
1F
100
AcDbEntity
  8
IGES_LEVEL_0
 62
     7
100
AcDbCircle
 10
41.56430938474499
 20
27.6418198712533
 30
0.0
 40
0.8714287478543941
100
AcDbArc
 50
86.37728299052193
 51
94.31149866518545
  0
LINE
  5
217
330
1F
100
AcDbEntity
  8
IGES_LEVEL_0
 62
     7
100
AcDbLine
 10
41.61937167229243
 20
28.51150729043166
 30
0.0
 11
41.64964189219243
 21
28.50915937666166
 31
0.0
  0
ARC
  5
218
330
1F
100
AcDbEntity
  8
IGES_LEVEL_0
 62
     7
100
AcDbCircle
 10
41.5592769036043
 20
27.69051027346486
 30
0.0
 40
0.822499749617066
100
AcDbArc
 50
83.7025512647833
 51
94.21728677373554
  0
LINE
  5
219
330
1F
100
AcDbEntity
  8
IGES_LEVEL_0
 62
     7
100
AcDbLine
 10
55.54883964370243
 20
29.39868856594166
 30
0.0
 11
55.54856767615243
 21
29.40195076454166
 31
0.0
  0
LINE
  5
21A
330
1F
100
AcDbEntity
  8
IGES_LEVEL_0
 62
     7
100
AcDbLine
 10
55.54856767615243
 20
29.40195076454166
 30
0.0
 11
55.54478737928243
 21
29.42168121814166
 31
0.0
  0
SPLINE
  5
21B
330
1F
100
AcDbEntity
  8
IGES_LEVEL_0
 62
     7
100
AcDbSpline
210
0.0
220
0.0
230
1.0
 70
     8
 71
     3
 72
    11
 73
     7
 74
     0
 42
0.0000000001
 43
0.0000000001
 40
0.0
 40
0.0
 40
0.0
 40
0.0
 40
0.07593971615977
 40
0.3229767079577
 40
0.6231463337498
 40
1.0
 40
1.0
 40
1.0
 40
1.0
 10
55.54478737928243
 20
29.42168121814166
 30
0.0
 10
55.54293914769243
 20
29.42817441402166
 30
0.0
 10
55.53268938305243
 20
29.45511714998166
 30
0.0
 10
55.49575817871243
 20
29.49694894203166
 30
0.0
 10
55.42673437540243
 20
29.53973558859166
 30
0.0
 10
55.37190560853243
 20
29.56225060210166
 30
0.0
 10
55.34086764110243
 20
29.57325745535166
 30
0.0
  0
ARC
  5
21C
330
1F
100
AcDbEntity
  8
IGES_LEVEL_0
 62
     7
100
AcDbCircle
 10
41.5386065733513
 20
28.00721086643806
 30
0.0
 40
0.7550886510802234
100
AcDbArc
 50
94.26504597640947
 51
107.8214459984463
  0
LINE
  5
21D
330
1F
100
AcDbEntity
  8
IGES_LEVEL_0
 62
     7
100
AcDbLine
 10
41.30749836986243
 20
28.72606424800166
 30
0.0
 11
41.25312985766243
 21
28.70670797584166
 31
0.0
  0
LINE
  5
21E
330
1F
100
AcDbEntity
  8
IGES_LEVEL_0
 62
     7
100
AcDbLine
 10
41.25312985766243
 20
28.70670797584166
 30
0.0
 11
41.23148160829243
 21
28.69798242316166
 31
0.0
  0
LINE
  5
21F
330
1F
100
AcDbEntity
  8
IGES_LEVEL_0
 62
     7
100
AcDbLine
 10
39.87825422971243
 20
28.03294685496166
 30
0.0
 11
39.87758727831243
 21
28.03261212725166
 31
0.0
  0
ARC
  5
220
330
1F
100
AcDbEntity
  8
IGES_LEVEL_0
 62
     7
100
AcDbCircle
 10
68.19056529508995
 20
-27.7342632926441
 30
0.0
 40
62.54252625869739
100
AcDbArc
 50
116.2119560633584
 51
116.8800772500335
  0
LINE
  5
221
330
1F
100
AcDbEntity
  8
IGES_LEVEL_0
 62
     7
100
AcDbLine
 10
39.91355136006243
 20
28.05084290729166
 30
0.0
 11
39.87686079748243
 21
28.03225145645166
 31
0.0
  0
LINE
  5
222
330
1F
100
AcDbEntity
  8
IGES_LEVEL_0
 62
     7
100
AcDbLine
 10
39.86197229997243
 20
28.02067346856166
 30
0.0
 11
39.85852313472243
 21
28.01625343019166
 31
0.0
  0
LINE
  5
223
330
1F
100
AcDbEntity
  8
IGES_LEVEL_0
 62
     7
100
AcDbLine
 10
39.85852313472243
 20
28.01625343019166
 30
0.0
 11
39.85592770008243
 21
28.01208842324166
 31
0.0
  0
LINE
  5
224
330
1F
100
AcDbEntity
  8
IGES_LEVEL_0
 62
     7
100
AcDbLine
 10
39.85592770008243
 20
28.01208842324166
 30
0.0
 11
39.85368910110243
 21
28.00756223336166
 31
0.0
  0
LINE
  5
225
330
1F
100
AcDbEntity
  8
IGES_LEVEL_0
 62
     7
100
AcDbLine
 10
39.85368910110243
 20
28.00756223336166
 30
0.0
 11
39.85244378177243
 21
28.00441089563166
 31
0.0
  0
LINE
  5
226
330
1F
100
AcDbEntity
  8
IGES_LEVEL_0
 62
     7
100
AcDbLine
 10
39.85244378177243
 20
28.00441089563166
 30
0.0
 11
39.85142562427243
 21
28.00122581282166
 31
0.0
  0
LINE
  5
227
330
1F
100
AcDbEntity
  8
IGES_LEVEL_0
 62
     7
100
AcDbLine
 10
39.85142562427243
 20
28.00122581282166
 30
0.0
 11
39.85026423106243
 21
27.99608744864166
 31
0.0
  0
LINE
  5
228
330
1F
100
AcDbEntity
  8
IGES_LEVEL_0
 62
     7
100
AcDbLine
 10
39.85026423106243
 20
27.99608744864166
 30
0.0
 11
39.84977388969243
 21
27.99237313741166
 31
0.0
  0
ARC
  5
229
330
1F
100
AcDbEntity
  8
IGES_LEVEL_0
 62
     7
100
AcDbCircle
 10
66.24992762176665
 20
-23.76749321160957
 30
0.0
 40
58.1270748108122
100
AcDbArc
 50
116.2230510519473
 51
116.9417555328746
  0
LINE
  5
22A
330
1F
100
AcDbEntity
  8
IGES_LEVEL_0
 62
     7
100
AcDbLine
 10
39.91345065994243
 20
28.05090899553166
 30
0.0
 11
39.87686110357243
 21
28.03225160563166
 31
0.0
  0
LINE
  5
22B
330
1F
100
AcDbEntity
  8
IGES_LEVEL_0
 62
     7
100
AcDbLine
 10
41.30523635517243
 20
28.72585361693166
 30
0.0
 11
41.28792951855242
 21
28.72007154420166
 31
0.0
  0
LINE
  5
22C
330
1F
100
AcDbEntity
  8
IGES_LEVEL_0
 62
     7
100
AcDbLine
 10
41.28792951855242
 20
28.72007154420166
 30
0.0
 11
41.27005990528243
 21
28.71373025924166
 31
0.0
  0
LINE
  5
22D
330
1F
100
AcDbEntity
  8
IGES_LEVEL_0
 62
     7
100
AcDbLine
 10
41.27005990528243
 20
28.71373025924166
 30
0.0
 11
41.25245486496243
 21
28.70710179519166
 31
0.0
  0
LINE
  5
22E
330
1F
100
AcDbEntity
  8
IGES_LEVEL_0
 62
     7
100
AcDbLine
 10
41.25245486496243
 20
28.70710179519166
 30
0.0
 11
41.23062693759243
 21
28.69833943453166
 31
0.0
  0
ARC
  5
22F
330
1F
100
AcDbEntity
  8
IGES_LEVEL_0
 62
     7
100
AcDbCircle
 10
41.53711035285903
 20
27.99969090268424
 30
0.0
 40
0.7624076383665862
100
AcDbArc
 50
95.46442488407703
 51
103.8183313878981
  0
LINE
  5
230
330
1F
100
AcDbEntity
  8
IGES_LEVEL_0
 62
     7
100
AcDbLine
 10
41.35501374619243
 20
28.74003287291166
 30
0.0
 11
41.31695024894243
 21
28.72953665397166
 31
0.0
  0
LINE
  5
231
330
1F
100
AcDbEntity
  8
IGES_LEVEL_0
 62
     7
100
AcDbLine
 10
41.31695024894243
 20
28.72953665397166
 30
0.0
 11
41.30524764936243
 21
28.72585589069166
 31
0.0
  0
ARC
  5
232
330
1F
100
AcDbEntity
  8
IGES_LEVEL_0
 62
     7
100
AcDbCircle
 10
54.33411817653715
 20
26.62796849383969
 30
0.0
 40
1.96244294236067
100
AcDbArc
 50
66.97809324831317
 51
83.5369763990891
  0
LINE
  5
233
330
1F
100
AcDbEntity
  8
IGES_LEVEL_0
 62
     7
100
AcDbLine
 10
54.16138671749243
 20
29.74826957865166
 30
0.0
 11
54.14439337253243
 21
29.74693603412166
 31
0.0
  0
LINE
  5
234
330
1F
100
AcDbEntity
  8
IGES_LEVEL_0
 62
     7
100
AcDbLine
 10
54.14439337253243
 20
29.74693603412166
 30
0.0
 11
54.03543943910243
 21
29.73838636231166
 31
0.0
  0
LINE
  5
235
330
1F
100
AcDbEntity
  8
IGES_LEVEL_0
 62
     7
100
AcDbLine
 10
54.03543943910243
 20
29.73838636231166
 30
0.0
 11
53.92705235177242
 21
29.72988192305166
 31
0.0
  0
LINE
  5
236
330
1F
100
AcDbEntity
  8
IGES_LEVEL_0
 62
     7
100
AcDbLine
 10
53.92705235177242
 20
29.72988192305166
 30
0.0
 11
53.84857713265243
 21
29.72372494761166
 31
0.0
  0
ARC
  5
237
330
1F
100
AcDbEntity
  8
IGES_LEVEL_0
 62
     7
100
AcDbCircle
 10
-772.8368076685775
 20
10558.52246921489
 30
0.0
 40
10561.20313802969
100
AcDbArc
 50
274.4283196985298
 51
274.4894587833489
  0
LINE
  5
238
330
1F
100
AcDbEntity
  8
IGES_LEVEL_0
 62
     7
100
AcDbLine
 10
42.61305561027243
 20
28.84758139396166
 30
0.0
 11
42.51675710015243
 21
28.84013211570166
 31
0.0
  0
LINE
  5
239
330
1F
100
AcDbEntity
  8
IGES_LEVEL_0
 62
     7
100
AcDbLine
 10
42.51675710015243
 20
28.84013211570166
 30
0.0
 11
42.42612687432243
 21
28.83312253101166
 31
0.0
  0
LINE
  5
23A
330
1F
100
AcDbEntity
  8
IGES_LEVEL_0
 62
     7
100
AcDbLine
 10
42.42612687432243
 20
28.83312253101166
 30
0.0
 11
41.64084412493243
 21
28.77243725022166
 31
0.0
  0
LINE
  5
23B
330
1F
100
AcDbEntity
  8
IGES_LEVEL_0
 62
     7
100
AcDbLine
 10
41.64084412493243
 20
28.77243725022166
 30
0.0
 11
41.48254778548242
 21
28.76021564309166
 31
0.0
  0
ARC
  5
23C
330
1F
100
AcDbEntity
  8
IGES_LEVEL_0
 62
     7
100
AcDbCircle
 10
54.30488777600983
 20
26.65409311551058
 30
0.0
 40
3.097501699432182
100
AcDbArc
 50
70.45493381375827
 51
92.65535008833609
  0
SPLINE
  5
23D
330
1F
100
AcDbEntity
  8
IGES_LEVEL_0
 62
     7
100
AcDbSpline
210
0.0
220
0.0
230
1.0
 70
     8
 71
     3
 72
    10
 73
     6
 74
     0
 42
0.0000000001
 43
0.0000000001
 40
0.0
 40
0.0
 40
0.0
 40
0.0
 40
0.04721359272441
 40
0.4262371743527
 40
1.0
 40
1.0
 40
1.0
 40
1.0
 10
54.42386990071243
 20
29.43791345178166
 30
0.0
 10
54.42359952901243
 20
29.43799767589166
 30
0.0
 10
54.41954510792242
 20
29.45101274061166
 30
0.0
 10
54.42330500786243
 20
29.45877772422166
 30
0.0
 10
54.42200530947243
 20
29.47758807730166
 30
0.0
 10
54.42148904286243
 20
29.48682560845166
 30
0.0
  0
LINE
  5
23E
330
1F
100
AcDbEntity
  8
IGES_LEVEL_0
 62
     7
100
AcDbLine
 10
54.41325353186243
 20
29.63423468672166
 30
0.0
 11
54.41511331951243
 21
29.68338223409166
 31
0.0
  0
ARC
  5
23F
330
1F
100
AcDbEntity
  8
IGES_LEVEL_0
 62
     7
100
AcDbCircle
 10
55.2075604659111
 20
29.74052369292368
 30
0.0
 40
1.045901357075079
100
AcDbArc
 50
179.703996939725
 51
183.5899093881182
  0
SPLINE
  5
240
330
1F
100
AcDbEntity
  8
IGES_LEVEL_0
 62
     7
100
AcDbSpline
210
0.0
220
0.0
230
1.0
 70
     8
 71
     3
 72
    16
 73
    12
 74
     0
 42
0.0000000001
 43
0.0000000001
 40
0.0
 40
0.0
 40
0.0
 40
0.0
 40
0.05277219673111
 40
0.1566768354917
 40
0.3009072071899
 40
0.4686020455466
 40
0.6398589704716
 40
0.7943244431968
 40
0.9137927369769
 40
0.9848844276819
 40
1.0
 40
1.0
 40
1.0
 40
1.0
 10
38.08533144833243
 20
41.42407452793166
 30
0.0
 10
38.09176144365243
 20
41.43309323245166
 30
0.0
 10
38.12531763912243
 20
41.44496218903166
 30
0.0
 10
38.18346454417243
 20
41.46430378107166
 30
0.0
 10
38.26966087194243
 20
41.48323605320166
 30
0.0
 10
38.36901209110243
 20
41.50180830679167
 30
0.0
 10
38.47200853251243
 20
41.51542790443166
 30
0.0
 10
38.56396225575243
 20
41.52740258355166
 30
0.0
 10
38.63898362603243
 20
41.52361626292166
 30
0.0
 10
38.67773796482243
 20
41.53296791338166
 30
0.0
 10
38.69917617055243
 20
41.51754224068166
 30
0.0
 10
38.70047868327243
 20
41.51482431243166
 30
0.0
  0
LINE
  5
241
330
1F
100
AcDbEntity
  8
IGES_LEVEL_0
 62
     7
100
AcDbLine
 10
53.98758145672243
 20
29.28587409596166
 30
0.0
 11
53.98038271774243
 21
29.28805425023166
 31
0.0
  0
ARC
  5
242
330
1F
100
AcDbEntity
  8
IGES_LEVEL_0
 62
     7
100
AcDbCircle
 10
54.33236263529368
 20
27.352205627858
 30
0.0
 40
1.327493514795334
100
AcDbArc
 50
2.675267548699316
 51
90.72107836298771
  0
ARC
  5
243
330
1F
100
AcDbEntity
  8
IGES_LEVEL_0
 62
     7
100
AcDbCircle
 10
54.03517231250538
 20
29.54518463852244
 30
0.0
 40
0.2636415123559194
100
AcDbArc
 50
259.6003280466263
 51
275.1193681607828
  0
LINE
  5
244
330
1F
100
AcDbEntity
  8
IGES_LEVEL_0
 62
     7
100
AcDbLine
 10
54.12083773069243
 20
29.29331891236166
 30
0.0
 11
54.08284554595243
 21
29.28550157423166
 31
0.0
  0
LINE
  5
245
330
1F
100
AcDbEntity
  8
IGES_LEVEL_0
 62
     7
100
AcDbLine
 10
54.08284554595243
 20
29.28550157423166
 30
0.0
 11
54.07120824846243
 21
29.28387597252166
 31
0.0
  0
LINE
  5
246
330
1F
100
AcDbEntity
  8
IGES_LEVEL_0
 62
     7
100
AcDbLine
 10
54.07120824846243
 20
29.28387597252166
 30
0.0
 11
54.05869730610243
 21
29.28259480301166
 31
0.0
  0
SPLINE
  5
247
330
1F
100
AcDbEntity
  8
IGES_LEVEL_0
 62
     7
100
AcDbSpline
210
0.0
220
0.0
230
1.0
 70
     8
 71
     3
 72
    15
 73
    11
 74
     0
 42
0.0000000001
 43
0.0000000001
 40
0.0
 40
0.0
 40
0.0
 40
0.0
 40
0.01958090636804
 40
0.1105657920195
 40
0.2592604298069
 40
0.4440929323524
 40
0.6374233897418
 40
0.8102482733524
 40
0.9368839496262
 40
1.0
 40
1.0
 40
1.0
 40
1.0
 10
38.17661476000243
 20
41.43408400307166
 30
0.0
 10
38.17776855216243
 20
41.43182722418166
 30
0.0
 10
38.19984577787243
 20
41.42005383801166
 30
0.0
 10
38.23111503697243
 20
41.42831025094166
 30
0.0
 10
38.29742405028243
 20
41.42716494341166
 30
0.0
 10
38.37304295722243
 20
41.43826611115166
 30
0.0
 10
38.45320056391243
 20
41.45099993517166
 30
0.0
 10
38.52508773366242
 20
41.46561941495166
 30
0.0
 10
38.57421820412243
 20
41.48128901759166
 30
0.0
 10
38.60334789640243
 20
41.49031088820166
 30
0.0
 10
38.60874039701243
 20
41.49787440375166
 30
0.0
  0
ARC
  5
248
330
1F
100
AcDbEntity
  8
IGES_LEVEL_0
 62
     7
100
AcDbCircle
 10
41.68727955234365
 20
29.75486873512804
 30
0.0
 40
1.151851582189858
100
AcDbArc
 50
189.0232569900309
 51
273.0808292290587
  0
ARC
  5
249
330
1F
100
AcDbEntity
  8
IGES_LEVEL_0
 62
     7
100
AcDbCircle
 10
41.68727541564111
 20
29.75486089651367
 30
0.0
 40
1.776843137629286
100
AcDbArc
 50
188.9436893645671
 51
273.1220849804132
  0
ARC
  5
24A
330
1F
100
AcDbEntity
  8
IGES_LEVEL_0
 62
     7
100
AcDbCircle
 10
54.13551975402046
 20
29.26555474965502
 30
0.0
 40
0.0314071733813465
100
AcDbArc
 50
91.35383847820391
 51
117.8704247965327
  0
ARC
  5
24B
330
1F
100
AcDbEntity
  8
IGES_LEVEL_0
 62
     7
100
AcDbCircle
 10
54.33253927944958
 20
27.35234237993525
 30
0.0
 40
1.952307586405276
100
AcDbArc
 50
2.739791351525331
 51
93.15532488268683
  0
ARC
  5
24C
330
1F
100
AcDbEntity
  8
IGES_LEVEL_0
 62
     7
100
AcDbCircle
 10
39.54186335881872
 20
11.00664783964326
 30
0.0
 40
0.3309170333235914
100
AcDbArc
 50
345.5035564509538
 51
359.5837084946231
  0
ARC
  5
24D
330
1F
100
AcDbEntity
  8
IGES_LEVEL_0
 62
     7
100
AcDbCircle
 10
39.56300768794462
 20
11.00331302873684
 30
0.0
 40
0.3096179838809871
100
AcDbArc
 50
306.2395908945661
 51
345.1215659325994
  0
ARC
  5
24E
330
1F
100
AcDbEntity
  8
IGES_LEVEL_0
 62
     7
100
AcDbCircle
 10
39.56430734705837
 20
11.00217751985565
 30
0.0
 40
0.307934057098698
100
AcDbArc
 50
269.9618550626557
 51
306.1694496029212
  0
LINE
  5
24F
330
1F
100
AcDbEntity
  8
IGES_LEVEL_0
 62
     7
100
AcDbLine
 10
38.52225965154243
 20
11.00424360025366
 30
0.0
 11
38.50940347303243
 21
10.95791450268366
 31
0.0
  0
ARC
  5
250
330
1F
100
AcDbEntity
  8
IGES_LEVEL_0
 62
     7
100
AcDbCircle
 10
39.83059622641611
 20
10.64338109905611
 30
0.0
 40
1.358116914551576
100
AcDbArc
 50
166.608991995446
 51
170.2570924366885
  0
LINE
  5
251
330
1F
100
AcDbEntity
  8
IGES_LEVEL_0
 62
     7
100
AcDbLine
 10
54.25224955148243
 20
28.68531711324166
 30
0.0
 11
54.24251015514243
 21
28.68270809266166
 31
0.0
  0
ARC
  5
252
330
1F
100
AcDbEntity
  8
IGES_LEVEL_0
 62
     7
100
AcDbCircle
 10
54.16316942626895
 20
28.99405242073517
 30
0.0
 40
0.321294634069291
100
AcDbArc
 50
273.3156088797709
 51
284.2965534165023
  0
SPLINE
  5
253
330
1F
100
AcDbEntity
  8
IGES_LEVEL_0
 62
     7
100
AcDbSpline
210
0.0
220
0.0
230
1.0
 70
     8
 71
     3
 72
    16
 73
    12
 74
     0
 42
0.0000000001
 43
0.0000000001
 40
0.0
 40
0.0
 40
0.0
 40
0.0
 40
0.05277219673111
 40
0.1566768354917
 40
0.3009072071899
 40
0.4686020455466
 40
0.6398589704716
 40
0.7943244431968
 40
0.9137927369769
 40
0.9848844276819
 40
1.0
 40
1.0
 40
1.0
 40
1.0
 10
38.70023857789243
 20
41.51077550986167
 30
0.0
 10
38.69380858257243
 20
41.50175680534166
 30
0.0
 10
38.66025238709243
 20
41.48988784876166
 30
0.0
 10
38.60210548204243
 20
41.47054625671166
 30
0.0
 10
38.51590915428243
 20
41.45161398459166
 30
0.0
 10
38.41655793512243
 20
41.43304173100166
 30
0.0
 10
38.31356149370243
 20
41.41942213335167
 30
0.0
 10
38.22160777047242
 20
41.40744745424166
 30
0.0
 10
38.14658640019243
 20
41.41123377487166
 30
0.0
 10
38.10783206140243
 20
41.40188212441166
 30
0.0
 10
38.08639385567243
 20
41.41730779711166
 30
0.0
 10
38.08509134294243
 20
41.42002572536166
 30
0.0
  0
ARC
  5
254
330
1F
100
AcDbEntity
  8
IGES_LEVEL_0
 62
     7
100
AcDbCircle
 10
54.31214311452752
 20
28.99536868808488
 30
0.0
 40
0.3157834985508248
100
AcDbArc
 50
259.0666755953724
 51
270.6308924042513
  0
SPLINE
  5
255
330
1F
100
AcDbEntity
  8
IGES_LEVEL_0
 62
     7
100
AcDbSpline
210
0.0
220
0.0
230
1.0
 70
     8
 71
     3
 72
    15
 73
    11
 74
     0
 42
0.0000000001
 43
0.0000000001
 40
0.0
 40
0.0
 40
0.0
 40
0.0
 40
0.01958090636805
 40
0.1105657920195
 40
0.2592604298069
 40
0.4440929323524
 40
0.6374233897418
 40
0.8102482733524
 40
0.9368839496262
 40
1.0
 40
1.0
 40
1.0
 40
1.0
 10
38.60895526622243
 20
41.50076603472166
 30
0.0
 10
38.60780147406243
 20
41.50302281361166
 30
0.0
 10
38.58572424835243
 20
41.51479619977166
 30
0.0
 10
38.55445498925243
 20
41.50653978685166
 30
0.0
 10
38.48814597594243
 20
41.50768509437166
 30
0.0
 10
38.41252706899243
 20
41.49658392663167
 30
0.0
 10
38.33236946231243
 20
41.48385010261166
 30
0.0
 10
38.26048229256243
 20
41.46923062284166
 30
0.0
 10
38.21135182210243
 20
41.45356102019166
 30
0.0
 10
38.18222212981243
 20
41.44453914959166
 30
0.0
 10
38.17682962921243
 20
41.43697563404167
 30
0.0
  0
ARC
  5
256
330
1F
100
AcDbEntity
  8
IGES_LEVEL_0
 62
     7
100
AcDbCircle
 10
39.56436815719338
 20
11.00648702342461
 30
0.0
 40
0.3077566223728826
100
AcDbArc
 50
34.08388429054919
 51
90.04948809975402
  0
ARC
  5
257
330
1F
100
AcDbEntity
  8
IGES_LEVEL_0
 62
     7
100
AcDbCircle
 10
39.56350858121716
 20
11.00540388195527
 30
0.0
 40
0.309075816813285
100
AcDbArc
 50
14.69166916985191
 51
34.16088386654218
  0
ARC
  5
258
330
1F
100
AcDbEntity
  8
IGES_LEVEL_0
 62
     7
100
AcDbCircle
 10
39.54567378185377
 20
11.00235997433974
 30
0.0
 40
0.327103298889249
100
AcDbArc
 50
0.3299277135469436
 51
14.41511886812467
  0
ARC
  5
259
330
1F
100
AcDbEntity
  8
IGES_LEVEL_0
 62
     7
100
AcDbCircle
 10
17.629295006645
 20
67.86467411029419
 30
0.0
 40
0.1875001956717772
100
AcDbArc
 50
0.0848770355091297
 51
179.9185321397992
  0
ARC
  5
25A
330
1F
100
AcDbEntity
  8
IGES_LEVEL_0
 62
     7
100
AcDbCircle
 10
17.62929137328018
 20
67.83245039625507
 30
0.0
 40
0.0575266257538531
100
AcDbArc
 50
17.32644283314478
 51
162.660067584969
  0
ARC
  5
25B
330
1F
100
AcDbEntity
  8
IGES_LEVEL_0
 62
     7
100
AcDbCircle
 10
17.62929518370849
 20
67.86668282840586
 30
0.0
 40
0.057500082638246
100
AcDbArc
 50
180.099090709867
 51
359.9041054580012
  0
ARC
  5
25C
330
1F
100
AcDbEntity
  8
IGES_LEVEL_0
 62
     7
100
AcDbCircle
 10
17.62929483524312
 20
67.86381768886636
 30
0.0
 40
0.1875002696895337
100
AcDbArc
 50
180.0991648246984
 51
359.9041167108933
  0
ARC
  5
25D
330
1F
100
AcDbEntity
  8
IGES_LEVEL_0
 62
     7
100
AcDbCircle
 10
17.62929518871638
 20
67.86650360860745
 30
0.0
 40
0.0575000826382495
100
AcDbArc
 50
0.0990907098670109
 51
179.9041054579871
  0
ARC
  5
25E
330
1F
100
AcDbEntity
  8
IGES_LEVEL_0
 62
     7
100
AcDbCircle
 10
3.91633713651003
 20
67.8623288140822
 30
0.0
 40
0.1875001956687305
100
AcDbArc
 50
0.084877033061329
 51
179.9185321391899
  0
ARC
  5
25F
330
1F
100
AcDbEntity
  8
IGES_LEVEL_0
 62
     7
100
AcDbCircle
 10
3.916337313576975
 20
67.86433753218999
 30
0.0
 40
0.0575000826407466
100
AcDbArc
 50
180.0990907040145
 51
359.9041054638395
  0
ARC
  5
260
330
1F
100
AcDbEntity
  8
IGES_LEVEL_0
 62
     7
100
AcDbCircle
 10
3.916336965109608
 20
67.86147239265266
 30
0.0
 40
0.1875002696860864
100
AcDbArc
 50
180.0991648235668
 51
359.9041167089679
  0
ARC
  5
261
330
1F
100
AcDbEntity
  8
IGES_LEVEL_0
 62
     7
100
AcDbCircle
 10
3.916333503149616
 20
67.83010510004485
 30
0.0
 40
0.0575266257524292
100
AcDbArc
 50
17.32644282338646
 51
162.660067584289
  0
ARC
  5
262
330
1F
100
AcDbEntity
  8
IGES_LEVEL_0
 62
     7
100
AcDbCircle
 10
3.916337318583878
 20
67.86415831239329
 30
0.0
 40
0.0575000826407527
100
AcDbArc
 50
0.0990907140116891
 51
179.9041054538564
  0
ARC
  5
263
330
1F
100
AcDbEntity
  8
IGES_LEVEL_0
 62
     7
100
AcDbCircle
 10
18.81520071836
 20
56.44206250344441
 30
0.0
 40
0.1875001956667564
100
AcDbArc
 50
0.0848770323934749
 51
179.9185321398622
  0
ARC
  5
264
330
1F
100
AcDbEntity
  8
IGES_LEVEL_0
 62
     7
100
AcDbCircle
 10
18.8152008954285
 20
56.44407122155418
 30
0.0
 40
0.0575000826382325
100
AcDbArc
 50
180.099090708189
 51
359.9041054596792
  0
ARC
  5
265
330
1F
100
AcDbEntity
  8
IGES_LEVEL_0
 62
     7
100
AcDbCircle
 10
18.81520054695808
 20
56.44120608201113
 30
0.0
 40
0.1875002696845565
100
AcDbArc
 50
180.0991648230965
 51
359.9041167094383
  0
ARC
  5
266
330
1F
100
AcDbEntity
  8
IGES_LEVEL_0
 62
     7
100
AcDbCircle
 10
18.81519708499862
 20
56.40983878940722
 30
0.0
 40
0.0575266257517235
100
AcDbArc
 50
17.32644282113652
 51
162.6600675865384
  0
ARC
  5
267
330
1F
100
AcDbEntity
  8
IGES_LEVEL_0
 62
     7
100
AcDbCircle
 10
18.81520090043136
 20
56.44389200175078
 30
0.0
 40
0.0575000826432416
100
AcDbArc
 50
0.0990907165137876
 51
179.9041054513542
  0
SPLINE
  5
268
330
1F
100
AcDbEntity
  8
IGES_LEVEL_0
 62
     7
100
AcDbSpline
210
0.0
220
0.0
230
1.0
 70
     8
 71
     3
 72
    32
 73
    28
 74
     0
 42
0.0000000001
 43
0.0000000001
 40
0.0
 40
0.0
 40
0.0
 40
0.0
 40
0.02233143812173
 40
0.0455605125134
 40
0.06935346600567
 40
0.09351200835787
 40
0.119201667014
 40
0.1485037854714
 40
0.1846982485659
 40
0.2311364066671
 40
0.2843191079859
 40
0.3410830608166
 40
0.400875932095
 40
0.462741556868
 40
0.5255566636289
 40
0.5881230714012
 40
0.649259550207
 40
0.7078924284856
 40
0.7631877999418
 40
0.8135191184264
 40
0.8536227936161001
 40
0.8852682036238
 40
0.9114692004214
 40
0.9348403655781
 40
0.9568765569156
 40
0.9785238719814
 40
1.0
 40
1.0
 40
1.0
 40
1.0
 10
18.07828565345243
 20
70.97861364416166
 30
0.0
 10
18.07722604519243
 20
70.97573574683165
 30
0.0
 10
18.07582955826243
 20
70.96955090324165
 30
0.0
 10
18.07623178552243
 20
70.95992860862165
 30
0.0
 10
18.07913749536243
 20
70.95048927523166
 30
0.0
 10
18.08426912730243
 20
70.94169236868166
 30
0.0
 10
18.09138716724243
 20
70.93342051958166
 30
0.0
 10
18.10075979708243
 20
70.92507793166166
 30
0.0
 10
18.11318783020244
 20
70.91600181195165
 30
0.0
 10
18.12903012397243
 20
70.90613308794165
 30
0.0
 10
18.14787211905243
 20
70.89580982194165
 30
0.0
 10
18.16878549464244
 20
70.88550111410166
 30
0.0
 10
18.19113912586244
 20
70.87545540946165
 30
0.0
 10
18.21456522633243
 20
70.86580096158166
 30
0.0
 10
18.23862094999243
 20
70.85670444203166
 30
0.0
 10
18.26283520946243
 20
70.84834042902165
 30
0.0
 10
18.28674138648243
 20
70.84087700431167
 30
0.0
 10
18.30991759646243
 20
70.83446638312165
 30
0.0
 10
18.33187816154243
 20
70.82928230132166
 30
0.0
 10
18.35156028651243
 20
70.82560402038166
 30
0.0
 10
18.36820707500243
 20
70.82351379691166
 30
0.0
 10
18.38165707178244
 20
70.82283899294166
 30
0.0
 10
18.39282075394243
 20
70.82335820175166
 30
0.0
 10
18.40253802422243
 20
70.82508571012166
 30
0.0
 10
18.41125060510243
 20
70.82823669276166
 30
0.0
 10
18.41891439489243
 20
70.83299094645165
 30
0.0
 10
18.42313461005243
 20
70.83724233435166
 30
0.0
 10
18.42493960023244
 20
70.83957480698166
 30
0.0
  0
LINE
  5
269
330
1F
100
AcDbEntity
  8
IGES_LEVEL_0
 62
     7
100
AcDbLine
 10
18.42493960023244
 20
70.83957480699166
 30
0.0
 11
18.43019087926243
 21
70.84904624068165
 31
0.0
  0
SPLINE
  5
26A
330
1F
100
AcDbEntity
  8
IGES_LEVEL_0
 62
     7
100
AcDbSpline
210
0.0
220
0.0
230
1.0
 70
     8
 71
     3
 72
    23
 73
    19
 74
     0
 42
0.0000000001
 43
0.0000000001
 40
0.0
 40
0.0
 40
0.0
 40
0.0
 40
0.02256848671309
 40
0.0590313280156
 40
0.1105148563647
 40
0.1758698005997
 40
0.2529732684608
 40
0.3390939962203
 40
0.4310869317168
 40
0.5255510738349
 40
0.6189799397445001
 40
0.7079110972869001
 40
0.7890759658348
 40
0.859553060282
 40
0.9169407316188
 40
0.9596198814212
 40
0.9874692870956
 40
1.0
 40
1.0
 40
1.0
 40
1.0
 10
18.19039098557244
 20
70.90656140548165
 30
0.0
 10
18.19093992890243
 20
70.90727076961166
 30
0.0
 10
18.19330370326243
 20
70.90821330994166
 30
0.0
 10
18.19764150965244
 20
70.90846207658166
 30
0.0
 10
18.20375846309243
 20
70.90801580946166
 30
0.0
 10
18.21135810279243
 20
70.90675199160165
 30
0.0
 10
18.22022478753243
 20
70.90474040639165
 30
0.0
 10
18.23000220681243
 20
70.90203301085165
 30
0.0
 10
18.24032387787243
 20
70.89873378867165
 30
0.0
 10
18.25079220135243
 20
70.89496541425166
 30
0.0
 10
18.26100763968243
 20
70.89087259841165
 30
0.0
 10
18.27057719170243
 20
70.88661193017165
 30
0.0
 10
18.27914495788243
 20
70.88235241105166
 30
0.0
 10
18.28636449706243
 20
70.87825052042166
 30
0.0
 10
18.29204803648243
 20
70.87449913841166
 30
0.0
 10
18.29584521363243
 20
70.87115946064165
 30
0.0
 10
18.29806324872244
 20
70.86858046704165
 30
0.0
 10
18.29813609973243
 20
70.86678062804165
 30
0.0
 10
18.29798705681243
 20
70.86629969450166
 30
0.0
  0
SPLINE
  5
26B
330
1F
100
AcDbEntity
  8
IGES_LEVEL_0
 62
     7
100
AcDbSpline
210
0.0
220
0.0
230
1.0
 70
     8
 71
     3
 72
    15
 73
    11
 74
     0
 42
0.0000000001
 43
0.0000000001
 40
0.0
 40
0.0
 40
0.0
 40
0.0
 40
0.03150068122416
 40
0.1000601095123
 40
0.1996554053154
 40
0.3332279067811
 40
0.4998521147342
 40
0.6968385332678
 40
0.9204022287561
 40
1.0
 40
1.0
 40
1.0
 40
1.0
 10
18.43864144253243
 20
70.87213014291166
 30
0.0
 10
18.43898965846243
 20
70.87314919789165
 30
0.0
 10
18.43937702747243
 20
70.87670315773165
 30
0.0
 10
18.43607054975243
 20
70.88281458939166
 30
0.0
 10
18.42933006900243
 20
70.89028431911166
 30
0.0
 10
18.41895098287243
 20
70.89880440897166
 30
0.0
 10
18.40523158426243
 20
70.90819034338165
 30
0.0
 10
18.38835836552243
 20
70.91825149454166
 30
0.0
 10
18.37360812797243
 20
70.92613571093165
 30
0.0
 10
18.36455412275243
 20
70.93069286770165
 30
0.0
 10
18.36216978321243
 20
70.93187506180166
 30
0.0
  0
LINE
  5
26C
330
1F
100
AcDbEntity
  8
IGES_LEVEL_0
 62
     7
100
AcDbLine
 10
18.36216978321243
 20
70.93187506180166
 30
0.0
 11
18.36122424598243
 21
70.93234294179166
 31
0.0
  0
ARC
  5
26D
330
1F
100
AcDbEntity
  8
IGES_LEVEL_0
 62
     7
100
AcDbCircle
 10
17.94444712655512
 20
70.0724362549997
 30
0.0
 40
0.955584992173725
100
AcDbArc
 50
64.14159218536746
 51
75.43220752625312
  0
LINE
  5
26E
330
1F
100
AcDbEntity
  8
IGES_LEVEL_0
 62
     7
100
AcDbLine
 10
18.18480096912244
 20
70.99729987069165
 30
0.0
 11
18.17086702393243
 21
71.00064568375166
 31
0.0
  0
SPLINE
  5
26F
330
1F
100
AcDbEntity
  8
IGES_LEVEL_0
 62
     7
100
AcDbSpline
210
0.0
220
0.0
230
1.0
 70
     8
 71
     3
 72
    13
 73
     9
 74
     0
 42
0.0000000001
 43
0.0000000001
 40
0.0
 40
0.0
 40
0.0
 40
0.0
 40
0.2568512780928
 40
0.4812746660808
 40
0.6690623746432
 40
0.8174184486946
 40
0.9259518485874
 40
1.0
 40
1.0
 40
1.0
 40
1.0
 10
18.17086702393243
 20
71.00064568375166
 30
0.0
 10
18.16376271474243
 20
71.00226334488166
 30
0.0
 10
18.15039346944243
 20
71.00504463582166
 30
0.0
 10
18.13163095297243
 20
71.00797884952166
 30
0.0
 10
18.11578538078243
 20
71.00940275281165
 30
0.0
 10
18.10311938288243
 20
71.00925055226165
 30
0.0
 10
18.09385801205243
 20
71.00772685496165
 30
0.0
 10
18.08904387867244
 20
71.00509492589166
 30
0.0
 10
18.08775842033244
 20
71.00343381082166
 30
0.0
  0
LINE
  5
270
330
1F
100
AcDbEntity
  8
IGES_LEVEL_0
 62
     7
100
AcDbLine
 10
18.08681756098243
 20
71.00165415333166
 30
0.0
 11
18.08775842033244
 21
71.00343381082166
 31
0.0
  0
SPLINE
  5
271
330
1F
100
AcDbEntity
  8
IGES_LEVEL_0
 62
     7
100
AcDbSpline
210
0.0
220
0.0
230
1.0
 70
     8
 71
     3
 72
    23
 73
    19
 74
     0
 42
0.0000000001
 43
0.0000000001
 40
0.0
 40
0.0
 40
0.0
 40
0.0
 40
0.02256848671309
 40
0.05903132801559
 40
0.1105148563647
 40
0.1758698005997
 40
0.2529732684608
 40
0.3390939962203
 40
0.4310869317167
 40
0.5255510738348
 40
0.6189799397444
 40
0.7079110972868
 40
0.7890759658348
 40
0.8595530602819
 40
0.9169407316188
 40
0.9596198814211
 40
0.9874692870956
 40
1.0
 40
1.0
 40
1.0
 40
1.0
 10
18.29770658218244
 20
70.86574918569166
 30
0.0
 10
18.29715763885243
 20
70.86503982156165
 30
0.0
 10
18.29479386450243
 20
70.86409728123167
 30
0.0
 10
18.29045605810243
 20
70.86384851459165
 30
0.0
 10
18.28433910466243
 20
70.86429478171166
 30
0.0
 10
18.27673946496243
 20
70.86555859957166
 30
0.0
 10
18.26787278023243
 20
70.86757018478166
 30
0.0
 10
18.25809536094243
 20
70.87027758032166
 30
0.0
 10
18.24777368988243
 20
70.87357680250165
 30
0.0
 10
18.23730536640243
 20
70.87734517693166
 30
0.0
 10
18.22708992807243
 20
70.88143799276165
 30
0.0
 10
18.21752037605243
 20
70.88569866100166
 30
0.0
 10
18.20895260988243
 20
70.88995818012165
 30
0.0
 10
18.20173307069243
 20
70.89406007075166
 30
0.0
 10
18.19604953127243
 20
70.89781145276166
 30
0.0
 10
18.19225235412243
 20
70.90115113054165
 30
0.0
 10
18.19003431903244
 20
70.90373012414165
 30
0.0
 10
18.18996146802243
 20
70.90552996314165
 30
0.0
 10
18.19011051094243
 20
70.90601089668166
 30
0.0
  0
LINE
  5
272
330
1F
100
AcDbEntity
  8
IGES_LEVEL_0
 62
     7
100
AcDbLine
 10
3.457532268489432
 20
71.00348813189166
 30
0.0
 11
3.458500124537431
 21
71.00167183574166
 31
0.0
  0
SPLINE
  5
273
330
1F
100
AcDbEntity
  8
IGES_LEVEL_0
 62
     7
100
AcDbSpline
210
0.0
220
0.0
230
1.0
 70
     8
 71
     3
 72
    23
 73
    19
 74
     0
 42
0.0000000001
 43
0.0000000001
 40
0.0
 40
0.0
 40
0.0
 40
0.0
 40
0.02264598995276
 40
0.05921064611821
 40
0.1107950299972
 40
0.1762412023228
 40
0.2534212465787
 40
0.3396003504263
 40
0.431630950994
 40
0.5261104930996
 40
0.619531897654
 40
0.7084331102967
 40
0.7895469255793
 40
0.8599542988989
 40
0.9172573569196
 40
0.9598432906288
 40
0.9876060039146
 40
1.0
 40
1.0
 40
1.0
 40
1.0
 10
3.354919243297431
 20
70.90659064044166
 30
0.0
 10
3.354363993417432
 20
70.90729886646165
 30
0.0
 10
3.351991955178432
 20
70.90823482009165
 30
0.0
 10
3.347643218716432
 20
70.90848015797165
 30
0.0
 10
3.341515769599431
 20
70.90802815329165
 30
0.0
 10
3.333907018171431
 20
70.90675953461165
 30
0.0
 10
3.325033282678432
 20
70.90474312116166
 30
0.0
 10
3.315251107501431
 20
70.90203156265166
 30
0.0
 10
3.304927196190432
 20
70.89872886939165
 30
0.0
 10
3.294459229701432
 20
70.89495791273166
 30
0.0
 10
3.284246720049432
 20
70.89086348931166
 30
0.0
 10
3.274682591273432
 20
70.88660229146166
 30
0.0
 10
3.266122377926431
 20
70.88234325058166
 30
0.0
 10
3.258912618509431
 20
70.87824315267166
 30
0.0
 10
3.253239417642432
 20
70.87449389049166
 30
0.0
 10
3.249455241162432
 20
70.87115882192165
 30
0.0
 10
3.247247794956432
 20
70.86858320335165
 30
0.0
 10
3.247185283351432
 20
70.86679443065165
 30
0.0
 10
3.247332765430432
 20
70.86631816668165
 30
0.0
  0
LINE
  5
274
330
1F
100
AcDbEntity
  8
IGES_LEVEL_0
 62
     7
100
AcDbLine
 10
3.120519382580432
 20
70.83941306621165
 30
0.0
 11
3.115127992322432
 21
70.84906437986166
 31
0.0
  0
SPLINE
  5
275
330
1F
100
AcDbEntity
  8
IGES_LEVEL_0
 62
     7
100
AcDbSpline
210
0.0
220
0.0
230
1.0
 70
     8
 71
     3
 72
    13
 73
     9
 74
     0
 42
0.0000000001
 43
0.0000000001
 40
0.0
 40
0.0
 40
0.0
 40
0.0
 40
0.07415275551276
 40
0.182821220207
 40
0.3312542896592
 40
0.5190330087435
 40
0.743351624109
 40
1.0
 40
1.0
 40
1.0
 40
1.0
 10
3.457532268489432
 20
71.00348813189166
 30
0.0
 10
3.456232199471432
 20
71.00514638116165
 30
0.0
 10
3.451394732230432
 20
71.00776382247165
 30
0.0
 10
3.442106212585431
 20
71.00927656097166
 30
0.0
 10
3.429411780318432
 20
71.00941515199165
 30
0.0
 10
3.413540119071432
 20
71.00797848513165
 30
0.0
 10
3.394754487145432
 20
71.00503129605166
 30
0.0
 10
3.381371024383431
 20
71.00224187351165
 30
0.0
 10
3.374260230488432
 20
71.00062016898166
 30
0.0
  0
LINE
  5
276
330
1F
100
AcDbEntity
  8
IGES_LEVEL_0
 62
     7
100
AcDbLine
 10
3.374260230488432
 20
71.00062016898166
 30
0.0
 11
3.360517978632431
 21
70.99731803084165
 31
0.0
  0
ARC
  5
277
330
1F
100
AcDbEntity
  8
IGES_LEVEL_0
 62
     7
100
AcDbCircle
 10
3.600872095571411
 20
70.07245339661989
 30
0.0
 40
0.9555860469699583
100
AcDbArc
 50
104.5677930352457
 51
115.8584063374214
  0
LINE
  5
278
330
1F
100
AcDbEntity
  8
IGES_LEVEL_0
 62
     7
100
AcDbLine
 10
3.184094538266431
 20
70.93236104334166
 30
0.0
 11
3.182963856537432
 21
70.93180133113165
 31
0.0
  0
SPLINE
  5
279
330
1F
100
AcDbEntity
  8
IGES_LEVEL_0
 62
     7
100
AcDbSpline
210
0.0
220
0.0
230
1.0
 70
     8
 71
     3
 72
    15
 73
    11
 74
     0
 42
0.0000000001
 43
0.0000000001
 40
0.0
 40
0.0
 40
0.0
 40
0.0
 40
0.07970135305273
 40
0.3035170871351
 40
0.50066491123
 40
0.6673599076098
 40
0.8009183781807
 40
0.9004333935538
 40
0.9689050511805
 40
1.0
 40
1.0
 40
1.0
 40
1.0
 10
3.182963856537432
 20
70.93180133113165
 30
0.0
 10
3.180581685581432
 20
70.93061928950166
 30
0.0
 10
3.171537133029432
 20
70.92606327291165
 30
0.0
 10
3.156804762174432
 20
70.91818191045167
 30
0.0
 10
3.139956817774432
 20
70.90812538345165
 30
0.0
 10
3.126265339065431
 20
70.89874646091165
 30
0.0
 10
3.115915925313431
 20
70.89023362980166
 30
0.0
 10
3.109204870325431
 20
70.88277497062165
 30
0.0
 10
3.105933185808432
 20
70.87667705722166
 30
0.0
 10
3.106334625196431
 20
70.87315315407165
 30
0.0
 10
3.106678615120432
 20
70.87214873887166
 30
0.0
  0
SPLINE
  5
27A
330
1F
100
AcDbEntity
  8
IGES_LEVEL_0
 62
     7
100
AcDbSpline
210
0.0
220
0.0
230
1.0
 70
     8
 71
     3
 72
    32
 73
    28
 74
     0
 42
0.0000000001
 43
0.0000000001
 40
0.0
 40
0.0
 40
0.0
 40
0.0
 40
0.02231757347392
 40
0.04553073978821
 40
0.06930692631321
 40
0.09344816657345
 40
0.1191064462147
 40
0.1483549896391
 40
0.1844583867951
 40
0.2307741774025
 40
0.2838859908022
 40
0.3405760761807
 40
0.4002998706452
 40
0.4621064016963
 40
0.5248772926224
 40
0.5874184091093
 40
0.6485514664344
 40
0.7072022030977
 40
0.7625335880359
 40
0.8130070607676
 40
0.8533200414634
 40
0.8851120007293
 40
0.9114037521397
 40
0.9348231187473
 40
0.9568737925811
 40
0.9785310192079
 40
1.0
 40
1.0
 40
1.0
 40
1.0
 10
3.467033218135432
 20
70.97863178335166
 30
0.0
 10
3.468091585019432
 20
70.97575725760166
 30
0.0
 10
3.469487298804431
 20
70.96958026783165
 30
0.0
 10
3.469090062375431
 20
70.95996979334166
 30
0.0
 10
3.466195026565432
 20
70.95054031243166
 30
0.0
 10
3.461078513860432
 20
70.94175158254166
 30
0.0
 10
3.453980672943432
 20
70.93348882556165
 30
0.0
 10
3.444637595174431
 20
70.92515977456165
 30
0.0
 10
3.432252070883431
 20
70.91610198922166
 30
0.0
 10
3.416457448713432
 20
70.90625000237165
 30
0.0
 10
3.397663142280431
 20
70.89594060076166
 30
0.0
 10
3.376792163872432
 20
70.88564132223166
 30
0.0
 10
3.354480316143432
 20
70.87560324337166
 30
0.0
 10
3.331092984753431
 20
70.86595348226166
 30
0.0
 10
3.307070935116431
 20
70.85685791419166
 30
0.0
 10
3.282883393553432
 20
70.84849049788166
 30
0.0
 10
3.258995795885431
 20
70.84101895106166
 30
0.0
 10
3.235829798280431
 20
70.83459528801166
 30
0.0
 10
3.213859421888432
 20
70.82939008080166
 30
0.0
 10
3.194139935490432
 20
70.82568284575166
 30
0.0
 10
3.177437566405432
 20
70.82356153461166
 30
0.0
 10
3.163935160931432
 20
70.82285902053165
 30
0.0
 10
3.152737457643432
 20
70.82335146201166
 30
0.0
 10
3.142999256979432
 20
70.82504765394165
 30
0.0
 10
3.134268296500431
 20
70.82816010976165
 30
0.0
 10
3.126581191773432
 20
70.83287076553165
 30
0.0
 10
3.122337460937432
 20
70.83709409156165
 30
0.0
 10
3.120519382581432
 20
70.83941306621165
 30
0.0
  0
SPLINE
  5
27B
330
1F
100
AcDbEntity
  8
IGES_LEVEL_0
 62
     7
100
AcDbSpline
210
0.0
220
0.0
230
1.0
 70
     8
 71
     3
 72
    23
 73
    19
 74
     0
 42
0.0000000001
 43
0.0000000001
 40
0.0
 40
0.0
 40
0.0
 40
0.0
 40
0.02264598995272
 40
0.05921064611818
 40
0.1107950299972
 40
0.1762412023228
 40
0.2534212465787
 40
0.3396003504263
 40
0.431630950994
 40
0.5261104930995
 40
0.6195318976539
 40
0.7084331102967
 40
0.7895469255792
 40
0.859954298899
 40
0.9172573569196
 40
0.9598432906288
 40
0.9876060039146
 40
1.0
 40
1.0
 40
1.0
 40
1.0
 10
3.247620932118431
 20
70.86575622910166
 30
0.0
 10
3.248176181998432
 20
70.86504800308165
 30
0.0
 10
3.250548220237432
 20
70.86411204946165
 30
0.0
 10
3.254896956699432
 20
70.86386671157166
 30
0.0
 10
3.261024405816432
 20
70.86431871625166
 30
0.0
 10
3.268633157244432
 20
70.86558733493166
 30
0.0
 10
3.277506892737432
 20
70.86760374838165
 30
0.0
 10
3.287289067914431
 20
70.87031530689166
 30
0.0
 10
3.297612979225432
 20
70.87361800015165
 30
0.0
 10
3.308080945714432
 20
70.87738895682165
 30
0.0
 10
3.318293455366432
 20
70.88148338023166
 30
0.0
 10
3.327857584143432
 20
70.88574457808166
 30
0.0
 10
3.336417797489431
 20
70.89000361896166
 30
0.0
 10
3.343627556906431
 20
70.89410371687166
 30
0.0
 10
3.349300757773432
 20
70.89785297905166
 30
0.0
 10
3.353084934253432
 20
70.90118804762165
 30
0.0
 10
3.355292380459432
 20
70.90376366620166
 30
0.0
 10
3.355354892064432
 20
70.90555243889165
 30
0.0
 10
3.355207409985431
 20
70.90602870287165
 30
0.0
  0
LINE
  5
27C
330
1F
100
AcDbEntity
  8
IGES_LEVEL_0
 62
     7
100
AcDbLine
 10
20.01364304520243
 20
53.16238891929167
 30
0.0
 11
20.01236496583243
 21
53.12710922572166
 31
0.0
  0
LINE
  5
27D
330
1F
100
AcDbEntity
  8
IGES_LEVEL_0
 62
     7
100
AcDbLine
 10
20.01359360332243
 20
53.16222028815166
 30
0.0
 11
20.01254513958243
 21
53.14191571640166
 31
0.0
  0
LINE
  5
27E
330
1F
100
AcDbEntity
  8
IGES_LEVEL_0
 62
     7
100
AcDbLine
 10
20.01254513958243
 20
53.14191571640166
 30
0.0
 11
20.01231344688243
 21
53.12696934296166
 31
0.0
  0
ARC
  5
27F
330
1F
100
AcDbEntity
  8
IGES_LEVEL_0
 62
     7
100
AcDbCircle
 10
20.50050886510457
 20
53.12943793333535
 30
0.0
 40
0.4856922111706156
100
AcDbArc
 50
359.9804088093835
 51
96.215506081149
  0
ARC
  5
280
330
1F
100
AcDbEntity
  8
IGES_LEVEL_0
 62
     7
100
AcDbCircle
 10
20.44366771675129
 20
53.18192065254198
 30
0.0
 40
0.3204541524937286
100
AcDbArc
 50
229.3306667303807
 51
0.0321893529273727
  0
LINE
  5
281
330
1F
100
AcDbEntity
  8
IGES_LEVEL_0
 62
     7
100
AcDbLine
 10
20.23483013933243
 20
52.93886154428166
 30
0.0
 11
20.22178575994244
 21
52.95076369771167
 31
0.0
  0
ARC
  5
282
330
1F
100
AcDbEntity
  8
IGES_LEVEL_0
 62
     7
100
AcDbCircle
 10
20.49925829808361
 20
53.12808816542174
 30
0.0
 40
0.4869451622190242
100
AcDbArc
 50
180.1316799059783
 51
0.1392442217773299
  0
ARC
  5
283
330
1F
100
AcDbEntity
  8
IGES_LEVEL_0
 62
     7
100
AcDbCircle
 10
20.44454224838535
 20
53.18182872546419
 30
0.0
 40
0.3196701200289235
100
AcDbArc
 50
21.86479836012179
 51
45.97499315968871
  0
ARC
  5
284
330
1F
100
AcDbEntity
  8
IGES_LEVEL_0
 62
     7
100
AcDbCircle
 10
20.44357007492072
 20
53.18188460649152
 30
0.0
 40
0.3205518165804466
100
AcDbArc
 50
0.03862245704372
 51
21.79081457864411
  0
LINE
  5
285
330
1F
100
AcDbEntity
  8
IGES_LEVEL_0
 62
     7
100
AcDbLine
 10
20.22602766353244
 20
52.95734614247166
 30
0.0
 11
20.24736305744244
 21
52.92864192626166
 31
0.0
  0
ARC
  5
286
330
1F
100
AcDbEntity
  8
IGES_LEVEL_0
 62
     7
100
AcDbCircle
 10
20.44488565332902
 20
53.18161588850172
 30
0.0
 40
0.3195847445771008
100
AcDbArc
 50
46.04578023765586
 51
58.43798172654159
  0
LINE
  5
287
330
1F
100
AcDbEntity
  8
IGES_LEVEL_0
 62
     7
100
AcDbLine
 10
20.68997114180243
 20
53.38669885389166
 30
0.0
 11
20.66103999684243
 21
53.40674564045166
 31
0.0
  0
ARC
  5
288
330
1F
100
AcDbEntity
  8
IGES_LEVEL_0
 62
     7
100
AcDbCircle
 10
20.44320061940891
 20
53.17999760967938
 30
0.0
 40
0.3187047636741308
100
AcDbArc
 50
213.4065684120528
 51
225.9940197081514
  0
ARC
  5
289
330
1F
100
AcDbEntity
  8
IGES_LEVEL_0
 62
     7
100
AcDbCircle
 10
1.044821891350573
 20
53.12943764046631
 30
0.0
 40
0.4856921743408564
100
AcDbArc
 50
83.77907474474024
 51
180.3346143160315
  0
LINE
  5
28A
330
1F
100
AcDbEntity
  8
IGES_LEVEL_0
 62
     7
100
AcDbLine
 10
1.533011549363432
 20
53.12964005209166
 30
0.0
 11
1.532776993557432
 21
53.14225709014166
 31
0.0
  0
LINE
  5
28B
330
1F
100
AcDbEntity
  8
IGES_LEVEL_0
 62
     7
100
AcDbLine
 10
1.532776993557432
 20
53.14225709014166
 30
0.0
 11
1.531739345128432
 21
53.16221869603166
 31
0.0
  0
ARC
  5
28C
330
1F
100
AcDbEntity
  8
IGES_LEVEL_0
 62
     7
100
AcDbCircle
 10
1.100307414738229
 20
53.18216316802835
 30
0.0
 40
0.3190967907914187
100
AcDbArc
 50
136.5918679791771
 51
180.3262431018813
  0
LINE
  5
28D
330
1F
100
AcDbEntity
  8
IGES_LEVEL_0
 62
     7
100
AcDbLine
 10
0.8684908892004317
 20
53.40144349177166
 30
0.0
 11
0.8786291397494315
 21
53.41168295456166
 31
0.0
  0
ARC
  5
28E
330
1F
100
AcDbEntity
  8
IGES_LEVEL_0
 62
     7
100
AcDbCircle
 10
1.046075895097246
 20
53.12807618142713
 30
0.0
 40
0.4869391473300923
100
AcDbArc
 50
180.1735949568079
 51
0.1839790530085567
  0
ARC
  5
28F
330
1F
100
AcDbEntity
  8
IGES_LEVEL_0
 62
     7
100
AcDbCircle
 10
1.101448551013444
 20
53.18118808985617
 30
0.0
 40
0.3200359216723042
100
AcDbArc
 50
294.7641178638544
 51
313.9459688656744
  0
ARC
  5
290
330
1F
100
AcDbEntity
  8
IGES_LEVEL_0
 62
     7
100
AcDbCircle
 10
1.101905890678283
 20
53.18212379168915
 30
0.0
 40
0.3206950202744964
100
AcDbArc
 50
180.3175820680589
 51
294.6198964822855
  0
LINE
  5
291
330
1F
100
AcDbEntity
  8
IGES_LEVEL_0
 62
     7
100
AcDbLine
 10
1.532959690164432
 20
53.12977787484167
 30
0.0
 11
1.531680332177432
 21
53.16248224827166
 31
0.0
  0
LINE
  5
292
330
1F
100
AcDbEntity
  8
IGES_LEVEL_0
 62
     7
100
AcDbLine
 10
0.8844529444554314
 20
53.40684439100166
 30
0.0
 11
0.8555198119004321
 21
53.38682067890166
 31
0.0
  0
ARC
  5
293
330
1F
100
AcDbEntity
  8
IGES_LEVEL_0
 62
     7
100
AcDbCircle
 10
1.102284887508572
 20
53.17987227138386
 30
0.0
 40
0.3185082908035986
100
AcDbArc
 50
314.0019128514924
 51
326.5395166630611
  0
LINE
  5
294
330
1F
100
AcDbEntity
  8
IGES_LEVEL_0
 62
     7
100
AcDbLine
 10
1.297844367000432
 20
52.92849004750166
 30
0.0
 11
1.319128697634432
 21
52.95707885846166
 31
0.0
  0
ARC
  5
295
330
1F
100
AcDbEntity
  8
IGES_LEVEL_0
 62
     7
100
AcDbCircle
 10
1.10053155518613
 20
53.18151353427395
 30
0.0
 40
0.319716505692498
100
AcDbArc
 50
121.5315900950604
 51
133.9523530096526
  0
LINE
  5
296
330
1F
100
AcDbEntity
  8
IGES_LEVEL_0
 62
     7
100
AcDbLine
 10
18.96732705331243
 20
71.57719222313165
 30
0.0
 11
18.97257833234243
 21
71.58666365682166
 31
0.0
  0
SPLINE
  5
297
330
1F
100
AcDbEntity
  8
IGES_LEVEL_0
 62
     7
100
AcDbSpline
210
0.0
220
0.0
230
1.0
 70
     8
 71
     3
 72
    32
 73
    28
 74
     0
 42
0.0000000001
 43
0.0000000001
 40
0.0
 40
0.0
 40
0.0
 40
0.0
 40
0.02233143812176
 40
0.0455605125134
 40
0.06935346600567
 40
0.09351200835789
 40
0.119201667014
 40
0.1485037854714
 40
0.1846982485659
 40
0.2311364066671
 40
0.2843191079859
 40
0.3410830608166
 40
0.400875932095
 40
0.462741556868
 40
0.5255566636289
 40
0.5881230714012
 40
0.649259550207
 40
0.7078924284856
 40
0.7631877999418
 40
0.8135191184264
 40
0.8536227936161001
 40
0.8852682036238
 40
0.9114692004214
 40
0.9348403655781
 40
0.9568765569156
 40
0.9785238719814
 40
1.0
 40
1.0
 40
1.0
 40
1.0
 10
18.62067310653243
 20
71.71623106031166
 30
0.0
 10
18.61961349827243
 20
71.71335316297166
 30
0.0
 10
18.61821701134243
 20
71.70716831938165
 30
0.0
 10
18.61861923860244
 20
71.69754602476166
 30
0.0
 10
18.62152494844244
 20
71.68810669137164
 30
0.0
 10
18.62665658038243
 20
71.67930978483165
 30
0.0
 10
18.63377462032243
 20
71.67103793572166
 30
0.0
 10
18.64314725016243
 20
71.66269534780165
 30
0.0
 10
18.65557528328243
 20
71.65361922810166
 30
0.0
 10
18.67141757705243
 20
71.64375050408165
 30
0.0
 10
18.69025957213243
 20
71.63342723808165
 30
0.0
 10
18.71117294772243
 20
71.62311853024166
 30
0.0
 10
18.73352657894243
 20
71.61307282560165
 30
0.0
 10
18.75695267941243
 20
71.60341837773166
 30
0.0
 10
18.78100840307243
 20
71.59432185818164
 30
0.0
 10
18.80522266255243
 20
71.58595784516166
 30
0.0
 10
18.82912883956243
 20
71.57849442045165
 30
0.0
 10
18.85230504954243
 20
71.57208379926166
 30
0.0
 10
18.87426561462243
 20
71.56689971746165
 30
0.0
 10
18.89394773959243
 20
71.56322143653165
 30
0.0
 10
18.91059452808243
 20
71.56113121305165
 30
0.0
 10
18.92404452486243
 20
71.56045640909166
 30
0.0
 10
18.93520820702243
 20
71.56097561789166
 30
0.0
 10
18.94492547730243
 20
71.56270312626165
 30
0.0
 10
18.95363805818244
 20
71.56585410890165
 30
0.0
 10
18.96130184797243
 20
71.57060836260166
 30
0.0
 10
18.96552206313243
 20
71.57485975049166
 30
0.0
 10
18.96732705331243
 20
71.57719222313165
 30
0.0
  0
SPLINE
  5
298
330
1F
100
AcDbEntity
  8
IGES_LEVEL_0
 62
     7
100
AcDbSpline
210
0.0
220
0.0
230
1.0
 70
     8
 71
     3
 72
    23
 73
    19
 74
     0
 42
0.0000000001
 43
0.0000000001
 40
0.0
 40
0.0
 40
0.0
 40
0.0
 40
0.02256848671311
 40
0.05903132801563
 40
0.1105148563647
 40
0.1758698005997
 40
0.2529732684608
 40
0.3390939962203
 40
0.4310869317167
 40
0.5255510738349
 40
0.6189799397444
 40
0.7079110972868
 40
0.7890759658347
 40
0.8595530602819
 40
0.9169407316188
 40
0.9596198814212
 40
0.9874692870956
 40
1.0
 40
1.0
 40
1.0
 40
1.0
 10
18.73277843865243
 20
71.64417882162167
 30
0.0
 10
18.73332738198243
 20
71.64488818575165
 30
0.0
 10
18.73569115634243
 20
71.64583072608166
 30
0.0
 10
18.74002896273243
 20
71.64607949272165
 30
0.0
 10
18.74614591617243
 20
71.64563322561165
 30
0.0
 10
18.75374555587244
 20
71.64436940774166
 30
0.0
 10
18.76261224061243
 20
71.64235782253167
 30
0.0
 10
18.77238965989243
 20
71.63965042699167
 30
0.0
 10
18.78271133095243
 20
71.63635120482167
 30
0.0
 10
18.79317965443243
 20
71.63258283039166
 30
0.0
 10
18.80339509276243
 20
71.62849001455166
 30
0.0
 10
18.81296464478243
 20
71.62422934631165
 30
0.0
 10
18.82153241096243
 20
71.61996982719165
 30
0.0
 10
18.82875195015243
 20
71.61586793656166
 30
0.0
 10
18.83443548956243
 20
71.61211655455165
 30
0.0
 10
18.83823266671243
 20
71.60877687678166
 30
0.0
 10
18.84045070180243
 20
71.60619788318167
 30
0.0
 10
18.84052355281244
 20
71.60439804418166
 30
0.0
 10
18.84037450989244
 20
71.60391711064165
 30
0.0
  0
LINE
  5
299
330
1F
100
AcDbEntity
  8
IGES_LEVEL_0
 62
     7
100
AcDbLine
 10
18.63014587341243
 20
71.74105122696165
 30
0.0
 11
18.62920501406244
 21
71.73927156947165
 31
0.0
  0
SPLINE
  5
29A
330
1F
100
AcDbEntity
  8
IGES_LEVEL_0
 62
     7
100
AcDbSpline
210
0.0
220
0.0
230
1.0
 70
     8
 71
     3
 72
    11
 73
     7
 74
     0
 42
0.0000000001
 43
0.0000000001
 40
0.0
 40
0.0
 40
0.0
 40
0.0
 40
0.1638436693025
 40
0.4039916019799
 40
0.7322537269918
 40
1.0
 40
1.0
 40
1.0
 40
1.0
 10
18.63014587341243
 20
71.74105122696165
 30
0.0
 10
18.63143133175243
 20
71.74271234204166
 30
0.0
 10
18.63624546513243
 20
71.74534427110166
 30
0.0
 10
18.64550683596243
 20
71.74686796840166
 30
0.0
 10
18.65627066036243
 20
71.74699731155165
 30
0.0
 10
18.66389632438244
 20
71.74646734888165
 30
0.0
 10
18.66731353706243
 20
71.74614238001166
 30
0.0
  0
LINE
  5
29B
330
1F
100
AcDbEntity
  8
IGES_LEVEL_0
 62
     7
100
AcDbLine
 10
18.66731353706243
 20
71.74614238001166
 30
0.0
 11
18.71325447702243
 21
71.73826309989165
 31
0.0
  0
LINE
  5
29C
330
1F
100
AcDbEntity
  8
IGES_LEVEL_0
 62
     7
100
AcDbLine
 10
18.71325447702243
 20
71.73826309989165
 30
0.0
 11
18.72718842220243
 21
71.73491728683166
 31
0.0
  0
LINE
  5
29D
330
1F
100
AcDbEntity
  8
IGES_LEVEL_0
 62
     7
100
AcDbLine
 10
18.72718842220243
 20
71.73491728683166
 30
0.0
 11
18.74489835003243
 21
71.73021082936165
 31
0.0
  0
LINE
  5
29E
330
1F
100
AcDbEntity
  8
IGES_LEVEL_0
 62
     7
100
AcDbLine
 10
18.74489835003243
 20
71.73021082936165
 30
0.0
 11
18.79642991908244
 21
71.71411291391166
 31
0.0
  0
LINE
  5
29F
330
1F
100
AcDbEntity
  8
IGES_LEVEL_0
 62
     7
100
AcDbLine
 10
18.79642991908244
 20
71.71411291391166
 30
0.0
 11
18.80523507295244
 21
71.71103868425166
 31
0.0
  0
LINE
  5
2A0
330
1F
100
AcDbEntity
  8
IGES_LEVEL_0
 62
     7
100
AcDbLine
 10
18.80523507295244
 20
71.71103868425166
 30
0.0
 11
18.87371361313243
 21
71.68390495803166
 31
0.0
  0
LINE
  5
2A1
330
1F
100
AcDbEntity
  8
IGES_LEVEL_0
 62
     7
100
AcDbLine
 10
18.87371361313243
 20
71.68390495803166
 30
0.0
 11
18.90455723629243
 21
71.66949247794165
 31
0.0
  0
SPLINE
  5
2A2
330
1F
100
AcDbEntity
  8
IGES_LEVEL_0
 62
     7
100
AcDbSpline
210
0.0
220
0.0
230
1.0
 70
     8
 71
     3
 72
    15
 73
    11
 74
     0
 42
0.0000000001
 43
0.0000000001
 40
0.0
 40
0.0
 40
0.0
 40
0.0
 40
0.07959777124392
 40
0.3031614667321
 40
0.5001478852657
 40
0.6667720932189
 40
0.8003445946846
 40
0.8999398904877
 40
0.9684993187758
 40
1.0
 40
1.0
 40
1.0
 40
1.0
 10
18.90455723629243
 20
71.66949247794165
 30
0.0
 10
18.90694157583243
 20
71.66831028384166
 30
0.0
 10
18.91599558105244
 20
71.66375312707166
 30
0.0
 10
18.93074581860243
 20
71.65586891068165
 30
0.0
 10
18.94761903734243
 20
71.64580775952166
 30
0.0
 10
18.96133843595244
 20
71.63642182511165
 30
0.0
 10
18.97171752208243
 20
71.62790173525166
 30
0.0
 10
18.97845800283243
 20
71.62043200554166
 30
0.0
 10
18.98176448055244
 20
71.61432057387165
 30
0.0
 10
18.98137711154243
 20
71.61076661403166
 30
0.0
 10
18.98102889561243
 20
71.60974755905166
 30
0.0
  0
SPLINE
  5
2A3
330
1F
100
AcDbEntity
  8
IGES_LEVEL_0
 62
     7
100
AcDbSpline
210
0.0
220
0.0
230
1.0
 70
     8
 71
     3
 72
    23
 73
    19
 74
     0
 42
0.0000000001
 43
0.0000000001
 40
0.0
 40
0.0
 40
0.0
 40
0.0
 40
0.02256848671311
 40
0.05903132801563
 40
0.1105148563647
 40
0.1758698005997
 40
0.2529732684608
 40
0.3390939962203
 40
0.4310869317167
 40
0.5255510738348
 40
0.6189799397444
 40
0.7079110972868
 40
0.7890759658347
 40
0.8595530602819
 40
0.9169407316187
 40
0.9596198814211
 40
0.9874692870955
 40
1.0
 40
1.0
 40
1.0
 40
1.0
 10
18.84009403526243
 20
71.60336660183165
 30
0.0
 10
18.83954509193243
 20
71.60265723770166
 30
0.0
 10
18.83718131758243
 20
71.60171469738165
 30
0.0
 10
18.83284351118243
 20
71.60146593073165
 30
0.0
 10
18.82672655774243
 20
71.60191219785165
 30
0.0
 10
18.81912691805243
 20
71.60317601571165
 30
0.0
 10
18.81026023331243
 20
71.60518760092165
 30
0.0
 10
18.80048281402243
 20
71.60789499646165
 30
0.0
 10
18.79016114296243
 20
71.61119421864166
 30
0.0
 10
18.77969281948244
 20
71.61496259307165
 30
0.0
 10
18.76947738115243
 20
71.61905540890166
 30
0.0
 10
18.75990782913243
 20
71.62331607714165
 30
0.0
 10
18.75134006296243
 20
71.62757559626166
 30
0.0
 10
18.74412052377243
 20
71.63167748689165
 30
0.0
 10
18.73843698435243
 20
71.63542886890166
 30
0.0
 10
18.73463980720243
 20
71.63876854668166
 30
0.0
 10
18.73242177211243
 20
71.64134754028166
 30
0.0
 10
18.73234892110244
 20
71.64314737928166
 30
0.0
 10
18.73249796402243
 20
71.64362831282165
 30
0.0
  0
ARC
  5
2A4
330
1F
100
AcDbEntity
  8
IGES_LEVEL_0
 62
     7
100
AcDbCircle
 10
0.5588883917432863
 20
74.5292741703871
 30
0.0
 40
0.3202826403666113
100
AcDbArc
 50
41.22562126908295
 51
90.78699909175926
  0
ARC
  5
2A5
330
1F
100
AcDbEntity
  8
IGES_LEVEL_0
 62
     7
100
AcDbCircle
 10
0.5691520978373006
 20
74.53982349254208
 30
0.0
 40
0.3056130635620383
100
AcDbArc
 50
10.86798418103559
 51
41.00621287161397
  0
LINE
  5
2A6
330
1F
100
AcDbEntity
  8
IGES_LEVEL_0
 62
     7
100
AcDbLine
 10
0.8896764437874321
 20
75.24215244293166
 30
0.0
 11
0.8880696410474316
 21
75.24408560453165
 31
0.0
  0
ARC
  5
2A7
330
1F
100
AcDbEntity
  8
IGES_LEVEL_0
 62
     7
100
AcDbCircle
 10
0.815890520928388
 20
75.19415142053023
 30
0.0
 40
0.0877681497642882
100
AcDbArc
 50
34.6758439481105
 51
118.5779714566305
  0
ARC
  5
2A8
330
1F
100
AcDbEntity
  8
IGES_LEVEL_0
 62
     7
100
AcDbCircle
 10
0.4932415813761821
 20
75.81189697670045
 30
0.0
 40
0.6019131654518316
100
AcDbArc
 50
246.6365594893059
 51
270.9936283198834
  0
LINE
  5
2A9
330
1F
100
AcDbEntity
  8
IGES_LEVEL_0
 62
     7
100
AcDbLine
 10
0.2545455687984314
 20
75.25933596439165
 30
0.0
 11
0.2452347911574317
 21
75.26357619547166
 31
0.0
  0
LINE
  5
2AA
330
1F
100
AcDbEntity
  8
IGES_LEVEL_0
 62
     7
100
AcDbLine
 10
0.7699108373284316
 20
75.26947439711165
 30
0.0
 11
0.7602357084334315
 21
75.26505626381166
 31
0.0
  0
ARC
  5
2AB
330
1F
100
AcDbEntity
  8
IGES_LEVEL_0
 62
     7
100
AcDbCircle
 10
0.49916075735538
 20
75.85721830875515
 30
0.0
 40
0.6471599628778544
100
AcDbArc
 50
270.4000706633146
 51
293.7919294545221
  0
LINE
  5
2AC
330
1F
100
AcDbEntity
  8
IGES_LEVEL_0
 62
     7
100
AcDbLine
 10
0.8895097536004319
 20
75.24238055129166
 30
0.0
 11
0.8905427599254316
 21
75.24110214256166
 31
0.0
  0
LINE
  5
2AD
330
1F
100
AcDbEntity
  8
IGES_LEVEL_0
 62
     7
100
AcDbLine
 10
0.8905427599254316
 20
75.24110214256166
 30
0.0
 11
0.8985774546844316
 21
75.22936969461165
 31
0.0
  0
ARC
  5
2AE
330
1F
100
AcDbEntity
  8
IGES_LEVEL_0
 62
     7
100
AcDbCircle
 10
0.0879433964321309
 20
74.77678344704417
 30
0.0
 40
0.9284505607188263
100
AcDbArc
 50
1.214386569871351
 51
29.07882945810092
  0
LINE
  5
2AF
330
1F
100
AcDbEntity
  8
IGES_LEVEL_0
 62
     7
100
AcDbLine
 10
0.8993644929304316
 20
75.22802201793166
 30
0.0
 11
0.8985812697124318
 21
75.22936497857165
 31
0.0
  0
LINE
  5
2B0
330
1F
100
AcDbEntity
  8
IGES_LEVEL_0
 62
     7
100
AcDbLine
 10
1.016690568632432
 20
74.76769309692165
 30
0.0
 11
1.016185609490431
 21
74.79646050814165
 31
0.0
  0
ARC
  5
2B1
330
1F
100
AcDbEntity
  8
IGES_LEVEL_0
 62
     7
100
AcDbCircle
 10
0.4933177753872224
 20
74.77537106363371
 30
0.0
 40
0.5234285132318302
100
AcDbArc
 50
341.0503512938698
 51
359.1594430489001
  0
ARC
  5
2B2
330
1F
100
AcDbEntity
  8
IGES_LEVEL_0
 62
     7
100
AcDbCircle
 10
0.5246233943364655
 20
74.77422157819748
 30
0.0
 40
0.5198081544040107
100
AcDbArc
 50
181.7887293486862
 51
220.6119503145796
  0
LINE
  5
2B3
330
1F
100
AcDbEntity
  8
IGES_LEVEL_0
 62
     7
100
AcDbLine
 10
0.0050581160804321
 20
74.78693957278165
 30
0.0
 11
0.0050673636154321
 21
74.75799677775166
 31
0.0
  0
ARC
  5
2B4
330
1F
100
AcDbEntity
  8
IGES_LEVEL_0
 62
     7
100
AcDbCircle
 10
0.9337720461443638
 20
74.78230531759149
 30
0.0
 40
0.9287252830647412
100
AcDbArc
 50
151.7398825691699
 51
179.7140843354388
  0
LINE
  5
2B5
330
1F
100
AcDbEntity
  8
IGES_LEVEL_0
 62
     7
100
AcDbLine
 10
0.127769156094432
 20
75.23899240272166
 30
0.0
 11
0.1157579954184313
 21
75.22205803488166
 31
0.0
  0
LINE
  5
2B6
330
1F
100
AcDbEntity
  8
IGES_LEVEL_0
 62
     7
100
AcDbLine
 10
0.2452442005264321
 20
75.26357077583165
 30
0.0
 11
0.2422316359864316
 21
75.26491876825165
 31
0.0
  0
SPLINE
  5
2B7
330
1F
100
AcDbEntity
  8
IGES_LEVEL_0
 62
     7
100
AcDbSpline
210
0.0
220
0.0
230
1.0
 70
     8
 71
     3
 72
    20
 73
    16
 74
     0
 42
0.0000000001
 43
0.0000000001
 40
0.0
 40
0.0
 40
0.0
 40
0.0
 40
0.06156513731844
 40
0.129180192555
 40
0.1931447580213
 40
0.2593823080793
 40
0.330125342387
 40
0.4055402543654
 40
0.4843425455442
 40
0.5643112648986
 40
0.6464517359744
 40
0.7303694153927
 40
0.8172289992674
 40
0.9116950167286
 40
1.0
 40
1.0
 40
1.0
 40
1.0
 10
0.2422599810524317
 20
75.26490711123165
 30
0.0
 10
0.2398571732564318
 20
75.26593304637166
 30
0.0
 10
0.2347809014554316
 20
75.26800588730166
 30
0.0
 10
0.2270687045314321
 20
75.27078983384166
 30
0.0
 10
0.2190151576814318
 20
75.27317928578165
 30
0.0
 10
0.2106588626024314
 20
75.27493822421165
 30
0.0
 10
0.2016724601364321
 20
75.27585431041166
 30
0.0
 10
0.1921029487404319
 20
75.27566254592165
 30
0.0
 10
0.1822460939744316
 20
75.27418813342166
 30
0.0
 10
0.1723943346034315
 20
75.27135410914165
 30
0.0
 10
0.1627766521024314
 20
75.26722564629165
 30
0.0
 10
0.1534654801614319
 20
75.26184282855166
 30
0.0
 10
0.1443565351104314
 20
75.25519927579165
 30
0.0
 10
0.135788521823432
 20
75.24759404528166
 30
0.0
 10
0.1304253753474318
 20
75.24197582400166
 30
0.0
 10
0.1279460899444317
 20
75.23916483027165
 30
0.0
  0
SPLINE
  5
2B8
330
1F
100
AcDbEntity
  8
IGES_LEVEL_0
 62
     7
100
AcDbSpline
210
0.0
220
0.0
230
1.0
 70
     8
 71
     3
 72
    18
 73
    14
 74
     0
 42
0.0000000001
 43
0.0000000001
 40
0.0
 40
0.0
 40
0.0
 40
0.0
 40
0.005352321461875
 40
0.1033574112383
 40
0.2015314953125
 40
0.30001344565
 40
0.3989039225756
 40
0.4982534119632
 40
0.5980567340205
 40
0.6982543945398
 40
0.7987402772635001
 40
0.8993745205429
 40
1.0
 40
1.0
 40
1.0
 40
1.0
 10
0.2396946779194315
 20
74.47703615197165
 30
0.0
 10
0.2395083851524313
 20
74.47801010039166
 30
0.0
 10
0.2360032380494316
 20
74.49683543443166
 30
0.0
 10
0.2326540439214317
 20
74.53417320827165
 30
0.0
 10
0.2375591906274319
 20
74.58876230362165
 30
0.0
 10
0.2521039741214321
 20
74.64177313541165
 30
0.0
 10
0.2758385873534316
 20
74.69159193261166
 30
0.0
 10
0.3080335691354318
 20
74.73670633412166
 30
0.0
 10
0.3477048423174318
 20
74.77575073731165
 30
0.0
 10
0.3936427152244321
 20
74.80754620509165
 30
0.0
 10
0.4444582044254319
 20
74.83113438411166
 30
0.0
 10
0.4985908771274318
 20
74.84580444543165
 30
0.0
 10
0.5358723691974319
 20
74.84934638685166
 30
0.0
 10
0.5544892156924319
 20
74.84952659734165
 30
0.0
  0
ARC
  5
2B9
330
1F
100
AcDbEntity
  8
IGES_LEVEL_0
 62
     7
100
AcDbCircle
 10
0.5417056662852104
 20
74.55218346485171
 30
0.0
 40
0.3880060738380002
100
AcDbArc
 50
220.7014336595306
 51
229.5278382973567
  0
ARC
  5
2BA
330
1F
100
AcDbEntity
  8
IGES_LEVEL_0
 62
     7
100
AcDbCircle
 10
0.5608554188250985
 20
74.55584655647907
 30
0.0
 40
0.3880058990280516
100
AcDbArc
 50
332.130911733944
 51
340.9574167613065
  0
ARC
  5
2BB
330
1F
100
AcDbEntity
  8
IGES_LEVEL_0
 62
     7
100
AcDbCircle
 10
0.5705090499578598
 20
74.54033730725307
 30
0.0
 40
0.3041836730673462
100
AcDbArc
 50
357.7611905711365
 51
10.82112980175316
  0
ARC
  5
2BC
330
1F
100
AcDbEntity
  8
IGES_LEVEL_0
 62
     7
100
AcDbCircle
 10
0.5384054060196429
 20
74.53419104339244
 30
0.0
 40
0.3041295459100966
100
AcDbArc
 50
190.8319725463339
 51
203.9913220495768
  0
SPLINE
  5
2BD
330
1F
100
AcDbEntity
  8
IGES_LEVEL_0
 62
     7
100
AcDbSpline
210
0.0
220
0.0
230
1.0
 70
     8
 71
     3
 72
    18
 73
    14
 74
     0
 42
0.0000000001
 43
0.0000000001
 40
0.0
 40
0.0
 40
0.0
 40
0.0
 40
0.1006254794571
 40
0.2012597227365
 40
0.3017456054602
 40
0.4019432659795
 40
0.5017465880368
 40
0.6010960774244
 40
0.69998655435
 40
0.7984685046875
 40
0.8966425887617
 40
0.9946476785381
 40
1.0
 40
1.0
 40
1.0
 40
1.0
 10
20.99084378485243
 20
74.84952659734165
 30
0.0
 10
21.00946063135243
 20
74.84934638685166
 30
0.0
 10
21.04674212342243
 20
74.84580444543165
 30
0.0
 10
21.10087479612243
 20
74.83113438411166
 30
0.0
 10
21.15169028532243
 20
74.80754620509165
 30
0.0
 10
21.19762815823243
 20
74.77575073731165
 30
0.0
 10
21.23729943141243
 20
74.73670633412166
 30
0.0
 10
21.26949441319243
 20
74.69159193261166
 30
0.0
 10
21.29322902642243
 20
74.64177313541165
 30
0.0
 10
21.30777380992243
 20
74.58876230362165
 30
0.0
 10
21.31267895662244
 20
74.53417320827165
 30
0.0
 10
21.30932976249243
 20
74.49683543443166
 30
0.0
 10
21.30582461539243
 20
74.47801010039166
 30
0.0
 10
21.30563832262244
 20
74.47703615197165
 30
0.0
  0
SPLINE
  5
2BE
330
1F
100
AcDbEntity
  8
IGES_LEVEL_0
 62
     7
100
AcDbSpline
210
0.0
220
0.0
230
1.0
 70
     8
 71
     3
 72
    20
 73
    16
 74
     0
 42
0.0000000001
 43
0.0000000001
 40
0.0
 40
0.0
 40
0.0
 40
0.0
 40
0.08822758685233
 40
0.1826438435159
 40
0.269512848591
 40
0.3535033935763
 40
0.435781712985
 40
0.5159686142286
 40
0.5949864162441
 40
0.6704614490308
 40
0.7411552923966001
 40
0.807272882704
 40
0.871069743706
 40
0.9385665301308001
 40
1.0
 40
1.0
 40
1.0
 40
1.0
 10
21.41738861177243
 20
75.23916479416165
 30
0.0
 10
21.41491161562243
 20
75.24197330758165
 30
0.0
 10
21.40955274861243
 20
75.24758785416165
 30
0.0
 10
21.40098980957243
 20
75.25519084137166
 30
0.0
 10
21.39188110441243
 20
75.26183663341166
 30
0.0
 10
21.38256261308244
 20
75.26722508469166
 30
0.0
 10
21.37292805221243
 20
75.27136013266166
 30
0.0
 10
21.36305191360243
 20
75.27419712583165
 30
0.0
 10
21.35317322279244
 20
75.27566725600165
 30
0.0
 10
21.34359408008243
 20
75.27584953617165
 30
0.0
 10
21.33461343311243
 20
75.27492558581164
 30
0.0
 10
21.32627251696243
 20
75.27316464190164
 30
0.0
 10
21.31823600098243
 20
75.27077935171165
 30
0.0
 10
21.31054031681244
 20
75.26800245018166
 30
0.0
 10
21.30547380226243
 20
75.26593407827166
 30
0.0
 10
21.30307618206243
 20
75.26491037250165
 30
0.0
  0
ARC
  5
2BF
330
1F
100
AcDbEntity
  8
IGES_LEVEL_0
 62
     7
100
AcDbCircle
 10
21.04617129200234
 20
75.85721481948973
 30
0.0
 40
0.6471562679640125
100
AcDbArc
 50
246.2080809681208
 51
269.6000131362304
  0
LINE
  5
2C0
330
1F
100
AcDbEntity
  8
IGES_LEVEL_0
 62
     7
100
AcDbLine
 10
20.78509793923243
 20
75.26505610796166
 30
0.0
 11
20.77542200745243
 21
75.26947456465166
 31
0.0
  0
LINE
  5
2C1
330
1F
100
AcDbEntity
  8
IGES_LEVEL_0
 62
     7
100
AcDbLine
 10
21.30009806969243
 20
75.26357603000164
 30
0.0
 11
21.29078794337244
 21
75.25933605078166
 31
0.0
  0
ARC
  5
2C2
330
1F
100
AcDbEntity
  8
IGES_LEVEL_0
 62
     7
100
AcDbCircle
 10
21.05209058010471
 20
75.81190029742749
 30
0.0
 40
0.6019166702312185
100
AcDbArc
 50
269.0064565169402
 51
293.3634364488112
  0
LINE
  5
2C3
330
1F
100
AcDbEntity
  8
IGES_LEVEL_0
 62
     7
100
AcDbLine
 10
21.41734820272243
 20
75.23923706349166
 30
0.0
 11
21.42957510950243
 21
75.22205784958166
 31
0.0
  0
LINE
  5
2C4
330
1F
100
AcDbEntity
  8
IGES_LEVEL_0
 62
     7
100
AcDbLine
 10
21.30008859583244
 20
75.26357068040166
 30
0.0
 11
21.30310157939243
 21
75.26491886016166
 31
0.0
  0
ARC
  5
2C5
330
1F
100
AcDbEntity
  8
IGES_LEVEL_0
 62
     7
100
AcDbCircle
 10
20.6115473018721
 20
74.78230352722456
 30
0.0
 40
0.9287389786431304
100
AcDbArc
 50
0.2854771111729191
 51
28.25980269811176
  0
LINE
  5
2C6
330
1F
100
AcDbEntity
  8
IGES_LEVEL_0
 62
     7
100
AcDbLine
 10
21.54026562986243
 20
74.75799629297165
 30
0.0
 11
21.54027501558243
 21
74.78693072428166
 31
0.0
  0
ARC
  5
2C7
330
1F
100
AcDbEntity
  8
IGES_LEVEL_0
 62
     7
100
AcDbCircle
 10
21.02067164395604
 20
74.77423111658401
 30
0.0
 40
0.5198463987960561
100
AcDbArc
 50
319.5908314379614
 51
358.210297027717
  0
ARC
  5
2C8
330
1F
100
AcDbEntity
  8
IGES_LEVEL_0
 62
     7
100
AcDbCircle
 10
21.052011584936
 20
74.77536983171741
 30
0.0
 40
0.5234248555556762
100
AcDbArc
 50
180.8403924344183
 51
198.9829268024323
  0
LINE
  5
2C9
330
1F
100
AcDbEntity
  8
IGES_LEVEL_0
 62
     7
100
AcDbLine
 10
20.52914769372243
 20
74.79647009046165
 30
0.0
 11
20.52864243312244
 21
74.76769342259166
 31
0.0
  0
LINE
  5
2CA
330
1F
100
AcDbEntity
  8
IGES_LEVEL_0
 62
     7
100
AcDbLine
 10
20.64675259656243
 20
75.22936473015164
 30
0.0
 11
20.64596969492244
 21
75.22802227750165
 31
0.0
  0
ARC
  5
2CB
330
1F
100
AcDbEntity
  8
IGES_LEVEL_0
 62
     7
100
AcDbCircle
 10
21.45737414445774
 20
74.77678580212741
 30
0.0
 40
0.9284349936499911
100
AcDbArc
 50
150.920784269457
 51
178.7851480724432
  0
LINE
  5
2CC
330
1F
100
AcDbEntity
  8
IGES_LEVEL_0
 62
     7
100
AcDbLine
 10
20.65562936659243
 20
75.24214385942165
 30
0.0
 11
20.64675563436244
 21
75.22936984593166
 31
0.0
  0
SPLINE
  5
2CD
330
1F
100
AcDbEntity
  8
IGES_LEVEL_0
 62
     7
100
AcDbSpline
210
0.0
220
0.0
230
1.0
 70
     8
 71
     3
 72
    19
 73
    15
 74
     0
 42
0.0000000001
 43
0.0000000001
 40
0.0
 40
0.0
 40
0.0
 40
0.0
 40
0.07817992351914
 40
0.1613126766278
 40
0.2371019742545
 40
0.3110526793589
 40
0.3856384873354
 40
0.4620366514021
 40
0.5419390492299
 40
0.6261063816975
 40
0.7136718573524
 40
0.8037463733925
 40
0.9023483418196
 40
1.0
 40
1.0
 40
1.0
 40
1.0
 10
20.77142878053243
 20
75.27122345528166
 30
0.0
 10
20.76829044898243
 20
75.27252362559165
 30
0.0
 10
20.76175283648243
 20
75.27505921936165
 30
0.0
 10
20.75194337848243
 20
75.27823099340165
 30
0.0
 10
20.74207840704244
 20
75.28054306687164
 30
0.0
 10
20.73238642525243
 20
75.28175475682166
 30
0.0
 10
20.72258857264243
 20
75.28179118894165
 30
0.0
 10
20.71260585888243
 20
75.28054149571165
 30
0.0
 10
20.70248064839243
 20
75.27783555780165
 30
0.0
 10
20.69237348529244
 20
75.27357659589166
 30
0.0
 10
20.68256312623243
 20
75.26775561249166
 30
0.0
 10
20.67304115036243
 20
75.26040880707166
 30
0.0
 10
20.66401910111243
 20
75.25181984631166
 30
0.0
 10
20.65834386322243
 20
75.24543848951166
 30
0.0
 10
20.65565814533243
 20
75.24215282106165
 30
0.0
  0
ARC
  5
2CE
330
1F
100
AcDbEntity
  8
IGES_LEVEL_0
 62
     7
100
AcDbCircle
 10
20.97618090271173
 20
74.53982349254909
 30
0.0
 40
0.3056130635628516
100
AcDbArc
 50
138.9937871302591
 51
169.1320158203311
  0
ARC
  5
2CF
330
1F
100
AcDbEntity
  8
IGES_LEVEL_0
 62
     7
100
AcDbCircle
 10
20.98644460880935
 20
74.529274170363
 30
0.0
 40
0.3202826403905972
100
AcDbArc
 50
89.21300090968994
 51
138.7743787289442
  0
ARC
  5
2D0
330
1F
100
AcDbEntity
  8
IGES_LEVEL_0
 62
     7
100
AcDbCircle
 10
20.98447773834095
 20
74.55584663840584
 30
0.0
 40
0.3880060738106446
100
AcDbArc
 50
199.0425871253939
 51
207.8689917638759
  0
ARC
  5
2D1
330
1F
100
AcDbEntity
  8
IGES_LEVEL_0
 62
     7
100
AcDbCircle
 10
21.00362744867823
 20
74.55218333180301
 30
0.0
 40
0.3880059003335171
100
AcDbArc
 50
310.4720652162916
 51
319.2985702133893
  0
ARC
  5
2D2
330
1F
100
AcDbEntity
  8
IGES_LEVEL_0
 62
     7
100
AcDbCircle
 10
20.97482395033295
 20
74.54033730728551
 30
0.0
 40
0.3041836728097492
100
AcDbArc
 50
169.1788701951941
 51
182.2388094368761
  0
ARC
  5
2D3
330
1F
100
AcDbEntity
  8
IGES_LEVEL_0
 62
     7
100
AcDbCircle
 10
21.00692759481633
 20
74.53419104327516
 30
0.0
 40
0.3041295455991942
100
AcDbArc
 50
336.0086779485404
 51
349.168027464955
  0
SPLINE
  5
2D4
330
1F
100
AcDbEntity
  8
IGES_LEVEL_0
 62
     7
100
AcDbSpline
210
0.0
220
0.0
230
1.0
 70
     8
 71
     3
 72
    17
 73
    13
 74
     0
 42
0.0000000001
 43
0.0000000001
 40
0.0
 40
0.0
 40
0.0
 40
0.0
 40
0.05002667280088
 40
0.105835629244
 40
0.1690653274417
 40
0.2460822232003
 40
0.3396466477945
 40
0.4503913634647
 40
0.5773230697156
 40
0.7183729437143001
 40
0.8707603463268
 40
1.0
 40
1.0
 40
1.0
 40
1.0
 10
19.74732326236244
 20
71.65151021749165
 30
0.0
 10
19.74726351257243
 20
71.67173598552165
 30
0.0
 10
19.73772803376243
 20
71.71428972783166
 30
0.0
 10
19.70163474866244
 20
71.77250242591165
 30
0.0
 10
19.64793033688243
 20
71.83021484712165
 30
0.0
 10
19.57650051462243
 20
71.89110043133165
 30
0.0
 10
19.48507787448244
 20
71.95726458239165
 30
0.0
 10
19.37295027891243
 20
72.02849924119165
 30
0.0
 10
19.24081856680243
 20
72.10336378634165
 30
0.0
 10
19.09055762139244
 20
72.17973916006166
 30
0.0
 10
18.93631039768243
 20
72.24995395069166
 30
0.0
 10
18.83178798204244
 20
72.29269263767165
 30
0.0
 10
18.78348486240243
 20
72.31142279826165
 30
0.0
  0
ARC
  5
2D5
330
1F
100
AcDbEntity
  8
IGES_LEVEL_0
 62
     7
100
AcDbCircle
 10
10.8163848230532
 20
51.76644465429643
 30
0.0
 40
22.03567069156501
100
AcDbArc
 50
68.80429475436119
 51
70.99822587258323
  0
SPLINE
  5
2D6
330
1F
100
AcDbEntity
  8
IGES_LEVEL_0
 62
     7
100
AcDbSpline
210
0.0
220
0.0
230
1.0
 70
     8
 71
     3
 72
    15
 73
    11
 74
     0
 42
0.0000000001
 43
0.0000000001
 40
0.0
 40
0.0
 40
0.0
 40
0.0
 40
0.1349059089426
 40
0.2591973927781
 40
0.3793905088595
 40
0.5002961223151
 40
0.6212462438739
 40
0.7415651153302
 40
0.8658512825481
 40
1.0
 40
1.0
 40
1.0
 40
1.0
 10
17.99117288496243
 20
72.60130332168166
 30
0.0
 10
17.36366309228243
 20
72.81652899397164
 30
0.0
 10
16.15423613514243
 20
73.22268785033165
 30
0.0
 10
14.33161263065843
 20
73.63494327317166
 30
0.0
 10
12.54905115367843
 20
73.87673500603165
 30
0.0
 10
10.76807003160243
 20
73.95623016976165
 30
0.0
 10
8.986504538765432
 20
73.87589458732165
 30
0.0
 10
7.203260919395432
 20
73.63306109877166
 30
0.0
 10
5.383919945379431
 20
73.22050643593165
 30
0.0
 10
4.178172642613432
 20
72.81525353543165
 30
0.0
 10
3.554161210863432
 20
72.60129950554165
 30
0.0
  0
ARC
  5
2D7
330
1F
100
AcDbEntity
  8
IGES_LEVEL_0
 62
     7
100
AcDbCircle
 10
10.72894820860054
 20
51.76644457091853
 30
0.0
 40
22.03567078054874
100
AcDbArc
 50
109.001766158417
 51
111.1957052505733
  0
SPLINE
  5
2D8
330
1F
100
AcDbEntity
  8
IGES_LEVEL_0
 62
     7
100
AcDbSpline
210
0.0
220
0.0
230
1.0
 70
     8
 71
     3
 72
    17
 73
    13
 74
     0
 42
0.0000000001
 43
0.0000000001
 40
0.0
 40
0.0
 40
0.0
 40
0.0
 40
0.1314460844049
 40
0.2835004619081
 40
0.4242262846549
 40
0.5508474505106
 40
0.6613057664396
 40
0.7546120936284
 40
0.8314091296766
 40
0.8944777517006
 40
0.9501864269729
 40
1.0
 40
1.0
 40
1.0
 40
1.0
 10
2.761848226009432
 20
72.31142234715165
 30
0.0
 10
2.712719627521432
 20
72.29237186367166
 30
0.0
 10
2.607511895139432
 20
72.24931633104166
 30
0.0
 10
2.452736798965431
 20
72.17875299623165
 30
0.0
 10
2.302859262914431
 20
72.10247161580165
 30
0.0
 10
2.171085375258432
 20
72.02771797886166
 30
0.0
 10
2.059283766877432
 20
71.95660397181166
 30
0.0
 10
1.968148464996432
 20
71.89056144012164
 30
0.0
 10
1.896956183201432
 20
71.82978829810165
 30
0.0
 10
1.843439547330432
 20
71.77216262166166
 30
0.0
 10
1.807521745434432
 20
71.71406056170166
 30
0.0
 10
1.798068598224432
 20
71.67162695962165
 30
0.0
 10
1.798011612245432
 20
71.65148705025166
 30
0.0
  0
LINE
  5
2D9
330
1F
100
AcDbEntity
  8
IGES_LEVEL_0
 62
     7
100
AcDbLine
 10
18.10029834695244
 20
70.80253409105166
 30
0.0
 11
18.12018457072243
 21
70.79560667529165
 31
0.0
  0
SPLINE
  5
2DA
330
1F
100
AcDbEntity
  8
IGES_LEVEL_0
 62
     7
100
AcDbSpline
210
0.0
220
0.0
230
1.0
 70
     8
 71
     3
 72
    15
 73
    11
 74
     0
 42
0.0000000001
 43
0.0000000001
 40
0.0
 40
0.0
 40
0.0
 40
0.0
 40
0.1331454309841
 40
0.3216276616451
 40
0.4930833005639
 40
0.6447886791399
 40
0.7750926992173
 40
0.8840362840753
 40
0.9736563713583
 40
1.0
 40
1.0
 40
1.0
 40
1.0
 10
18.12018457072243
 20
70.79560667529165
 30
0.0
 10
18.15559973865243
 20
70.78333460919166
 30
0.0
 10
18.24141002861244
 20
70.75443819090165
 30
0.0
 10
18.37390994173244
 20
70.71303338964165
 30
0.0
 10
18.51259255522243
 20
70.67407874572166
 30
0.0
 10
18.63661041753243
 20
70.64372440251165
 30
0.0
 10
18.74454888268243
 20
70.62204816720166
 30
0.0
 10
18.83623230598244
 20
70.60880187374166
 30
0.0
 10
18.89947929391244
 20
70.60447435918165
 30
0.0
 10
18.93215800985243
 20
70.60479387632165
 30
0.0
 10
18.93957541740243
 20
70.60503686862165
 30
0.0
  0
ARC
  5
2DB
330
1F
100
AcDbEntity
  8
IGES_LEVEL_0
 62
     7
100
AcDbCircle
 10
18.93638112786117
 20
70.90682860899076
 30
0.0
 40
0.3018086447414828
100
AcDbArc
 50
270.6064197613529
 51
289.3210922910982
  0
ARC
  5
2DC
330
1F
100
AcDbEntity
  8
IGES_LEVEL_0
 62
     7
100
AcDbCircle
 10
18.98439756470705
 20
70.76669328689091
 30
0.0
 40
0.1536826582986801
100
AcDbArc
 50
289.7137902599567
 51
323.8503442969549
  0
ARC
  5
2DD
330
1F
100
AcDbEntity
  8
IGES_LEVEL_0
 62
     7
100
AcDbCircle
 10
10.80583259146442
 20
49.97058235280118
 30
0.0
 40
22.07214194533482
100
AcDbArc
 50
70.70190962907161
 51
72.90137816226391
  0
LINE
  5
2DE
330
1F
100
AcDbEntity
  8
IGES_LEVEL_0
 62
     7
100
AcDbLine
 10
16.84577193013243
 20
71.20334046532165
 30
0.0
 11
16.85086654191243
 21
71.20177435095165
 31
0.0
  0
LINE
  5
2DF
330
1F
100
AcDbEntity
  8
IGES_LEVEL_0
 62
     7
100
AcDbLine
 10
16.85086654191243
 20
71.20177435095165
 30
0.0
 11
17.29537113470244
 21
71.06717733061166
 31
0.0
  0
LINE
  5
2E0
330
1F
100
AcDbEntity
  8
IGES_LEVEL_0
 62
     7
100
AcDbLine
 10
4.249965168156231
 20
71.06718577572165
 30
0.0
 11
4.696024611663831
 21
71.20226085281166
 31
0.0
  0
LINE
  5
2E1
330
1F
100
AcDbEntity
  8
IGES_LEVEL_0
 62
     7
100
AcDbLine
 10
4.696024611663831
 20
71.20226085281166
 30
0.0
 11
4.699555384560632
 21
71.20334632926165
 31
0.0
  0
ARC
  5
2E2
330
1F
100
AcDbEntity
  8
IGES_LEVEL_0
 62
     7
100
AcDbCircle
 10
10.73950040862621
 20
49.9705823548147
 30
0.0
 40
22.07214194328111
100
AcDbArc
 50
107.098618583507
 51
109.2980904046659
  0
ARC
  5
2E3
330
1F
100
AcDbEntity
  8
IGES_LEVEL_0
 62
     7
100
AcDbCircle
 10
2.560464756090084
 20
70.76616565905789
 30
0.0
 40
0.152986149481761
100
AcDbArc
 50
216.099957711636
 51
249.6159288343026
  0
ARC
  5
2E4
330
1F
100
AcDbEntity
  8
IGES_LEVEL_0
 62
     7
100
AcDbCircle
 10
2.607919067869689
 20
70.90099371188781
 30
0.0
 40
0.2959103847558565
100
AcDbArc
 50
250.0960262590569
 51
269.1529901847073
  0
SPLINE
  5
2E5
330
1F
100
AcDbEntity
  8
IGES_LEVEL_0
 62
     7
100
AcDbSpline
210
0.0
220
0.0
230
1.0
 70
     8
 71
     3
 72
    15
 73
    11
 74
     0
 42
0.0000000001
 43
0.0000000001
 40
0.0
 40
0.0
 40
0.0
 40
0.0
 40
0.02627162677118
 40
0.1156303258516
 40
0.2243477408054
 40
0.3545276074911
 40
0.506244054601
 40
0.6778437792856
 40
0.8666082307844
 40
1.0
 40
1.0
 40
1.0
 40
1.0
 10
2.603544751411432
 20
70.60511566072165
 30
0.0
 10
2.610933190194432
 20
70.60484000877165
 30
0.0
 10
2.643483615457432
 20
70.60438631201166
 30
0.0
 10
2.706522050645432
 20
70.60851680451165
 30
0.0
 10
2.797965288127432
 20
70.62155432651166
 30
0.0
 10
2.905726005495432
 20
70.64305082700165
 30
0.0
 10
3.029650992657432
 20
70.67326243680165
 30
0.0
 10
3.168334501487431
 20
70.71211361080165
 30
0.0
 10
3.300899617128432
 20
70.75345858499165
 30
0.0
 10
3.386775601506432
 20
70.78232960117165
 30
0.0
 10
3.422225180643431
 20
70.79459445049164
 30
0.0
  0
LINE
  5
2E6
330
1F
100
AcDbEntity
  8
IGES_LEVEL_0
 62
     7
100
AcDbLine
 10
3.422225180643431
 20
70.79459445049164
 30
0.0
 11
3.445034520793432
 21
70.80253397649165
 31
0.0
  0
ARC
  5
2E7
330
1F
100
AcDbEntity
  8
IGES_LEVEL_0
 62
     7
100
AcDbCircle
 10
-71.18603902258492
 20
19.17806060203868
 30
0.0
 40
89.84631117571479
100
AcDbArc
 50
34.97271169920143
 51
35.64935165887609
  0
ARC
  5
2E8
330
1F
100
AcDbEntity
  8
IGES_LEVEL_0
 62
     7
100
AcDbCircle
 10
1.931843499945458
 20
71.62047234350938
 30
0.0
 40
0.1338313444901585
100
AcDbArc
 50
179.7209952280068
 51
215.2002982934069
  0
ARC
  5
2E9
330
1F
100
AcDbEntity
  8
IGES_LEVEL_0
 62
     7
100
AcDbCircle
 10
19.61343934251293
 20
71.62050120370283
 30
0.0
 40
0.133883800452675
100
AcDbArc
 50
324.8052138361093
 51
0.2737395674443154
  0
ARC
  5
2EA
330
1F
100
AcDbEntity
  8
IGES_LEVEL_0
 62
     7
100
AcDbCircle
 10
92.73137148075676
 20
19.17806098104644
 30
0.0
 40
89.8463105140637
100
AcDbArc
 50
144.3506483248886
 51
145.0272883153816
  0
LINE
  5
2EB
330
1F
100
AcDbEntity
  8
IGES_LEVEL_0
 62
     7
100
AcDbLine
 10
4.696044323057431
 20
71.20219649246165
 30
0.0
 11
4.699575737086531
 21
71.20327975429166
 31
0.0
  0
ARC
  5
2EC
330
1F
100
AcDbEntity
  8
IGES_LEVEL_0
 62
     7
100
AcDbCircle
 10
10.77266640042588
 20
51.4104588047974
 30
0.0
 40
20.70357919162477
100
AcDbArc
 50
72.94226816257667
 51
107.0577416319051
  0
LINE
  5
2ED
330
1F
100
AcDbEntity
  8
IGES_LEVEL_0
 62
     7
100
AcDbLine
 10
16.84575368026243
 20
71.20328079246166
 30
0.0
 11
16.85084914050243
 21
71.20171754066166
 31
0.0
  0
LINE
  5
2EE
330
1F
100
AcDbEntity
  8
IGES_LEVEL_0
 62
     7
100
AcDbLine
 10
1.777780912094432
 20
55.99764718049166
 30
0.0
 11
1.776842537064432
 21
56.02198016983166
 31
0.0
  0
LINE
  5
2EF
330
1F
100
AcDbEntity
  8
IGES_LEVEL_0
 62
     7
100
AcDbLine
 10
1.776842537064432
 20
56.02198016983166
 30
0.0
 11
1.776410756841432
 21
56.05288851041166
 31
0.0
  0
LINE
  5
2F0
330
1F
100
AcDbEntity
  8
IGES_LEVEL_0
 62
     7
100
AcDbLine
 10
2.863630759773431
 20
54.91865597994166
 30
0.0
 11
2.897009274069431
 21
54.91776324454166
 31
0.0
  0
LINE
  5
2F1
330
1F
100
AcDbEntity
  8
IGES_LEVEL_0
 62
     7
100
AcDbLine
 10
2.897009877017432
 20
54.91775827655166
 30
0.0
 11
2.924587338060432
 21
54.91742844254166
 31
0.0
  0
LINE
  5
2F2
330
1F
100
AcDbEntity
  8
IGES_LEVEL_0
 62
     7
100
AcDbLine
 10
2.924587338060432
 20
54.91742844254166
 30
0.0
 11
2.964741898732432
 21
54.91691818038166
 31
0.0
  0
LINE
  5
2F3
330
1F
100
AcDbEntity
  8
IGES_LEVEL_0
 62
     7
100
AcDbLine
 10
2.964741906001432
 20
54.91691818028166
 30
0.0
 11
3.020693917576431
 21
54.91617117030166
 31
0.0
  0
LINE
  5
2F4
330
1F
100
AcDbEntity
  8
IGES_LEVEL_0
 62
     7
100
AcDbLine
 10
3.020693917576431
 20
54.91617117030166
 30
0.0
 11
3.026422908870432
 21
54.91609345252167
 31
0.0
  0
LINE
  5
2F5
330
1F
100
AcDbEntity
  8
IGES_LEVEL_0
 62
     7
100
AcDbLine
 10
19.77328120507243
 20
56.06418737641166
 30
0.0
 11
19.74980394216243
 21
56.31117194128166
 31
0.0
  0
LINE
  5
2F6
330
1F
100
AcDbEntity
  8
IGES_LEVEL_0
 62
     7
100
AcDbLine
 10
19.74980394503243
 20
56.31117238869166
 30
0.0
 11
19.74917150289243
 21
56.31751070760166
 31
0.0
  0
LINE
  5
2F7
330
1F
100
AcDbEntity
  8
IGES_LEVEL_0
 62
     7
100
AcDbLine
 10
19.74917150289243
 20
56.31751070760166
 30
0.0
 11
18.57496652477244
 21
68.08537240723166
 31
0.0
  0
LINE
  5
2F8
330
1F
100
AcDbEntity
  8
IGES_LEVEL_0
 62
     7
100
AcDbLine
 10
18.57496652477244
 20
68.08537240723166
 30
0.0
 11
18.57445100337243
 21
68.09040355140166
 31
0.0
  0
ARC
  5
2F9
330
1F
100
AcDbEntity
  8
IGES_LEVEL_0
 62
     7
100
AcDbCircle
 10
17.57267560540557
 20
67.98407634254022
 30
0.0
 40
1.007402314527782
100
AcDbArc
 50
6.058620521695547
 51
61.88384372301483
  0
LINE
  5
2FA
330
1F
100
AcDbEntity
  8
IGES_LEVEL_0
 62
     7
100
AcDbLine
 10
18.04742462945243
 20
68.87259915456166
 30
0.0
 11
18.04367860606243
 21
68.87458561784166
 31
0.0
  0
ARC
  5
2FB
330
1F
100
AcDbEntity
  8
IGES_LEVEL_0
 62
     7
100
AcDbCircle
 10
11.95712011371663
 20
57.34361460486496
 30
0.0
 40
13.03876860684534
100
AcDbArc
 50
62.17291808415389
 51
65.40044074216817
  0
LINE
  5
2FC
330
1F
100
AcDbEntity
  8
IGES_LEVEL_0
 62
     7
100
AcDbLine
 10
17.38481784343243
 20
69.19897559210165
 30
0.0
 11
17.12764571976243
 21
69.31343538122165
 31
0.0
  0
ARC
  5
2FD
330
1F
100
AcDbEntity
  8
IGES_LEVEL_0
 62
     7
100
AcDbCircle
 10
10.9484751964029
 20
625.4015898578402
 30
0.0
 40
570.5404985879851
100
AcDbArc
 50
269.204412747495
 51
269.9825819570388
  0
LINE
  5
2FE
330
1F
100
AcDbEntity
  8
IGES_LEVEL_0
 62
     7
100
AcDbLine
 10
4.417483326910232
 20
69.31126159085166
 30
0.0
 11
4.160351805739432
 21
69.19671384154165
 31
0.0
  0
ARC
  5
2FF
330
1F
100
AcDbEntity
  8
IGES_LEVEL_0
 62
     7
100
AcDbCircle
 10
9.592360042760149
 20
57.34270823131775
 30
0.0
 40
13.03933136684089
100
AcDbArc
 50
114.6192600452733
 51
117.846639823493
  0
LINE
  5
300
330
1F
100
AcDbEntity
  8
IGES_LEVEL_0
 62
     7
100
AcDbLine
 10
3.501602940603431
 20
68.87209851948165
 30
0.0
 11
3.497858730089432
 21
68.87011138359165
 31
0.0
  0
ARC
  5
301
330
1F
100
AcDbEntity
  8
IGES_LEVEL_0
 62
     7
100
AcDbCircle
 10
3.972907333411922
 20
67.98175177663583
 30
0.0
 40
1.007399606307915
100
AcDbArc
 50
118.1355585472211
 51
173.9610327758873
  0
LINE
  5
302
330
1F
100
AcDbEntity
  8
IGES_LEVEL_0
 62
     7
100
AcDbLine
 10
2.971098215769432
 20
68.08773507059166
 30
0.0
 11
2.970584415025432
 21
68.08270362500166
 31
0.0
  0
LINE
  5
303
330
1F
100
AcDbEntity
  8
IGES_LEVEL_0
 62
     7
100
AcDbLine
 10
2.970584415025432
 20
68.08270362500166
 30
0.0
 11
1.800434354031432
 21
56.31443983111166
 31
0.0
  0
LINE
  5
304
330
1F
100
AcDbEntity
  8
IGES_LEVEL_0
 62
     7
100
AcDbLine
 10
1.800434354031432
 20
56.31443983111166
 30
0.0
 11
1.799804209790432
 21
56.30810244077166
 31
0.0
  0
LINE
  5
305
330
1F
100
AcDbEntity
  8
IGES_LEVEL_0
 62
     7
100
AcDbLine
 10
1.776411676923432
 20
56.06110941256166
 30
0.0
 11
1.799804212283432
 21
56.30810199339166
 31
0.0
  0
ARC
  5
306
330
1F
100
AcDbEntity
  8
IGES_LEVEL_0
 62
     7
100
AcDbCircle
 10
10.40640361746805
 20
625.4091282830078
 30
0.0
 40
570.5481297353854
100
AcDbArc
 50
270.0370182904355
 51
270.8151802875561
  0
LINE
  5
307
330
1F
100
AcDbEntity
  8
IGES_LEVEL_0
 62
     7
100
AcDbLine
 10
18.52364892608243
 20
54.91874390804166
 30
0.0
 11
18.56531316523243
 21
54.91931816297166
 31
0.0
  0
LINE
  5
308
330
1F
100
AcDbEntity
  8
IGES_LEVEL_0
 62
     7
100
AcDbLine
 10
18.56531316523243
 20
54.91931816297166
 30
0.0
 11
18.58533011590243
 21
54.91958973418166
 31
0.0
  0
LINE
  5
309
330
1F
100
AcDbEntity
  8
IGES_LEVEL_0
 62
     7
100
AcDbLine
 10
18.57496561235243
 20
68.07720159701165
 30
0.0
 11
18.57412811229244
 21
68.08525425848166
 31
0.0
  0
LINE
  5
30A
330
1F
100
AcDbEntity
  8
IGES_LEVEL_0
 62
     7
100
AcDbLine
 10
18.57412811229244
 20
68.08525425848166
 30
0.0
 11
18.56610402863243
 21
68.14338400732166
 31
0.0
  0
ARC
  5
30B
330
1F
100
AcDbEntity
  8
IGES_LEVEL_0
 62
     7
100
AcDbCircle
 10
17.57265998175705
 20
67.97570211508777
 30
0.0
 40
1.00749605024301
100
AcDbArc
 50
9.580565570427241
 51
58.34214720450369
  0
LINE
  5
30C
330
1F
100
AcDbEntity
  8
IGES_LEVEL_0
 62
     7
100
AcDbLine
 10
18.58533012018243
 20
54.91958973437166
 30
0.0
 11
18.65306233404243
 21
54.92045299862166
 31
0.0
  0
ARC
  5
30D
330
1F
100
AcDbEntity
  8
IGES_LEVEL_0
 62
     7
100
AcDbCircle
 10
18.63537554828221
 20
56.05823533555651
 30
0.0
 40
1.137956499869255
100
AcDbArc
 50
272.7150691841069
 51
358.632092049441
  0
LINE
  5
30E
330
1F
100
AcDbEntity
  8
IGES_LEVEL_0
 62
     7
100
AcDbLine
 10
18.65306289678243
 20
54.92045702356166
 30
0.0
 11
18.69007373494243
 21
54.92151970480166
 31
0.0
  0
ARC
  5
30F
330
1F
100
AcDbEntity
  8
IGES_LEVEL_0
 62
     7
100
AcDbCircle
 10
10.76798852514751
 20
54.61585833016743
 30
0.0
 40
16.00894533099237
100
AcDbArc
 50
89.98446226012906
 51
113.3100046234942
  0
LINE
  5
310
330
1F
100
AcDbEntity
  8
IGES_LEVEL_0
 62
     7
100
AcDbLine
 10
4.433154888688931
 20
69.31811031444165
 30
0.0
 11
4.417900951050531
 21
69.31151570747166
 31
0.0
  0
LINE
  5
311
330
1F
100
AcDbEntity
  8
IGES_LEVEL_0
 62
     7
100
AcDbLine
 10
17.12722797042243
 20
69.31368939413166
 30
0.0
 11
17.11196847127243
 21
69.32028016162165
 31
0.0
  0
ARC
  5
312
330
1F
100
AcDbEntity
  8
IGES_LEVEL_0
 62
     7
100
AcDbCircle
 10
10.78213779681992
 20
54.61571664024939
 30
0.0
 40
16.0090894407306
100
AcDbArc
 50
66.7097128869663
 51
90.03510198142075
  0
LINE
  5
313
330
1F
100
AcDbEntity
  8
IGES_LEVEL_0
 62
     7
100
AcDbLine
 10
2.897601354853431
 20
54.91783272926166
 30
0.0
 11
2.861770635486431
 21
54.91880632212166
 31
0.0
  0
ARC
  5
314
330
1F
100
AcDbEntity
  8
IGES_LEVEL_0
 62
     7
100
AcDbCircle
 10
3.97292107254954
 20
67.97337749721616
 30
0.0
 40
1.007493293327992
100
AcDbArc
 50
121.677339893531
 51
170.4390821299058
  0
LINE
  5
315
330
1F
100
AcDbEntity
  8
IGES_LEVEL_0
 62
     7
100
AcDbLine
 10
2.979422301724432
 20
68.14071825277165
 30
0.0
 11
2.971418294485432
 21
68.08258637444166
 31
0.0
  0
LINE
  5
316
330
1F
100
AcDbEntity
  8
IGES_LEVEL_0
 62
     7
100
AcDbLine
 10
2.971418294485432
 20
68.08258637444166
 30
0.0
 11
2.970583502610432
 21
68.07453281478166
 31
0.0
  0
ARC
  5
317
330
1F
100
AcDbEntity
  8
IGES_LEVEL_0
 62
     7
100
AcDbCircle
 10
2.575873605691019
 20
72.08491537049179
 30
0.0
 40
0.3054766532442225
100
AcDbArc
 50
50.49211812515029
 51
84.59041905994569
  0
SPLINE
  5
318
330
1F
100
AcDbEntity
  8
IGES_LEVEL_0
 62
     7
100
AcDbSpline
210
0.0
220
0.0
230
1.0
 70
     8
 71
     3
 72
    15
 73
    11
 74
     0
 42
0.0000000001
 43
0.0000000001
 40
0.0
 40
0.0
 40
0.0
 40
0.0
 40
0.1500880994482
 40
0.4107974853891
 40
0.6132672164988
 40
0.7666040307055
 40
0.8782026092804
 40
0.9534833987899
 40
0.9953547926612
 40
1.0
 40
1.0
 40
1.0
 40
1.0
 10
19.26894131183244
 20
55.11281562353166
 30
0.0
 10
19.27245980339243
 20
55.08886564611166
 30
0.0
 10
19.28224964304243
 20
55.02333357723166
 30
0.0
 10
19.29761869753244
 20
54.92558420947166
 30
0.0
 10
19.31425108889243
 20
54.82766570889167
 30
0.0
 10
19.32811287158243
 20
54.75326107043166
 30
0.0
 10
19.33888513270243
 20
54.70015683909166
 30
0.0
 10
19.34764923451243
 20
54.66282795233166
 30
0.0
 10
19.35186699429243
 20
54.64588648327166
 30
0.0
 10
19.35452741220243
 20
54.63727660865166
 30
0.0
 10
19.35474014778243
 20
54.63656841595167
 30
0.0
  0
SPLINE
  5
319
330
1F
100
AcDbEntity
  8
IGES_LEVEL_0
 62
     7
100
AcDbSpline
210
0.0
220
0.0
230
1.0
 70
     8
 71
     3
 72
    15
 73
    11
 74
     0
 42
0.0000000001
 43
0.0000000001
 40
0.0
 40
0.0
 40
0.0
 40
0.0
 40
0.150674312385
 40
0.411203878259
 40
0.6135339591584
 40
0.7667650117866
 40
0.8782866170535
 40
0.9535154828604
 40
0.9953579966176001
 40
1.0
 40
1.0
 40
1.0
 40
1.0
 10
2.276440226458432
 20
55.11314604013166
 30
0.0
 10
2.272906092931432
 20
55.08908585637166
 30
0.0
 10
2.263100654811431
 20
55.02344359057166
 30
0.0
 10
2.247714303013431
 20
54.92558420947166
 30
0.0
 10
2.231081911649432
 20
54.82766570889167
 30
0.0
 10
2.217220128961432
 20
54.75326107043166
 30
0.0
 10
2.206447867845431
 20
54.70015683909166
 30
0.0
 10
2.197683766033431
 20
54.66282795233166
 30
0.0
 10
2.193466006257431
 20
54.64588648327166
 30
0.0
 10
2.190805588342431
 20
54.63727660865166
 30
0.0
 10
2.190592852760432
 20
54.63656841595167
 30
0.0
  0
ARC
  5
31A
330
1F
100
AcDbEntity
  8
IGES_LEVEL_0
 62
     7
100
AcDbCircle
 10
18.96953172735065
 20
72.08480432915731
 30
0.0
 40
0.3055940253515486
100
AcDbArc
 50
95.42111942954195
 51
130.6177135207283
  0
SPLINE
  5
31B
330
1F
100
AcDbEntity
  8
IGES_LEVEL_0
 62
     7
100
AcDbSpline
210
0.0
220
0.0
230
1.0
 70
     8
 71
     3
 72
    15
 73
    11
 74
     0
 42
0.0000000001
 43
0.0000000001
 40
0.0
 40
0.0
 40
0.0
 40
0.0
 40
0.1443313438812
 40
0.3624684546053
 40
0.5407017809912
 40
0.6779756464010001
 40
0.7867668915181
 40
0.8806071670581001
 40
0.9706417987684
 40
1.0
 40
1.0
 40
1.0
 40
1.0
 10
18.57733744921243
 20
68.04190672876166
 30
0.0
 10
18.65961110657243
 20
68.04581364841165
 30
0.0
 10
18.86605580252243
 20
68.05917750226166
 30
0.0
 10
19.17287165675243
 20
68.09365229960166
 30
0.0
 10
19.47261253974244
 20
68.14902023421166
 30
0.0
 10
19.70623016904244
 20
68.21410645691165
 30
0.0
 10
19.88605156038243
 20
68.28843186495166
 30
0.0
 10
20.02769593171243
 20
68.37935882122166
 30
0.0
 10
20.11025420752243
 20
68.47129122977165
 30
0.0
 10
20.14297004749243
 20
68.53179335042165
 30
0.0
 10
20.15011228861243
 20
68.54708762124164
 30
0.0
  0
ARC
  5
31C
330
1F
100
AcDbEntity
  8
IGES_LEVEL_0
 62
     7
100
AcDbCircle
 10
19.76708539820599
 20
68.72612263416544
 30
0.0
 40
0.4228038961824412
100
AcDbArc
 50
334.9476011622615
 51
341.8272646336841
  0
ARC
  5
31D
330
1F
100
AcDbEntity
  8
IGES_LEVEL_0
 62
     7
100
AcDbCircle
 10
19.78763261649797
 20
68.71947240411305
 30
0.0
 40
0.4012074788784588
100
AcDbArc
 50
341.8144398363759
 51
349.1294611401276
  0
SPLINE
  5
31E
330
1F
100
AcDbEntity
  8
IGES_LEVEL_0
 62
     7
100
AcDbSpline
210
0.0
220
0.0
230
1.0
 70
     8
 71
     3
 72
    14
 73
    10
 74
     0
 42
0.0000000001
 43
0.0000000001
 40
0.0
 40
0.0
 40
0.0
 40
0.0
 40
0.07709703956206
 40
0.3595465392071
 40
0.6068801154806
 40
0.7917713034076001
 40
0.9179353140024
 40
0.991324501093
 40
1.0
 40
1.0
 40
1.0
 40
1.0
 10
18.31965706541243
 20
68.65925131322166
 30
0.0
 10
18.35318388919243
 20
68.65972390205165
 30
0.0
 10
18.50948910746243
 20
68.66301956218166
 30
0.0
 10
18.77260792587244
 20
68.67701543384166
 30
0.0
 10
19.08374441373243
 20
68.71432974482165
 30
0.0
 10
19.31748237488243
 20
68.75327879046165
 30
0.0
 10
19.49042914494243
 20
68.80771643553166
 30
0.0
 10
19.55734867169243
 20
68.82351540506166
 30
0.0
 10
19.60174484868243
 20
68.85190651739165
 30
0.0
 10
19.60591984871243
 20
68.85454040417164
 30
0.0
  0
ARC
  5
31F
330
1F
100
AcDbEntity
  8
IGES_LEVEL_0
 62
     7
100
AcDbCircle
 10
1.757177032178067
 20
68.7195032959845
 30
0.0
 40
0.4006993648268007
100
AcDbArc
 50
190.888989750836
 51
199.232221118641
  0
ARC
  5
320
330
1F
100
AcDbEntity
  8
IGES_LEVEL_0
 62
     7
100
AcDbCircle
 10
1.78341073998994
 20
68.72850373214433
 30
0.0
 40
0.4284337496361746
100
AcDbArc
 50
199.2130719895921
 51
206.9108838533596
  0
SPLINE
  5
321
330
1F
100
AcDbEntity
  8
IGES_LEVEL_0
 62
     7
100
AcDbSpline
210
0.0
220
0.0
230
1.0
 70
     8
 71
     3
 72
    14
 73
    10
 74
     0
 42
0.0000000001
 43
0.0000000001
 40
0.0
 40
0.0
 40
0.0
 40
0.0
 40
0.03432533811716
 40
0.1401994032738
 40
0.2543028092844
 40
0.3949614486603
 40
0.5817760825845
 40
0.82437251742
 40
1.0
 40
1.0
 40
1.0
 40
1.0
 10
1.401371408702432
 20
68.53459285783166
 30
0.0
 10
1.410006119612432
 20
68.51755956164166
 30
0.0
 10
1.449835073641432
 20
68.45028317030165
 30
0.0
 10
1.551864219060432
 20
68.35067733542167
 30
0.0
 10
1.727747737379432
 20
68.25505483518165
 30
0.0
 10
1.958738183739432
 20
68.17648563972165
 30
0.0
 10
2.266122527081432
 20
68.10952686130165
 30
0.0
 10
2.597026795420431
 20
68.06642379420165
 30
0.0
 10
2.826909455265432
 20
68.04934072118167
 30
0.0
 10
2.923556241918432
 20
68.04415284241165
 30
0.0
  0
LINE
  5
322
330
1F
100
AcDbEntity
  8
IGES_LEVEL_0
 62
     7
100
AcDbLine
 10
2.923556241918432
 20
68.04415284241165
 30
0.0
 11
2.968810559531431
 21
68.04186818119166
 31
0.0
  0
SPLINE
  5
323
330
1F
100
AcDbEntity
  8
IGES_LEVEL_0
 62
     7
100
AcDbSpline
210
0.0
220
0.0
230
1.0
 70
     8
 71
     3
 72
    15
 73
    11
 74
     0
 42
0.0000000001
 43
0.0000000001
 40
0.0
 40
0.0
 40
0.0
 40
0.0
 40
0.002452658961339
 40
0.02774818998821
 40
0.1022374087418
 40
0.2288563384853
 40
0.4133712075254
 40
0.6555819259135
 40
0.9280049659167
 40
1.0
 40
1.0
 40
1.0
 40
1.0
 10
1.926513727216432
 20
68.86084434077165
 30
0.0
 10
1.926259790843432
 20
68.86124173963165
 30
0.0
 10
1.924780753614432
 20
68.86459400402165
 30
0.0
 10
1.987084045619432
 20
68.82241446941166
 30
0.0
 10
2.060225089508432
 20
68.80625393747165
 30
0.0
 10
2.237875277954432
 20
68.75088547277166
 30
0.0
 10
2.473805266197432
 20
68.71261891138165
 30
0.0
 10
2.784210426251431
 20
68.67615713102165
 30
0.0
 10
3.043429717150432
 20
68.66277045670165
 30
0.0
 10
3.196030804779432
 20
68.65965879987166
 30
0.0
 10
3.227939596204432
 20
68.65921989713166
 30
0.0
  0
LINE
  5
324
330
1F
100
AcDbEntity
  8
IGES_LEVEL_0
 62
     7
100
AcDbLine
 10
18.66578838683243
 20
54.92089740830166
 30
0.0
 11
18.66739605807243
 21
54.91050735069166
 31
0.0
  0
SPLINE
  5
325
330
1F
100
AcDbEntity
  8
IGES_LEVEL_0
 62
     7
100
AcDbSpline
210
0.0
220
0.0
230
1.0
 70
     8
 71
     3
 72
    16
 73
    12
 74
     0
 42
0.0000000001
 43
0.0000000001
 40
0.0
 40
0.0
 40
0.0
 40
0.0
 40
0.1994978719997
 40
0.3569964740536
 40
0.4808946469897
 40
0.5789581110504
 40
0.6588580013359
 40
0.7292837076655
 40
0.8016542929248
 40
0.8899922046535
 40
1.0
 40
1.0
 40
1.0
 40
1.0
 10
18.66739605807243
 20
54.91050735069166
 30
0.0
 10
18.67421863412243
 20
54.86653545926166
 30
0.0
 10
18.68684574048243
 20
54.78791320712166
 30
0.0
 10
18.70535910555243
 20
54.68225569915166
 30
0.0
 10
18.72143124096243
 20
54.59915204330167
 30
0.0
 10
18.73572098917244
 20
54.53334847676166
 30
0.0
 10
18.74917376726243
 20
54.47959063580166
 30
0.0
 10
18.76347151214243
 20
54.43199479228166
 30
0.0
 10
18.78205521437243
 20
54.38381956260166
 30
0.0
 10
18.81093403428243
 20
54.33053519146166
 30
0.0
 10
18.83936292706243
 20
54.29605275668166
 30
0.0
 10
18.85701699661243
 20
54.27901155777166
 30
0.0
  0
ARC
  5
326
330
1F
100
AcDbEntity
  8
IGES_LEVEL_0
 62
     7
100
AcDbCircle
 10
18.08600237540459
 20
69.98509977434284
 30
0.0
 40
0.2837168809145266
100
AcDbArc
 50
162.5957320528815
 51
177.7857136956625
  0
SPLINE
  5
327
330
1F
100
AcDbEntity
  8
IGES_LEVEL_0
 62
     7
100
AcDbSpline
210
0.0
220
0.0
230
1.0
 70
     8
 71
     3
 72
    13
 73
     9
 74
     0
 42
0.0000000001
 43
0.0000000001
 40
0.0
 40
0.0
 40
0.0
 40
0.0
 40
0.09657441680359
 40
0.2321789490302
 40
0.4119908144827
 40
0.6413915939558
 40
0.924335820937
 40
1.0
 40
1.0
 40
1.0
 40
1.0
 10
17.80249734202243
 20
69.99606173415165
 30
0.0
 10
17.80070051089243
 20
69.96957772927166
 30
0.0
 10
17.79047714832243
 20
69.88279561829165
 30
0.0
 10
17.78663631147244
 20
69.75013227562165
 30
0.0
 10
17.78494503149243
 20
69.56556777596165
 30
0.0
 10
17.79162628958243
 20
69.33467279666166
 30
0.0
 10
17.80291243884243
 20
69.13788084363165
 30
0.0
 10
17.81193936836243
 20
69.01811556172166
 30
0.0
 10
17.81393785742243
 20
68.99285616357165
 30
0.0
  0
SPLINE
  5
328
330
1F
100
AcDbEntity
  8
IGES_LEVEL_0
 62
     7
100
AcDbSpline
210
0.0
220
0.0
230
1.0
 70
     8
 71
     3
 72
    14
 73
    10
 74
     0
 42
0.0000000001
 43
0.0000000001
 40
0.0
 40
0.0
 40
0.0
 40
0.0
 40
0.1031510984785
 40
0.2032050440087
 40
0.318058014991
 40
0.4646609895999
 40
0.6576236677899
 40
0.9095319369267
 40
1.0
 40
1.0
 40
1.0
 40
1.0
 10
17.29872692832243
 20
70.42475526864166
 30
0.0
 10
17.27487723204244
 20
70.39393584127166
 30
0.0
 10
17.23716896159243
 20
70.32579266457165
 30
0.0
 10
17.20288167207243
 20
70.21019491387165
 30
0.0
 10
17.18056732299243
 20
70.07523557784165
 30
0.0
 10
17.16588016475243
 20
69.90408045830165
 30
0.0
 10
17.15914985081243
 20
69.68063817967166
 30
0.0
 10
17.16192726458243
 20
69.47835567924165
 30
0.0
 10
17.16665994774243
 20
69.34908646681166
 30
0.0
 10
17.16810425012243
 20
69.31493712381166
 30
0.0
  0
LINE
  5
329
330
1F
100
AcDbEntity
  8
IGES_LEVEL_0
 62
     7
100
AcDbLine
 10
17.16810425012243
 20
69.31493712381166
 30
0.0
 11
17.16854589819243
 21
69.30463368599166
 31
0.0
  0
LINE
  5
32A
330
1F
100
AcDbEntity
  8
IGES_LEVEL_0
 62
     7
100
AcDbLine
 10
17.16854589819243
 20
69.30463368599166
 30
0.0
 11
17.16894959205244
 21
69.29544606514165
 31
0.0
  0
ARC
  5
32B
330
1F
100
AcDbEntity
  8
IGES_LEVEL_0
 62
     7
100
AcDbCircle
 10
18.96995166063827
 20
72.07400189746349
 30
0.0
 40
0.3163883870183757
100
AcDbArc
 50
0.599913668586237
 51
95.31200932976773
  0
LINE
  5
32C
330
1F
100
AcDbEntity
  8
IGES_LEVEL_0
 62
     7
100
AcDbLine
 10
2.879133090692432
 20
54.91823238828166
 30
0.0
 11
2.877936942470432
 21
54.91050735069166
 31
0.0
  0
SPLINE
  5
32D
330
1F
100
AcDbEntity
  8
IGES_LEVEL_0
 62
     7
100
AcDbSpline
210
0.0
220
0.0
230
1.0
 70
     8
 71
     3
 72
    16
 73
    12
 74
     0
 42
0.0000000001
 43
0.0000000001
 40
0.0
 40
0.0
 40
0.0
 40
0.0
 40
0.1994978719997
 40
0.3569964740535
 40
0.4808946469897
 40
0.5789581110503
 40
0.6588580013358
 40
0.7292837076655
 40
0.8016542929248
 40
0.8899922046534
 40
1.0
 40
1.0
 40
1.0
 40
1.0
 10
2.877936942470432
 20
54.91050735069166
 30
0.0
 10
2.871114366421431
 20
54.86653545926166
 30
0.0
 10
2.858487260060432
 20
54.78791320712166
 30
0.0
 10
2.839973894996432
 20
54.68225569915166
 30
0.0
 10
2.823901759584432
 20
54.59915204330167
 30
0.0
 10
2.809612011376431
 20
54.53334847676166
 30
0.0
 10
2.796159233287431
 20
54.47959063580166
 30
0.0
 10
2.781861488399432
 20
54.43199479228166
 30
0.0
 10
2.763277786169431
 20
54.38381956260166
 30
0.0
 10
2.734398966265431
 20
54.33053519146166
 30
0.0
 10
2.705970073487432
 20
54.29605275668166
 30
0.0
 10
2.688316003931432
 20
54.27901155777166
 30
0.0
  0
ARC
  5
32E
330
1F
100
AcDbEntity
  8
IGES_LEVEL_0
 62
     7
100
AcDbCircle
 10
2.575399363429238
 20
72.07397180803372
 30
0.0
 40
0.3164166792982042
100
AcDbArc
 50
84.69174471679543
 51
179.3866342095686
  0
ARC
  5
32F
330
1F
100
AcDbEntity
  8
IGES_LEVEL_0
 62
     7
100
AcDbCircle
 10
3.459330624776992
 20
69.98509977429468
 30
0.0
 40
0.2837168812793997
100
AcDbArc
 50
2.214286311221591
 51
17.40426793421355
  0
SPLINE
  5
330
330
1F
100
AcDbEntity
  8
IGES_LEVEL_0
 62
     7
100
AcDbSpline
210
0.0
220
0.0
230
1.0
 70
     8
 71
     3
 72
    13
 73
     9
 74
     0
 42
0.0000000001
 43
0.0000000001
 40
0.0
 40
0.0
 40
0.0
 40
0.0
 40
0.09633807652684
 40
0.2316107526187
 40
0.4109825762107
 40
0.6398219581057
 40
0.9220737541189
 40
1.0
 40
1.0
 40
1.0
 40
1.0
 10
3.742835658522431
 20
69.99606173415165
 30
0.0
 10
3.744632489658432
 20
69.96957772927166
 30
0.0
 10
3.754855852228431
 20
69.88279561829165
 30
0.0
 10
3.758696689069432
 20
69.75013227562165
 30
0.0
 10
3.760387969054432
 20
69.56556777596165
 30
0.0
 10
3.753706710965432
 20
69.33467279666166
 30
0.0
 10
3.742373474660431
 20
69.13705980613165
 30
0.0
 10
3.733270025488432
 20
69.01647694601166
 30
0.0
 10
3.731200457816432
 20
68.99039926098166
 30
0.0
  0
SPLINE
  5
331
330
1F
100
AcDbEntity
  8
IGES_LEVEL_0
 62
     7
100
AcDbSpline
210
0.0
220
0.0
230
1.0
 70
     8
 71
     3
 72
    14
 73
    10
 74
     0
 42
0.0000000001
 43
0.0000000001
 40
0.0
 40
0.0
 40
0.0
 40
0.0
 40
0.1029530969401
 40
0.2028149860071
 40
0.3174474933659
 40
0.4637690592944
 40
0.6563613400024
 40
0.9077860638783
 40
1.0
 40
1.0
 40
1.0
 40
1.0
 10
4.246606072221232
 20
70.42475526864166
 30
0.0
 10
4.270455768500631
 20
70.39393584127166
 30
0.0
 10
4.308164038954632
 20
70.32579266457165
 30
0.0
 10
4.342451328476632
 20
70.21019491387165
 30
0.0
 10
4.364765677549031
 20
70.07523557784165
 30
0.0
 10
4.379452835794031
 20
69.90408045830165
 30
0.0
 10
4.386183149733832
 20
69.68063817967166
 30
0.0
 10
4.383395758029132
 20
69.47762897353165
 30
0.0
 10
4.378619789988732
 20
69.34763418946164
 30
0.0
 10
4.377136376477732
 20
69.31275923730166
 30
0.0
  0
LINE
  5
332
330
1F
100
AcDbEntity
  8
IGES_LEVEL_0
 62
     7
100
AcDbLine
 10
4.377136376477732
 20
69.31275923730166
 30
0.0
 11
4.376287645548131
 21
69.29329704358165
 31
0.0
  0
SPLINE
  5
333
330
1F
100
AcDbEntity
  8
IGES_LEVEL_0
 62
     7
100
AcDbSpline
210
0.0
220
0.0
230
1.0
 70
     8
 71
     3
 72
    13
 73
     9
 74
     0
 42
0.0000000001
 43
0.0000000001
 40
0.0
 40
0.0
 40
0.0
 40
0.0
 40
0.004128491234473
 40
0.1380712982232
 40
0.3100886208576
 40
0.5120716170959
 40
0.7423255754173
 40
1.0
 40
1.0
 40
1.0
 40
1.0
 10
19.88781539711243
 20
53.36611629345166
 30
0.0
 10
19.88794679601243
 20
53.36637943005166
 30
0.0
 10
19.89186127653243
 20
53.37523566477166
 30
0.0
 10
19.85065744298243
 20
53.36998463014166
 30
0.0
 10
19.82662936220243
 20
53.38593249130166
 30
0.0
 10
19.78432476209243
 20
53.40141047220166
 30
0.0
 10
19.74388374776243
 20
53.42711008309166
 30
0.0
 10
19.71713543406244
 20
53.44885755913166
 30
0.0
 10
19.70404466042243
 20
53.46139881212167
 30
0.0
  0
ARC
  5
334
330
1F
100
AcDbEntity
  8
IGES_LEVEL_0
 62
     7
100
AcDbCircle
 10
83.56098803153179
 20
-18.84184073762729
 30
0.0
 40
102.7464746771531
100
AcDbArc
 50
134.8929682570406
 51
135.1070317423269
  0
SPLINE
  5
335
330
1F
100
AcDbEntity
  8
IGES_LEVEL_0
 62
     7
100
AcDbSpline
210
0.0
220
0.0
230
1.0
 70
     8
 71
     3
 72
     9
 73
     5
 74
     0
 42
0.0000000001
 43
0.0000000001
 40
0.0
 40
0.0
 40
0.0
 40
0.0
 40
0.7467665040871
 40
1.0
 40
1.0
 40
1.0
 40
1.0
 10
11.04410512052643
 20
53.94648079443167
 30
0.0
 10
11.05421227733843
 20
53.95485263618166
 30
0.0
 10
11.06845947231843
 20
53.96434201065166
 30
0.0
 10
11.07806321957043
 20
53.98504217418167
 30
0.0
 10
11.08266650027343
 20
53.98504217418167
 30
0.0
  0
SPLINE
  5
336
330
1F
100
AcDbEntity
  8
IGES_LEVEL_0
 62
     7
100
AcDbSpline
210
0.0
220
0.0
230
1.0
 70
     8
 71
     3
 72
     9
 73
     5
 74
     0
 42
0.0000000001
 43
0.0000000001
 40
0.0
 40
0.0
 40
0.0
 40
0.0
 40
0.2536461353476
 40
1.0
 40
1.0
 40
1.0
 40
1.0
 10
10.46266650027343
 20
53.98504217418167
 30
0.0
 10
10.46923883533443
 20
53.98504217418167
 30
0.0
 10
10.48292576488543
 20
53.95553014062166
 30
0.0
 10
10.50324066382643
 20
53.94201525727166
 30
0.0
 10
10.51763295206043
 20
53.93007572239166
 30
0.0
  0
SPLINE
  5
337
330
1F
100
AcDbEntity
  8
IGES_LEVEL_0
 62
     7
100
AcDbSpline
210
0.0
220
0.0
230
1.0
 70
     8
 71
     3
 72
    10
 73
     6
 74
     0
 42
0.0000000001
 43
0.0000000001
 40
0.0
 40
0.0
 40
0.0
 40
0.0
 40
0.2566705783735
 40
0.596635860751
 40
1.0
 40
1.0
 40
1.0
 40
1.0
 10
10.51763295206043
 20
53.93007572239166
 30
0.0
 10
10.54059765126443
 20
53.91102469849166
 30
0.0
 10
10.58942357405843
 20
53.85577572707166
 30
0.0
 10
10.67565531077943
 20
53.77338357750166
 30
0.0
 10
10.73787409567243
 20
53.70882323731166
 30
0.0
 10
10.77266650027343
 20
53.67504217418166
 30
0.0
  0
ARC
  5
338
330
1F
100
AcDbEntity
  8
IGES_LEVEL_0
 62
     7
100
AcDbCircle
 10
-1686.522118946301
 20
1774.30953864905
 30
0.0
 40
2404.657707271872
100
AcDbArc
 50
314.8880719187746
 51
314.8971500288925
  0
ARC
  5
339
330
1F
100
AcDbEntity
  8
IGES_LEVEL_0
 62
     7
100
AcDbCircle
 10
10.35990659529137
 20
70.74860998548257
 30
0.0
 40
0.1786290677787764
100
AcDbArc
 50
313.4098187259514
 51
323.1000724162396
  0
ARC
  5
33A
330
1F
100
AcDbEntity
  8
IGES_LEVEL_0
 62
     7
100
AcDbCircle
 10
20.64786804767816
 20
72.17986679090994
 30
0.0
 40
0.4185699512272336
100
AcDbArc
 50
145.7460132311472
 51
168.5763039188506
  0
SPLINE
  5
33B
330
1F
100
AcDbEntity
  8
IGES_LEVEL_0
 62
     7
100
AcDbSpline
210
0.0
220
0.0
230
1.0
 70
     8
 71
     3
 72
    17
 73
    13
 74
     0
 42
0.0000000001
 43
0.0000000001
 40
0.0
 40
0.0
 40
0.0
 40
0.0
 40
0.1727822419064
 40
0.3264068767294
 40
0.4632024983707
 40
0.585332731423
 40
0.6936870831033
 40
0.7872459794246
 40
0.8527966449563
 40
0.8741140285361
 40
0.9290438897378001
 40
1.0
 40
1.0
 40
1.0
 40
1.0
 10
20.30189880925244
 20
72.41546409593165
 30
0.0
 10
20.30934533422244
 20
72.42654447500166
 30
0.0
 10
20.32433319720244
 20
72.44685911589166
 30
0.0
 10
20.34779136200243
 20
72.47387988793165
 30
0.0
 10
20.37050860621243
 20
72.49638069604166
 30
0.0
 10
20.39133870313243
 20
72.51521573712165
 30
0.0
 10
20.41234356780243
 20
72.53060982375166
 30
0.0
 10
20.42491160734243
 20
72.54344152185166
 30
0.0
 10
20.44438536602243
 20
72.55077849688166
 30
0.0
 10
20.43646785512243
 20
72.56156635472166
 30
0.0
 10
20.42372547232243
 20
72.55597169220165
 30
0.0
 10
20.41472065309243
 20
72.55515964348166
 30
0.0
 10
20.40944638704243
 20
72.55367158678166
 30
0.0
  0
ARC
  5
33C
330
1F
100
AcDbEntity
  8
IGES_LEVEL_0
 62
     7
100
AcDbCircle
 10
12.49435969843203
 20
71.94411933239326
 30
0.0
 40
1.950907208331713
100
AcDbArc
 50
221.302200046322
 51
222.7869394405755
  0
ARC
  5
33D
330
1F
100
AcDbEntity
  8
IGES_LEVEL_0
 62
     7
100
AcDbCircle
 10
34.75926295427277
 20
94.8577895634441
 30
0.0
 40
33.89455638622328
100
AcDbArc
 50
224.9533025344919
 51
225.5627908552158
  0
SPLINE
  5
33E
330
1F
100
AcDbEntity
  8
IGES_LEVEL_0
 62
     7
100
AcDbSpline
210
0.0
220
0.0
230
1.0
 70
     8
 71
     3
 72
    17
 73
    13
 74
     0
 42
0.0000000001
 43
0.0000000001
 40
0.0
 40
0.0
 40
0.0
 40
0.0
 40
0.0144367981441
 40
0.2019825505733
 40
0.3671729954671
 40
0.5124074266884
 40
0.6407956341258
 40
0.7550055166448
 40
0.8563159129692
 40
0.9396031300785001
 40
0.9890396094497
 40
1.0
 40
1.0
 40
1.0
 40
1.0
 10
1.841284530066432
 20
53.46138551761166
 30
0.0
 10
1.840532742743432
 20
53.46066073429167
 30
0.0
 10
1.829968992119432
 20
53.45056807780166
 30
0.0
 10
1.809617983229432
 20
53.43344225666166
 30
0.0
 10
1.779654855312432
 20
53.41334561121166
 30
0.0
 10
1.751806070104432
 20
53.39820840773166
 30
0.0
 10
1.725899112332432
 20
53.38688694351166
 30
0.0
 10
1.703160786110432
 20
53.37857480241166
 30
0.0
 10
1.680263620136432
 20
53.37246057884166
 30
0.0
 10
1.669398862817432
 20
53.36895675452166
 30
0.0
 10
1.649436672931432
 20
53.36613722928166
 30
0.0
 10
1.653712564751432
 20
53.36536982786166
 30
0.0
 10
1.654618612780432
 20
53.36525967651166
 30
0.0
  0
SPLINE
  5
33F
330
1F
100
AcDbEntity
  8
IGES_LEVEL_0
 62
     7
100
AcDbSpline
210
0.0
220
0.0
230
1.0
 70
     8
 71
     3
 72
    18
 73
    14
 74
     0
 42
0.0000000001
 43
0.0000000001
 40
0.0
 40
0.0
 40
0.0
 40
0.0
 40
0.07145021486723
 40
0.1264549217708
 40
0.1483939909805
 40
0.2015964254659
 40
0.2810738646015
 40
0.3758633089296
 40
0.4842679037125
 40
0.6050771204881
 40
0.7398010931249001
 40
0.8902929750701
 40
1.0
 40
1.0
 40
1.0
 40
1.0
 10
1.135886682448432
 20
72.55367156984165
 30
0.0
 10
1.130667079721432
 20
72.55514420409165
 30
0.0
 10
1.121378844304432
 20
72.55623475916165
 30
0.0
 10
1.109955114071431
 20
72.56094086933166
 30
0.0
 10
1.100391491273432
 20
72.55305282271166
 30
0.0
 10
1.116738738635432
 20
72.54528324055166
 30
0.0
 10
1.127153271011432
 20
72.53526164692165
 30
0.0
 10
1.145419597484432
 20
72.52208091007165
 30
0.0
 10
1.163854740659432
 20
72.50630020631166
 30
0.0
 10
1.184212410469432
 20
72.48745447620166
 30
0.0
 10
1.205431862471432
 20
72.46511709998165
 30
0.0
 10
1.224590848590432
 20
72.44201794767164
 30
0.0
 10
1.236210786729431
 20
72.42603227659166
 30
0.0
 10
1.240922878232432
 20
72.41916382797166
 30
0.0
  0
ARC
  5
340
330
1F
100
AcDbEntity
  8
IGES_LEVEL_0
 62
     7
100
AcDbCircle
 10
0.8964404763251535
 20
72.17951287497623
 30
0.0
 40
0.4196435445654167
100
AcDbArc
 50
11.42685703637616
 51
34.82572443667454
  0
ARC
  5
341
330
1F
100
AcDbEntity
  8
IGES_LEVEL_0
 62
     7
100
AcDbCircle
 10
2.914332957824659
 20
56.05562151323539
 30
0.0
 40
1.138029690507476
100
AcDbArc
 50
182.9200748517482
 51
267.3527307458809
  0
ENDSEC
  0
SECTION
  2
OBJECTS
  0
DICTIONARY
  5
C
330
0
100
AcDbDictionary
  3
ACAD_GROUP
350
D
  3
ACAD_LAYOUT
350
1A
  3
ACAD_MLINESTYLE
350
17
  3
ACAD_PLOTSETTINGS
350
19
  3
ACDBHEADERROUNDTRIPXREC
350
342
  0
DICTIONARY
  5
362
330
29
100
AcDbDictionary
280
     1
  3
ACAD_XREC_ROUNDTRIP
360
363
  0
DICTIONARY
  5
D
102
{ACAD_REACTORS
330
C
102
}
330
C
100
AcDbDictionary
  0
DICTIONARY
  5
1A
102
{ACAD_REACTORS
330
C
102
}
330
C
100
AcDbDictionary
  0
DICTIONARY
  5
17
102
{ACAD_REACTORS
330
C
102
}
330
C
100
AcDbDictionary
  3
STANDARD
350
18
  0
DICTIONARY
  5
19
102
{ACAD_REACTORS
330
C
102
}
330
C
100
AcDbDictionary
  0
DICTIONARY
  5
342
102
{ACAD_REACTORS
330
C
102
}
330
C
100
AcDbDictionary
  3
CEPSNTYPE
350
34B
  3
DIMSTYLEDATA
350
361
  3
FINGERPRINTGUID
350
34C
  3
HYPERLINKBASE
350
345
  3
INSUNITS
350
34A
  3
LAYOUTDICT
350
347
  3
LWETCUNION
350
349
  3
PLOTSETDICT
350
348
  3
PSVPSCALE
350
34E
  3
PUCSBASE
350
351
  3
PUCSORGBACK
350
357
  3
PUCSORGBOTTOM
350
353
  3
PUCSORGFRONT
350
356
  3
PUCSORGLEFT
350
354
  3
PUCSORGRIGHT
350
355
  3
PUCSORGTOP
350
352
  3
PUCSORTHOREF
350
34F
  3
PUCSORTHOVIEW
350
350
  3
STYLESHEET
350
346
  3
TSTACKALIGN
350
343
  3
TSTACKSIZE
350
344
  3
UCSBASE
350
35A
  3
UCSORGBACK
350
360
  3
UCSORGBOTTOM
350
35C
  3
UCSORGFRONT
350
35F
  3
UCSORGLEFT
350
35D
  3
UCSORGRIGHT
350
35E
  3
UCSORGTOP
350
35B
  3
UCSORTHOREF
350
358
  3
UCSORTHOVIEW
350
359
  3
VERSIONGUID
350
34D
  0
XRECORD
  5
363
102
{ACAD_REACTORS
330
362
102
}
330
362
100
AcDbXrecord
102
UCS
 74
     0
 71
     1
 10
0.0
 20
0.0
 30
0.0
 10
1.0
 20
0.0
 30
0.0
 10
0.0
 20
1.0
 30
0.0
146
0.0
 79
     0
102
VIEW
281
     0
  0
MLINESTYLE
  5
18
102
{ACAD_REACTORS
330
17
102
}
330
17
100
AcDbMlineStyle
  2
Standard
 70
     0
  3

 62
   256
 51
90.0
 52
90.0
 71
     2
 49
0.5
 62
   256
  6
BYLAYER
 49
-0.5
 62
   256
  6
BYLAYER
  0
XRECORD
  5
34B
102
{ACAD_REACTORS
330
342
102
}
330
342
100
AcDbXrecord
 90
        0
  0
XRECORD
  5
361
102
{ACAD_REACTORS
330
342
102
}
330
342
100
AcDbXrecord
1000
DSTYLE
1002
{
1070
   340
340
11
1002
}
  0
XRECORD
  5
34C
102
{ACAD_REACTORS
330
342
102
}
330
342
100
AcDbXrecord
  1
{FAEB1C30-E019-11D5-929B-00C0DF256EC4}
  0
XRECORD
  5
345
102
{ACAD_REACTORS
330
342
102
}
330
342
100
AcDbXrecord
  1

  0
XRECORD
  5
34A
102
{ACAD_REACTORS
330
342
102
}
330
342
100
AcDbXrecord
 90
        1
  0
XRECORD
  5
347
102
{ACAD_REACTORS
330
342
102
}
330
342
100
AcDbXrecord
340
1A
  0
XRECORD
  5
349
102
{ACAD_REACTORS
330
342
102
}
330
342
100
AcDbXrecord
 90
     2560
  0
XRECORD
  5
348
102
{ACAD_REACTORS
330
342
102
}
330
342
100
AcDbXrecord
340
19
  0
XRECORD
  5
34E
102
{ACAD_REACTORS
330
342
102
}
330
342
100
AcDbXrecord
 40
0.0
  0
XRECORD
  5
351
102
{ACAD_REACTORS
330
342
102
}
330
342
100
AcDbXrecord
340
0
  0
XRECORD
  5
357
102
{ACAD_REACTORS
330
342
102
}
330
342
100
AcDbXrecord
 10
0.0
 20
0.0
 30
0.0
  0
XRECORD
  5
353
102
{ACAD_REACTORS
330
342
102
}
330
342
100
AcDbXrecord
 10
0.0
 20
0.0
 30
0.0
  0
XRECORD
  5
356
102
{ACAD_REACTORS
330
342
102
}
330
342
100
AcDbXrecord
 10
0.0
 20
0.0
 30
0.0
  0
XRECORD
  5
354
102
{ACAD_REACTORS
330
342
102
}
330
342
100
AcDbXrecord
 10
0.0
 20
0.0
 30
0.0
  0
XRECORD
  5
355
102
{ACAD_REACTORS
330
342
102
}
330
342
100
AcDbXrecord
 10
0.0
 20
0.0
 30
0.0
  0
XRECORD
  5
352
102
{ACAD_REACTORS
330
342
102
}
330
342
100
AcDbXrecord
 10
0.0
 20
0.0
 30
0.0
  0
XRECORD
  5
34F
102
{ACAD_REACTORS
330
342
102
}
330
342
100
AcDbXrecord
340
0
  0
XRECORD
  5
350
102
{ACAD_REACTORS
330
342
102
}
330
342
100
AcDbXrecord
 70
     0
  0
XRECORD
  5
346
102
{ACAD_REACTORS
330
342
102
}
330
342
100
AcDbXrecord
  1

  0
XRECORD
  5
343
102
{ACAD_REACTORS
330
342
102
}
330
342
100
AcDbXrecord
 90
        1
  0
XRECORD
  5
344
102
{ACAD_REACTORS
330
342
102
}
330
342
100
AcDbXrecord
 90
       70
  0
XRECORD
  5
35A
102
{ACAD_REACTORS
330
342
102
}
330
342
100
AcDbXrecord
340
0
  0
XRECORD
  5
360
102
{ACAD_REACTORS
330
342
102
}
330
342
100
AcDbXrecord
 10
0.0
 20
0.0
 30
0.0
  0
XRECORD
  5
35C
102
{ACAD_REACTORS
330
342
102
}
330
342
100
AcDbXrecord
 10
0.0
 20
0.0
 30
0.0
  0
XRECORD
  5
35F
102
{ACAD_REACTORS
330
342
102
}
330
342
100
AcDbXrecord
 10
0.0
 20
0.0
 30
0.0
  0
XRECORD
  5
35D
102
{ACAD_REACTORS
330
342
102
}
330
342
100
AcDbXrecord
 10
0.0
 20
0.0
 30
0.0
  0
XRECORD
  5
35E
102
{ACAD_REACTORS
330
342
102
}
330
342
100
AcDbXrecord
 10
0.0
 20
0.0
 30
0.0
  0
XRECORD
  5
35B
102
{ACAD_REACTORS
330
342
102
}
330
342
100
AcDbXrecord
 10
0.0
 20
0.0
 30
0.0
  0
XRECORD
  5
358
102
{ACAD_REACTORS
330
342
102
}
330
342
100
AcDbXrecord
340
0
  0
XRECORD
  5
359
102
{ACAD_REACTORS
330
342
102
}
330
342
100
AcDbXrecord
 70
     0
  0
XRECORD
  5
34D
102
{ACAD_REACTORS
330
342
102
}
330
342
100
AcDbXrecord
  1
{FAEB1C32-E019-11D5-929B-00C0DF256EC4}
  0
ENDSEC
  0
EOF
